  0
SECTION
  2
HEADER
  9
$ACADVER
  1
AC1012
  9
$DWGCODEPAGE
  3
ansi_932
  9
$INSBASE
 10
0.0
 20
0.0
 30
0.0
  9
$EXTMIN
 10
165.1116532105904
 20
-729.7205502621448
 30
0.0
  9
$EXTMAX
 10
791.6116533149267
 20
-467.2524337852994
 30
0.0
  9
$LIMMIN
 10
0.0
 20
0.0
  9
$LIMMAX
 10
420.0
 20
297.0
  9
$ORTHOMODE
 70
     0
  9
$REGENMODE
 70
     1
  9
$FILLMODE
 70
     1
  9
$QTEXTMODE
 70
     0
  9
$MIRRTEXT
 70
     0
  9
$DRAGMODE
 70
     2
  9
$LTSCALE
 40
0.5
  9
$OSMODE
 70
 14591
  9
$ATTMODE
 70
     1
  9
$TEXTSIZE
 40
4.0
  9
$TRACEWID
 40
1.0
  9
$TEXTSTYLE
  7
STANDARD
  9
$CLAYER
  8
1TEXT
  9
$CELTYPE
  6
BYLAYER
  9
$CECOLOR
 62
   256
  9
$CELTSCALE
 40
1.0
  9
$DELOBJ
 70
     1
  9
$DISPSILH
 70
     0
  9
$DIMSCALE
 40
1.0
  9
$DIMASZ
 40
2.0
  9
$DIMEXO
 40
0.0
  9
$DIMDLI
 40
7.0
  9
$DIMRND
 40
0.0
  9
$DIMDLE
 40
0.0
  9
$DIMEXE
 40
1.0
  9
$DIMTP
 40
0.0
  9
$DIMTM
 40
0.0
  9
$DIMTXT
 40
3.5
  9
$DIMCEN
 40
0.0
  9
$DIMTSZ
 40
0.0
  9
$DIMTOL
 70
     0
  9
$DIMLIM
 70
     0
  9
$DIMTIH
 70
     0
  9
$DIMTOH
 70
     0
  9
$DIMSE1
 70
     0
  9
$DIMSE2
 70
     0
  9
$DIMTAD
 70
     1
  9
$DIMZIN
 70
     8
  9
$DIMBLK
  1

  9
$DIMASO
 70
     1
  9
$DIMSHO
 70
     1
  9
$DIMPOST
  1
 
  9
$DIMAPOST
  1

  9
$DIMALT
 70
     0
  9
$DIMALTD
 70
     2
  9
$DIMALTF
 40
25.4
  9
$DIMLFAC
 40
1.0
  9
$DIMTOFL
 70
     1
  9
$DIMTVP
 40
0.0
  9
$DIMTIX
 70
     0
  9
$DIMSOXD
 70
     0
  9
$DIMSAH
 70
     1
  9
$DIMBLK1
  1
OPEN30
  9
$DIMBLK2
  1
OPEN30
  9
$DIMSTYLE
  2
NEWX10
  9
$DIMCLRD
 70
   256
  9
$DIMCLRE
 70
   256
  9
$DIMCLRT
 70
   201
  9
$DIMTFAC
 40
0.7
  9
$DIMGAP
 40
0.7
  9
$DIMJUST
 70
     0
  9
$DIMSD1
 70
     0
  9
$DIMSD2
 70
     0
  9
$DIMTOLJ
 70
     1
  9
$DIMTZIN
 70
     8
  9
$DIMALTZ
 70
     0
  9
$DIMALTTZ
 70
     0
  9
$DIMFIT
 70
     3
  9
$DIMUPT
 70
     0
  9
$DIMUNIT
 70
     2
  9
$DIMDEC
 70
     2
  9
$DIMTDEC
 70
     4
  9
$DIMALTU
 70
     2
  9
$DIMALTTD
 70
     2
  9
$DIMTXSTY
  7
STANDARD
  9
$DIMAUNIT
 70
     0
  9
$LUNITS
 70
     2
  9
$LUPREC
 70
     4
  9
$SKETCHINC
 40
1.0
  9
$FILLETRAD
 40
0.0
  9
$AUNITS
 70
     0
  9
$AUPREC
 70
     2
  9
$MENU
  1
acad
  9
$ELEVATION
 40
0.0
  9
$PELEVATION
 40
0.0
  9
$THICKNESS
 40
0.0
  9
$LIMCHECK
 70
     0
  9
$CHAMFERA
 40
1.0
  9
$CHAMFERB
 40
1.0
  9
$CHAMFERC
 40
20.0
  9
$CHAMFERD
 40
0.0
  9
$SKPOLY
 70
     0
  9
$TDCREATE
 40
2453033.732663484
  9
$TDUPDATE
 40
2458277.545017743
  9
$TDINDWG
 40
2.3909172222
  9
$TDUSRTIMER
 40
2.3909172222
  9
$USRTIMER
 70
     1
  9
$ANGBASE
 50
0.0
  9
$ANGDIR
 70
     0
  9
$PDMODE
 70
     0
  9
$PDSIZE
 40
0.0
  9
$PLINEWID
 40
0.0
  9
$COORDS
 70
     2
  9
$SPLFRAME
 70
     0
  9
$SPLINETYPE
 70
     6
  9
$SPLINESEGS
 70
     8
  9
$ATTDIA
 70
     0
  9
$ATTREQ
 70
     1
  9
$HANDLING
 70
     1
  9
$HANDSEED
  5
22E2B
  9
$SURFTAB1
 70
     6
  9
$SURFTAB2
 70
     6
  9
$SURFTYPE
 70
     6
  9
$SURFU
 70
     6
  9
$SURFV
 70
     6
  9
$UCSNAME
  2

  9
$UCSORG
 10
0.0
 20
0.0
 30
0.0
  9
$UCSXDIR
 10
1.0
 20
0.0
 30
0.0
  9
$UCSYDIR
 10
0.0
 20
1.0
 30
0.0
  9
$PUCSNAME
  2

  9
$PUCSORG
 10
0.0
 20
0.0
 30
0.0
  9
$PUCSXDIR
 10
1.0
 20
0.0
 30
0.0
  9
$PUCSYDIR
 10
0.0
 20
1.0
 30
0.0
  9
$USERI1
 70
     0
  9
$USERI2
 70
     0
  9
$USERI3
 70
     0
  9
$USERI4
 70
     0
  9
$USERI5
 70
     0
  9
$USERR1
 40
0.0
  9
$USERR2
 40
0.0
  9
$USERR3
 40
0.0
  9
$USERR4
 40
0.0
  9
$USERR5
 40
0.0
  9
$WORLDVIEW
 70
     1
  9
$SHADEDGE
 70
     3
  9
$SHADEDIF
 70
    70
  9
$TILEMODE
 70
     1
  9
$MAXACTVP
 70
    48
  9
$PINSBASE
 10
0.0
 20
0.0
 30
0.0
  9
$PLIMCHECK
 70
     0
  9
$PEXTMIN
 10
1.000000000000000E+20
 20
1.000000000000000E+20
 30
1.000000000000000E+20
  9
$PEXTMAX
 10
-1.000000000000000E+20
 20
-1.000000000000000E+20
 30
-1.000000000000000E+20
  9
$PLIMMIN
 10
0.0
 20
0.0
  9
$PLIMMAX
 10
420.0
 20
297.0
  9
$UNITMODE
 70
     0
  9
$VISRETAIN
 70
     1
  9
$PLINEGEN
 70
     0
  9
$PSLTSCALE
 70
     1
  9
$TREEDEPTH
 70
  3020
  9
$PICKSTYLE
 70
     1
  9
$CMLSTYLE
  2
STANDARD
  9
$CMLJUST
 70
     0
  9
$CMLSCALE
 40
20.0
  9
$SAVEIMAGES
 70
     1
  0
ENDSEC
  0
SECTION
  2
CLASSES
  0
CLASS
  1
DICTIONARYVAR
  2
AcDbDictionaryVar
  3
ObjectDBX Classes
 90
        0
280
     0
281
     0
  0
CLASS
  1
IDBUFFER
  2
AcDbIdBuffer
  3
ObjectDBX Classes
 90
    32768
280
     0
281
     0
  0
CLASS
  1
LWPOLYLINE
  2
AcDbPolyline
  3
ObjectDBX Classes
 90
    32768
280
     0
281
     1
  0
CLASS
  1
ACDBDICTIONARYWDFLT
  2
AcDbDictionaryWithDefault
  3
ObjectDBX Classes
 90
    32768
280
     0
281
     0
  0
CLASS
  1
ACDBPLACEHOLDER
  2
AcDbPlaceHolder
  3
ObjectDBX Classes
 90
        0
280
     0
281
     0
  0
CLASS
  1
LAYOUT
  2
AcDbLayout
  3
ObjectDBX Classes
 90
        0
280
     0
281
     0
  0
CLASS
  1
TABLESTYLE
  2
AcDbTableStyle
  3
ObjectDBX Classes
 90
     4095
280
     0
281
     0
  0
CLASS
  1
SORTENTSTABLE
  2
AcDbSortentsTable
  3
ObjectDBX Classes
 90
    32768
280
     0
281
     0
  0
CLASS
  1
DIMASSOC
  2
AcDbDimAssoc
  3
"AcDbDimAssoc|Product Desc:     AcDim ARX App For Dimension|Company:          Autodesk, Inc.|WEB Address:      www.autodesk.com"
 90
        0
280
     0
281
     0
  0
CLASS
  1
MATERIAL
  2
AcDbMaterial
  3
ObjectDBX Classes
 90
     1153
280
     0
281
     0
  0
CLASS
  1
VISUALSTYLE
  2
AcDbVisualStyle
  3
ObjectDBX Classes
 90
     4095
280
     0
281
     0
  0
CLASS
  1
SCALE
  2
AcDbScale
  3
ObjectDBX Classes
 90
     1153
280
     0
281
     0
  0
CLASS
  1
MLEADERSTYLE
  2
AcDbMLeaderStyle
  3
ACDB_MLEADERSTYLE_CLASS
 90
     4095
280
     0
281
     0
  0
CLASS
  1
CELLSTYLEMAP
  2
AcDbCellStyleMap
  3
ObjectDBX Classes
 90
     1152
280
     0
281
     0
  0
CLASS
  1
EXACXREFPANELOBJECT
  2
ExAcXREFPanelObject
  3
EXAC_ESW
 90
     1025
280
     1
281
     0
  0
CLASS
  1
NPOCOLLECTION
  2
AcDbImpNonPersistentObjectsCollection
  3
ObjectDBX Classes
 90
     1153
280
     1
281
     0
  0
CLASS
  1
SUN
  2
AcDbSun
  3
SCENEOE
 90
     1153
280
     0
281
     0
  0
CLASS
  1
XRECORD
  2
AcDbXrecord
  3
ObjectDBX Classes
 90
    32768
280
     0
281
     0
  0
CLASS
  1
HATCH
  2
AcDbHatch
  3
ObjectDBX Classes
 90
    32768
280
     0
281
     1
  0
ENDSEC
  0
SECTION
  2
TABLES
  0
TABLE
  2
VPORT
  5
8
330
0
100
AcDbSymbolTable
 70
     1
  0
VPORT
  5
19DC2
330
8
100
AcDbSymbolTableRecord
100
AcDbViewportTableRecord
  2
*ACTIVE
 70
     0
 10
0.0
 20
0.0
 11
1.0
 21
1.0
 12
478.3616532627586
 22
-598.4864920237221
 13
0.0
 23
0.0
 14
10.0
 24
10.0
 15
10.0
 25
10.0
 16
0.0
 26
0.0
 36
1.0
 17
0.0
 27
0.0
 37
0.0
 40
352.9768099875362
 41
1.905686546463246
 42
50.0
 43
0.0
 44
0.0
 50
0.0
 51
0.0
 71
    16
 72
  1000
 73
     1
 74
     1
 75
     0
 76
     0
 77
     0
 78
     0
1001
ACAD_NAV_VCDISPLAY
1070
     3
  0
ENDTAB
  0
TABLE
  2
LTYPE
  5
5
330
0
100
AcDbSymbolTable
 70
     3
  0
LTYPE
  5
12
330
5
100
AcDbSymbolTableRecord
100
AcDbLinetypeTableRecord
  2
BYBLOCK
 70
     0
  3

 72
    65
 73
     0
 40
0.0
  0
LTYPE
  5
13
330
5
100
AcDbSymbolTableRecord
100
AcDbLinetypeTableRecord
  2
BYLAYER
 70
     0
  3

 72
    65
 73
     0
 40
0.0
  0
LTYPE
  5
14
330
5
100
AcDbSymbolTableRecord
100
AcDbLinetypeTableRecord
  2
CONTINUOUS
 70
     0
  3
Solid line
 72
    65
 73
     0
 40
0.0
  0
LTYPE
  5
100
330
5
100
AcDbSymbolTableRecord
100
AcDbLinetypeTableRecord
  2
PHANTOM2
 70
     0
  3
Phantom (0.5x) ___ _ _ ___ _ _ ___ _ _ ___ _ _
 72
    65
 73
     6
 40
31.75
 49
15.875
 74
     0
 49
-3.175
 74
     0
 49
3.175
 74
     0
 49
-3.175
 74
     0
 49
3.175
 74
     0
 49
-3.175
 74
     0
  0
LTYPE
  5
217F6
330
5
100
AcDbSymbolTableRecord
100
AcDbLinetypeTableRecord
  2
CENTER2
 70
     0
  3
Center (.5x) ___ _ ___ _ ___ _ ___ _ ___ _ ___
 72
    65
 73
     4
 40
28.575
 49
19.05
 74
     0
 49
-3.175
 74
     0
 49
3.175
 74
     0
 49
-3.175
 74
     0
  0
ENDTAB
  0
TABLE
  2
LAYER
  5
2
102
{ACAD_XDICTIONARY
360
18FE8
102
}
330
0
100
AcDbSymbolTable
 70
     8
  0
LAYER
  5
E
102
{ACAD_XDICTIONARY
360
1A20A
102
}
330
2
100
AcDbSymbolTableRecord
100
AcDbLayerTableRecord
  2
0
 70
     0
 62
     7
  6
CONTINUOUS
  0
LAYER
  5
29
102
{ACAD_XDICTIONARY
360
1A20C
102
}
330
2
100
AcDbSymbolTableRecord
100
AcDbLayerTableRecord
  2
1CENTER
 70
     0
 62
     7
  6
CENTER2
  0
LAYER
  5
31
102
{ACAD_XDICTIONARY
360
1A20E
102
}
330
2
100
AcDbSymbolTableRecord
100
AcDbLayerTableRecord
  2
1TEXT
 70
     0
 62
     7
  6
CONTINUOUS
  0
LAYER
  5
101
102
{ACAD_XDICTIONARY
360
1A218
102
}
330
2
100
AcDbSymbolTableRecord
100
AcDbLayerTableRecord
  2
1DIM
 70
     0
 62
     7
  6
CONTINUOUS
  0
LAYER
  5
103
102
{ACAD_XDICTIONARY
360
1A21C
102
}
330
2
100
AcDbSymbolTableRecord
100
AcDbLayerTableRecord
  2
1PHANTOM
 70
     0
 62
     7
  6
PHANTOM2
  0
LAYER
  5
26A
102
{ACAD_XDICTIONARY
360
1A236
102
}
330
2
100
AcDbSymbolTableRecord
100
AcDbLayerTableRecord
  2
1DIM1
 70
     0
 62
     7
  6
CONTINUOUS
  0
LAYER
  5
21114
330
2
100
AcDbSymbolTableRecord
100
AcDbLayerTableRecord
  2
1HATCH
 70
     0
 62
     7
  6
CONTINUOUS
  0
LAYER
  5
2217A
102
{ACAD_XDICTIONARY
360
2217B
102
}
330
2
100
AcDbSymbolTableRecord
100
AcDbLayerTableRecord
  2
01
 70
     0
 62
     1
  6
CONTINUOUS
  0
ENDTAB
  0
TABLE
  2
STYLE
  5
3
330
0
100
AcDbSymbolTable
 70
     1
  0
STYLE
  5
F
330
3
100
AcDbSymbolTableRecord
100
AcDbTextStyleTableRecord
  2
STANDARD
 70
     0
 40
0.0
 41
1.0
 50
0.0
 71
     0
 42
4.0
  3
txt.shx
  4
extfont.shx
  0
ENDTAB
  0
TABLE
  2
VIEW
  5
6
330
0
100
AcDbSymbolTable
 70
     0
  0
ENDTAB
  0
TABLE
  2
UCS
  5
7
330
0
100
AcDbSymbolTable
 70
     5
  0
UCS
  5
211A5
330
7
100
AcDbSymbolTableRecord
100
AcDbUCSTableRecord
  2
U
 70
     0
 10
0.0
 20
0.0
 30
0.0
 11
1.0
 21
0.0
 31
0.0
 12
0.0
 22
2.220446049250313E-16
 32
1.0
 79
     0
146
0.0
  0
UCS
  5
211A6
330
7
100
AcDbSymbolTableRecord
100
AcDbUCSTableRecord
  2
L
 70
     0
 10
0.0
 20
0.0
 30
0.0
 11
-2.220446049250313E-16
 21
-1.0
 31
2.220446049250313E-16
 12
0.0
 22
2.220446049250313E-16
 32
1.0
 79
     0
146
0.0
  0
UCS
  5
211A7
330
7
100
AcDbSymbolTableRecord
100
AcDbUCSTableRecord
  2
R
 70
     0
 10
0.0
 20
0.0
 30
0.0
 11
3.445092848397667E-16
 21
1.0
 31
-2.220446049250313E-16
 12
0.0
 22
2.220446049250313E-16
 32
1.0
 79
     0
146
0.0
  0
UCS
  5
211A8
330
7
100
AcDbSymbolTableRecord
100
AcDbUCSTableRecord
  2
ISOME
 70
     0
 10
0.0
 20
0.0
 30
0.0
 11
0.7071450863198265
 21
-0.7070684729403536
 31
-3.830824619466267E-5
 12
0.4082704059428734
 22
0.4082704077401151
 32
0.8164744636514736
 79
     0
146
0.0
  0
UCS
  5
211A9
330
7
100
AcDbSymbolTableRecord
100
AcDbUCSTableRecord
  2
PERSPECTIVE
 70
     0
 10
0.0
 20
0.0
 30
0.0
 11
0.8191477691768964
 21
-0.5735823260466403
 31
-0.0004974931557765462
 12
0.1584844715982971
 22
0.225502028986108
 32
0.961265575782966
 79
     0
146
0.0
  0
ENDTAB
  0
TABLE
  2
APPID
  5
9
330
0
100
AcDbSymbolTable
 70
    16
  0
APPID
  5
10
330
9
100
AcDbSymbolTableRecord
100
AcDbRegAppTableRecord
  2
ACAD
 70
     0
  0
APPID
  5
21
330
9
100
AcDbSymbolTableRecord
100
AcDbRegAppTableRecord
  2
DRAWINGVARIABLESXDATA
 70
     0
  0
APPID
  5
64
330
9
100
AcDbSymbolTableRecord
100
AcDbRegAppTableRecord
  2
CONTENTTABDATA
 70
     0
  0
APPID
  5
65
330
9
100
AcDbSymbolTableRecord
100
AcDbRegAppTableRecord
  2
CONTENTCURRENTTAB
 70
     0
  0
APPID
  5
66
330
9
100
AcDbSymbolTableRecord
100
AcDbRegAppTableRecord
  2
CONTENTBLOCKDESCRIPTION
 70
     0
  0
APPID
  5
67
330
9
100
AcDbSymbolTableRecord
100
AcDbRegAppTableRecord
  2
CONTENTBLOCKICON
 70
     0
  0
APPID
  5
68
330
9
100
AcDbSymbolTableRecord
100
AcDbRegAppTableRecord
  2
CONTENTLONGBLOCKNAME
 70
     0
  0
APPID
  5
5A9
330
9
100
AcDbSymbolTableRecord
100
AcDbRegAppTableRecord
  2
ACAD_PSEXT
 70
     0
  0
APPID
  5
18AC
330
9
100
AcDbSymbolTableRecord
100
AcDbRegAppTableRecord
  2
ACAD_DSTYLE_DIMTEXT_FILL
 70
     0
  0
APPID
  5
19E1A
330
9
100
AcDbSymbolTableRecord
100
AcDbRegAppTableRecord
  2
ACAD_MLEADERVER
 70
     0
  0
APPID
  5
1A2FA
330
9
100
AcDbSymbolTableRecord
100
AcDbRegAppTableRecord
  2
ACAD_DSTYLE_DIMRADIAL_EXTE
 70
     0
  0
APPID
  5
1DBC1
330
9
100
AcDbSymbolTableRecord
100
AcDbRegAppTableRecord
  2
ACADANNOTATIVE
 70
     0
  0
APPID
  5
1E991
330
9
100
AcDbSymbolTableRecord
100
AcDbRegAppTableRecord
  2
ACAD_EXEMPT_FROM_CAD_STAND
 70
     0
  0
APPID
  5
202C7
330
9
100
AcDbSymbolTableRecord
100
AcDbRegAppTableRecord
  2
ACDBBLOCKREPETAG
 70
     0
  0
APPID
  5
20AA7
330
9
100
AcDbSymbolTableRecord
100
AcDbRegAppTableRecord
  2
ACAD_OBJECT_CHANGE_GUID
 70
     0
  0
APPID
  5
20B32
330
9
100
AcDbSymbolTableRecord
100
AcDbRegAppTableRecord
  2
ACAD_NAV_VCDISPLAY
 70
     0
  0
ENDTAB
  0
TABLE
  2
DIMSTYLE
  5
A
330
0
100
AcDbSymbolTable
 70
     1
  0
DIMSTYLE
105
48
330
A
100
AcDbSymbolTableRecord
100
AcDbDimStyleTableRecord
  2
NEWX10
 70
     0
  3
 
  4

  5

  6
OPEN30
  7
OPEN30
 40
1.0
 41
2.0
 42
0.0
 43
7.0
 44
1.0
 45
0.0
 46
0.0
 47
0.0
 48
0.0
140
3.5
141
0.0
142
0.0
143
25.4
144
1.0
145
0.0
146
0.7
147
0.7
 71
     0
 72
     0
 73
     0
 74
     0
 75
     0
 76
     0
 77
     1
 78
     8
170
     0
171
     2
172
     1
173
     1
174
     0
175
     0
176
   256
177
   256
178
   201
179
     1
270
     2
271
     2
272
     4
273
     2
274
     2
340
F
275
     0
280
     0
281
     0
282
     0
283
     1
284
     8
285
     0
286
     0
287
     3
288
     0
  0
ENDTAB
  0
TABLE
  2
BLOCK_RECORD
  5
1
330
0
100
AcDbSymbolTable
 70
     8
  0
BLOCK_RECORD
  5
18
102
{ACAD_XDICTIONARY
360
6E9
102
}
330
1
100
AcDbSymbolTableRecord
100
AcDbBlockTableRecord
  2
*MODEL_SPACE
  0
BLOCK_RECORD
  5
15
102
{ACAD_XDICTIONARY
360
59B
102
}
330
1
100
AcDbSymbolTableRecord
100
AcDbBlockTableRecord
  2
*PAPER_SPACE
  0
BLOCK_RECORD
  5
42
330
1
100
AcDbSymbolTableRecord
100
AcDbBlockTableRecord
  2
_OPEN30
  0
BLOCK_RECORD
  5
20316
330
1
100
AcDbSymbolTableRecord
100
AcDbBlockTableRecord
  2
A3WAKUKAWAJUN2017_HYOUDAI_
  0
BLOCK_RECORD
  5
22C8B
330
1
100
AcDbSymbolTableRecord
100
AcDbBlockTableRecord
  2
*X92
  0
BLOCK_RECORD
  5
22CD9
330
1
100
AcDbSymbolTableRecord
100
AcDbBlockTableRecord
  2
*X93
  0
BLOCK_RECORD
  5
22D2B
330
1
100
AcDbSymbolTableRecord
100
AcDbBlockTableRecord
  2
*X94
  0
BLOCK_RECORD
  5
22D7C
330
1
100
AcDbSymbolTableRecord
100
AcDbBlockTableRecord
  2
*X95
  0
BLOCK_RECORD
  5
22DB9
330
1
100
AcDbSymbolTableRecord
100
AcDbBlockTableRecord
  2
*X96
  0
BLOCK_RECORD
  5
22DF9
330
1
100
AcDbSymbolTableRecord
100
AcDbBlockTableRecord
  2
*X97
  0
ENDTAB
  0
ENDSEC
  0
SECTION
  2
BLOCKS
  0
BLOCK
  5
19
330
18
100
AcDbEntity
  8
0
100
AcDbBlockBegin
  2
*MODEL_SPACE
 70
     0
 10
0.0
 20
0.0
 30
0.0
  3
*MODEL_SPACE
  1

  0
ENDBLK
  5
1A
330
18
100
AcDbEntity
  8
0
100
AcDbBlockEnd
  0
BLOCK
  5
16
330
15
100
AcDbEntity
 67
     1
  8
0
100
AcDbBlockBegin
  2
*PAPER_SPACE
 70
     0
 10
0.0
 20
0.0
 30
0.0
  3
*PAPER_SPACE
  1

  0
ENDBLK
  5
17
330
15
100
AcDbEntity
 67
     1
  8
0
100
AcDbBlockEnd
  0
BLOCK
  5
43
330
42
100
AcDbEntity
  8
0
100
AcDbBlockBegin
  2
_OPEN30
 70
     0
 10
0.0
 20
0.0
 30
0.0
  3
_OPEN30
  1

  0
LINE
  5
44
330
42
100
AcDbEntity
  8
0
  6
BYBLOCK
 62
     0
100
AcDbLine
 10
-1.0
 20
0.26794919
 30
0.0
 11
0.0
 21
0.0
 31
0.0
  0
LINE
  5
45
330
42
100
AcDbEntity
  8
0
  6
BYBLOCK
 62
     0
100
AcDbLine
 10
0.0
 20
0.0
 30
0.0
 11
-1.0
 21
-0.26794919
 31
0.0
  0
LINE
  5
46
330
42
100
AcDbEntity
  8
0
  6
BYBLOCK
 62
     0
100
AcDbLine
 10
0.0
 20
0.0
 30
0.0
 11
-1.0
 21
0.0
 31
0.0
  0
ENDBLK
  5
47
330
42
100
AcDbEntity
  8
0
100
AcDbBlockEnd
  0
BLOCK
  5
20A15
330
20316
100
AcDbEntity
  8
0
100
AcDbBlockBegin
  2
A3WAKUKAWAJUN2017_HYOUDAI_
 70
     0
 10
0.0
 20
0.0
 30
0.0
  3
A3WAKUKAWAJUN2017_HYOUDAI_
  1

  0
LINE
  5
20318
330
20316
100
AcDbEntity
  8
0
100
AcDbLine
 10
13.26299999998673
 20
-0.0001000000000317
 30
0.0
 11
9.236999999990758
 21
8.999899999990987
 31
0.0
1001
ACAD
1000
ASC_BOUNDS
1002
{
1070
    19
1005
20359
1002
}
  0
LINE
  5
20319
330
20316
100
AcDbEntity
  8
0
100
AcDbLine
 10
5.657999999994331
 20
0.9999999999989768
 30
0.0
 11
9.236999999990758
 21
8.999999999991019
 31
0.0
1001
ACAD
1000
ASC_BOUNDS
1002
{
1070
    19
1005
20359
1002
}
  0
LINE
  5
2031A
330
20316
100
AcDbEntity
  8
0
100
AcDbLine
 10
18.59199999998134
 20
-0.2368999999997641
 30
0.0
 11
16.46099999998353
 21
5.432899999994561
 31
0.0
1001
ACAD
1000
ASC_BOUNDS
1002
{
1070
    19
1005
2035A
1002
}
  0
LINE
  5
2031B
330
20316
100
AcDbEntity
  8
0
100
AcDbLine
 10
18.59199999998134
 20
-0.2368999999997641
 30
0.0
 11
22.38199999997767
 21
8.763099999991255
 31
0.0
1001
ACAD
1000
ASC_BOUNDS
1002
{
1070
    19
1005
2035A
1002
}
  0
LINE
  5
2031C
330
20316
100
AcDbEntity
  8
0
100
AcDbLine
 10
14.32899999998563
 20
-0.2368999999997641
 30
0.0
 11
16.46099999998353
 21
5.432899999994561
 31
0.0
1001
ACAD
1000
ASC_BOUNDS
1002
{
1070
    19
1005
2035A
1002
}
  0
LINE
  5
2031D
330
20316
100
AcDbEntity
  8
0
100
AcDbLine
 10
14.32899999998563
 20
-0.2368999999997641
 30
0.0
 11
10.53899999998941
 21
8.763099999991255
 31
0.0
1001
ACAD
1000
ASC_BOUNDS
1002
{
1070
    19
1005
2035A
1002
}
  0
LINE
  5
2031E
330
20316
100
AcDbEntity
  8
0
100
AcDbLine
 10
19.53899999998043
 20
-0.0001000000000317
 30
0.0
 11
23.56599999997638
 21
8.999899999990987
 31
0.0
1001
ACAD
1000
ASC_BOUNDS
1002
{
1070
    19
1005
2035B
1002
}
  0
LINE
  5
2031F
330
20316
100
AcDbEntity
  8
0
100
AcDbLine
 10
26.97358892824991
 20
1.383099999991202
 30
0.0
 11
23.56599999997638
 21
8.999899999990987
 31
0.0
1001
ACAD
1000
ASC_BOUNDS
1002
{
1070
    19
1005
2035B
1002
}
  0
LINE
  5
20320
330
20316
100
AcDbEntity
  8
0
100
AcDbLine
 10
5.657999999994331
 20
0.9999999999989768
 30
0.0
 11
3.181999999996833
 21
4.668599999995308
 31
0.0
1001
ACAD
1000
ASC_BOUNDS
1002
{
1070
    19
1005
20359
1002
}
  0
LINE
  5
20321
330
20316
100
AcDbEntity
  8
0
100
AcDbLine
 10
4.617999999995391
 20
-0.0001000000000317
 30
0.0
 11
1.420999999998571
 21
4.736799999995242
 31
0.0
1001
ACAD
1000
ASC_BOUNDS
1002
{
1070
    19
1005
20359
1002
}
  0
LINE
  5
20322
330
20316
100
AcDbEntity
  8
0
100
AcDbLine
 10
1.420999999998571
 20
8.763099999991255
 30
0.0
 11
1.420999999998571
 21
0.0
 31
0.0
1001
ACAD
1000
ASC_BOUNDS
1002
{
1070
    19
1005
2035E
1002
}
  0
LINE
  5
20323
330
20316
100
AcDbEntity
  8
0
100
AcDbLine
 10
0.0
 20
8.763099999991255
 30
0.0
 11
0.0
 21
0.0
 31
0.0
1001
ACAD
1000
ASC_BOUNDS
1002
{
1070
    19
1005
2035E
1002
}
  0
LINE
  5
20324
330
20316
100
AcDbEntity
  8
0
100
AcDbLine
 10
6.766999999993232
 20
-0.0001000000000317
 30
0.0
 11
7.826999999992154
 21
2.368399999997621
 31
0.0
1001
ACAD
1000
ASC_BOUNDS
1002
{
1070
    19
1005
20359
1002
}
  0
LINE
  5
20325
330
20316
100
AcDbEntity
  8
0
100
AcDbLine
 10
0.0
 20
0.0
 30
0.0
 11
1.420999999998571
 21
0.0
 31
0.0
1001
ACAD
1000
ASC_BOUNDS
1002
{
1070
    19
1005
2035E
1002
}
  0
LINE
  5
20326
330
20316
100
AcDbEntity
  8
0
100
AcDbLine
 10
4.617999999995391
 20
0.0
 30
0.0
 11
6.766999999993232
 21
0.0
 31
0.0
1001
ACAD
1000
ASC_BOUNDS
1002
{
1070
    19
1005
20359
1002
}
  0
LINE
  5
20327
330
20316
100
AcDbEntity
  8
0
100
AcDbLine
 10
11.70599999998831
 20
-0.0001000000000317
 30
0.0
 11
10.64699999998936
 21
2.368399999997621
 31
0.0
1001
ACAD
1000
ASC_BOUNDS
1002
{
1070
    19
1005
20359
1002
}
  0
LINE
  5
20328
330
20316
100
AcDbEntity
  8
0
100
AcDbLine
 10
7.826999999992154
 20
2.368399999997621
 30
0.0
 11
10.64699999998936
 21
2.368399999997621
 31
0.0
1001
ACAD
1000
ASC_BOUNDS
1002
{
1070
    19
1005
20359
1002
}
  0
LINE
  5
20329
330
20316
100
AcDbEntity
  8
0
100
AcDbLine
 10
11.70599999998831
 20
0.0
 30
0.0
 11
13.26299999998673
 21
0.0
 31
0.0
1001
ACAD
1000
ASC_BOUNDS
1002
{
1070
    19
1005
20359
1002
}
  0
LINE
  5
2032A
330
20316
100
AcDbEntity
  8
0
100
AcDbLine
 10
22.15599999997789
 20
2.368399999997621
 30
0.0
 11
24.97599999997499
 21
2.368399999997621
 31
0.0
1001
ACAD
1000
ASC_BOUNDS
1002
{
1070
    19
1005
2035B
1002
}
  0
LINE
  5
2032B
330
20316
100
AcDbEntity
  8
0
100
AcDbLine
 10
19.53899999998043
 20
0.0
 30
0.0
 11
21.09599999997886
 21
0.0
 31
0.0
1001
ACAD
1000
ASC_BOUNDS
1002
{
1070
    19
1005
2035B
1002
}
  0
LINE
  5
2032C
330
20316
100
AcDbEntity
  8
0
100
AcDbLine
 10
21.09599999997886
 20
-0.0001000000000317
 30
0.0
 11
22.15599999997789
 21
2.368399999997621
 31
0.0
1001
ACAD
1000
ASC_BOUNDS
1002
{
1070
    19
1005
2035B
1002
}
  0
LINE
  5
2032D
330
20316
100
AcDbEntity
  8
0
100
AcDbLine
 10
26.02015566812236
 20
0.0330999999912365
 30
0.0
 11
24.97599999997499
 21
2.368399999997621
 31
0.0
1001
ACAD
1000
ASC_BOUNDS
1002
{
1070
    19
1005
2035B
1002
}
  0
LINE
  5
2032E
330
20316
100
AcDbEntity
  8
0
100
AcDbLine
 10
14.32399999998563
 20
3.315799999996671
 30
0.0
 11
16.46099999998353
 21
8.999899999990987
 31
0.0
1001
ACAD
1000
ASC_BOUNDS
1002
{
1070
    19
1005
2035A
1002
}
  0
LINE
  5
2032F
330
20316
100
AcDbEntity
  8
0
100
AcDbLine
 10
6.432999999993513
 20
8.763099999991255
 30
0.0
 11
3.181999999996833
 21
4.668599999995308
 31
0.0
1001
ACAD
1000
ASC_BOUNDS
1002
{
1070
    19
1005
20359
1002
}
  0
LINE
  5
20330
330
20316
100
AcDbEntity
  8
0
100
AcDbLine
 10
4.617999999995391
 20
8.763099999991255
 30
0.0
 11
1.420999999998571
 21
4.736799999995242
 31
0.0
1001
ACAD
1000
ASC_BOUNDS
1002
{
1070
    19
1005
20359
1002
}
  0
LINE
  5
20331
330
20316
100
AcDbEntity
  8
0
100
AcDbLine
 10
0.0
 20
8.763099999991255
 30
0.0
 11
1.420999999998571
 21
8.763099999991255
 31
0.0
1001
ACAD
1000
ASC_BOUNDS
1002
{
1070
    19
1005
2035E
1002
}
  0
LINE
  5
20332
330
20316
100
AcDbEntity
  8
0
100
AcDbLine
 10
4.617999999995391
 20
8.763099999991255
 30
0.0
 11
6.432999999993513
 21
8.763099999991255
 31
0.0
1001
ACAD
1000
ASC_BOUNDS
1002
{
1070
    19
1005
20359
1002
}
  0
LINE
  5
20333
330
20316
100
AcDbEntity
  8
0
100
AcDbLine
 10
14.32399999998563
 20
3.315799999996671
 30
0.0
 11
12.02999999998792
 21
8.763099999991255
 31
0.0
1001
ACAD
1000
ASC_BOUNDS
1002
{
1070
    19
1005
2035A
1002
}
  0
LINE
  5
20334
330
20316
100
AcDbEntity
  8
0
100
AcDbLine
 10
10.06399999998996
 20
3.670999999996297
 30
0.0
 11
9.236999999990758
 21
5.5200999999945
 31
0.0
1001
ACAD
1000
ASC_BOUNDS
1002
{
1070
    19
1005
20359
1002
}
  0
LINE
  5
20335
330
20316
100
AcDbEntity
  8
0
100
AcDbLine
 10
8.409999999991555
 20
3.670999999996297
 30
0.0
 11
9.236999999990758
 21
5.5200999999945
 31
0.0
1001
ACAD
1000
ASC_BOUNDS
1002
{
1070
    19
1005
20359
1002
}
  0
LINE
  5
20336
330
20316
100
AcDbEntity
  8
0
100
AcDbLine
 10
8.409999999991555
 20
3.670999999996297
 30
0.0
 11
10.06399999998996
 21
3.670999999996297
 31
0.0
1001
ACAD
1000
ASC_BOUNDS
1002
{
1070
    19
1005
20359
1002
}
  0
LINE
  5
20337
330
20316
100
AcDbEntity
  8
0
100
AcDbLine
 10
10.53899999998941
 20
8.763099999991255
 30
0.0
 11
12.02999999998792
 21
8.763099999991255
 31
0.0
1001
ACAD
1000
ASC_BOUNDS
1002
{
1070
    19
1005
2035A
1002
}
  0
LINE
  5
20338
330
20316
100
AcDbEntity
  8
0
100
AcDbLine
 10
22.7389999999773
 20
3.670999999996297
 30
0.0
 11
23.56599999997638
 21
5.5200999999945
 31
0.0
1001
ACAD
1000
ASC_BOUNDS
1002
{
1070
    19
1005
2035B
1002
}
  0
LINE
  5
20339
330
20316
100
AcDbEntity
  8
0
100
AcDbLine
 10
22.7389999999773
 20
3.670999999996297
 30
0.0
 11
24.39299999997559
 21
3.670999999996297
 31
0.0
1001
ACAD
1000
ASC_BOUNDS
1002
{
1070
    19
1005
2035B
1002
}
  0
LINE
  5
2033A
330
20316
100
AcDbEntity
  8
0
100
AcDbLine
 10
18.59799999998143
 20
3.315799999996671
 30
0.0
 11
20.89099999997916
 21
8.763099999991255
 31
0.0
1001
ACAD
1000
ASC_BOUNDS
1002
{
1070
    19
1005
2035A
1002
}
  0
LINE
  5
2033B
330
20316
100
AcDbEntity
  8
0
100
AcDbLine
 10
18.59799999998143
 20
3.315799999996671
 30
0.0
 11
16.46099999998353
 21
8.999899999990987
 31
0.0
1001
ACAD
1000
ASC_BOUNDS
1002
{
1070
    19
1005
2035A
1002
}
  0
LINE
  5
2033C
330
20316
100
AcDbEntity
  8
0
100
AcDbLine
 10
20.89099999997916
 20
8.763099999991255
 30
0.0
 11
22.38199999997767
 21
8.763099999991255
 31
0.0
1001
ACAD
1000
ASC_BOUNDS
1002
{
1070
    19
1005
2035A
1002
}
  0
LINE
  5
2033D
330
20316
100
AcDbEntity
  8
0
100
AcDbLine
 10
24.39299999997559
 20
3.670999999996297
 30
0.0
 11
23.56599999997638
 21
5.5200999999945
 31
0.0
1001
ACAD
1000
ASC_BOUNDS
1002
{
1070
    19
1005
2035B
1002
}
  0
LINE
  5
2033E
330
20316
100
AcDbEntity
  8
0
100
AcDbLine
 10
44.99999999995498
 20
-0.2368999999997641
 30
0.0
 11
40.02599999995994
 21
5.341799999994635
 31
0.0
1001
ACAD
1000
ASC_BOUNDS
1002
{
1070
    19
1005
2035D
1002
}
  0
LINE
  5
2033F
330
20316
100
AcDbEntity
  8
0
100
AcDbLine
 10
40.02599999995994
 20
5.341799999994635
 30
0.0
 11
40.02599999995994
 21
0.0
 31
0.0
1001
ACAD
1000
ASC_BOUNDS
1002
{
1070
    19
1005
2035D
1002
}
  0
LINE
  5
20340
330
20316
100
AcDbEntity
  8
0
100
AcDbLine
 10
38.60499999996136
 20
8.999999999991019
 30
0.0
 11
38.60499999996136
 21
0.0
 31
0.0
1001
ACAD
1000
ASC_BOUNDS
1002
{
1070
    19
1005
2035D
1002
}
  0
LINE
  5
20341
330
20316
100
AcDbEntity
  8
0
100
AcDbLine
 10
44.99999999995498
 20
8.763099999991255
 30
0.0
 11
44.99999999995498
 21
-0.2368999999997641
 31
0.0
1001
ACAD
1000
ASC_BOUNDS
1002
{
1070
    19
1005
2035D
1002
}
  0
LINE
  5
20342
330
20316
100
AcDbEntity
  8
0
100
AcDbLine
 10
38.60499999996136
 20
0.0
 30
0.0
 11
40.02599999995994
 21
0.0
 31
0.0
1001
ACAD
1000
ASC_BOUNDS
1002
{
1070
    19
1005
2035D
1002
}
  0
LINE
  5
20343
330
20316
100
AcDbEntity
  8
0
100
AcDbLine
 10
43.57899999995641
 20
3.421199999996588
 30
0.0
 11
38.60499999996136
 21
8.999899999990987
 31
0.0
1001
ACAD
1000
ASC_BOUNDS
1002
{
1070
    19
1005
2035D
1002
}
  0
LINE
  5
20344
330
20316
100
AcDbEntity
  8
0
100
AcDbLine
 10
43.57899999995641
 20
8.763099999991255
 30
0.0
 11
43.57899999995641
 21
3.421199999996588
 31
0.0
1001
ACAD
1000
ASC_BOUNDS
1002
{
1070
    19
1005
2035D
1002
}
  0
LINE
  5
20345
330
20316
100
AcDbEntity
  8
0
100
AcDbLine
 10
43.57899999995641
 20
8.763099999991255
 30
0.0
 11
44.99999999995498
 21
8.763099999991255
 31
0.0
1001
ACAD
1000
ASC_BOUNDS
1002
{
1070
    19
1005
2035D
1002
}
  0
LINE
  5
20346
330
20316
100
AcDbEntity
  8
0
100
AcDbLine
 10
37.67199999996831
 20
8.763099999991255
 30
0.0
 11
36.23199999996837
 21
8.763099999991255
 31
0.0
  0
LINE
  5
20347
330
20316
100
AcDbEntity
  8
0
100
AcDbLine
 10
31.64199999996833
 20
8.763099999991255
 30
0.0
 11
31.64199999996833
 21
2.481619422925121
 31
0.0
  0
LINE
  5
20348
330
20316
100
AcDbEntity
  8
0
100
AcDbLine
 10
37.67199999996831
 20
8.763099999991255
 30
0.0
 11
37.67199999996831
 21
2.481619422925121
 31
0.0
  0
LINE
  5
20349
330
20316
100
AcDbEntity
  8
0
100
AcDbLine
 10
36.23199999996837
 20
8.763099999991255
 30
0.0
 11
36.23199999996837
 21
2.481619422925064
 31
0.0
  0
LINE
  5
2034A
330
20316
100
AcDbEntity
  8
0
100
AcDbLine
 10
33.08199999996839
 20
8.763099999991255
 30
0.0
 11
33.08199999996839
 21
2.481619422925121
 31
0.0
  0
ARC
  5
2034B
330
20316
100
AcDbEntity
  8
0
100
AcDbCircle
 10
34.65699999996832
 20
3.183099999991214
 30
0.0
 40
3.420000000000007
100
AcDbArc
 50
240.0000000000255
 51
299.9999999999766
  0
ARC
  5
2034C
330
20316
100
AcDbEntity
  8
0
100
AcDbCircle
 10
34.65699999996832
 20
3.183099999991214
 30
0.0
 40
1.97999999999999
100
AcDbArc
 50
240.000000000026
 51
299.9999999999703
  0
LINE
  5
2034D
330
20316
100
AcDbEntity
  8
0
100
AcDbLine
 10
33.08199999996828
 20
8.763099999991255
 30
0.0
 11
31.64199999996833
 21
8.763099999991255
 31
0.0
  0
ARC
  5
2034E
330
20316
100
AcDbEntity
  8
0
100
AcDbCircle
 10
35.06199999996829
 20
2.481619422925064
 30
0.0
 40
1.17
100
AcDbArc
 50
299.9999999999699
 51
0.0
  0
ARC
  5
2034F
330
20316
100
AcDbEntity
  8
0
100
AcDbCircle
 10
34.25199999996835
 20
2.481619422925121
 30
0.0
 40
1.17
100
AcDbArc
 50
180.0
 51
240.0000000000238
  0
ARC
  5
20350
330
20316
100
AcDbEntity
  8
0
100
AcDbCircle
 10
35.06199999996841
 20
2.481619422925121
 30
0.0
 40
2.61
100
AcDbArc
 50
299.9999999999756
 51
0.0
  0
ARC
  5
20351
330
20316
100
AcDbEntity
  8
0
100
AcDbCircle
 10
34.25199999996835
 20
2.481619422925121
 30
0.0
 40
2.61
100
AcDbArc
 50
180.0
 51
240.0000000000244
  0
LINE
  5
20352
330
20316
100
AcDbEntity
  8
0
100
AcDbLine
 10
29.30199999996933
 20
8.763099999991255
 30
0.0
 11
30.74199999996927
 21
8.763099999991255
 31
0.0
1001
ACAD
1000
ASC_BOUNDS
1002
{
1070
    19
1005
2035B
1002
}
  0
LINE
  5
20353
330
20316
100
AcDbEntity
  8
0
100
AcDbLine
 10
30.74199999996927
 20
8.763099999991255
 30
0.0
 11
30.74199999996927
 21
2.373099999991211
 31
0.0
1001
ACAD
1000
ASC_BOUNDS
1002
{
1070
    19
1005
2035B
1002
}
  0
LINE
  5
20354
330
20316
100
AcDbEntity
  8
0
100
AcDbLine
 10
26.02015566812236
 20
0.0330999999912365
 30
0.0
 11
28.40199999996923
 21
0.0330999999912365
 31
0.0
1001
ACAD
1000
ASC_BOUNDS
1002
{
1070
    19
1005
2035B
1002
}
  0
LINE
  5
20355
330
20316
100
AcDbEntity
  8
0
100
AcDbLine
 10
29.30199999996933
 20
8.763099999991255
 30
0.0
 11
29.30199999996933
 21
2.283099999991236
 31
0.0
1001
ACAD
1000
ASC_BOUNDS
1002
{
1070
    19
1005
2035B
1002
}
  0
LINE
  5
20356
330
20316
100
AcDbEntity
  8
0
100
AcDbLine
 10
26.97358892824991
 20
1.383099999991202
 30
0.0
 11
28.40199999996923
 21
1.383099999991202
 31
0.0
1001
ACAD
1000
ASC_BOUNDS
1002
{
1070
    19
1005
2035B
1002
}
  0
ARC
  5
20357
330
20316
100
AcDbEntity
  8
0
100
AcDbCircle
 10
28.40199999996923
 20
2.283099999991236
 30
0.0
 40
0.9
100
AcDbArc
 50
270.0
 51
0.0
1001
ACAD
1000
ASC_BOUNDS
1002
{
1070
    19
1005
2035B
1002
}
  0
ARC
  5
20358
330
20316
100
AcDbEntity
  8
0
100
AcDbCircle
 10
28.40199999996923
 20
2.373099999991211
 30
0.0
 40
2.34
100
AcDbArc
 50
270.0
 51
0.0
1001
ACAD
1000
ASC_BOUNDS
1002
{
1070
    19
1005
2035B
1002
}
  0
INSERT
  5
20359
330
20316
100
AcDbEntity
  8
0
100
AcDbBlockReference
  2
*X92
 10
0.0
 20
0.0
 30
0.0
1001
ACAD
1000
HATCH
1002
{
1070
    19
1000
ANSI37
1040
0.15
1040
0.0
1000
ASC_BOUNDS
1070
     2
1070
     2
1070
    12
1005
20318
1005
20319
1005
20320
1005
2032F
1005
20332
1005
20330
1005
20321
1005
20326
1005
20324
1005
20328
1005
20327
1005
20329
1070
     2
1070
     3
1005
20334
1005
20336
1005
20335
1000
ASC_SEEDPOINT
1011
3.614004224891801
1021
2.996669441146025
1031
0.0
1000
R14_HATCH_DATA
1000
20359
1011
1.0
1021
0.0
1031
0.0
1011
0.0
1021
1.0
1031
0.0
1011
0.0
1021
0.0
1031
1.0
1040
0.0
1010
0.0
1020
0.0
1030
1.0
1000
ANSI37
1070
     0
1070
     1
1071
        2
1071
        7
1070
     0
1070
     1
1071
       17
1040
13.26299999998673
1040
-0.0001000000000317
1040
9.236999999990758
1040
8.999899999990987
1040
9.236999999990758
1040
8.999999999991019
1040
5.657999999994331
1040
0.9999999999989768
1040
3.181999999996833
1040
4.668599999995308
1040
6.432999999993513
1040
8.763099999991255
1040
4.617999999995391
1040
8.763099999991255
1040
1.420999999998571
1040
4.736799999995242
1040
4.617999999995391
1040
-0.0001000000000317
1040
4.617999999995391
1040
0.0
1040
6.766999999993232
1040
0.0
1040
6.766999999993232
1040
-0.0001000000000317
1040
7.826999999992154
1040
2.368399999997621
1040
10.64699999998936
1040
2.368399999997621
1040
11.70599999998831
1040
-0.0001000000000317
1040
11.70599999998831
1040
0.0
1040
13.26299999998673
1040
0.0
1071
       12
1005
20318
1005
20319
1005
20320
1005
2032F
1005
20332
1005
20330
1005
20321
1005
20326
1005
20324
1005
20328
1005
20327
1005
20329
1071
       22
1070
     0
1070
     1
1071
        3
1040
9.236999999990758
1040
5.5200999999945
1040
10.06399999998996
1040
3.670999999996297
1040
8.409999999991555
1040
3.670999999996297
1071
        3
1005
20334
1005
20336
1005
20335
1070
     0
1070
     1
1040
0.0
1040
0.15
1070
     0
1070
     2
1040
0.7853981633974483
1040
49.29960901727088
1040
-10.17736998311392
1040
-0.3367596045400932
1040
0.3367596045400932
1070
     0
1040
2.356194490192345
1040
49.29960901727088
1040
-10.17736998311392
1040
-0.3367596045400932
1040
-0.3367596045400932
1070
     0
1040
0.0110235143455945
1071
        2
1040
3.614004224891801
1040
2.996669441146025
1040
0.0
1040
3.614004224891801
1040
2.996669441146025
1040
0.0
1002
}
  0
INSERT
  5
2035A
330
20316
100
AcDbEntity
  8
0
100
AcDbBlockReference
  2
*X93
 10
0.0
 20
0.0
 30
0.0
1001
ACAD
1000
HATCH
1002
{
1070
    19
1000
ANSI37
1040
0.15
1040
0.0
1000
ASC_BOUNDS
1070
     1
1070
     2
1070
    10
1005
2031A
1005
2031B
1005
2033C
1005
2033A
1005
2033B
1005
2032E
1005
20333
1005
20337
1005
2031D
1005
2031C
1000
ASC_SEEDPOINT
1011
14.73245321214324
1021
2.798246178283421
1031
0.0
1000
R14_HATCH_DATA
1000
2035A
1011
1.0
1021
0.0
1031
0.0
1011
0.0
1021
1.0
1031
0.0
1011
0.0
1021
0.0
1031
1.0
1040
0.0
1010
0.0
1020
0.0
1030
1.0
1000
ANSI37
1070
     0
1070
     1
1071
        1
1071
        7
1070
     0
1070
     1
1071
       10
1040
16.46099999998353
1040
5.432899999994561
1040
18.59199999998134
1040
-0.2368999999997641
1040
22.38199999997767
1040
8.763099999991255
1040
20.89099999997916
1040
8.763099999991255
1040
18.59799999998143
1040
3.315799999996671
1040
16.46099999998353
1040
8.999899999990987
1040
14.32399999998563
1040
3.315799999996671
1040
12.02999999998792
1040
8.763099999991255
1040
10.53899999998941
1040
8.763099999991255
1040
14.32899999998563
1040
-0.2368999999997641
1071
       10
1005
2031A
1005
2031B
1005
2033C
1005
2033A
1005
2033B
1005
2032E
1005
20333
1005
20337
1005
2031D
1005
2031C
1070
     0
1070
     1
1040
0.0
1040
0.15
1070
     0
1070
     2
1040
0.7853981633974483
1040
49.29960901727088
1040
-10.17736998311392
1040
-0.3367596045400932
1040
0.3367596045400932
1070
     0
1040
2.356194490192345
1040
49.29960901727088
1040
-10.17736998311392
1040
-0.3367596045400932
1040
-0.3367596045400932
1070
     0
1040
0.0110235143455945
1071
        1
1040
14.73245321214324
1040
2.798246178283421
1040
0.0
1002
}
  0
INSERT
  5
2035B
330
20316
100
AcDbEntity
  8
0
100
AcDbBlockReference
  2
*X94
 10
0.0
 20
0.0
 30
0.0
1001
ACAD
1000
HATCH
1002
{
1070
    19
1000
ANSI37
1040
0.15
1040
0.0
1000
ASC_BOUNDS
1070
     2
1070
     2
1070
    13
1005
2031E
1005
2032B
1005
2032C
1005
2032A
1005
2032D
1005
20354
1005
20358
1005
20353
1005
20352
1005
20355
1005
20357
1005
20356
1005
2031F
1070
     2
1070
     3
1005
20338
1005
2033D
1005
20339
1000
ASC_SEEDPOINT
1011
21.97929957367762
1021
3.294304244259308
1031
0.0
1000
R14_HATCH_DATA
1000
2035B
1011
1.0
1021
0.0
1031
0.0
1011
0.0
1021
1.0
1031
0.0
1011
0.0
1021
0.0
1031
1.0
1040
0.0
1010
0.0
1020
0.0
1030
1.0
1000
ANSI37
1070
     0
1070
     1
1071
        2
1071
        7
1070
     1
1070
     1
1071
       15
1040
23.56599999997638
1040
8.999899999990987
1040
0.0
1040
19.53899999998043
1040
-0.0001000000000317
1040
0.0
1040
19.53899999998043
1040
0.0
1040
0.0
1040
21.09599999997886
1040
0.0
1040
0.0
1040
21.09599999997886
1040
-0.0001000000000317
1040
0.0
1040
22.15599999997789
1040
2.368399999997621
1040
0.0
1040
24.97599999997499
1040
2.368399999997621
1040
0.0
1040
26.02015566812236
1040
0.0330999999912365
1040
0.0
1040
28.40199999996923
1040
0.0330999999912365
1040
0.414213562373095
1040
30.74199999996923
1040
2.373099999991211
1040
0.0
1040
30.74199999996927
1040
8.763099999991255
1040
0.0
1040
29.30199999996933
1040
8.763099999991255
1040
0.0
1040
29.30199999996933
1040
2.283099999991236
1040
-0.414213562373095
1040
28.40199999996923
1040
1.383099999991237
1040
0.0
1040
26.97358892824991
1040
1.383099999991202
1040
0.0
1071
       13
1005
2031E
1005
2032B
1005
2032C
1005
2032A
1005
2032D
1005
20354
1005
20358
1005
20353
1005
20352
1005
20355
1005
20357
1005
20356
1005
2031F
1071
       22
1070
     0
1070
     1
1071
        3
1040
22.7389999999773
1040
3.670999999996297
1040
23.56599999997638
1040
5.5200999999945
1040
24.39299999997559
1040
3.670999999996297
1071
        3
1005
20338
1005
2033D
1005
20339
1070
     0
1070
     1
1040
0.0
1040
0.15
1070
     0
1070
     2
1040
0.7853981633974483
1040
49.29960901727088
1040
-10.17736998311392
1040
-0.3367596045400932
1040
0.3367596045400932
1070
     0
1040
2.356194490192345
1040
49.29960901727088
1040
-10.17736998311392
1040
-0.3367596045400932
1040
-0.3367596045400932
1070
     0
1040
0.0110235143455945
1071
        2
1040
21.97929957367762
1040
3.294304244259308
1040
0.0
1040
21.97929957367762
1040
3.294304244259308
1040
0.0
1002
}
  0
INSERT
  5
2035C
330
20316
100
AcDbEntity
  8
0
100
AcDbBlockReference
  2
*X95
 10
0.0
 20
0.0
 30
0.0
1001
ACAD
1000
HATCH
1002
{
1070
    19
1000
ANSI37
1040
0.15
1040
0.0
1000
R14_HATCH_DATA
1000
2035C
1011
1.0
1021
0.0
1031
0.0
1011
0.0
1021
1.0
1031
0.0
1011
0.0
1021
0.0
1031
1.0
1040
0.0
1010
0.0
1020
0.0
1030
1.0
1000
ANSI37
1070
     0
1070
     1
1071
        1
1071
        7
1070
     1
1070
     1
1071
       12
1040
31.64199999996833
1040
2.481619422925121
1040
0.2679491924310942
1040
32.94699999997067
1040
0.2212931190493919
1040
0.2679491924301353
1040
36.36699999995983
1040
0.2212931190459813
1040
0.2679491924321411
1040
37.67199999996831
1040
2.481619422928361
1040
0.0
1040
37.67199999996831
1040
8.763099999991255
1040
0.0
1040
36.23199999996837
1040
8.763099999991255
1040
0.0
1040
36.23199999996837
1040
2.481619422925064
1040
-0.2679491924310291
1040
35.64699999996708
1040
1.468369700498386
1040
-0.267949192430519
1040
33.66699999997093
1040
1.468369700497703
1040
-0.267949192431809
1040
33.08199999996839
1040
2.481619422926997
1040
0.0
1040
33.08199999996839
1040
8.763099999991255
1040
0.0
1040
31.64199999996833
1040
8.763099999991255
1040
0.0
1071
        0
1070
     0
1070
     1
1040
0.0
1040
0.15
1070
     0
1070
     2
1040
0.7853981633974483
1040
49.29960901727088
1040
-10.17736998311392
1040
-0.3367596045400932
1040
0.3367596045400932
1070
     0
1040
2.356194490192345
1040
49.29960901727088
1040
-10.17736998311392
1040
-0.3367596045400932
1040
-0.3367596045400932
1070
     0
1040
0.0110235143455945
1071
        1
1040
32.30357378967278
1040
3.988785755459219
1040
0.0
1002
}
  0
INSERT
  5
2035D
330
20316
100
AcDbEntity
  8
0
100
AcDbBlockReference
  2
*X96
 10
0.0
 20
0.0
 30
0.0
1001
ACAD
1000
HATCH
1002
{
1070
    19
1000
ANSI37
1040
0.15
1040
0.0
1000
ASC_BOUNDS
1070
     1
1070
     2
1070
     8
1005
2033E
1005
20341
1005
20345
1005
20344
1005
20343
1005
20340
1005
20342
1005
2033F
1000
ASC_SEEDPOINT
1011
39.74896370716704
1021
4.484843821435049
1031
0.0
1000
R14_HATCH_DATA
1000
2035D
1011
1.0
1021
0.0
1031
0.0
1011
0.0
1021
1.0
1031
0.0
1011
0.0
1021
0.0
1031
1.0
1040
0.0
1010
0.0
1020
0.0
1030
1.0
1000
ANSI37
1070
     0
1070
     1
1071
        1
1071
        7
1070
     0
1070
     1
1071
        9
1040
40.02599999995994
1040
5.341799999994635
1040
44.99999999995498
1040
-0.2368999999997641
1040
44.99999999995498
1040
8.763099999991255
1040
43.57899999995641
1040
8.763099999991255
1040
43.57899999995641
1040
3.421199999996588
1040
38.60499999996136
1040
8.999899999990987
1040
38.60499999996136
1040
8.999999999991019
1040
38.60499999996136
1040
0.0
1040
40.02599999995994
1040
0.0
1071
        8
1005
2033E
1005
20341
1005
20345
1005
20344
1005
20343
1005
20340
1005
20342
1005
2033F
1070
     0
1070
     1
1040
0.0
1040
0.15
1070
     0
1070
     2
1040
0.7853981633974483
1040
49.29960901727088
1040
-10.17736998311392
1040
-0.3367596045400932
1040
0.3367596045400932
1070
     0
1040
2.356194490192345
1040
49.29960901727088
1040
-10.17736998311392
1040
-0.3367596045400932
1040
-0.3367596045400932
1070
     0
1040
0.0110235143455945
1071
        1
1040
39.74896370716704
1040
4.484843821435049
1040
0.0
1002
}
  0
INSERT
  5
2035E
330
20316
100
AcDbEntity
  8
0
100
AcDbBlockReference
  2
*X97
 10
0.0
 20
0.0
 30
0.0
1001
ACAD
1000
HATCH
1002
{
1070
    19
1000
ANSI37
1040
0.15
1040
0.0
1000
ASC_BOUNDS
1070
     1
1070
     2
1070
     4
1005
20322
1005
20331
1005
20323
1005
20325
1000
ASC_SEEDPOINT
1011
1.079051535452663
1021
4.148538732891836
1031
0.0
1000
R14_HATCH_DATA
1000
2035E
1011
1.0
1021
0.0
1031
0.0
1011
0.0
1021
1.0
1031
0.0
1011
0.0
1021
0.0
1031
1.0
1040
0.0
1010
0.0
1020
0.0
1030
1.0
1000
ANSI37
1070
     0
1070
     1
1071
        1
1071
        7
1070
     0
1070
     1
1071
        4
1040
1.420999999998571
1040
0.0
1040
1.420999999998571
1040
8.763099999991255
1040
0.0
1040
8.763099999991255
1040
0.0
1040
0.0
1071
        4
1005
20322
1005
20331
1005
20323
1005
20325
1070
     0
1070
     1
1040
0.0
1040
0.15
1070
     0
1070
     2
1040
0.7853981633974483
1040
49.29960901727088
1040
-10.17736998311392
1040
-0.3367596045400932
1040
0.3367596045400932
1070
     0
1040
2.356194490192345
1040
49.29960901727088
1040
-10.17736998311392
1040
-0.3367596045400932
1040
-0.3367596045400932
1070
     0
1040
0.0053004257112761
1071
        1
1040
1.079051535452663
1040
4.148538732891836
1040
0.0
1002
}
  0
ENDBLK
  5
20A16
330
20316
100
AcDbEntity
  8
0
100
AcDbBlockEnd
  0
BLOCK
  5
22E19
330
22C8B
100
AcDbEntity
  8
0
100
AcDbBlockBegin
  2
*X92
 70
     1
 10
0.0
 20
0.0
 30
0.0
  3
*X92
  1

  0
LINE
  5
22C8C
330
22C8B
100
AcDbEntity
  8
0
  6
CONTINUOUS
100
AcDbLine
 10
3.418023043697893
 20
7.251849696850613
 30
0.0
 11
4.929273346838536
 21
8.763099999991255
 31
0.0
  0
LINE
  5
22C8D
330
22C8B
100
AcDbEntity
  8
0
  6
CONTINUOUS
100
AcDbLine
 10
1.483656411257782
 20
4.643963855330318
 30
0.0
 11
5.60279255591872
 21
8.763099999991255
 31
0.0
  0
LINE
  5
22C8E
330
22C8B
100
AcDbEntity
  8
0
  6
CONTINUOUS
100
AcDbLine
 10
1.755053947328235
 20
4.241842182320584
 30
0.0
 11
6.276311764998907
 21
8.763099999991255
 31
0.0
  0
LINE
  5
22C8F
330
22C8B
100
AcDbEntity
  8
0
  6
CONTINUOUS
100
AcDbLine
 10
2.026451483398688
 20
3.839720509310849
 30
0.0
 11
4.441040904851878
 21
6.254309930764039
 31
0.0
  0
LINE
  5
22C90
330
22C8B
100
AcDbEntity
  8
0
  6
CONTINUOUS
100
AcDbLine
 10
2.297849019469139
 20
3.437598836301114
 30
0.0
 11
3.321765168359338
 21
4.461514985191313
 31
0.0
  0
LINE
  5
22C91
330
22C8B
100
AcDbEntity
  8
0
  6
CONTINUOUS
100
AcDbLine
 10
2.569246555539591
 20
3.03547716329138
 30
0.0
 11
3.593163397972743
 21
4.059394005724531
 31
0.0
  0
LINE
  5
22C92
330
22C8B
100
AcDbEntity
  8
0
  6
CONTINUOUS
100
AcDbLine
 10
2.840644091610043
 20
2.633355490281646
 30
0.0
 11
3.864561627586149
 21
3.657273026257751
 31
0.0
  0
LINE
  5
22C93
330
22C8B
100
AcDbEntity
  8
0
  6
CONTINUOUS
100
AcDbLine
 10
3.112041627680496
 20
2.231233817271911
 30
0.0
 11
4.135959857199554
 21
3.25515204679097
 31
0.0
  0
LINE
  5
22C94
330
22C8B
100
AcDbEntity
  8
0
  6
CONTINUOUS
100
AcDbLine
 10
3.383439163750948
 20
1.829112144262177
 30
0.0
 11
4.40735808681296
 21
2.853031067324189
 31
0.0
  0
LINE
  5
22C95
330
22C8B
100
AcDbEntity
  8
0
  6
CONTINUOUS
100
AcDbLine
 10
3.654836699821399
 20
1.426990471252442
 30
0.0
 11
4.678756316426365
 21
2.450910087857407
 31
0.0
  0
LINE
  5
22C96
330
22C8B
100
AcDbEntity
  8
0
  6
CONTINUOUS
100
AcDbLine
 10
3.926234235891853
 20
1.024868798242709
 30
0.0
 11
4.95015454603977
 21
2.048789108390626
 31
0.0
  0
LINE
  5
22C97
330
22C8B
100
AcDbEntity
  8
0
  6
CONTINUOUS
100
AcDbLine
 10
4.197631771962304
 20
0.6227471252329737
 30
0.0
 11
5.221552775653176
 21
1.646668128923846
 31
0.0
  0
LINE
  5
22C98
330
22C8B
100
AcDbEntity
  8
0
  6
CONTINUOUS
100
AcDbLine
 10
8.715877546767851
 20
7.835069736359266
 30
0.0
 11
9.435953450375058
 21
8.555145639966472
 31
0.0
  0
LINE
  5
22C99
330
22C8B
100
AcDbEntity
  8
0
  6
CONTINUOUS
100
AcDbLine
 10
8.170620868422267
 20
6.616293848933497
 30
0.0
 11
9.644120833743461
 21
8.08979381425469
 31
0.0
  0
LINE
  5
22C9A
330
22C8B
100
AcDbEntity
  8
0
  6
CONTINUOUS
100
AcDbLine
 10
7.625364190076684
 20
5.397517961507727
 30
0.0
 11
9.852288217111864
 21
7.624441988542907
 31
0.0
  0
LINE
  5
22C9B
330
22C8B
100
AcDbEntity
  8
0
  6
CONTINUOUS
100
AcDbLine
 10
7.080107511731101
 20
4.178742074081957
 30
0.0
 11
10.06045560048027
 21
7.159090162831124
 31
0.0
  0
LINE
  5
22C9C
330
22C8B
100
AcDbEntity
  8
0
  6
CONTINUOUS
100
AcDbLine
 10
6.534850833385518
 20
2.959966186656187
 30
0.0
 11
10.26862298384867
 21
6.693738337119342
 31
0.0
  0
LINE
  5
22C9D
330
22C8B
100
AcDbEntity
  8
0
  6
CONTINUOUS
100
AcDbLine
 10
4.469029308032756
 20
0.2206254522232385
 30
0.0
 11
5.492951005266582
 21
1.244547149457064
 31
0.0
  0
LINE
  5
22C9E
330
22C8B
100
AcDbEntity
  8
0
  6
CONTINUOUS
100
AcDbLine
 10
5.989594155039935
 20
1.741190299230417
 30
0.0
 11
8.806950407233131
 21
4.558546551423613
 31
0.0
  0
LINE
  5
22C9F
330
22C8B
100
AcDbEntity
  8
0
  6
CONTINUOUS
100
AcDbLine
 10
9.401251593263643
 20
5.152847737454126
 30
0.0
 11
10.47679036721708
 21
6.228386511407559
 31
0.0
  0
LINE
  5
22CA0
330
22C8B
100
AcDbEntity
  8
0
  6
CONTINUOUS
100
AcDbLine
 10
4.921837203428691
 20
-0.0000858614610131
 30
0.0
 11
8.592923064886001
 21
3.670999999996297
 31
0.0
  0
LINE
  5
22CA1
330
22C8B
100
AcDbEntity
  8
0
  6
CONTINUOUS
100
AcDbLine
 10
9.609390446785305
 20
4.6874673818956
 30
0.0
 11
10.68495775058548
 21
5.763034685695775
 31
0.0
  0
LINE
  5
22CA2
330
22C8B
100
AcDbEntity
  8
0
  6
CONTINUOUS
100
AcDbLine
 10
5.595387755019432
 20
-0.0000545189504582
 30
0.0
 11
7.716137258923768
 21
2.120694984953879
 31
0.0
  0
LINE
  5
22CA3
330
22C8B
100
AcDbEntity
  8
0
  6
CONTINUOUS
100
AcDbLine
 10
6.268938306610172
 20
-0.000023176439905
 30
0.0
 11
7.170485805526503
 21
0.9015243224764267
 31
0.0
  0
LINE
  5
22CA4
330
22C8B
100
AcDbEntity
  8
0
  6
CONTINUOUS
100
AcDbLine
 10
7.963842273967511
 20
2.368399999997621
 30
0.0
 11
9.266442273966188
 21
3.670999999996297
 31
0.0
  0
LINE
  5
22CA5
330
22C8B
100
AcDbEntity
  8
0
  6
CONTINUOUS
100
AcDbLine
 10
8.637361483047696
 20
2.368399999997621
 30
0.0
 11
9.939961483046375
 21
3.670999999996297
 31
0.0
  0
LINE
  5
22CA6
330
22C8B
100
AcDbEntity
  8
0
  6
CONTINUOUS
100
AcDbLine
 10
9.817529300306965
 20
4.222087026337075
 30
0.0
 11
10.89312513395388
 21
5.297682859983993
 31
0.0
  0
LINE
  5
22CA7
330
22C8B
100
AcDbEntity
  8
0
  6
CONTINUOUS
100
AcDbLine
 10
10.02566815382863
 20
3.756706670778549
 30
0.0
 11
11.10129251732229
 21
4.832331034272211
 31
0.0
  0
LINE
  5
22CA8
330
22C8B
100
AcDbEntity
  8
0
  6
CONTINUOUS
100
AcDbLine
 10
9.310880692127883
 20
2.368399999997621
 30
0.0
 11
11.30945990069069
 21
4.366979208560428
 31
0.0
  0
LINE
  5
22CA9
330
22C8B
100
AcDbEntity
  8
0
  6
CONTINUOUS
100
AcDbLine
 10
9.98439990120807
 20
2.36839999999762
 30
0.0
 11
11.5176272840591
 21
3.901627382848645
 31
0.0
  0
LINE
  5
22CAA
330
22C8B
100
AcDbEntity
  8
0
  6
CONTINUOUS
100
AcDbLine
 10
10.65037369446246
 20
2.36085458417182
 30
0.0
 11
11.7257946674275
 21
3.436275557136862
 31
0.0
  0
LINE
  5
22CAB
330
22C8B
100
AcDbEntity
  8
0
  6
CONTINUOUS
100
AcDbLine
 10
10.85847197087848
 20
1.895433651507656
 30
0.0
 11
11.9339620507959
 21
2.97092373142508
 31
0.0
  0
LINE
  5
22CAC
330
22C8B
100
AcDbEntity
  8
0
  6
CONTINUOUS
100
AcDbLine
 10
11.0665702472945
 20
1.430012718843491
 30
0.0
 11
12.14212943416431
 21
2.505571905713296
 31
0.0
  0
LINE
  5
22CAD
330
22C8B
100
AcDbEntity
  8
0
  6
CONTINUOUS
100
AcDbLine
 10
11.27466852371052
 20
0.9645917861793256
 30
0.0
 11
12.35029681753271
 21
2.040220080001513
 31
0.0
  0
LINE
  5
22CAE
330
22C8B
100
AcDbEntity
  8
0
  6
CONTINUOUS
100
AcDbLine
 10
11.48276680012654
 20
0.4991708535151611
 30
0.0
 11
12.55846420090111
 21
1.57486825428973
 31
0.0
  0
LINE
  5
22CAF
330
22C8B
100
AcDbEntity
  8
0
  6
CONTINUOUS
100
AcDbLine
 10
11.69086507654257
 20
0.0337499208509957
 30
0.0
 11
12.76663158426952
 21
1.109516428577947
 31
0.0
  0
LINE
  5
22CB0
330
22C8B
100
AcDbEntity
  8
0
  6
CONTINUOUS
100
AcDbLine
 10
12.33057447873954
 20
-0.0000598860322123
 30
0.0
 11
12.97479896763792
 21
0.6441646028661663
 31
0.0
  0
LINE
  5
22CB1
330
22C8B
100
AcDbEntity
  8
0
  6
CONTINUOUS
100
AcDbLine
 10
13.00413694809395
 20
-0.0000166257579952
 30
0.0
 11
13.18296635100632
 21
0.1788127771543824
 31
0.0
  0
LINE
  5
22CB2
330
22C8B
100
AcDbEntity
  8
0
  6
CONTINUOUS
100
AcDbLine
 10
4.772852165289667
 20
-0.000092794222212
 30
0.0
 11
4.296495091028902
 21
0.4762642800385528
 31
0.0
  0
LINE
  5
22CB3
330
22C8B
100
AcDbEntity
  8
0
  6
CONTINUOUS
100
AcDbLine
 10
5.446340034776103
 20
-0.0000614546284616
 30
0.0
 11
2.898195908335625
 21
2.548082671812017
 31
0.0
  0
LINE
  5
22CB4
330
22C8B
100
AcDbEntity
  8
0
  6
CONTINUOUS
100
AcDbLine
 10
6.119827904262539
 20
-0.0000301150347113
 30
0.0
 11
1.499896725642348
 21
4.61990106358548
 31
0.0
  0
LINE
  5
22CB5
330
22C8B
100
AcDbEntity
  8
0
  6
CONTINUOUS
100
AcDbLine
 10
6.775136745476159
 20
0.0181802528318542
 30
0.0
 11
5.699826040202669
 21
1.093490958105344
 31
0.0
  0
LINE
  5
22CB6
330
22C8B
100
AcDbEntity
  8
0
  6
CONTINUOUS
100
AcDbLine
 10
6.983376846288489
 20
0.4834593610997118
 30
0.0
 11
5.908008617934405
 21
1.558827589453796
 31
0.0
  0
LINE
  5
22CB7
330
22C8B
100
AcDbEntity
  8
0
  6
CONTINUOUS
100
AcDbLine
 10
5.377063484962296
 20
1.416253513345719
 30
0.0
 11
1.702276957014131
 21
5.091040041293883
 31
0.0
  0
LINE
  5
22CB8
330
22C8B
100
AcDbEntity
  8
0
  6
CONTINUOUS
100
AcDbLine
 10
3.978745891735324
 20
3.488090315652877
 30
0.0
 11
2.000373521109399
 21
5.466462686278803
 31
0.0
  0
LINE
  5
22CB9
330
22C8B
100
AcDbEntity
  8
0
  6
CONTINUOUS
100
AcDbLine
 10
7.191616947100819
 20
0.948738469367568
 30
0.0
 11
6.11619119566614
 21
2.024164220802247
 31
0.0
  0
LINE
  5
22CBA
330
22C8B
100
AcDbEntity
  8
0
  6
CONTINUOUS
100
AcDbLine
 10
7.399857047913149
 20
1.414017577635424
 30
0.0
 11
6.324373773397875
 21
2.489500852150698
 31
0.0
  0
LINE
  5
22CBB
330
22C8B
100
AcDbEntity
  8
0
  6
CONTINUOUS
100
AcDbLine
 10
7.608097148725479
 20
1.879296685903281
 30
0.0
 11
6.53255635112961
 21
2.95483748349915
 31
0.0
  0
LINE
  5
22CBC
330
22C8B
100
AcDbEntity
  8
0
  6
CONTINUOUS
100
AcDbLine
 10
7.816337249537808
 20
2.344575794171138
 30
0.0
 11
6.740738928861345
 21
3.420174114847601
 31
0.0
  0
LINE
  5
22CBD
330
22C8B
100
AcDbEntity
  8
0
  6
CONTINUOUS
100
AcDbLine
 10
3.310241080789734
 20
4.830114335678653
 30
0.0
 11
2.298470085204666
 21
5.84188533126372
 31
0.0
  0
LINE
  5
22CBE
330
22C8B
100
AcDbEntity
  8
0
  6
CONTINUOUS
100
AcDbLine
 10
3.60832983563551
 20
5.205544789913063
 30
0.0
 11
2.596566649299935
 21
6.217307976248638
 31
0.0
  0
LINE
  5
22CBF
330
22C8B
100
AcDbEntity
  8
0
  6
CONTINUOUS
100
AcDbLine
 10
3.906418590481286
 20
5.580975244147473
 30
0.0
 11
2.894663213395203
 21
6.592730621233557
 31
0.0
  0
LINE
  5
22CC0
330
22C8B
100
AcDbEntity
  8
0
  6
CONTINUOUS
100
AcDbLine
 10
4.204507345327062
 20
5.956405698381884
 30
0.0
 11
3.192759777490472
 21
6.968153266218474
 31
0.0
  0
LINE
  5
22CC1
330
22C8B
100
AcDbEntity
  8
0
  6
CONTINUOUS
100
AcDbLine
 10
8.466032252791512
 20
2.368399999997621
 30
0.0
 11
6.948921506593081
 21
3.885510746196053
 31
0.0
  0
LINE
  5
22CC2
330
22C8B
100
AcDbEntity
  8
0
  6
CONTINUOUS
100
AcDbLine
 10
9.139551461871699
 20
2.36839999999762
 30
0.0
 11
7.157104084324816
 21
4.350847377544504
 31
0.0
  0
LINE
  5
22CC3
330
22C8B
100
AcDbEntity
  8
0
  6
CONTINUOUS
100
AcDbLine
 10
4.502596100172839
 20
6.331836152616295
 30
0.0
 11
3.49085634158574
 21
7.343575911203393
 31
0.0
  0
LINE
  5
22CC4
330
22C8B
100
AcDbEntity
  8
0
  6
CONTINUOUS
100
AcDbLine
 10
4.800684855018615
 20
6.707266606850705
 30
0.0
 11
3.788952905681008
 21
7.718998556188312
 31
0.0
  0
LINE
  5
22CC5
330
22C8B
100
AcDbEntity
  8
0
  6
CONTINUOUS
100
AcDbLine
 10
12.18154012887317
 20
-0.0000694579236642
 30
0.0
 11
11.32140332908496
 21
0.8600673418645499
 31
0.0
  0
LINE
  5
22CC6
330
22C8B
100
AcDbEntity
  8
0
  6
CONTINUOUS
100
AcDbLine
 10
12.85501608323566
 20
-0.0000262032059659
 30
0.0
 11
10.77672456435345
 21
2.078265315676246
 31
0.0
  0
LINE
  5
22CC7
330
22C8B
100
AcDbEntity
  8
0
  6
CONTINUOUS
100
AcDbLine
 10
9.813070670951886
 20
2.36839999999762
 30
0.0
 11
8.51047067095321
 21
3.670999999996297
 31
0.0
  0
LINE
  5
22CC8
330
22C8B
100
AcDbEntity
  8
0
  6
CONTINUOUS
100
AcDbLine
 10
10.48658988003207
 20
2.36839999999762
 30
0.0
 11
9.183989880033396
 21
3.670999999996297
 31
0.0
  0
LINE
  5
22CC9
330
22C8B
100
AcDbEntity
  8
0
  6
CONTINUOUS
100
AcDbLine
 10
8.441048632286794
 20
3.740422038662712
 30
0.0
 11
7.365286662056551
 21
4.816184008892956
 31
0.0
  0
LINE
  5
22CCA
330
22C8B
100
AcDbEntity
  8
0
  6
CONTINUOUS
100
AcDbLine
 10
8.649187485808454
 20
4.205802394221237
 30
0.0
 11
7.573469239788285
 21
5.281520640241407
 31
0.0
  0
LINE
  5
22CCB
330
22C8B
100
AcDbEntity
  8
0
  6
CONTINUOUS
100
AcDbLine
 10
5.098773609864391
 20
7.082697061085115
 30
0.0
 11
4.087049469776277
 21
8.09442120117323
 31
0.0
  0
LINE
  5
22CCC
330
22C8B
100
AcDbEntity
  8
0
  6
CONTINUOUS
100
AcDbLine
 10
5.396862364710167
 20
7.458127515319526
 30
0.0
 11
4.385146033871544
 21
8.469843846158149
 31
0.0
  0
LINE
  5
22CCD
330
22C8B
100
AcDbEntity
  8
0
  6
CONTINUOUS
100
AcDbLine
 10
13.04801363231285
 20
0.4804954567970334
 30
0.0
 11
9.85750908911358
 21
3.670999999996297
 31
0.0
  0
LINE
  5
22CCE
330
22C8B
100
AcDbEntity
  8
0
  6
CONTINUOUS
100
AcDbLine
 10
8.857326339330116
 20
4.671182749779763
 30
0.0
 11
7.781651817520021
 21
5.746857271589858
 31
0.0
  0
LINE
  5
22CCF
330
22C8B
100
AcDbEntity
  8
0
  6
CONTINUOUS
100
AcDbLine
 10
5.694951119555943
 20
7.833557969553937
 30
0.0
 11
4.765409089118624
 21
8.763099999991255
 31
0.0
  0
LINE
  5
22CD0
330
22C8B
100
AcDbEntity
  8
0
  6
CONTINUOUS
100
AcDbLine
 10
12.50286117236978
 20
1.699167125820288
 30
0.0
 11
9.68611877250287
 21
4.515909525687196
 31
0.0
  0
LINE
  5
22CD1
330
22C8B
100
AcDbEntity
  8
0
  6
CONTINUOUS
100
AcDbLine
 10
9.065465192851777
 20
5.136563105338288
 30
0.0
 11
7.989834395251757
 21
6.21219390293831
 31
0.0
  0
LINE
  5
22CD2
330
22C8B
100
AcDbEntity
  8
0
  6
CONTINUOUS
100
AcDbLine
 10
5.993039874401719
 20
8.208988423788346
 30
0.0
 11
5.43892829819881
 21
8.763099999991255
 31
0.0
  0
LINE
  5
22CD3
330
22C8B
100
AcDbEntity
  8
0
  6
CONTINUOUS
100
AcDbLine
 10
11.95770871242671
 20
2.917838794843543
 30
0.0
 11
8.19801697298349
 21
6.677530534286761
 31
0.0
  0
LINE
  5
22CD4
330
22C8B
100
AcDbEntity
  8
0
  6
CONTINUOUS
100
AcDbLine
 10
6.291128629247495
 20
8.584418878022756
 30
0.0
 11
6.112447507278997
 21
8.763099999991255
 31
0.0
  0
LINE
  5
22CD5
330
22C8B
100
AcDbEntity
  8
0
  6
CONTINUOUS
100
AcDbLine
 10
11.41255625248364
 20
4.136510463866797
 30
0.0
 11
8.406199550715227
 21
7.142867165635211
 31
0.0
  0
LINE
  5
22CD6
330
22C8B
100
AcDbEntity
  8
0
  6
CONTINUOUS
100
AcDbLine
 10
10.86740379254057
 20
5.355182132890051
 30
0.0
 11
8.614382128446962
 21
7.608203796983664
 31
0.0
  0
LINE
  5
22CD7
330
22C8B
100
AcDbEntity
  8
0
  6
CONTINUOUS
100
AcDbLine
 10
10.3222513325975
 20
6.573853801913305
 30
0.0
 11
8.822564706178696
 21
8.073540428332114
 31
0.0
  0
LINE
  5
22CD8
330
22C8B
100
AcDbEntity
  8
0
  6
CONTINUOUS
100
AcDbLine
 10
9.777098872654436
 20
7.792525470936562
 30
0.0
 11
9.030747283910433
 21
8.538877059680566
 31
0.0
  0
ENDBLK
  5
22E1A
330
22C8B
100
AcDbEntity
  8
0
100
AcDbBlockEnd
  0
BLOCK
  5
22E1B
330
22CD9
100
AcDbEntity
  8
0
100
AcDbBlockBegin
  2
*X93
 70
     1
 10
0.0
 20
0.0
 30
0.0
  3
*X93
  1

  0
LINE
  5
22CDA
330
22CD9
100
AcDbEntity
  8
0
  6
CONTINUOUS
100
AcDbLine
 10
10.67292308101235
 20
8.445076852443387
 30
0.0
 11
10.99094622856022
 21
8.763099999991255
 31
0.0
  0
LINE
  5
22CDB
330
22CD9
100
AcDbEntity
  8
0
  6
CONTINUOUS
100
AcDbLine
 10
10.87250383178748
 20
7.971138394138331
 30
0.0
 11
11.6644654376404
 21
8.763099999991255
 31
0.0
  0
LINE
  5
22CDC
330
22CD9
100
AcDbEntity
  8
0
  6
CONTINUOUS
100
AcDbLine
 10
11.07208458256261
 20
7.497199935833273
 30
0.0
 11
12.12126590876355
 21
8.546381262034211
 31
0.0
  0
LINE
  5
22CDD
330
22CD9
100
AcDbEntity
  8
0
  6
CONTINUOUS
100
AcDbLine
 10
11.27166533333774
 20
7.023261477528216
 30
0.0
 11
12.32085164573666
 21
8.072447789927136
 31
0.0
  0
LINE
  5
22CDE
330
22CD9
100
AcDbEntity
  8
0
  6
CONTINUOUS
100
AcDbLine
 10
11.47124608411287
 20
6.549323019223158
 30
0.0
 11
12.52043738270977
 21
7.59851431782006
 31
0.0
  0
LINE
  5
22CDF
330
22CD9
100
AcDbEntity
  8
0
  6
CONTINUOUS
100
AcDbLine
 10
11.670826834888
 20
6.075384560918101
 30
0.0
 11
12.72002311968288
 21
7.124580845712984
 31
0.0
  0
LINE
  5
22CE0
330
22CD9
100
AcDbEntity
  8
0
  6
CONTINUOUS
100
AcDbLine
 10
11.87040758566313
 20
5.601446102613043
 30
0.0
 11
12.91960885665599
 21
6.650647373605907
 31
0.0
  0
LINE
  5
22CE1
330
22CD9
100
AcDbEntity
  8
0
  6
CONTINUOUS
100
AcDbLine
 10
12.06998833643825
 20
5.127507644307986
 30
0.0
 11
13.1191945936291
 21
6.176713901498832
 31
0.0
  0
LINE
  5
22CE2
330
22CD9
100
AcDbEntity
  8
0
  6
CONTINUOUS
100
AcDbLine
 10
12.26956908721338
 20
4.65356918600293
 30
0.0
 11
13.31878033060221
 21
5.702780429391757
 31
0.0
  0
LINE
  5
22CE3
330
22CD9
100
AcDbEntity
  8
0
  6
CONTINUOUS
100
AcDbLine
 10
12.46914983798851
 20
4.179630727697873
 30
0.0
 11
13.51836606757532
 21
5.228846957284683
 31
0.0
  0
LINE
  5
22CE4
330
22CD9
100
AcDbEntity
  8
0
  6
CONTINUOUS
100
AcDbLine
 10
12.66873058876364
 20
3.705692269392816
 30
0.0
 11
13.71795180454843
 21
4.754913485177607
 31
0.0
  0
LINE
  5
22CE5
330
22CD9
100
AcDbEntity
  8
0
  6
CONTINUOUS
100
AcDbLine
 10
12.86831133953877
 20
3.231753811087759
 30
0.0
 11
13.91753754152154
 21
4.280980013070531
 31
0.0
  0
LINE
  5
22CE6
330
22CD9
100
AcDbEntity
  8
0
  6
CONTINUOUS
100
AcDbLine
 10
13.0678920903139
 20
2.757815352782702
 30
0.0
 11
14.11712327849465
 21
3.807046540963456
 31
0.0
  0
LINE
  5
22CE7
330
22CD9
100
AcDbEntity
  8
0
  6
CONTINUOUS
100
AcDbLine
 10
13.26747284108903
 20
2.283876894477644
 30
0.0
 11
14.31670901546777
 21
3.333113068856379
 31
0.0
  0
LINE
  5
22CE8
330
22CD9
100
AcDbEntity
  8
0
  6
CONTINUOUS
100
AcDbLine
 10
16.36767838827179
 20
8.751678487061342
 30
0.0
 11
16.50332410898388
 21
8.887324207773432
 31
0.0
  0
LINE
  5
22CE9
330
22CD9
100
AcDbEntity
  8
0
  6
CONTINUOUS
100
AcDbLine
 10
15.96190732182191
 20
7.67238821153127
 30
0.0
 11
16.68735328004734
 21
8.397834169756699
 31
0.0
  0
LINE
  5
22CEA
330
22CD9
100
AcDbEntity
  8
0
  6
CONTINUOUS
100
AcDbLine
 10
15.55613625537202
 20
6.593097936001196
 30
0.0
 11
16.87138245111079
 21
7.908344131739965
 31
0.0
  0
LINE
  5
22CEB
330
22CD9
100
AcDbEntity
  8
0
  6
CONTINUOUS
100
AcDbLine
 10
15.15036518892213
 20
5.513807660471122
 30
0.0
 11
17.05541162217424
 21
7.418854093723231
 31
0.0
  0
LINE
  5
22CEC
330
22CD9
100
AcDbEntity
  8
0
  6
CONTINUOUS
100
AcDbLine
 10
14.74459412247225
 20
4.434517384941048
 30
0.0
 11
17.2394407932377
 21
6.929364055706499
 31
0.0
  0
LINE
  5
22CED
330
22CD9
100
AcDbEntity
  8
0
  6
CONTINUOUS
100
AcDbLine
 10
14.33882305602236
 20
3.355227109410975
 30
0.0
 11
17.42346996430115
 21
6.439874017689766
 31
0.0
  0
LINE
  5
22CEE
330
22CD9
100
AcDbEntity
  8
0
  6
CONTINUOUS
100
AcDbLine
 10
13.46705359186416
 20
1.809938436172586
 30
0.0
 11
16.0819338255367
 21
4.424818669845129
 31
0.0
  0
LINE
  5
22CEF
330
22CD9
100
AcDbEntity
  8
0
  6
CONTINUOUS
100
AcDbLine
 10
16.63283254238972
 20
4.975717386698149
 30
0.0
 11
17.60749913536461
 21
5.950383979673033
 31
0.0
  0
LINE
  5
22CF0
330
22CD9
100
AcDbEntity
  8
0
  6
CONTINUOUS
100
AcDbLine
 10
13.66663434263929
 20
1.335999977867529
 30
0.0
 11
15.67604797733754
 21
3.345413612565779
 31
0.0
  0
LINE
  5
22CF1
330
22CD9
100
AcDbEntity
  8
0
  6
CONTINUOUS
100
AcDbLine
 10
13.86621509341442
 20
0.8620615195624723
 30
0.0
 11
15.27016212913838
 21
2.26600855528643
 31
0.0
  0
LINE
  5
22CF2
330
22CD9
100
AcDbEntity
  8
0
  6
CONTINUOUS
100
AcDbLine
 10
16.81682257348267
 20
4.486188208710908
 30
0.0
 11
17.79152830642806
 21
5.460893941656299
 31
0.0
  0
LINE
  5
22CF3
330
22CD9
100
AcDbEntity
  8
0
  6
CONTINUOUS
100
AcDbLine
 10
17.00081260457561
 20
3.996659030723667
 30
0.0
 11
17.97555747749151
 21
4.971403903639565
 31
0.0
  0
LINE
  5
22CF4
330
22CD9
100
AcDbEntity
  8
0
  6
CONTINUOUS
100
AcDbLine
 10
20.74362343514722
 20
8.412989070375462
 30
0.0
 11
21.09373436476302
 21
8.763099999991256
 31
0.0
  0
LINE
  5
22CF5
330
22CD9
100
AcDbEntity
  8
0
  6
CONTINUOUS
100
AcDbLine
 10
20.25401257174777
 20
7.249858997895826
 30
0.0
 11
21.7672535738432
 21
8.763099999991255
 31
0.0
  0
LINE
  5
22CF6
330
22CD9
100
AcDbEntity
  8
0
  6
CONTINUOUS
100
AcDbLine
 10
14.06579584418955
 20
0.3881230612574149
 30
0.0
 11
14.86427628093921
 21
1.186603498007082
 31
0.0
  0
LINE
  5
22CF7
330
22CD9
100
AcDbEntity
  8
0
  6
CONTINUOUS
100
AcDbLine
 10
14.26537659496467
 20
-0.0858153970476412
 30
0.0
 11
14.45839043274005
 21
0.1071984407277329
 31
0.0
  0
LINE
  5
22CF8
330
22CD9
100
AcDbEntity
  8
0
  6
CONTINUOUS
100
AcDbLine
 10
17.18480263566856
 20
3.507129852736426
 30
0.0
 11
18.15958664855496
 21
4.481913865622833
 31
0.0
  0
LINE
  5
22CF9
330
22CD9
100
AcDbEntity
  8
0
  6
CONTINUOUS
100
AcDbLine
 10
17.3687926667615
 20
3.017600674749186
 30
0.0
 11
18.34361581961842
 21
3.9924238276061
 31
0.0
  0
LINE
  5
22CFA
330
22CD9
100
AcDbEntity
  8
0
  6
CONTINUOUS
100
AcDbLine
 10
19.76440170834832
 20
6.086728925416191
 30
0.0
 11
22.33924590259489
 21
8.661573119662755
 31
0.0
  0
LINE
  5
22CFB
330
22CD9
100
AcDbEntity
  8
0
  6
CONTINUOUS
100
AcDbLine
 10
19.27479084494887
 20
4.923598852936555
 30
0.0
 11
21.84929622842713
 21
7.498104236414807
 31
0.0
  0
LINE
  5
22CFC
330
22CD9
100
AcDbEntity
  8
0
  6
CONTINUOUS
100
AcDbLine
 10
17.55278269785445
 20
2.528071496761945
 30
0.0
 11
18.52764499068187
 21
3.502933789589366
 31
0.0
  0
LINE
  5
22CFD
330
22CD9
100
AcDbEntity
  8
0
  6
CONTINUOUS
100
AcDbLine
 10
18.78517998154942
 20
3.760468780456919
 30
0.0
 11
21.35934655425936
 21
6.33463535316686
 31
0.0
  0
LINE
  5
22CFE
330
22CD9
100
AcDbEntity
  8
0
  6
CONTINUOUS
100
AcDbLine
 10
17.73677272894739
 20
2.038542318774704
 30
0.0
 11
20.8693968800916
 21
5.171166469918914
 31
0.0
  0
LINE
  5
22CFF
330
22CD9
100
AcDbEntity
  8
0
  6
CONTINUOUS
100
AcDbLine
 10
17.92076276004034
 20
1.549013140787464
 30
0.0
 11
20.37944720592384
 21
4.007697586670968
 31
0.0
  0
LINE
  5
22D00
330
22CD9
100
AcDbEntity
  8
0
  6
CONTINUOUS
100
AcDbLine
 10
18.10475279113329
 20
1.059483962800223
 30
0.0
 11
19.88949753175608
 21
2.84422870342302
 31
0.0
  0
LINE
  5
22D01
330
22CD9
100
AcDbEntity
  8
0
  6
CONTINUOUS
100
AcDbLine
 10
18.28874282222623
 20
0.5699547848129822
 30
0.0
 11
19.39954785758832
 21
1.680759820175074
 31
0.0
  0
LINE
  5
22D02
330
22CD9
100
AcDbEntity
  8
0
  6
CONTINUOUS
100
AcDbLine
 10
18.47273285331918
 20
0.0804256068257416
 30
0.0
 11
18.90959818342056
 21
0.517290936927127
 31
0.0
  0
LINE
  5
22D03
330
22CD9
100
AcDbEntity
  8
0
  6
CONTINUOUS
100
AcDbLine
 10
14.3590401358224
 20
-0.1570118376323384
 30
0.0
 11
14.24903296539946
 21
-0.0470046672093929
 31
0.0
  0
LINE
  5
22D04
330
22CD9
100
AcDbEntity
  8
0
  6
CONTINUOUS
100
AcDbLine
 10
14.54309291258661
 20
0.332454594683643
 30
0.0
 11
13.75908329123172
 21
1.116464216038529
 31
0.0
  0
LINE
  5
22D05
330
22CD9
100
AcDbEntity
  8
0
  6
CONTINUOUS
100
AcDbLine
 10
14.72714568935081
 20
0.8219210269996244
 30
0.0
 11
13.26913361706399
 21
2.27993309928645
 31
0.0
  0
LINE
  5
22D06
330
22CD9
100
AcDbEntity
  8
0
  6
CONTINUOUS
100
AcDbLine
 10
14.91119846611502
 20
1.311387459315606
 30
0.0
 11
12.77918394289625
 21
3.443401982534371
 31
0.0
  0
LINE
  5
22D07
330
22CD9
100
AcDbEntity
  8
0
  6
CONTINUOUS
100
AcDbLine
 10
15.09525124287922
 20
1.800853891631587
 30
0.0
 11
12.28923426872852
 21
4.606870865782293
 31
0.0
  0
LINE
  5
22D08
330
22CD9
100
AcDbEntity
  8
0
  6
CONTINUOUS
100
AcDbLine
 10
15.27930401964343
 20
2.290320323947569
 30
0.0
 11
11.79928459456078
 21
5.770339749030213
 31
0.0
  0
LINE
  5
22D09
330
22CD9
100
AcDbEntity
  8
0
  6
CONTINUOUS
100
AcDbLine
 10
15.46335679640763
 20
2.77978675626355
 30
0.0
 11
14.48885470994921
 21
3.754288842721972
 31
0.0
  0
LINE
  5
22D0A
330
22CD9
100
AcDbEntity
  8
0
  6
CONTINUOUS
100
AcDbLine
 10
13.88507249233704
 20
4.358071060334137
 30
0.0
 11
11.30933492039305
 21
6.933808632278135
 31
0.0
  0
LINE
  5
22D0B
330
22CD9
100
AcDbEntity
  8
0
  6
CONTINUOUS
100
AcDbLine
 10
18.75840522805855
 20
0.1582575336928151
 30
0.0
 11
18.25383727664818
 21
0.6628254851031863
 31
0.0
  0
LINE
  5
22D0C
330
22CD9
100
AcDbEntity
  8
0
  6
CONTINUOUS
100
AcDbLine
 10
15.64740957317184
 20
3.269253188579531
 30
0.0
 11
14.67288388101266
 21
4.243778880738705
 31
0.0
  0
LINE
  5
22D0D
330
22CD9
100
AcDbEntity
  8
0
  6
CONTINUOUS
100
AcDbLine
 10
13.39509276772158
 20
5.521569994029786
 30
0.0
 11
10.81938524622531
 21
8.097277515526056
 31
0.0
  0
LINE
  5
22D0E
330
22CD9
100
AcDbEntity
  8
0
  6
CONTINUOUS
100
AcDbLine
 10
18.95798597883369
 20
0.6321959919978686
 30
0.0
 11
17.84825644852853
 21
1.741925522303024
 31
0.0
  0
LINE
  5
22D0F
330
22CD9
100
AcDbEntity
  8
0
  6
CONTINUOUS
100
AcDbLine
 10
19.15756672960882
 20
1.106134450302922
 30
0.0
 11
17.44267562040888
 21
2.821025559502861
 31
0.0
  0
LINE
  5
22D10
330
22CD9
100
AcDbEntity
  8
0
  6
CONTINUOUS
100
AcDbLine
 10
15.83146234993604
 20
3.758719620895513
 30
0.0
 11
14.85691305207612
 21
4.733268918755439
 31
0.0
  0
LINE
  5
22D11
330
22CD9
100
AcDbEntity
  8
0
  6
CONTINUOUS
100
AcDbLine
 10
16.01551512670025
 20
4.248186053211494
 30
0.0
 11
15.04094222313957
 21
5.222758956772172
 31
0.0
  0
LINE
  5
22D12
330
22CD9
100
AcDbEntity
  8
0
  6
CONTINUOUS
100
AcDbLine
 10
12.90511304310612
 20
6.685068927725435
 30
0.0
 11
10.8270819708403
 21
8.763099999991255
 31
0.0
  0
LINE
  5
22D13
330
22CD9
100
AcDbEntity
  8
0
  6
CONTINUOUS
100
AcDbLine
 10
12.41513331849066
 20
7.848567861421083
 30
0.0
 11
11.50060117992049
 21
8.763099999991255
 31
0.0
  0
LINE
  5
22D14
330
22CD9
100
AcDbEntity
  8
0
  6
CONTINUOUS
100
AcDbLine
 10
19.35714748038395
 20
1.580072908607975
 30
0.0
 11
17.03709479228923
 21
3.900125596702697
 31
0.0
  0
LINE
  5
22D15
330
22CD9
100
AcDbEntity
  8
0
  6
CONTINUOUS
100
AcDbLine
 10
19.55672823115909
 20
2.054011366913028
 30
0.0
 11
16.63151396416958
 21
4.979225633902534
 31
0.0
  0
LINE
  5
22D16
330
22CD9
100
AcDbEntity
  8
0
  6
CONTINUOUS
100
AcDbLine
 10
16.19956790346445
 20
4.737652485527476
 30
0.0
 11
15.22497139420302
 21
5.712248994788904
 31
0.0
  0
LINE
  5
22D17
330
22CD9
100
AcDbEntity
  8
0
  6
CONTINUOUS
100
AcDbLine
 10
16.38362068022866
 20
5.227118917843457
 30
0.0
 11
15.40900056526648
 21
6.201739032805637
 31
0.0
  0
LINE
  5
22D18
330
22CD9
100
AcDbEntity
  8
0
  6
CONTINUOUS
100
AcDbLine
 10
19.75630898193422
 20
2.527949825218081
 30
0.0
 11
18.70774536448286
 21
3.576513442669441
 31
0.0
  0
LINE
  5
22D19
330
22CD9
100
AcDbEntity
  8
0
  6
CONTINUOUS
100
AcDbLine
 10
19.95588973270936
 20
3.001888283523134
 30
0.0
 11
18.90726987211446
 21
4.050508144118028
 31
0.0
  0
LINE
  5
22D1A
330
22CD9
100
AcDbEntity
  8
0
  6
CONTINUOUS
100
AcDbLine
 10
20.15547048348449
 20
3.475826741828186
 30
0.0
 11
19.10679437974606
 21
4.524502845566614
 31
0.0
  0
LINE
  5
22D1B
330
22CD9
100
AcDbEntity
  8
0
  6
CONTINUOUS
100
AcDbLine
 10
20.35505123425962
 20
3.94976520013324
 30
0.0
 11
19.30631888737766
 21
4.998497547015201
 31
0.0
  0
LINE
  5
22D1C
330
22CD9
100
AcDbEntity
  8
0
  6
CONTINUOUS
100
AcDbLine
 10
20.55463198503475
 20
4.423703658438292
 30
0.0
 11
19.50584339500926
 21
5.472492248463787
 31
0.0
  0
LINE
  5
22D1D
330
22CD9
100
AcDbEntity
  8
0
  6
CONTINUOUS
100
AcDbLine
 10
18.37481191085755
 20
3.909446896294752
 30
0.0
 11
15.59302973632993
 21
6.691229070822371
 31
0.0
  0
LINE
  5
22D1E
330
22CD9
100
AcDbEntity
  8
0
  6
CONTINUOUS
100
AcDbLine
 10
17.96904084440766
 20
4.988737171824825
 30
0.0
 11
15.77705890739338
 21
7.180719108839104
 31
0.0
  0
LINE
  5
22D1F
330
22CD9
100
AcDbEntity
  8
0
  6
CONTINUOUS
100
AcDbLine
 10
17.56326977795777
 20
6.068027447354899
 30
0.0
 11
15.96108807845684
 21
7.670209146855838
 31
0.0
  0
LINE
  5
22D20
330
22CD9
100
AcDbEntity
  8
0
  6
CONTINUOUS
100
AcDbLine
 10
17.15749871150789
 20
7.147317722884972
 30
0.0
 11
16.14511724952029
 21
8.15969918487257
 31
0.0
  0
LINE
  5
22D21
330
22CD9
100
AcDbEntity
  8
0
  6
CONTINUOUS
100
AcDbLine
 10
16.751727645058
 20
8.226607998415046
 30
0.0
 11
16.32914642058374
 21
8.649189222889303
 31
0.0
  0
LINE
  5
22D22
330
22CD9
100
AcDbEntity
  8
0
  6
CONTINUOUS
100
AcDbLine
 10
20.75421273580989
 20
4.897642116743345
 30
0.0
 11
19.70536790264086
 21
5.946486949912374
 31
0.0
  0
LINE
  5
22D23
330
22CD9
100
AcDbEntity
  8
0
  6
CONTINUOUS
100
AcDbLine
 10
20.95379348658502
 20
5.371580575048398
 30
0.0
 11
19.90489241027246
 21
6.42048165136096
 31
0.0
  0
LINE
  5
22D24
330
22CD9
100
AcDbEntity
  8
0
  6
CONTINUOUS
100
AcDbLine
 10
21.15337423736015
 20
5.845519033353452
 30
0.0
 11
20.10441691790406
 21
6.894476352809547
 31
0.0
  0
LINE
  5
22D25
330
22CD9
100
AcDbEntity
  8
0
  6
CONTINUOUS
100
AcDbLine
 10
21.35295498813529
 20
6.319457491658505
 30
0.0
 11
20.30394142553566
 21
7.368471054258134
 31
0.0
  0
LINE
  5
22D26
330
22CD9
100
AcDbEntity
  8
0
  6
CONTINUOUS
100
AcDbLine
 10
21.55253573891042
 20
6.793395949963558
 30
0.0
 11
20.50346593316726
 21
7.842465755706721
 31
0.0
  0
LINE
  5
22D27
330
22CD9
100
AcDbEntity
  8
0
  6
CONTINUOUS
100
AcDbLine
 10
21.75211648968556
 20
7.267334408268612
 30
0.0
 11
20.70299044079886
 21
8.316460457155308
 31
0.0
  0
LINE
  5
22D28
330
22CD9
100
AcDbEntity
  8
0
  6
CONTINUOUS
100
AcDbLine
 10
21.95169724046069
 20
7.741272866573663
 30
0.0
 11
20.9298701070431
 21
8.763099999991256
 31
0.0
  0
LINE
  5
22D29
330
22CD9
100
AcDbEntity
  8
0
  6
CONTINUOUS
100
AcDbLine
 10
22.15127799123582
 20
8.215211324878716
 30
0.0
 11
21.60338931612328
 21
8.763099999991256
 31
0.0
  0
LINE
  5
22D2A
330
22CD9
100
AcDbEntity
  8
0
  6
CONTINUOUS
100
AcDbLine
 10
22.35085874201096
 20
8.689149783183769
 30
0.0
 11
22.27690852520347
 21
8.763099999991255
 31
0.0
  0
ENDBLK
  5
22E1C
330
22CD9
100
AcDbEntity
  8
0
100
AcDbBlockEnd
  0
BLOCK
  5
22E1D
330
22D2B
100
AcDbEntity
  8
0
100
AcDbBlockBegin
  2
*X94
 70
     1
 10
0.0
 20
0.0
 30
0.0
  3
*X94
  1

  0
LINE
  5
22D2C
330
22D2B
100
AcDbEntity
  8
0
  6
CONTINUOUS
100
AcDbLine
 10
23.19462913593892
 20
8.169917934846424
 30
0.0
 11
23.70775465517246
 21
8.683043454079957
 31
0.0
  0
LINE
  5
22D2D
330
22D2B
100
AcDbEntity
  8
0
  6
CONTINUOUS
100
AcDbLine
 10
22.64923161835078
 20
6.951001208178088
 30
0.0
 11
23.9159364069932
 21
8.217705996820516
 31
0.0
  0
LINE
  5
22D2E
330
22D2B
100
AcDbEntity
  8
0
  6
CONTINUOUS
100
AcDbLine
 10
22.10383410076263
 20
5.732084481509751
 30
0.0
 11
24.12411815881395
 21
7.752368539561078
 31
0.0
  0
LINE
  5
22D2F
330
22D2B
100
AcDbEntity
  8
0
  6
CONTINUOUS
100
AcDbLine
 10
21.55843658317447
 20
4.513167754841414
 30
0.0
 11
24.3322999106347
 21
7.287031082301639
 31
0.0
  0
LINE
  5
22D30
330
22D2B
100
AcDbEntity
  8
0
  6
CONTINUOUS
100
AcDbLine
 10
21.01303906558632
 20
3.294251028173077
 30
0.0
 11
24.54048166245544
 21
6.821693625042199
 31
0.0
  0
LINE
  5
22D31
330
22D2B
100
AcDbEntity
  8
0
  6
CONTINUOUS
100
AcDbLine
 10
20.46764154799817
 20
2.075334301504738
 30
0.0
 11
23.28571549467848
 21
4.89340824818505
 31
0.0
  0
LINE
  5
22D32
330
22D2B
100
AcDbEntity
  8
0
  6
CONTINUOUS
100
AcDbLine
 10
19.92224403041002
 20
0.8564175748364002
 30
0.0
 11
22.74075865492779
 21
3.674932199354171
 31
0.0
  0
LINE
  5
22D33
330
22D2B
100
AcDbEntity
  8
0
  6
CONTINUOUS
100
AcDbLine
 10
23.67305085490148
 20
5.280743608408048
 30
0.0
 11
24.74866341427619
 21
6.356356167782759
 31
0.0
  0
LINE
  5
22D34
330
22D2B
100
AcDbEntity
  8
0
  6
CONTINUOUS
100
AcDbLine
 10
23.88118970842314
 20
4.815363252849522
 30
0.0
 11
24.95684516609694
 21
5.89101871052332
 31
0.0
  0
LINE
  5
22D35
330
22D2B
100
AcDbEntity
  8
0
  6
CONTINUOUS
100
AcDbLine
 10
19.73925852647308
 20
-0.0000871381807288
 30
0.0
 11
23.4103456646501
 21
3.670999999996297
 31
0.0
  0
LINE
  5
22D36
330
22D2B
100
AcDbEntity
  8
0
  6
CONTINUOUS
100
AcDbLine
 10
24.0893285619448
 20
4.349982897290997
 30
0.0
 11
25.16502691791769
 21
5.42568125326388
 31
0.0
  0
LINE
  5
22D37
330
22D2B
100
AcDbEntity
  8
0
  6
CONTINUOUS
100
AcDbLine
 10
20.41282099582748
 20
-0.0000438779065108
 30
0.0
 11
21.64944178675636
 21
1.236576913022366
 31
0.0
  0
LINE
  5
22D38
330
22D2B
100
AcDbEntity
  8
0
  6
CONTINUOUS
100
AcDbLine
 10
22.78126487373161
 20
2.36839999999762
 30
0.0
 11
24.08386487373029
 21
3.670999999996297
 31
0.0
  0
LINE
  5
22D39
330
22D2B
100
AcDbEntity
  8
0
  6
CONTINUOUS
100
AcDbLine
 10
24.29746741546646
 20
3.884602541732471
 30
0.0
 11
25.37320866973843
 21
4.960343796004441
 31
0.0
  0
LINE
  5
22D3A
330
22D2B
100
AcDbEntity
  8
0
  6
CONTINUOUS
100
AcDbLine
 10
21.08638346518189
 20
-0.0000006176322938
 30
0.0
 11
21.10379033335899
 21
0.0174062505448083
 31
0.0
  0
LINE
  5
22D3B
330
22D2B
100
AcDbEntity
  8
0
  6
CONTINUOUS
100
AcDbLine
 10
23.4547840828118
 20
2.36839999999762
 30
0.0
 11
25.58139042155918
 21
4.495006338745002
 31
0.0
  0
LINE
  5
22D3C
330
22D2B
100
AcDbEntity
  8
0
  6
CONTINUOUS
100
AcDbLine
 10
29.30199999996933
 20
8.215615917155148
 30
0.0
 11
29.84948408280543
 21
8.763099999991255
 31
0.0
  0
LINE
  5
22D3D
330
22D2B
100
AcDbEntity
  8
0
  6
CONTINUOUS
100
AcDbLine
 10
24.12830329189199
 20
2.36839999999762
 30
0.0
 11
25.78957217337993
 21
4.029668881485562
 31
0.0
  0
LINE
  5
22D3E
330
22D2B
100
AcDbEntity
  8
0
  6
CONTINUOUS
100
AcDbLine
 10
29.30199999996933
 20
7.54209670807496
 30
0.0
 11
30.52300329188562
 21
8.763099999991255
 31
0.0
  0
LINE
  5
22D3F
330
22D2B
100
AcDbEntity
  8
0
  6
CONTINUOUS
100
AcDbLine
 10
24.80182250097217
 20
2.36839999999762
 30
0.0
 11
25.99775392520067
 21
3.564331424226122
 31
0.0
  0
LINE
  5
22D40
330
22D2B
100
AcDbEntity
  8
0
  6
CONTINUOUS
100
AcDbLine
 10
29.30199999996933
 20
6.868577498994774
 30
0.0
 11
30.74199999996926
 21
8.308577498994712
 31
0.0
  0
LINE
  5
22D41
330
22D2B
100
AcDbEntity
  8
0
  6
CONTINUOUS
100
AcDbLine
 10
25.13028238392013
 20
2.023340673865392
 30
0.0
 11
26.20593567702142
 21
3.098993966966683
 31
0.0
  0
LINE
  5
22D42
330
22D2B
100
AcDbEntity
  8
0
  6
CONTINUOUS
100
AcDbLine
 10
25.33838066033617
 20
1.557919741201244
 30
0.0
 11
26.41411742884217
 21
2.633656509707244
 31
0.0
  0
LINE
  5
22D43
330
22D2B
100
AcDbEntity
  8
0
  6
CONTINUOUS
100
AcDbLine
 10
25.54647893675221
 20
1.092498808537098
 30
0.0
 11
26.62229918066291
 21
2.168319052447804
 31
0.0
  0
LINE
  5
22D44
330
22D2B
100
AcDbEntity
  8
0
  6
CONTINUOUS
100
AcDbLine
 10
25.75457721316825
 20
0.62707787587295
 30
0.0
 11
26.83048093248366
 21
1.702981595188365
 31
0.0
  0
LINE
  5
22D45
330
22D2B
100
AcDbEntity
  8
0
  6
CONTINUOUS
100
AcDbLine
 10
29.30199999996933
 20
6.195058289914587
 30
0.0
 11
30.74199999996926
 21
7.635058289914522
 31
0.0
  0
LINE
  5
22D46
330
22D2B
100
AcDbEntity
  8
0
  6
CONTINUOUS
100
AcDbLine
 10
29.30199999996933
 20
5.521539080834401
 30
0.0
 11
30.74199999996926
 21
6.961539080834331
 31
0.0
  0
LINE
  5
22D47
330
22D2B
100
AcDbEntity
  8
0
  6
CONTINUOUS
100
AcDbLine
 10
29.30199999996933
 20
4.848019871754214
 30
0.0
 11
30.74199999996925
 21
6.288019871754143
 31
0.0
  0
LINE
  5
22D48
330
22D2B
100
AcDbEntity
  8
0
  6
CONTINUOUS
100
AcDbLine
 10
29.30199999996933
 20
4.174500662674028
 30
0.0
 11
30.74199999996925
 21
5.614500662673953
 31
0.0
  0
LINE
  5
22D49
330
22D2B
100
AcDbEntity
  8
0
  6
CONTINUOUS
100
AcDbLine
 10
25.96267548958429
 20
0.1616569432088024
 30
0.0
 11
27.18411854636669
 21
1.383099999991207
 31
0.0
  0
LINE
  5
22D4A
330
22D2B
100
AcDbEntity
  8
0
  6
CONTINUOUS
100
AcDbLine
 10
29.30199999996933
 20
3.500981453593841
 30
0.0
 11
30.74199999996925
 21
4.940981453593762
 31
0.0
  0
LINE
  5
22D4B
330
22D2B
100
AcDbEntity
  8
0
  6
CONTINUOUS
100
AcDbLine
 10
26.50763775544691
 20
0.0330999999912356
 30
0.0
 11
27.85763775544689
 21
1.383099999991223
 31
0.0
  0
LINE
  5
22D4C
330
22D2B
100
AcDbEntity
  8
0
  6
CONTINUOUS
100
AcDbLine
 10
29.30199999996933
 20
2.827462244513656
 30
0.0
 11
30.74199999996925
 21
4.267462244513574
 31
0.0
  0
LINE
  5
22D4D
330
22D2B
100
AcDbEntity
  8
0
  6
CONTINUOUS
100
AcDbLine
 10
27.18115696452709
 20
0.0330999999912356
 30
0.0
 11
28.55073879889363
 21
1.402681834357775
 31
0.0
  0
LINE
  5
22D4E
330
22D2B
100
AcDbEntity
  8
0
  6
CONTINUOUS
100
AcDbLine
 10
29.28241816560272
 20
2.134361201066866
 30
0.0
 11
30.74199999996924
 21
3.593943035433383
 31
0.0
  0
LINE
  5
22D4F
330
22D2B
100
AcDbEntity
  8
0
  6
CONTINUOUS
100
AcDbLine
 10
27.85467617360728
 20
0.0330999999912356
 30
0.0
 11
30.74199999996924
 21
2.920423826353195
 31
0.0
  0
LINE
  5
22D50
330
22D2B
100
AcDbEntity
  8
0
  6
CONTINUOUS
100
AcDbLine
 10
28.53897559587887
 20
0.0438802131826428
 30
0.0
 11
30.73121978677781
 21
2.236124404081585
 31
0.0
  0
LINE
  5
22D51
330
22D2B
100
AcDbEntity
  8
0
  6
CONTINUOUS
100
AcDbLine
 10
29.45140055588722
 20
0.2827859641107988
 30
0.0
 11
30.49231403584965
 21
1.323699444073236
 31
0.0
  0
LINE
  5
22D52
330
22D2B
100
AcDbEntity
  8
0
  6
CONTINUOUS
100
AcDbLine
 10
19.59027867740337
 20
-0.0000967065718083
 30
0.0
 11
19.55485265190471
 21
0.035329318926844
 31
0.0
  0
LINE
  5
22D53
330
22D2B
100
AcDbEntity
  8
0
  6
CONTINUOUS
100
AcDbLine
 10
20.26375463176586
 20
-0.0000534518541091
 30
0.0
 11
19.76305575737534
 21
0.5006454225364014
 31
0.0
  0
LINE
  5
22D54
330
22D2B
100
AcDbEntity
  8
0
  6
CONTINUOUS
100
AcDbLine
 10
20.93723058612834
 20
-0.0000101971364099
 30
0.0
 11
19.97125886284597
 21
0.965961526145958
 31
0.0
  0
LINE
  5
22D55
330
22D2B
100
AcDbEntity
  8
0
  6
CONTINUOUS
100
AcDbLine
 10
21.25514828313686
 20
0.355591314935257
 30
0.0
 11
20.1794619683166
 21
1.431277629755512
 31
0.0
  0
LINE
  5
22D56
330
22D2B
100
AcDbEntity
  8
0
  6
CONTINUOUS
100
AcDbLine
 10
21.46338838394921
 20
0.8208704232030986
 30
0.0
 11
20.38766507378723
 21
1.896593733365069
 31
0.0
  0
LINE
  5
22D57
330
22D2B
100
AcDbEntity
  8
0
  6
CONTINUOUS
100
AcDbLine
 10
21.67162848476155
 20
1.28614953147094
 30
0.0
 11
20.59586817925786
 21
2.361909836974626
 31
0.0
  0
LINE
  5
22D58
330
22D2B
100
AcDbEntity
  8
0
  6
CONTINUOUS
100
AcDbLine
 10
21.8798685855739
 20
1.751428639738782
 30
0.0
 11
20.80407128472849
 21
2.827225940584183
 31
0.0
  0
LINE
  5
22D59
330
22D2B
100
AcDbEntity
  8
0
  6
CONTINUOUS
100
AcDbLine
 10
22.08810868638624
 20
2.216707748006623
 30
0.0
 11
21.01227439019912
 21
3.292542044193739
 31
0.0
  0
LINE
  5
22D5A
330
22D2B
100
AcDbEntity
  8
0
  6
CONTINUOUS
100
AcDbLine
 10
22.60993564347543
 20
2.36839999999762
 30
0.0
 11
21.22047749566975
 21
3.757858147803296
 31
0.0
  0
LINE
  5
22D5B
330
22D2B
100
AcDbEntity
  8
0
  6
CONTINUOUS
100
AcDbLine
 10
23.28345485255561
 20
2.36839999999762
 30
0.0
 11
21.42868060114038
 21
4.223174251412853
 31
0.0
  0
LINE
  5
22D5C
330
22D2B
100
AcDbEntity
  8
0
  6
CONTINUOUS
100
AcDbLine
 10
26.29227406164219
 20
0.0330999999912356
 30
0.0
 11
25.80009199592872
 21
0.5252820657046957
 31
0.0
  0
LINE
  5
22D5D
330
22D2B
100
AcDbEntity
  8
0
  6
CONTINUOUS
100
AcDbLine
 10
23.9569740616358
 20
2.36839999999762
 30
0.0
 11
21.63688370661101
 21
4.688490355022409
 31
0.0
  0
LINE
  5
22D5E
330
22D2B
100
AcDbEntity
  8
0
  6
CONTINUOUS
100
AcDbLine
 10
26.96579327072237
 20
0.0330999999912356
 30
0.0
 11
25.2554132311971
 21
1.743480039516508
 31
0.0
  0
LINE
  5
22D5F
330
22D2B
100
AcDbEntity
  8
0
  6
CONTINUOUS
100
AcDbLine
 10
24.63049327071599
 20
2.36839999999762
 30
0.0
 11
23.32789327071731
 21
3.670999999996297
 31
0.0
  0
LINE
  5
22D60
330
22D2B
100
AcDbEntity
  8
0
  6
CONTINUOUS
100
AcDbLine
 10
22.92098674744635
 20
4.077906523267254
 30
0.0
 11
21.84508681208164
 21
5.153806458631966
 31
0.0
  0
LINE
  5
22D61
330
22D2B
100
AcDbEntity
  8
0
  6
CONTINUOUS
100
AcDbLine
 10
27.63931247980256
 20
0.0330999999912356
 30
0.0
 11
24.0014124797975
 21
3.670999999996297
 31
0.0
  0
LINE
  5
22D62
330
22D2B
100
AcDbEntity
  8
0
  6
CONTINUOUS
100
AcDbLine
 10
23.129125600968
 20
4.5432868788258
 30
0.0
 11
22.05328991755227
 21
5.619122562241522
 31
0.0
  0
LINE
  5
22D63
330
22D2B
100
AcDbEntity
  8
0
  6
CONTINUOUS
100
AcDbLine
 10
28.31283168888275
 20
0.0330999999912356
 30
0.0
 11
24.16488385994816
 21
4.181047828925828
 31
0.0
  0
LINE
  5
22D64
330
22D2B
100
AcDbEntity
  8
0
  6
CONTINUOUS
100
AcDbLine
 10
23.33726445448964
 20
5.008667234384345
 30
0.0
 11
22.2614930230229
 21
6.084438665851079
 31
0.0
  0
LINE
  5
22D65
330
22D2B
100
AcDbEntity
  8
0
  6
CONTINUOUS
100
AcDbLine
 10
28.92085740005492
 20
0.0985934978992438
 30
0.0
 11
27.63635089796295
 21
1.383099999991217
 31
0.0
  0
LINE
  5
22D66
330
22D2B
100
AcDbEntity
  8
0
  6
CONTINUOUS
100
AcDbLine
 10
26.43704649509776
 20
2.582404402856405
 30
0.0
 11
23.61992702019732
 21
5.399523877756844
 31
0.0
  0
LINE
  5
22D67
330
22D2B
100
AcDbEntity
  8
0
  6
CONTINUOUS
100
AcDbLine
 10
23.54540330801128
 20
5.47404758994289
 30
0.0
 11
22.46969612849353
 21
6.549754769460635
 31
0.0
  0
LINE
  5
22D68
330
22D2B
100
AcDbEntity
  8
0
  6
CONTINUOUS
100
AcDbLine
 10
29.42225615078443
 20
0.2707139562499279
 30
0.0
 11
28.30987010704312
 21
1.383099999991234
 31
0.0
  0
LINE
  5
22D69
330
22D2B
100
AcDbEntity
  8
0
  6
CONTINUOUS
100
AcDbLine
 10
25.89179548232307
 20
3.801174624711282
 30
0.0
 11
22.67789923396416
 21
7.015070873070191
 31
0.0
  0
LINE
  5
22D6A
330
22D2B
100
AcDbEntity
  8
0
  6
CONTINUOUS
100
AcDbLine
 10
29.83624534690007
 20
0.5302439692144705
 30
0.0
 11
28.85811781497101
 21
1.508371501143527
 31
0.0
  0
LINE
  5
22D6B
330
22D2B
100
AcDbEntity
  8
0
  6
CONTINUOUS
100
AcDbLine
 10
25.34654446954838
 20
5.01994484656616
 30
0.0
 11
22.88610233943479
 21
7.480386976679748
 31
0.0
  0
LINE
  5
22D6C
330
22D2B
100
AcDbEntity
  8
0
  6
CONTINUOUS
100
AcDbLine
 10
30.17865975401872
 20
0.8613487711760022
 30
0.0
 11
29.18888744090175
 21
1.851121084292977
 31
0.0
  0
LINE
  5
22D6D
330
22D2B
100
AcDbEntity
  8
0
  6
CONTINUOUS
100
AcDbLine
 10
24.80129345677369
 20
6.238715068421037
 30
0.0
 11
23.09430544490542
 21
7.945703080289305
 31
0.0
  0
LINE
  5
22D6E
330
22D2B
100
AcDbEntity
  8
0
  6
CONTINUOUS
100
AcDbLine
 10
30.45496647202376
 20
1.258561262251155
 30
0.0
 11
29.30199999996933
 21
2.411527734305588
 31
0.0
  0
LINE
  5
22D6F
330
22D2B
100
AcDbEntity
  8
0
  6
CONTINUOUS
100
AcDbLine
 10
24.256042443999
 20
7.457485290275915
 30
0.0
 11
23.30250855037605
 21
8.411019183898862
 31
0.0
  0
LINE
  5
22D70
330
22D2B
100
AcDbEntity
  8
0
  6
CONTINUOUS
100
AcDbLine
 10
30.64868582078271
 20
1.738361122572387
 30
0.0
 11
29.30199999996933
 21
3.085046943385775
 31
0.0
  0
LINE
  5
22D71
330
22D2B
100
AcDbEntity
  8
0
  6
CONTINUOUS
100
AcDbLine
 10
23.71079143122431
 20
8.676255512130794
 30
0.0
 11
23.51071165584668
 21
8.876335287508416
 31
0.0
  0
LINE
  5
22D72
330
22D2B
100
AcDbEntity
  8
0
  6
CONTINUOUS
100
AcDbLine
 10
30.73802122914428
 20
2.322544923291007
 30
0.0
 11
29.30199999996933
 21
3.758566152465961
 31
0.0
  0
LINE
  5
22D73
330
22D2B
100
AcDbEntity
  8
0
  6
CONTINUOUS
100
AcDbLine
 10
30.74199999996924
 20
2.992085361546236
 30
0.0
 11
29.30199999996933
 21
4.432085361546148
 31
0.0
  0
LINE
  5
22D74
330
22D2B
100
AcDbEntity
  8
0
  6
CONTINUOUS
100
AcDbLine
 10
30.74199999996924
 20
3.665604570626419
 30
0.0
 11
29.30199999996933
 21
5.105604570626333
 31
0.0
  0
LINE
  5
22D75
330
22D2B
100
AcDbEntity
  8
0
  6
CONTINUOUS
100
AcDbLine
 10
30.74199999996925
 20
4.339123779706602
 30
0.0
 11
29.30199999996933
 21
5.77912377970652
 31
0.0
  0
LINE
  5
22D76
330
22D2B
100
AcDbEntity
  8
0
  6
CONTINUOUS
100
AcDbLine
 10
30.74199999996925
 20
5.012642988786785
 30
0.0
 11
29.30199999996933
 21
6.452642988786707
 31
0.0
  0
LINE
  5
22D77
330
22D2B
100
AcDbEntity
  8
0
  6
CONTINUOUS
100
AcDbLine
 10
30.74199999996925
 20
5.68616219786697
 30
0.0
 11
29.30199999996933
 21
7.126162197866894
 31
0.0
  0
LINE
  5
22D78
330
22D2B
100
AcDbEntity
  8
0
  6
CONTINUOUS
100
AcDbLine
 10
30.74199999996925
 20
6.359681406947153
 30
0.0
 11
29.30199999996933
 21
7.799681406947081
 31
0.0
  0
LINE
  5
22D79
330
22D2B
100
AcDbEntity
  8
0
  6
CONTINUOUS
100
AcDbLine
 10
30.74199999996926
 20
7.033200616027337
 30
0.0
 11
29.30199999996933
 21
8.473200616027269
 31
0.0
  0
LINE
  5
22D7A
330
22D2B
100
AcDbEntity
  8
0
  6
CONTINUOUS
100
AcDbLine
 10
30.74199999996926
 20
7.706719825107518
 30
0.0
 11
29.68561982508552
 21
8.763099999991255
 31
0.0
  0
LINE
  5
22D7B
330
22D2B
100
AcDbEntity
  8
0
  6
CONTINUOUS
100
AcDbLine
 10
30.74199999996926
 20
8.380239034187703
 30
0.0
 11
30.35913903416571
 21
8.763099999991255
 31
0.0
  0
ENDBLK
  5
22E1E
330
22D2B
100
AcDbEntity
  8
0
100
AcDbBlockEnd
  0
BLOCK
  5
22E1F
330
22D7C
100
AcDbEntity
  8
0
100
AcDbBlockBegin
  2
*X95
 70
     1
 10
0.0
 20
0.0
 30
0.0
  3
*X95
  1

  0
LINE
  5
22D7D
330
22D7C
100
AcDbEntity
  8
0
  6
CONTINUOUS
100
AcDbLine
 10
31.64199999996833
 20
8.535058289913598
 30
0.0
 11
31.87004171004599
 21
8.763099999991255
 31
0.0
  0
LINE
  5
22D7E
330
22D7C
100
AcDbEntity
  8
0
  6
CONTINUOUS
100
AcDbLine
 10
31.64199999996833
 20
7.861539080833412
 30
0.0
 11
32.54356091912618
 21
8.763099999991255
 31
0.0
  0
LINE
  5
22D7F
330
22D7C
100
AcDbEntity
  8
0
  6
CONTINUOUS
100
AcDbLine
 10
31.64199999996833
 20
7.188019871753226
 30
0.0
 11
33.08199999996839
 21
8.628019871753281
 31
0.0
  0
LINE
  5
22D80
330
22D7C
100
AcDbEntity
  8
0
  6
CONTINUOUS
100
AcDbLine
 10
31.64199999996833
 20
6.51450066267304
 30
0.0
 11
33.08199999996839
 21
7.954500662673095
 31
0.0
  0
LINE
  5
22D81
330
22D7C
100
AcDbEntity
  8
0
  6
CONTINUOUS
100
AcDbLine
 10
31.64199999996833
 20
5.840981453592853
 30
0.0
 11
33.08199999996839
 21
7.280981453592908
 31
0.0
  0
LINE
  5
22D82
330
22D7C
100
AcDbEntity
  8
0
  6
CONTINUOUS
100
AcDbLine
 10
31.64199999996833
 20
5.167462244512667
 30
0.0
 11
33.08199999996839
 21
6.607462244512721
 31
0.0
  0
LINE
  5
22D83
330
22D7C
100
AcDbEntity
  8
0
  6
CONTINUOUS
100
AcDbLine
 10
31.64199999996833
 20
4.493943035432481
 30
0.0
 11
33.08199999996839
 21
5.933943035432535
 31
0.0
  0
LINE
  5
22D84
330
22D7C
100
AcDbEntity
  8
0
  6
CONTINUOUS
100
AcDbLine
 10
31.64199999996833
 20
3.820423826352293
 30
0.0
 11
33.08199999996839
 21
5.260423826352348
 31
0.0
  0
LINE
  5
22D85
330
22D7C
100
AcDbEntity
  8
0
  6
CONTINUOUS
100
AcDbLine
 10
31.64199999996833
 20
3.146904617272106
 30
0.0
 11
33.08199999996839
 21
4.586904617272161
 31
0.0
  0
LINE
  5
22D86
330
22D7C
100
AcDbEntity
  8
0
  6
CONTINUOUS
100
AcDbLine
 10
36.23199999996837
 20
8.410423826352325
 30
0.0
 11
36.5846761736073
 21
8.763099999991255
 31
0.0
  0
LINE
  5
22D87
330
22D7C
100
AcDbEntity
  8
0
  6
CONTINUOUS
100
AcDbLine
 10
36.23199999996837
 20
7.73690461727214
 30
0.0
 11
37.25819538268748
 21
8.763099999991255
 31
0.0
  0
LINE
  5
22D88
330
22D7C
100
AcDbEntity
  8
0
  6
CONTINUOUS
100
AcDbLine
 10
31.64257403601376
 20
2.473959444237348
 30
0.0
 11
33.08199999996839
 21
3.913385408191974
 31
0.0
  0
LINE
  5
22D89
330
22D7C
100
AcDbEntity
  8
0
  6
CONTINUOUS
100
AcDbLine
 10
36.23199999996837
 20
7.063385408191953
 30
0.0
 11
37.67199999996831
 21
8.503385408191894
 31
0.0
  0
LINE
  5
22D8A
330
22D7C
100
AcDbEntity
  8
0
  6
CONTINUOUS
100
AcDbLine
 10
31.72013636841932
 20
1.87800256756272
 30
0.0
 11
33.08199999996839
 21
3.239866199111788
 31
0.0
  0
LINE
  5
22D8B
330
22D7C
100
AcDbEntity
  8
0
  6
CONTINUOUS
100
AcDbLine
 10
36.23199999996837
 20
6.389866199111767
 30
0.0
 11
37.67199999996831
 21
7.829866199111708
 31
0.0
  0
LINE
  5
22D8C
330
22D7C
100
AcDbEntity
  8
0
  6
CONTINUOUS
100
AcDbLine
 10
31.89042734314753
 20
1.374774333210744
 30
0.0
 11
33.08199999996839
 21
2.566346990031601
 31
0.0
  0
LINE
  5
22D8D
330
22D7C
100
AcDbEntity
  8
0
  6
CONTINUOUS
100
AcDbLine
 10
36.23199999996837
 20
5.71634699003158
 30
0.0
 11
37.67199999996831
 21
7.156346990031521
 31
0.0
  0
LINE
  5
22D8E
330
22D7C
100
AcDbEntity
  8
0
  6
CONTINUOUS
100
AcDbLine
 10
32.14210568064475
 20
0.952933461627778
 30
0.0
 11
33.18745552475986
 21
1.998283305742888
 31
0.0
  0
LINE
  5
22D8F
330
22D7C
100
AcDbEntity
  8
0
  6
CONTINUOUS
100
AcDbLine
 10
36.23199999996837
 20
5.042827780951393
 30
0.0
 11
37.67199999996831
 21
6.482827780951334
 31
0.0
  0
LINE
  5
22D90
330
22D7C
100
AcDbEntity
  8
0
  6
CONTINUOUS
100
AcDbLine
 10
32.45820639400955
 20
0.5955149659123915
 30
0.0
 11
33.47242681921943
 21
1.60973539112227
 31
0.0
  0
LINE
  5
22D91
330
22D7C
100
AcDbEntity
  8
0
  6
CONTINUOUS
100
AcDbLine
 10
36.23199999996837
 20
4.369308571871207
 30
0.0
 11
37.67199999996831
 21
5.809308571871147
 31
0.0
  0
LINE
  5
22D92
330
22D7C
100
AcDbEntity
  8
0
  6
CONTINUOUS
100
AcDbLine
 10
32.83432456621412
 20
0.2981139290367771
 30
0.0
 11
33.89722476612215
 21
1.361014128944803
 31
0.0
  0
LINE
  5
22D93
330
22D7C
100
AcDbEntity
  8
0
  6
CONTINUOUS
100
AcDbLine
 10
36.23199999996837
 20
3.69578936279102
 30
0.0
 11
37.67199999996831
 21
5.135789362790962
 31
0.0
  0
LINE
  5
22D94
330
22D7C
100
AcDbEntity
  8
0
  6
CONTINUOUS
100
AcDbLine
 10
33.2711633111245
 20
0.0614334648669672
 30
0.0
 11
34.43247338014423
 21
1.222743533886696
 31
0.0
  0
LINE
  5
22D95
330
22D7C
100
AcDbEntity
  8
0
  6
CONTINUOUS
100
AcDbLine
 10
36.23199999996837
 20
3.022270153710834
 30
0.0
 11
37.67199999996831
 21
4.462270153710775
 31
0.0
  0
LINE
  5
22D96
330
22D7C
100
AcDbEntity
  8
0
  6
CONTINUOUS
100
AcDbLine
 10
33.76515245874577
 20
-0.1180965965919523
 30
0.0
 11
35.1587445516215
 21
1.27549549628378
 31
0.0
  0
LINE
  5
22D97
330
22D7C
100
AcDbEntity
  8
0
  6
CONTINUOUS
100
AcDbLine
 10
36.21639478609585
 20
2.333145730758136
 30
0.0
 11
37.67199999996831
 21
3.788750944630588
 31
0.0
  0
LINE
  5
22D98
330
22D7C
100
AcDbEntity
  8
0
  6
CONTINUOUS
100
AcDbLine
 10
34.34060583368432
 20
-0.2161624307335863
 30
0.0
 11
37.67199999996831
 21
3.115231735550401
 31
0.0
  0
LINE
  5
22D99
330
22D7C
100
AcDbEntity
  8
0
  6
CONTINUOUS
100
AcDbLine
 10
35.01698193613905
 20
-0.2133055373590427
 30
0.0
 11
37.66876712070525
 21
2.438479647207154
 31
0.0
  0
LINE
  5
22D9A
330
22D7C
100
AcDbEntity
  8
0
  6
CONTINUOUS
100
AcDbLine
 10
35.90743367693304
 20
0.0036269943547609
 30
0.0
 11
37.51723902192366
 21
1.613432339345381
 31
0.0
  0
LINE
  5
22D9B
330
22D7C
100
AcDbEntity
  8
0
  6
CONTINUOUS
100
AcDbLine
 10
32.55309425579761
 20
0.5074718966376706
 30
0.0
 11
32.27784730925847
 21
0.7827188431768102
 31
0.0
  0
LINE
  5
22D9C
330
22D7C
100
AcDbEntity
  8
0
  6
CONTINUOUS
100
AcDbLine
 10
33.87496468909684
 20
-0.1408793275813673
 30
0.0
 11
31.67993083278052
 21
2.054154528734943
 31
0.0
  0
LINE
  5
22D9D
330
22D7C
100
AcDbEntity
  8
0
  6
CONTINUOUS
100
AcDbLine
 10
34.64362813207632
 20
-0.2360235614806649
 30
0.0
 11
31.64199999996833
 21
2.765604570627322
 31
0.0
  0
LINE
  5
22D9E
330
22D7C
100
AcDbEntity
  8
0
  6
CONTINUOUS
100
AcDbLine
 10
35.25801106796118
 20
-0.1768872882853429
 30
0.0
 11
31.64199999996833
 21
3.439123779707508
 31
0.0
  0
LINE
  5
22D9F
330
22D7C
100
AcDbEntity
  8
0
  6
CONTINUOUS
100
AcDbLine
 10
35.79065650332146
 20
-0.0360135145654361
 30
0.0
 11
34.54143210838231
 21
1.213210880373721
 31
0.0
  0
LINE
  5
22DA0
330
22D7C
100
AcDbEntity
  8
0
  6
CONTINUOUS
100
AcDbLine
 10
33.08199999996839
 20
2.67264298878764
 30
0.0
 11
31.64199999996833
 21
4.112642988787695
 31
0.0
  0
LINE
  5
22DA1
330
22D7C
100
AcDbEntity
  8
0
  6
CONTINUOUS
100
AcDbLine
 10
36.25975597779143
 20
0.1684062200447833
 30
0.0
 11
35.15395110240023
 21
1.274211095435983
 31
0.0
  0
LINE
  5
22DA2
330
22D7C
100
AcDbEntity
  8
0
  6
CONTINUOUS
100
AcDbLine
 10
33.08199999996839
 20
3.346162197867826
 30
0.0
 11
31.64199999996833
 21
4.786162197867881
 31
0.0
  0
LINE
  5
22DA3
330
22D7C
100
AcDbEntity
  8
0
  6
CONTINUOUS
100
AcDbLine
 10
36.67226329638774
 20
0.4294181105286579
 30
0.0
 11
35.63766478748767
 21
1.464016619428737
 31
0.0
  0
LINE
  5
22DA4
330
22D7C
100
AcDbEntity
  8
0
  6
CONTINUOUS
100
AcDbLine
 10
33.08199999996839
 20
4.019681406948012
 30
0.0
 11
31.64199999996833
 21
5.459681406948068
 31
0.0
  0
LINE
  5
22DA5
330
22D7C
100
AcDbEntity
  8
0
  6
CONTINUOUS
100
AcDbLine
 10
37.01677749710036
 20
0.7584231188962329
 30
0.0
 11
35.99563422741351
 21
1.779566388583076
 31
0.0
  0
LINE
  5
22DA6
330
22D7C
100
AcDbEntity
  8
0
  6
CONTINUOUS
100
AcDbLine
 10
33.08199999996839
 20
4.693200616028199
 30
0.0
 11
31.64199999996833
 21
6.133200616028255
 31
0.0
  0
LINE
  5
22DA7
330
22D7C
100
AcDbEntity
  8
0
  6
CONTINUOUS
100
AcDbLine
 10
37.29859977568887
 20
1.1501200493879
 30
0.0
 11
36.20680593341555
 21
2.241913891661226
 31
0.0
  0
LINE
  5
22DA8
330
22D7C
100
AcDbEntity
  8
0
  6
CONTINUOUS
100
AcDbLine
 10
33.08199999996839
 20
5.366719825108386
 30
0.0
 11
31.64199999996833
 21
6.80671982510844
 31
0.0
  0
LINE
  5
22DA9
330
22D7C
100
AcDbEntity
  8
0
  6
CONTINUOUS
100
AcDbLine
 10
37.5148623517228
 20
1.607376682434161
 30
0.0
 11
36.23199999996837
 21
2.890239034188594
 31
0.0
  0
LINE
  5
22DAA
330
22D7C
100
AcDbEntity
  8
0
  6
CONTINUOUS
100
AcDbLine
 10
33.08199999996839
 20
6.040239034188573
 30
0.0
 11
31.64199999996833
 21
7.480239034188627
 31
0.0
  0
LINE
  5
22DAB
330
22D7C
100
AcDbEntity
  8
0
  6
CONTINUOUS
100
AcDbLine
 10
37.64705163358367
 20
2.148706609653477
 30
0.0
 11
36.23199999996837
 21
3.56375824326878
 31
0.0
  0
LINE
  5
22DAC
330
22D7C
100
AcDbEntity
  8
0
  6
CONTINUOUS
100
AcDbLine
 10
33.08199999996839
 20
6.713758243268758
 30
0.0
 11
31.64199999996833
 21
8.153758243268815
 31
0.0
  0
LINE
  5
22DAD
330
22D7C
100
AcDbEntity
  8
0
  6
CONTINUOUS
100
AcDbLine
 10
37.67199999996831
 20
2.797277452349026
 30
0.0
 11
36.23199999996837
 21
4.237277452348967
 31
0.0
  0
LINE
  5
22DAE
330
22D7C
100
AcDbEntity
  8
0
  6
CONTINUOUS
100
AcDbLine
 10
37.67199999996831
 20
3.470796661429213
 30
0.0
 11
36.23199999996837
 21
4.910796661429154
 31
0.0
  0
LINE
  5
22DAF
330
22D7C
100
AcDbEntity
  8
0
  6
CONTINUOUS
100
AcDbLine
 10
37.67199999996831
 20
4.144315870509399
 30
0.0
 11
36.23199999996837
 21
5.58431587050934
 31
0.0
  0
LINE
  5
22DB0
330
22D7C
100
AcDbEntity
  8
0
  6
CONTINUOUS
100
AcDbLine
 10
33.08199999996839
 20
7.387277452348945
 30
0.0
 11
31.70617745232608
 21
8.763099999991255
 31
0.0
  0
LINE
  5
22DB1
330
22D7C
100
AcDbEntity
  8
0
  6
CONTINUOUS
100
AcDbLine
 10
33.08199999996839
 20
8.060796661429132
 30
0.0
 11
32.37969666140626
 21
8.763099999991255
 31
0.0
  0
LINE
  5
22DB2
330
22D7C
100
AcDbEntity
  8
0
  6
CONTINUOUS
100
AcDbLine
 10
33.08199999996839
 20
8.734315870509318
 30
0.0
 11
33.05321587048645
 21
8.763099999991255
 31
0.0
  0
LINE
  5
22DB3
330
22D7C
100
AcDbEntity
  8
0
  6
CONTINUOUS
100
AcDbLine
 10
37.67199999996831
 20
4.817835079589585
 30
0.0
 11
36.23199999996837
 21
6.257835079589526
 31
0.0
  0
LINE
  5
22DB4
330
22D7C
100
AcDbEntity
  8
0
  6
CONTINUOUS
100
AcDbLine
 10
37.67199999996831
 20
5.491354288669771
 30
0.0
 11
36.23199999996837
 21
6.931354288669713
 31
0.0
  0
LINE
  5
22DB5
330
22D7C
100
AcDbEntity
  8
0
  6
CONTINUOUS
100
AcDbLine
 10
37.67199999996831
 20
6.164873497749958
 30
0.0
 11
36.23199999996837
 21
7.6048734977499
 31
0.0
  0
LINE
  5
22DB6
330
22D7C
100
AcDbEntity
  8
0
  6
CONTINUOUS
100
AcDbLine
 10
37.67199999996831
 20
6.838392706830144
 30
0.0
 11
36.23199999996837
 21
8.278392706830086
 31
0.0
  0
LINE
  5
22DB7
330
22D7C
100
AcDbEntity
  8
0
  6
CONTINUOUS
100
AcDbLine
 10
37.67199999996831
 20
7.511911915910332
 30
0.0
 11
36.42081191588738
 21
8.763099999991255
 31
0.0
  0
LINE
  5
22DB8
330
22D7C
100
AcDbEntity
  8
0
  6
CONTINUOUS
100
AcDbLine
 10
37.67199999996831
 20
8.185431124990519
 30
0.0
 11
37.09433112496757
 21
8.763099999991255
 31
0.0
  0
ENDBLK
  5
22E20
330
22D7C
100
AcDbEntity
  8
0
100
AcDbBlockEnd
  0
BLOCK
  5
22E21
330
22DB9
100
AcDbEntity
  8
0
100
AcDbBlockBegin
  2
*X96
 70
     1
 10
0.0
 20
0.0
 30
0.0
  3
*X96
  1

  0
LINE
  5
22DBA
330
22DB9
100
AcDbEntity
  8
0
  6
CONTINUOUS
100
AcDbLine
 10
38.60499999996136
 20
8.762866199104765
 30
0.0
 11
38.71672554182345
 21
8.874591740966855
 31
0.0
  0
LINE
  5
22DBB
330
22DB9
100
AcDbEntity
  8
0
  6
CONTINUOUS
100
AcDbLine
 10
38.60499999996136
 20
8.089346990024577
 30
0.0
 11
39.03418785440363
 21
8.518534844466847
 31
0.0
  0
LINE
  5
22DBC
330
22DB9
100
AcDbEntity
  8
0
  6
CONTINUOUS
100
AcDbLine
 10
38.60499999996136
 20
7.41582778094439
 30
0.0
 11
39.35165016698382
 21
8.16247794796684
 31
0.0
  0
LINE
  5
22DBD
330
22DB9
100
AcDbEntity
  8
0
  6
CONTINUOUS
100
AcDbLine
 10
38.60499999996136
 20
6.742308571864204
 30
0.0
 11
39.66911247956399
 21
7.806421051466834
 31
0.0
  0
LINE
  5
22DBE
330
22DB9
100
AcDbEntity
  8
0
  6
CONTINUOUS
100
AcDbLine
 10
38.60499999996136
 20
6.068789362784018
 30
0.0
 11
39.98657479214418
 21
7.450364154966827
 31
0.0
  0
LINE
  5
22DBF
330
22DB9
100
AcDbEntity
  8
0
  6
CONTINUOUS
100
AcDbLine
 10
38.60499999996136
 20
5.395270153703832
 30
0.0
 11
40.30403710472435
 21
7.09430725846682
 31
0.0
  0
LINE
  5
22DC0
330
22DB9
100
AcDbEntity
  8
0
  6
CONTINUOUS
100
AcDbLine
 10
38.60499999996136
 20
4.721750944623645
 30
0.0
 11
40.62149941730453
 21
6.738250361966813
 31
0.0
  0
LINE
  5
22DC1
330
22DB9
100
AcDbEntity
  8
0
  6
CONTINUOUS
100
AcDbLine
 10
38.60499999996136
 20
4.048231735543458
 30
0.0
 11
40.93896172988471
 21
6.382193465466806
 31
0.0
  0
LINE
  5
22DC2
330
22DB9
100
AcDbEntity
  8
0
  6
CONTINUOUS
100
AcDbLine
 10
38.60499999996136
 20
3.374712526463272
 30
0.0
 11
40.02599999995994
 21
4.795712526461843
 31
0.0
  0
LINE
  5
22DC3
330
22DB9
100
AcDbEntity
  8
0
  6
CONTINUOUS
100
AcDbLine
 10
38.60499999996136
 20
2.701193317383085
 30
0.0
 11
40.02599999995994
 21
4.122193317381657
 31
0.0
  0
LINE
  5
22DC4
330
22DB9
100
AcDbEntity
  8
0
  6
CONTINUOUS
100
AcDbLine
 10
40.28339754687704
 20
5.053110073378947
 30
0.0
 11
41.25642404246489
 21
6.026136568966799
 31
0.0
  0
LINE
  5
22DC5
330
22DB9
100
AcDbEntity
  8
0
  6
CONTINUOUS
100
AcDbLine
 10
40.60085985945722
 20
4.697053176878939
 30
0.0
 11
41.57388635504507
 21
5.670079672466793
 31
0.0
  0
LINE
  5
22DC6
330
22DB9
100
AcDbEntity
  8
0
  6
CONTINUOUS
100
AcDbLine
 10
43.57899999995641
 20
8.348712526458318
 30
0.0
 11
43.99338747348935
 21
8.763099999991255
 31
0.0
  0
LINE
  5
22DC7
330
22DB9
100
AcDbEntity
  8
0
  6
CONTINUOUS
100
AcDbLine
 10
43.57899999995641
 20
7.675193317378131
 30
0.0
 11
44.66690668256953
 21
8.763099999991255
 31
0.0
  0
LINE
  5
22DC8
330
22DB9
100
AcDbEntity
  8
0
  6
CONTINUOUS
100
AcDbLine
 10
38.60499999996136
 20
2.027674108302898
 30
0.0
 11
40.02599999995994
 21
3.44867410830147
 31
0.0
  0
LINE
  5
22DC9
330
22DB9
100
AcDbEntity
  8
0
  6
CONTINUOUS
100
AcDbLine
 10
38.60499999996136
 20
1.354154899222712
 30
0.0
 11
40.02599999995994
 21
2.775154899221284
 31
0.0
  0
LINE
  5
22DCA
330
22DB9
100
AcDbEntity
  8
0
  6
CONTINUOUS
100
AcDbLine
 10
38.60499999996136
 20
0.6806356901425255
 30
0.0
 11
40.02599999995994
 21
2.101635690141098
 31
0.0
  0
LINE
  5
22DCB
330
22DB9
100
AcDbEntity
  8
0
  6
CONTINUOUS
100
AcDbLine
 10
38.60499999996136
 20
0.0071164810623383
 30
0.0
 11
40.02599999995994
 21
1.428116481060911
 31
0.0
  0
LINE
  5
22DCC
330
22DB9
100
AcDbEntity
  8
0
  6
CONTINUOUS
100
AcDbLine
 10
40.9183221720374
 20
4.340996280378933
 30
0.0
 11
41.89134866762525
 21
5.314022775966786
 31
0.0
  0
LINE
  5
22DCD
330
22DB9
100
AcDbEntity
  8
0
  6
CONTINUOUS
100
AcDbLine
 10
41.23578448461758
 20
3.984939383878926
 30
0.0
 11
42.20881098020543
 21
4.957965879466778
 31
0.0
  0
LINE
  5
22DCE
330
22DB9
100
AcDbEntity
  8
0
  6
CONTINUOUS
100
AcDbLine
 10
41.55324679719776
 20
3.628882487378919
 30
0.0
 11
42.52627329278561
 21
4.601908982966772
 31
0.0
  0
LINE
  5
22DCF
330
22DB9
100
AcDbEntity
  8
0
  6
CONTINUOUS
100
AcDbLine
 10
41.87070910977793
 20
3.272825590878912
 30
0.0
 11
42.84373560536579
 21
4.245852086466765
 31
0.0
  0
LINE
  5
22DD0
330
22DB9
100
AcDbEntity
  8
0
  6
CONTINUOUS
100
AcDbLine
 10
43.57899999995641
 20
7.001674108297943
 30
0.0
 11
44.99999999995498
 21
8.422674108296516
 31
0.0
  0
LINE
  5
22DD1
330
22DB9
100
AcDbEntity
  8
0
  6
CONTINUOUS
100
AcDbLine
 10
43.57899999995641
 20
6.328154899217758
 30
0.0
 11
44.99999999995498
 21
7.749154899216329
 31
0.0
  0
LINE
  5
22DD2
330
22DB9
100
AcDbEntity
  8
0
  6
CONTINUOUS
100
AcDbLine
 10
43.57899999995641
 20
5.654635690137571
 30
0.0
 11
44.99999999995498
 21
7.075635690136142
 31
0.0
  0
LINE
  5
22DD3
330
22DB9
100
AcDbEntity
  8
0
  6
CONTINUOUS
100
AcDbLine
 10
43.57899999995641
 20
4.981116481057384
 30
0.0
 11
44.99999999995498
 21
6.402116481055955
 31
0.0
  0
LINE
  5
22DD4
330
22DB9
100
AcDbEntity
  8
0
  6
CONTINUOUS
100
AcDbLine
 10
39.27140272797921
 20
-0.0000000000000009
 30
0.0
 11
40.02599999995994
 21
0.7545972719807246
 31
0.0
  0
LINE
  5
22DD5
330
22DB9
100
AcDbEntity
  8
0
  6
CONTINUOUS
100
AcDbLine
 10
39.9449219370594
 20
-0.0000000000000009
 30
0.0
 11
40.02599999995994
 21
0.0810780629005379
 31
0.0
  0
LINE
  5
22DD6
330
22DB9
100
AcDbEntity
  8
0
  6
CONTINUOUS
100
AcDbLine
 10
42.18817142235812
 20
2.916768694378905
 30
0.0
 11
43.16119791794597
 21
3.889795189966758
 31
0.0
  0
LINE
  5
22DD7
330
22DB9
100
AcDbEntity
  8
0
  6
CONTINUOUS
100
AcDbLine
 10
42.50563373493829
 20
2.560711797878898
 30
0.0
 11
43.47866023052615
 21
3.533738293466751
 31
0.0
  0
LINE
  5
22DD8
330
22DB9
100
AcDbEntity
  8
0
  6
CONTINUOUS
100
AcDbLine
 10
43.57899999995641
 20
4.307597271977198
 30
0.0
 11
44.99999999995498
 21
5.728597271975769
 31
0.0
  0
LINE
  5
22DD9
330
22DB9
100
AcDbEntity
  8
0
  6
CONTINUOUS
100
AcDbLine
 10
43.57899999995641
 20
3.634078062897011
 30
0.0
 11
44.99999999995498
 21
5.055078062895582
 31
0.0
  0
LINE
  5
22DDA
330
22DB9
100
AcDbEntity
  8
0
  6
CONTINUOUS
100
AcDbLine
 10
42.82309604751848
 20
2.204654901378891
 30
0.0
 11
44.99999999995498
 21
4.381558853815395
 31
0.0
  0
LINE
  5
22DDB
330
22DB9
100
AcDbEntity
  8
0
  6
CONTINUOUS
100
AcDbLine
 10
43.14055836009865
 20
1.848598004878885
 30
0.0
 11
44.99999999995498
 21
3.70803964473521
 31
0.0
  0
LINE
  5
22DDC
330
22DB9
100
AcDbEntity
  8
0
  6
CONTINUOUS
100
AcDbLine
 10
43.45802067267883
 20
1.492541108378878
 30
0.0
 11
44.99999999995498
 21
3.034520435655023
 31
0.0
  0
LINE
  5
22DDD
330
22DB9
100
AcDbEntity
  8
0
  6
CONTINUOUS
100
AcDbLine
 10
43.77548298525902
 20
1.136484211878871
 30
0.0
 11
44.99999999995498
 21
2.361001226574837
 31
0.0
  0
LINE
  5
22DDE
330
22DB9
100
AcDbEntity
  8
0
  6
CONTINUOUS
100
AcDbLine
 10
44.09294529783919
 20
0.7804273153788639
 30
0.0
 11
44.99999999995498
 21
1.687482017494649
 31
0.0
  0
LINE
  5
22DDF
330
22DB9
100
AcDbEntity
  8
0
  6
CONTINUOUS
100
AcDbLine
 10
44.41040761041938
 20
0.4243704188788566
 30
0.0
 11
44.99999999995498
 21
1.013962808414463
 31
0.0
  0
LINE
  5
22DE0
330
22DB9
100
AcDbEntity
  8
0
  6
CONTINUOUS
100
AcDbLine
 10
44.72786992299955
 20
0.0683135223788494
 30
0.0
 11
44.99999999995498
 21
0.340443599334276
 31
0.0
  0
LINE
  5
22DE1
330
22DB9
100
AcDbEntity
  8
0
  6
CONTINUOUS
100
AcDbLine
 10
39.12223903415696
 20
-0.0000000000000009
 30
0.0
 11
38.60499999996136
 21
0.5172390341955961
 31
0.0
  0
LINE
  5
22DE2
330
22DB9
100
AcDbEntity
  8
0
  6
CONTINUOUS
100
AcDbLine
 10
39.79575824323715
 20
-0.0000000000000009
 30
0.0
 11
38.60499999996136
 21
1.190758243275783
 31
0.0
  0
LINE
  5
22DE3
330
22DB9
100
AcDbEntity
  8
0
  6
CONTINUOUS
100
AcDbLine
 10
40.02599999995994
 20
0.443277452357397
 30
0.0
 11
38.60499999996136
 21
1.864277452355969
 31
0.0
  0
LINE
  5
22DE4
330
22DB9
100
AcDbEntity
  8
0
  6
CONTINUOUS
100
AcDbLine
 10
40.02599999995994
 20
1.116796661437583
 30
0.0
 11
38.60499999996136
 21
2.537796661436155
 31
0.0
  0
LINE
  5
22DE5
330
22DB9
100
AcDbEntity
  8
0
  6
CONTINUOUS
100
AcDbLine
 10
40.02599999995994
 20
1.79031587051777
 30
0.0
 11
38.60499999996136
 21
3.211315870516341
 31
0.0
  0
LINE
  5
22DE6
330
22DB9
100
AcDbEntity
  8
0
  6
CONTINUOUS
100
AcDbLine
 10
40.02599999995994
 20
2.463835079597956
 30
0.0
 11
38.60499999996136
 21
3.884835079596527
 31
0.0
  0
LINE
  5
22DE7
330
22DB9
100
AcDbEntity
  8
0
  6
CONTINUOUS
100
AcDbLine
 10
40.02599999995994
 20
3.137354288678143
 30
0.0
 11
38.60499999996136
 21
4.558354288676714
 31
0.0
  0
LINE
  5
22DE8
330
22DB9
100
AcDbEntity
  8
0
  6
CONTINUOUS
100
AcDbLine
 10
40.02599999995994
 20
3.810873497758329
 30
0.0
 11
38.60499999996136
 21
5.2318734977569
 31
0.0
  0
LINE
  5
22DE9
330
22DB9
100
AcDbEntity
  8
0
  6
CONTINUOUS
100
AcDbLine
 10
40.02599999995994
 20
4.484392706838515
 30
0.0
 11
38.60499999996136
 21
5.905392706837086
 31
0.0
  0
LINE
  5
22DEA
330
22DB9
100
AcDbEntity
  8
0
  6
CONTINUOUS
100
AcDbLine
 10
44.99999999995498
 20
0.183911915923658
 30
0.0
 11
41.53858364506288
 21
3.64532827081576
 31
0.0
  0
LINE
  5
22DEB
330
22DB9
100
AcDbEntity
  8
0
  6
CONTINUOUS
100
AcDbLine
 10
40.02599999995994
 20
5.157911915918703
 30
0.0
 11
38.60499999996136
 21
6.578911915917274
 31
0.0
  0
LINE
  5
22DEC
330
22DB9
100
AcDbEntity
  8
0
  6
CONTINUOUS
100
AcDbLine
 10
44.99999999995498
 20
0.8574311250038447
 30
0.0
 11
38.60499999996136
 21
7.25243112499746
 31
0.0
  0
LINE
  5
22DED
330
22DB9
100
AcDbEntity
  8
0
  6
CONTINUOUS
100
AcDbLine
 10
44.99999999995498
 20
1.530950334084031
 30
0.0
 11
38.60499999996136
 21
7.925950334077647
 31
0.0
  0
LINE
  5
22DEE
330
22DB9
100
AcDbEntity
  8
0
  6
CONTINUOUS
100
AcDbLine
 10
44.99999999995498
 20
2.204469543164218
 30
0.0
 11
43.57899999995641
 21
3.625469543162789
 31
0.0
  0
LINE
  5
22DEF
330
22DB9
100
AcDbEntity
  8
0
  6
CONTINUOUS
100
AcDbLine
 10
41.89876730984767
 20
5.305702233271528
 30
0.0
 11
38.60499999996136
 21
8.599469543157834
 31
0.0
  0
LINE
  5
22DF0
330
22DB9
100
AcDbEntity
  8
0
  6
CONTINUOUS
100
AcDbLine
 10
44.99999999995498
 20
2.877988752244405
 30
0.0
 11
43.57899999995641
 21
4.298988752242975
 31
0.0
  0
LINE
  5
22DF1
330
22DB9
100
AcDbEntity
  8
0
  6
CONTINUOUS
100
AcDbLine
 10
44.99999999995498
 20
3.551507961324591
 30
0.0
 11
43.57899999995641
 21
4.972507961323163
 31
0.0
  0
LINE
  5
22DF2
330
22DB9
100
AcDbEntity
  8
0
  6
CONTINUOUS
100
AcDbLine
 10
44.99999999995498
 20
4.225027170404777
 30
0.0
 11
43.57899999995641
 21
5.646027170403348
 31
0.0
  0
LINE
  5
22DF3
330
22DB9
100
AcDbEntity
  8
0
  6
CONTINUOUS
100
AcDbLine
 10
44.99999999995498
 20
4.898546379484964
 30
0.0
 11
43.57899999995641
 21
6.319546379483535
 31
0.0
  0
LINE
  5
22DF4
330
22DB9
100
AcDbEntity
  8
0
  6
CONTINUOUS
100
AcDbLine
 10
44.99999999995498
 20
5.572065588565151
 30
0.0
 11
43.57899999995641
 21
6.993065588563722
 31
0.0
  0
LINE
  5
22DF5
330
22DB9
100
AcDbEntity
  8
0
  6
CONTINUOUS
100
AcDbLine
 10
44.99999999995498
 20
6.245584797645336
 30
0.0
 11
43.57899999995641
 21
7.666584797643908
 31
0.0
  0
LINE
  5
22DF6
330
22DB9
100
AcDbEntity
  8
0
  6
CONTINUOUS
100
AcDbLine
 10
44.99999999995498
 20
6.919104006725522
 30
0.0
 11
43.57899999995641
 21
8.340104006724093
 31
0.0
  0
LINE
  5
22DF7
330
22DB9
100
AcDbEntity
  8
0
  6
CONTINUOUS
100
AcDbLine
 10
44.99999999995498
 20
7.592623215805709
 30
0.0
 11
43.82952321576943
 21
8.763099999991255
 31
0.0
  0
LINE
  5
22DF8
330
22DB9
100
AcDbEntity
  8
0
  6
CONTINUOUS
100
AcDbLine
 10
44.99999999995498
 20
8.266142424885896
 30
0.0
 11
44.50304242484962
 21
8.763099999991255
 31
0.0
  0
ENDBLK
  5
22E22
330
22DB9
100
AcDbEntity
  8
0
100
AcDbBlockEnd
  0
BLOCK
  5
22E23
330
22DF9
100
AcDbEntity
  8
0
100
AcDbBlockBegin
  2
*X97
 70
     1
 10
0.0
 20
0.0
 30
0.0
  3
*X97
  1

  0
LINE
  5
22DFA
330
22DF9
100
AcDbEntity
  8
0
  6
CONTINUOUS
100
AcDbLine
 10
0.0
 20
8.548461116714023
 30
0.0
 11
0.2146388832772324
 21
8.763099999991255
 31
0.0
  0
LINE
  5
22DFB
330
22DF9
100
AcDbEntity
  8
0
  6
CONTINUOUS
100
AcDbLine
 10
-0.0000000000000002
 20
7.874941907633837
 30
0.0
 11
0.8881580923574184
 21
8.763099999991255
 31
0.0
  0
LINE
  5
22DFC
330
22DF9
100
AcDbEntity
  8
0
  6
CONTINUOUS
100
AcDbLine
 10
0.0
 20
7.20142269855365
 30
0.0
 11
1.420999999998572
 21
8.622422698552223
 31
0.0
  0
LINE
  5
22DFD
330
22DF9
100
AcDbEntity
  8
0
  6
CONTINUOUS
100
AcDbLine
 10
-0.0000000000000001
 20
6.527903489473465
 30
0.0
 11
1.420999999998571
 21
7.948903489472036
 31
0.0
  0
LINE
  5
22DFE
330
22DF9
100
AcDbEntity
  8
0
  6
CONTINUOUS
100
AcDbLine
 10
-0.0000000000000002
 20
5.854384280393278
 30
0.0
 11
1.420999999998571
 21
7.275384280391849
 31
0.0
  0
LINE
  5
22DFF
330
22DF9
100
AcDbEntity
  8
0
  6
CONTINUOUS
100
AcDbLine
 10
-0.0000000000000002
 20
5.180865071313091
 30
0.0
 11
1.420999999998571
 21
6.601865071311663
 31
0.0
  0
LINE
  5
22E00
330
22DF9
100
AcDbEntity
  8
0
  6
CONTINUOUS
100
AcDbLine
 10
0.0
 20
4.507345862232905
 30
0.0
 11
1.420999999998571
 21
5.928345862231477
 31
0.0
  0
LINE
  5
22E01
330
22DF9
100
AcDbEntity
  8
0
  6
CONTINUOUS
100
AcDbLine
 10
-0.0000000000000003
 20
3.833826653152718
 30
0.0
 11
1.420999999998571
 21
5.25482665315129
 31
0.0
  0
LINE
  5
22E02
330
22DF9
100
AcDbEntity
  8
0
  6
CONTINUOUS
100
AcDbLine
 10
-0.0000000000000002
 20
3.160307444072532
 30
0.0
 11
1.420999999998571
 21
4.581307444071103
 31
0.0
  0
LINE
  5
22E03
330
22DF9
100
AcDbEntity
  8
0
  6
CONTINUOUS
100
AcDbLine
 10
-0.0000000000000001
 20
2.486788234992345
 30
0.0
 11
1.420999999998571
 21
3.907788234990917
 31
0.0
  0
LINE
  5
22E04
330
22DF9
100
AcDbEntity
  8
0
  6
CONTINUOUS
100
AcDbLine
 10
-0.0000000000000006
 20
1.813269025912159
 30
0.0
 11
1.420999999998571
 21
3.234269025910731
 31
0.0
  0
LINE
  5
22E05
330
22DF9
100
AcDbEntity
  8
0
  6
CONTINUOUS
100
AcDbLine
 10
0.0
 20
1.139749816831973
 30
0.0
 11
1.420999999998571
 21
2.560749816830544
 31
0.0
  0
LINE
  5
22E06
330
22DF9
100
AcDbEntity
  8
0
  6
CONTINUOUS
100
AcDbLine
 10
0.0000000000000002
 20
0.466230607751787
 30
0.0
 11
1.420999999998571
 21
1.887230607750358
 31
0.0
  0
LINE
  5
22E07
330
22DF9
100
AcDbEntity
  8
0
  6
CONTINUOUS
100
AcDbLine
 10
0.2072886013284003
 20
-0.0000000000000009
 30
0.0
 11
1.420999999998571
 21
1.213711398670171
 31
0.0
  0
LINE
  5
22E08
330
22DF9
100
AcDbEntity
  8
0
  6
CONTINUOUS
100
AcDbLine
 10
0.8808078104085864
 20
-0.0000000000000009
 30
0.0
 11
1.420999999998571
 21
0.5401921895899839
 31
0.0
  0
LINE
  5
22E09
330
22DF9
100
AcDbEntity
  8
0
  6
CONTINUOUS
100
AcDbLine
 10
0.0581249075061505
 20
-0.0000000000000009
 30
0.0
 11
-0.0000000000000002
 21
0.0581249075061496
 31
0.0
  0
LINE
  5
22E0A
330
22DF9
100
AcDbEntity
  8
0
  6
CONTINUOUS
100
AcDbLine
 10
0.7316441165863372
 20
-0.0000000000000009
 30
0.0
 11
-0.0000000000000002
 21
0.7316441165863363
 31
0.0
  0
LINE
  5
22E0B
330
22DF9
100
AcDbEntity
  8
0
  6
CONTINUOUS
100
AcDbLine
 10
1.405163325666523
 20
-0.0000000000000009
 30
0.0
 11
-0.0000000000000002
 21
1.405163325666523
 31
0.0
  0
LINE
  5
22E0C
330
22DF9
100
AcDbEntity
  8
0
  6
CONTINUOUS
100
AcDbLine
 10
1.420999999998572
 20
0.6576825347481381
 30
0.0
 11
-0.0000000000000001
 21
2.07868253474671
 31
0.0
  0
LINE
  5
22E0D
330
22DF9
100
AcDbEntity
  8
0
  6
CONTINUOUS
100
AcDbLine
 10
1.420999999998571
 20
1.331201743828324
 30
0.0
 11
-0.0000000000000001
 21
2.752201743826896
 31
0.0
  0
LINE
  5
22E0E
330
22DF9
100
AcDbEntity
  8
0
  6
CONTINUOUS
100
AcDbLine
 10
1.420999999998571
 20
2.004720952908511
 30
0.0
 11
-0.0000000000000002
 21
3.425720952907082
 31
0.0
  0
LINE
  5
22E0F
330
22DF9
100
AcDbEntity
  8
0
  6
CONTINUOUS
100
AcDbLine
 10
1.420999999998571
 20
2.678240161988697
 30
0.0
 11
-0.0000000000000001
 21
4.099240161987269
 31
0.0
  0
LINE
  5
22E10
330
22DF9
100
AcDbEntity
  8
0
  6
CONTINUOUS
100
AcDbLine
 10
1.420999999998572
 20
3.351759371068884
 30
0.0
 11
0.0
 21
4.772759371067455
 31
0.0
  0
LINE
  5
22E11
330
22DF9
100
AcDbEntity
  8
0
  6
CONTINUOUS
100
AcDbLine
 10
1.420999999998571
 20
4.02527858014907
 30
0.0
 11
-0.0000000000000003
 21
5.446278580147642
 31
0.0
  0
LINE
  5
22E12
330
22DF9
100
AcDbEntity
  8
0
  6
CONTINUOUS
100
AcDbLine
 10
1.420999999998571
 20
4.698797789229257
 30
0.0
 11
0.0
 21
6.119797789227828
 31
0.0
  0
LINE
  5
22E13
330
22DF9
100
AcDbEntity
  8
0
  6
CONTINUOUS
100
AcDbLine
 10
1.420999999998571
 20
5.372316998309444
 30
0.0
 11
-0.0000000000000001
 21
6.793316998308015
 31
0.0
  0
LINE
  5
22E14
330
22DF9
100
AcDbEntity
  8
0
  6
CONTINUOUS
100
AcDbLine
 10
1.420999999998572
 20
6.045836207389629
 30
0.0
 11
-0.0000000000000004
 21
7.466836207388202
 31
0.0
  0
LINE
  5
22E15
330
22DF9
100
AcDbEntity
  8
0
  6
CONTINUOUS
100
AcDbLine
 10
1.420999999998571
 20
6.719355416469816
 30
0.0
 11
0.0
 21
8.140355416468388
 31
0.0
  0
LINE
  5
22E16
330
22DF9
100
AcDbEntity
  8
0
  6
CONTINUOUS
100
AcDbLine
 10
1.420999999998571
 20
7.392874625550003
 30
0.0
 11
0.0507746255573185
 21
8.763099999991255
 31
0.0
  0
LINE
  5
22E17
330
22DF9
100
AcDbEntity
  8
0
  6
CONTINUOUS
100
AcDbLine
 10
1.420999999998571
 20
8.06639383463019
 30
0.0
 11
0.7242938346375052
 21
8.763099999991255
 31
0.0
  0
LINE
  5
22E18
330
22DF9
100
AcDbEntity
  8
0
  6
CONTINUOUS
100
AcDbLine
 10
1.420999999998571
 20
8.739913043710375
 30
0.0
 11
1.397813043717691
 21
8.763099999991255
 31
0.0
  0
ENDBLK
  5
22E24
330
22DF9
100
AcDbEntity
  8
0
100
AcDbBlockEnd
  0
ENDSEC
  0
SECTION
  2
ENTITIES
  0
LINE
  5
224C6
330
18
100
AcDbEntity
  8
01
100
AcDbLine
 10
627.6116531680452
 20
-546.0483226455898
 30
0.0
 11
626.6116534680452
 21
-545.0483226455898
 31
0.0
  0
LINE
  5
224C7
330
18
100
AcDbEntity
  8
01
100
AcDbLine
 10
630.9116533180452
 20
-546.0483226455898
 30
0.0
 11
630.9116533180452
 21
-545.0483226455898
 31
0.0
  0
LINE
  5
224C8
330
18
100
AcDbEntity
  8
01
100
AcDbLine
 10
630.9116533180452
 20
-545.0483226455898
 30
0.0
 11
623.3116533180453
 21
-545.0483226455898
 31
0.0
  0
LINE
  5
224C9
330
18
100
AcDbEntity
  8
01
100
AcDbLine
 10
630.9116533180452
 20
-546.0483226455898
 30
0.0
 11
623.3116533180453
 21
-546.0483226455898
 31
0.0
  0
LINE
  5
224CA
330
18
100
AcDbEntity
  8
01
100
AcDbLine
 10
623.3116533180453
 20
-546.0483226455898
 30
0.0
 11
623.3116533180453
 21
-545.0483226455898
 31
0.0
  0
LINE
  5
224CC
330
18
100
AcDbEntity
  8
01
100
AcDbLine
 10
177.6116531680451
 20
-546.0483226455904
 30
0.0
 11
176.6116534680451
 21
-545.0483226455904
 31
0.0
  0
LINE
  5
224CD
330
18
100
AcDbEntity
  8
01
100
AcDbLine
 10
180.9116533180451
 20
-546.0483226455904
 30
0.0
 11
180.9116533180451
 21
-545.0483226455904
 31
0.0
  0
LINE
  5
224CE
330
18
100
AcDbEntity
  8
01
100
AcDbLine
 10
180.9116533180451
 20
-545.0483226455904
 30
0.0
 11
173.3116533180452
 21
-545.0483226455904
 31
0.0
  0
LINE
  5
224CF
330
18
100
AcDbEntity
  8
01
100
AcDbLine
 10
180.9116533180451
 20
-546.0483226455904
 30
0.0
 11
173.3116533180452
 21
-546.0483226455904
 31
0.0
  0
LINE
  5
224D0
330
18
100
AcDbEntity
  8
01
100
AcDbLine
 10
173.3116533180452
 20
-546.0483226455904
 30
0.0
 11
173.3116533180452
 21
-545.0483226455904
 31
0.0
  0
LINE
  5
224D2
330
18
100
AcDbEntity
  8
01
  6
CONTINUOUS
100
AcDbLine
 10
191.411653747075
 20
-667.2352757403312
 30
0.0
 11
612.8129043449096
 21
-667.2352757403312
 31
0.0
  0
LINE
  5
224D3
330
18
100
AcDbEntity
  8
01
  6
CONTINUOUS
100
AcDbLine
 10
612.8129043449096
 20
-651.9033929897157
 30
0.0
 11
191.4116537470751
 21
-651.9033929897157
 31
0.0
  0
LINE
  5
224D4
330
18
100
AcDbEntity
  8
01
  6
CONTINUOUS
100
AcDbLine
 10
166.6116534565024
 20
-667.6197908917127
 30
0.0
 11
190.6116536651186
 21
-667.6197908917127
 31
0.0
  0
ARC
  5
224D5
330
18
100
AcDbEntity
  8
01
  6
CONTINUOUS
100
AcDbCircle
 10
190.6116533149413
 20
-667.1197902002925
 30
0.0
 40
0.5
100
AcDbArc
 50
270.0
 51
0.0000000000130276
  0
SPLINE
  5
224D6
330
18
100
AcDbEntity
  8
01
  6
CONTINUOUS
100
AcDbSpline
210
0.0
220
0.0
230
1.0
 70
     8
 71
     3
 72
    12
 73
     8
 74
     0
 42
0.0000000001
 43
0.0000000001
 40
0.0165810235527571
 40
0.0165810235527571
 40
0.0165810235527571
 40
0.0165810235527571
 40
0.1907737750358494
 40
0.370906781554288
 40
0.5407870347828817
 40
0.7005977307085621
 40
0.8532533916466498
 40
0.8532533916466498
 40
0.8532533916466498
 40
0.8532533916466498
 10
190.6484482498535
 20
-651.5042834167205
 30
0.0
 10
190.4941882321304
 20
-651.4929007129508
 30
0.0
 10
190.1821536617948
 20
-651.4689230747234
 30
0.0
 10
189.7809683498114
 20
-651.404916984374
 30
0.0
 10
189.459476800336
 20
-651.3329286101746
 30
0.0
 10
189.2442205205091
 20
-651.275611358889
 30
0.0
 10
189.1439608283137
 20
-651.2356716110534
 30
0.0
 10
189.1116534192447
 20
-651.2259840322542
 30
0.0
  0
SPLINE
  5
224D7
330
18
100
AcDbEntity
  8
01
  6
CONTINUOUS
100
AcDbSpline
210
0.0
220
0.0
230
1.0
 70
    24
 71
     3
 72
    17
 73
    13
 74
     0
 42
0.0000000001
 43
0.0000000001
 40
0.0
 40
0.0
 40
0.0
 40
0.0
 40
0.0629665886201064
 40
0.1252534929487694
 40
0.1874656484013317
 40
0.2502101524480735
 40
0.3750432536191688
 40
0.5001378765648747
 40
0.624920235686551
 40
0.7500697918771352
 40
0.8747843690205148
 40
1.0
 40
1.0
 40
1.0
 40
1.0
 10
191.1116533149413
 20
-658.9571495050996
 30
0.0
 10
191.1116533149413
 20
-658.9352562882689
 30
0.0
 10
191.1116533149413
 20
-658.8917061779641
 30
0.0
 10
191.1116533149413
 20
-658.8242486967231
 30
0.0
 10
191.1116533149413
 20
-658.7559808657631
 30
0.0
 10
191.1116533149413
 20
-658.664417611358
 30
0.0
 10
191.1116533149413
 20
-658.5502467716619
 30
0.0
 10
191.1116533149413
 20
-658.4201729793544
 30
0.0
 10
191.1116533149413
 20
-658.3009706694279
 30
0.0
 10
191.1116533149413
 20
-658.1987970193345
 30
0.0
 10
191.1116533149413
 20
-658.1141634101887
 30
0.0
 10
191.1116533149413
 20
-658.0780456528669
 30
0.0
 10
191.1116533149413
 20
-658.0599505702173
 30
0.0
  0
LINE
  5
224D8
330
18
100
AcDbEntity
  8
01
  6
CONTINUOUS
100
AcDbLine
 10
191.111653747075
 20
-658.0685875476954
 30
0.0
 11
191.111653747075
 21
-658.7094436498044
 31
0.0
  0
LINE
  5
224D9
330
18
100
AcDbEntity
  8
01
  6
CONTINUOUS
100
AcDbLine
 10
165.1116532106332
 20
-666.4487803453264
 30
0.0
 11
165.1116532106332
 21
-658.36742381618
 31
0.0
  0
LINE
  5
224DA
330
18
100
AcDbEntity
  8
01
  6
CONTINUOUS
100
AcDbLine
 10
191.111653747075
 20
-658.7094436498044
 30
0.0
 11
191.111653747075
 21
-666.9352757403311
 31
0.0
  0
ARC
  5
224DB
330
18
100
AcDbEntity
  8
01
  6
CONTINUOUS
100
AcDbCircle
 10
191.411653747075
 20
-666.9352757403311
 30
0.0
 40
0.3
100
AcDbArc
 50
180.0
 51
270.0
  0
LINE
  5
224DC
330
18
100
AcDbEntity
  8
01
  6
CONTINUOUS
100
AcDbLine
 10
188.1116532553367
 20
-642.8204039210138
 30
0.0
 11
166.111653374546
 21
-642.8204039210138
 31
0.0
  0
LINE
  5
224DD
330
18
100
AcDbEntity
  8
01
  6
CONTINUOUS
100
AcDbLine
 10
191.111653747075
 20
-658.0685875476954
 30
0.0
 11
191.111653747075
 21
-652.2033929897157
 31
0.0
  0
ARC
  5
224DE
330
18
100
AcDbEntity
  8
01
  6
CONTINUOUS
100
AcDbCircle
 10
191.411653747075
 20
-652.2033929897157
 30
0.0
 40
0.3
100
AcDbArc
 50
90.0
 51
180.0
  0
LINE
  5
224DF
330
18
100
AcDbEntity
  8
01
  6
CONTINUOUS
100
AcDbLine
 10
165.1116532106332
 20
-651.488370592069
 30
0.0
 11
165.1116532106332
 21
-658.36742381618
 31
0.0
  0
SPLINE
  5
224E0
330
18
100
AcDbEntity
  8
01
  6
CONTINUOUS
100
AcDbSpline
210
0.0
220
0.0
230
1.0
 70
     8
 71
     3
 72
    12
 73
     8
 74
     0
 42
0.0000000001
 43
0.0000000001
 40
0.0
 40
0.0
 40
0.0
 40
0.0
 40
0.25
 40
0.25
 40
0.5
 40
0.5
 40
1.0
 40
1.0
 40
1.0
 40
1.0
 10
188.1116533149413
 20
-642.8205498953953
 30
0.0
 10
188.2437523059729
 20
-642.8205498953953
 30
0.0
 10
188.3733757348368
 20
-642.8465749387847
 30
0.0
 10
188.615498719843
 20
-642.9469879170149
 30
0.0
 10
188.7263862805168
 20
-643.0212937501633
 30
0.0
 10
189.0030304235267
 20
-643.2980662163486
 30
0.0
 10
189.1116018421905
 20
-643.5570797116075
 30
0.0
 10
189.1116532959407
 20
-643.8212708735673
 30
0.0
  0
SPLINE
  5
224E1
330
18
100
AcDbEntity
  8
01
  6
CONTINUOUS
100
AcDbSpline
210
0.0
220
0.0
230
1.0
 70
    24
 71
     3
 72
    11
 73
     7
 74
     0
 42
0.0000000001
 43
0.0000000001
 40
0.0078743989046847
 40
0.0078743989046847
 40
0.0078743989046847
 40
0.0078743989046847
 40
0.2397164347598534
 40
0.4930919663337516
 40
0.7465424833273678
 40
1.0
 40
1.0
 40
1.0
 40
1.0
 10
189.1116534192491
 20
-651.2259840322556
 30
0.0
 10
189.1116534192494
 20
-650.255793959137
 30
0.0
 10
189.1116534192494
 20
-648.2345976313198
 30
0.0
 10
189.1116534192494
 20
-646.0591954717363
 30
0.0
 10
189.1116534192494
 20
-644.4516386659166
 30
0.0
 10
189.1116534192494
 20
-644.0313952766815
 30
0.0
 10
189.1116534192494
 20
-643.8212706805823
 30
0.0
  0
SPLINE
  5
224E2
330
18
100
AcDbEntity
  8
01
  6
CONTINUOUS
100
AcDbSpline
210
0.0
220
0.0
230
1.0
 70
     8
 71
     3
 72
    12
 73
     8
 74
     0
 42
0.0000000001
 43
0.0000000001
 40
0.0
 40
0.0
 40
0.0
 40
0.0
 40
0.2500000000000012
 40
0.2500000000000012
 40
0.5000000000000023
 40
0.5000000000000023
 40
1.0
 40
1.0
 40
1.0
 40
1.0
 10
166.1116533149415
 20
-642.820550262144
 30
0.0
 10
165.9795543560196
 20
-642.820550262144
 30
0.0
 10
165.8499309599117
 20
-642.8465752941131
 30
0.0
 10
165.6078080242662
 20
-642.9469882309891
 30
0.0
 10
165.496920484469
 20
-643.0212940318756
 30
0.0
 10
165.2202763599769
 20
-643.2980663872859
 30
0.0
 10
165.1117049019577
 20
-643.5570797763389
 30
0.0
 10
165.1116533340264
 20
-643.8212708735673
 30
0.0
  0
SPLINE
  5
224E3
330
18
100
AcDbEntity
  8
01
  6
CONTINUOUS
100
AcDbSpline
210
0.0
220
0.0
230
1.0
 70
     8
 71
     3
 72
    18
 73
    14
 74
     0
 42
0.0000000001
 43
0.0000000001
 40
0.0
 40
0.0
 40
0.0
 40
0.0
 40
0.125
 40
0.125
 40
0.25
 40
0.25
 40
0.5
 40
0.5
 40
0.6250000000000001
 40
0.6250000000000001
 40
0.7500000000000002
 40
0.7500000000000002
 40
1.0
 40
1.0
 40
1.0
 40
1.0
 10
165.1116533340264
 20
-643.8212708735671
 30
0.0
 10
165.1116533324359
 20
-643.892262336288
 30
0.0
 10
165.1116533309448
 20
-643.9909667341403
 30
0.0
 10
165.1116533281615
 20
-644.2554675860456
 30
0.0
 10
165.1116533268691
 20
-644.4191891057983
 30
0.0
 10
165.1116533232907
 20
-645.0044974048244
 30
0.0
 10
165.1116533213028
 20
-645.5200899016966
 30
0.0
 10
165.1116533189172
 20
-646.483329400583
 30
0.0
 10
165.1116533182214
 20
-646.8364643920922
 30
0.0
 10
165.1116533170286
 20
-647.6033184923692
 30
0.0
 10
165.1116533165316
 20
-648.0171708405953
 30
0.0
 10
165.1116533153389
 20
-649.3494321648436
 30
0.0
 10
165.1116533149413
 20
-650.3584302408078
 30
0.0
 10
165.1116533149413
 20
-651.4883705778182
 30
0.0
  0
LINE
  5
224E5
330
18
100
AcDbEntity
  8
01
  6
CONTINUOUS
100
AcDbLine
 10
184.2624751683704
 20
-669.8336545476375
 30
0.0
 11
184.4316820446781
 21
-667.6197908917127
 31
0.0
  0
ARC
  5
224E6
330
18
100
AcDbEntity
  8
01
  6
CONTINUOUS
100
AcDbCircle
 10
190.6116537470531
 20
-652.0029277434364
 30
0.0
 40
0.5
100
AcDbArc
 50
0.0000000004559643
 51
85.7798457704348
  0
ELLIPSE
  5
224E7
330
18
100
AcDbEntity
  8
01
100
AcDbEllipse
 10
166.6116534565024
 20
-666.4487803453264
 30
0.0
 11
-1.50000024586916
 21
0.0
 31
0.0
210
0.0
220
0.0
230
1.0
 40
0.7806450090742038
 41
6.283185307179586
 42
7.853981633974483
  0
LINE
  5
224E8
330
18
100
AcDbEntity
  8
1CENTER
100
AcDbLine
 10
174.1866533149418
 20
-651.1204039210138
 30
0.0
 11
180.0366533149418
 21
-651.1204039210138
 31
0.0
  0
LINE
  5
224E9
330
18
100
AcDbEntity
  8
1CENTER
100
AcDbLine
 10
177.1116533149418
 20
-654.0454039210138
 30
0.0
 11
177.1116533149418
 21
-648.1954039210138
 31
0.0
  0
LINE
  5
224EA
330
18
100
AcDbEntity
  8
01
100
AcDbLine
 10
191.1116533149413
 20
-667.1197902002923
 30
0.0
 11
191.1116533149413
 21
-652.0022703915167
 31
0.0
  0
LINE
  5
224EB
330
18
100
AcDbEntity
  8
01
  6
CONTINUOUS
100
AcDbLine
 10
637.6116531733803
 20
-667.6197908917127
 30
0.0
 11
613.6116529647641
 21
-667.6197908917127
 31
0.0
  0
ARC
  5
224EC
330
18
100
AcDbEntity
  8
01
  6
CONTINUOUS
100
AcDbCircle
 10
613.6116533149413
 20
-667.1197902002925
 30
0.0
 40
0.5
100
AcDbArc
 50
179.999999999987
 51
270.0
  0
SPLINE
  5
224ED
330
18
100
AcDbEntity
  8
01
  6
CONTINUOUS
100
AcDbSpline
210
0.0
220
0.0
230
1.0
 70
     8
 71
     3
 72
    12
 73
     8
 74
     0
 42
0.0000000001
 43
0.0000000001
 40
0.0165810235527571
 40
0.0165810235527571
 40
0.0165810235527571
 40
0.0165810235527571
 40
0.1907737750358494
 40
0.370906781554288
 40
0.5407870347828817
 40
0.7005977307085621
 40
0.8532533916466498
 40
0.8532533916466498
 40
0.8532533916466498
 40
0.8532533916466498
 10
613.5748583800291
 20
-651.5042834167205
 30
0.0
 10
613.7291183977522
 20
-651.4929007129508
 30
0.0
 10
614.0411529680879
 20
-651.4689230747234
 30
0.0
 10
614.4423382800712
 20
-651.404916984374
 30
0.0
 10
614.7638298295467
 20
-651.3329286101746
 30
0.0
 10
614.9790861093736
 20
-651.275611358889
 30
0.0
 10
615.0793458015689
 20
-651.2356716110534
 30
0.0
 10
615.111653210638
 20
-651.2259840322542
 30
0.0
  0
SPLINE
  5
224EE
330
18
100
AcDbEntity
  8
01
  6
CONTINUOUS
100
AcDbSpline
210
0.0
220
0.0
230
1.0
 70
    24
 71
     3
 72
    17
 73
    13
 74
     0
 42
0.0000000001
 43
0.0000000001
 40
0.0
 40
0.0
 40
0.0
 40
0.0
 40
0.0629665886201064
 40
0.1252534929487694
 40
0.1874656484013317
 40
0.2502101524480735
 40
0.3750432536191688
 40
0.5001378765648747
 40
0.624920235686551
 40
0.7500697918771352
 40
0.8747843690205148
 40
1.0
 40
1.0
 40
1.0
 40
1.0
 10
613.1116533149413
 20
-658.9571495050996
 30
0.0
 10
613.1116533149413
 20
-658.9352562882689
 30
0.0
 10
613.1116533149413
 20
-658.8917061779641
 30
0.0
 10
613.1116533149413
 20
-658.8242486967231
 30
0.0
 10
613.1116533149413
 20
-658.7559808657631
 30
0.0
 10
613.1116533149413
 20
-658.664417611358
 30
0.0
 10
613.1116533149413
 20
-658.5502467716619
 30
0.0
 10
613.1116533149413
 20
-658.4201729793544
 30
0.0
 10
613.1116533149413
 20
-658.3009706694279
 30
0.0
 10
613.1116533149413
 20
-658.1987970193345
 30
0.0
 10
613.1116533149413
 20
-658.1141634101887
 30
0.0
 10
613.1116533149413
 20
-658.0780456528669
 30
0.0
 10
613.1116533149413
 20
-658.0599505702173
 30
0.0
  0
LINE
  5
224EF
330
18
100
AcDbEntity
  8
01
  6
CONTINUOUS
100
AcDbLine
 10
613.1116528828077
 20
-658.0685875476954
 30
0.0
 11
613.1116528828077
 21
-658.7094436498044
 31
0.0
  0
LINE
  5
224F0
330
18
100
AcDbEntity
  8
01
  6
CONTINUOUS
100
AcDbLine
 10
639.1116534192495
 20
-666.4487803453264
 30
0.0
 11
639.1116534192495
 21
-658.36742381618
 31
0.0
  0
LINE
  5
224F1
330
18
100
AcDbEntity
  8
01
  6
CONTINUOUS
100
AcDbLine
 10
613.1116528828077
 20
-658.7094436498044
 30
0.0
 11
613.1116528828077
 21
-666.9352757403311
 31
0.0
  0
ARC
  5
224F2
330
18
100
AcDbEntity
  8
01
  6
CONTINUOUS
100
AcDbCircle
 10
612.8116528828077
 20
-666.9352757403311
 30
0.0
 40
0.3
100
AcDbArc
 50
270.0
 51
0.0
  0
LINE
  5
224F3
330
18
100
AcDbEntity
  8
01
  6
CONTINUOUS
100
AcDbLine
 10
616.111653374546
 20
-642.8204039210138
 30
0.0
 11
638.1116532553367
 21
-642.8204039210138
 31
0.0
  0
LINE
  5
224F4
330
18
100
AcDbEntity
  8
01
  6
CONTINUOUS
100
AcDbLine
 10
613.1116528828077
 20
-658.0685875476954
 30
0.0
 11
613.1116528828077
 21
-652.2033929897157
 31
0.0
  0
ARC
  5
224F5
330
18
100
AcDbEntity
  8
01
  6
CONTINUOUS
100
AcDbCircle
 10
612.8116528828077
 20
-652.2033929897157
 30
0.0
 40
0.3
100
AcDbArc
 50
0.0
 51
90.0
  0
LINE
  5
224F6
330
18
100
AcDbEntity
  8
01
  6
CONTINUOUS
100
AcDbLine
 10
639.1116534192495
 20
-651.488370592069
 30
0.0
 11
639.1116534192495
 21
-658.36742381618
 31
0.0
  0
SPLINE
  5
224F7
330
18
100
AcDbEntity
  8
01
  6
CONTINUOUS
100
AcDbSpline
210
0.0
220
0.0
230
1.0
 70
     8
 71
     3
 72
    12
 73
     8
 74
     0
 42
0.0000000001
 43
0.0000000001
 40
0.0
 40
0.0
 40
0.0
 40
0.0
 40
0.25
 40
0.25
 40
0.5
 40
0.5
 40
1.0
 40
1.0
 40
1.0
 40
1.0
 10
616.1116533149413
 20
-642.8205498953953
 30
0.0
 10
615.9795543239097
 20
-642.8205498953953
 30
0.0
 10
615.8499308950459
 20
-642.8465749387847
 30
0.0
 10
615.6078079100397
 20
-642.9469879170149
 30
0.0
 10
615.4969203493658
 20
-643.0212937501633
 30
0.0
 10
615.220276206356
 20
-643.2980662163486
 30
0.0
 10
615.1117047876921
 20
-643.5570797116075
 30
0.0
 10
615.111653333942
 20
-643.8212708735673
 30
0.0
  0
SPLINE
  5
224F8
330
18
100
AcDbEntity
  8
01
  6
CONTINUOUS
100
AcDbSpline
210
0.0
220
0.0
230
1.0
 70
    24
 71
     3
 72
    11
 73
     7
 74
     0
 42
0.0000000001
 43
0.0000000001
 40
0.0078743989046847
 40
0.0078743989046847
 40
0.0078743989046847
 40
0.0078743989046847
 40
0.2397164347598534
 40
0.4930919663337516
 40
0.7465424833273678
 40
1.0
 40
1.0
 40
1.0
 40
1.0
 10
615.1116532106336
 20
-651.2259840322556
 30
0.0
 10
615.1116532106332
 20
-650.255793959137
 30
0.0
 10
615.1116532106332
 20
-648.2345976313198
 30
0.0
 10
615.1116532106332
 20
-646.0591954717363
 30
0.0
 10
615.1116532106332
 20
-644.4516386659166
 30
0.0
 10
615.1116532106332
 20
-644.0313952766815
 30
0.0
 10
615.1116532106332
 20
-643.8212706805823
 30
0.0
  0
SPLINE
  5
224F9
330
18
100
AcDbEntity
  8
01
  6
CONTINUOUS
100
AcDbSpline
210
0.0
220
0.0
230
1.0
 70
     8
 71
     3
 72
    12
 73
     8
 74
     0
 42
0.0000000001
 43
0.0000000001
 40
0.0
 40
0.0
 40
0.0
 40
0.0
 40
0.2500000000000012
 40
0.2500000000000012
 40
0.5000000000000023
 40
0.5000000000000023
 40
1.0
 40
1.0
 40
1.0
 40
1.0
 10
638.1116533149411
 20
-642.820550262144
 30
0.0
 10
638.243752273863
 20
-642.820550262144
 30
0.0
 10
638.373375669971
 20
-642.8465752941131
 30
0.0
 10
638.6154986056165
 20
-642.9469882309891
 30
0.0
 10
638.7263861454137
 20
-643.0212940318756
 30
0.0
 10
639.0030302699058
 20
-643.2980663872859
 30
0.0
 10
639.111601727925
 20
-643.5570797763389
 30
0.0
 10
639.1116532958563
 20
-643.8212708735673
 30
0.0
  0
SPLINE
  5
224FA
330
18
100
AcDbEntity
  8
01
  6
CONTINUOUS
100
AcDbSpline
210
0.0
220
0.0
230
1.0
 70
     8
 71
     3
 72
    18
 73
    14
 74
     0
 42
0.0000000001
 43
0.0000000001
 40
0.0
 40
0.0
 40
0.0
 40
0.0
 40
0.125
 40
0.125
 40
0.25
 40
0.25
 40
0.5
 40
0.5
 40
0.6250000000000001
 40
0.6250000000000001
 40
0.7500000000000002
 40
0.7500000000000002
 40
1.0
 40
1.0
 40
1.0
 40
1.0
 10
639.1116532958563
 20
-643.8212708735671
 30
0.0
 10
639.1116532974468
 20
-643.892262336288
 30
0.0
 10
639.1116532989379
 20
-643.9909667341403
 30
0.0
 10
639.1116533017212
 20
-644.2554675860456
 30
0.0
 10
639.1116533030136
 20
-644.4191891057983
 30
0.0
 10
639.111653306592
 20
-645.0044974048244
 30
0.0
 10
639.1116533085799
 20
-645.5200899016966
 30
0.0
 10
639.1116533109655
 20
-646.483329400583
 30
0.0
 10
639.1116533116613
 20
-646.8364643920922
 30
0.0
 10
639.1116533128541
 20
-647.6033184923692
 30
0.0
 10
639.1116533133511
 20
-648.0171708405953
 30
0.0
 10
639.1116533145438
 20
-649.3494321648436
 30
0.0
 10
639.1116533149413
 20
-650.3584302408078
 30
0.0
 10
639.1116533149413
 20
-651.4883705778182
 30
0.0
  0
LINE
  5
224FC
330
18
100
AcDbEntity
  8
01
  6
CONTINUOUS
100
AcDbLine
 10
619.9608314615123
 20
-669.8336545476375
 30
0.0
 11
619.7916245852045
 21
-667.6197908917127
 31
0.0
  0
ARC
  5
224FD
330
18
100
AcDbEntity
  8
01
  6
CONTINUOUS
100
AcDbCircle
 10
613.6116528828296
 20
-652.0029277434364
 30
0.0
 40
0.5
100
AcDbArc
 50
94.22015422956521
 51
179.999999999557
  0
ELLIPSE
  5
224FE
330
18
100
AcDbEntity
  8
01
100
AcDbEllipse
 10
637.6116531733803
 20
-666.4487803453264
 30
0.0
 11
1.50000024586916
 21
0.0
 31
0.0
210
0.0
220
0.0
230
-1.0
 40
0.7806450090742038
 41
6.283185307179586
 42
7.853981633974483
  0
LINE
  5
224FF
330
18
100
AcDbEntity
  8
1CENTER
100
AcDbLine
 10
630.0366533149408
 20
-651.1204039210138
 30
0.0
 11
624.1866533149408
 21
-651.1204039210138
 31
0.0
  0
LINE
  5
22500
330
18
100
AcDbEntity
  8
1CENTER
100
AcDbLine
 10
627.1116533149409
 20
-654.0454039210138
 30
0.0
 11
627.1116533149409
 21
-648.1954039210138
 31
0.0
  0
LINE
  5
22501
330
18
100
AcDbEntity
  8
01
100
AcDbLine
 10
613.1116533149413
 20
-667.1197902002923
 30
0.0
 11
613.1116533149413
 21
-652.0022703915167
 31
0.0
  0
LINE
  5
22502
330
18
100
AcDbEntity
  8
01
  6
CONTINUOUS
100
AcDbLine
 10
191.4103996772271
 20
-601.7666091002674
 30
0.0
 11
612.8129043448669
 21
-601.7666091002674
 31
0.0
  0
SPLINE
  5
22503
330
18
100
AcDbEntity
  8
01
  6
CONTINUOUS
100
AcDbSpline
210
0.0
220
0.0
230
1.0
 70
     8
 71
     3
 72
    16
 73
    12
 74
     0
 42
0.0000000001
 43
0.0000000001
 40
0.0
 40
0.0
 40
0.0
 40
0.0
 40
0.1848158028438661
 40
0.3637050889420375
 40
0.6603185812445165
 40
0.7587450659476429
 40
0.7965765287397176
 40
0.8327355474147781
 40
0.8709520852981142
 40
0.9123720002852277
 40
1.0
 40
1.0
 40
1.0
 40
1.0
 10
191.1116537470322
 20
-601.006024030611
 30
0.0
 10
191.1116892677271
 20
-601.0804993994077
 30
0.0
 10
191.111759170069
 20
-601.2270619239072
 30
0.0
 10
191.1151639987093
 20
-601.4370590605855
 30
0.0
 10
191.1180017430039
 20
-601.5459387880716
 30
0.0
 10
191.1522773863998
 20
-601.623027145937
 30
0.0
 10
191.1921459083391
 20
-601.6703164328162
 30
0.0
 10
191.2282860634042
 20
-601.702415001128
 30
0.0
 10
191.2702478072244
 20
-601.7298954899749
 30
0.0
 10
191.3326390921343
 20
-601.7591023337947
 30
0.0
 10
191.3796983636161
 20
-601.7635909659974
 30
0.0
 10
191.4116532374125
 20
-601.7666389025898
 30
0.0
  0
LINE
  5
22504
330
18
100
AcDbEntity
  8
01
  6
CONTINUOUS
100
AcDbLine
 10
612.8129043448669
 20
-581.0556751467437
 30
0.0
 11
191.4103996772271
 21
-581.0556751467437
 31
0.0
  0
SPLINE
  5
22505
330
18
100
AcDbEntity
  8
01
  6
CONTINUOUS
100
AcDbSpline
210
0.0
220
0.0
230
1.0
 70
     8
 71
     3
 72
    13
 73
     9
 74
     0
 42
0.0000000001
 43
0.0000000001
 40
0.0
 40
0.0
 40
0.0
 40
0.0
 40
0.1002361867193393
 40
0.206867854366084
 40
0.3214459331579299
 40
0.44773989213518
 40
0.7244938636019688
 40
1.0
 40
1.0
 40
1.0
 40
1.0
 10
191.4116532374125
 20
-581.0556453444214
 30
0.0
 10
191.3924438580791
 20
-581.0567165267537
 30
0.0
 10
191.3527994620133
 20
-581.0589272372565
 30
0.0
 10
191.2937720884892
 20
-581.0775592438998
 30
0.0
 10
191.2378245826646
 20
-581.108636536122
 30
0.0
 10
191.1741392676182
 20
-581.1669762067523
 30
0.0
 10
191.1224324215411
 20
-581.2607585903191
 30
0.0
 10
191.1152412223491
 20
-581.3522469456987
 30
0.0
 10
191.1116537470322
 20
-581.397887764141
 30
0.0
  0
SPLINE
  5
22506
330
18
100
AcDbEntity
  8
01
  6
CONTINUOUS
100
AcDbSpline
210
0.0
220
0.0
230
1.0
 70
     8
 71
     3
 72
    11
 73
     7
 74
     0
 42
0.0000000001
 43
0.0000000001
 40
0.0
 40
0.0
 40
0.0
 40
0.0
 40
0.2527836471525778
 40
0.5037174190043243
 40
0.7525749078787334
 40
1.0
 40
1.0
 40
1.0
 40
1.0
 10
165.128348099063
 20
-600.7435139991493
 30
0.0
 10
165.1532894735037
 20
-600.9301744339672
 30
0.0
 10
165.2029897009558
 20
-601.3021293191658
 30
0.0
 10
165.5510461387467
 20
-601.7669504114897
 30
0.0
 10
166.0398626056839
 20
-602.0889625715236
 30
0.0
 10
166.42142359997
 20
-602.1304150117821
 30
0.0
 10
166.6116534564596
 20
-602.1510814108104
 30
0.0
  0
LINE
  5
22507
330
18
100
AcDbEntity
  8
01
  6
CONTINUOUS
100
AcDbLine
 10
166.6116534564596
 20
-602.1511223890037
 30
0.0
 11
190.6116536650759
 21
-602.1511223890037
 31
0.0
  0
ARC
  5
22508
330
18
100
AcDbEntity
  8
01
  6
CONTINUOUS
100
AcDbCircle
 10
190.6116533148986
 20
-601.6511237107117
 30
0.0
 40
0.5
100
AcDbArc
 50
270.0
 51
0.0
  0
SPLINE
  5
22509
330
18
100
AcDbEntity
  8
01
  6
CONTINUOUS
100
AcDbSpline
210
0.0
220
0.0
230
1.0
 70
     8
 71
     3
 72
    11
 73
     7
 74
     0
 42
0.0000000001
 43
0.0000000001
 40
0.0157533275432993
 40
0.0157533275432993
 40
0.0157533275432993
 40
0.0157533275432993
 40
0.2533924365592861
 40
0.5039343662801896
 40
0.7524993777804521
 40
1.0
 40
1.0
 40
1.0
 40
1.0
 10
190.730430377119
 20
-580.6349265772086
 30
0.0
 10
190.5419939409358
 20
-580.5888437440118
 30
0.0
 10
190.1568718006266
 20
-580.4904520093503
 30
0.0
 10
189.67449946452
 20
-580.1562563969098
 30
0.0
 10
189.301803975921
 20
-579.7122674692704
 30
0.0
 10
189.195349313333
 20
-579.3572249651467
 30
0.0
 10
189.1422361899119
 20
-579.1800846137256
 30
0.0
  0
LINE
  5
2250A
330
18
100
AcDbEntity
  8
01
  6
CONTINUOUS
100
AcDbLine
 10
189.111653295898
 20
-543.0483226455898
 30
0.0
 11
165.1116533339836
 21
-543.0483226455898
 31
0.0
  0
SPLINE
  5
2250B
330
18
100
AcDbEntity
  8
01
  6
CONTINUOUS
100
AcDbSpline
210
0.0
220
0.0
230
1.0
 70
    24
 71
     3
 72
    10
 73
     6
 74
     0
 42
0.0000000001
 43
0.0000000001
 40
0.0
 40
0.0
 40
0.0
 40
0.0
 40
0.4999999999999999
 40
0.4999999999999999
 40
1.0
 40
1.0
 40
1.0
 40
1.0
 10
191.1116533148986
 20
-584.7441140522642
 30
0.0
 10
191.1116533148986
 20
-584.6197525912053
 30
0.0
 10
191.1116533148986
 20
-584.4777869433939
 30
0.0
 10
191.1116533148986
 20
-584.238213304262
 30
0.0
 10
191.1116533148986
 20
-584.1403018237617
 30
0.0
 10
191.1116533148986
 20
-584.0952231585085
 30
0.0
  0
LINE
  5
2250C
330
18
100
AcDbEntity
  8
01
  6
CONTINUOUS
100
AcDbLine
 10
191.1116537470322
 20
-601.322133538887
 30
0.0
 11
191.1116537470322
 21
-584.7441148735733
 31
0.0
  0
LINE
  5
2250D
330
18
100
AcDbEntity
  8
01
  6
CONTINUOUS
100
AcDbLine
 10
191.1116537470322
 20
-581.1206138347574
 30
0.0
 11
191.1116537470322
 21
-584.0952214576454
 31
0.0
  0
LINE
  5
2250E
330
18
100
AcDbEntity
  8
01
  6
CONTINUOUS
100
AcDbLine
 10
191.1116537470322
 20
-601.322133538887
 30
0.0
 11
191.1116537470322
 21
-601.651125101015
 31
0.0
  0
ARC
  5
2250F
330
18
100
AcDbEntity
  8
01
  6
CONTINUOUS
100
AcDbCircle
 10
190.6116537470321
 20
-581.1206138347574
 30
0.0
 40
0.5
100
AcDbArc
 50
0.0000000000130276
 51
76.25782333625091
  0
LINE
  5
22510
330
18
100
AcDbEntity
  8
01
100
AcDbLine
 10
189.1116534192067
 20
-581.781235037014
 30
0.0
 11
189.111653295898
 21
-543.0483226455898
 31
0.0
  0
LINE
  5
22511
330
18
100
AcDbEntity
  8
01
100
AcDbLine
 10
165.1116532105904
 20
-600.6812755741329
 30
0.0
 11
165.1116532105904
 21
-543.0483226455898
 31
0.0
  0
SPLINE
  5
22512
330
18
100
AcDbEntity
  8
01
  6
CONTINUOUS
100
AcDbSpline
210
0.0
220
0.0
230
1.0
 70
     8
 71
     3
 72
    16
 73
    12
 74
     0
 42
0.0000000001
 43
0.0000000001
 40
0.0
 40
0.0
 40
0.0
 40
0.0
 40
0.1848158028438661
 40
0.3637050889420375
 40
0.6603185812445165
 40
0.7587450659476429
 40
0.7965765287397176
 40
0.8327355474147781
 40
0.8709520852981142
 40
0.9123720002852277
 40
1.0
 40
1.0
 40
1.0
 40
1.0
 10
613.1116528828495
 20
-601.006024030611
 30
0.0
 10
613.1116173621547
 20
-601.0804993994077
 30
0.0
 10
613.1115474598128
 20
-601.2270619239072
 30
0.0
 10
613.1081426311724
 20
-601.4370590605855
 30
0.0
 10
613.1053048868779
 20
-601.5459387880716
 30
0.0
 10
613.0710292434819
 20
-601.623027145937
 30
0.0
 10
613.0311607215426
 20
-601.6703164328162
 30
0.0
 10
612.9950205664776
 20
-601.702415001128
 30
0.0
 10
612.9530588226573
 20
-601.7298954899749
 30
0.0
 10
612.8906675377475
 20
-601.7591023337947
 30
0.0
 10
612.8436082662656
 20
-601.7635909659974
 30
0.0
 10
612.8116533924692
 20
-601.7666389025898
 30
0.0
  0
SPLINE
  5
22513
330
18
100
AcDbEntity
  8
01
  6
CONTINUOUS
100
AcDbSpline
210
0.0
220
0.0
230
1.0
 70
     8
 71
     3
 72
    13
 73
     9
 74
     0
 42
0.0000000001
 43
0.0000000001
 40
0.0
 40
0.0
 40
0.0
 40
0.0
 40
0.1002361867193393
 40
0.206867854366084
 40
0.3214459331579299
 40
0.44773989213518
 40
0.7244938636019688
 40
1.0
 40
1.0
 40
1.0
 40
1.0
 10
612.8116533924692
 20
-581.0556453444214
 30
0.0
 10
612.8308627718027
 20
-581.0567165267537
 30
0.0
 10
612.8705071678685
 20
-581.0589272372565
 30
0.0
 10
612.9295345413925
 20
-581.0775592438998
 30
0.0
 10
612.9854820472171
 20
-581.108636536122
 30
0.0
 10
613.0491673622636
 20
-581.1669762067523
 30
0.0
 10
613.1008742083407
 20
-581.2607585903191
 30
0.0
 10
613.1080654075326
 20
-581.3522469456987
 30
0.0
 10
613.1116528828495
 20
-581.397887764141
 30
0.0
  0
SPLINE
  5
22514
330
18
100
AcDbEntity
  8
01
  6
CONTINUOUS
100
AcDbSpline
210
0.0
220
0.0
230
1.0
 70
     8
 71
     3
 72
    11
 73
     7
 74
     0
 42
0.0000000001
 43
0.0000000001
 40
0.0
 40
0.0
 40
0.0
 40
0.0
 40
0.2527836471525778
 40
0.5037174190043243
 40
0.7525749078787334
 40
1.0
 40
1.0
 40
1.0
 40
1.0
 10
639.0949585308188
 20
-600.7435139991493
 30
0.0
 10
639.0700171563781
 20
-600.9301744339672
 30
0.0
 10
639.0203169289259
 20
-601.3021293191658
 30
0.0
 10
638.672260491135
 20
-601.7669504114897
 30
0.0
 10
638.1834440241979
 20
-602.0889625715236
 30
0.0
 10
637.8018830299118
 20
-602.1304150117821
 30
0.0
 10
637.6116531734222
 20
-602.1510814108104
 30
0.0
  0
LINE
  5
22515
330
18
100
AcDbEntity
  8
01
  6
CONTINUOUS
100
AcDbLine
 10
637.6116531734222
 20
-602.1511223890037
 30
0.0
 11
613.6116529648059
 21
-602.1511223890037
 31
0.0
  0
ARC
  5
22516
330
18
100
AcDbEntity
  8
01
  6
CONTINUOUS
100
AcDbCircle
 10
613.6116533149832
 20
-601.6511237107117
 30
0.0
 40
0.5
100
AcDbArc
 50
180.0
 51
270.0
  0
SPLINE
  5
22517
330
18
100
AcDbEntity
  8
01
  6
CONTINUOUS
100
AcDbSpline
210
0.0
220
0.0
230
1.0
 70
     8
 71
     3
 72
    11
 73
     7
 74
     0
 42
0.0000000001
 43
0.0000000001
 40
0.0157533275432993
 40
0.0157533275432993
 40
0.0157533275432993
 40
0.0157533275432993
 40
0.2533924365592861
 40
0.5039343662801896
 40
0.7524993777804521
 40
1.0
 40
1.0
 40
1.0
 40
1.0
 10
613.4928762527627
 20
-580.6349265772086
 30
0.0
 10
613.681312688946
 20
-580.5888437440118
 30
0.0
 10
614.0664348292552
 20
-580.4904520093503
 30
0.0
 10
614.5488071653617
 20
-580.1562563969098
 30
0.0
 10
614.9215026539607
 20
-579.7122674692704
 30
0.0
 10
615.0279573165487
 20
-579.3572249651467
 30
0.0
 10
615.0810704399698
 20
-579.1800846137256
 30
0.0
  0
LINE
  5
22518
330
18
100
AcDbEntity
  8
01
  6
CONTINUOUS
100
AcDbLine
 10
615.1116533339838
 20
-543.0483226455898
 30
0.0
 11
639.1116532958981
 21
-543.0483226455898
 31
0.0
  0
LINE
  5
22519
330
18
100
AcDbEntity
  8
1DIM
100
AcDbLine
 10
615.1116532106751
 20
-581.781235037014
 30
0.0
 11
615.1116532106751
 21
-581.7934539891929
 31
0.0
  0
SPLINE
  5
2251A
330
18
100
AcDbEntity
  8
01
  6
CONTINUOUS
100
AcDbSpline
210
0.0
220
0.0
230
1.0
 70
    24
 71
     3
 72
    10
 73
     6
 74
     0
 42
0.0000000001
 43
0.0000000001
 40
0.0
 40
0.0
 40
0.0
 40
0.0
 40
0.4999999999999999
 40
0.4999999999999999
 40
1.0
 40
1.0
 40
1.0
 40
1.0
 10
613.1116533149832
 20
-584.7441140522642
 30
0.0
 10
613.1116533149832
 20
-584.6197525912053
 30
0.0
 10
613.1116533149832
 20
-584.4777869433939
 30
0.0
 10
613.1116533149832
 20
-584.238213304262
 30
0.0
 10
613.1116533149832
 20
-584.1403018237617
 30
0.0
 10
613.1116533149832
 20
-584.0952231585085
 30
0.0
  0
LINE
  5
2251B
330
18
100
AcDbEntity
  8
01
  6
CONTINUOUS
100
AcDbLine
 10
613.1116528828495
 20
-601.322133538887
 30
0.0
 11
613.1116528828495
 21
-584.7441148735733
 31
0.0
  0
LINE
  5
2251C
330
18
100
AcDbEntity
  8
01
  6
CONTINUOUS
100
AcDbLine
 10
613.1116528828495
 20
-581.1206138347574
 30
0.0
 11
613.1116528828495
 21
-584.0952214576454
 31
0.0
  0
LINE
  5
2251D
330
18
100
AcDbEntity
  8
01
  6
CONTINUOUS
100
AcDbLine
 10
613.1116528828495
 20
-601.322133538887
 30
0.0
 11
613.1116528828495
 21
-601.651125101015
 31
0.0
  0
ARC
  5
2251E
330
18
100
AcDbEntity
  8
01
  6
CONTINUOUS
100
AcDbCircle
 10
613.6116528828496
 20
-581.1206138347574
 30
0.0
 40
0.5
100
AcDbArc
 50
103.7421766637491
 51
179.999999999987
  0
LINE
  5
2251F
330
18
100
AcDbEntity
  8
01
100
AcDbLine
 10
615.1116532106751
 20
-581.781235037014
 30
0.0
 11
615.1116533339838
 21
-543.0483226455898
 31
0.0
  0
LINE
  5
22520
330
18
100
AcDbEntity
  8
01
100
AcDbLine
 10
639.1116534192913
 20
-600.6812755741329
 30
0.0
 11
639.1116534192913
 21
-543.0483226455898
 31
0.0
  0
SPLINE
  5
22523
330
18
100
AcDbEntity
  8
1PHANTOM
100
AcDbSpline
210
0.0
220
0.0
230
1.0
 70
     8
 71
     3
 72
     8
 73
     4
 74
     0
 42
0.0000000001
 43
0.0000000001
 40
0.0
 40
0.0
 40
0.0
 40
0.0
 40
1.0
 40
1.0
 40
1.0
 40
1.0
 10
617.3616533149409
 20
-653.3079995348411
 30
0.0
 10
617.3616533149415
 20
-653.3813728873292
 30
0.0
 10
617.3778441541291
 20
-653.4541965857816
 30
0.0
 10
617.4089767236409
 20
-653.5206392224095
 30
0.0
  0
SPLINE
  5
22524
330
18
100
AcDbEntity
  8
1PHANTOM
100
AcDbSpline
210
0.0
220
0.0
230
1.0
 70
     8
 71
     3
 72
     8
 73
     4
 74
     0
 42
0.0000000001
 43
0.0000000001
 40
0.0
 40
0.0
 40
0.0
 40
0.0
 40
1.0
 40
1.0
 40
1.0
 40
1.0
 10
617.4090316496238
 20
-653.520613486166
 30
0.0
 10
617.4100186065442
 20
-653.55334933213
 30
0.0
 10
617.4109528202279
 20
-653.5917971238553
 30
0.0
 10
617.4118345099686
 20
-653.6359311736803
 30
0.0
  0
SPLINE
  5
22525
330
18
100
AcDbEntity
  8
1PHANTOM
100
AcDbSpline
210
0.0
220
0.0
230
1.0
 70
     8
 71
     3
 72
     8
 73
     4
 74
     0
 42
0.0000000001
 43
0.0000000001
 40
0.0
 40
0.0
 40
0.0
 40
0.0
 40
1.0
 40
1.0
 40
1.0
 40
1.0
 10
636.8114767691485
 20
-653.6357927875357
 30
0.0
 10
636.8123570396996
 20
-653.5917162875932
 30
0.0
 10
636.8132897039226
 20
-653.5533146594578
 30
0.0
 10
636.8142749802481
 20
-653.5206134861872
 30
0.0
  0
SPLINE
  5
22526
330
18
100
AcDbEntity
  8
1PHANTOM
100
AcDbSpline
210
0.0
220
0.0
230
1.0
 70
     8
 71
     3
 72
     8
 73
     4
 74
     0
 42
0.0000000001
 43
0.0000000001
 40
0.0
 40
0.0
 40
0.0
 40
0.0
 40
1.0
 40
1.0
 40
1.0
 40
1.0
 10
636.814329906237
 20
-653.5206392224181
 30
0.0
 10
636.8454625221547
 20
-653.4541964867525
 30
0.0
 10
636.861653314939
 20
-653.3813735898418
 30
0.0
 10
636.8616533149409
 20
-653.3079995347946
 30
0.0
  0
LINE
  5
22527
330
18
100
AcDbEntity
  8
1PHANTOM
100
AcDbLine
 10
636.8616533149409
 20
-645.8207452876231
 30
0.0
 11
636.8616533149409
 21
-653.3079995347946
 31
0.0
  0
SPLINE
  5
22528
330
18
100
AcDbEntity
  8
1PHANTOM
100
AcDbSpline
210
0.0
220
0.0
230
1.0
 70
     8
 71
     3
 72
    30
 73
    26
 74
     0
 42
0.0000000001
 43
0.0000000001
 40
0.1701403285064558
 40
0.1701403285064558
 40
0.1701403285064558
 40
0.1701403285064558
 40
1.01007961313874
 40
2.02015922627747
 40
3.03023883941621
 40
4.04031845255495
 40
5.05039806569368
 40
6.06047767883242
 40
7.07055729197115
 40
8.08063690510989
 40
9.09071651824863
 40
10.1007961313874
 40
11.1108757445261
 40
12.1209553576648
 40
13.1310349708036
 40
14.1411145839423
 40
15.151194197081
 40
16.1612738102198
 40
17.1713534233585
 40
18.1814330364973
 40
19.191512649636
 40
20.2015922627747
 40
21.2116718759135
 40
22.2217514890522
 40
22.30852265255295
 40
22.30852265255295
 40
22.30852265255295
 40
22.30852265255295
 10
636.8142749802481
 20
-653.5206134861876
 30
0.0
 10
636.7370502967834
 20
-653.6853054135862
 30
0.0
 10
636.5749347730135
 20
-654.0518101017879
 30
0.0
 10
636.3478352521969
 20
-654.6285593083481
 30
0.0
 10
636.1302364783775
 20
-655.2497040178972
 30
0.0
 10
635.9330380062013
 20
-655.877668670856
 30
0.0
 10
635.7536572706522
 20
-656.5113139250151
 30
0.0
 10
635.5911726289519
 20
-657.1447093955402
 30
0.0
 10
635.4414284707099
 20
-657.7865208931835
 30
0.0
 10
635.3040182450486
 20
-658.4334581147457
 30
0.0
 10
635.1801240186611
 20
-659.0719509226533
 30
0.0
 10
635.0648861521648
 20
-659.7211077827554
 30
0.0
 10
634.9596324716939
 20
-660.3697010373348
 30
0.0
 10
634.8632622529692
 20
-661.0184380217972
 30
0.0
 10
634.7742088597157
 20
-661.6742178144451
 30
0.0
 10
634.6933835588169
 20
-662.3261186362162
 30
0.0
 10
634.6198924030186
 20
-662.975432798313
 30
0.0
 10
634.5524602536068
 20
-663.629642638003
 30
0.0
 10
634.4911488470334
 20
-664.2850580549937
 30
0.0
 10
634.4357791770988
 20
-664.9391620356961
 30
0.0
 10
634.3857432714345
 20
-665.5952993585581
 30
0.0
 10
634.3409976548137
 20
-666.249909033794
 30
0.0
 10
634.3009053796089
 20
-666.9090010816158
 30
0.0
 10
634.2765050568644
 20
-667.3631568475907
 30
0.0
 10
634.264607235662
 20
-667.6009704343871
 30
0.0
 10
634.2636710906199
 20
-667.6197908917128
 30
0.0
  0
SPLINE
  5
22529
330
18
100
AcDbEntity
  8
1PHANTOM
100
AcDbSpline
210
0.0
220
0.0
230
1.0
 70
     8
 71
     3
 72
    30
 73
    26
 74
     0
 42
0.0000000001
 43
0.0000000001
 40
4.054971344288107
 40
4.054971344288107
 40
4.054971344288107
 40
4.054971344288107
 40
4.141742507788934
 40
5.151822120927634
 40
6.161901734066434
 40
7.171981347205134
 40
8.182060960343833
 40
9.192140573482632
 40
10.20222018662133
 40
11.21229979976013
 40
12.22237941289883
 40
13.23245902603753
 40
14.24253863917633
 40
15.25261825231503
 40
16.26269786545373
 40
17.2727774785925
 40
18.28285709173124
 40
19.29293670486998
 40
20.30301631800871
 40
21.31309593114745
 40
22.32317554428618
 40
23.33325515742492
 40
24.34333477056366
 40
25.35341438370239
 40
26.19335366834892
 40
26.19335366834892
 40
26.19335366834892
 40
26.19335366834892
 10
619.9596355392614
 20
-667.6197908917127
 30
0.0
 10
619.9586993942194
 20
-667.6009704343871
 30
0.0
 10
619.946801573017
 20
-667.3631568475905
 30
0.0
 10
619.9224012502725
 20
-666.9090010816157
 30
0.0
 10
619.8823089750679
 20
-666.249909033794
 30
0.0
 10
619.837563358447
 20
-665.5952993585579
 30
0.0
 10
619.7875274527828
 20
-664.9391620356959
 30
0.0
 10
619.7321577828482
 20
-664.2850580549934
 30
0.0
 10
619.6708463762748
 20
-663.6296426380028
 30
0.0
 10
619.6034142268628
 20
-662.9754327983129
 30
0.0
 10
619.5299230710646
 20
-662.326118636216
 30
0.0
 10
619.4490977701657
 20
-661.674217814445
 30
0.0
 10
619.3600443769122
 20
-661.018438021797
 30
0.0
 10
619.2636741581875
 20
-660.3697010373346
 30
0.0
 10
619.1584204777166
 20
-659.7211077827553
 30
0.0
 10
619.0431826112205
 20
-659.0719509226531
 30
0.0
 10
618.919288384833
 20
-658.4334581147455
 30
0.0
 10
618.7818781591716
 20
-657.7865208931833
 30
0.0
 10
618.6321340009297
 20
-657.14470939554
 30
0.0
 10
618.4696493592295
 20
-656.5113139250149
 30
0.0
 10
618.2902686236804
 20
-655.8776686708558
 30
0.0
 10
618.0930701515042
 20
-655.249704017897
 30
0.0
 10
617.8754713776848
 20
-654.6285593083479
 30
0.0
 10
617.6483718568654
 20
-654.0518101017805
 30
0.0
 10
617.486256333092
 20
-653.6853054135718
 30
0.0
 10
617.4090316496238
 20
-653.5206134861663
 30
0.0
  0
LINE
  5
2252A
330
18
100
AcDbEntity
  8
1PHANTOM
100
AcDbLine
 10
617.3616533149409
 20
-653.3079995347936
 30
0.0
 11
617.3616533149409
 21
-645.8207452876229
 31
0.0
  0
ARC
  5
2252B
330
18
100
AcDbEntity
  8
1PHANTOM
100
AcDbCircle
 10
618.3616533149409
 20
-645.8207452876229
 30
0.0
 40
1.0
100
AcDbArc
 50
90.0
 51
180.0
  0
LINE
  5
2252C
330
18
100
AcDbEntity
  8
1PHANTOM
100
AcDbLine
 10
635.8616533149409
 20
-644.8207452876231
 30
0.0
 11
618.3616533149409
 21
-644.8207452876229
 31
0.0
  0
ARC
  5
2252D
330
18
100
AcDbEntity
  8
1PHANTOM
100
AcDbCircle
 10
635.8616533149409
 20
-645.8207452876231
 30
0.0
 40
1.0
100
AcDbArc
 50
0.0
 51
90.0
  0
SPLINE
  5
2252E
330
18
100
AcDbEntity
  8
1PHANTOM
100
AcDbSpline
210
0.0
220
0.0
230
1.0
 70
     8
 71
     3
 72
     8
 73
     4
 74
     0
 42
0.0000000001
 43
0.0000000001
 40
0.0
 40
0.0
 40
0.0
 40
0.0
 40
1.0
 40
1.0
 40
1.0
 40
1.0
 10
167.3616533149418
 20
-653.3079995348415
 30
0.0
 10
167.3616533149424
 20
-653.3813728873297
 30
0.0
 10
167.37784415413
 20
-653.454196585782
 30
0.0
 10
167.4089767236418
 20
-653.52063922241
 30
0.0
  0
SPLINE
  5
2252F
330
18
100
AcDbEntity
  8
1PHANTOM
100
AcDbSpline
210
0.0
220
0.0
230
1.0
 70
     8
 71
     3
 72
     8
 73
     4
 74
     0
 42
0.0000000001
 43
0.0000000001
 40
0.0
 40
0.0
 40
0.0
 40
0.0
 40
1.0
 40
1.0
 40
1.0
 40
1.0
 10
167.4090316496247
 20
-653.5206134861664
 30
0.0
 10
167.4100186065452
 20
-653.5533493321304
 30
0.0
 10
167.4109528202288
 20
-653.5917971238557
 30
0.0
 10
167.4118345099695
 20
-653.6359311736808
 30
0.0
  0
SPLINE
  5
22530
330
18
100
AcDbEntity
  8
1PHANTOM
100
AcDbSpline
210
0.0
220
0.0
230
1.0
 70
     8
 71
     3
 72
     8
 73
     4
 74
     0
 42
0.0000000001
 43
0.0000000001
 40
0.0
 40
0.0
 40
0.0
 40
0.0
 40
1.0
 40
1.0
 40
1.0
 40
1.0
 10
186.8114767691494
 20
-653.6357927875362
 30
0.0
 10
186.8123570397005
 20
-653.5917162875936
 30
0.0
 10
186.8132897039235
 20
-653.5533146594582
 30
0.0
 10
186.8142749802491
 20
-653.5206134861877
 30
0.0
  0
SPLINE
  5
22531
330
18
100
AcDbEntity
  8
1PHANTOM
100
AcDbSpline
210
0.0
220
0.0
230
1.0
 70
     8
 71
     3
 72
     8
 73
     4
 74
     0
 42
0.0000000001
 43
0.0000000001
 40
0.0
 40
0.0
 40
0.0
 40
0.0
 40
1.0
 40
1.0
 40
1.0
 40
1.0
 10
186.814329906238
 20
-653.5206392224186
 30
0.0
 10
186.8454625221556
 20
-653.454196486753
 30
0.0
 10
186.8616533149399
 20
-653.3813735898423
 30
0.0
 10
186.8616533149418
 20
-653.307999534795
 30
0.0
  0
LINE
  5
22532
330
18
100
AcDbEntity
  8
1PHANTOM
100
AcDbLine
 10
186.8616533149418
 20
-645.8207452876236
 30
0.0
 11
186.8616533149418
 21
-653.307999534795
 31
0.0
  0
SPLINE
  5
22533
330
18
100
AcDbEntity
  8
1PHANTOM
100
AcDbSpline
210
0.0
220
0.0
230
1.0
 70
     8
 71
     3
 72
    30
 73
    26
 74
     0
 42
0.0000000001
 43
0.0000000001
 40
0.1701403285064558
 40
0.1701403285064558
 40
0.1701403285064558
 40
0.1701403285064558
 40
1.01007961313874
 40
2.02015922627747
 40
3.03023883941621
 40
4.04031845255495
 40
5.05039806569368
 40
6.06047767883242
 40
7.07055729197115
 40
8.08063690510989
 40
9.09071651824863
 40
10.1007961313874
 40
11.1108757445261
 40
12.1209553576648
 40
13.1310349708036
 40
14.1411145839423
 40
15.151194197081
 40
16.1612738102198
 40
17.1713534233585
 40
18.1814330364973
 40
19.191512649636
 40
20.2015922627747
 40
21.2116718759135
 40
22.2217514890522
 40
22.30852265255209
 40
22.30852265255209
 40
22.30852265255209
 40
22.30852265255209
 10
186.8142749802491
 20
-653.520613486188
 30
0.0
 10
186.7370502967844
 20
-653.6853054135867
 30
0.0
 10
186.5749347730145
 20
-654.0518101017883
 30
0.0
 10
186.3478352521978
 20
-654.6285593083486
 30
0.0
 10
186.1302364783784
 20
-655.2497040178977
 30
0.0
 10
185.9330380062022
 20
-655.8776686708565
 30
0.0
 10
185.7536572706531
 20
-656.5113139250155
 30
0.0
 10
185.5911726289528
 20
-657.1447093955406
 30
0.0
 10
185.4414284707108
 20
-657.7865208931839
 30
0.0
 10
185.3040182450495
 20
-658.4334581147461
 30
0.0
 10
185.180124018662
 20
-659.0719509226537
 30
0.0
 10
185.0648861521658
 20
-659.7211077827559
 30
0.0
 10
184.9596324716948
 20
-660.3697010373353
 30
0.0
 10
184.8632622529701
 20
-661.0184380217977
 30
0.0
 10
184.7742088597167
 20
-661.6742178144456
 30
0.0
 10
184.6933835588178
 20
-662.3261186362166
 30
0.0
 10
184.6198924030196
 20
-662.9754327983135
 30
0.0
 10
184.5524602536077
 20
-663.6296426380035
 30
0.0
 10
184.4911488470343
 20
-664.2850580549941
 30
0.0
 10
184.4357791770997
 20
-664.9391620356965
 30
0.0
 10
184.3857432714355
 20
-665.5952993585586
 30
0.0
 10
184.3409976548146
 20
-666.2499090337944
 30
0.0
 10
184.3009053796099
 20
-666.9090010816162
 30
0.0
 10
184.2765050568653
 20
-667.3631568475909
 30
0.0
 10
184.264607235663
 20
-667.6009704343871
 30
0.0
 10
184.263671090621
 20
-667.6197908917126
 30
0.0
  0
SPLINE
  5
22534
330
18
100
AcDbEntity
  8
1PHANTOM
100
AcDbSpline
210
0.0
220
0.0
230
1.0
 70
     8
 71
     3
 72
    30
 73
    26
 74
     0
 42
0.0000000001
 43
0.0000000001
 40
4.054971344288871
 40
4.054971344288871
 40
4.054971344288871
 40
4.054971344288871
 40
4.141742507788934
 40
5.151822120927634
 40
6.161901734066434
 40
7.171981347205134
 40
8.182060960343833
 40
9.192140573482632
 40
10.20222018662133
 40
11.21229979976013
 40
12.22237941289883
 40
13.23245902603753
 40
14.24253863917633
 40
15.25261825231503
 40
16.26269786545373
 40
17.2727774785925
 40
18.28285709173124
 40
19.29293670486998
 40
20.30301631800871
 40
21.31309593114745
 40
22.32317554428618
 40
23.33325515742492
 40
24.34333477056366
 40
25.35341438370239
 40
26.19335366834892
 40
26.19335366834892
 40
26.19335366834892
 40
26.19335366834892
 10
169.9596355392624
 20
-667.6197908917126
 30
0.0
 10
169.9586993942203
 20
-667.6009704343871
 30
0.0
 10
169.946801573018
 20
-667.3631568475907
 30
0.0
 10
169.9224012502735
 20
-666.9090010816161
 30
0.0
 10
169.8823089750688
 20
-666.2499090337944
 30
0.0
 10
169.837563358448
 20
-665.5952993585583
 30
0.0
 10
169.7875274527837
 20
-664.9391620356963
 30
0.0
 10
169.7321577828491
 20
-664.2850580549939
 30
0.0
 10
169.6708463762757
 20
-663.6296426380032
 30
0.0
 10
169.6034142268637
 20
-662.9754327983134
 30
0.0
 10
169.5299230710655
 20
-662.3261186362165
 30
0.0
 10
169.4490977701667
 20
-661.6742178144455
 30
0.0
 10
169.3600443769132
 20
-661.0184380217975
 30
0.0
 10
169.2636741581885
 20
-660.3697010373351
 30
0.0
 10
169.1584204777176
 20
-659.7211077827558
 30
0.0
 10
169.0431826112214
 20
-659.0719509226535
 30
0.0
 10
168.9192883848339
 20
-658.4334581147459
 30
0.0
 10
168.7818781591725
 20
-657.7865208931837
 30
0.0
 10
168.6321340009306
 20
-657.1447093955404
 30
0.0
 10
168.4696493592304
 20
-656.5113139250153
 30
0.0
 10
168.2902686236813
 20
-655.8776686708562
 30
0.0
 10
168.0930701515051
 20
-655.2497040178974
 30
0.0
 10
167.8754713776857
 20
-654.6285593083484
 30
0.0
 10
167.6483718568664
 20
-654.0518101017809
 30
0.0
 10
167.4862563330929
 20
-653.6853054135722
 30
0.0
 10
167.4090316496247
 20
-653.5206134861668
 30
0.0
  0
LINE
  5
22535
330
18
100
AcDbEntity
  8
1PHANTOM
100
AcDbLine
 10
167.3616533149418
 20
-653.307999534794
 30
0.0
 11
167.3616533149418
 21
-645.8207452876234
 31
0.0
  0
ARC
  5
22536
330
18
100
AcDbEntity
  8
1PHANTOM
100
AcDbCircle
 10
168.3616533149418
 20
-645.8207452876234
 30
0.0
 40
1.0
100
AcDbArc
 50
90.0
 51
180.0
  0
LINE
  5
22537
330
18
100
AcDbEntity
  8
1PHANTOM
100
AcDbLine
 10
185.8616533149418
 20
-644.8207452876236
 30
0.0
 11
168.3616533149418
 21
-644.8207452876234
 31
0.0
  0
ARC
  5
22538
330
18
100
AcDbEntity
  8
1PHANTOM
100
AcDbCircle
 10
185.8616533149418
 20
-645.8207452876236
 30
0.0
 40
1.0
100
AcDbArc
 50
0.0
 51
90.0
  0
LINE
  5
22539
330
18
100
AcDbEntity
  8
01
  6
CONTINUOUS
100
AcDbLine
 10
635.8616533149409
 20
-543.0483226455898
 30
0.0
 11
636.8616533149409
 21
-543.0483226455898
 31
0.0
  0
LINE
  5
2253A
330
18
100
AcDbEntity
  8
01
  6
CONTINUOUS
100
AcDbLine
 10
618.3616533149409
 20
-543.0483226455898
 30
0.0
 11
635.8616533149409
 21
-543.0483226455898
 31
0.0
  0
LINE
  5
2253B
330
18
100
AcDbEntity
  8
01
  6
CONTINUOUS
100
AcDbLine
 10
617.3616533149409
 20
-543.0483226455899
 30
0.0
 11
618.3616533149409
 21
-543.0483226455898
 31
0.0
  0
SPLINE
  5
2253C
330
18
100
AcDbEntity
  8
1PHANTOM
100
AcDbSpline
210
0.0
220
0.0
230
1.0
 70
    24
 71
     3
 72
     8
 73
     4
 74
     0
 42
0.0000000001
 43
0.0000000001
 40
0.0
 40
0.0
 40
0.0
 40
0.0
 40
37.2070823283399
 40
37.2070823283399
 40
37.2070823283399
 40
37.2070823283399
 10
617.3616533149409
 20
-581.5483226455896
 30
0.0
 10
617.3616533149409
 20
-569.9903787512962
 30
0.0
 10
617.3616533149409
 20
-557.8329764277519
 30
0.0
 10
617.3616533149409
 20
-543.0483226455899
 30
0.0
  0
SPLINE
  5
2253D
330
18
100
AcDbEntity
  8
1PHANTOM
100
AcDbSpline
210
0.0
220
0.0
230
1.0
 70
    24
 71
     3
 72
     8
 73
     4
 74
     0
 42
0.0000000001
 43
0.0000000001
 40
0.0
 40
0.0
 40
0.0
 40
0.0
 40
37.7124643022273
 40
37.7124643022273
 40
37.7124643022273
 40
37.7124643022273
 10
636.8616533149409
 20
-543.0483226455898
 30
0.0
 10
636.8616533149409
 20
-557.5025990310983
 30
0.0
 10
636.8616533149409
 20
-569.8333877664124
 30
0.0
 10
636.8616533149409
 20
-581.5483226455896
 30
0.0
  0
LINE
  5
2253E
330
18
100
AcDbEntity
  8
1PHANTOM
100
AcDbLine
 10
635.3616533149409
 20
-583.0483226455896
 30
0.0
 11
618.8616533149409
 21
-583.0483226455896
 31
0.0
  0
CIRCLE
  5
2253F
330
18
100
AcDbEntity
  8
1PHANTOM
100
AcDbCircle
 10
627.1116533149413
 20
-561.048322645589
 30
0.0
 40
2.25
  0
ARC
  5
22540
330
18
100
AcDbEntity
  8
1PHANTOM
100
AcDbCircle
 10
618.8616533149409
 20
-581.5483226455801
 30
0.0
 40
1.5
100
AcDbArc
 50
179.9999999996396
 51
270.0
  0
ARC
  5
22541
330
18
100
AcDbEntity
  8
1PHANTOM
100
AcDbCircle
 10
635.3616533149409
 20
-581.5483226455427
 30
0.0
 40
1.5
100
AcDbArc
 50
270.0
 51
0.0000000017847746
  0
LINE
  5
22542
330
18
100
AcDbEntity
  8
01
  6
CONTINUOUS
100
AcDbLine
 10
185.8616533149408
 20
-543.0483226455897
 30
0.0
 11
186.8616533149408
 21
-543.0483226455897
 31
0.0
  0
LINE
  5
22543
330
18
100
AcDbEntity
  8
01
  6
CONTINUOUS
100
AcDbLine
 10
168.3616533149408
 20
-543.0483226455897
 30
0.0
 11
185.8616533149408
 21
-543.0483226455897
 31
0.0
  0
LINE
  5
22544
330
18
100
AcDbEntity
  8
01
  6
CONTINUOUS
100
AcDbLine
 10
167.3616533149408
 20
-543.0483226455898
 30
0.0
 11
168.3616533149408
 21
-543.0483226455897
 31
0.0
  0
SPLINE
  5
22545
330
18
100
AcDbEntity
  8
1PHANTOM
100
AcDbSpline
210
0.0
220
0.0
230
1.0
 70
    24
 71
     3
 72
     8
 73
     4
 74
     0
 42
0.0000000001
 43
0.0000000001
 40
0.0
 40
0.0
 40
0.0
 40
0.0
 40
37.2070823283399
 40
37.2070823283399
 40
37.2070823283399
 40
37.2070823283399
 10
167.3616533149408
 20
-581.5483226455895
 30
0.0
 10
167.3616533149408
 20
-569.9903787512961
 30
0.0
 10
167.3616533149408
 20
-557.8329764277518
 30
0.0
 10
167.3616533149408
 20
-543.0483226455898
 30
0.0
  0
SPLINE
  5
22546
330
18
100
AcDbEntity
  8
1PHANTOM
100
AcDbSpline
210
0.0
220
0.0
230
1.0
 70
    24
 71
     3
 72
     8
 73
     4
 74
     0
 42
0.0000000001
 43
0.0000000001
 40
0.0
 40
0.0
 40
0.0
 40
0.0
 40
37.7124643022273
 40
37.7124643022273
 40
37.7124643022273
 40
37.7124643022273
 10
186.8616533149408
 20
-543.0483226455897
 30
0.0
 10
186.8616533149408
 20
-557.5025990310982
 30
0.0
 10
186.8616533149408
 20
-569.8333877664123
 30
0.0
 10
186.8616533149408
 20
-581.5483226455895
 30
0.0
  0
LINE
  5
22547
330
18
100
AcDbEntity
  8
1PHANTOM
100
AcDbLine
 10
185.3616533149408
 20
-583.0483226455895
 30
0.0
 11
168.8616533149408
 21
-583.0483226455895
 31
0.0
  0
CIRCLE
  5
22548
330
18
100
AcDbEntity
  8
1PHANTOM
100
AcDbCircle
 10
177.1116533149412
 20
-561.0483226455889
 30
0.0
 40
2.25
  0
ARC
  5
22549
330
18
100
AcDbEntity
  8
1PHANTOM
100
AcDbCircle
 10
168.8616533149408
 20
-581.54832264558
 30
0.0
 40
1.5
100
AcDbArc
 50
179.9999999996396
 51
270.0
  0
ARC
  5
2254A
330
18
100
AcDbEntity
  8
1PHANTOM
100
AcDbCircle
 10
185.3616533149408
 20
-581.5483226455426
 30
0.0
 40
1.5
100
AcDbArc
 50
270.0
 51
0.0000000017847746
  0
LINE
  5
2254B
330
18
100
AcDbEntity
  8
01
100
AcDbLine
 10
191.1116537470322
 20
-583.8521425403804
 30
0.0
 11
613.1116528828495
 21
-583.8521425403804
 31
0.0
  0
LINE
  5
2254C
330
18
100
AcDbEntity
  8
01
100
AcDbLine
 10
637.6116531733803
 20
-658.2395974645076
 30
0.0
 11
613.1116528828077
 21
-658.2395974645076
 31
0.0
  0
LINE
  5
2254D
330
18
100
AcDbEntity
  8
01
100
AcDbLine
 10
613.1116528828077
 20
-658.4189005234216
 30
0.0
 11
191.111653747075
 21
-658.4189005234216
 31
0.0
  0
ELLIPSE
  5
2254E
330
18
100
AcDbEntity
  8
01
100
AcDbEllipse
 10
191.1116537470322
 20
-581.781235037014
 30
0.0
 11
-2.000000327825546
 21
0.0
 31
0.0
210
0.0
220
0.0
230
1.0
 40
0.9268297933595271
 41
0.0
 42
1.570796326794897
  0
ELLIPSE
  5
2254F
330
18
100
AcDbEntity
  8
01
100
AcDbEllipse
 10
613.1116502750617
 20
-581.781235037014
 30
0.0
 11
2.000000327825546
 21
0.0
 31
0.0
210
0.0
220
0.0
230
-1.0
 40
0.9268297933595271
 41
0.0
 42
1.570796326794897
  0
ELLIPSE
  5
22550
330
18
100
AcDbEntity
  8
01
100
AcDbEllipse
 10
637.6116533149413
 20
-657.5987410407478
 30
0.0
 11
1.500000104308129
 21
0.0
 31
0.0
210
0.0
220
0.0
230
1.0
 40
0.4272375861303169
 41
4.712388886010675
 42
6.283185307179586
  0
LINE
  5
22551
330
18
100
AcDbEntity
  8
01
100
AcDbLine
 10
166.6129049186044
 20
-658.2395974645076
 30
0.0
 11
191.112905209177
 21
-658.2395974645076
 31
0.0
  0
ELLIPSE
  5
22552
330
18
100
AcDbEntity
  8
01
100
AcDbEllipse
 10
166.6129047770433
 20
-657.5987410407478
 30
0.0
 11
-1.500000104308129
 21
0.0
 31
0.0
210
0.0
220
0.0
230
-1.0
 40
0.4272375861303169
 41
4.712388886010675
 42
6.283185307179586
  0
LINE
  5
2259F
330
18
100
AcDbEntity
  8
01
100
AcDbLine
 10
739.1116533149267
 20
-613.8922303357315
 30
0.0
 11
739.1116533149267
 21
-688.3485775062952
 31
0.0
  0
LINE
  5
225A5
330
18
100
AcDbEntity
  8
01
100
AcDbLine
 10
735.9116533149266
 20
-651.6204037710133
 30
0.0
 11
736.9116533149266
 21
-650.6204040710134
 31
0.0
  0
LINE
  5
225A6
330
18
100
AcDbEntity
  8
01
100
AcDbLine
 10
735.9116533149266
 20
-654.9204039210133
 30
0.0
 11
736.9116533149266
 21
-654.9204039210133
 31
0.0
  0
LINE
  5
225A7
330
18
100
AcDbEntity
  8
01
100
AcDbLine
 10
736.9116533149266
 20
-654.9204039210133
 30
0.0
 11
736.9116533149266
 21
-647.3204039210134
 31
0.0
  0
LINE
  5
225A8
330
18
100
AcDbEntity
  8
01
100
AcDbLine
 10
735.9116533149266
 20
-654.9204039210133
 30
0.0
 11
735.9116533149266
 21
-647.3204039210134
 31
0.0
  0
LINE
  5
225A9
330
18
100
AcDbEntity
  8
01
100
AcDbLine
 10
735.9116533149266
 20
-647.3204039210134
 30
0.0
 11
736.9116533149266
 21
-647.3204039210134
 31
0.0
  0
LINE
  5
225AB
330
18
100
AcDbEntity
  8
01
  6
CONTINUOUS
100
AcDbLine
 10
738.9116533149266
 20
-643.8216116742847
 30
0.0
 11
738.9116533149266
 21
-652.4197187039686
 31
0.0
  0
LINE
  5
225AC
330
18
100
AcDbEntity
  8
01
  6
CONTINUOUS
100
AcDbLine
 10
683.6223994393451
 20
-667.7308342271477
 30
0.0
 11
703.4071259249234
 21
-660.5297822037396
 31
0.0
  0
SPLINE
  5
225AD
330
18
100
AcDbEntity
  8
01
  6
CONTINUOUS
100
AcDbSpline
210
0.0
220
0.0
230
1.0
 70
    24
 71
     3
 72
    12
 73
     8
 74
     0
 42
0.0000000001
 43
0.0000000001
 40
0.0
 40
0.0
 40
0.0
 40
0.0
 40
0.2143744374728936
 40
0.4287656886540907
 40
0.6432506367490044
 40
0.8579636316088066
 40
0.9999999999999999
 40
0.9999999999999999
 40
0.9999999999999999
 40
0.9999999999999999
 10
738.9116533149266
 20
-653.4209220202324
 30
0.0
 10
738.9116533149266
 20
-653.4098705528473
 30
0.0
 10
738.9116533149266
 20
-653.3877667512938
 30
0.0
 10
738.9116533149266
 20
-653.2154780045676
 30
0.0
 10
738.9116533149266
 20
-652.961823853419
 30
0.0
 10
738.9116533149266
 20
-652.6802485393164
 30
0.0
 10
738.9116533149266
 20
-652.4939082994658
 30
0.0
 10
738.9116533149266
 20
-652.4197187039686
 30
0.0
  0
SPLINE
  5
225AE
330
18
100
AcDbEntity
  8
01
  6
CONTINUOUS
100
AcDbSpline
210
0.0
220
0.0
230
1.0
 70
    24
 71
     3
 72
    12
 73
     8
 74
     0
 42
0.0000000001
 43
0.0000000001
 40
0.0
 40
0.0
 40
0.0
 40
0.0
 40
0.2144725351744425
 40
0.4289487582274122
 40
0.6435068276197162
 40
0.8582559473365756
 40
0.9999999999999999
 40
0.9999999999999999
 40
0.9999999999999999
 40
0.9999999999999999
 10
738.9116533149266
 20
-642.8208911323604
 30
0.0
 10
738.9116533149266
 20
-642.8319421846522
 30
0.0
 10
738.9116533149266
 20
-642.8540444792599
 30
0.0
 10
738.9116533149266
 20
-643.0263627017492
 30
0.0
 10
738.9116533149266
 20
-643.2800365599442
 30
0.0
 10
738.9116533149266
 20
-643.5614437938708
 30
0.0
 10
738.9116533149266
 20
-643.747596229655
 30
0.0
 10
738.9116533149266
 20
-643.8216116742847
 30
0.0
  0
LINE
  5
225AF
330
18
100
AcDbEntity
  8
01
  6
CONTINUOUS
100
AcDbLine
 10
679.9969857133904
 20
-657.7700918789093
 30
0.0
 11
699.8367220212007
 21
-650.549019011451
 31
0.0
  0
LINE
  5
225B0
330
18
100
AcDbEntity
  8
01
  6
CONTINUOUS
100
AcDbLine
 10
703.3571846831823
 20
-660.547959757751
 30
0.0
 11
703.7288010169053
 21
-660.419524786776
 31
0.0
  0
ARC
  5
225B1
330
18
100
AcDbEntity
  8
01
100
AcDbCircle
 10
744.469028637327
 20
-773.2921691849483
 30
0.0
 40
120.0
100
AcDbArc
 50
92.65439663175508
 51
109.8465298479092
  0
ARC
  5
225B2
330
18
100
AcDbEntity
  8
01
100
AcDbCircle
 10
744.2993573563145
 20
-772.7090536343044
 30
0.0
 40
130.0
100
AcDbArc
 50
92.37523953368874
 51
110.0000078339805
  0
SPLINE
  5
225B3
330
18
100
AcDbEntity
  8
01
  6
CONTINUOUS
100
AcDbSpline
210
0.0
220
0.0
230
1.0
 70
     8
 71
     3
 72
    12
 73
     8
 74
     0
 42
0.0000000001
 43
0.0000000001
 40
0.0
 40
0.0
 40
0.0
 40
0.0
 40
0.2006682383373563
 40
0.401002439714997
 40
0.6010025743750843
 40
0.8006684996321244
 40
0.9999999999999999
 40
0.9999999999999999
 40
0.9999999999999999
 40
0.9999999999999999
 10
703.2492053334264
 20
-660.8492823575041
 30
0.0
 10
703.0682869539258
 20
-660.8926794565959
 30
0.0
 10
702.7067513558156
 20
-660.9794014149713
 30
0.0
 10
702.167604486902
 20
-661.1202798341869
 30
0.0
 10
701.6315613516201
 20
-661.2690117099207
 30
0.0
 10
701.0986848148495
 20
-661.4255357758732
 30
0.0
 10
700.7459046574628
 20
-661.5368726736051
 30
0.0
 10
700.5696624224114
 20
-661.5924944632357
 30
0.0
  0
LINE
  5
225B4
330
18
100
AcDbEntity
  8
01
100
AcDbLine
 10
700.5696624224114
 20
-661.5924944632357
 30
0.0
 11
699.5696614718805
 21
-661.9295978628284
 31
0.0
  0
ARC
  5
225B5
330
18
100
AcDbEntity
  8
01
100
AcDbCircle
 10
711.2552335607071
 20
-694.921316520788
 30
0.0
 40
35.0
100
AcDbArc
 50
44.21263790331064
 51
103.2231172601768
  0
ARC
  5
225B6
330
18
100
AcDbEntity
  8
01
100
AcDbCircle
 10
737.7752739379534
 20
-669.12039678423
 30
0.0
 40
2.0
100
AcDbArc
 50
224.2125531236783
 51
270.0
  0
LINE
  5
225B7
330
18
100
AcDbEntity
  8
01
100
AcDbLine
 10
739.1116533149267
 20
-671.1203967842303
 30
0.0
 11
737.7752739206896
 21
-671.1203967842303
 31
0.0
  0
LINE
  5
225B8
330
18
100
AcDbEntity
  8
1CENTER
100
AcDbLine
 10
742.5859550277324
 20
-651.1204039210133
 30
0.0
 11
734.0946614567052
 21
-651.1204039210133
 31
0.0
  0
LINE
  5
225BA
330
18
100
AcDbEntity
  8
1PHANTOM
100
AcDbLine
 10
698.9114483349936
 20
-654.4284494983738
 30
0.0
 11
699.2424823272745
 21
-653.9557821285898
 31
0.0
  0
LINE
  5
225BB
330
18
100
AcDbEntity
  8
1PHANTOM
100
AcDbLine
 10
698.911653314927
 20
-662.1660005370791
 30
0.0
 11
698.911653314927
 21
-657.6204504569114
 31
0.0
  0
LINE
  5
225BC
330
18
100
AcDbEntity
  8
1PHANTOM
100
AcDbLine
 10
738.9116533149265
 20
-644.820791823521
 30
0.0
 11
735.9116506904898
 21
-644.820791823521
 31
0.0
  0
LINE
  5
225BD
330
18
100
AcDbEntity
  8
1PHANTOM
100
AcDbLine
 10
735.4116533149275
 20
-645.3207918546781
 30
0.0
 11
735.9116506904898
 21
-644.820791823521
 31
0.0
  0
LINE
  5
225BE
330
18
100
AcDbEntity
  8
1PHANTOM
100
AcDbLine
 10
735.4116533149275
 20
-646.0201058078509
 30
0.0
 11
735.4116533149275
 21
-645.3207918546781
 31
0.0
  0
LINE
  5
225BF
330
18
100
AcDbEntity
  8
1PHANTOM
100
AcDbLine
 10
698.911653314927
 20
-654.4283997606442
 30
0.0
 11
698.911653314927
 21
-657.6204504569114
 31
0.0
  0
ARC
  5
225C0
330
18
100
AcDbEntity
  8
1PHANTOM
100
AcDbCircle
 10
744.2532605804952
 20
-772.711960245938
 30
0.0
 40
127.0
100
AcDbArc
 50
93.99210154531018
 51
110.757630690791
  0
ARC
  5
225C1
330
18
100
AcDbEntity
  8
01
  6
CONTINUOUS
100
AcDbCircle
 10
683.2803791720154
 20
-666.7911412656636
 30
0.0
 40
1.000000000000058
100
AcDbArc
 50
200.0000000000098
 51
290.0000000000015
  0
LINE
  5
225C2
330
18
100
AcDbEntity
  8
01
  6
CONTINUOUS
100
AcDbLine
 10
682.3406865512296
 20
-667.1331614089893
 30
0.0
 11
679.3993133186281
 21
-659.0518048702306
 31
0.0
  0
ARC
  5
225C3
330
18
100
AcDbEntity
  8
01
  6
CONTINUOUS
100
AcDbCircle
 10
680.3390059394138
 20
-658.709784726905
 30
0.0
 40
1.000000000000004
100
AcDbArc
 50
110.0000000000098
 51
200.0000000000037
  0
LINE
  5
225C4
330
18
100
AcDbEntity
  8
01
100
AcDbLine
 10
738.9116533149265
 20
-644.820791823521
 30
0.0
 11
739.1116533149267
 21
-644.820791823521
 31
0.0
  0
ARC
  5
225CD
330
18
100
AcDbEntity
  8
1PHANTOM
100
AcDbCircle
 10
628.1116533149412
 20
-651.1200624802763
 30
0.0
 40
2.5
100
AcDbArc
 50
270.0
 51
90.0
  0
ARC
  5
225CE
330
18
100
AcDbEntity
  8
1PHANTOM
100
AcDbCircle
 10
626.1116533149406
 20
-651.1200624802763
 30
0.0
 40
2.5
100
AcDbArc
 50
90.0
 51
270.0
  0
LINE
  5
225CF
330
18
100
AcDbEntity
  8
1PHANTOM
100
AcDbLine
 10
626.1116533149406
 20
-648.6200624802763
 30
0.0
 11
628.1116533149412
 21
-648.6200624802763
 31
0.0
  0
LINE
  5
225D0
330
18
100
AcDbEntity
  8
1PHANTOM
100
AcDbLine
 10
626.1116533149406
 20
-653.6200624802763
 30
0.0
 11
628.1116533149412
 21
-653.6200624802763
 31
0.0
  0
ARC
  5
225D1
330
18
100
AcDbEntity
  8
1PHANTOM
100
AcDbCircle
 10
176.1129047770434
 20
-651.1200624802763
 30
0.0
 40
2.5
100
AcDbArc
 50
90.0
 51
270.0
  0
ARC
  5
225D2
330
18
100
AcDbEntity
  8
1PHANTOM
100
AcDbCircle
 10
178.1129047770441
 20
-651.1200624802763
 30
0.0
 40
2.5
100
AcDbArc
 50
270.0
 51
90.0
  0
LINE
  5
225D3
330
18
100
AcDbEntity
  8
1PHANTOM
100
AcDbLine
 10
178.1129047770441
 20
-648.6200624802763
 30
0.0
 11
176.1129047770434
 21
-648.6200624802763
 31
0.0
  0
LINE
  5
225D4
330
18
100
AcDbEntity
  8
1PHANTOM
100
AcDbLine
 10
178.1129047770441
 20
-653.6200624802763
 30
0.0
 11
176.1129047770434
 21
-653.6200624802763
 31
0.0
  0
TEXT
  5
2293A
330
18
100
AcDbEntity
  8
1TEXT
100
AcDbText
 10
517.5994065783134
 20
-485.7524337852994
 30
0.0
 40
4.0
  1
表面処理
 72
     1
 11
526.86607324498
 21
-485.7524337852994
 31
0.0
100
AcDbText
  0
LINE
  5
2293B
330
18
100
AcDbEntity
  8
1DIM
100
AcDbLine
 10
509.4660732449798
 20
-480.2524337852994
 30
0.0
 11
579.46607324498
 21
-480.2524337852994
 31
0.0
  0
LINE
  5
2293C
330
18
100
AcDbEntity
  8
1DIM
100
AcDbLine
 10
509.4660732449798
 20
-494.2524337852994
 30
0.0
 11
579.46607324498
 21
-494.2524337852994
 31
0.0
  0
LINE
  5
2293D
330
18
100
AcDbEntity
  8
1DIM
100
AcDbLine
 10
509.4660732449798
 20
-487.2524337852994
 30
0.0
 11
579.46607324498
 21
-487.2524337852994
 31
0.0
  0
LINE
  5
2293E
330
18
100
AcDbEntity
  8
1DIM
100
AcDbLine
 10
544.46607324498
 20
-480.2524337852994
 30
0.0
 11
544.4660732449795
 21
-494.2524337852994
 31
0.0
  0
TEXT
  5
2293F
330
18
100
AcDbEntity
  8
1TEXT
100
AcDbText
 10
554.9994065783134
 20
-485.7524337852994
 30
0.0
 40
4.0
  1
コード
 72
     1
 11
561.86607324498
 21
-485.7524337852994
 31
0.0
100
AcDbText
  0
LINE
  5
22940
330
18
100
AcDbEntity
  8
1DIM
100
AcDbLine
 10
509.4660732449798
 20
-494.2524337852994
 30
0.0
 11
509.4660732449798
 21
-480.2524337852994
 31
0.0
  0
LINE
  5
22941
330
18
100
AcDbEntity
  8
1DIM
100
AcDbLine
 10
579.4660732449797
 20
-494.2524337852994
 30
0.0
 11
579.46607324498
 21
-480.2524337852994
 31
0.0
  0
TEXT
  5
22942
330
18
100
AcDbEntity
  8
1TEXT
100
AcDbText
 10
509.4660732449798
 20
-475.2524337852994
 30
0.0
 40
8.0
  1
SC-921-X
100
AcDbText
  0
TEXT
  5
22943
330
18
100
AcDbEntity
  8
1TEXT
100
AcDbText
 10
517.3994065783133
 20
-492.5877224448237
 30
0.0
 40
4.0
  1
クローム
 72
     1
 11
526.86607324498
 21
-492.5877224448237
 31
0.0
100
AcDbText
  0
TEXT
  5
22944
330
18
100
AcDbEntity
  8
1TEXT
100
AcDbText
 10
547.6986195412766
 20
-492.9667907689487
 30
0.0
 40
4.0
  1
SC-921-XC
 41
0.85
 72
     1
 11
561.8660732449803
 21
-492.9667907689487
 31
0.0
100
AcDbText
  0
LINE
  5
22945
330
18
100
AcDbEntity
  8
01
100
AcDbLine
 10
751.6116533149267
 20
-613.8922303357315
 30
0.0
 11
751.6116533149267
 21
-688.3485775062952
 31
0.0
  0
LINE
  5
22946
330
18
100
AcDbEntity
  8
01
100
AcDbLine
 10
760.6116533149267
 20
-613.8922303357315
 30
0.0
 11
760.6116533149267
 21
-688.3485775062952
 31
0.0
  0
LINE
  5
22B06
330
18
100
AcDbEntity
  8
01
  6
CONTINUOUS
100
AcDbLine
 10
169.7916962396039
 20
-667.6197908917127
 30
0.0
 11
169.9954651503745
 21
-670.1988267423759
 31
0.0
  0
ARC
  5
22B07
330
18
100
AcDbEntity
  8
01
  6
CONTINUOUS
100
AcDbCircle
 10
170.9923584199957
 20
-670.1200624802766
 30
0.0
 40
1.000000000000023
100
AcDbArc
 50
184.5175390229833
 51
269.9999999999972
  0
LINE
  5
22B08
330
18
100
AcDbEntity
  8
01
  6
CONTINUOUS
100
AcDbLine
 10
170.9923584199957
 20
-671.1200624802766
 30
0.0
 11
183.1738520425314
 21
-671.1200624802766
 31
0.0
  0
ARC
  5
22B09
330
18
100
AcDbEntity
  8
01
  6
CONTINUOUS
100
AcDbCircle
 10
183.1738520425314
 20
-670.1200624802766
 30
0.0
 40
1.000000000000049
100
AcDbArc
 50
270.0
 51
345.1135557424627
  0
LINE
  5
22B0A
330
18
100
AcDbEntity
  8
01
  6
CONTINUOUS
100
AcDbLine
 10
184.1402889304541
 20
-670.3769666290602
 30
0.0
 11
184.247987980061
 21
-669.9718181142268
 31
0.0
  0
LINE
  5
22B0B
330
18
100
AcDbEntity
  8
01
  6
CONTINUOUS
100
AcDbLine
 10
184.247987980061
 20
-669.9718181142268
 30
0.0
 11
184.2624751683704
 21
-669.8336545476375
 31
0.0
  0
LINE
  5
22B0C
330
18
100
AcDbEntity
  8
01
  6
CONTINUOUS
100
AcDbLine
 10
634.4316103902788
 20
-667.6197908917127
 30
0.0
 11
634.2278414795081
 21
-670.1988267423759
 31
0.0
  0
ARC
  5
22B0D
330
18
100
AcDbEntity
  8
01
  6
CONTINUOUS
100
AcDbCircle
 10
633.230948209887
 20
-670.1200624802766
 30
0.0
 40
1.000000000000054
100
AcDbArc
 50
270.0000000000011
 51
355.4824609770151
  0
LINE
  5
22B0E
330
18
100
AcDbEntity
  8
01
  6
CONTINUOUS
100
AcDbLine
 10
633.230948209887
 20
-671.1200624802766
 30
0.0
 11
621.0494545873512
 21
-671.1200624802766
 31
0.0
  0
ARC
  5
22B0F
330
18
100
AcDbEntity
  8
01
  6
CONTINUOUS
100
AcDbCircle
 10
621.0494545873513
 20
-670.1200624802766
 30
0.0
 40
1.000000000000012
100
AcDbArc
 50
194.8864442575373
 51
270.0
  0
LINE
  5
22B10
330
18
100
AcDbEntity
  8
01
  6
CONTINUOUS
100
AcDbLine
 10
620.0830176994285
 20
-670.3769666290602
 30
0.0
 11
619.9753186498217
 21
-669.9718181142268
 31
0.0
  0
LINE
  5
22B11
330
18
100
AcDbEntity
  8
01
  6
CONTINUOUS
100
AcDbLine
 10
619.9753186498217
 20
-669.9718181142268
 30
0.0
 11
619.9608314615123
 21
-669.8336545476375
 31
0.0
  0
LINE
  5
22B13
330
18
100
AcDbEntity
  8
01
100
AcDbLine
 10
724.9116366264124
 20
-659.3204318393259
 30
0.0
 11
716.9116366265855
 21
-659.3203759962485
 31
0.0
  0
LINE
  5
22B14
330
18
100
AcDbEntity
  8
1HATCH
100
AcDbLine
 10
719.2618665138629
 20
-649.6203932154388
 30
0.0
 11
719.2616584986101
 21
-656.9703705282232
 31
0.0
  0
LINE
  5
22B15
330
18
100
AcDbEntity
  8
1HATCH
100
AcDbLine
 10
722.5618665138065
 20
-649.6204146219518
 30
0.0
 11
722.5616584982334
 21
-656.9704263714025
 31
0.0
  0
LINE
  5
22B16
330
18
100
AcDbEntity
  8
1CENTER
100
AcDbLine
 10
720.9118847697293
 20
-647.6589187593328
 30
0.0
 11
720.9116157807318
 21
-661.5601551612117
 31
0.0
  0
LINE
  5
22B17
330
18
100
AcDbEntity
  8
1HATCH
100
AcDbLine
 10
722.9118638442771
 20
-649.9704178794545
 30
0.0
 11
718.9118638443643
 21
-649.9703899579158
 31
0.0
  0
LINE
  5
22B18
330
18
100
AcDbEntity
  8
1HATCH
100
AcDbLine
 10
722.5616584982334
 20
-656.9704263714025
 30
0.0
 11
722.9116552407281
 21
-657.3204271857742
 31
0.0
  0
LINE
  5
22B19
330
18
100
AcDbEntity
  8
1HATCH
100
AcDbLine
 10
719.2616584986101
 20
-656.9703705282232
 30
0.0
 11
718.9116552410746
 21
-657.32037134261
 31
0.0
  0
TEXT
  5
22B1A
330
18
100
AcDbEntity
  8
01
  6
CONTINUOUS
100
AcDbText
 10
745.8491688257492
 20
-606.6893348738942
 30
0.0
 40
3.5
  1
PB
100
AcDbText
  0
TEXT
  5
22B1B
330
18
100
AcDbEntity
  8
01
  6
CONTINUOUS
100
AcDbText
 10
758.9845869709144
 20
-606.6893348738942
 30
0.0
 40
3.5
  1
合板9mm以上
100
AcDbText
  0
TEXT
  5
22B1C
330
18
100
AcDbEntity
  8
01
  6
CONTINUOUS
100
AcDbText
 10
584.1039715458726
 20
-617.2884090853071
 30
0.0
 40
3.5
  1
10×20　角パイプ
100
AcDbText
  0
LINE
  5
22B1D
330
18
100
AcDbEntity
  8
01
100
AcDbLine
 10
716.9116338344317
 20
-659.6203759962362
 30
0.0
 11
724.9116338342585
 21
-659.6204318393138
 31
0.0
  0
LINE
  5
22B1E
330
18
100
AcDbEntity
  8
01
100
AcDbLine
 10
724.9116338342585
 20
-659.6204318393138
 30
0.0
 11
724.9116366264124
 21
-659.3204318393259
 31
0.0
  0
LINE
  5
22B1F
330
18
100
AcDbEntity
  8
01
100
AcDbLine
 10
724.9116366264124
 20
-659.3204318393259
 30
0.0
 11
722.9116552407281
 21
-657.3204271857742
 31
0.0
  0
LINE
  5
22B20
330
18
100
AcDbEntity
  8
01
100
AcDbLine
 10
722.9116552407281
 20
-657.3204271857742
 30
0.0
 11
722.9118638442771
 21
-649.9704178794545
 31
0.0
  0
LINE
  5
22B21
330
18
100
AcDbEntity
  8
01
100
AcDbLine
 10
722.9118638442771
 20
-649.9704178794545
 30
0.0
 11
722.5618665137999
 21
-649.6204154363301
 31
0.0
  0
LINE
  5
22B22
330
18
100
AcDbEntity
  8
01
100
AcDbLine
 10
722.5618665137999
 20
-649.6204154363301
 30
0.0
 11
719.2618665138696
 21
-649.6203924010606
 31
0.0
  0
LINE
  5
22B23
330
18
100
AcDbEntity
  8
01
100
AcDbLine
 10
719.2618665138696
 20
-649.6203924010606
 30
0.0
 11
718.9118638443643
 21
-649.9703899579158
 31
0.0
  0
LINE
  5
22B24
330
18
100
AcDbEntity
  8
01
100
AcDbLine
 10
718.9118638443643
 20
-649.9703899579158
 30
0.0
 11
718.9116552410746
 21
-657.3203713426099
 31
0.0
  0
LINE
  5
22B25
330
18
100
AcDbEntity
  8
01
100
AcDbLine
 10
718.9116552410746
 20
-657.3203713426099
 30
0.0
 11
716.9116366265855
 21
-659.3203759962485
 31
0.0
  0
LINE
  5
22B26
330
18
100
AcDbEntity
  8
01
100
AcDbLine
 10
716.9116366265855
 20
-659.3203759962485
 30
0.0
 11
716.9116338344317
 21
-659.6203759962362
 31
0.0
  0
LINE
  5
22B27
330
18
100
AcDbEntity
  8
0
100
AcDbLine
 10
627.1116998508388
 20
-511.0483226457521
 30
0.0
 11
625.6116998508388
 21
-516.3483191556138
 31
0.0
  0
LINE
  5
22B28
330
18
100
AcDbEntity
  8
0
100
AcDbLine
 10
625.6116998508388
 20
-516.3483191556138
 30
0.0
 11
625.611699850839
 21
-546.0483191555057
 31
0.0
  0
LINE
  5
22B29
330
18
100
AcDbEntity
  8
0
100
AcDbLine
 10
627.1116998508388
 20
-511.0483226457521
 30
0.0
 11
628.6116998508389
 21
-516.3483261359975
 31
0.0
  0
LINE
  5
22B2A
330
18
100
AcDbEntity
  8
0
100
AcDbLine
 10
623.611653314941
 20
-546.0483145018076
 30
0.0
 11
630.6116533149409
 21
-546.048330789372
 31
0.0
  0
LINE
  5
22B2B
330
18
100
AcDbEntity
  8
0
100
AcDbLine
 10
628.6116998508389
 20
-516.3483261359975
 30
0.0
 11
628.611699850839
 21
-546.0483261358904
 31
0.0
  0
LINE
  5
22B2C
330
18
100
AcDbEntity
  8
0
100
AcDbLine
 10
623.611653314941
 20
-546.0483145018076
 30
0.0
 11
623.6116533149409
 21
-547.148317992003
 31
0.0
  0
ARC
  5
22B2D
330
18
100
AcDbEntity
  8
0
100
AcDbCircle
 10
625.1116533149409
 20
-547.148317992003
 30
0.0
 40
1.5
100
AcDbArc
 50
180.0
 51
269.9998666844662
  0
LINE
  5
22B2E
330
18
100
AcDbEntity
  8
0
100
AcDbLine
 10
630.6116533149409
 20
-546.048330789372
 30
0.0
 11
630.6116533149409
 21
-547.1483272991826
 31
0.0
  0
LINE
  5
22B2F
330
18
100
AcDbEntity
  8
0
100
AcDbLine
 10
625.1116498247485
 20
-548.6483179919989
 30
0.0
 11
629.1116498247485
 21
-548.6483272991785
 31
0.0
  0
ARC
  5
22B30
330
18
100
AcDbEntity
  8
0
100
AcDbCircle
 10
629.1116533149409
 20
-547.1483272991826
 30
0.0
 40
1.5
100
AcDbArc
 50
269.9998666844662
 51
0.0
  0
LINE
  5
22B31
330
18
100
AcDbEntity
  8
1CENTER
100
AcDbLine
 10
627.1116533149409
 20
-509.6175277282867
 30
0.0
 11
627.1116533149409
 21
-549.7185990548986
 31
0.0
  0
LINE
  5
22B32
330
18
100
AcDbEntity
  8
0
100
AcDbLine
 10
626.0173295009458
 20
-513.14832009943
 30
0.0
 11
627.9796645898213
 21
-512.348324665379
 31
0.0
  0
LINE
  5
22B33
330
18
100
AcDbEntity
  8
0
100
AcDbLine
 10
627.9796645898213
 20
-512.348324665379
 30
0.0
 11
627.3913880147788
 21
-512.0365548091269
 31
0.0
  0
LINE
  5
22B34
330
18
100
AcDbEntity
  8
0
100
AcDbLine
 10
625.1116998508388
 20
-535.54831799222
 30
0.0
 11
629.1116998508388
 21
-534.7483272994017
 31
0.0
  0
LINE
  5
22B35
330
18
100
AcDbEntity
  8
0
100
AcDbLine
 10
625.1116998508388
 20
-524.3483179922156
 30
0.0
 11
629.1116998508388
 21
-523.548327299393
 31
0.0
  0
LINE
  5
22B36
330
18
100
AcDbEntity
  8
0
100
AcDbLine
 10
625.1116998508388
 20
-521.1483179922155
 30
0.0
 11
629.1116998508388
 21
-520.348327299393
 31
0.0
  0
LINE
  5
22B37
330
18
100
AcDbEntity
  8
0
100
AcDbLine
 10
629.1116998508388
 20
-520.348327299393
 30
0.0
 11
628.6116998508388
 21
-520.2483261359957
 31
0.0
  0
LINE
  5
22B38
330
18
100
AcDbEntity
  8
0
100
AcDbLine
 10
625.6116998508388
 20
-519.6483191556127
 30
0.0
 11
625.1116998508388
 21
-519.5483179922155
 31
0.0
  0
LINE
  5
22B39
330
18
100
AcDbEntity
  8
0
100
AcDbLine
 10
629.1116998508388
 20
-523.548327299393
 30
0.0
 11
628.6116998508388
 21
-523.4483261359958
 31
0.0
  0
LINE
  5
22B3A
330
18
100
AcDbEntity
  8
0
100
AcDbLine
 10
629.1116998508388
 20
-521.9483272993929
 30
0.0
 11
628.6116998508388
 21
-521.8483261359958
 31
0.0
  0
LINE
  5
22B3B
330
18
100
AcDbEntity
  8
0
100
AcDbLine
 10
625.6116998508388
 20
-521.2483191556126
 30
0.0
 11
625.1116998508388
 21
-521.1483179922155
 31
0.0
  0
LINE
  5
22B3C
330
18
100
AcDbEntity
  8
0
100
AcDbLine
 10
625.6116998508388
 20
-522.8483191556126
 30
0.0
 11
625.1116998508388
 21
-522.7483179922154
 31
0.0
  0
LINE
  5
22B3D
330
18
100
AcDbEntity
  8
0
100
AcDbLine
 10
625.1116998508388
 20
-522.7483179922154
 30
0.0
 11
629.1116998508388
 21
-521.9483272993929
 31
0.0
  0
LINE
  5
22B3E
330
18
100
AcDbEntity
  8
0
100
AcDbLine
 10
628.432478694228
 20
-513.9483257189846
 30
0.0
 11
627.8807292304248
 21
-513.7655615763566
 31
0.0
  0
LINE
  5
22B3F
330
18
100
AcDbEntity
  8
0
100
AcDbLine
 10
629.1116998508388
 20
-517.1483272993929
 30
0.0
 11
628.6116998508388
 21
-517.0483261359958
 31
0.0
  0
LINE
  5
22B40
330
18
100
AcDbEntity
  8
0
100
AcDbLine
 10
629.1116998508388
 20
-518.7483272993929
 30
0.0
 11
628.6116998508388
 21
-518.648326135996
 31
0.0
  0
LINE
  5
22B41
330
18
100
AcDbEntity
  8
0
100
AcDbLine
 10
628.8852927986349
 20
-515.5483267725903
 30
0.0
 11
628.3486990633637
 21
-515.4190560749604
 31
0.0
  0
LINE
  5
22B42
330
18
100
AcDbEntity
  8
0
100
AcDbLine
 10
626.0326144480475
 20
-514.8610885581758
 30
0.0
 11
625.5645159928976
 21
-514.7483190458257
 31
0.0
  0
LINE
  5
22B43
330
18
100
AcDbEntity
  8
0
100
AcDbLine
 10
625.6116998508388
 20
-518.0483191556126
 30
0.0
 11
625.1116998508388
 21
-517.9483179922155
 31
0.0
  0
LINE
  5
22B44
330
18
100
AcDbEntity
  8
0
100
AcDbLine
 10
625.6116998508388
 20
-516.4483191556127
 30
0.0
 11
625.1116998508388
 21
-516.3483179922156
 31
0.0
  0
LINE
  5
22B45
330
18
100
AcDbEntity
  8
0
100
AcDbLine
 10
626.4745013415769
 20
-513.2997558958704
 30
0.0
 11
626.0173295009458
 21
-513.14832009943
 31
0.0
  0
LINE
  5
22B46
330
18
100
AcDbEntity
  8
0
100
AcDbLine
 10
625.5645159928976
 20
-514.7483190458257
 30
0.0
 11
628.432478694228
 21
-513.9483257189846
 31
0.0
  0
LINE
  5
22B47
330
18
100
AcDbEntity
  8
0
100
AcDbLine
 10
625.1116998508388
 20
-517.9483179922155
 30
0.0
 11
629.1116998508388
 21
-517.1483272993929
 31
0.0
  0
LINE
  5
22B48
330
18
100
AcDbEntity
  8
0
100
AcDbLine
 10
625.1116998508388
 20
-516.3483179922156
 30
0.0
 11
628.8852927986349
 21
-515.5483267725903
 31
0.0
  0
LINE
  5
22B49
330
18
100
AcDbEntity
  8
0
100
AcDbLine
 10
625.1116998508388
 20
-519.5483179922155
 30
0.0
 11
629.1116998508388
 21
-518.7483272993929
 31
0.0
  0
LINE
  5
22B4A
330
18
100
AcDbEntity
  8
0
100
AcDbLine
 10
625.1116998508388
 20
-532.3483179922199
 30
0.0
 11
629.1116998508388
 21
-531.5483272994016
 31
0.0
  0
LINE
  5
22B4B
330
18
100
AcDbEntity
  8
0
100
AcDbLine
 10
629.1116998508388
 20
-531.5483272994016
 30
0.0
 11
628.6116998508388
 21
-531.448326136004
 31
0.0
  0
LINE
  5
22B4C
330
18
100
AcDbEntity
  8
0
100
AcDbLine
 10
625.6116998508388
 20
-530.8483191556132
 30
0.0
 11
625.1116998508388
 21
-530.7483179922156
 31
0.0
  0
LINE
  5
22B4D
330
18
100
AcDbEntity
  8
0
100
AcDbLine
 10
629.1116998508388
 20
-533.1483272994018
 30
0.0
 11
628.6116998508388
 21
-533.0483261360041
 31
0.0
  0
LINE
  5
22B4E
330
18
100
AcDbEntity
  8
0
100
AcDbLine
 10
629.1116998508388
 20
-534.7483272994017
 30
0.0
 11
628.6116998508388
 21
-534.648326136004
 31
0.0
  0
LINE
  5
22B4F
330
18
100
AcDbEntity
  8
0
100
AcDbLine
 10
625.6116998508388
 20
-532.4483191556176
 30
0.0
 11
625.1116998508388
 21
-532.3483179922199
 31
0.0
  0
LINE
  5
22B50
330
18
100
AcDbEntity
  8
0
100
AcDbLine
 10
625.6116998508388
 20
-534.0483191556177
 30
0.0
 11
625.1116998508388
 21
-533.94831799222
 31
0.0
  0
LINE
  5
22B51
330
18
100
AcDbEntity
  8
0
100
AcDbLine
 10
625.1116998508388
 20
-533.94831799222
 30
0.0
 11
629.1116998508388
 21
-533.1483272994018
 31
0.0
  0
LINE
  5
22B52
330
18
100
AcDbEntity
  8
0
100
AcDbLine
 10
629.1116998508388
 20
-526.7483272993973
 30
0.0
 11
628.6116998508388
 21
-526.6483261359996
 31
0.0
  0
LINE
  5
22B53
330
18
100
AcDbEntity
  8
0
100
AcDbLine
 10
629.1116998508388
 20
-525.1483272993929
 30
0.0
 11
628.6116998508388
 21
-525.0483261359958
 31
0.0
  0
LINE
  5
22B54
330
18
100
AcDbEntity
  8
0
100
AcDbLine
 10
629.1116998508388
 20
-529.9483272993973
 30
0.0
 11
628.6116998508388
 21
-529.8483261359996
 31
0.0
  0
LINE
  5
22B55
330
18
100
AcDbEntity
  8
0
100
AcDbLine
 10
629.1116998508388
 20
-528.3483272993974
 30
0.0
 11
628.6116998508388
 21
-528.2483261359997
 31
0.0
  0
LINE
  5
22B56
330
18
100
AcDbEntity
  8
0
100
AcDbLine
 10
625.6116998508388
 20
-524.4483191556127
 30
0.0
 11
625.1116998508388
 21
-524.3483179922156
 31
0.0
  0
LINE
  5
22B57
330
18
100
AcDbEntity
  8
0
100
AcDbLine
 10
625.6116998508388
 20
-526.0483191556133
 30
0.0
 11
625.1116998508388
 21
-525.9483179922155
 31
0.0
  0
LINE
  5
22B58
330
18
100
AcDbEntity
  8
0
100
AcDbLine
 10
625.6116998508388
 20
-529.2483191556133
 30
0.0
 11
625.1116998508388
 21
-529.1483179922157
 31
0.0
  0
LINE
  5
22B59
330
18
100
AcDbEntity
  8
0
100
AcDbLine
 10
625.6116998508388
 20
-527.6483191556132
 30
0.0
 11
625.1116998508388
 21
-527.5483179922155
 31
0.0
  0
LINE
  5
22B5A
330
18
100
AcDbEntity
  8
0
100
AcDbLine
 10
625.1116998508388
 20
-527.5483179922155
 30
0.0
 11
629.1116998508388
 21
-526.7483272993973
 31
0.0
  0
LINE
  5
22B5B
330
18
100
AcDbEntity
  8
0
100
AcDbLine
 10
625.1116998508388
 20
-525.9483179922155
 30
0.0
 11
629.1116998508388
 21
-525.1483272993929
 31
0.0
  0
LINE
  5
22B5C
330
18
100
AcDbEntity
  8
0
100
AcDbLine
 10
625.1116998508388
 20
-529.1483179922157
 30
0.0
 11
629.1116998508388
 21
-528.3483272993974
 31
0.0
  0
LINE
  5
22B5D
330
18
100
AcDbEntity
  8
0
100
AcDbLine
 10
625.1116998508388
 20
-530.7483179922156
 30
0.0
 11
629.1116998508388
 21
-529.9483272993973
 31
0.0
  0
LINE
  5
22B5E
330
18
100
AcDbEntity
  8
0
100
AcDbLine
 10
625.6116998508388
 20
-540.4483191556218
 30
0.0
 11
625.1116998508388
 21
-540.3483179922241
 31
0.0
  0
LINE
  5
22B5F
330
18
100
AcDbEntity
  8
0
100
AcDbLine
 10
625.1116998508388
 20
-540.3483179922241
 30
0.0
 11
629.1116998508388
 21
-539.5483272994059
 31
0.0
  0
LINE
  5
22B60
330
18
100
AcDbEntity
  8
0
100
AcDbLine
 10
629.1116998508388
 20
-539.5483272994059
 30
0.0
 11
628.6116998508388
 21
-539.4483261360082
 31
0.0
  0
LINE
  5
22B61
330
18
100
AcDbEntity
  8
0
100
AcDbLine
 10
625.6116998508388
 20
-538.8483191556219
 30
0.0
 11
625.1116998508388
 21
-538.7483179922242
 31
0.0
  0
LINE
  5
22B62
330
18
100
AcDbEntity
  8
0
100
AcDbLine
 10
625.6116998508388
 20
-537.248319155622
 30
0.0
 11
625.1116998508388
 21
-537.1483179922243
 31
0.0
  0
LINE
  5
22B63
330
18
100
AcDbEntity
  8
0
100
AcDbLine
 10
625.1116998508388
 20
-537.1483179922243
 30
0.0
 11
629.1116998508388
 21
-536.348327299406
 31
0.0
  0
LINE
  5
22B64
330
18
100
AcDbEntity
  8
0
100
AcDbLine
 10
629.1116998508388
 20
-537.948327299406
 30
0.0
 11
628.6116998508388
 21
-537.8483261360083
 31
0.0
  0
LINE
  5
22B65
330
18
100
AcDbEntity
  8
0
100
AcDbLine
 10
629.1116998508388
 20
-536.348327299406
 30
0.0
 11
628.6116998508388
 21
-536.2483261360084
 31
0.0
  0
LINE
  5
22B66
330
18
100
AcDbEntity
  8
0
100
AcDbLine
 10
625.1116998508388
 20
-538.7483179922242
 30
0.0
 11
629.1116998508388
 21
-537.948327299406
 31
0.0
  0
LINE
  5
22B67
330
18
100
AcDbEntity
  8
0
100
AcDbLine
 10
625.6116998508388
 20
-535.6483191556176
 30
0.0
 11
625.1116998508388
 21
-535.54831799222
 31
0.0
  0
LINE
  5
22B68
330
18
100
AcDbEntity
  8
0
100
AcDbLine
 10
625.6116998508388
 20
-542.0483191556217
 30
0.0
 11
625.1116998508388
 21
-541.948317992224
 31
0.0
  0
LINE
  5
22B69
330
18
100
AcDbEntity
  8
0
100
AcDbLine
 10
625.1116998508388
 20
-541.948317992224
 30
0.0
 11
629.1116998508388
 21
-541.1483272994058
 31
0.0
  0
LINE
  5
22B6A
330
18
100
AcDbEntity
  8
0
100
AcDbLine
 10
629.1116998508388
 20
-541.1483272994058
 30
0.0
 11
628.6116998508388
 21
-541.0483261360081
 31
0.0
  0
LINE
  5
22B6B
330
18
100
AcDbEntity
  8
0
100
AcDbLine
 10
625.6116998508388
 20
-543.6483191556216
 30
0.0
 11
625.1116998508388
 21
-543.5483179922239
 31
0.0
  0
LINE
  5
22B6C
330
18
100
AcDbEntity
  8
0
100
AcDbLine
 10
625.1116998508388
 20
-543.5483179922239
 30
0.0
 11
629.1116998508388
 21
-542.7483272994057
 31
0.0
  0
LINE
  5
22B6D
330
18
100
AcDbEntity
  8
0
100
AcDbLine
 10
629.1116998508388
 20
-542.7483272994057
 30
0.0
 11
628.6116998508388
 21
-542.648326136008
 31
0.0
  0
LINE
  5
22B6E
330
18
100
AcDbEntity
  8
0
100
AcDbLine
 10
625.6116998508388
 20
-545.2483191556215
 30
0.0
 11
625.1116998508388
 21
-545.1483179922238
 31
0.0
  0
LINE
  5
22B6F
330
18
100
AcDbEntity
  8
0
100
AcDbLine
 10
625.1116998508388
 20
-545.1483179922238
 30
0.0
 11
629.1116998508388
 21
-544.3483272994056
 31
0.0
  0
LINE
  5
22B70
330
18
100
AcDbEntity
  8
0
100
AcDbLine
 10
629.1116998508388
 20
-544.3483272994056
 30
0.0
 11
628.6116998508388
 21
-544.2483261360079
 31
0.0
  0
LINE
  5
22B71
330
18
100
AcDbEntity
  8
0
100
AcDbLine
 10
177.1116998508387
 20
-511.0483226457527
 30
0.0
 11
175.6116998508387
 21
-516.3483191556144
 31
0.0
  0
LINE
  5
22B72
330
18
100
AcDbEntity
  8
0
100
AcDbLine
 10
175.6116998508387
 20
-516.3483191556144
 30
0.0
 11
175.611699850839
 21
-546.0483191555063
 31
0.0
  0
LINE
  5
22B73
330
18
100
AcDbEntity
  8
0
100
AcDbLine
 10
177.1116998508387
 20
-511.0483226457527
 30
0.0
 11
178.6116998508388
 21
-516.348326135998
 31
0.0
  0
LINE
  5
22B74
330
18
100
AcDbEntity
  8
0
100
AcDbLine
 10
173.6116533149409
 20
-546.0483145018081
 30
0.0
 11
180.6116533149408
 21
-546.0483307893726
 31
0.0
  0
LINE
  5
22B75
330
18
100
AcDbEntity
  8
0
100
AcDbLine
 10
178.6116998508388
 20
-516.348326135998
 30
0.0
 11
178.611699850839
 21
-546.048326135891
 31
0.0
  0
LINE
  5
22B76
330
18
100
AcDbEntity
  8
0
100
AcDbLine
 10
173.6116533149409
 20
-546.0483145018081
 30
0.0
 11
173.6116533149408
 21
-547.1483179920035
 31
0.0
  0
ARC
  5
22B77
330
18
100
AcDbEntity
  8
0
100
AcDbCircle
 10
175.1116533149408
 20
-547.1483179920035
 30
0.0
 40
1.5
100
AcDbArc
 50
180.0
 51
269.9998666844684
  0
LINE
  5
22B78
330
18
100
AcDbEntity
  8
0
100
AcDbLine
 10
180.6116533149408
 20
-546.0483307893726
 30
0.0
 11
180.6116533149408
 21
-547.1483272991832
 31
0.0
  0
LINE
  5
22B79
330
18
100
AcDbEntity
  8
0
100
AcDbLine
 10
175.1116498247484
 20
-548.6483179919994
 30
0.0
 11
179.1116498247484
 21
-548.6483272991791
 31
0.0
  0
ARC
  5
22B7A
330
18
100
AcDbEntity
  8
0
100
AcDbCircle
 10
179.1116533149408
 20
-547.1483272991832
 30
0.0
 40
1.5
100
AcDbArc
 50
269.9998666844684
 51
0.0
  0
LINE
  5
22B7B
330
18
100
AcDbEntity
  8
1CENTER
100
AcDbLine
 10
177.1116533149408
 20
-509.6175277282873
 30
0.0
 11
177.1116533149408
 21
-549.7185990548992
 31
0.0
  0
LINE
  5
22B7C
330
18
100
AcDbEntity
  8
0
100
AcDbLine
 10
176.0173295009457
 20
-513.1483200994305
 30
0.0
 11
177.9796645898212
 21
-512.3483246653796
 31
0.0
  0
LINE
  5
22B7D
330
18
100
AcDbEntity
  8
0
100
AcDbLine
 10
177.9796645898212
 20
-512.3483246653796
 30
0.0
 11
177.3913880147788
 21
-512.0365548091274
 31
0.0
  0
LINE
  5
22B7E
330
18
100
AcDbEntity
  8
0
100
AcDbLine
 10
175.1116998508387
 20
-535.5483179922205
 30
0.0
 11
179.1116998508387
 21
-534.7483272994023
 31
0.0
  0
LINE
  5
22B7F
330
18
100
AcDbEntity
  8
0
100
AcDbLine
 10
175.1116998508387
 20
-524.3483179922162
 30
0.0
 11
179.1116998508387
 21
-523.5483272993936
 31
0.0
  0
LINE
  5
22B80
330
18
100
AcDbEntity
  8
0
100
AcDbLine
 10
175.1116998508387
 20
-521.1483179922161
 30
0.0
 11
179.1116998508387
 21
-520.3483272993935
 31
0.0
  0
LINE
  5
22B81
330
18
100
AcDbEntity
  8
0
100
AcDbLine
 10
179.1116998508387
 20
-520.3483272993935
 30
0.0
 11
178.6116998508387
 21
-520.2483261359963
 31
0.0
  0
LINE
  5
22B82
330
18
100
AcDbEntity
  8
0
100
AcDbLine
 10
175.6116998508387
 20
-519.6483191556133
 30
0.0
 11
175.1116998508387
 21
-519.5483179922161
 31
0.0
  0
LINE
  5
22B83
330
18
100
AcDbEntity
  8
0
100
AcDbLine
 10
179.1116998508387
 20
-523.5483272993936
 30
0.0
 11
178.6116998508387
 21
-523.4483261359964
 31
0.0
  0
LINE
  5
22B84
330
18
100
AcDbEntity
  8
0
100
AcDbLine
 10
179.1116998508387
 20
-521.9483272993934
 30
0.0
 11
178.6116998508387
 21
-521.8483261359963
 31
0.0
  0
LINE
  5
22B85
330
18
100
AcDbEntity
  8
0
100
AcDbLine
 10
175.6116998508387
 20
-521.2483191556132
 30
0.0
 11
175.1116998508387
 21
-521.1483179922161
 31
0.0
  0
LINE
  5
22B86
330
18
100
AcDbEntity
  8
0
100
AcDbLine
 10
175.6116998508387
 20
-522.8483191556131
 30
0.0
 11
175.1116998508387
 21
-522.748317992216
 31
0.0
  0
LINE
  5
22B87
330
18
100
AcDbEntity
  8
0
100
AcDbLine
 10
175.1116998508387
 20
-522.748317992216
 30
0.0
 11
179.1116998508387
 21
-521.9483272993934
 31
0.0
  0
LINE
  5
22B88
330
18
100
AcDbEntity
  8
0
100
AcDbLine
 10
178.432478694228
 20
-513.9483257189852
 30
0.0
 11
177.8807292304247
 21
-513.7655615763572
 31
0.0
  0
LINE
  5
22B89
330
18
100
AcDbEntity
  8
0
100
AcDbLine
 10
179.1116998508387
 20
-517.1483272993935
 30
0.0
 11
178.6116998508387
 21
-517.0483261359964
 31
0.0
  0
LINE
  5
22B8A
330
18
100
AcDbEntity
  8
0
100
AcDbLine
 10
179.1116998508387
 20
-518.7483272993935
 30
0.0
 11
178.6116998508387
 21
-518.6483261359965
 31
0.0
  0
LINE
  5
22B8B
330
18
100
AcDbEntity
  8
0
100
AcDbLine
 10
178.8852927986348
 20
-515.5483267725908
 30
0.0
 11
178.3486990633636
 21
-515.419056074961
 31
0.0
  0
LINE
  5
22B8C
330
18
100
AcDbEntity
  8
0
100
AcDbLine
 10
176.0326144480474
 20
-514.8610885581763
 30
0.0
 11
175.5645159928975
 21
-514.7483190458263
 31
0.0
  0
LINE
  5
22B8D
330
18
100
AcDbEntity
  8
0
100
AcDbLine
 10
175.6116998508387
 20
-518.0483191556132
 30
0.0
 11
175.1116998508387
 21
-517.9483179922161
 31
0.0
  0
LINE
  5
22B8E
330
18
100
AcDbEntity
  8
0
100
AcDbLine
 10
175.6116998508387
 20
-516.4483191556133
 30
0.0
 11
175.1116998508387
 21
-516.3483179922162
 31
0.0
  0
LINE
  5
22B8F
330
18
100
AcDbEntity
  8
0
100
AcDbLine
 10
176.4745013415768
 20
-513.2997558958709
 30
0.0
 11
176.0173295009457
 21
-513.1483200994305
 31
0.0
  0
LINE
  5
22B90
330
18
100
AcDbEntity
  8
0
100
AcDbLine
 10
175.5645159928975
 20
-514.7483190458263
 30
0.0
 11
178.432478694228
 21
-513.9483257189852
 31
0.0
  0
LINE
  5
22B91
330
18
100
AcDbEntity
  8
0
100
AcDbLine
 10
175.1116998508387
 20
-517.9483179922161
 30
0.0
 11
179.1116998508387
 21
-517.1483272993935
 31
0.0
  0
LINE
  5
22B92
330
18
100
AcDbEntity
  8
0
100
AcDbLine
 10
175.1116998508387
 20
-516.3483179922162
 30
0.0
 11
178.8852927986348
 21
-515.5483267725908
 31
0.0
  0
LINE
  5
22B93
330
18
100
AcDbEntity
  8
0
100
AcDbLine
 10
175.1116998508387
 20
-519.5483179922161
 30
0.0
 11
179.1116998508387
 21
-518.7483272993935
 31
0.0
  0
LINE
  5
22B94
330
18
100
AcDbEntity
  8
0
100
AcDbLine
 10
175.1116998508387
 20
-532.3483179922205
 30
0.0
 11
179.1116998508387
 21
-531.5483272994022
 31
0.0
  0
LINE
  5
22B95
330
18
100
AcDbEntity
  8
0
100
AcDbLine
 10
179.1116998508387
 20
-531.5483272994022
 30
0.0
 11
178.6116998508387
 21
-531.4483261360045
 31
0.0
  0
LINE
  5
22B96
330
18
100
AcDbEntity
  8
0
100
AcDbLine
 10
175.6116998508387
 20
-530.8483191556138
 30
0.0
 11
175.1116998508387
 21
-530.7483179922161
 31
0.0
  0
LINE
  5
22B97
330
18
100
AcDbEntity
  8
0
100
AcDbLine
 10
179.1116998508387
 20
-533.1483272994024
 30
0.0
 11
178.6116998508387
 21
-533.0483261360047
 31
0.0
  0
LINE
  5
22B98
330
18
100
AcDbEntity
  8
0
100
AcDbLine
 10
179.1116998508387
 20
-534.7483272994023
 30
0.0
 11
178.6116998508387
 21
-534.6483261360046
 31
0.0
  0
LINE
  5
22B99
330
18
100
AcDbEntity
  8
0
100
AcDbLine
 10
175.6116998508387
 20
-532.4483191556182
 30
0.0
 11
175.1116998508387
 21
-532.3483179922205
 31
0.0
  0
LINE
  5
22B9A
330
18
100
AcDbEntity
  8
0
100
AcDbLine
 10
175.6116998508387
 20
-534.0483191556183
 30
0.0
 11
175.1116998508387
 21
-533.9483179922206
 31
0.0
  0
LINE
  5
22B9B
330
18
100
AcDbEntity
  8
0
100
AcDbLine
 10
175.1116998508387
 20
-533.9483179922206
 30
0.0
 11
179.1116998508387
 21
-533.1483272994024
 31
0.0
  0
LINE
  5
22B9C
330
18
100
AcDbEntity
  8
0
100
AcDbLine
 10
179.1116998508387
 20
-526.7483272993978
 30
0.0
 11
178.6116998508387
 21
-526.6483261360002
 31
0.0
  0
LINE
  5
22B9D
330
18
100
AcDbEntity
  8
0
100
AcDbLine
 10
179.1116998508387
 20
-525.1483272993935
 30
0.0
 11
178.6116998508387
 21
-525.0483261359964
 31
0.0
  0
LINE
  5
22B9E
330
18
100
AcDbEntity
  8
0
100
AcDbLine
 10
179.1116998508387
 20
-529.9483272993979
 30
0.0
 11
178.6116998508387
 21
-529.8483261360002
 31
0.0
  0
LINE
  5
22B9F
330
18
100
AcDbEntity
  8
0
100
AcDbLine
 10
179.1116998508387
 20
-528.348327299398
 30
0.0
 11
178.6116998508387
 21
-528.2483261360003
 31
0.0
  0
LINE
  5
22BA0
330
18
100
AcDbEntity
  8
0
100
AcDbLine
 10
175.6116998508387
 20
-524.4483191556133
 30
0.0
 11
175.1116998508387
 21
-524.3483179922162
 31
0.0
  0
LINE
  5
22BA1
330
18
100
AcDbEntity
  8
0
100
AcDbLine
 10
175.6116998508387
 20
-526.0483191556139
 30
0.0
 11
175.1116998508387
 21
-525.9483179922161
 31
0.0
  0
LINE
  5
22BA2
330
18
100
AcDbEntity
  8
0
100
AcDbLine
 10
175.6116998508387
 20
-529.2483191556139
 30
0.0
 11
175.1116998508387
 21
-529.1483179922162
 31
0.0
  0
LINE
  5
22BA3
330
18
100
AcDbEntity
  8
0
100
AcDbLine
 10
175.6116998508387
 20
-527.6483191556138
 30
0.0
 11
175.1116998508387
 21
-527.5483179922161
 31
0.0
  0
LINE
  5
22BA4
330
18
100
AcDbEntity
  8
0
100
AcDbLine
 10
175.1116998508387
 20
-527.5483179922161
 30
0.0
 11
179.1116998508387
 21
-526.7483272993978
 31
0.0
  0
LINE
  5
22BA5
330
18
100
AcDbEntity
  8
0
100
AcDbLine
 10
175.1116998508387
 20
-525.9483179922161
 30
0.0
 11
179.1116998508387
 21
-525.1483272993935
 31
0.0
  0
LINE
  5
22BA6
330
18
100
AcDbEntity
  8
0
100
AcDbLine
 10
175.1116998508387
 20
-529.1483179922162
 30
0.0
 11
179.1116998508387
 21
-528.348327299398
 31
0.0
  0
LINE
  5
22BA7
330
18
100
AcDbEntity
  8
0
100
AcDbLine
 10
175.1116998508387
 20
-530.7483179922161
 30
0.0
 11
179.1116998508387
 21
-529.9483272993979
 31
0.0
  0
LINE
  5
22BA8
330
18
100
AcDbEntity
  8
0
100
AcDbLine
 10
175.6116998508387
 20
-540.4483191556224
 30
0.0
 11
175.1116998508387
 21
-540.3483179922247
 31
0.0
  0
LINE
  5
22BA9
330
18
100
AcDbEntity
  8
0
100
AcDbLine
 10
175.1116998508387
 20
-540.3483179922247
 30
0.0
 11
179.1116998508387
 21
-539.5483272994064
 31
0.0
  0
LINE
  5
22BAA
330
18
100
AcDbEntity
  8
0
100
AcDbLine
 10
179.1116998508387
 20
-539.5483272994064
 30
0.0
 11
178.6116998508387
 21
-539.4483261360087
 31
0.0
  0
LINE
  5
22BAB
330
18
100
AcDbEntity
  8
0
100
AcDbLine
 10
175.6116998508387
 20
-538.8483191556224
 30
0.0
 11
175.1116998508387
 21
-538.7483179922248
 31
0.0
  0
LINE
  5
22BAC
330
18
100
AcDbEntity
  8
0
100
AcDbLine
 10
175.6116998508387
 20
-537.2483191556225
 30
0.0
 11
175.1116998508387
 21
-537.1483179922249
 31
0.0
  0
LINE
  5
22BAD
330
18
100
AcDbEntity
  8
0
100
AcDbLine
 10
175.1116998508387
 20
-537.1483179922249
 30
0.0
 11
179.1116998508387
 21
-536.3483272994066
 31
0.0
  0
LINE
  5
22BAE
330
18
100
AcDbEntity
  8
0
100
AcDbLine
 10
179.1116998508387
 20
-537.9483272994065
 30
0.0
 11
178.6116998508387
 21
-537.8483261360088
 31
0.0
  0
LINE
  5
22BAF
330
18
100
AcDbEntity
  8
0
100
AcDbLine
 10
179.1116998508387
 20
-536.3483272994066
 30
0.0
 11
178.6116998508387
 21
-536.2483261360089
 31
0.0
  0
LINE
  5
22BB0
330
18
100
AcDbEntity
  8
0
100
AcDbLine
 10
175.1116998508387
 20
-538.7483179922248
 30
0.0
 11
179.1116998508387
 21
-537.9483272994065
 31
0.0
  0
LINE
  5
22BB1
330
18
100
AcDbEntity
  8
0
100
AcDbLine
 10
175.6116998508387
 20
-535.6483191556182
 30
0.0
 11
175.1116998508387
 21
-535.5483179922205
 31
0.0
  0
LINE
  5
22BB2
330
18
100
AcDbEntity
  8
0
100
AcDbLine
 10
175.6116998508387
 20
-542.0483191556223
 30
0.0
 11
175.1116998508387
 21
-541.9483179922246
 31
0.0
  0
LINE
  5
22BB3
330
18
100
AcDbEntity
  8
0
100
AcDbLine
 10
175.1116998508387
 20
-541.9483179922246
 30
0.0
 11
179.1116998508387
 21
-541.1483272994063
 31
0.0
  0
LINE
  5
22BB4
330
18
100
AcDbEntity
  8
0
100
AcDbLine
 10
179.1116998508387
 20
-541.1483272994063
 30
0.0
 11
178.6116998508387
 21
-541.0483261360087
 31
0.0
  0
LINE
  5
22BB5
330
18
100
AcDbEntity
  8
0
100
AcDbLine
 10
175.6116998508387
 20
-543.6483191556222
 30
0.0
 11
175.1116998508387
 21
-543.5483179922245
 31
0.0
  0
LINE
  5
22BB6
330
18
100
AcDbEntity
  8
0
100
AcDbLine
 10
175.1116998508387
 20
-543.5483179922245
 30
0.0
 11
179.1116998508387
 21
-542.7483272994062
 31
0.0
  0
LINE
  5
22BB7
330
18
100
AcDbEntity
  8
0
100
AcDbLine
 10
179.1116998508387
 20
-542.7483272994062
 30
0.0
 11
178.6116998508387
 21
-542.6483261360086
 31
0.0
  0
LINE
  5
22BB8
330
18
100
AcDbEntity
  8
0
100
AcDbLine
 10
175.6116998508387
 20
-545.2483191556221
 30
0.0
 11
175.1116998508387
 21
-545.1483179922244
 31
0.0
  0
LINE
  5
22BB9
330
18
100
AcDbEntity
  8
0
100
AcDbLine
 10
175.1116998508387
 20
-545.1483179922244
 30
0.0
 11
179.1116998508387
 21
-544.3483272994062
 31
0.0
  0
LINE
  5
22BBA
330
18
100
AcDbEntity
  8
0
100
AcDbLine
 10
179.1116998508387
 20
-544.3483272994062
 30
0.0
 11
178.6116998508387
 21
-544.2483261360085
 31
0.0
  0
LINE
  5
22BBB
330
18
100
AcDbEntity
  8
0
100
AcDbLine
 10
770.9116533147643
 20
-651.1204504538069
 30
0.0
 11
765.6116568049026
 21
-649.6204504538069
 31
0.0
  0
LINE
  5
22BBC
330
18
100
AcDbEntity
  8
0
100
AcDbLine
 10
765.6116568049026
 20
-649.6204504538069
 30
0.0
 11
735.9116568050107
 21
-649.6204504538072
 31
0.0
  0
LINE
  5
22BBD
330
18
100
AcDbEntity
  8
0
100
AcDbLine
 10
770.9116533147643
 20
-651.1204504538069
 30
0.0
 11
765.611649824519
 21
-652.620450453807
 31
0.0
  0
LINE
  5
22BBE
330
18
100
AcDbEntity
  8
0
100
AcDbLine
 10
735.9116614587089
 20
-647.6204039179091
 30
0.0
 11
735.9116451711444
 21
-654.620403917909
 31
0.0
  0
LINE
  5
22BBF
330
18
100
AcDbEntity
  8
0
100
AcDbLine
 10
765.611649824519
 20
-652.620450453807
 30
0.0
 11
735.911649824626
 21
-652.6204504538072
 31
0.0
  0
LINE
  5
22BC0
330
18
100
AcDbEntity
  8
0
100
AcDbLine
 10
735.9116614587089
 20
-647.6204039179091
 30
0.0
 11
734.8116579685135
 21
-647.620403917909
 31
0.0
  0
ARC
  5
22BC1
330
18
100
AcDbEntity
  8
0
100
AcDbCircle
 10
734.8116579685135
 20
-649.120403917909
 30
0.0
 40
1.5
100
AcDbArc
 50
90.0
 51
179.9998666844663
  0
LINE
  5
22BC2
330
18
100
AcDbEntity
  8
0
100
AcDbLine
 10
735.9116451711444
 20
-654.620403917909
 30
0.0
 11
734.8116486613338
 21
-654.620403917909
 31
0.0
  0
LINE
  5
22BC3
330
18
100
AcDbEntity
  8
0
100
AcDbLine
 10
733.3116579685176
 20
-649.1204004277166
 30
0.0
 11
733.3116486613379
 21
-653.1204004277166
 31
0.0
  0
ARC
  5
22BC4
330
18
100
AcDbEntity
  8
0
100
AcDbCircle
 10
734.8116486613338
 20
-653.120403917909
 30
0.0
 40
1.5
100
AcDbArc
 50
179.9998666844663
 51
270.0
  0
LINE
  5
22BC5
330
18
100
AcDbEntity
  8
1CENTER
100
AcDbLine
 10
772.3424482322297
 20
-651.120403917909
 30
0.0
 11
732.2413769056178
 21
-651.120403917909
 31
0.0
  0
LINE
  5
22BC6
330
18
100
AcDbEntity
  8
0
100
AcDbLine
 10
768.8116558610865
 20
-650.026080103914
 30
0.0
 11
769.6116512951374
 21
-651.9884151927894
 31
0.0
  0
LINE
  5
22BC7
330
18
100
AcDbEntity
  8
0
100
AcDbLine
 10
769.6116512951374
 20
-651.9884151927894
 30
0.0
 11
769.9234211513896
 21
-651.400138617747
 31
0.0
  0
LINE
  5
22BC8
330
18
100
AcDbEntity
  8
0
100
AcDbLine
 10
746.4116579682965
 20
-649.1204504538069
 30
0.0
 11
747.2116486611147
 21
-653.1204504538069
 31
0.0
  0
LINE
  5
22BC9
330
18
100
AcDbEntity
  8
0
100
AcDbLine
 10
757.6116579683008
 20
-649.1204504538069
 30
0.0
 11
758.4116486611234
 21
-653.1204504538069
 31
0.0
  0
LINE
  5
22BCA
330
18
100
AcDbEntity
  8
0
100
AcDbLine
 10
760.8116579683009
 20
-649.1204504538069
 30
0.0
 11
761.6116486611235
 21
-653.1204504538069
 31
0.0
  0
LINE
  5
22BCB
330
18
100
AcDbEntity
  8
0
100
AcDbLine
 10
761.6116486611235
 20
-653.1204504538069
 30
0.0
 11
761.7116498245207
 21
-652.6204504538069
 31
0.0
  0
LINE
  5
22BCC
330
18
100
AcDbEntity
  8
0
100
AcDbLine
 10
762.3116568049037
 20
-649.6204504538069
 30
0.0
 11
762.4116579683009
 21
-649.1204504538069
 31
0.0
  0
LINE
  5
22BCD
330
18
100
AcDbEntity
  8
0
100
AcDbLine
 10
758.4116486611234
 20
-653.1204504538069
 30
0.0
 11
758.5116498245206
 21
-652.6204504538069
 31
0.0
  0
LINE
  5
22BCE
330
18
100
AcDbEntity
  8
0
100
AcDbLine
 10
760.0116486611236
 20
-653.1204504538069
 30
0.0
 11
760.1116498245207
 21
-652.6204504538069
 31
0.0
  0
LINE
  5
22BCF
330
18
100
AcDbEntity
  8
0
100
AcDbLine
 10
760.7116568049038
 20
-649.6204504538069
 30
0.0
 11
760.8116579683009
 21
-649.1204504538069
 31
0.0
  0
LINE
  5
22BD0
330
18
100
AcDbEntity
  8
0
100
AcDbLine
 10
759.1116568049039
 20
-649.6204504538069
 30
0.0
 11
759.211657968301
 21
-649.1204504538069
 31
0.0
  0
LINE
  5
22BD1
330
18
100
AcDbEntity
  8
0
100
AcDbLine
 10
759.211657968301
 20
-649.1204504538069
 30
0.0
 11
760.0116486611236
 21
-653.1204504538069
 31
0.0
  0
LINE
  5
22BD2
330
18
100
AcDbEntity
  8
0
100
AcDbLine
 10
768.0116502415318
 20
-652.4412292971962
 30
0.0
 11
768.1944143841598
 21
-651.8894798333929
 31
0.0
  0
LINE
  5
22BD3
330
18
100
AcDbEntity
  8
0
100
AcDbLine
 10
764.8116486611235
 20
-653.1204504538069
 30
0.0
 11
764.9116498245206
 21
-652.6204504538069
 31
0.0
  0
LINE
  5
22BD4
330
18
100
AcDbEntity
  8
0
100
AcDbLine
 10
763.2116486611235
 20
-653.1204504538069
 30
0.0
 11
763.3116498245205
 21
-652.6204504538069
 31
0.0
  0
LINE
  5
22BD5
330
18
100
AcDbEntity
  8
0
100
AcDbLine
 10
766.4116491879262
 20
-652.894043401603
 30
0.0
 11
766.540919885556
 21
-652.3574496663318
 31
0.0
  0
LINE
  5
22BD6
330
18
100
AcDbEntity
  8
0
100
AcDbLine
 10
767.0988874023407
 20
-650.0413650510156
 30
0.0
 11
767.2116569146907
 21
-649.5732665958657
 31
0.0
  0
LINE
  5
22BD7
330
18
100
AcDbEntity
  8
0
100
AcDbLine
 10
763.9116568049038
 20
-649.6204504538069
 30
0.0
 11
764.0116579683009
 21
-649.1204504538069
 31
0.0
  0
LINE
  5
22BD8
330
18
100
AcDbEntity
  8
0
100
AcDbLine
 10
765.5116568049037
 20
-649.6204504538069
 30
0.0
 11
765.6116579683008
 21
-649.1204504538069
 31
0.0
  0
LINE
  5
22BD9
330
18
100
AcDbEntity
  8
0
100
AcDbLine
 10
768.6602200646461
 20
-650.483251944545
 30
0.0
 11
768.8116558610865
 21
-650.026080103914
 31
0.0
  0
LINE
  5
22BDA
330
18
100
AcDbEntity
  8
0
100
AcDbLine
 10
767.2116569146907
 20
-649.5732665958657
 30
0.0
 11
768.0116502415318
 21
-652.4412292971962
 31
0.0
  0
LINE
  5
22BDB
330
18
100
AcDbEntity
  8
0
100
AcDbLine
 10
764.0116579683009
 20
-649.1204504538069
 30
0.0
 11
764.8116486611235
 21
-653.1204504538069
 31
0.0
  0
LINE
  5
22BDC
330
18
100
AcDbEntity
  8
0
100
AcDbLine
 10
765.6116579683008
 20
-649.1204504538069
 30
0.0
 11
766.4116491879262
 21
-652.894043401603
 31
0.0
  0
LINE
  5
22BDD
330
18
100
AcDbEntity
  8
0
100
AcDbLine
 10
762.4116579683009
 20
-649.1204504538069
 30
0.0
 11
763.2116486611235
 21
-653.1204504538069
 31
0.0
  0
LINE
  5
22BDE
330
18
100
AcDbEntity
  8
0
100
AcDbLine
 10
749.6116579682965
 20
-649.1204504538069
 30
0.0
 11
750.4116486611148
 21
-653.1204504538069
 31
0.0
  0
LINE
  5
22BDF
330
18
100
AcDbEntity
  8
0
100
AcDbLine
 10
750.4116486611148
 20
-653.1204504538069
 30
0.0
 11
750.5116498245125
 21
-652.6204504538069
 31
0.0
  0
LINE
  5
22BE0
330
18
100
AcDbEntity
  8
0
100
AcDbLine
 10
751.1116568049032
 20
-649.6204504538069
 30
0.0
 11
751.2116579683009
 21
-649.1204504538069
 31
0.0
  0
LINE
  5
22BE1
330
18
100
AcDbEntity
  8
0
100
AcDbLine
 10
748.8116486611146
 20
-653.1204504538069
 30
0.0
 11
748.9116498245123
 21
-652.6204504538069
 31
0.0
  0
LINE
  5
22BE2
330
18
100
AcDbEntity
  8
0
100
AcDbLine
 10
747.2116486611147
 20
-653.1204504538069
 30
0.0
 11
747.3116498245124
 21
-652.6204504538069
 31
0.0
  0
LINE
  5
22BE3
330
18
100
AcDbEntity
  8
0
100
AcDbLine
 10
749.5116568048988
 20
-649.6204504538069
 30
0.0
 11
749.6116579682965
 21
-649.1204504538069
 31
0.0
  0
LINE
  5
22BE4
330
18
100
AcDbEntity
  8
0
100
AcDbLine
 10
747.9116568048987
 20
-649.6204504538069
 30
0.0
 11
748.0116579682964
 21
-649.1204504538069
 31
0.0
  0
LINE
  5
22BE5
330
18
100
AcDbEntity
  8
0
100
AcDbLine
 10
748.0116579682964
 20
-649.1204504538069
 30
0.0
 11
748.8116486611146
 21
-653.1204504538069
 31
0.0
  0
LINE
  5
22BE6
330
18
100
AcDbEntity
  8
0
100
AcDbLine
 10
755.2116486611192
 20
-653.1204504538069
 30
0.0
 11
755.3116498245168
 21
-652.6204504538069
 31
0.0
  0
LINE
  5
22BE7
330
18
100
AcDbEntity
  8
0
100
AcDbLine
 10
756.8116486611235
 20
-653.1204504538069
 30
0.0
 11
756.9116498245206
 21
-652.6204504538069
 31
0.0
  0
LINE
  5
22BE8
330
18
100
AcDbEntity
  8
0
100
AcDbLine
 10
752.0116486611191
 20
-653.1204504538069
 30
0.0
 11
752.1116498245168
 21
-652.6204504538069
 31
0.0
  0
LINE
  5
22BE9
330
18
100
AcDbEntity
  8
0
100
AcDbLine
 10
753.611648661119
 20
-653.1204504538069
 30
0.0
 11
753.7116498245167
 21
-652.6204504538069
 31
0.0
  0
LINE
  5
22BEA
330
18
100
AcDbEntity
  8
0
100
AcDbLine
 10
757.5116568049037
 20
-649.6204504538069
 30
0.0
 11
757.6116579683008
 21
-649.1204504538069
 31
0.0
  0
LINE
  5
22BEB
330
18
100
AcDbEntity
  8
0
100
AcDbLine
 10
755.9116568049031
 20
-649.6204504538069
 30
0.0
 11
756.0116579683009
 21
-649.1204504538069
 31
0.0
  0
LINE
  5
22BEC
330
18
100
AcDbEntity
  8
0
100
AcDbLine
 10
752.7116568049031
 20
-649.6204504538069
 30
0.0
 11
752.8116579683008
 21
-649.1204504538069
 31
0.0
  0
LINE
  5
22BED
330
18
100
AcDbEntity
  8
0
100
AcDbLine
 10
754.3116568049032
 20
-649.6204504538069
 30
0.0
 11
754.4116579683009
 21
-649.1204504538069
 31
0.0
  0
LINE
  5
22BEE
330
18
100
AcDbEntity
  8
0
100
AcDbLine
 10
754.4116579683009
 20
-649.1204504538069
 30
0.0
 11
755.2116486611192
 21
-653.1204504538069
 31
0.0
  0
LINE
  5
22BEF
330
18
100
AcDbEntity
  8
0
100
AcDbLine
 10
756.0116579683009
 20
-649.1204504538069
 30
0.0
 11
756.8116486611235
 21
-653.1204504538069
 31
0.0
  0
LINE
  5
22BF0
330
18
100
AcDbEntity
  8
0
100
AcDbLine
 10
752.8116579683008
 20
-649.1204504538069
 30
0.0
 11
753.611648661119
 21
-653.1204504538069
 31
0.0
  0
LINE
  5
22BF1
330
18
100
AcDbEntity
  8
0
100
AcDbLine
 10
751.2116579683009
 20
-649.1204504538069
 30
0.0
 11
752.0116486611191
 21
-653.1204504538069
 31
0.0
  0
LINE
  5
22BF2
330
18
100
AcDbEntity
  8
0
100
AcDbLine
 10
741.5116568048946
 20
-649.6204504538069
 30
0.0
 11
741.6116579682923
 21
-649.1204504538069
 31
0.0
  0
LINE
  5
22BF3
330
18
100
AcDbEntity
  8
0
100
AcDbLine
 10
741.6116579682923
 20
-649.1204504538069
 30
0.0
 11
742.4116486611106
 21
-653.1204504538069
 31
0.0
  0
LINE
  5
22BF4
330
18
100
AcDbEntity
  8
0
100
AcDbLine
 10
742.4116486611106
 20
-653.1204504538069
 30
0.0
 11
742.5116498245083
 21
-652.6204504538069
 31
0.0
  0
LINE
  5
22BF5
330
18
100
AcDbEntity
  8
0
100
AcDbLine
 10
743.1116568048946
 20
-649.6204504538069
 30
0.0
 11
743.2116579682922
 21
-649.1204504538069
 31
0.0
  0
LINE
  5
22BF6
330
18
100
AcDbEntity
  8
0
100
AcDbLine
 10
744.7116568048945
 20
-649.6204504538069
 30
0.0
 11
744.8116579682921
 21
-649.1204504538069
 31
0.0
  0
LINE
  5
22BF7
330
18
100
AcDbEntity
  8
0
100
AcDbLine
 10
744.8116579682921
 20
-649.1204504538069
 30
0.0
 11
745.6116486611104
 21
-653.1204504538069
 31
0.0
  0
LINE
  5
22BF8
330
18
100
AcDbEntity
  8
0
100
AcDbLine
 10
744.0116486611105
 20
-653.1204504538069
 30
0.0
 11
744.1116498245082
 21
-652.6204504538069
 31
0.0
  0
LINE
  5
22BF9
330
18
100
AcDbEntity
  8
0
100
AcDbLine
 10
745.6116486611104
 20
-653.1204504538069
 30
0.0
 11
745.7116498245081
 21
-652.6204504538069
 31
0.0
  0
LINE
  5
22BFA
330
18
100
AcDbEntity
  8
0
100
AcDbLine
 10
743.2116579682922
 20
-649.1204504538069
 30
0.0
 11
744.0116486611105
 21
-653.1204504538069
 31
0.0
  0
LINE
  5
22BFB
330
18
100
AcDbEntity
  8
0
100
AcDbLine
 10
746.3116568048988
 20
-649.6204504538069
 30
0.0
 11
746.4116579682965
 21
-649.1204504538069
 31
0.0
  0
LINE
  5
22BFC
330
18
100
AcDbEntity
  8
0
100
AcDbLine
 10
739.9116568048947
 20
-649.6204504538069
 30
0.0
 11
740.0116579682924
 21
-649.1204504538069
 31
0.0
  0
LINE
  5
22BFD
330
18
100
AcDbEntity
  8
0
100
AcDbLine
 10
740.0116579682924
 20
-649.1204504538069
 30
0.0
 11
740.8116486611107
 21
-653.1204504538069
 31
0.0
  0
LINE
  5
22BFE
330
18
100
AcDbEntity
  8
0
100
AcDbLine
 10
740.8116486611107
 20
-653.1204504538069
 30
0.0
 11
740.9116498245083
 21
-652.6204504538069
 31
0.0
  0
LINE
  5
22BFF
330
18
100
AcDbEntity
  8
0
100
AcDbLine
 10
738.3116568048948
 20
-649.6204504538069
 30
0.0
 11
738.4116579682925
 21
-649.1204504538069
 31
0.0
  0
LINE
  5
22C00
330
18
100
AcDbEntity
  8
0
100
AcDbLine
 10
738.4116579682925
 20
-649.1204504538069
 30
0.0
 11
739.2116486611108
 21
-653.1204504538069
 31
0.0
  0
LINE
  5
22C01
330
18
100
AcDbEntity
  8
0
100
AcDbLine
 10
739.2116486611108
 20
-653.1204504538069
 30
0.0
 11
739.3116498245084
 21
-652.6204504538069
 31
0.0
  0
LINE
  5
22C02
330
18
100
AcDbEntity
  8
0
100
AcDbLine
 10
736.7116568048949
 20
-649.6204504538069
 30
0.0
 11
736.8116579682926
 21
-649.1204504538069
 31
0.0
  0
LINE
  5
22C03
330
18
100
AcDbEntity
  8
0
100
AcDbLine
 10
736.8116579682926
 20
-649.1204504538069
 30
0.0
 11
737.6116486611108
 21
-653.1204504538069
 31
0.0
  0
LINE
  5
22C04
330
18
100
AcDbEntity
  8
0
100
AcDbLine
 10
737.6116486611108
 20
-653.1204504538069
 30
0.0
 11
737.7116498245085
 21
-652.6204504538069
 31
0.0
  0
LINE
  5
22C05
330
18
100
AcDbEntity
  8
1DIM1
100
AcDbLine
 10
177.1116533745462
 20
-651.120550262144
 30
0.0
 11
177.1116533745462
 21
-699.7205502621448
 31
0.0
1001
ACAD
1000
DSTYLE
1002
{
1070
    40
1040
3.0
1070
    45
1040
0.5
1002
}
  0
LINE
  5
22C06
330
18
100
AcDbEntity
  8
1DIM1
100
AcDbLine
 10
627.1116533745453
 20
-651.120550262144
 30
0.0
 11
627.1116533745453
 21
-699.7205502621448
 31
0.0
1001
ACAD
1000
DSTYLE
1002
{
1070
    40
1040
3.0
1070
    45
1040
0.5
1002
}
  0
LINE
  5
22C07
330
18
100
AcDbEntity
  8
1DIM1
100
AcDbLine
 10
183.1116533745462
 20
-696.7205502621448
 30
0.0
 11
621.1116533745453
 21
-696.7205502621448
 31
0.0
1001
ACAD
1000
DSTYLE
1002
{
1070
    40
1040
3.0
1070
    45
1040
0.5
1002
}
  0
TEXT
  5
22C0B
330
18
100
AcDbEntity
  8
1DIM
  6
CONTINUOUS
100
AcDbText
 10
587.0257785807792
 20
-628.8808628266513
 30
0.0
 40
3.5
  1
材質：ステンレス
100
AcDbText
  0
TEXT
  5
22C0C
330
18
100
AcDbEntity
  8
1DIM
  6
CONTINUOUS
100
AcDbText
 10
587.1424452474458
 20
-634.7141961599847
 30
0.0
 40
3.5
  1
仕上げ：鏡面
100
AcDbText
  0
LINE
  5
22C0E
330
18
100
AcDbEntity
  8
1DIM
100
AcDbLine
 10
569.2049462462064
 20
-650.5017646685158
 30
0.0
 11
584.5591119141125
 21
-635.4141961599847
 31
0.0
1001
ACAD
1000
DSTYLE
1002
{
1070
    45
1040
0.5
1002
}
  0
LINE
  5
22C0F
330
18
100
AcDbEntity
  8
1DIM
100
AcDbLine
 10
584.5591119141125
 20
-635.4141961599847
 30
0.0
 11
619.5757785807791
 21
-635.4141961599847
 31
0.0
1001
ACAD
1000
DSTYLE
1002
{
1070
    45
1040
0.5
1002
}
  0
TEXT
  5
22C10
330
18
100
AcDbEntity
  8
1DIM
  6
CONTINUOUS
100
AcDbText
 10
563.9969409605288
 20
-679.942571905563
 30
0.0
 40
3.5
  1
材質：亜鉛ダイキャスト
100
AcDbText
  0
TEXT
  5
22C11
330
18
100
AcDbEntity
  8
1DIM
  6
CONTINUOUS
100
AcDbText
 10
575.8969409605289
 20
-685.7759052388964
 30
0.0
 40
3.5
  1
仕上げ：クローム
100
AcDbText
  0
LINE
  5
22C13
330
18
100
AcDbEntity
  8
1DIM
100
AcDbLine
 10
619.6459977326365
 20
-672.8435224381838
 30
0.0
 11
611.496940960529
 21
-686.4759052388964
 31
0.0
1001
ACAD
1000
DSTYLE
1002
{
1070
    45
1040
0.5
1002
}
  0
LINE
  5
22C14
330
18
100
AcDbEntity
  8
1DIM
100
AcDbLine
 10
611.496940960529
 20
-686.4759052388964
 30
0.0
 11
564.2302742938623
 21
-686.4759052388964
 31
0.0
1001
ACAD
1000
DSTYLE
1002
{
1070
    45
1040
0.5
1002
}
  0
LINE
  5
22C15
330
18
100
AcDbEntity
  8
1DIM
100
AcDbLine
 10
679.3390059394138
 20
-658.709784726905
 30
0.0
 11
679.3390059394138
 21
-699.0344907136549
 31
0.0
1001
ACAD
1000
DSTYLE
1002
{
1070
    45
1040
0.5
1002
}
  0
LINE
  5
22C16
330
18
100
AcDbEntity
  8
1DIM
100
AcDbLine
 10
739.1116533149267
 20
-688.3485775062952
 30
0.0
 11
739.1116533149267
 21
-699.0344907136549
 31
0.0
1001
ACAD
1000
DSTYLE
1002
{
1070
    45
1040
0.5
1002
}
  0
LINE
  5
22C17
330
18
100
AcDbEntity
  8
1DIM
100
AcDbLine
 10
681.3390059394138
 20
-698.0344907136549
 30
0.0
 11
737.1116533149267
 21
-698.0344907136549
 31
0.0
1001
ACAD
1000
DSTYLE
1002
{
1070
    45
1040
0.5
1002
}
  0
LINE
  5
22C1B
330
18
100
AcDbEntity
  8
1DIM
100
AcDbLine
 10
739.1116533149267
 20
-688.3485775062952
 30
0.0
 11
739.1116533149267
 21
-692.2086737229223
 31
0.0
1001
ACAD
1000
DSTYLE
1002
{
1070
    45
1040
0.5
1002
}
  0
LINE
  5
22C1C
330
18
100
AcDbEntity
  8
1DIM
100
AcDbLine
 10
720.9116157808068
 20
-661.5601512912107
 30
0.0
 11
720.9116157808068
 21
-692.2086737229223
 31
0.0
1001
ACAD
1000
DSTYLE
1002
{
1070
    45
1040
0.5
1002
}
  0
LINE
  5
22C1D
330
18
100
AcDbEntity
  8
1DIM
100
AcDbLine
 10
737.1116533149267
 20
-691.2086737229223
 30
0.0
 11
722.9116157808068
 21
-691.2086737229223
 31
0.0
1001
ACAD
1000
DSTYLE
1002
{
1070
    45
1040
0.5
1002
}
  0
LINE
  5
22C21
330
18
100
AcDbEntity
  8
1DIM
100
AcDbLine
 10
772.5424482322297
 20
-651.120403917909
 30
0.0
 11
781.6116533149267
 21
-651.120403917909
 31
0.0
1001
ACAD
1000
DSTYLE
1002
{
1070
    45
1040
0.5
1070
   271
1070
     0
1002
}
  0
LINE
  5
22C22
330
18
100
AcDbEntity
  8
1DIM
100
AcDbLine
 10
739.1116533149374
 20
-642.8207452876231
 30
0.0
 11
781.6116533149267
 21
-642.8207452876231
 31
0.0
1001
ACAD
1000
DSTYLE
1002
{
1070
    45
1040
0.5
1070
   271
1070
     0
1002
}
  0
LINE
  5
22C23
330
18
100
AcDbEntity
  8
1DIM
100
AcDbLine
 10
780.6116533149267
 20
-649.120403917909
 30
0.0
 11
780.6116533149267
 21
-644.8207452876231
 31
0.0
1001
ACAD
1000
DSTYLE
1002
{
1070
    45
1040
0.5
1070
   271
1070
     0
1002
}
  0
LINE
  5
22C27
330
18
100
AcDbEntity
  8
1DIM1
100
AcDbLine
 10
165.1116533745457
 20
-651.4885169189482
 30
0.0
 11
165.1116533745457
 21
-729.7205502621448
 31
0.0
1001
ACAD
1000
DSTYLE
1002
{
1070
    40
1040
3.0
1070
    45
1040
0.5
1002
}
  0
LINE
  5
22C28
330
18
100
AcDbEntity
  8
1DIM1
100
AcDbLine
 10
639.1116533745314
 20
-651.1205502621436
 30
0.0
 11
639.1116533745314
 21
-729.7205502621448
 31
0.0
1001
ACAD
1000
DSTYLE
1002
{
1070
    40
1040
3.0
1070
    45
1040
0.5
1002
}
  0
LINE
  5
22C29
330
18
100
AcDbEntity
  8
1DIM1
100
AcDbLine
 10
171.1116533745457
 20
-726.7205502621448
 30
0.0
 11
633.1116533745314
 21
-726.7205502621448
 31
0.0
1001
ACAD
1000
DSTYLE
1002
{
1070
    40
1040
3.0
1070
    45
1040
0.5
1002
}
  0
LINE
  5
22C2D
330
18
100
AcDbEntity
  8
1DIM
100
AcDbLine
 10
739.1169962620226
 20
-671.1203967842303
 30
0.0
 11
791.6116533149267
 21
-671.1203967842303
 31
0.0
1001
ACAD
1000
DSTYLE
1002
{
1070
    45
1040
0.5
1002
}
  0
LINE
  5
22C2E
330
18
100
AcDbEntity
  8
1DIM
100
AcDbLine
 10
739.1116533149374
 20
-642.8207452876231
 30
0.0
 11
791.6116533149267
 21
-642.8207452876231
 31
0.0
1001
ACAD
1000
DSTYLE
1002
{
1070
    45
1040
0.5
1002
}
  0
LINE
  5
22C2F
330
18
100
AcDbEntity
  8
1DIM
100
AcDbLine
 10
790.6116533149267
 20
-669.1203967842303
 30
0.0
 11
790.6116533149267
 21
-644.8207452876231
 31
0.0
1001
ACAD
1000
DSTYLE
1002
{
1070
    45
1040
0.5
1002
}
  0
LINE
  5
22C33
330
18
100
AcDbEntity
  8
1DIM
100
AcDbLine
 10
639.1116534192913
 20
-543.0483226455898
 30
0.0
 11
639.1116534192913
 21
-507.0483226455898
 31
0.0
1001
ACAD
1000
DSTYLE
1002
{
1070
    45
1040
0.5
1002
}
  0
LINE
  5
22C34
330
18
100
AcDbEntity
  8
1DIM
100
AcDbLine
 10
615.1116533339837
 20
-543.0483226455898
 30
0.0
 11
615.1116533339837
 21
-507.0483226455898
 31
0.0
1001
ACAD
1000
DSTYLE
1002
{
1070
    45
1040
0.5
1002
}
  0
LINE
  5
22C35
330
18
100
AcDbEntity
  8
1DIM
100
AcDbLine
 10
637.1116534192913
 20
-508.0483226455898
 30
0.0
 11
617.1116533339837
 21
-508.0483226455898
 31
0.0
1001
ACAD
1000
DSTYLE
1002
{
1070
    45
1040
0.5
1002
}
  0
LINE
  5
22C3A
330
18
100
AcDbEntity
  8
1DIM
100
AcDbLine
 10
742.4401760179194
 20
-620.1653609293642
 30
0.0
 11
745.1491688257491
 21
-607.3893348738942
 31
0.0
1001
ACAD
1000
DSTYLE
1002
{
1070
    45
1040
0.5
1002
}
  0
LINE
  5
22C3C
330
18
100
AcDbEntity
  8
1DIM
100
AcDbLine
 10
755.5755941630846
 20
-620.1653609293642
 30
0.0
 11
758.2845869709143
 21
-607.3893348738942
 31
0.0
1001
ACAD
1000
DSTYLE
1002
{
1070
    45
1040
0.5
1002
}
  0
TEXT
  5
22C3D
330
18
100
AcDbEntity
  8
1DIM
  6
CONTINUOUS
100
AcDbText
 10
636.2993285488644
 20
-623.5968694631773
 30
0.0
 40
3.5
  1
材質：亜鉛ダイキャスト
100
AcDbText
  0
TEXT
  5
22C3E
330
18
100
AcDbEntity
  8
1DIM
  6
CONTINUOUS
100
AcDbText
 10
636.4159952155311
 20
-629.4302027965107
 30
0.0
 40
3.5
  1
仕上げ：クローム
100
AcDbText
  0
LINE
  5
22C40
330
18
100
AcDbEntity
  8
1DIM
100
AcDbLine
 10
628.0477104730318
 20
-641.053123571055
 30
0.0
 11
633.8326618821977
 21
-630.1302027965107
 31
0.0
1001
ACAD
1000
DSTYLE
1002
{
1070
    45
1040
0.5
1002
}
  0
LINE
  5
22C41
330
18
100
AcDbEntity
  8
1DIM
100
AcDbLine
 10
633.8326618821977
 20
-630.1302027965107
 30
0.0
 11
681.0993285488644
 21
-630.1302027965107
 31
0.0
1001
ACAD
1000
DSTYLE
1002
{
1070
    45
1040
0.5
1002
}
  0
LINE
  5
22C43
330
18
100
AcDbEntity
  8
1DIM
100
AcDbLine
 10
568.7886721474739
 20
-599.5822859395629
 30
0.0
 11
583.4039715458725
 21
-617.9884090853071
 31
0.0
  0
LINE
  5
22C44
330
18
100
AcDbEntity
  8
0
  6
BYBLOCK
100
AcDbLine
 10
183.1116533745462
 20
-698.3282454021448
 30
0.0
 11
177.1116533745462
 21
-696.7205502621448
 31
0.0
  0
LINE
  5
22C45
330
18
100
AcDbEntity
  8
0
  6
BYBLOCK
100
AcDbLine
 10
177.1116533745462
 20
-696.7205502621448
 30
0.0
 11
183.1116533745462
 21
-695.1128551221448
 31
0.0
  0
LINE
  5
22C46
330
18
100
AcDbEntity
  8
0
  6
BYBLOCK
100
AcDbLine
 10
177.1116533745462
 20
-696.7205502621448
 30
0.0
 11
183.1116533745462
 21
-696.7205502621448
 31
0.0
  0
LINE
  5
22C47
330
18
100
AcDbEntity
  8
0
  6
BYBLOCK
100
AcDbLine
 10
621.1116533745453
 20
-695.1128551221448
 30
0.0
 11
627.1116533745453
 21
-696.7205502621448
 31
0.0
  0
LINE
  5
22C48
330
18
100
AcDbEntity
  8
0
  6
BYBLOCK
100
AcDbLine
 10
627.1116533745453
 20
-696.7205502621448
 30
0.0
 11
621.1116533745453
 21
-698.3282454021448
 31
0.0
  0
LINE
  5
22C49
330
18
100
AcDbEntity
  8
0
  6
BYBLOCK
100
AcDbLine
 10
627.1116533745453
 20
-696.7205502621448
 30
0.0
 11
621.1116533745453
 21
-696.7205502621448
 31
0.0
  0
TEXT
  5
22C4A
330
18
100
AcDbEntity
  8
1DIM1
  6
CONTINUOUS
100
AcDbText
 10
383.4814450412125
 20
-694.6205502621448
 30
0.0
 40
10.5
  1
P450
100
AcDbText
1001
ACAD
1000
DSTYLE
1002
{
1070
    40
1040
3.0
1070
    45
1040
0.5
1002
}
  0
LINE
  5
22C4B
330
18
100
AcDbEntity
  8
0
  6
BYBLOCK
100
AcDbLine
 10
569.5805506315403
 20
-650.8840059789527
 30
0.0
 11
567.7784022419607
 21
-651.9035393308459
 31
0.0
  0
LINE
  5
22C4C
330
18
100
AcDbEntity
  8
0
  6
BYBLOCK
100
AcDbLine
 10
567.7784022419607
 20
-651.9035393308459
 30
0.0
 11
568.8293418608725
 21
-650.1195233580787
 31
0.0
  0
LINE
  5
22C4D
330
18
100
AcDbEntity
  8
0
  6
BYBLOCK
100
AcDbLine
 10
567.7784022419607
 20
-651.9035393308459
 30
0.0
 11
569.2049462462064
 21
-650.5017646685158
 31
0.0
  0
LINE
  5
22C4E
330
18
100
AcDbEntity
  8
0
  6
BYBLOCK
100
AcDbLine
 10
619.1860171474887
 20
-672.5685589224701
 30
0.0
 11
620.6721755528181
 21
-671.1268515083409
 31
0.0
  0
LINE
  5
22C4F
330
18
100
AcDbEntity
  8
0
  6
BYBLOCK
100
AcDbLine
 10
620.6721755528181
 20
-671.1268515083409
 30
0.0
 11
620.1059783177844
 21
-673.1184859538973
 31
0.0
  0
LINE
  5
22C50
330
18
100
AcDbEntity
  8
0
  6
BYBLOCK
100
AcDbLine
 10
620.6721755528181
 20
-671.1268515083409
 30
0.0
 11
619.6459977326365
 21
-672.8435224381838
 31
0.0
  0
LINE
  5
22C51
330
18
100
AcDbEntity
  8
0
  6
BYBLOCK
100
AcDbLine
 10
681.3390059394138
 20
-698.570389093655
 30
0.0
 11
679.3390059394138
 21
-698.0344907136549
 31
0.0
  0
LINE
  5
22C52
330
18
100
AcDbEntity
  8
0
  6
BYBLOCK
100
AcDbLine
 10
679.3390059394138
 20
-698.0344907136549
 30
0.0
 11
681.3390059394138
 21
-697.4985923336549
 31
0.0
  0
LINE
  5
22C53
330
18
100
AcDbEntity
  8
0
  6
BYBLOCK
100
AcDbLine
 10
679.3390059394138
 20
-698.0344907136549
 30
0.0
 11
681.3390059394138
 21
-698.0344907136549
 31
0.0
  0
LINE
  5
22C54
330
18
100
AcDbEntity
  8
0
  6
BYBLOCK
100
AcDbLine
 10
737.1116533149267
 20
-697.4985923336549
 30
0.0
 11
739.1116533149267
 21
-698.0344907136549
 31
0.0
  0
LINE
  5
22C55
330
18
100
AcDbEntity
  8
0
  6
BYBLOCK
100
AcDbLine
 10
739.1116533149267
 20
-698.0344907136549
 30
0.0
 11
737.1116533149267
 21
-698.570389093655
 31
0.0
  0
LINE
  5
22C56
330
18
100
AcDbEntity
  8
0
  6
BYBLOCK
100
AcDbLine
 10
739.1116533149267
 20
-698.0344907136549
 30
0.0
 11
737.1116533149267
 21
-698.0344907136549
 31
0.0
  0
TEXT
  5
22C57
330
18
100
AcDbEntity
  8
1DIM
  6
CONTINUOUS
100
AcDbText
 10
706.5152601827258
 20
-697.3344907136549
 30
0.0
 40
3.5
  1
60
100
AcDbText
1001
ACAD
1000
DSTYLE
1002
{
1070
    45
1040
0.5
1002
}
  0
LINE
  5
22C58
330
18
100
AcDbEntity
  8
0
  6
BYBLOCK
100
AcDbLine
 10
737.1116533149267
 20
-690.6727753429223
 30
0.0
 11
739.1116533149267
 21
-691.2086737229223
 31
0.0
  0
LINE
  5
22C59
330
18
100
AcDbEntity
  8
0
  6
BYBLOCK
100
AcDbLine
 10
739.1116533149267
 20
-691.2086737229223
 30
0.0
 11
737.1116533149267
 21
-691.7445721029223
 31
0.0
  0
LINE
  5
22C5A
330
18
100
AcDbEntity
  8
0
  6
BYBLOCK
100
AcDbLine
 10
739.1116533149267
 20
-691.2086737229223
 30
0.0
 11
737.1116533149267
 21
-691.2086737229223
 31
0.0
  0
LINE
  5
22C5B
330
18
100
AcDbEntity
  8
0
  6
BYBLOCK
100
AcDbLine
 10
722.9116157808068
 20
-691.7445721029223
 30
0.0
 11
720.9116157808068
 21
-691.2086737229223
 31
0.0
  0
LINE
  5
22C5C
330
18
100
AcDbEntity
  8
0
  6
BYBLOCK
100
AcDbLine
 10
720.9116157808068
 20
-691.2086737229223
 30
0.0
 11
722.9116157808068
 21
-690.6727753429223
 31
0.0
  0
LINE
  5
22C5D
330
18
100
AcDbEntity
  8
0
  6
BYBLOCK
100
AcDbLine
 10
720.9116157808068
 20
-691.2086737229223
 30
0.0
 11
722.9116157808068
 21
-691.2086737229223
 31
0.0
  0
TEXT
  5
22C5E
330
18
100
AcDbEntity
  8
1DIM
  6
CONTINUOUS
100
AcDbText
 10
727.6783012145333
 20
-690.5086737229223
 30
0.0
 40
3.5
  1
18
100
AcDbText
1001
ACAD
1000
DSTYLE
1002
{
1070
    45
1040
0.5
1002
}
  0
LINE
  5
22C5F
330
18
100
AcDbEntity
  8
0
  6
BYBLOCK
100
AcDbLine
 10
781.1475516949267
 20
-649.120403917909
 30
0.0
 11
780.6116533149267
 21
-651.120403917909
 31
0.0
  0
LINE
  5
22C60
330
18
100
AcDbEntity
  8
0
  6
BYBLOCK
100
AcDbLine
 10
780.6116533149267
 20
-651.120403917909
 30
0.0
 11
780.0757549349266
 21
-649.120403917909
 31
0.0
  0
LINE
  5
22C61
330
18
100
AcDbEntity
  8
0
  6
BYBLOCK
100
AcDbLine
 10
780.6116533149267
 20
-651.120403917909
 30
0.0
 11
780.6116533149267
 21
-649.120403917909
 31
0.0
  0
LINE
  5
22C62
330
18
100
AcDbEntity
  8
0
  6
BYBLOCK
100
AcDbLine
 10
780.0757549349266
 20
-644.8207452876231
 30
0.0
 11
780.6116533149267
 21
-642.8207452876231
 31
0.0
  0
LINE
  5
22C63
330
18
100
AcDbEntity
  8
0
  6
BYBLOCK
100
AcDbLine
 10
780.6116533149267
 20
-642.8207452876231
 30
0.0
 11
781.1475516949267
 21
-644.8207452876231
 31
0.0
  0
LINE
  5
22C64
330
18
100
AcDbEntity
  8
0
  6
BYBLOCK
100
AcDbLine
 10
780.6116533149267
 20
-642.8207452876231
 30
0.0
 11
780.6116533149267
 21
-644.8207452876231
 31
0.0
  0
TEXT
  5
22C65
330
18
100
AcDbEntity
  8
1DIM
  6
CONTINUOUS
100
AcDbText
 10
779.9116533149266
 20
-648.138861639803
 30
0.0
 40
3.5
  1
9
 50
90.0
100
AcDbText
1001
ACAD
1000
DSTYLE
1002
{
1070
    45
1040
0.5
1070
   271
1070
     0
1002
}
  0
LINE
  5
22C66
330
18
100
AcDbEntity
  8
0
  6
BYBLOCK
100
AcDbLine
 10
171.1116533745457
 20
-728.3282454021448
 30
0.0
 11
165.1116533745457
 21
-726.7205502621448
 31
0.0
  0
LINE
  5
22C67
330
18
100
AcDbEntity
  8
0
  6
BYBLOCK
100
AcDbLine
 10
165.1116533745457
 20
-726.7205502621448
 30
0.0
 11
171.1116533745457
 21
-725.1128551221448
 31
0.0
  0
LINE
  5
22C68
330
18
100
AcDbEntity
  8
0
  6
BYBLOCK
100
AcDbLine
 10
165.1116533745457
 20
-726.7205502621448
 30
0.0
 11
171.1116533745457
 21
-726.7205502621448
 31
0.0
  0
LINE
  5
22C69
330
18
100
AcDbEntity
  8
0
  6
BYBLOCK
100
AcDbLine
 10
633.1116533745314
 20
-725.1128551221448
 30
0.0
 11
639.1116533745314
 21
-726.7205502621448
 31
0.0
  0
LINE
  5
22C6A
330
18
100
AcDbEntity
  8
0
  6
BYBLOCK
100
AcDbLine
 10
639.1116533745314
 20
-726.7205502621448
 30
0.0
 11
633.1116533745314
 21
-728.3282454021448
 31
0.0
  0
LINE
  5
22C6B
330
18
100
AcDbEntity
  8
0
  6
BYBLOCK
100
AcDbLine
 10
639.1116533745314
 20
-726.7205502621448
 30
0.0
 11
633.1116533745314
 21
-726.7205502621448
 31
0.0
  0
TEXT
  5
22C6C
330
18
100
AcDbEntity
  8
1DIM1
  6
CONTINUOUS
100
AcDbText
 10
388.1116533745386
 20
-724.6205502621448
 30
0.0
 40
10.5
  1
474
100
AcDbText
1001
ACAD
1000
DSTYLE
1002
{
1070
    40
1040
3.0
1070
    45
1040
0.5
1002
}
  0
LINE
  5
22C6D
330
18
100
AcDbEntity
  8
0
  6
BYBLOCK
100
AcDbLine
 10
791.1475516949267
 20
-669.1203967842303
 30
0.0
 11
790.6116533149267
 21
-671.1203967842303
 31
0.0
  0
LINE
  5
22C6E
330
18
100
AcDbEntity
  8
0
  6
BYBLOCK
100
AcDbLine
 10
790.6116533149267
 20
-671.1203967842303
 30
0.0
 11
790.0757549349266
 21
-669.1203967842303
 31
0.0
  0
LINE
  5
22C6F
330
18
100
AcDbEntity
  8
0
  6
BYBLOCK
100
AcDbLine
 10
790.6116533149267
 20
-671.1203967842303
 30
0.0
 11
790.6116533149267
 21
-669.1203967842303
 31
0.0
  0
LINE
  5
22C70
330
18
100
AcDbEntity
  8
0
  6
BYBLOCK
100
AcDbLine
 10
790.0757549349266
 20
-644.8207452876231
 30
0.0
 11
790.6116533149267
 21
-642.8207452876231
 31
0.0
  0
LINE
  5
22C71
330
18
100
AcDbEntity
  8
0
  6
BYBLOCK
100
AcDbLine
 10
790.6116533149267
 20
-642.8207452876231
 30
0.0
 11
791.1475516949267
 21
-644.8207452876231
 31
0.0
  0
LINE
  5
22C72
330
18
100
AcDbEntity
  8
0
  6
BYBLOCK
100
AcDbLine
 10
790.6116533149267
 20
-642.8207452876231
 30
0.0
 11
790.6116533149267
 21
-644.8207452876231
 31
0.0
  0
TEXT
  5
22C73
330
18
100
AcDbEntity
  8
1DIM
  6
CONTINUOUS
100
AcDbText
 10
789.9116533149268
 20
-662.2205710359268
 30
0.0
 40
3.5
  1
28.5
 50
90.0
100
AcDbText
1001
ACAD
1000
DSTYLE
1002
{
1070
    45
1040
0.5
1002
}
  0
LINE
  5
22C74
330
18
100
AcDbEntity
  8
0
  6
BYBLOCK
100
AcDbLine
 10
637.1116534192913
 20
-507.5124242655898
 30
0.0
 11
639.1116534192913
 21
-508.0483226455898
 31
0.0
  0
LINE
  5
22C75
330
18
100
AcDbEntity
  8
0
  6
BYBLOCK
100
AcDbLine
 10
639.1116534192913
 20
-508.0483226455898
 30
0.0
 11
637.1116534192913
 21
-508.5842210255898
 31
0.0
  0
LINE
  5
22C76
330
18
100
AcDbEntity
  8
0
  6
BYBLOCK
100
AcDbLine
 10
639.1116534192913
 20
-508.0483226455898
 30
0.0
 11
637.1116534192913
 21
-508.0483226455898
 31
0.0
  0
LINE
  5
22C77
330
18
100
AcDbEntity
  8
0
  6
BYBLOCK
100
AcDbLine
 10
617.1116533339837
 20
-508.5842210255898
 30
0.0
 11
615.1116533339837
 21
-508.0483226455898
 31
0.0
  0
LINE
  5
22C78
330
18
100
AcDbEntity
  8
0
  6
BYBLOCK
100
AcDbLine
 10
615.1116533339837
 20
-508.0483226455898
 30
0.0
 11
617.1116533339837
 21
-507.5124242655898
 31
0.0
  0
LINE
  5
22C79
330
18
100
AcDbEntity
  8
0
  6
BYBLOCK
100
AcDbLine
 10
615.1116533339837
 20
-508.0483226455898
 30
0.0
 11
617.1116533339837
 21
-508.0483226455898
 31
0.0
  0
TEXT
  5
22C7A
330
18
100
AcDbEntity
  8
1DIM
  6
CONTINUOUS
100
AcDbText
 10
624.1949867099709
 20
-507.3483226455898
 30
0.0
 40
3.5
  1
24
100
AcDbText
1001
ACAD
1000
DSTYLE
1002
{
1070
    45
1040
0.5
1002
}
  0
LINE
  5
22C7B
330
18
100
AcDbEntity
  8
0
  6
BYBLOCK
100
AcDbLine
 10
742.964419039136
 20
-620.276519952355
 30
0.0
 11
742.0253248926341
 21
-622.1218625378096
 31
0.0
  0
LINE
  5
22C7C
330
18
100
AcDbEntity
  8
0
  6
BYBLOCK
100
AcDbLine
 10
742.0253248926341
 20
-622.1218625378096
 30
0.0
 11
741.9159329967027
 21
-620.0542019063735
 31
0.0
  0
LINE
  5
22C7D
330
18
100
AcDbEntity
  8
0
  6
BYBLOCK
100
AcDbLine
 10
742.0253248926341
 20
-622.1218625378096
 30
0.0
 11
742.4401760179194
 21
-620.1653609293642
 31
0.0
  0
LINE
  5
22C7E
330
18
100
AcDbEntity
  8
0
  6
BYBLOCK
100
AcDbLine
 10
756.0998371843012
 20
-620.276519952355
 30
0.0
 11
755.1607430377993
 21
-622.1218625378096
 31
0.0
  0
LINE
  5
22C7F
330
18
100
AcDbEntity
  8
0
  6
BYBLOCK
100
AcDbLine
 10
755.1607430377993
 20
-622.1218625378096
 30
0.0
 11
755.0513511418679
 21
-620.0542019063735
 31
0.0
  0
LINE
  5
22C80
330
18
100
AcDbEntity
  8
0
  6
BYBLOCK
100
AcDbLine
 10
755.1607430377993
 20
-622.1218625378096
 30
0.0
 11
755.5755941630846
 21
-620.1653609293642
 31
0.0
  0
LINE
  5
22C81
330
18
100
AcDbEntity
  8
0
  6
BYBLOCK
100
AcDbLine
 10
628.5212910232935
 20
-641.3039393123881
 30
0.0
 11
627.1116533745458
 21
-642.820550262144
 31
0.0
  0
LINE
  5
22C82
330
18
100
AcDbEntity
  8
0
  6
BYBLOCK
100
AcDbLine
 10
627.1116533745458
 20
-642.820550262144
 30
0.0
 11
627.5741299227701
 21
-640.8023078297219
 31
0.0
  0
LINE
  5
22C83
330
18
100
AcDbEntity
  8
0
  6
BYBLOCK
100
AcDbLine
 10
627.1116533745458
 20
-642.820550262144
 30
0.0
 11
628.0477104730318
 21
-641.053123571055
 31
0.0
  0
LINE
  5
22C84
330
18
100
AcDbEntity
  8
0
  6
BYBLOCK
100
AcDbLine
 10
568.3689895690405
 20
-599.9155330056358
 30
0.0
 11
567.5449771541325
 21
-598.0160092195872
 31
0.0
  0
LINE
  5
22C85
330
18
100
AcDbEntity
  8
0
  6
BYBLOCK
100
AcDbLine
 10
567.5449771541325
 20
-598.0160092195872
 30
0.0
 11
569.2083547259072
 21
-599.24903887349
 31
0.0
  0
LINE
  5
22C86
330
18
100
AcDbEntity
  8
0
  6
BYBLOCK
100
AcDbLine
 10
567.5449771541325
 20
-598.0160092195872
 30
0.0
 11
568.7886721474739
 21
-599.5822859395629
 31
0.0
  0
VIEWPORT
  5
57
330
15
100
AcDbEntity
 67
     1
  8
0
100
AcDbViewport
 68
     1
 10
0.0
 20
0.0
 30
0.0
 40
565.988904299584
 41
297.0
 68
     1
 69
     1
1001
ACAD
1000
MVIEW
1002
{
1070
    16
1010
0.0
1020
0.0
1030
0.0
1010
0.0
1020
0.0
1030
1.0
1040
0.0
1040
297.0
1040
-4.171999999925333
1040
12.83903210976956
1040
50.0
1040
0.0
1040
0.0
1070
    16
1070
  1000
1070
     0
1070
     1
1070
     0
1070
     0
1070
     0
1070
     0
1040
0.0
1040
0.0
1040
0.0
1040
10.0
1040
10.0
1040
10.0
1040
10.0
1070
     0
1002
{
1002
}
1002
}
  0
ENDSEC
  0
SECTION
  2
OBJECTS
  0
DICTIONARY
  5
C
330
0
100
AcDbDictionary
  3
ACAD_CIP_PREVIOUS_PRODUCT_INFO
350
20B28
  3
ACAD_COLOR
350
2D0
  3
ACAD_GROUP
350
D
  3
ACAD_LAYOUT
350
2D1
  3
ACAD_MATERIAL
350
2CF
  3
ACAD_MLEADERSTYLE
350
19E18
  3
ACAD_MLINESTYLE
350
1B
  3
ACAD_PLOTSETTINGS
350
2D2
  3
ACAD_SCALELIST
350
19DF6
  3
ACAD_VISUALSTYLE
350
19DE5
  3
ACDBHEADERROUNDTRIPXREC
350
22C87
  3
ACDBVARIABLEDICTIONARY
350
37
  3
AEC_PROPERTY_SET_DEFS
350
20CE4
  3
CONTENTDICTIONARY
350
D8
  3
DRAWINGVARIABLESDICT
350
20
  3
DWGPROPS
350
22C8A
1001
ACAD
1000
TREAT_AS_HARD
1070
     0
  0
DICTIONARY
  5
18FE8
330
2
100
AcDbDictionary
  3
ACAD_LAYERSTATES
360
18FE9
1001
ACAD
1000
TREAT_AS_HARD
1070
     1
  0
DICTIONARY
  5
1A20A
330
E
100
AcDbDictionary
  3
ADSK_XREC_LAYER_RECONCILED
360
1A20B
1001
ACAD
1000
TREAT_AS_HARD
1070
     1
  0
DICTIONARY
  5
1A20C
330
29
100
AcDbDictionary
  3
ADSK_XREC_LAYER_RECONCILED
360
1A20D
1001
ACAD
1000
TREAT_AS_HARD
1070
     1
  0
DICTIONARY
  5
1A20E
330
31
100
AcDbDictionary
  3
ADSK_XREC_LAYER_RECONCILED
360
1A20F
1001
ACAD
1000
TREAT_AS_HARD
1070
     1
  0
DICTIONARY
  5
1A218
330
101
100
AcDbDictionary
  3
ADSK_XREC_LAYER_RECONCILED
360
1A219
1001
ACAD
1000
TREAT_AS_HARD
1070
     1
  0
DICTIONARY
  5
1A21C
330
103
100
AcDbDictionary
  3
ADSK_XREC_LAYER_RECONCILED
360
1A21D
1001
ACAD
1000
TREAT_AS_HARD
1070
     1
  0
DICTIONARY
  5
1A236
330
26A
100
AcDbDictionary
  3
ADSK_XREC_LAYER_RECONCILED
360
1A237
1001
ACAD
1000
TREAT_AS_HARD
1070
     1
  0
DICTIONARY
  5
2217B
330
2217A
100
AcDbDictionary
  3
ADSK_XREC_LAYER_RECONCILED
360
2217C
1001
ACAD
1000
TREAT_AS_HARD
1070
     1
  0
DICTIONARY
  5
6E9
330
18
100
AcDbDictionary
  3
ACAD_SORTENTS
360
6EA
1001
ACAD
1000
TREAT_AS_HARD
1070
     1
  0
DICTIONARY
  5
59B
330
15
100
AcDbDictionary
  3
ACAD_SORTENTS
360
59C
1001
ACAD
1000
TREAT_AS_HARD
1070
     1
  0
XRECORD
  5
20B28
102
{ACAD_REACTORS
330
C
102
}
330
C
100
AcDbXrecord
300
ACDLT
300
2012
300
ACDLT_F_S
  0
DICTIONARY
  5
2D0
102
{ACAD_REACTORS
330
C
102
}
330
C
100
AcDbDictionary
1001
ACAD
1000
TREAT_AS_HARD
1070
     0
  0
DICTIONARY
  5
D
102
{ACAD_REACTORS
330
C
102
}
330
C
100
AcDbDictionary
1001
ACAD
1000
TREAT_AS_HARD
1070
     0
  0
DICTIONARY
  5
2D1
102
{ACAD_REACTORS
330
C
102
}
330
C
100
AcDbDictionary
1001
ACAD
1000
TREAT_AS_HARD
1070
     0
  0
DICTIONARY
  5
2CF
102
{ACAD_REACTORS
330
C
102
}
330
C
100
AcDbDictionary
  3
BYBLOCK
350
19DD5
  3
BYLAYER
350
19DCD
  3
GLOBAL
350
19DDD
1001
ACAD
1000
TREAT_AS_HARD
1070
     0
  0
DICTIONARY
  5
19E18
102
{ACAD_REACTORS
330
C
102
}
330
C
100
AcDbDictionary
  3
STANDARD
350
19E19
1001
ACAD
1000
TREAT_AS_HARD
1070
     0
  0
DICTIONARY
  5
1B
102
{ACAD_REACTORS
330
C
102
}
330
C
100
AcDbDictionary
  3
STANDARD
350
1C
1001
ACAD
1000
TREAT_AS_HARD
1070
     0
  0
DICTIONARY
  5
2D2
102
{ACAD_REACTORS
330
C
102
}
330
C
100
AcDbDictionary
1001
ACAD
1000
TREAT_AS_HARD
1070
     0
  0
DICTIONARY
  5
19DF6
102
{ACAD_REACTORS
330
C
102
}
330
C
100
AcDbDictionary
  3
A0
350
19DF7
  3
A1
350
19DF8
  3
A2
350
19DF9
  3
A3
350
19DFA
  3
A4
350
19DFB
  3
A5
350
19DFC
  3
A6
350
19DFD
  3
A7
350
19DFE
  3
A8
350
19DFF
  3
A9
350
19E00
  3
B0
350
19E01
  3
B1
350
19E02
  3
B2
350
19E03
  3
B3
350
19E04
  3
B4
350
19E05
  3
B5
350
19E06
  3
B6
350
19E07
  3
B7
350
19E08
  3
B8
350
19E09
  3
B9
350
19E0A
  3
C0
350
19E0B
  3
C1
350
19E0C
  3
C2
350
19E0D
  3
C3
350
19E0E
  3
C4
350
19E0F
  3
C5
350
19E10
  3
C6
350
19E11
  3
C7
350
19E12
  3
C8
350
19E13
  3
C9
350
19E14
  3
D0
350
19E15
  3
D1
350
19E16
  3
D2
350
19E17
1001
ACAD
1000
TREAT_AS_HARD
1070
     0
  0
DICTIONARY
  5
19DE5
102
{ACAD_REACTORS
330
C
102
}
330
C
100
AcDbDictionary
  3
2DWIREFRAME
350
19DEB
  3
3D_HIDDEN
350
19DED
  3
3DWIREFRAME
350
19DEC
  3
BASIC
350
19DEA
  3
BRIGHTEN
350
19DF1
  3
COLORCHANGE
350
19DF5
  3
CONCEPTUAL
350
19DEE
  3
DIM
350
19DF0
  3
EDGECOLOROFF
350
1E02A
  3
FACEPATTERN
350
19DF4
  3
FLAT
350
19DE6
  3
FLATWITHEDGES
350
19DE7
  3
GOURAUD
350
19DE8
  3
GOURAUDWITHEDGES
350
19DE9
  3
HIDDEN
350
1F381
  3
JITTEROFF
350
1E028
  3
LINEPATTERN
350
19DF3
  3
MODELING
350
219D4
  3
OVERHANGOFF
350
1E029
  3
REALISTIC
350
19DEF
  3
SHADED
350
1F386
  3
SHADED_WITH_EDGES
350
1F385
  3
SHADES_OF_GRAY
350
1F382
  3
SKETCHY
350
1F383
  3
THICKEN
350
19DF2
  3
WIREFRAME
350
1F380
  3
X-RAY
350
1F384
1001
ACAD
1000
TREAT_AS_HARD
1070
     0
  0
DICTIONARY
  5
22C87
102
{ACAD_REACTORS
330
C
102
}
330
C
100
AcDbDictionary
  3
COLORDICT
350
22C88
  3
MATERIALDICT
350
22C89
1001
ACAD
1000
TREAT_AS_HARD
1070
     0
  0
DICTIONARY
  5
37
102
{ACAD_REACTORS
330
C
102
}
330
C
100
AcDbDictionary
  3
CANNOSCALE
350
219EB
  3
CMLEADERSTYLE
350
1AC19
  3
CTABLESTYLE
350
4F1
  3
DIMADEC
350
38
  3
DIMASSOC
350
408
  3
HIDETEXT
350
1891
  3
INDEXCTL
350
1AC1C
  3
INTERSECTIONCOLOR
350
1895
  3
INTERSECTIONDISPLAY
350
1894
  3
LAYEREVAL
350
211C3
  3
LAYERNOTIFY
350
211C4
  3
MSLTSCALE
350
20A9B
  3
OBSCOLOR
350
1892
  3
OBSLTYPE
350
1893
  3
PROJECTNAME
350
409
  3
SORTENTS
350
1AC1B
  3
XCLIPFRAME
350
219D3
1001
ACAD
1000
TREAT_AS_HARD
1070
     0
  0
DICTIONARY
  5
20CE4
102
{ACAD_REACTORS
330
C
102
}
330
C
100
AcDbDictionary
1001
ACAD
1000
TREAT_AS_HARD
1070
     0
  0
DICTIONARY
  5
D8
102
{ACAD_REACTORS
330
C
102
}
330
C
100
AcDbDictionary
1001
CONTENTTABDATA
1070
    11
1000
Child
1000
D:\ACLT\TABset\CHILDREN.dwg
1070
     0
1070
     0
1070
     1
1000
PK
1000
D:\ACLT\TABset\PK.dwg
1070
     0
1070
     0
1070
     1
1000
Lev1
1000
D:\ACLT\TABset\Lever01.dwg
1070
     0
1070
     0
1070
     1
1000
Lev2
1000
D:\ACLT\TABset\Lever02.dwg
1070
     0
1070
     0
1070
     1
1000
L3
1000
D:\Aclt\TABset\Lever03.dwg
1070
     0
1070
     0
1070
     1
1000
Form
1000
D:\ACLT\FORMAT
1070
     1
1070
     0
1070
     1
1000
Jnt
1000
D:\ACLT\TABset\JOINTPARTS.dwg
1070
     0
1070
     0
1070
     1
1000
ISO
1000
D:\ACLT\TABset\Isome01.dwg
1070
     0
1070
     0
1070
     1
1000
R
1000
D:\ACLT\TABset\REGION.dwg
1070
     0
1070
     0
1070
     1
1000
std
1000
D:\ACLT\TABset\std_sym_all.dwg
1070
     0
1070
     0
1070
     1
1000
丸
1000
D:\Aclt\TABset\MARU.dwg
1070
     0
1070
     0
1070
     1
1001
CONTENTCURRENTTAB
1070
     0
1001
ACAD
1000
TREAT_AS_HARD
1070
     0
  0
DICTIONARY
  5
20
102
{ACAD_REACTORS
330
C
102
}
330
C
100
AcDbDictionary
1001
DRAWINGVARIABLESXDATA
1000
POLARANG
1000
0.261799387799149410000000
1000
POLARMODE
1000
1
1000
POLARSTYLE
1000
1
1001
ACAD
1000
TREAT_AS_HARD
1070
     0
  0
XRECORD
  5
22C8A
102
{ACAD_REACTORS
330
C
102
}
330
C
100
AcDbXrecord
  1
DWGPROPS COOKIE
  2

  3

  4

  6

  7

  8
619
  9

300
=
301
=
302
=
303
=
304
=
305
=
306
=
307
=
308
=
309
=
 40
0.0
 41
2453033.357663484
 42
2458277.170017743
  1

 90
        0
  0
DICTIONARY
  5
18FE9
102
{ACAD_REACTORS
330
18FE8
102
}
330
18FE8
100
AcDbDictionary
1001
ACAD
1000
TREAT_AS_HARD
1070
     0
  0
ACAD_PROXY_OBJECT
  5
1A20B
102
{ACAD_REACTORS
330
1A20A
102
}
330
1A20A
100
AcDbZombieObject
 90
      499
 91
      517
 93
       34
310
40C8804040
  0
ACAD_PROXY_OBJECT
  5
1A20D
102
{ACAD_REACTORS
330
1A20C
102
}
330
1A20C
100
AcDbZombieObject
 90
      499
 91
      517
 93
       34
310
40C8804040
  0
ACAD_PROXY_OBJECT
  5
1A20F
102
{ACAD_REACTORS
330
1A20E
102
}
330
1A20E
100
AcDbZombieObject
 90
      499
 91
      517
 93
       34
310
40C8804040
  0
ACAD_PROXY_OBJECT
  5
1A219
102
{ACAD_REACTORS
330
1A218
102
}
330
1A218
100
AcDbZombieObject
 90
      499
 91
      517
 93
       34
310
40C8804040
  0
ACAD_PROXY_OBJECT
  5
1A21D
102
{ACAD_REACTORS
330
1A21C
102
}
330
1A21C
100
AcDbZombieObject
 90
      499
 91
      517
 93
       34
310
40C8804040
  0
ACAD_PROXY_OBJECT
  5
1A237
102
{ACAD_REACTORS
330
1A236
102
}
330
1A236
100
AcDbZombieObject
 90
      499
 91
      517
 93
       34
310
40C8804040
  0
ACAD_PROXY_OBJECT
  5
2217C
102
{ACAD_REACTORS
330
2217B
102
}
330
2217B
100
AcDbZombieObject
 90
      499
 91
      517
 93
       34
310
40C8804040
  0
SORTENTSTABLE
  5
6EA
102
{ACAD_REACTORS
330
6E9
102
}
330
6E9
100
AcDbSortentsTable
330
18
331
224CC
  5
22519
331
224CD
  5
2251A
331
224CE
  5
2251B
331
224CF
  5
2251C
331
224D0
  5
2251D
331
224D2
  5
225BD
331
224D3
  5
225BE
331
224D4
  5
225BF
331
224D5
  5
225C0
331
224D6
  5
225C1
331
224D7
  5
225C2
331
224D8
  5
225C3
331
224D9
  5
225C4
331
224DA
  5
225CD
331
224DB
  5
225CF
331
224DC
  5
225D0
331
224DD
  5
225D1
331
224DE
  5
225D2
331
224DF
  5
225D3
331
224E0
  5
225D4
331
224E1
  5
22930
331
224E2
  5
22932
331
224E3
  5
22933
331
224E5
  5
2293D
331
224E6
  5
2293E
331
224E7
  5
2293F
331
224E8
  5
22940
331
224E9
  5
22941
331
224EA
  5
22942
331
224EB
  5
22943
331
224EC
  5
22944
331
224ED
  5
22945
331
224EE
  5
22946
331
224EF
  5
22948
331
224F0
  5
22949
331
224F1
  5
2294A
331
224F2
  5
2294B
331
224F3
  5
2294C
331
224F4
  5
2294E
331
224F5
  5
22950
331
224F6
  5
229B2
331
224F7
  5
229B3
331
224F8
  5
229FE
331
224F9
  5
22B06
331
224FA
  5
22B0D
331
224FC
  5
22B14
331
224FD
  5
22B15
331
224FE
  5
22B16
331
224FF
  5
22B17
331
22500
  5
22B18
331
22501
  5
22B19
331
22502
  5
22B1F
331
22503
  5
22B21
331
22504
  5
22B25
331
22505
  5
22B27
331
22506
  5
22B28
331
22507
  5
22B29
331
22508
  5
22B2A
331
22509
  5
22B2B
331
2250A
  5
22B2C
331
2250B
  5
22B2D
331
2250C
  5
22B2E
331
2250D
  5
22B2F
331
2250E
  5
22B30
331
2250F
  5
22B31
331
22510
  5
22B32
331
22511
  5
22B33
331
22512
  5
22B34
331
22513
  5
22B35
331
22514
  5
22B36
331
22515
  5
22B37
331
22516
  5
22B38
331
22517
  5
22B39
331
22518
  5
22B3A
331
22519
  5
22B3B
331
2251A
  5
22B3C
331
2251B
  5
22B3D
331
2251C
  5
22B3E
331
2251D
  5
22B3F
331
2251E
  5
22B40
331
2251F
  5
22B41
331
22520
  5
22B42
331
22523
  5
22B43
331
22524
  5
22B44
331
22525
  5
22B45
331
22526
  5
22B46
331
22527
  5
22B47
331
22528
  5
22B48
331
22529
  5
22B49
331
2252A
  5
22B4A
331
2252B
  5
22B4B
331
2252C
  5
22B4C
331
2252D
  5
22B4D
331
2252E
  5
22B4E
331
2252F
  5
22B4F
331
22530
  5
22B50
331
22531
  5
22B51
331
22532
  5
22B52
331
22533
  5
22B53
331
22534
  5
22B54
331
22535
  5
22B55
331
22536
  5
22B56
331
22537
  5
22B57
331
22538
  5
22B58
331
22539
  5
22B59
331
2253A
  5
22B5A
331
2253B
  5
22B5B
331
2253C
  5
22B5C
331
2253D
  5
22B5D
331
2253E
  5
22B5E
331
2253F
  5
22B5F
331
22540
  5
22B60
331
22541
  5
22B61
331
22542
  5
22B62
331
22543
  5
22B63
331
22544
  5
22B64
331
22545
  5
22B65
331
22546
  5
22B66
331
22547
  5
22B67
331
22548
  5
22B68
331
22549
  5
22B69
331
2254A
  5
22B6A
331
2254B
  5
22B6B
331
2254C
  5
22B6C
331
2254D
  5
22B6D
331
2254E
  5
22B6E
331
2254F
  5
22B6F
331
22550
  5
22B70
331
22551
  5
22B71
331
22552
  5
22B72
331
2259F
  5
22B73
331
225A5
  5
22B74
331
225A6
  5
22B75
331
225A7
  5
22B76
331
225A8
  5
22B77
331
225A9
  5
22B78
331
0
  5
225B6
331
225AB
  5
22BC3
331
225AC
  5
22BC4
331
225AD
  5
22BC5
331
225AE
  5
22BC6
331
225AF
  5
22BC7
331
225B0
  5
22BC8
331
225B1
  5
22BC9
331
225B2
  5
22BCA
331
225B3
  5
22BCB
331
225B4
  5
22BCC
331
225B5
  5
22BCD
331
225B6
  5
22BCE
331
225B7
  5
22BCF
331
225B8
  5
22BD0
331
225BA
  5
22BE2
331
225BB
  5
22BE3
331
225BC
  5
22BE4
331
225BD
  5
22BE5
331
225BE
  5
22BE6
331
225BF
  5
22BE7
331
225C0
  5
22BE8
331
225C1
  5
22BE9
331
225C2
  5
22BEA
331
225C3
  5
22BEB
331
225C4
  5
22BEC
331
225CD
  5
22BED
331
225CE
  5
22BEE
331
225CF
  5
22BEF
331
225D0
  5
22BF0
331
225D1
  5
22BF1
331
225D2
  5
22BF2
331
225D3
  5
22BF3
331
225D4
  5
22BF4
331
0
  5
22B07
331
0
  5
22B08
331
0
  5
22B09
331
0
  5
22B0A
331
0
  5
22B0B
331
0
  5
22B0C
331
2293A
  5
22C25
331
2293B
  5
22C26
331
2293C
  5
22C2A
331
2293D
  5
22C2B
331
2293E
  5
22C2C
331
2293F
  5
22C30
331
22940
  5
22C31
331
22941
  5
22C32
331
22942
  5
22C36
331
22943
  5
22C38
331
22944
  5
22C39
331
22945
  5
22C3B
331
22946
  5
22C3C
331
0
  5
22B1A
331
0
  5
22B1B
331
0
  5
22B1C
331
0
  5
22B1D
331
0
  5
22B1E
331
0
  5
22B20
331
0
  5
22B22
331
0
  5
22B23
331
0
  5
22B24
331
0
  5
22B26
331
22B06
  5
22934
331
22B07
  5
22935
331
22B08
  5
22939
331
22B09
  5
2293A
331
22B0A
  5
2293B
331
22B0B
  5
2293C
331
22B0C
  5
22B0E
331
22B0D
  5
22B0F
331
22B0E
  5
22B10
331
22B0F
  5
22B11
331
22B10
  5
22B12
331
22B11
  5
22B13
331
0
  5
225CE
331
22B13
  5
22BDB
331
22B14
  5
22BDC
331
22B15
  5
22BDD
331
22B16
  5
22BDE
331
22B17
  5
22BDF
331
22B18
  5
22BE0
331
22B19
  5
22BE1
331
22B1A
  5
22C71
331
22B1B
  5
22C76
331
22B1C
  5
22C82
331
22B1D
  5
22BD1
331
22B1E
  5
22BD2
331
22B1F
  5
22BD3
331
22B20
  5
22BD4
331
22B21
  5
22BD5
331
22B22
  5
22BD6
331
22B23
  5
22BD7
331
22B24
  5
22BD8
331
22B25
  5
22BD9
331
22B26
  5
22BDA
331
22B27
  5
224CC
331
22B28
  5
224CD
331
22B29
  5
224CE
331
22B2A
  5
224CF
331
22B2B
  5
224D0
331
22B2C
  5
224D2
331
22B2D
  5
224D3
331
22B2E
  5
224D4
331
22B2F
  5
224D5
331
22B30
  5
224D6
331
22B31
  5
224D7
331
22B32
  5
224D8
331
22B33
  5
224D9
331
22B34
  5
224DA
331
22B35
  5
224DB
331
22B36
  5
224DC
331
22B37
  5
224DD
331
22B38
  5
224DE
331
22B39
  5
224DF
331
22B3A
  5
224E0
331
22B3B
  5
224E1
331
22B3C
  5
224E2
331
22B3D
  5
224E3
331
22B3E
  5
224E5
331
22B3F
  5
224E6
331
22B40
  5
224E7
331
22B41
  5
224E8
331
22B42
  5
224E9
331
22B43
  5
224EA
331
22B44
  5
224EB
331
22B45
  5
224EC
331
22B46
  5
224ED
331
22B47
  5
224EE
331
22B48
  5
224EF
331
22B49
  5
224F0
331
22B4A
  5
224F1
331
22B4B
  5
224F2
331
22B4C
  5
224F3
331
22B4D
  5
224F4
331
22B4E
  5
224F5
331
22B4F
  5
224F6
331
22B50
  5
224F7
331
22B51
  5
224F8
331
22B52
  5
224F9
331
22B53
  5
224FA
331
22B54
  5
224FC
331
22B55
  5
224FD
331
22B56
  5
224FE
331
22B57
  5
224FF
331
22B58
  5
22500
331
22B59
  5
22501
331
22B5A
  5
22502
331
22B5B
  5
22503
331
22B5C
  5
22504
331
22B5D
  5
22505
331
22B5E
  5
22506
331
22B5F
  5
22507
331
22B60
  5
22508
331
22B61
  5
22509
331
22B62
  5
2250A
331
22B63
  5
2250B
331
22B64
  5
2250C
331
22B65
  5
2250D
331
22B66
  5
2250E
331
22B67
  5
2250F
331
22B68
  5
22510
331
22B69
  5
22511
331
22B6A
  5
22512
331
22B6B
  5
22513
331
22B6C
  5
22514
331
22B6D
  5
22515
331
22B6E
  5
22516
331
22B6F
  5
22517
331
22B70
  5
22518
331
22B71
  5
2251E
331
22B72
  5
2251F
331
22B73
  5
22520
331
22B74
  5
22523
331
22B75
  5
22524
331
22B76
  5
22525
331
22B77
  5
22526
331
22B78
  5
22527
331
22B79
  5
22528
331
22B7A
  5
22529
331
22B7B
  5
2252A
331
22B7C
  5
2252B
331
22B7D
  5
2252C
331
22B7E
  5
2252D
331
22B7F
  5
2252E
331
22B80
  5
2252F
331
22B81
  5
22530
331
22B82
  5
22531
331
22B83
  5
22532
331
22B84
  5
22533
331
22B85
  5
22534
331
22B86
  5
22535
331
22B87
  5
22536
331
22B88
  5
22537
331
22B89
  5
22538
331
22B8A
  5
22539
331
22B8B
  5
2253A
331
22B8C
  5
2253B
331
22B8D
  5
2253C
331
22B8E
  5
2253D
331
22B8F
  5
2253E
331
22B90
  5
2253F
331
22B91
  5
22540
331
22B92
  5
22541
331
22B93
  5
22542
331
22B94
  5
22543
331
22B95
  5
22544
331
22B96
  5
22545
331
22B97
  5
22546
331
22B98
  5
22547
331
22B99
  5
22548
331
22B9A
  5
22549
331
22B9B
  5
2254A
331
22B9C
  5
2254B
331
22B9D
  5
2254C
331
22B9E
  5
2254D
331
22B9F
  5
2254E
331
22BA0
  5
2254F
331
22BA1
  5
22550
331
22BA2
  5
22551
331
22BA3
  5
22552
331
22BA4
  5
2259F
331
22BA5
  5
225A5
331
22BA6
  5
225A6
331
22BA7
  5
225A7
331
22BA8
  5
225A8
331
22BA9
  5
225A9
331
22BAA
  5
225AA
331
22BAB
  5
225AB
331
22BAC
  5
225AC
331
22BAD
  5
225AD
331
22BAE
  5
225AE
331
22BAF
  5
225AF
331
22BB0
  5
225B0
331
22BB1
  5
225B1
331
22BB2
  5
225B2
331
22BB3
  5
225B3
331
22BB4
  5
225B4
331
22BB5
  5
225B5
331
22BB6
  5
225B7
331
22BB7
  5
225B8
331
22BB8
  5
225BA
331
22BB9
  5
225BB
331
22BBA
  5
225BC
331
22BBB
  5
22B79
331
22BBC
  5
22B7A
331
22BBD
  5
22B7B
331
22BBE
  5
22B7C
331
22BBF
  5
22B7D
331
22BC0
  5
22B7E
331
22BC1
  5
22B7F
331
22BC2
  5
22B80
331
22BC3
  5
22B81
331
22BC4
  5
22B82
331
22BC5
  5
22B83
331
22BC6
  5
22B84
331
22BC7
  5
22B85
331
22BC8
  5
22B86
331
22BC9
  5
22B87
331
22BCA
  5
22B88
331
22BCB
  5
22B89
331
22BCC
  5
22B8A
331
22BCD
  5
22B8B
331
22BCE
  5
22B8C
331
22BCF
  5
22B8D
331
22BD0
  5
22B8E
331
22BD1
  5
22B8F
331
22BD2
  5
22B90
331
22BD3
  5
22B91
331
22BD4
  5
22B92
331
22BD5
  5
22B93
331
22BD6
  5
22B94
331
22BD7
  5
22B95
331
22BD8
  5
22B96
331
22BD9
  5
22B97
331
22BDA
  5
22B98
331
22BDB
  5
22B99
331
22BDC
  5
22B9A
331
22BDD
  5
22B9B
331
22BDE
  5
22B9C
331
22BDF
  5
22B9D
331
22BE0
  5
22B9E
331
22BE1
  5
22B9F
331
22BE2
  5
22BA0
331
22BE3
  5
22BA1
331
22BE4
  5
22BA2
331
22BE5
  5
22BA3
331
22BE6
  5
22BA4
331
22BE7
  5
22BA5
331
22BE8
  5
22BA6
331
22BE9
  5
22BA7
331
22BEA
  5
22BA8
331
22BEB
  5
22BA9
331
22BEC
  5
22BAA
331
22BED
  5
22BAB
331
22BEE
  5
22BAC
331
22BEF
  5
22BAD
331
22BF0
  5
22BAE
331
22BF1
  5
22BAF
331
22BF2
  5
22BB0
331
22BF3
  5
22BB1
331
22BF4
  5
22BB2
331
22BF5
  5
22BB3
331
22BF6
  5
22BB4
331
22BF7
  5
22BB5
331
22BF8
  5
22BB6
331
22BF9
  5
22BB7
331
22BFA
  5
22BB8
331
22BFB
  5
22BB9
331
22BFC
  5
22BBA
331
22BFD
  5
22BBB
331
22BFE
  5
22BBC
331
22BFF
  5
22BBD
331
22C00
  5
22BBE
331
22C01
  5
22BBF
331
22C02
  5
22BC0
331
22C03
  5
22BC1
331
22C04
  5
22BC2
331
22C05
  5
22BF5
331
22C06
  5
22BF6
331
22C07
  5
22BF7
331
0
  5
22BF8
331
0
  5
22BF9
331
0
  5
22BFA
331
22C0B
  5
22C04
331
22C0C
  5
22C05
331
0
  5
22BFD
331
22C0E
  5
22C0C
331
22C0F
  5
22C0D
331
22C10
  5
22C0E
331
22C11
  5
22C0F
331
0
  5
22C02
331
0
  5
22C08
331
0
  5
22C09
331
0
  5
22C0A
331
22C1B
  5
22C3D
331
22C1C
  5
22C3F
331
22C1D
  5
22C40
331
0
  5
22C1B
331
0
  5
22C1C
331
0
  5
22C1D
331
22C21
  5
22C49
331
22C22
  5
22C4A
331
22C23
  5
22C4B
331
0
  5
22C21
331
0
  5
22C22
331
0
  5
22C23
331
22C27
  5
22C53
331
22C28
  5
22C54
331
22C29
  5
22C55
331
0
  5
22C27
331
0
  5
22C28
331
0
  5
22C29
331
22C2D
  5
22C5D
331
22C2E
  5
22C5E
331
22C2F
  5
22C5F
331
0
  5
22C2D
331
0
  5
22C2E
331
0
  5
22C2F
331
22C33
  5
22C67
331
22C34
  5
22C68
331
22C35
  5
22C69
331
0
  5
22C33
331
0
  5
22C34
331
0
  5
22C35
331
0
  5
22C37
331
22C3A
  5
22C75
331
0
  5
22C3A
331
22C3C
  5
22C7A
331
22C3D
  5
22C7B
331
22C3E
  5
22C7C
331
0
  5
22C3E
331
22C40
  5
22C80
331
22C41
  5
22C81
331
22C43
  5
22C86
331
22C44
  5
22BFB
331
22C45
  5
22BFC
331
22C46
  5
22BFE
331
22C47
  5
22BFF
331
22C48
  5
22C00
331
22C49
  5
22C01
331
22C4A
  5
22C03
331
22C4B
  5
22C06
331
22C4C
  5
22C07
331
22C4D
  5
22C0B
331
22C4E
  5
22C10
331
22C4F
  5
22C11
331
22C50
  5
22C12
331
22C51
  5
22C18
331
22C52
  5
22C19
331
22C53
  5
22C1A
331
22C54
  5
22C1E
331
22C55
  5
22C1F
331
22C56
  5
22C20
331
22C57
  5
22C24
331
22C58
  5
22C41
331
22C59
  5
22C43
331
22C5A
  5
22C44
331
22C5B
  5
22C45
331
22C5C
  5
22C46
331
22C5D
  5
22C47
331
22C5E
  5
22C48
331
22C5F
  5
22C4C
331
22C60
  5
22C4D
331
22C61
  5
22C4E
331
22C62
  5
22C4F
331
22C63
  5
22C50
331
22C64
  5
22C51
331
22C65
  5
22C52
331
22C66
  5
22C56
331
22C67
  5
22C57
331
22C68
  5
22C58
331
22C69
  5
22C59
331
22C6A
  5
22C5A
331
22C6B
  5
22C5B
331
22C6C
  5
22C5C
331
22C6D
  5
22C60
331
22C6E
  5
22C61
331
22C6F
  5
22C62
331
22C70
  5
22C63
331
22C71
  5
22C64
331
22C72
  5
22C65
331
22C73
  5
22C66
331
22C74
  5
22C6A
331
22C75
  5
22C6B
331
22C76
  5
22C6C
331
22C77
  5
22C6D
331
22C78
  5
22C6E
331
22C79
  5
22C6F
331
22C7A
  5
22C70
331
22C7B
  5
22C72
331
22C7C
  5
22C73
331
22C7D
  5
22C74
331
22C7E
  5
22C77
331
22C7F
  5
22C78
331
22C80
  5
22C79
331
22C81
  5
22C7D
331
22C82
  5
22C7E
331
22C83
  5
22C7F
331
22C84
  5
22C83
331
22C85
  5
22C84
331
22C86
  5
22C85
  0
SORTENTSTABLE
  5
59C
102
{ACAD_REACTORS
330
59B
102
}
330
59B
100
AcDbSortentsTable
330
15
331
57
  5
57
331
0
  5
70
  0
MATERIAL
  5
19DD5
102
{ACAD_REACTORS
330
2CF
102
}
102
{ACAD_XDICTIONARY
360
22E25
102
}
330
2CF
100
AcDbMaterial
  1
BYBLOCK
 72
     0
 73
     2
 43
0.0208333333333333
 43
0.0
 43
0.0
 43
0.0
 43
0.0
 43
0.0208333333333333
 43
0.0
 43
0.0
 43
0.0
 43
0.0
 43
1.0
 43
0.0
 43
0.0
 43
0.0
 43
0.0
 43
1.0
 77
     0
 78
     2
 47
0.0208333333333333
 47
0.0
 47
0.0
 47
0.0
 47
0.0
 47
0.0208333333333333
 47
0.0
 47
0.0
 47
0.0
 47
0.0
 47
1.0
 47
0.0
 47
0.0
 47
0.0
 47
0.0
 47
1.0
171
     0
172
     2
 49
0.0208333333333333
 49
0.0
 49
0.0
 49
0.0
 49
0.0
 49
0.0208333333333333
 49
0.0
 49
0.0
 49
0.0
 49
0.0
 49
1.0
 49
0.0
 49
0.0
 49
0.0
 49
0.0
 49
1.0
175
     0
176
     2
142
0.0208333333333333
142
0.0
142
0.0
142
0.0
142
0.0
142
0.0208333333333333
142
0.0
142
0.0
142
0.0
142
0.0
142
1.0
142
0.0
142
0.0
142
0.0
142
0.0
142
1.0
179
     0
270
     2
144
0.0208333333333333
144
0.0
144
0.0
144
0.0
144
0.0
144
0.0208333333333333
144
0.0
144
0.0
144
0.0
144
0.0
144
1.0
144
0.0
144
0.0
144
0.0
144
0.0
144
1.0
274
     2
147
0.0208333333333333
147
0.0
147
0.0
147
0.0
147
0.0
147
0.0208333333333333
147
0.0
147
0.0
147
0.0
147
0.0
147
1.0
147
0.0
147
0.0
147
0.0
147
0.0
147
1.0
  0
MATERIAL
  5
19DCD
102
{ACAD_REACTORS
330
2CF
102
}
102
{ACAD_XDICTIONARY
360
22E27
102
}
330
2CF
100
AcDbMaterial
  1
BYLAYER
 72
     0
 73
     2
 43
0.0208333333333333
 43
0.0
 43
0.0
 43
0.0
 43
0.0
 43
0.0208333333333333
 43
0.0
 43
0.0
 43
0.0
 43
0.0
 43
1.0
 43
0.0
 43
0.0
 43
0.0
 43
0.0
 43
1.0
 77
     0
 78
     2
 47
0.0208333333333333
 47
0.0
 47
0.0
 47
0.0
 47
0.0
 47
0.0208333333333333
 47
0.0
 47
0.0
 47
0.0
 47
0.0
 47
1.0
 47
0.0
 47
0.0
 47
0.0
 47
0.0
 47
1.0
171
     0
172
     2
 49
0.0208333333333333
 49
0.0
 49
0.0
 49
0.0
 49
0.0
 49
0.0208333333333333
 49
0.0
 49
0.0
 49
0.0
 49
0.0
 49
1.0
 49
0.0
 49
0.0
 49
0.0
 49
0.0
 49
1.0
175
     0
176
     2
142
0.0208333333333333
142
0.0
142
0.0
142
0.0
142
0.0
142
0.0208333333333333
142
0.0
142
0.0
142
0.0
142
0.0
142
1.0
142
0.0
142
0.0
142
0.0
142
0.0
142
1.0
179
     0
270
     2
144
0.0208333333333333
144
0.0
144
0.0
144
0.0
144
0.0
144
0.0208333333333333
144
0.0
144
0.0
144
0.0
144
0.0
144
1.0
144
0.0
144
0.0
144
0.0
144
0.0
144
1.0
274
     2
147
0.0208333333333333
147
0.0
147
0.0
147
0.0
147
0.0
147
0.0208333333333333
147
0.0
147
0.0
147
0.0
147
0.0
147
1.0
147
0.0
147
0.0
147
0.0
147
0.0
147
1.0
  0
MATERIAL
  5
19DDD
102
{ACAD_REACTORS
330
2CF
102
}
102
{ACAD_XDICTIONARY
360
22E29
102
}
330
2CF
100
AcDbMaterial
  1
GLOBAL
 72
     0
 73
     2
 43
0.0208333333333333
 43
0.0
 43
0.0
 43
0.0
 43
0.0
 43
0.0208333333333333
 43
0.0
 43
0.0
 43
0.0
 43
0.0
 43
1.0
 43
0.0
 43
0.0
 43
0.0
 43
0.0
 43
1.0
 77
     0
 78
     2
 47
0.0208333333333333
 47
0.0
 47
0.0
 47
0.0
 47
0.0
 47
0.0208333333333333
 47
0.0
 47
0.0
 47
0.0
 47
0.0
 47
1.0
 47
0.0
 47
0.0
 47
0.0
 47
0.0
 47
1.0
171
     0
172
     2
 49
0.0208333333333333
 49
0.0
 49
0.0
 49
0.0
 49
0.0
 49
0.0208333333333333
 49
0.0
 49
0.0
 49
0.0
 49
0.0
 49
1.0
 49
0.0
 49
0.0
 49
0.0
 49
0.0
 49
1.0
175
     0
176
     2
142
0.0208333333333333
142
0.0
142
0.0
142
0.0
142
0.0
142
0.0208333333333333
142
0.0
142
0.0
142
0.0
142
0.0
142
1.0
142
0.0
142
0.0
142
0.0
142
0.0
142
1.0
179
     0
270
     2
144
0.0208333333333333
144
0.0
144
0.0
144
0.0
144
0.0
144
0.0208333333333333
144
0.0
144
0.0
144
0.0
144
0.0
144
1.0
144
0.0
144
0.0
144
0.0
144
0.0
144
1.0
274
     2
147
0.0208333333333333
147
0.0
147
0.0
147
0.0
147
0.0
147
0.0208333333333333
147
0.0
147
0.0
147
0.0
147
0.0
147
1.0
147
0.0
147
0.0
147
0.0
147
0.0
147
1.0
  0
ACAD_PROXY_OBJECT
  5
19E19
102
{ACAD_REACTORS
330
19E18
102
}
330
19E18
100
AcDbZombieObject
 90
      499
 91
      512
 93
      610
310
40901902A4063FBFFFFFE000000000000002040AD7A3703D0AD73F4214DD185B99185C990000000000000104090141901A00000000000004100000000000000041025764000000000000300FC0
340
12
340
0
340
F
340
0
 94
        0
1001
ACAD_MLEADERVER
1070
     2
  0
MLINESTYLE
  5
1C
102
{ACAD_REACTORS
330
1B
102
}
330
1B
100
AcDbMlineStyle
  2
STANDARD
 70
     0
  3

 62
   256
 51
90.0
 52
90.0
 71
     2
 49
0.5
 62
   256
  6
BYLAYER
 49
-0.5
 62
   256
  6
BYLAYER
  0
ACAD_PROXY_OBJECT
  5
19DF7
102
{ACAD_REACTORS
330
19DF6
102
}
330
19DF6
100
AcDbZombieObject
 90
      499
 91
      511
 93
       41
310
903313A31580
  0
ACAD_PROXY_OBJECT
  5
19DF8
102
{ACAD_REACTORS
330
19DF6
102
}
330
19DF6
100
AcDbZombieObject
 90
      499
 91
      511
 93
      105
310
903313A324000000000000004000
  0
ACAD_PROXY_OBJECT
  5
19DF9
102
{ACAD_REACTORS
330
19DF6
102
}
330
19DF6
100
AcDbZombieObject
 90
      499
 91
      511
 93
      105
310
903313A344000000000000104000
  0
ACAD_PROXY_OBJECT
  5
19DFA
102
{ACAD_REACTORS
330
19DF6
102
}
330
19DF6
100
AcDbZombieObject
 90
      499
 91
      511
 93
      105
310
903313A354000000000000144000
  0
ACAD_PROXY_OBJECT
  5
19DFB
102
{ACAD_REACTORS
330
19DF6
102
}
330
19DF6
100
AcDbZombieObject
 90
      499
 91
      511
 93
      105
310
903313A384000000000000204000
  0
ACAD_PROXY_OBJECT
  5
19DFC
102
{ACAD_REACTORS
330
19DF6
102
}
330
19DF6
100
AcDbZombieObject
 90
      499
 91
      511
 93
      113
310
904313A31304000000000000244000
  0
ACAD_PROXY_OBJECT
  5
19DFD
102
{ACAD_REACTORS
330
19DF6
102
}
330
19DF6
100
AcDbZombieObject
 90
      499
 91
      511
 93
      113
310
904313A31364000000000000304000
  0
ACAD_PROXY_OBJECT
  5
19DFE
102
{ACAD_REACTORS
330
19DF6
102
}
330
19DF6
100
AcDbZombieObject
 90
      499
 91
      511
 93
      113
310
904313A32304000000000000344000
  0
ACAD_PROXY_OBJECT
  5
19DFF
102
{ACAD_REACTORS
330
19DF6
102
}
330
19DF6
100
AcDbZombieObject
 90
      499
 91
      511
 93
      113
310
904313A333040000000000003E4000
  0
ACAD_PROXY_OBJECT
  5
19E00
102
{ACAD_REACTORS
330
19DF6
102
}
330
19DF6
100
AcDbZombieObject
 90
      499
 91
      511
 93
      113
310
904313A34304000000000000444000
  0
ACAD_PROXY_OBJECT
  5
19E01
102
{ACAD_REACTORS
330
19DF6
102
}
330
19DF6
100
AcDbZombieObject
 90
      499
 91
      511
 93
      113
310
904313A35304000000000000494000
  0
ACAD_PROXY_OBJECT
  5
19E02
102
{ACAD_REACTORS
330
19DF6
102
}
330
19DF6
100
AcDbZombieObject
 90
      499
 91
      511
 93
      121
310
905313A3130304000000000000594000
  0
ACAD_PROXY_OBJECT
  5
19E03
102
{ACAD_REACTORS
330
19DF6
102
}
330
19DF6
100
AcDbZombieObject
 90
      499
 91
      511
 93
      105
310
903323A310000000000000010100
  0
ACAD_PROXY_OBJECT
  5
19E04
102
{ACAD_REACTORS
330
19DF6
102
}
330
19DF6
100
AcDbZombieObject
 90
      499
 91
      511
 93
      105
310
903343A310000000000000410100
  0
ACAD_PROXY_OBJECT
  5
19E05
102
{ACAD_REACTORS
330
19DF6
102
}
330
19DF6
100
AcDbZombieObject
 90
      499
 91
      511
 93
      105
310
903383A310000000000000810100
  0
ACAD_PROXY_OBJECT
  5
19E06
102
{ACAD_REACTORS
330
19DF6
102
}
330
19DF6
100
AcDbZombieObject
 90
      499
 91
      511
 93
      113
310
90431303A310000000000000910100
  0
ACAD_PROXY_OBJECT
  5
19E07
102
{ACAD_REACTORS
330
19DF6
102
}
330
19DF6
100
AcDbZombieObject
 90
      499
 91
      511
 93
      121
310
9053130303A310000000000001650100
  0
ACAD_PROXY_OBJECT
  5
19E08
102
{ACAD_REACTORS
330
19DF6
102
}
330
19DF6
100
AcDbZombieObject
 90
      499
 91
      511
 93
      257
310
90E312F31323822203D2031272D3022000000000000200FC000000000000284000
  0
ACAD_PROXY_OBJECT
  5
19E09
102
{ACAD_REACTORS
330
19DF6
102
}
330
19DF6
100
AcDbZombieObject
 90
      499
 91
      511
 93
      249
310
90D312F363422203D2031272D3022000000000000240FC000000000000284000
  0
ACAD_PROXY_OBJECT
  5
19E0A
102
{ACAD_REACTORS
330
19DF6
102
}
330
19DF6
100
AcDbZombieObject
 90
      499
 91
      511
 93
      249
310
90D312F333222203D2031272D3022000000000000280FC000000000000284000
  0
ACAD_PROXY_OBJECT
  5
19E0B
102
{ACAD_REACTORS
330
19DF6
102
}
330
19DF6
100
AcDbZombieObject
 90
      499
 91
      511
 93
      249
310
90D312F313622203D2031272D30220000000000002C0FC000000000000284000
  0
ACAD_PROXY_OBJECT
  5
19E0C
102
{ACAD_REACTORS
330
19DF6
102
}
330
19DF6
100
AcDbZombieObject
 90
      499
 91
      511
 93
      249
310
90D332F333222203D2031272D30220000000000002E0FC000000000000284000
  0
ACAD_PROXY_OBJECT
  5
19E0D
102
{ACAD_REACTORS
330
19DF6
102
}
330
19DF6
100
AcDbZombieObject
 90
      499
 91
      511
 93
      241
310
90C312F3822203D2031272D3022000000000000300FC000000000000284000
  0
ACAD_PROXY_OBJECT
  5
19E0E
102
{ACAD_REACTORS
330
19DF6
102
}
330
19DF6
100
AcDbZombieObject
 90
      499
 91
      511
 93
      249
310
90D332F313622203D2031272D3022000000000000320FC000000000000284000
  0
ACAD_PROXY_OBJECT
  5
19E0F
102
{ACAD_REACTORS
330
19DF6
102
}
330
19DF6
100
AcDbZombieObject
 90
      499
 91
      511
 93
      241
310
90C312F3422203D2031272D3022000000000000340FC000000000000284000
  0
ACAD_PROXY_OBJECT
  5
19E10
102
{ACAD_REACTORS
330
19DF6
102
}
330
19DF6
100
AcDbZombieObject
 90
      499
 91
      511
 93
      241
310
90C332F3822203D2031272D3022000000000000360FC000000000000284000
  0
ACAD_PROXY_OBJECT
  5
19E11
102
{ACAD_REACTORS
330
19DF6
102
}
330
19DF6
100
AcDbZombieObject
 90
      499
 91
      511
 93
      241
310
90C312F3222203D2031272D3022000000000000380FC000000000000284000
  0
ACAD_PROXY_OBJECT
  5
19E12
102
{ACAD_REACTORS
330
19DF6
102
}
330
19DF6
100
AcDbZombieObject
 90
      499
 91
      511
 93
      241
310
90C332F3422203D2031272D30220000000000003A0FC000000000000284000
  0
ACAD_PROXY_OBJECT
  5
19E13
102
{ACAD_REACTORS
330
19DF6
102
}
330
19DF6
100
AcDbZombieObject
 90
      499
 91
      511
 93
      161
310
90A3122203D2031272D30224000000000000284000
  0
ACAD_PROXY_OBJECT
  5
19E14
102
{ACAD_REACTORS
330
19DF6
102
}
330
19DF6
100
AcDbZombieObject
 90
      499
 91
      511
 93
      257
310
90E312D312F3222203D2031272D30220000000000003E0FC000000000000284000
  0
ACAD_PROXY_OBJECT
  5
19E15
102
{ACAD_REACTORS
330
19DF6
102
}
330
19DF6
100
AcDbZombieObject
 90
      499
 91
      511
 93
      225
310
90A3322203D2031272D302200000000000002100000000000000284000
  0
ACAD_PROXY_OBJECT
  5
19E16
102
{ACAD_REACTORS
330
19DF6
102
}
330
19DF6
100
AcDbZombieObject
 90
      499
 91
      511
 93
      225
310
90A3622203D2031272D302200000000000006100000000000000284000
  0
ACAD_PROXY_OBJECT
  5
19E17
102
{ACAD_REACTORS
330
19DF6
102
}
330
19DF6
100
AcDbZombieObject
 90
      499
 91
      511
 93
      249
310
90D31272D3022203D2031272D30220000000000000A100000000000000284000
  0
ACAD_PROXY_OBJECT
  5
19DEB
102
{ACAD_REACTORS
330
19DE5
102
}
330
19DE5
100
AcDbZombieObject
 90
      499
 91
      510
 93
      436
310
42CC9915DA5C99599C985B595049028333333333333E3BF0000000000000FB0107901411070040501600405405064090741402480A0340
1001
ACAD
1000
AcDbSavedByObjectVersion
1070
     0
  0
ACAD_PROXY_OBJECT
  5
19DED
102
{ACAD_REACTORS
330
19DE5
102
}
330
19DE5
100
AcDbZombieObject
 90
      499
 91
      510
 93
      500
310
424CD108121A5919195B90640502408333333333333E3BF0000000000000FB01079024090700405020000000000001110200405405064090740C02480A0340
1001
ACAD
1000
AcDbSavedByObjectVersion
1070
     0
  0
ACAD_PROXY_OBJECT
  5
19DEC
102
{ACAD_REACTORS
330
19DE5
102
}
330
19DE5
100
AcDbZombieObject
 90
      499
 91
      510
 93
      436
310
42CCD915DA5C99599C985B595059028333333333333E3BF0000000000000FB0107901411070040501600405405064090741402480A0340
1001
ACAD
1000
AcDbSavedByObjectVersion
1070
     0
  0
ACAD_PROXY_OBJECT
  5
19DEA
102
{ACAD_REACTORS
330
19DE5
102
}
330
19DE5
100
AcDbZombieObject
 90
      499
 91
      510
 93
      388
310
4150985CDA58D07406404333333333333E3BF0000000000000FB0107A41107004050150841D405064090741402480A0350
1001
ACAD
1000
AcDbSavedByObjectVersion
1070
     0
  0
ACAD_PROXY_OBJECT
  5
19DF1
102
{ACAD_REACTORS
330
19DE5
102
}
330
19DE5
100
AcDbZombieObject
 90
      499
 91
      510
 93
      428
310
42109C9A59DA1D195B90C409028333333333333E3BF0000000000000FB010790141107004050150841D405064090741402480A029950
1001
ACAD
1000
AcDbSavedByObjectVersion
1070
     0
  0
ACAD_PROXY_OBJECT
  5
19DF5
102
{ACAD_REACTORS
330
19DE5
102
}
330
19DE5
100
AcDbZombieObject
 90
      499
 91
      510
 93
      452
310
42D0DBDB1BDC90DA185B99D95104090240C333333333333E3BF0000000000000FB0108901411070040501508421405064090741402480A0350
1001
ACAD
1000
AcDbSavedByObjectVersion
1070
     0
  0
ACAD_PROXY_OBJECT
  5
19DEE
102
{ACAD_REACTORS
330
19DE5
102
}
330
19DE5
100
AcDbZombieObject
 90
      499
 91
      510
 93
      500
310
4290DBDB98D95C1D1D585B10940D028333333333333E3BF0000000000000FB0107902409070040501000000000000111010841D405064090740C02480A0340
1001
ACAD
1000
AcDbSavedByObjectVersion
1070
     0
  0
ACAD_PROXY_OBJECT
  5
19DF0
102
{ACAD_REACTORS
330
19DE5
102
}
330
19DE5
100
AcDbZombieObject
 90
      499
 91
      510
 93
      412
310
40D11A5B50B409028333333333333E3BF0000000000000FB010790141107004050150841D405064090741402480A02677FFFFFD0
1001
ACAD
1000
AcDbSavedByObjectVersion
1070
     0
  0
ACAD_PROXY_OBJECT
  5
1E02A
102
{ACAD_REACTORS
330
19DE5
102
}
330
19DE5
100
AcDbZombieObject
 90
      499
 91
      510
 93
      452
310
43115919D950DBDB1BDC93D999916409028333333333333E3BF0000000000000FB010790141107004050150841D405064090741402480A0350
1001
ACAD
1000
AcDbSavedByObjectVersion
1070
     0
  0
ACAD_PROXY_OBJECT
  5
19DF4
102
{ACAD_REACTORS
330
19DE5
102
}
330
19DE5
100
AcDbZombieObject
 90
      499
 91
      510
 93
      444
310
42D19858D95C185D1D195C9B90F409028333333333333E3BF0000000000000FB010790141107004050150841D405064090741402480A0350
1001
ACAD
1000
AcDbSavedByObjectVersion
1070
     0
  0
ACAD_PROXY_OBJECT
  5
19DE6
102
{ACAD_REACTORS
330
19DE5
102
}
330
19DE5
100
AcDbZombieObject
 90
      499
 91
      510
 93
      388
310
41119B185D240901404333333333333E3BF0000000000000F9010740A41107004050150841D405064090741402480A1B50
1001
ACAD
1000
AcDbSavedByObjectVersion
1070
     0
  0
ACAD_PROXY_OBJECT
  5
19DE7
102
{ACAD_REACTORS
330
19DE5
102
}
330
19DE5
100
AcDbZombieObject
 90
      499
 91
      510
 93
      476
310
43519B185D15DA5D1A115919D95CD0140901404333333333333E3BF0000000000000F9010740901411070040501600405405064090741402480A1B50
1001
ACAD
1000
AcDbSavedByObjectVersion
1070
     0
  0
ACAD_PROXY_OBJECT
  5
19DE8
102
{ACAD_REACTORS
330
19DE5
102
}
330
19DE5
100
AcDbZombieObject
 90
      499
 91
      510
 93
      412
310
41D1DBDD5C985D5910240902404333333333333E3BF0000000000000F9010740A411070040501641D405064090741402480A1B50
1001
ACAD
1000
AcDbSavedByObjectVersion
1070
     0
  0
ACAD_PROXY_OBJECT
  5
19DE9
102
{ACAD_REACTORS
330
19DE5
102
}
330
19DE5
100
AcDbZombieObject
 90
      499
 91
      510
 93
      500
310
4411DBDD5C985D5915DA5D1A115919D95CD0340902404333333333333E3BF0000000000000F9010740901411070040501600405405064090741402480A1B50
1001
ACAD
1000
AcDbSavedByObjectVersion
1070
     0
  0
ACAD_PROXY_OBJECT
  5
1F381
102
{ACAD_REACTORS
330
19DE5
102
}
330
19DE5
100
AcDbZombieObject
 90
      499
 91
      510
 93
      476
310
41921A5919195B90640502408333333333333E3BF0000000000000FB01079024090700405020000000000001110200405405064090740C02480A0340
1001
ACAD
1000
AcDbSavedByObjectVersion
1070
     0
  0
ACAD_PROXY_OBJECT
  5
1E028
102
{ACAD_REACTORS
330
19DE5
102
}
330
19DE5
100
AcDbZombieObject
 90
      499
 91
      510
 93
      428
310
42529A5D1D195C93D999914409028333333333333E3BF0000000000000FB010790141107004050150A41D405064090741402480A0350
1001
ACAD
1000
AcDbSavedByObjectVersion
1070
     0
  0
ACAD_PROXY_OBJECT
  5
19DF3
102
{ACAD_REACTORS
330
19DE5
102
}
330
19DE5
100
AcDbZombieObject
 90
      499
 91
      510
 93
      444
310
42D31A5B995C185D1D195C9B90E409028333333333333E3BF0000000000000FB010790141107004050750841D405064090741402483A0350
1001
ACAD
1000
AcDbSavedByObjectVersion
1070
     0
  0
ACAD_PROXY_OBJECT
  5
219D4
102
{ACAD_REACTORS
330
19DE5
102
}
330
19DE5
100
AcDbZombieObject
 90
      499
 91
      510
 93
      484
310
42135BD9195B1A5B99D0A409038333333333333E33F0000000000000F901074090290700405010000000000201990108421405064090741402480A1B40
1001
ACAD
1000
AcDbSavedByObjectVersion
1070
     0
  0
ACAD_PROXY_OBJECT
  5
1E029
102
{ACAD_REACTORS
330
19DE5
102
}
330
19DE5
100
AcDbZombieObject
 90
      499
 91
      510
 93
      444
310
42D3DD995C9A185B99D3D999915409028333333333333E3BF0000000000000FB010790141107004050150941D405064090741402480A0350
1001
ACAD
1000
AcDbSavedByObjectVersion
1070
     0
  0
ACAD_PROXY_OBJECT
  5
19DEF
102
{ACAD_REACTORS
330
19DE5
102
}
330
19DE5
100
AcDbZombieObject
 90
      499
 91
      510
 93
      420
310
425499585B1A5CDD1A58D08409028333333333333E3BF0000000000000FB01079019070040501508421405064090741402480A1B40
1001
ACAD
1000
AcDbSavedByObjectVersion
1070
     0
  0
ACAD_PROXY_OBJECT
  5
1F386
102
{ACAD_REACTORS
330
19DE5
102
}
330
19DE5
100
AcDbZombieObject
 90
      499
 91
      510
 93
      420
310
4194DA1859195911B40902404333333333333E3BF0000000000000F9010740A41107004050150800405405064090840C02480A0B40
1001
ACAD
1000
AcDbSavedByObjectVersion
1070
     0
  0
ACAD_PROXY_OBJECT
  5
1F385
102
{ACAD_REACTORS
330
19DE5
102
}
330
19DE5
100
AcDbZombieObject
 90
      499
 91
      510
 93
      516
310
4454DA18591959081DDA5D1A08195919D95CD1A40902404333333333333E3BF0000000000000F901074090142907004050250800405405064090740C02480A0B40
1001
ACAD
1000
AcDbSavedByObjectVersion
1070
     0
  0
ACAD_PROXY_OBJECT
  5
1F382
102
{ACAD_REACTORS
330
19DE5
102
}
330
19DE5
100
AcDbZombieObject
 90
      499
 91
      510
 93
      532
310
4394DA1859195CC81BD98811DC985E5174090240C333333333333E3BF0000000000000FB01079024090741D01000000000000111010841D405064090740C02480A0340
1001
ACAD
1000
AcDbSavedByObjectVersion
1070
     0
  0
ACAD_PROXY_OBJECT
  5
1F383
102
{ACAD_REACTORS
330
19DE5
102
}
330
19DE5
100
AcDbZombieObject
 90
      499
 91
      510
 93
      476
310
41D4DAD95D18DA1E51840502408333333333333E3BF0000000000000FB01079024090741D01000000000000111010B41D405064090741802480A0340
1001
ACAD
1000
AcDbSavedByObjectVersion
1070
     0
  0
ACAD_PROXY_OBJECT
  5
19DF2
102
{ACAD_REACTORS
330
19DE5
102
}
330
19DE5
100
AcDbZombieObject
 90
      499
 91
      510
 93
      412
310
41D51A1A58DAD95B90D409028333333333333E3BF0000000000000FB010790141107004050150C41D405064090741402480A0350
1001
ACAD
1000
AcDbSavedByObjectVersion
1070
     0
  0
ACAD_PROXY_OBJECT
  5
1F380
102
{ACAD_REACTORS
330
19DE5
102
}
330
19DE5
100
AcDbZombieObject
 90
      499
 91
      510
 93
      420
310
4255DA5C99599C985B595059028333333333333E3BF0000000000000FB0107901411070040501600405405064090740C02480A0340
1001
ACAD
1000
AcDbSavedByObjectVersion
1070
     0
  0
ACAD_PROXY_OBJECT
  5
1F384
102
{ACAD_REACTORS
330
19DE5
102
}
330
19DE5
100
AcDbZombieObject
 90
      499
 91
      510
 93
      404
310
41560B54985E51940902404000000000000E03F0000000000000FB010740501907004050150841D405064090740C02480A1B40
1001
ACAD
1000
AcDbSavedByObjectVersion
1070
     0
  0
XRECORD
  5
22C88
102
{ACAD_REACTORS
330
22C87
102
}
330
22C87
100
AcDbXrecord
340
2D0
  0
XRECORD
  5
22C89
102
{ACAD_REACTORS
330
22C87
102
}
330
22C87
100
AcDbXrecord
340
2CF
  0
DICTIONARYVAR
  5
219EB
102
{ACAD_REACTORS
330
37
102
}
330
37
100
DictionaryVariables
280
     0
  1
1:1
  0
DICTIONARYVAR
  5
1AC19
102
{ACAD_REACTORS
330
37
102
}
330
37
100
DictionaryVariables
280
     0
  1
Standard
  0
DICTIONARYVAR
  5
4F1
102
{ACAD_REACTORS
330
37
102
}
330
37
100
DictionaryVariables
280
     0
  1
Standard
  0
DICTIONARYVAR
  5
38
102
{ACAD_REACTORS
330
37
102
}
330
37
100
DictionaryVariables
280
     0
  1
-1
  0
DICTIONARYVAR
  5
408
102
{ACAD_REACTORS
330
37
102
}
330
37
100
DictionaryVariables
280
     0
  1
2
  0
DICTIONARYVAR
  5
1891
102
{ACAD_REACTORS
330
37
102
}
330
37
100
DictionaryVariables
280
     0
  1
1
  0
DICTIONARYVAR
  5
1AC1C
102
{ACAD_REACTORS
330
37
102
}
330
37
100
DictionaryVariables
280
     0
  1
0
  0
DICTIONARYVAR
  5
1895
102
{ACAD_REACTORS
330
37
102
}
330
37
100
DictionaryVariables
280
     0
  1
8
  0
DICTIONARYVAR
  5
1894
102
{ACAD_REACTORS
330
37
102
}
330
37
100
DictionaryVariables
280
     0
  1
1
  0
DICTIONARYVAR
  5
211C3
102
{ACAD_REACTORS
330
37
102
}
330
37
100
DictionaryVariables
280
     0
  1
0
  0
DICTIONARYVAR
  5
211C4
102
{ACAD_REACTORS
330
37
102
}
330
37
100
DictionaryVariables
280
     0
  1
0
  0
DICTIONARYVAR
  5
20A9B
102
{ACAD_REACTORS
330
37
102
}
330
37
100
DictionaryVariables
280
     0
  1
0
  0
DICTIONARYVAR
  5
1892
102
{ACAD_REACTORS
330
37
102
}
330
37
100
DictionaryVariables
280
     0
  1
120
  0
DICTIONARYVAR
  5
1893
102
{ACAD_REACTORS
330
37
102
}
330
37
100
DictionaryVariables
280
     0
  1
0
  0
DICTIONARYVAR
  5
409
102
{ACAD_REACTORS
330
37
102
}
330
37
100
DictionaryVariables
280
     0
  1

  0
DICTIONARYVAR
  5
1AC1B
102
{ACAD_REACTORS
330
37
102
}
330
37
100
DictionaryVariables
280
     0
  1
127
  0
DICTIONARYVAR
  5
219D3
102
{ACAD_REACTORS
330
37
102
}
330
37
100
DictionaryVariables
280
     0
  1
2
  0
DICTIONARY
  5
22E25
330
19DD5
100
AcDbDictionary
  3
ACAD_XREC_ROUNDTRIP
360
22E26
1001
ACAD
1000
TREAT_AS_HARD
1070
     1
  0
DICTIONARY
  5
22E27
330
19DCD
100
AcDbDictionary
  3
ACAD_XREC_ROUNDTRIP
360
22E28
1001
ACAD
1000
TREAT_AS_HARD
1070
     1
  0
DICTIONARY
  5
22E29
330
19DDD
100
AcDbDictionary
  3
ACAD_XREC_ROUNDTRIP
360
22E2A
1001
ACAD
1000
TREAT_AS_HARD
1070
     1
  0
XRECORD
  5
22E26
102
{ACAD_REACTORS
330
22E25
102
}
330
22E25
100
AcDbXrecord
102
MATERIAL
148
0.0
149
0.0
149
0.0
 93
        0
 94
      127
282
     0
 72
     0
 77
     0
171
     0
175
     0
179
     0
273
     0
  0
XRECORD
  5
22E28
102
{ACAD_REACTORS
330
22E27
102
}
330
22E27
100
AcDbXrecord
102
MATERIAL
148
0.0
149
0.0
149
0.0
 93
        0
 94
      127
282
     0
 72
     0
 77
     0
171
     0
175
     0
179
     0
273
     0
  0
XRECORD
  5
22E2A
102
{ACAD_REACTORS
330
22E29
102
}
330
22E29
100
AcDbXrecord
102
MATERIAL
148
0.0
149
0.0
149
0.0
 93
        0
 94
      127
282
     0
 72
     0
 77
     0
171
     0
175
     0
179
     0
273
     0
  0
ENDSEC
  0
EOF
