  0
SECTION
  2
HEADER
  9
$ACADVER
  1
AC1009
  9
$DWGCODEPAGE
  3
ansi_932
  9
$INSBASE
 10
0.0
 20
0.0
 30
0.0
  9
$EXTMIN
 10
425.0162416153647
 20
-762.5631684100613
 30
0.0
  9
$EXTMAX
 10
759.5069040167624
 20
-551.8213303512664
 30
0.0
  9
$LIMMIN
 10
0.0
 20
0.0
  9
$LIMMAX
 10
420.0
 20
297.0
  9
$ORTHOMODE
 70
     0
  9
$REGENMODE
 70
     1
  9
$FILLMODE
 70
     1
  9
$QTEXTMODE
 70
     0
  9
$MIRRTEXT
 70
     0
  9
$DRAGMODE
 70
     2
  9
$LTSCALE
 40
0.5
  9
$OSMODE
 70
  2351
  9
$ATTMODE
 70
     1
  9
$TEXTSIZE
 40
4.0
  9
$TRACEWID
 40
1.0
  9
$TEXTSTYLE
  7
STANDARD
  9
$CLAYER
  8
1TEXT
  9
$CELTYPE
  6
BYLAYER
  9
$CECOLOR
 62
   256
  9
$DIMSCALE
 40
1.0
  9
$DIMASZ
 40
2.0
  9
$DIMEXO
 40
0.0
  9
$DIMDLI
 40
7.0
  9
$DIMRND
 40
0.0
  9
$DIMDLE
 40
0.0
  9
$DIMEXE
 40
1.0
  9
$DIMTP
 40
0.0
  9
$DIMTM
 40
0.0
  9
$DIMTXT
 40
3.5
  9
$DIMCEN
 40
0.0
  9
$DIMTSZ
 40
0.0
  9
$DIMTOL
 70
     0
  9
$DIMLIM
 70
     0
  9
$DIMTIH
 70
     0
  9
$DIMTOH
 70
     0
  9
$DIMSE1
 70
     0
  9
$DIMSE2
 70
     0
  9
$DIMTAD
 70
     1
  9
$DIMZIN
 70
     8
  9
$DIMBLK
  1

  9
$DIMASO
 70
     1
  9
$DIMSHO
 70
     1
  9
$DIMPOST
  1
 
  9
$DIMAPOST
  1

  9
$DIMALT
 70
     0
  9
$DIMALTD
 70
     2
  9
$DIMALTF
 40
25.4
  9
$DIMLFAC
 40
1.0
  9
$DIMTOFL
 70
     1
  9
$DIMTVP
 40
0.0
  9
$DIMTIX
 70
     0
  9
$DIMSOXD
 70
     0
  9
$DIMSAH
 70
     1
  9
$DIMBLK1
  1
OPEN30
  9
$DIMBLK2
  1
OPEN30
  9
$DIMSTYLE
  2
NEWX10
  9
$DIMCLRD
 70
   256
  9
$DIMCLRE
 70
   256
  9
$DIMCLRT
 70
   201
  9
$DIMTFAC
 40
0.7
  9
$DIMGAP
 40
0.7
  9
$LUNITS
 70
     2
  9
$LUPREC
 70
     4
  9
$SKETCHINC
 40
1.0
  9
$FILLETRAD
 40
0.0
  9
$AUNITS
 70
     0
  9
$AUPREC
 70
     2
  9
$MENU
  1
acad
  9
$ELEVATION
 40
0.0
  9
$PELEVATION
 40
0.0
  9
$THICKNESS
 40
0.0
  9
$LIMCHECK
 70
     0
  9
$CHAMFERA
 40
1.0
  9
$CHAMFERB
 40
1.0
  9
$SKPOLY
 70
     0
  9
$TDCREATE
 40
2453033.732663484
  9
$TDUPDATE
 40
2457862.66242088
  9
$TDINDWG
 40
2.5946550347
  9
$TDUSRTIMER
 40
2.5946550347
  9
$USRTIMER
 70
     1
  9
$ANGBASE
 50
0.0
  9
$ANGDIR
 70
     0
  9
$PDMODE
 70
     0
  9
$PDSIZE
 40
0.0
  9
$PLINEWID
 40
0.0
  9
$COORDS
 70
     2
  9
$SPLFRAME
 70
     0
  9
$SPLINETYPE
 70
     6
  9
$SPLINESEGS
 70
     8
  9
$ATTDIA
 70
     0
  9
$ATTREQ
 70
     1
  9
$HANDLING
 70
     1
  9
$HANDSEED
  5
21253
  9
$SURFTAB1
 70
     6
  9
$SURFTAB2
 70
     6
  9
$SURFTYPE
 70
     6
  9
$SURFU
 70
     6
  9
$SURFV
 70
     6
  9
$UCSNAME
  2

  9
$UCSORG
 10
0.0
 20
0.0
 30
0.0
  9
$UCSXDIR
 10
1.0
 20
0.0
 30
0.0
  9
$UCSYDIR
 10
0.0
 20
1.0
 30
0.0
  9
$PUCSNAME
  2

  9
$PUCSORG
 10
0.0
 20
0.0
 30
0.0
  9
$PUCSXDIR
 10
1.0
 20
0.0
 30
0.0
  9
$PUCSYDIR
 10
0.0
 20
1.0
 30
0.0
  9
$USERI1
 70
     0
  9
$USERI2
 70
     0
  9
$USERI3
 70
     0
  9
$USERI4
 70
     0
  9
$USERI5
 70
     0
  9
$USERR1
 40
0.0
  9
$USERR2
 40
0.0
  9
$USERR3
 40
0.0
  9
$USERR4
 40
0.0
  9
$USERR5
 40
0.0
  9
$WORLDVIEW
 70
     1
  9
$SHADEDGE
 70
     3
  9
$SHADEDIF
 70
    70
  9
$TILEMODE
 70
     1
  9
$MAXACTVP
 70
    48
  9
$PLIMCHECK
 70
     0
  9
$PEXTMIN
 10
1.000000000000000E+20
 20
1.000000000000000E+20
 30
1.000000000000000E+20
  9
$PEXTMAX
 10
-1.000000000000000E+20
 20
-1.000000000000000E+20
 30
-1.000000000000000E+20
  9
$PLIMMIN
 10
0.0
 20
0.0
  9
$PLIMMAX
 10
420.0
 20
297.0
  9
$UNITMODE
 70
     0
  9
$VISRETAIN
 70
     1
  9
$PLINEGEN
 70
     0
  9
$PSLTSCALE
 70
     1
  0
ENDSEC
  0
SECTION
  2
TABLES
  0
TABLE
  2
VPORT
 70
     1
  0
VPORT
  2
*ACTIVE
 70
     0
 10
0.0
 20
0.0
 11
1.0
 21
1.0
 12
592.2615728160636
 22
-657.1922493806638
 13
0.0
 23
0.0
 14
10.0
 24
10.0
 15
10.0
 25
10.0
 16
0.0
 26
0.0
 36
1.0
 17
0.0
 27
0.0
 37
0.0
 40
226.2701840210219
 41
2.117924528301887
 42
50.0
 43
0.0
 44
0.0
 50
0.0
 51
0.0
 71
    16
 72
   100
 73
     1
 74
     1
 75
     0
 76
     0
 77
     0
 78
     0
  0
ENDTAB
  0
TABLE
  2
LTYPE
 70
    18
  0
LTYPE
  2
CONTINUOUS
 70
     0
  3
Solid line
 72
    65
 73
     0
 40
0.0
  0
LTYPE
  2
CENTER2
 70
     0
  3
Center (.5x) ___ _ ___ _ ___ _ ___ _ ___ _ ___
 72
    65
 73
     4
 40
28.575
 49
19.05
 49
-3.175
 49
3.175
 49
-3.175
  0
LTYPE
  2
PHANTOM2
 70
     0
  3
Phantom (0.5x) ___ _ _ ___ _ _ ___ _ _ ___ _ _
 72
    65
 73
     6
 40
31.75
 49
15.875
 49
-3.175
 49
3.175
 49
-3.175
 49
3.175
 49
-3.175
  0
ENDTAB
  0
TABLE
  2
LAYER
 70
    44
  0
LAYER
  2
0
 70
     0
 62
     7
  6
CONTINUOUS
  0
LAYER
  2
1CENTER
 70
     0
 62
     7
  6
CENTER2
  0
LAYER
  2
1TEXT
 70
     0
 62
     7
  6
CONTINUOUS
  0
LAYER
  2
1DIM
 70
     0
 62
     7
  6
CONTINUOUS
  0
LAYER
  2
1PHANTOM
 70
     0
 62
     7
  6
PHANTOM2
  0
LAYER
  2
01
 70
     0
 62
     1
  6
CONTINUOUS
  0
ENDTAB
  0
TABLE
  2
STYLE
 70
    25
  0
STYLE
  2
STANDARD
 70
     0
 40
0.0
 41
1.0
 50
0.0
 71
     0
 42
4.0
  3
txt.shx
  4
extfont.shx
  0
ENDTAB
  0
TABLE
  2
VIEW
 70
     0
  0
ENDTAB
  0
TABLE
  2
UCS
 70
     0
  0
ENDTAB
  0
TABLE
  2
APPID
 70
    13
  0
APPID
  2
ACAD
 70
     0
  0
APPID
  2
DRAWINGVARIABLESXDATA
 70
     0
  0
APPID
  2
CONTENTTABDATA
 70
     0
  0
APPID
  2
CONTENTCURRENTTAB
 70
     0
  0
APPID
  2
CONTENTBLOCKDESCRIPTION
 70
     0
  0
APPID
  2
CONTENTBLOCKICON
 70
     0
  0
APPID
  2
CONTENTLONGBLOCKNAME
 70
     0
  0
APPID
  2
ACAD_PSEXT
 70
     0
  0
APPID
  2
ACAD_DSTYLE_DIMTEXT_FILL
 70
     0
  0
APPID
  2
ACAD_MLEADERVER
 70
     0
  0
APPID
  2
ACAD_DSTYLE_DIMRADIAL_EXTE
 70
     0
  0
APPID
  2
ACADANNOTATIVE
 70
     0
  0
APPID
  2
ACAD_EXEMPT_FROM_CAD_STAND
 70
     0
  0
ENDTAB
  0
TABLE
  2
DIMSTYLE
 70
    10
  0
DIMSTYLE
  2
NEWX10
 70
     0
  3
 
  4

  5

  6
OPEN30
  7
OPEN30
 40
1.0
 41
2.0
 42
0.0
 43
7.0
 44
1.0
 45
0.0
 46
0.0
 47
0.0
 48
0.0
140
3.5
141
0.0
142
0.0
143
25.4
144
1.0
145
0.0
146
0.7
147
0.7
 71
     0
 72
     0
 73
     0
 74
     0
 75
     0
 76
     0
 77
     1
 78
     8
170
     0
171
     2
172
     1
173
     1
174
     0
175
     0
176
   256
177
   256
178
   201
  0
ENDTAB
  0
ENDSEC
  0
SECTION
  2
BLOCKS
  0
BLOCK
  8
0
  2
$MODEL_SPACE
 70
     0
 10
0.0
 20
0.0
 30
0.0
  3
$MODEL_SPACE
  1

  0
ENDBLK
  5
1A
  8
0
  0
BLOCK
 67
     1
  8
0
  2
$PAPER_SPACE
 70
     0
 10
0.0
 20
0.0
 30
0.0
  3
$PAPER_SPACE
  1

  0
ENDBLK
  5
17
 67
     1
  8
0
  0
BLOCK
  8
0
  2
_OPEN30
 70
     0
 10
0.0
 20
0.0
 30
0.0
  3
_OPEN30
  1

  0
LINE
  5
44
  8
0
  6
BYBLOCK
 62
     0
 10
-1.0
 20
0.26794919
 30
0.0
 11
0.0
 21
0.0
 31
0.0
  0
LINE
  5
45
  8
0
  6
BYBLOCK
 62
     0
 10
0.0
 20
0.0
 30
0.0
 11
-1.0
 21
-0.26794919
 31
0.0
  0
LINE
  5
46
  8
0
  6
BYBLOCK
 62
     0
 10
0.0
 20
0.0
 30
0.0
 11
-1.0
 21
0.0
 31
0.0
  0
ENDBLK
  5
47
  8
0
  0
ENDSEC
  0
SECTION
  2
ENTITIES
  0
TEXT
  5
1DB93
  8
1TEXT
 10
681.9769459223726
 20
-570.3213303512664
 30
0.0
 40
4.0
  1
表面処理
 72
     1
 11
691.2436125890392
 21
-570.3213303512664
 31
0.0
  0
LINE
  5
1DB94
  8
1DIM
 10
673.8436125890391
 20
-564.8213303512664
 30
0.0
 11
743.8436125890391
 21
-564.8213303512664
 31
0.0
  0
LINE
  5
1DB95
  8
1DIM
 10
673.8436125890391
 20
-578.8213303512664
 30
0.0
 11
743.8436125890391
 21
-578.8213303512664
 31
0.0
  0
LINE
  5
1DB96
  8
1DIM
 10
673.8436125890391
 20
-571.8213303512664
 30
0.0
 11
743.8436125890391
 21
-571.8213303512664
 31
0.0
  0
TEXT
  5
1DB98
  8
1TEXT
 10
719.3769459223726
 20
-570.3213303512664
 30
0.0
 40
4.0
  1
コード
 72
     1
 11
726.2436125890392
 21
-570.3213303512664
 31
0.0
  0
TEXT
  5
1DB9B
  8
1TEXT
 10
673.8436125890391
 20
-559.8213303512664
 30
0.0
 40
8.0
  1
SC-960-XXS
  0
TEXT
  5
1DB9C
  8
1TEXT
 10
681.7769459223725
 20
-577.1566190107907
 30
0.0
 40
4.0
  1
クローム
 72
     1
 11
691.2436125890392
 21
-577.1566190107907
 31
0.0
  0
POLYLINE
  5
1FF0B
  8
1DIM
 66
     1
 10
0.0
 20
0.0
 30
0.0
  0
VERTEX
  5
2062F
  8
1DIM
 10
567.7158149540704
 20
-709.1170823187949
 30
0.0
  0
VERTEX
  5
20630
  8
1DIM
 10
567.7169762624039
 20
-709.116839464954
 30
0.0
  0
VERTEX
  5
20631
  8
1DIM
 10
567.7171043752054
 20
-709.1167520635302
 30
0.0
  0
VERTEX
  5
20632
  8
1DIM
 10
567.7151673255604
 20
-709.1169753620869
 30
0.0
  0
VERTEX
  5
20633
  8
1DIM
 10
567.7104901315129
 20
-709.117605086155
 30
0.0
  0
VERTEX
  5
20634
  8
1DIM
 10
567.7032479026819
 20
-709.1185952209014
 30
0.0
  0
VERTEX
  5
20635
  8
1DIM
 10
567.6937395671811
 20
-709.1198791065659
 30
0.0
  0
VERTEX
  5
20636
  8
1DIM
 10
567.6822640531237
 20
-709.1213900833884
 30
0.0
  0
VERTEX
  5
20637
  8
1DIM
 10
567.6691202886235
 20
-709.1230614916087
 30
0.0
  0
VERTEX
  5
20638
  8
1DIM
 10
567.654607201794
 20
-709.1248266714664
 30
0.0
  0
VERTEX
  5
20639
  8
1DIM
 10
567.6390233183068
 20
-709.1266190546188
 30
0.0
  0
VERTEX
  5
2063A
  8
1DIM
 10
567.6225807731408
 20
-709.1283916969294
 30
0.0
  0
VERTEX
  5
2063B
  8
1DIM
 10
567.6052984225742
 20
-709.1301415587722
 30
0.0
  0
VERTEX
  5
2063C
  8
1DIM
 10
567.5871688887256
 20
-709.1318715597804
 30
0.0
  0
VERTEX
  5
2063D
  8
1DIM
 10
567.5681847937145
 20
-709.1335846195876
 30
0.0
  0
VERTEX
  5
2063E
  8
1DIM
 10
567.5483387596598
 20
-709.1352836578274
 30
0.0
  0
VERTEX
  5
2063F
  8
1DIM
 10
567.5276234086809
 20
-709.136971594133
 30
0.0
  0
VERTEX
  5
20640
  8
1DIM
 10
567.5060313628966
 20
-709.138651348138
 30
0.0
  0
VERTEX
  5
20641
  8
1DIM
 10
567.483555244426
 20
-709.1403258394757
 30
0.0
  0
VERTEX
  5
20642
  8
1DIM
 10
567.4601876753885
 20
-709.1419979877797
 30
0.0
  0
VERTEX
  5
20643
  8
1DIM
 10
567.4359251808851
 20
-709.1436699825886
 30
0.0
  0
VERTEX
  5
20644
  8
1DIM
 10
567.4107836335061
 20
-709.1453403942858
 30
0.0
  0
VERTEX
  5
20645
  8
1DIM
 10
567.3847848898323
 20
-709.1470066738849
 30
0.0
  0
VERTEX
  5
20646
  8
1DIM
 10
567.3579508082105
 20
-709.1486662720691
 30
0.0
  0
VERTEX
  5
20647
  8
1DIM
 10
567.3303032469873
 20
-709.1503166395222
 30
0.0
  0
VERTEX
  5
20648
  8
1DIM
 10
567.3018640645099
 20
-709.151955226927
 30
0.0
  0
VERTEX
  5
20649
  8
1DIM
 10
567.2726551191247
 20
-709.153579484967
 30
0.0
  0
VERTEX
  5
2064A
  8
1DIM
 10
567.2426982691788
 20
-709.1551868643255
 30
0.0
  0
VERTEX
  5
2064B
  8
1DIM
 10
567.2120153730187
 20
-709.1567748156859
 30
0.0
  0
VERTEX
  5
2064C
  8
1DIM
 10
567.1806282889916
 20
-709.1583407897314
 30
0.0
  0
VERTEX
  5
2064D
  8
1DIM
 10
567.1485588754438
 20
-709.1598822371452
 30
0.0
  0
VERTEX
  5
2064E
  8
1DIM
 10
567.1158268449929
 20
-709.1613970056537
 30
0.0
  0
VERTEX
  5
2064F
  8
1DIM
 10
567.0824420870373
 20
-709.1628847606572
 30
0.0
  0
VERTEX
  5
20650
  8
1DIM
 10
567.0484116815562
 20
-709.1643456874073
 30
0.0
  0
VERTEX
  5
20651
  8
1DIM
 10
567.0137427083057
 20
-709.1657799711965
 30
0.0
  0
VERTEX
  5
20652
  8
1DIM
 10
566.9784422470417
 20
-709.1671877973176
 30
0.0
  0
VERTEX
  5
20653
  8
1DIM
 10
566.9425173775201
 20
-709.1685693510638
 30
0.0
  0
VERTEX
  5
20654
  8
1DIM
 10
566.9059751794966
 20
-709.1699248177274
 30
0.0
  0
VERTEX
  5
20655
  8
1DIM
 10
566.8688227327275
 20
-709.1712543826015
 30
0.0
  0
VERTEX
  5
20656
  8
1DIM
 10
566.8310671169685
 20
-709.1725582309788
 30
0.0
  0
VERTEX
  5
20657
  8
1DIM
 10
566.7927154119755
 20
-709.1738365481519
 30
0.0
  0
VERTEX
  5
20658
  8
1DIM
 10
566.7537746975045
 20
-709.175089519414
 30
0.0
  0
VERTEX
  5
20659
  8
1DIM
 10
566.7142520533112
 20
-709.1763173300574
 30
0.0
  0
VERTEX
  5
2065A
  8
1DIM
 10
566.6741552834203
 20
-709.1775201500874
 30
0.0
  0
VERTEX
  5
2065B
  8
1DIM
 10
566.6334956566175
 20
-709.1786980763749
 30
0.0
  0
VERTEX
  5
2065C
  8
1DIM
 10
566.5922854765557
 20
-709.179851183947
 30
0.0
  0
VERTEX
  5
2065D
  8
1DIM
 10
566.5505370470719
 20
-709.1809795478271
 30
0.0
  0
VERTEX
  5
2065E
  8
1DIM
 10
566.5082626720026
 20
-709.1820832430383
 30
0.0
  0
VERTEX
  5
2065F
  8
1DIM
 10
566.4654746551846
 20
-709.1831623446038
 30
0.0
  0
VERTEX
  5
20660
  8
1DIM
 10
566.4221853004548
 20
-709.1842169275471
 30
0.0
  0
VERTEX
  5
20661
  8
1DIM
 10
566.3784069116497
 20
-709.1852470668913
 30
0.0
  0
VERTEX
  5
20662
  8
1DIM
 10
566.3341517926062
 20
-709.1862528376596
 30
0.0
  0
VERTEX
  5
20663
  8
1DIM
 10
566.2894322471611
 20
-709.1872343148752
 30
0.0
  0
VERTEX
  5
20664
  8
1DIM
 10
566.2442605791509
 20
-709.1881915735615
 30
0.0
  0
VERTEX
  5
20665
  8
1DIM
 10
566.1986490924127
 20
-709.1891246887418
 30
0.0
  0
VERTEX
  5
20666
  8
1DIM
 10
566.1526100541205
 20
-709.1900337343508
 30
0.0
  0
VERTEX
  5
20667
  8
1DIM
 10
566.1061544278009
 20
-709.1909187456239
 30
0.0
  0
VERTEX
  5
20668
  8
1DIM
 10
566.0592915506704
 20
-709.1917797095184
 30
0.0
  0
VERTEX
  5
20669
  8
1DIM
 10
566.0120306577589
 20
-709.1926166099582
 30
0.0
  0
VERTEX
  5
2066A
  8
1DIM
 10
565.9643809840967
 20
-709.1934294308671
 30
0.0
  0
VERTEX
  5
2066B
  8
1DIM
 10
565.9163517647138
 20
-709.1942181561691
 30
0.0
  0
VERTEX
  5
2066C
  8
1DIM
 10
565.8679522346404
 20
-709.1949827697878
 30
0.0
  0
VERTEX
  5
2066D
  8
1DIM
 10
565.8191916289068
 20
-709.1957232556473
 30
0.0
  0
VERTEX
  5
2066E
  8
1DIM
 10
565.7700791825429
 20
-709.1964395976713
 30
0.0
  0
VERTEX
  5
2066F
  8
1DIM
 10
565.7206241305788
 20
-709.1971317797837
 30
0.0
  0
VERTEX
  5
20670
  8
1DIM
 10
565.670835708045
 20
-709.1977997859084
 30
0.0
  0
VERTEX
  5
20671
  8
1DIM
 10
565.6207231499714
 20
-709.1984435999691
 30
0.0
  0
VERTEX
  5
20672
  8
1DIM
 10
565.5702956913883
 20
-709.1990632058898
 30
0.0
  0
VERTEX
  5
20673
  8
1DIM
 10
565.5195625885057
 20
-709.199658637441
 30
0.0
  0
VERTEX
  5
20674
  8
1DIM
 10
565.4685332892695
 20
-709.2002303796364
 30
0.0
  0
VERTEX
  5
20675
  8
1DIM
 10
565.4172173435725
 20
-709.2007791574185
 30
0.0
  0
VERTEX
  5
20676
  8
1DIM
 10
565.3656243022507
 20
-709.2013056979499
 30
0.0
  0
VERTEX
  5
20677
  8
1DIM
 10
565.3137637161403
 20
-709.2018107283935
 30
0.0
  0
VERTEX
  5
20678
  8
1DIM
 10
565.2616451360776
 20
-709.202294975912
 30
0.0
  0
VERTEX
  5
20679
  8
1DIM
 10
565.2092781128987
 20
-709.2027591676685
 30
0.0
  0
VERTEX
  5
2067A
  8
1DIM
 10
565.1566721974397
 20
-709.2032040308255
 30
0.0
  0
VERTEX
  5
2067B
  8
1DIM
 10
565.1038369405369
 20
-709.203630292546
 30
0.0
  0
VERTEX
  5
2067C
  8
1DIM
 10
565.0507818930263
 20
-709.204038679993
 30
0.0
  0
VERTEX
  5
2067D
  8
1DIM
 10
564.9975166057442
 20
-709.2044299203291
 30
0.0
  0
VERTEX
  5
2067E
  8
1DIM
 10
564.9440506295267
 20
-709.2048047407171
 30
0.0
  0
VERTEX
  5
2067F
  8
1DIM
 10
564.8903935152102
 20
-709.2051638683199
 30
0.0
  0
VERTEX
  5
20680
  8
1DIM
 10
564.8365551927719
 20
-709.2055077521927
 30
0.0
  0
VERTEX
  5
20681
  8
1DIM
 10
564.7825481875923
 20
-709.2058349376111
 30
0.0
  0
VERTEX
  5
20682
  8
1DIM
 10
564.728386112093
 20
-709.2061431724843
 30
0.0
  0
VERTEX
  5
20683
  8
1DIM
 10
564.6740825823864
 20
-709.2064302020143
 30
0.0
  0
VERTEX
  5
20684
  8
1DIM
 10
564.6196512145848
 20
-709.2066937714031
 30
0.0
  0
VERTEX
  5
20685
  8
1DIM
 10
564.5651056248005
 20
-709.2069316258528
 30
0.0
  0
VERTEX
  5
20686
  8
1DIM
 10
564.5104594291457
 20
-709.2071415105654
 30
0.0
  0
VERTEX
  5
20687
  8
1DIM
 10
564.4557262437329
 20
-709.2073211707431
 30
0.0
  0
VERTEX
  5
20688
  8
1DIM
 10
564.4009196846742
 20
-709.2074683515876
 30
0.0
  0
VERTEX
  5
20689
  8
1DIM
 10
564.3460533680823
 20
-709.2075807983014
 30
0.0
  0
VERTEX
  5
2068A
  8
1DIM
 10
564.2911409100691
 20
-709.2076562560861
 30
0.0
  0
VERTEX
  5
2068B
  8
1DIM
 10
564.2361959267471
 20
-709.2076924701443
 30
0.0
  0
VERTEX
  5
2068C
  8
1DIM
 10
564.1812320340449
 20
-709.2076871859384
 30
0.0
  0
VERTEX
  5
2068D
  8
1DIM
 10
564.1262606248011
 20
-709.2076413075489
 30
0.0
  0
VERTEX
  5
2068E
  8
1DIM
 10
564.0712853324626
 20
-709.2075667637773
 30
0.0
  0
VERTEX
  5
2068F
  8
1DIM
 10
564.0163080985768
 20
-709.2074778873146
 30
0.0
  0
SEQEND
  5
21239
  8
1DIM
  0
LINE
  5
1FF0C
  8
1DIM
 10
564.0162416153647
 20
-709.2077808515294
 30
0.0
 11
500.0162416153649
 21
-709.2077808515294
 31
0.0
  0
LINE
  5
1FF0D
  8
1DIM
 10
575.0162416153647
 20
-723.2673891129191
 30
0.0
 11
572.0162416153647
 21
-723.2673891129191
 31
0.0
  0
LINE
  5
1FF0E
  8
1DIM
 10
572.0162416153647
 20
-709.7680115823289
 30
0.0
 11
572.0162416153647
 21
-723.2673891129191
 31
0.0
  0
POLYLINE
  5
1FF0F
  8
1DIM
 66
     1
 10
0.0
 20
0.0
 30
0.0
  0
VERTEX
  5
20690
  8
1DIM
 10
572.0162416153647
 20
-709.7680115823289
 30
0.0
  0
VERTEX
  5
20691
  8
1DIM
 10
572.0558144384117
 20
-709.7680115589532
 30
0.0
  0
VERTEX
  5
20692
  8
1DIM
 10
572.0952992802844
 20
-709.7680114732719
 30
0.0
  0
VERTEX
  5
20693
  8
1DIM
 10
572.1346963815623
 20
-709.7680113019544
 30
0.0
  0
VERTEX
  5
20694
  8
1DIM
 10
572.1740059828253
 20
-709.7680110216696
 30
0.0
  0
VERTEX
  5
20695
  8
1DIM
 10
572.213228324653
 20
-709.7680106090866
 30
0.0
  0
VERTEX
  5
20696
  8
1DIM
 10
572.2523636476252
 20
-709.7680100408744
 30
0.0
  0
VERTEX
  5
20697
  8
1DIM
 10
572.2914121923214
 20
-709.7680092937022
 30
0.0
  0
VERTEX
  5
20698
  8
1DIM
 10
572.3303741993215
 20
-709.7680083442391
 30
0.0
  0
VERTEX
  5
20699
  8
1DIM
 10
572.369249909205
 20
-709.7680071691541
 30
0.0
  0
VERTEX
  5
2069A
  8
1DIM
 10
572.4080395625518
 20
-709.7680057451163
 30
0.0
  0
VERTEX
  5
2069B
  8
1DIM
 10
572.4467433999416
 20
-709.7680040487946
 30
0.0
  0
VERTEX
  5
2069C
  8
1DIM
 10
572.4853616619539
 20
-709.7680020568584
 30
0.0
  0
VERTEX
  5
2069D
  8
1DIM
 10
572.5238945891684
 20
-709.7679997459766
 30
0.0
  0
VERTEX
  5
2069E
  8
1DIM
 10
572.562342422165
 20
-709.7679970928183
 30
0.0
  0
VERTEX
  5
2069F
  8
1DIM
 10
572.6007054015233
 20
-709.7679940740526
 30
0.0
  0
VERTEX
  5
206A0
  8
1DIM
 10
572.6390078803139
 20
-709.767990648814
 30
0.0
  0
VERTEX
  5
206A1
  8
1DIM
 10
572.6772649892625
 20
-709.7679867476028
 30
0.0
  0
VERTEX
  5
206A2
  8
1DIM
 10
572.7154631354314
 20
-709.7679823041359
 30
0.0
  0
VERTEX
  5
206A3
  8
1DIM
 10
572.7535887258827
 20
-709.7679772521308
 30
0.0
  0
VERTEX
  5
206A4
  8
1DIM
 10
572.7916281676786
 20
-709.7679715253043
 30
0.0
  0
VERTEX
  5
206A5
  8
1DIM
 10
572.8295678678815
 20
-709.7679650573739
 30
0.0
  0
VERTEX
  5
206A6
  8
1DIM
 10
572.8673942335536
 20
-709.7679577820567
 30
0.0
  0
VERTEX
  5
206A7
  8
1DIM
 10
572.9050936717572
 20
-709.7679496330697
 30
0.0
  0
VERTEX
  5
206A8
  8
1DIM
 10
572.9426525895543
 20
-709.7679405441303
 30
0.0
  0
VERTEX
  5
206A9
  8
1DIM
 10
572.9800573940074
 20
-709.7679304489556
 30
0.0
  0
VERTEX
  5
206AA
  8
1DIM
 10
573.0172944921787
 20
-709.7679192812625
 30
0.0
  0
VERTEX
  5
206AB
  8
1DIM
 10
573.0543502911303
 20
-709.7679069747686
 30
0.0
  0
VERTEX
  5
206AC
  8
1DIM
 10
573.0912111979245
 20
-709.767893463191
 30
0.0
  0
VERTEX
  5
206AD
  8
1DIM
 10
573.1278636196237
 20
-709.7678786802466
 30
0.0
  0
VERTEX
  5
206AE
  8
1DIM
 10
573.16429396329
 20
-709.7678625596528
 30
0.0
  0
VERTEX
  5
206AF
  8
1DIM
 10
573.2004843349171
 20
-709.76784504194
 30
0.0
  0
VERTEX
  5
206B0
  8
1DIM
 10
573.2364260032128
 20
-709.7678260451344
 30
0.0
  0
VERTEX
  5
206B1
  8
1DIM
 10
573.2721191193115
 20
-709.7678054691974
 30
0.0
  0
VERTEX
  5
206B2
  8
1DIM
 10
573.3075638343464
 20
-709.7677832140906
 30
0.0
  0
VERTEX
  5
206B3
  8
1DIM
 10
573.3427602994519
 20
-709.7677591797755
 30
0.0
  0
VERTEX
  5
206B4
  8
1DIM
 10
573.3777086657615
 20
-709.7677332662132
 30
0.0
  0
VERTEX
  5
206B5
  8
1DIM
 10
573.412409084409
 20
-709.7677053733655
 30
0.0
  0
VERTEX
  5
206B6
  8
1DIM
 10
573.4468617065282
 20
-709.7676754011934
 30
0.0
  0
VERTEX
  5
206B7
  8
1DIM
 10
573.4810666832532
 20
-709.7676432496588
 30
0.0
  0
VERTEX
  5
206B8
  8
1DIM
 10
573.5150241657176
 20
-709.7676088187227
 30
0.0
  0
VERTEX
  5
206B9
  8
1DIM
 10
573.5487343050552
 20
-709.7675720083469
 30
0.0
  0
VERTEX
  5
206BA
  8
1DIM
 10
573.5821972523999
 20
-709.7675327184922
 30
0.0
  0
VERTEX
  5
206BB
  8
1DIM
 10
573.6154131588855
 20
-709.7674908491209
 30
0.0
  0
VERTEX
  5
206BC
  8
1DIM
 10
573.6483821756459
 20
-709.7674463001937
 30
0.0
  0
VERTEX
  5
206BD
  8
1DIM
 10
573.6811044538149
 20
-709.7673989716724
 30
0.0
  0
VERTEX
  5
206BE
  8
1DIM
 10
573.7135861950883
 20
-709.7673486873458
 30
0.0
  0
VERTEX
  5
206BF
  8
1DIM
 10
573.745824755677
 20
-709.7672952797795
 30
0.0
  0
VERTEX
  5
206C0
  8
1DIM
 10
573.7778070184875
 20
-709.7672386620993
 30
0.0
  0
VERTEX
  5
206C1
  8
1DIM
 10
573.8095198664262
 20
-709.7671787474308
 30
0.0
  0
VERTEX
  5
206C2
  8
1DIM
 10
573.8409501823998
 20
-709.7671154489
 30
0.0
  0
VERTEX
  5
206C3
  8
1DIM
 10
573.8720848493145
 20
-709.7670486796325
 30
0.0
  0
VERTEX
  5
206C4
  8
1DIM
 10
573.902910750077
 20
-709.7669783527543
 30
0.0
  0
VERTEX
  5
206C5
  8
1DIM
 10
573.9334147675938
 20
-709.7669043813913
 30
0.0
  0
VERTEX
  5
206C6
  8
1DIM
 10
573.9635837847711
 20
-709.7668266786691
 30
0.0
  0
VERTEX
  5
206C7
  8
1DIM
 10
573.9934046845158
 20
-709.7667451577136
 30
0.0
  0
VERTEX
  5
206C8
  8
1DIM
 10
574.022864349734
 20
-709.7666597316505
 30
0.0
  0
VERTEX
  5
206C9
  8
1DIM
 10
574.0519496633324
 20
-709.7665703136059
 30
0.0
  0
VERTEX
  5
206CA
  8
1DIM
 10
574.0806475082175
 20
-709.7664768167053
 30
0.0
  0
VERTEX
  5
206CB
  8
1DIM
 10
574.1089447672955
 20
-709.7663791540748
 30
0.0
  0
VERTEX
  5
206CC
  8
1DIM
 10
574.1368283234732
 20
-709.76627723884
 30
0.0
  0
VERTEX
  5
206CD
  8
1DIM
 10
574.1643115416679
 20
-709.7661709720501
 30
0.0
  0
VERTEX
  5
206CE
  8
1DIM
 10
574.1914161359095
 20
-709.7660602272637
 30
0.0
  0
VERTEX
  5
206CF
  8
1DIM
 10
574.2181415127726
 20
-709.7659448763701
 30
0.0
  0
VERTEX
  5
206D0
  8
1DIM
 10
574.2444870788322
 20
-709.7658247912591
 30
0.0
  0
VERTEX
  5
206D1
  8
1DIM
 10
574.2704522406632
 20
-709.76569984382
 30
0.0
  0
VERTEX
  5
206D2
  8
1DIM
 10
574.2960364048402
 20
-709.7655699059426
 30
0.0
  0
VERTEX
  5
206D3
  8
1DIM
 10
574.3212389779383
 20
-709.7654348495164
 30
0.0
  0
VERTEX
  5
206D4
  8
1DIM
 10
574.3460593665321
 20
-709.7652945464308
 30
0.0
  0
VERTEX
  5
206D5
  8
1DIM
 10
574.3704969771967
 20
-709.7651488685755
 30
0.0
  0
VERTEX
  5
206D6
  8
1DIM
 10
574.3945512165067
 20
-709.7649976878398
 30
0.0
  0
VERTEX
  5
206D7
  8
1DIM
 10
574.4182214910371
 20
-709.7648408761136
 30
0.0
  0
VERTEX
  5
206D8
  8
1DIM
 10
574.4415072073626
 20
-709.7646783052863
 30
0.0
  0
VERTEX
  5
206D9
  8
1DIM
 10
574.4644077720582
 20
-709.7645098472473
 30
0.0
  0
VERTEX
  5
206DA
  8
1DIM
 10
574.4869225916987
 20
-709.7643353738864
 30
0.0
  0
VERTEX
  5
206DB
  8
1DIM
 10
574.5090510728587
 20
-709.764154757093
 30
0.0
  0
VERTEX
  5
206DC
  8
1DIM
 10
574.5307668162119
 20
-709.7639679959411
 30
0.0
  0
VERTEX
  5
206DD
  8
1DIM
 10
574.5520414786415
 20
-709.7637751510332
 30
0.0
  0
VERTEX
  5
206DE
  8
1DIM
 10
574.5728715510371
 20
-709.7635761865508
 30
0.0
  0
VERTEX
  5
206DF
  8
1DIM
 10
574.5932535242885
 20
-709.7633710666761
 30
0.0
  0
VERTEX
  5
206E0
  8
1DIM
 10
574.6131838892851
 20
-709.7631597555908
 30
0.0
  0
VERTEX
  5
206E1
  8
1DIM
 10
574.6326591369168
 20
-709.7629422174767
 30
0.0
  0
VERTEX
  5
206E2
  8
1DIM
 10
574.6516757580731
 20
-709.7627184165158
 30
0.0
  0
VERTEX
  5
206E3
  8
1DIM
 10
574.6702302436438
 20
-709.7624883168897
 30
0.0
  0
VERTEX
  5
206E4
  8
1DIM
 10
574.6883190845183
 20
-709.7622518827807
 30
0.0
  0
VERTEX
  5
206E5
  8
1DIM
 10
574.7059387715866
 20
-709.7620090783702
 30
0.0
  0
VERTEX
  5
206E6
  8
1DIM
 10
574.7230857957381
 20
-709.7617598678402
 30
0.0
  0
VERTEX
  5
206E7
  8
1DIM
 10
574.7397566478626
 20
-709.7615042153726
 30
0.0
  0
VERTEX
  5
206E8
  8
1DIM
 10
574.7559478188497
 20
-709.7612420851493
 30
0.0
  0
VERTEX
  5
206E9
  8
1DIM
 10
574.771655799589
 20
-709.760973441352
 30
0.0
  0
VERTEX
  5
206EA
  8
1DIM
 10
574.7868770809703
 20
-709.7606982481627
 30
0.0
  0
VERTEX
  5
206EB
  8
1DIM
 10
574.8016195914983
 20
-709.7604161242118
 30
0.0
  0
VERTEX
  5
206EC
  8
1DIM
 10
574.8158922026092
 20
-709.7601267205006
 30
0.0
  0
VERTEX
  5
206ED
  8
1DIM
 10
574.8296928195903
 20
-709.7598300497673
 30
0.0
  0
VERTEX
  5
206EE
  8
1DIM
 10
574.8430193477283
 20
-709.7595261247503
 30
0.0
  0
VERTEX
  5
206EF
  8
1DIM
 10
574.8558696923101
 20
-709.7592149581877
 30
0.0
  0
VERTEX
  5
206F0
  8
1DIM
 10
574.8682417586226
 20
-709.7588965628179
 30
0.0
  0
VERTEX
  5
206F1
  8
1DIM
 10
574.8801334519529
 20
-709.7585709513788
 30
0.0
  0
VERTEX
  5
206F2
  8
1DIM
 10
574.8915426775876
 20
-709.7582381366091
 30
0.0
  0
VERTEX
  5
206F3
  8
1DIM
 10
574.902467340814
 20
-709.7578981312467
 30
0.0
  0
VERTEX
  5
206F4
  8
1DIM
 10
574.9129053469189
 20
-709.75755094803
 30
0.0
  0
VERTEX
  5
206F5
  8
1DIM
 10
574.9228546011892
 20
-709.7571965996973
 30
0.0
  0
VERTEX
  5
206F6
  8
1DIM
 10
574.9323130089118
 20
-709.7568350989867
 30
0.0
  0
VERTEX
  5
206F7
  8
1DIM
 10
574.9412784753737
 20
-709.7564664586365
 30
0.0
  0
VERTEX
  5
206F8
  8
1DIM
 10
574.9497489058618
 20
-709.756090691385
 30
0.0
  0
VERTEX
  5
206F9
  8
1DIM
 10
574.9577222056629
 20
-709.7557078099704
 30
0.0
  0
VERTEX
  5
206FA
  8
1DIM
 10
574.9651962800641
 20
-709.7553178271307
 30
0.0
  0
VERTEX
  5
206FB
  8
1DIM
 10
574.9721690343523
 20
-709.7549207556045
 30
0.0
  0
VERTEX
  5
206FC
  8
1DIM
 10
574.9786383738143
 20
-709.7545166081301
 30
0.0
  0
VERTEX
  5
206FD
  8
1DIM
 10
574.9846022037373
 20
-709.7541053974453
 30
0.0
  0
VERTEX
  5
206FE
  8
1DIM
 10
574.9900584294079
 20
-709.7536871362887
 30
0.0
  0
VERTEX
  5
206FF
  8
1DIM
 10
574.9950049561132
 20
-709.7532618373984
 30
0.0
  0
VERTEX
  5
20700
  8
1DIM
 10
574.9994396891401
 20
-709.7528295135127
 30
0.0
  0
VERTEX
  5
20701
  8
1DIM
 10
575.0033605337757
 20
-709.7523901773699
 30
0.0
  0
VERTEX
  5
20702
  8
1DIM
 10
575.0067653953065
 20
-709.751943841708
 30
0.0
  0
VERTEX
  5
20703
  8
1DIM
 10
575.0096521790198
 20
-709.7514905192655
 30
0.0
  0
VERTEX
  5
20704
  8
1DIM
 10
575.0120187902024
 20
-709.7510302227806
 30
0.0
  0
VERTEX
  5
20705
  8
1DIM
 10
575.0138631341414
 20
-709.7505629649914
 30
0.0
  0
VERTEX
  5
20706
  8
1DIM
 10
575.0151831161234
 20
-709.7500887586365
 30
0.0
  0
VERTEX
  5
20707
  8
1DIM
 10
575.0159766414355
 20
-709.7496076164537
 30
0.0
  0
VERTEX
  5
20708
  8
1DIM
 10
575.0162416153647
 20
-709.7491195511814
 30
0.0
  0
SEQEND
  5
2123A
  8
1DIM
  0
LINE
  5
1FF10
  8
01
  6
CONTINUOUS
 10
575.0162416153647
 20
-723.2673891129191
 30
0.0
 11
575.0162416153647
 21
-709.7491195511814
 31
0.0
  0
POLYLINE
  5
1FF11
  8
01
  6
CONTINUOUS
 66
     1
 10
0.0
 20
0.0
 30
0.0
  0
VERTEX
  5
20709
  8
01
  6
CONTINUOUS
 10
574.5162416153647
 20
-709.2491749656901
 30
0.0
  0
VERTEX
  5
2070A
  8
01
  6
CONTINUOUS
 10
574.516020102549
 20
-709.2496623132083
 30
0.0
  0
VERTEX
  5
2070B
  8
01
  6
CONTINUOUS
 10
574.5153567493497
 20
-709.2501427331848
 30
0.0
  0
VERTEX
  5
2070C
  8
01
  6
CONTINUOUS
 10
574.5142533336389
 20
-709.250616212985
 30
0.0
  0
VERTEX
  5
2070D
  8
01
  6
CONTINUOUS
 10
574.5127116332883
 20
-709.2510827399734
 30
0.0
  0
VERTEX
  5
2070E
  8
01
  6
CONTINUOUS
 10
574.5107334261702
 20
-709.2515423015147
 30
0.0
  0
VERTEX
  5
2070F
  8
01
  6
CONTINUOUS
 10
574.5083204901562
 20
-709.2519948849741
 30
0.0
  0
VERTEX
  5
20710
  8
01
  6
CONTINUOUS
 10
574.5054746031184
 20
-709.2524404777164
 30
0.0
  0
VERTEX
  5
20711
  8
01
  6
CONTINUOUS
 10
574.5021975429289
 20
-709.2528790671063
 30
0.0
  0
VERTEX
  5
20712
  8
01
  6
CONTINUOUS
 10
574.4984910874593
 20
-709.2533106405086
 30
0.0
  0
VERTEX
  5
20713
  8
01
  6
CONTINUOUS
 10
574.4943570145819
 20
-709.2537351852883
 30
0.0
  0
VERTEX
  5
20714
  8
01
  6
CONTINUOUS
 10
574.4897971021685
 20
-709.2541526888101
 30
0.0
  0
VERTEX
  5
20715
  8
01
  6
CONTINUOUS
 10
574.484813128091
 20
-709.2545631384392
 30
0.0
  0
VERTEX
  5
20716
  8
01
  6
CONTINUOUS
 10
574.4794068702213
 20
-709.2549665215399
 30
0.0
  0
VERTEX
  5
20717
  8
01
  6
CONTINUOUS
 10
574.4735801064315
 20
-709.2553628254774
 30
0.0
  0
VERTEX
  5
20718
  8
01
  6
CONTINUOUS
 10
574.4673346145936
 20
-709.2557520376165
 30
0.0
  0
VERTEX
  5
20719
  8
01
  6
CONTINUOUS
 10
574.4606721725792
 20
-709.256134145322
 30
0.0
  0
VERTEX
  5
2071A
  8
01
  6
CONTINUOUS
 10
574.4535945582605
 20
-709.2565091359589
 30
0.0
  0
VERTEX
  5
2071B
  8
01
  6
CONTINUOUS
 10
574.4461035495094
 20
-709.2568769968917
 30
0.0
  0
VERTEX
  5
2071C
  8
01
  6
CONTINUOUS
 10
574.438200924198
 20
-709.2572377154858
 30
0.0
  0
VERTEX
  5
2071D
  8
01
  6
CONTINUOUS
 10
574.4298884601981
 20
-709.2575912791053
 30
0.0
  0
VERTEX
  5
2071E
  8
01
  6
CONTINUOUS
 10
574.4211679353816
 20
-709.2579376751157
 30
0.0
  0
VERTEX
  5
2071F
  8
01
  6
CONTINUOUS
 10
574.4120411276205
 20
-709.2582768908816
 30
0.0
  0
VERTEX
  5
20720
  8
01
  6
CONTINUOUS
 10
574.4025098147868
 20
-709.2586089137677
 30
0.0
  0
VERTEX
  5
20721
  8
01
  6
CONTINUOUS
 10
574.3925757747523
 20
-709.2589337311392
 30
0.0
  0
VERTEX
  5
20722
  8
01
  6
CONTINUOUS
 10
574.3822407853892
 20
-709.2592513303606
 30
0.0
  0
VERTEX
  5
20723
  8
01
  6
CONTINUOUS
 10
574.3715066245691
 20
-709.2595616987969
 30
0.0
  0
VERTEX
  5
20724
  8
01
  6
CONTINUOUS
 10
574.3603750701643
 20
-709.2598648238131
 30
0.0
  0
VERTEX
  5
20725
  8
01
  6
CONTINUOUS
 10
574.3488479000464
 20
-709.2601606927738
 30
0.0
  0
VERTEX
  5
20726
  8
01
  6
CONTINUOUS
 10
574.3369268920877
 20
-709.2604492930438
 30
0.0
  0
VERTEX
  5
20727
  8
01
  6
CONTINUOUS
 10
574.3246138241599
 20
-709.2607306119882
 30
0.0
  0
VERTEX
  5
20728
  8
01
  6
CONTINUOUS
 10
574.3119011432402
 20
-709.261005001814
 30
0.0
  0
VERTEX
  5
20729
  8
01
  6
CONTINUOUS
 10
574.2987821420445
 20
-709.2612728468814
 30
0.0
  0
VERTEX
  5
2072A
  8
01
  6
CONTINUOUS
 10
574.2852598670523
 20
-709.2615341827844
 30
0.0
  0
VERTEX
  5
2072B
  8
01
  6
CONTINUOUS
 10
574.2713373647437
 20
-709.2617890451171
 30
0.0
  0
VERTEX
  5
2072C
  8
01
  6
CONTINUOUS
 10
574.2570176815981
 20
-709.2620374694734
 30
0.0
  0
VERTEX
  5
2072D
  8
01
  6
CONTINUOUS
 10
574.2423038640952
 20
-709.2622794914474
 30
0.0
  0
VERTEX
  5
2072E
  8
01
  6
CONTINUOUS
 10
574.2271989587152
 20
-709.2625151466334
 30
0.0
  0
VERTEX
  5
2072F
  8
01
  6
CONTINUOUS
 10
574.2117060119375
 20
-709.2627444706252
 30
0.0
  0
VERTEX
  5
20730
  8
01
  6
CONTINUOUS
 10
574.195828070242
 20
-709.2629674990169
 30
0.0
  0
VERTEX
  5
20731
  8
01
  6
CONTINUOUS
 10
574.1795681801084
 20
-709.2631842674027
 30
0.0
  0
VERTEX
  5
20732
  8
01
  6
CONTINUOUS
 10
574.1629293880164
 20
-709.2633948113765
 30
0.0
  0
VERTEX
  5
20733
  8
01
  6
CONTINUOUS
 10
574.145914740446
 20
-709.2635991665325
 30
0.0
  0
VERTEX
  5
20734
  8
01
  6
CONTINUOUS
 10
574.1285272838766
 20
-709.2637973684646
 30
0.0
  0
VERTEX
  5
20735
  8
01
  6
CONTINUOUS
 10
574.1107700647881
 20
-709.263989452767
 30
0.0
  0
VERTEX
  5
20736
  8
01
  6
CONTINUOUS
 10
574.0926461296602
 20
-709.2641754550336
 30
0.0
  0
VERTEX
  5
20737
  8
01
  6
CONTINUOUS
 10
574.074178934407
 20
-709.2643553199637
 30
0.0
  0
VERTEX
  5
20738
  8
01
  6
CONTINUOUS
 10
574.0553902515265
 20
-709.2645290540744
 30
0.0
  0
VERTEX
  5
20739
  8
01
  6
CONTINUOUS
 10
574.0362806023757
 20
-709.2646967856873
 30
0.0
  0
VERTEX
  5
2073A
  8
01
  6
CONTINUOUS
 10
574.0168505083109
 20
-709.2648586431241
 30
0.0
  0
VERTEX
  5
2073B
  8
01
  6
CONTINUOUS
 10
573.9971004906886
 20
-709.2650147547059
 30
0.0
  0
VERTEX
  5
2073C
  8
01
  6
CONTINUOUS
 10
573.9770310708652
 20
-709.2651652487547
 30
0.0
  0
VERTEX
  5
2073D
  8
01
  6
CONTINUOUS
 10
573.9566427701976
 20
-709.2653102535918
 30
0.0
  0
VERTEX
  5
2073E
  8
01
  6
CONTINUOUS
 10
573.9359361100421
 20
-709.2654498975387
 30
0.0
  0
VERTEX
  5
2073F
  8
01
  6
CONTINUOUS
 10
573.9149116117553
 20
-709.265584308917
 30
0.0
  0
VERTEX
  5
20740
  8
01
  6
CONTINUOUS
 10
573.8935697966938
 20
-709.2657136160483
 30
0.0
  0
VERTEX
  5
20741
  8
01
  6
CONTINUOUS
 10
573.871911186214
 20
-709.2658379472539
 30
0.0
  0
VERTEX
  5
20742
  8
01
  6
CONTINUOUS
 10
573.8499363016724
 20
-709.2659574308557
 30
0.0
  0
VERTEX
  5
20743
  8
01
  6
CONTINUOUS
 10
573.8276456644257
 20
-709.2660721951748
 30
0.0
  0
VERTEX
  5
20744
  8
01
  6
CONTINUOUS
 10
573.8050397958306
 20
-709.2661823685328
 30
0.0
  0
VERTEX
  5
20745
  8
01
  6
CONTINUOUS
 10
573.7821192172432
 20
-709.2662880792516
 30
0.0
  0
VERTEX
  5
20746
  8
01
  6
CONTINUOUS
 10
573.7588660191602
 20
-709.2663894532009
 30
0.0
  0
VERTEX
  5
20747
  8
01
  6
CONTINUOUS
 10
573.7352692587847
 20
-709.2664865887333
 30
0.0
  0
VERTEX
  5
20748
  8
01
  6
CONTINUOUS
 10
573.7113399075339
 20
-709.2665795728941
 30
0.0
  0
VERTEX
  5
20749
  8
01
  6
CONTINUOUS
 10
573.6870889368248
 20
-709.2666684927287
 30
0.0
  0
VERTEX
  5
2074A
  8
01
  6
CONTINUOUS
 10
573.6625273180745
 20
-709.2667534352825
 30
0.0
  0
VERTEX
  5
2074B
  8
01
  6
CONTINUOUS
 10
573.6376660226999
 20
-709.2668344876007
 30
0.0
  0
VERTEX
  5
2074C
  8
01
  6
CONTINUOUS
 10
573.6125160221184
 20
-709.2669117367287
 30
0.0
  0
VERTEX
  5
2074D
  8
01
  6
CONTINUOUS
 10
573.5870882877467
 20
-709.2669852697117
 30
0.0
  0
VERTEX
  5
2074E
  8
01
  6
CONTINUOUS
 10
573.5613937910019
 20
-709.2670551735953
 30
0.0
  0
VERTEX
  5
2074F
  8
01
  6
CONTINUOUS
 10
573.5354435033013
 20
-709.2671215354245
 30
0.0
  0
VERTEX
  5
20750
  8
01
  6
CONTINUOUS
 10
573.5092483960617
 20
-709.267184442245
 30
0.0
  0
VERTEX
  5
20751
  8
01
  6
CONTINUOUS
 10
573.4828194407004
 20
-709.2672439811018
 30
0.0
  0
VERTEX
  5
20752
  8
01
  6
CONTINUOUS
 10
573.4561676086342
 20
-709.2673002390404
 30
0.0
  0
VERTEX
  5
20753
  8
01
  6
CONTINUOUS
 10
573.4293038712802
 20
-709.267353303106
 30
0.0
  0
VERTEX
  5
20754
  8
01
  6
CONTINUOUS
 10
573.4022392000556
 20
-709.2674032603442
 30
0.0
  0
VERTEX
  5
20755
  8
01
  6
CONTINUOUS
 10
573.3749755229908
 20
-709.2674502781956
 30
0.0
  0
VERTEX
  5
20756
  8
01
  6
CONTINUOUS
 10
573.3475073806343
 20
-709.2674945324648
 30
0.0
  0
VERTEX
  5
20757
  8
01
  6
CONTINUOUS
 10
573.3198346631806
 20
-709.2675361227416
 30
0.0
  0
VERTEX
  5
20758
  8
01
  6
CONTINUOUS
 10
573.2919572608242
 20
-709.2675751486162
 30
0.0
  0
VERTEX
  5
20759
  8
01
  6
CONTINUOUS
 10
573.2638750637593
 20
-709.2676117096787
 30
0.0
  0
VERTEX
  5
2075A
  8
01
  6
CONTINUOUS
 10
573.2355879621804
 20
-709.2676459055189
 30
0.0
  0
VERTEX
  5
2075B
  8
01
  6
CONTINUOUS
 10
573.2070958462821
 20
-709.2676778357269
 30
0.0
  0
VERTEX
  5
2075C
  8
01
  6
CONTINUOUS
 10
573.1783986062583
 20
-709.267707599893
 30
0.0
  0
VERTEX
  5
2075D
  8
01
  6
CONTINUOUS
 10
573.149496132304
 20
-709.267735297607
 30
0.0
  0
VERTEX
  5
2075E
  8
01
  6
CONTINUOUS
 10
573.120388314613
 20
-709.2677610284592
 30
0.0
  0
VERTEX
  5
2075F
  8
01
  6
CONTINUOUS
 10
573.0910750433802
 20
-709.2677848920393
 30
0.0
  0
VERTEX
  5
20760
  8
01
  6
CONTINUOUS
 10
573.0615562087999
 20
-709.2678069879378
 30
0.0
  0
VERTEX
  5
20761
  8
01
  6
CONTINUOUS
 10
573.0318317010662
 20
-709.2678274157444
 30
0.0
  0
VERTEX
  5
20762
  8
01
  6
CONTINUOUS
 10
573.0019014103738
 20
-709.2678462750492
 30
0.0
  0
VERTEX
  5
20763
  8
01
  6
CONTINUOUS
 10
572.9717652269171
 20
-709.2678636654424
 30
0.0
  0
VERTEX
  5
20764
  8
01
  6
CONTINUOUS
 10
572.941430777862
 20
-709.2678796684497
 30
0.0
  0
VERTEX
  5
20765
  8
01
  6
CONTINUOUS
 10
572.9109132316138
 20
-709.2678943431165
 30
0.0
  0
VERTEX
  5
20766
  8
01
  6
CONTINUOUS
 10
572.8802237902255
 20
-709.2679077553124
 30
0.0
  0
VERTEX
  5
20767
  8
01
  6
CONTINUOUS
 10
572.8493736557501
 20
-709.2679199709077
 30
0.0
  0
VERTEX
  5
20768
  8
01
  6
CONTINUOUS
 10
572.8183740302409
 20
-709.2679310557716
 30
0.0
  0
VERTEX
  5
20769
  8
01
  6
CONTINUOUS
 10
572.7872361157505
 20
-709.267941075774
 30
0.0
  0
VERTEX
  5
2076A
  8
01
  6
CONTINUOUS
 10
572.7559711143325
 20
-709.2679500967851
 30
0.0
  0
VERTEX
  5
2076B
  8
01
  6
CONTINUOUS
 10
572.7245902280396
 20
-709.2679581846741
 30
0.0
  0
VERTEX
  5
2076C
  8
01
  6
CONTINUOUS
 10
572.693104658925
 20
-709.2679654053111
 30
0.0
  0
VERTEX
  5
2076D
  8
01
  6
CONTINUOUS
 10
572.6615256090417
 20
-709.2679718245657
 30
0.0
  0
VERTEX
  5
2076E
  8
01
  6
CONTINUOUS
 10
572.6298642804428
 20
-709.2679775083079
 30
0.0
  0
VERTEX
  5
2076F
  8
01
  6
CONTINUOUS
 10
572.5981318751815
 20
-709.2679825224074
 30
0.0
  0
VERTEX
  5
20770
  8
01
  6
CONTINUOUS
 10
572.5663395953105
 20
-709.2679869327337
 30
0.0
  0
VERTEX
  5
20771
  8
01
  6
CONTINUOUS
 10
572.5344986428832
 20
-709.267990805157
 30
0.0
  0
VERTEX
  5
20772
  8
01
  6
CONTINUOUS
 10
572.5026202199525
 20
-709.2679942055468
 30
0.0
  0
VERTEX
  5
20773
  8
01
  6
CONTINUOUS
 10
572.4706917990471
 20
-709.2679972027482
 30
0.0
  0
VERTEX
  5
20774
  8
01
  6
CONTINUOUS
 10
572.4386932538979
 20
-709.2679998371199
 30
0.0
  0
VERTEX
  5
20775
  8
01
  6
CONTINUOUS
 10
572.4066243883609
 20
-709.2680021318015
 30
0.0
  0
VERTEX
  5
20776
  8
01
  6
CONTINUOUS
 10
572.3744850062925
 20
-709.2680041099325
 30
0.0
  0
VERTEX
  5
20777
  8
01
  6
CONTINUOUS
 10
572.3422749115491
 20
-709.2680057946527
 30
0.0
  0
VERTEX
  5
20778
  8
01
  6
CONTINUOUS
 10
572.309993907987
 20
-709.2680072091017
 30
0.0
  0
VERTEX
  5
20779
  8
01
  6
CONTINUOUS
 10
572.2776417994621
 20
-709.2680083764193
 30
0.0
  0
VERTEX
  5
2077A
  8
01
  6
CONTINUOUS
 10
572.245218389831
 20
-709.268009319745
 30
0.0
  0
VERTEX
  5
2077B
  8
01
  6
CONTINUOUS
 10
572.21272348295
 20
-709.2680100622187
 30
0.0
  0
VERTEX
  5
2077C
  8
01
  6
CONTINUOUS
 10
572.1801568826752
 20
-709.2680106269797
 30
0.0
  0
VERTEX
  5
2077D
  8
01
  6
CONTINUOUS
 10
572.1475183928629
 20
-709.2680110371681
 30
0.0
  0
VERTEX
  5
2077E
  8
01
  6
CONTINUOUS
 10
572.1148078173694
 20
-709.2680113159233
 30
0.0
  0
VERTEX
  5
2077F
  8
01
  6
CONTINUOUS
 10
572.0820249600512
 20
-709.2680114863851
 30
0.0
  0
VERTEX
  5
20780
  8
01
  6
CONTINUOUS
 10
572.0491696247641
 20
-709.268011571693
 30
0.0
  0
VERTEX
  5
20781
  8
01
  6
CONTINUOUS
 10
572.0162416153647
 20
-709.2680115949869
 30
0.0
  0
SEQEND
  5
2123B
  8
01
  6
CONTINUOUS
  0
ARC
  5
1FF12
  8
01
 10
574.5162693210838
 20
-709.7491472599713
 30
0.0
 40
0.4999722950488845
 50
0.0031753694047416
 51
90.00317501745236
  0
LINE
  5
1FF13
  8
1DIM
 10
572.0162416153647
 20
-709.7680115823289
 30
0.0
 11
572.0162416153647
 21
-709.2680115949869
 31
0.0
  0
LINE
  5
1FF14
  8
01
  6
CONTINUOUS
 10
500.0162416153649
 20
-709.2680115949869
 30
0.0
 11
572.0162416153647
 21
-709.2680115949869
 31
0.0
  0
LINE
  5
1FF15
  8
1DIM
 10
572.0162416153647
 20
-709.7680115823289
 30
0.0
 11
500.0162416153649
 21
-709.7680115823289
 31
0.0
  0
LINE
  5
1FF16
  8
1DIM
 10
500.0162416153649
 20
-723.2673891129191
 30
0.0
 11
572.0162416153647
 21
-723.2673891129191
 31
0.0
  0
LINE
  5
1FF17
  8
1DIM
 10
572.0162416153647
 20
-724.2673891129191
 30
0.0
 11
572.0162416153647
 21
-723.2673891129191
 31
0.0
  0
LINE
  5
1FF18
  8
01
  6
CONTINUOUS
 10
572.0162416153647
 20
-724.2673891129191
 30
0.0
 11
500.0162416153649
 21
-724.2673891129191
 31
0.0
  0
ARC
  5
1FF19
  8
01
  6
CONTINUOUS
 10
574.0162416153647
 20
-723.2673891129191
 30
0.0
 40
1.0
 50
270.0
 51
0.0
  0
LINE
  5
1FF1A
  8
01
  6
CONTINUOUS
 10
572.0162416153647
 20
-724.2673891129191
 30
0.0
 11
574.0162416153647
 21
-724.2673891129191
 31
0.0
  0
LINE
  5
1FF1B
  8
01
  6
CONTINUOUS
 10
574.5162416153647
 20
-701.2673891129191
 30
0.0
 11
500.0162416153649
 21
-701.2673891129191
 31
0.0
  0
LINE
  5
1FF1C
  8
1DIM
 10
574.5162416153647
 20
-701.2673891129191
 30
0.0
 11
574.5162416153647
 21
-709.2491749656901
 31
0.0
  0
LINE
  5
1FF1D
  8
1DIM
 10
568.0162416153647
 20
-709.0559615917149
 30
0.0
 11
568.0162416153647
 21
-705.5561786025536
 31
0.0
  0
POLYLINE
  5
1FF1E
  8
1DIM
 66
     1
 10
0.0
 20
0.0
 30
0.0
  0
VERTEX
  5
20782
  8
1DIM
 10
568.0162416153647
 20
-705.5561786025536
 30
0.0
  0
VERTEX
  5
20783
  8
1DIM
 10
568.0159807776205
 20
-705.5442990135385
 30
0.0
  0
VERTEX
  5
20784
  8
1DIM
 10
568.0151989941043
 20
-705.5324192527902
 30
0.0
  0
VERTEX
  5
20785
  8
1DIM
 10
568.0138973593907
 20
-705.5205393654396
 30
0.0
  0
VERTEX
  5
20786
  8
1DIM
 10
568.0120769680545
 20
-705.5086593966186
 30
0.0
  0
VERTEX
  5
20787
  8
1DIM
 10
568.0097389146704
 20
-705.4967793914589
 30
0.0
  0
VERTEX
  5
20788
  8
1DIM
 10
568.0068842938126
 20
-705.4848993950916
 30
0.0
  0
VERTEX
  5
20789
  8
1DIM
 10
568.0035142000562
 20
-705.4730194526487
 30
0.0
  0
VERTEX
  5
2078A
  8
1DIM
 10
567.9996297279758
 20
-705.4611396092614
 30
0.0
  0
VERTEX
  5
2078B
  8
1DIM
 10
567.9952319721459
 20
-705.4492599100615
 30
0.0
  0
VERTEX
  5
2078C
  8
1DIM
 10
567.9903220271412
 20
-705.4373804001805
 30
0.0
  0
VERTEX
  5
2078D
  8
1DIM
 10
567.9849009875364
 20
-705.42550112475
 30
0.0
  0
VERTEX
  5
2078E
  8
1DIM
 10
567.9789699479061
 20
-705.4136221289014
 30
0.0
  0
VERTEX
  5
2078F
  8
1DIM
 10
567.972530002825
 20
-705.4017434577662
 30
0.0
  0
VERTEX
  5
20790
  8
1DIM
 10
567.9655822468676
 20
-705.3898651564762
 30
0.0
  0
VERTEX
  5
20791
  8
1DIM
 10
567.9581277746088
 20
-705.3779872701629
 30
0.0
  0
VERTEX
  5
20792
  8
1DIM
 10
567.9501676806229
 20
-705.3661098439577
 30
0.0
  0
VERTEX
  5
20793
  8
1DIM
 10
567.941703059485
 20
-705.3542329229921
 30
0.0
  0
VERTEX
  5
20794
  8
1DIM
 10
567.9327350057695
 20
-705.342356552398
 30
0.0
  0
VERTEX
  5
20795
  8
1DIM
 10
567.9232646140509
 20
-705.3304807773067
 30
0.0
  0
VERTEX
  5
20796
  8
1DIM
 10
567.9132929789041
 20
-705.3186056428498
 30
0.0
  0
VERTEX
  5
20797
  8
1DIM
 10
567.9028211949037
 20
-705.3067311941588
 30
0.0
  0
VERTEX
  5
20798
  8
1DIM
 10
567.8918481603758
 20
-705.2948575491454
 30
0.0
  0
VERTEX
  5
20799
  8
1DIM
 10
567.8803713822264
 20
-705.2829848748208
 30
0.0
  0
VERTEX
  5
2079A
  8
1DIM
 10
567.8683898679001
 20
-705.2711132899667
 30
0.0
  0
VERTEX
  5
2079B
  8
1DIM
 10
567.8559026248412
 20
-705.2592429133641
 30
0.0
  0
VERTEX
  5
2079C
  8
1DIM
 10
567.8429086604942
 20
-705.2473738637946
 30
0.0
  0
VERTEX
  5
2079D
  8
1DIM
 10
567.8294069823037
 20
-705.2355062600392
 30
0.0
  0
VERTEX
  5
2079E
  8
1DIM
 10
567.815396597714
 20
-705.2236402208795
 30
0.0
  0
VERTEX
  5
2079F
  8
1DIM
 10
567.8008765141698
 20
-705.2117758650968
 30
0.0
  0
VERTEX
  5
207A0
  8
1DIM
 10
567.7858457391153
 20
-705.1999133114724
 30
0.0
  0
VERTEX
  5
207A1
  8
1DIM
 10
567.770303279995
 20
-705.1880526787877
 30
0.0
  0
VERTEX
  5
207A2
  8
1DIM
 10
567.7542455208761
 20
-705.1761929043433
 30
0.0
  0
VERTEX
  5
207A3
  8
1DIM
 10
567.7376591480333
 20
-705.1643290030738
 30
0.0
  0
VERTEX
  5
207A4
  8
1DIM
 10
567.7205492832203
 20
-705.1524649851531
 30
0.0
  0
VERTEX
  5
207A5
  8
1DIM
 10
567.702924051468
 20
-705.1406062627951
 30
0.0
  0
VERTEX
  5
207A6
  8
1DIM
 10
567.684791577807
 20
-705.1287582482139
 30
0.0
  0
VERTEX
  5
207A7
  8
1DIM
 10
567.6661599872682
 20
-705.1169263536236
 30
0.0
  0
VERTEX
  5
207A8
  8
1DIM
 10
567.6470374048822
 20
-705.1051159912382
 30
0.0
  0
VERTEX
  5
207A9
  8
1DIM
 10
567.6274319556798
 20
-705.0933325732718
 30
0.0
  0
VERTEX
  5
207AA
  8
1DIM
 10
567.6073517646918
 20
-705.0815815119385
 30
0.0
  0
VERTEX
  5
207AB
  8
1DIM
 10
567.5868049569488
 20
-705.0698682194522
 30
0.0
  0
VERTEX
  5
207AC
  8
1DIM
 10
567.5657996574816
 20
-705.0581981080271
 30
0.0
  0
VERTEX
  5
207AD
  8
1DIM
 10
567.5443412001155
 20
-705.0465714481714
 30
0.0
  0
VERTEX
  5
207AE
  8
1DIM
 10
567.5224296451878
 20
-705.0349850285501
 30
0.0
  0
VERTEX
  5
207AF
  8
1DIM
 10
567.5000652074973
 20
-705.023439038612
 30
0.0
  0
VERTEX
  5
207B0
  8
1DIM
 10
567.4772481018427
 20
-705.011933667806
 30
0.0
  0
VERTEX
  5
207B1
  8
1DIM
 10
567.4539785430234
 20
-705.0004691055813
 30
0.0
  0
VERTEX
  5
207B2
  8
1DIM
 10
567.4302567458376
 20
-704.9890455413868
 30
0.0
  0
VERTEX
  5
207B3
  8
1DIM
 10
567.4060829250844
 20
-704.9776631646714
 30
0.0
  0
VERTEX
  5
207B4
  8
1DIM
 10
567.3814572955629
 20
-704.9663221648841
 30
0.0
  0
VERTEX
  5
207B5
  8
1DIM
 10
567.3563800720717
 20
-704.9550227314738
 30
0.0
  0
VERTEX
  5
207B6
  8
1DIM
 10
567.3308514694097
 20
-704.9437650538896
 30
0.0
  0
VERTEX
  5
207B7
  8
1DIM
 10
567.3048717023757
 20
-704.9325493215803
 30
0.0
  0
VERTEX
  5
207B8
  8
1DIM
 10
567.278440985769
 20
-704.9213757239949
 30
0.0
  0
VERTEX
  5
207B9
  8
1DIM
 10
567.2515595343878
 20
-704.9102444505824
 30
0.0
  0
VERTEX
  5
207BA
  8
1DIM
 10
567.2242275630314
 20
-704.8991556907918
 30
0.0
  0
VERTEX
  5
207BB
  8
1DIM
 10
567.1964452864986
 20
-704.8881096340718
 30
0.0
  0
VERTEX
  5
207BC
  8
1DIM
 10
567.1682129195881
 20
-704.8771064698717
 30
0.0
  0
VERTEX
  5
207BD
  8
1DIM
 10
567.1395306770991
 20
-704.8661463876404
 30
0.0
  0
VERTEX
  5
207BE
  8
1DIM
 10
567.1103987738298
 20
-704.8552295768267
 30
0.0
  0
VERTEX
  5
207BF
  8
1DIM
 10
567.08081742458
 20
-704.8443562268797
 30
0.0
  0
VERTEX
  5
207C0
  8
1DIM
 10
567.0507868441478
 20
-704.8335265272483
 30
0.0
  0
VERTEX
  5
207C1
  8
1DIM
 10
567.0203072473323
 20
-704.8227406673815
 30
0.0
  0
VERTEX
  5
207C2
  8
1DIM
 10
566.9893588189145
 20
-704.8119951909737
 30
0.0
  0
VERTEX
  5
207C3
  8
1DIM
 10
566.9579267286382
 20
-704.8012882475905
 30
0.0
  0
VERTEX
  5
207C4
  8
1DIM
 10
566.9260186687467
 20
-704.7906224354879
 30
0.0
  0
VERTEX
  5
207C5
  8
1DIM
 10
566.893642331483
 20
-704.780000352921
 30
0.0
  0
VERTEX
  5
207C6
  8
1DIM
 10
566.8608054090905
 20
-704.769424598146
 30
0.0
  0
VERTEX
  5
207C7
  8
1DIM
 10
566.8275155938123
 20
-704.7588977694182
 30
0.0
  0
VERTEX
  5
207C8
  8
1DIM
 10
566.7937805778918
 20
-704.7484224649936
 30
0.0
  0
VERTEX
  5
207C9
  8
1DIM
 10
566.7596080535718
 20
-704.7380012831276
 30
0.0
  0
VERTEX
  5
207CA
  8
1DIM
 10
566.7250057130959
 20
-704.727636822076
 30
0.0
  0
VERTEX
  5
207CB
  8
1DIM
 10
566.6899812487072
 20
-704.7173316800945
 30
0.0
  0
VERTEX
  5
207CC
  8
1DIM
 10
566.654542352649
 20
-704.7070884554387
 30
0.0
  0
VERTEX
  5
207CD
  8
1DIM
 10
566.6186967171642
 20
-704.6969097463643
 30
0.0
  0
VERTEX
  5
207CE
  8
1DIM
 10
566.5824520344963
 20
-704.686798151127
 30
0.0
  0
VERTEX
  5
207CF
  8
1DIM
 10
566.5458159968886
 20
-704.6767562679826
 30
0.0
  0
VERTEX
  5
207D0
  8
1DIM
 10
566.5087962965838
 20
-704.6667866951866
 30
0.0
  0
VERTEX
  5
207D1
  8
1DIM
 10
566.4714006258256
 20
-704.6568920309945
 30
0.0
  0
VERTEX
  5
207D2
  8
1DIM
 10
566.4336366768572
 20
-704.6470748736624
 30
0.0
  0
VERTEX
  5
207D3
  8
1DIM
 10
566.3955121419214
 20
-704.6373378214457
 30
0.0
  0
VERTEX
  5
207D4
  8
1DIM
 10
566.3570347132619
 20
-704.6276834726002
 30
0.0
  0
VERTEX
  5
207D5
  8
1DIM
 10
566.3182120831216
 20
-704.6181144253815
 30
0.0
  0
VERTEX
  5
207D6
  8
1DIM
 10
566.2790519437439
 20
-704.6086332780452
 30
0.0
  0
VERTEX
  5
207D7
  8
1DIM
 10
566.2395539264691
 20
-704.5992379271203
 30
0.0
  0
VERTEX
  5
207D8
  8
1DIM
 10
566.1997122829118
 20
-704.5899247697132
 30
0.0
  0
VERTEX
  5
207D9
  8
1DIM
 10
566.1595266357255
 20
-704.5806941549461
 30
0.0
  0
VERTEX
  5
207DA
  8
1DIM
 10
566.1189966075636
 20
-704.5715464319417
 30
0.0
  0
VERTEX
  5
207DB
  8
1DIM
 10
566.0781218210799
 20
-704.5624819498219
 30
0.0
  0
VERTEX
  5
207DC
  8
1DIM
 10
566.0369018989277
 20
-704.5535010577091
 30
0.0
  0
VERTEX
  5
207DD
  8
1DIM
 10
565.9953364637606
 20
-704.5446041047259
 30
0.0
  0
VERTEX
  5
207DE
  8
1DIM
 10
565.9534251382323
 20
-704.5357914399943
 30
0.0
  0
VERTEX
  5
207DF
  8
1DIM
 10
565.9111675449963
 20
-704.5270634126367
 30
0.0
  0
VERTEX
  5
207E0
  8
1DIM
 10
565.8685633067062
 20
-704.5184203717755
 30
0.0
  0
VERTEX
  5
207E1
  8
1DIM
 10
565.8256120460155
 20
-704.5098626665329
 30
0.0
  0
VERTEX
  5
207E2
  8
1DIM
 10
565.7823133855778
 20
-704.5013906460313
 30
0.0
  0
VERTEX
  5
207E3
  8
1DIM
 10
565.7386669480467
 20
-704.4930046593929
 30
0.0
  0
VERTEX
  5
207E4
  8
1DIM
 10
565.6946723560756
 20
-704.4847050557403
 30
0.0
  0
VERTEX
  5
207E5
  8
1DIM
 10
565.6503292323182
 20
-704.4764921841954
 30
0.0
  0
VERTEX
  5
207E6
  8
1DIM
 10
565.605637199428
 20
-704.4683663938807
 30
0.0
  0
VERTEX
  5
207E7
  8
1DIM
 10
565.5605958800586
 20
-704.4603280339187
 30
0.0
  0
VERTEX
  5
207E8
  8
1DIM
 10
565.5152048968637
 20
-704.4523774534315
 30
0.0
  0
VERTEX
  5
207E9
  8
1DIM
 10
565.4694638724966
 20
-704.4445150015413
 30
0.0
  0
VERTEX
  5
207EA
  8
1DIM
 10
565.423372429611
 20
-704.4367410273708
 30
0.0
  0
VERTEX
  5
207EB
  8
1DIM
 10
565.3769301908605
 20
-704.429055880042
 30
0.0
  0
VERTEX
  5
207EC
  8
1DIM
 10
565.3301115735599
 20
-704.4214574975064
 30
0.0
  0
VERTEX
  5
207ED
  8
1DIM
 10
565.2829055786444
 20
-704.4139459918147
 30
0.0
  0
VERTEX
  5
207EE
  8
1DIM
 10
565.2353337041991
 20
-704.4065249732386
 30
0.0
  0
VERTEX
  5
207EF
  8
1DIM
 10
565.1874174483087
 20
-704.3991980520495
 30
0.0
  0
VERTEX
  5
207F0
  8
1DIM
 10
565.1391783090579
 20
-704.3919688385192
 30
0.0
  0
VERTEX
  5
207F1
  8
1DIM
 10
565.0906377845313
 20
-704.3848409429189
 30
0.0
  0
VERTEX
  5
207F2
  8
1DIM
 10
565.041817372814
 20
-704.3778179755203
 30
0.0
  0
VERTEX
  5
207F3
  8
1DIM
 10
564.9927385719903
 20
-704.370903546595
 30
0.0
  0
VERTEX
  5
207F4
  8
1DIM
 10
564.9434228801452
 20
-704.3641012664142
 30
0.0
  0
VERTEX
  5
207F5
  8
1DIM
 10
564.8938917953636
 20
-704.3574147452497
 30
0.0
  0
VERTEX
  5
207F6
  8
1DIM
 10
564.8441644470914
 20
-704.350846968623
 30
0.0
  0
VERTEX
  5
207F7
  8
1DIM
 10
564.7942401897621
 20
-704.3443964452523
 30
0.0
  0
VERTEX
  5
207F8
  8
1DIM
 10
564.744117882613
 20
-704.3380627028556
 30
0.0
  0
VERTEX
  5
207F9
  8
1DIM
 10
564.6937978722062
 20
-704.3318457435614
 30
0.0
  0
VERTEX
  5
207FA
  8
1DIM
 10
564.6432805051038
 20
-704.3257455694983
 30
0.0
  0
VERTEX
  5
207FB
  8
1DIM
 10
564.592566127868
 20
-704.3197621827948
 30
0.0
  0
VERTEX
  5
207FC
  8
1DIM
 10
564.541655087061
 20
-704.3138955855798
 30
0.0
  0
VERTEX
  5
207FD
  8
1DIM
 10
564.490547729245
 20
-704.3081457799814
 30
0.0
  0
VERTEX
  5
207FE
  8
1DIM
 10
564.439244400982
 20
-704.3025127681285
 30
0.0
  0
VERTEX
  5
207FF
  8
1DIM
 10
564.3877454488343
 20
-704.2969965521497
 30
0.0
  0
VERTEX
  5
20800
  8
1DIM
 10
564.336051219364
 20
-704.2915971341735
 30
0.0
  0
VERTEX
  5
20801
  8
1DIM
 10
564.2841626616184
 20
-704.2863141844443
 30
0.0
  0
VERTEX
  5
20802
  8
1DIM
 10
564.2320801732004
 20
-704.2811476673594
 30
0.0
  0
VERTEX
  5
20803
  8
1DIM
 10
564.1798032735048
 20
-704.2760980262772
 30
0.0
  0
VERTEX
  5
20804
  8
1DIM
 10
564.1273314819264
 20
-704.2711657045555
 30
0.0
  0
VERTEX
  5
20805
  8
1DIM
 10
564.0746643178603
 20
-704.2663511455528
 30
0.0
  0
VERTEX
  5
20806
  8
1DIM
 10
564.0218013007011
 20
-704.261654792627
 30
0.0
  0
VERTEX
  5
20807
  8
1DIM
 10
563.9687419498435
 20
-704.2570770891363
 30
0.0
  0
VERTEX
  5
20808
  8
1DIM
 10
563.9154857846831
 20
-704.2526184784388
 30
0.0
  0
VERTEX
  5
20809
  8
1DIM
 10
563.8620323246142
 20
-704.2482794038925
 30
0.0
  0
VERTEX
  5
2080A
  8
1DIM
 10
563.808381089032
 20
-704.244060308856
 30
0.0
  0
VERTEX
  5
2080B
  8
1DIM
 10
563.7545315973312
 20
-704.2399616366869
 30
0.0
  0
VERTEX
  5
2080C
  8
1DIM
 10
563.7004833689067
 20
-704.2359838307437
 30
0.0
  0
VERTEX
  5
2080D
  8
1DIM
 10
563.6462359231534
 20
-704.2321273343842
 30
0.0
  0
VERTEX
  5
2080E
  8
1DIM
 10
563.5917887794662
 20
-704.2283925909669
 30
0.0
  0
VERTEX
  5
2080F
  8
1DIM
 10
563.5371414572402
 20
-704.2247800438498
 30
0.0
  0
VERTEX
  5
20810
  8
1DIM
 10
563.4822934758699
 20
-704.2212901363911
 30
0.0
  0
VERTEX
  5
20811
  8
1DIM
 10
563.4272443547504
 20
-704.2179233119487
 30
0.0
  0
VERTEX
  5
20812
  8
1DIM
 10
563.3719936132766
 20
-704.2146800138809
 30
0.0
  0
VERTEX
  5
20813
  8
1DIM
 10
563.3165407708433
 20
-704.2115606855458
 30
0.0
  0
VERTEX
  5
20814
  8
1DIM
 10
563.2608853468454
 20
-704.2085657703016
 30
0.0
  0
VERTEX
  5
20815
  8
1DIM
 10
563.205026860678
 20
-704.2056957115063
 30
0.0
  0
VERTEX
  5
20816
  8
1DIM
 10
563.1490328192739
 20
-704.2029544926851
 30
0.0
  0
VERTEX
  5
20817
  8
1DIM
 10
563.0929716452001
 20
-704.2003458779698
 30
0.0
  0
VERTEX
  5
20818
  8
1DIM
 10
563.0368442313023
 20
-704.1978699816285
 30
0.0
  0
VERTEX
  5
20819
  8
1DIM
 10
562.9806514704264
 20
-704.1955269179302
 30
0.0
  0
VERTEX
  5
2081A
  8
1DIM
 10
562.924394255418
 20
-704.1933168011432
 30
0.0
  0
VERTEX
  5
2081B
  8
1DIM
 10
562.8680734791227
 20
-704.1912397455358
 30
0.0
  0
VERTEX
  5
2081C
  8
1DIM
 10
562.8116900343863
 20
-704.1892958653767
 30
0.0
  0
VERTEX
  5
2081D
  8
1DIM
 10
562.7552448140545
 20
-704.1874852749344
 30
0.0
  0
VERTEX
  5
2081E
  8
1DIM
 10
562.6987387109732
 20
-704.1858080884772
 30
0.0
  0
VERTEX
  5
2081F
  8
1DIM
 10
562.6421726179879
 20
-704.1842644202737
 30
0.0
  0
VERTEX
  5
20820
  8
1DIM
 10
562.5855474279442
 20
-704.1828543845924
 30
0.0
  0
VERTEX
  5
20821
  8
1DIM
 10
562.5288640336883
 20
-704.1815780957019
 30
0.0
  0
VERTEX
  5
20822
  8
1DIM
 10
562.4721233280654
 20
-704.1804356678703
 30
0.0
  0
VERTEX
  5
20823
  8
1DIM
 10
562.4153262039215
 20
-704.1794272153663
 30
0.0
  0
VERTEX
  5
20824
  8
1DIM
 10
562.3584735541024
 20
-704.1785528524587
 30
0.0
  0
VERTEX
  5
20825
  8
1DIM
 10
562.3015662714535
 20
-704.1778126934155
 30
0.0
  0
VERTEX
  5
20826
  8
1DIM
 10
562.2446052488208
 20
-704.1772068525054
 30
0.0
  0
VERTEX
  5
20827
  8
1DIM
 10
562.1875913790496
 20
-704.1767354439967
 30
0.0
  0
VERTEX
  5
20828
  8
1DIM
 10
562.1305255549863
 20
-704.1763985821582
 30
0.0
  0
VERTEX
  5
20829
  8
1DIM
 10
562.0734086694761
 20
-704.1761963812581
 30
0.0
  0
VERTEX
  5
2082A
  8
1DIM
 10
562.0162416153647
 20
-704.1761289555652
 30
0.0
  0
SEQEND
  5
2123C
  8
1DIM
  0
LINE
  5
1FF1F
  8
1DIM
 10
500.0162416153649
 20
-704.1761289555652
 30
0.0
 11
562.0162416153647
 21
-704.1761289555652
 31
0.0
  0
LINE
  5
1FF20
  8
1DIM
 10
564.0162416153647
 20
-709.2081331032672
 30
0.0
 11
500.0162416153649
 21
-709.2081331032672
 31
0.0
  0
POLYLINE
  5
1FF21
  8
1DIM
 66
     1
 10
0.0
 20
0.0
 30
0.0
  0
VERTEX
  5
2082B
  8
1DIM
 10
564.0162416153647
 20
-709.2081331032672
 30
0.0
  0
VERTEX
  5
2082C
  8
1DIM
 10
564.062682628837
 20
-709.2081260989945
 30
0.0
  0
VERTEX
  5
2082D
  8
1DIM
 10
564.1090337769144
 20
-709.208105081064
 30
0.0
  0
VERTEX
  5
2082E
  8
1DIM
 10
564.1552952707314
 20
-709.2080700418069
 30
0.0
  0
VERTEX
  5
2082F
  8
1DIM
 10
564.2014673214226
 20
-709.2080209735547
 30
0.0
  0
VERTEX
  5
20830
  8
1DIM
 10
564.2475501401225
 20
-709.2079578686385
 30
0.0
  0
VERTEX
  5
20831
  8
1DIM
 10
564.2935439379658
 20
-709.2078807193894
 30
0.0
  0
VERTEX
  5
20832
  8
1DIM
 10
564.3394489260868
 20
-709.207789518139
 30
0.0
  0
VERTEX
  5
20833
  8
1DIM
 10
564.3852653156204
 20
-709.2076842572184
 30
0.0
  0
VERTEX
  5
20834
  8
1DIM
 10
564.4309933177009
 20
-709.207564928959
 30
0.0
  0
VERTEX
  5
20835
  8
1DIM
 10
564.4766331434629
 20
-709.2074315256921
 30
0.0
  0
VERTEX
  5
20836
  8
1DIM
 10
564.5221850040411
 20
-709.2072840397486
 30
0.0
  0
VERTEX
  5
20837
  8
1DIM
 10
564.5676491105701
 20
-709.2071224634603
 30
0.0
  0
VERTEX
  5
20838
  8
1DIM
 10
564.6130256741842
 20
-709.2069467891583
 30
0.0
  0
VERTEX
  5
20839
  8
1DIM
 10
564.6583149060182
 20
-709.2067570091738
 30
0.0
  0
VERTEX
  5
2083A
  8
1DIM
 10
564.7035170172064
 20
-709.2065531158381
 30
0.0
  0
VERTEX
  5
2083B
  8
1DIM
 10
564.7486322188837
 20
-709.2063351014825
 30
0.0
  0
VERTEX
  5
2083C
  8
1DIM
 10
564.7936607221844
 20
-709.2061029584384
 30
0.0
  0
VERTEX
  5
2083D
  8
1DIM
 10
564.838627685641
 20
-709.2058563295042
 30
0.0
  0
VERTEX
  5
2083E
  8
1DIM
 10
564.883549980732
 20
-709.20559483874
 30
0.0
  0
VERTEX
  5
2083F
  8
1DIM
 10
564.9284153880126
 20
-709.2053184503693
 30
0.0
  0
VERTEX
  5
20840
  8
1DIM
 10
564.973211688037
 20
-709.2050271286149
 30
0.0
  0
VERTEX
  5
20841
  8
1DIM
 10
565.0179266613601
 20
-709.2047208377006
 30
0.0
  0
VERTEX
  5
20842
  8
1DIM
 10
565.0625480885363
 20
-709.2043995418493
 30
0.0
  0
VERTEX
  5
20843
  8
1DIM
 10
565.1070637501207
 20
-709.2040632052842
 30
0.0
  0
VERTEX
  5
20844
  8
1DIM
 10
565.1514614266673
 20
-709.2037117922288
 30
0.0
  0
VERTEX
  5
20845
  8
1DIM
 10
565.1957288987312
 20
-709.2033452669061
 30
0.0
  0
VERTEX
  5
20846
  8
1DIM
 10
565.2398539468669
 20
-709.2029635935396
 30
0.0
  0
VERTEX
  5
20847
  8
1DIM
 10
565.283824351629
 20
-709.2025667363524
 30
0.0
  0
VERTEX
  5
20848
  8
1DIM
 10
565.3276278935723
 20
-709.2021546595679
 30
0.0
  0
VERTEX
  5
20849
  8
1DIM
 10
565.3712523532512
 20
-709.2017273274091
 30
0.0
  0
VERTEX
  5
2084A
  8
1DIM
 10
565.4146855112206
 20
-709.2012847040995
 30
0.0
  0
VERTEX
  5
2084B
  8
1DIM
 10
565.4579151480349
 20
-709.2008267538623
 30
0.0
  0
VERTEX
  5
2084C
  8
1DIM
 10
565.5009290442489
 20
-709.2003534409207
 30
0.0
  0
VERTEX
  5
2084D
  8
1DIM
 10
565.5437149804171
 20
-709.1998647294979
 30
0.0
  0
VERTEX
  5
2084E
  8
1DIM
 10
565.5862553006992
 20
-709.1993608628519
 30
0.0
  0
VERTEX
  5
2084F
  8
1DIM
 10
565.6285405635637
 20
-709.1988419952351
 30
0.0
  0
VERTEX
  5
20850
  8
1DIM
 10
565.6705708710284
 20
-709.1983079573627
 30
0.0
  0
VERTEX
  5
20851
  8
1DIM
 10
565.7123463251114
 20
-709.1977585799501
 30
0.0
  0
VERTEX
  5
20852
  8
1DIM
 10
565.7538670278306
 20
-709.1971936937125
 30
0.0
  0
VERTEX
  5
20853
  8
1DIM
 10
565.7951330812041
 20
-709.1966131293651
 30
0.0
  0
VERTEX
  5
20854
  8
1DIM
 10
565.8361445872496
 20
-709.1960167176235
 30
0.0
  0
VERTEX
  5
20855
  8
1DIM
 10
565.8769016479853
 20
-709.1954042892025
 30
0.0
  0
VERTEX
  5
20856
  8
1DIM
 10
565.9174043654292
 20
-709.1947756748178
 30
0.0
  0
VERTEX
  5
20857
  8
1DIM
 10
565.9576528415992
 20
-709.1941307051845
 30
0.0
  0
VERTEX
  5
20858
  8
1DIM
 10
565.9976471785131
 20
-709.1934692110177
 30
0.0
  0
VERTEX
  5
20859
  8
1DIM
 10
566.0373874781892
 20
-709.1927910230331
 30
0.0
  0
VERTEX
  5
2085A
  8
1DIM
 10
566.0768738426452
 20
-709.1920959719455
 30
0.0
  0
VERTEX
  5
2085B
  8
1DIM
 10
566.1161063738992
 20
-709.1913838884705
 30
0.0
  0
VERTEX
  5
2085C
  8
1DIM
 10
566.1550851739693
 20
-709.1906546033232
 30
0.0
  0
VERTEX
  5
2085D
  8
1DIM
 10
566.1938103448731
 20
-709.189907947219
 30
0.0
  0
VERTEX
  5
2085E
  8
1DIM
 10
566.2322819886289
 20
-709.1891437508731
 30
0.0
  0
VERTEX
  5
2085F
  8
1DIM
 10
566.2705072761968
 20
-709.1883613072097
 30
0.0
  0
VERTEX
  5
20860
  8
1DIM
 10
566.308485254899
 20
-709.1875600927351
 30
0.0
  0
VERTEX
  5
20861
  8
1DIM
 10
566.3462038412964
 20
-709.1867402135382
 30
0.0
  0
VERTEX
  5
20862
  8
1DIM
 10
566.3836509519499
 20
-709.1859017757079
 30
0.0
  0
VERTEX
  5
20863
  8
1DIM
 10
566.4208145034206
 20
-709.1850448853327
 30
0.0
  0
VERTEX
  5
20864
  8
1DIM
 10
566.4576824122694
 20
-709.1841696485017
 30
0.0
  0
VERTEX
  5
20865
  8
1DIM
 10
566.494242595057
 20
-709.1832761713033
 30
0.0
  0
VERTEX
  5
20866
  8
1DIM
 10
566.5304829683446
 20
-709.1823645598264
 30
0.0
  0
VERTEX
  5
20867
  8
1DIM
 10
566.566391448693
 20
-709.18143492016
 30
0.0
  0
VERTEX
  5
20868
  8
1DIM
 10
566.6019559526633
 20
-709.1804873583926
 30
0.0
  0
VERTEX
  5
20869
  8
1DIM
 10
566.637164396816
 20
-709.1795219806131
 30
0.0
  0
VERTEX
  5
2086A
  8
1DIM
 10
566.6720046977126
 20
-709.1785388929104
 30
0.0
  0
VERTEX
  5
2086B
  8
1DIM
 10
566.7064647719137
 20
-709.1775382013731
 30
0.0
  0
VERTEX
  5
2086C
  8
1DIM
 10
566.7405325359802
 20
-709.1765200120898
 30
0.0
  0
VERTEX
  5
2086D
  8
1DIM
 10
566.7741959064733
 20
-709.1754844311496
 30
0.0
  0
VERTEX
  5
2086E
  8
1DIM
 10
566.8074427999536
 20
-709.1744315646412
 30
0.0
  0
VERTEX
  5
2086F
  8
1DIM
 10
566.8402611329823
 20
-709.1733615186532
 30
0.0
  0
VERTEX
  5
20870
  8
1DIM
 10
566.8726657745558
 20
-709.1722740031615
 30
0.0
  0
VERTEX
  5
20871
  8
1DIM
 10
566.9046792481698
 20
-709.1711684976128
 30
0.0
  0
VERTEX
  5
20872
  8
1DIM
 10
566.9363009521338
 20
-709.1700447623012
 30
0.0
  0
VERTEX
  5
20873
  8
1DIM
 10
566.9675302847571
 20
-709.1689025575212
 30
0.0
  0
VERTEX
  5
20874
  8
1DIM
 10
566.9983666443493
 20
-709.1677416435668
 30
0.0
  0
VERTEX
  5
20875
  8
1DIM
 10
567.02880942922
 20
-709.1665617807326
 30
0.0
  0
VERTEX
  5
20876
  8
1DIM
 10
567.0588580376784
 20
-709.165362729313
 30
0.0
  0
VERTEX
  5
20877
  8
1DIM
 10
567.0885118680342
 20
-709.1641442496021
 30
0.0
  0
VERTEX
  5
20878
  8
1DIM
 10
567.1177703185966
 20
-709.1629061018946
 30
0.0
  0
VERTEX
  5
20879
  8
1DIM
 10
567.1466327876755
 20
-709.1616480464845
 30
0.0
  0
VERTEX
  5
2087A
  8
1DIM
 10
567.1750986735799
 20
-709.1603698436666
 30
0.0
  0
VERTEX
  5
2087B
  8
1DIM
 10
567.2031673746196
 20
-709.1590712537346
 30
0.0
  0
VERTEX
  5
2087C
  8
1DIM
 10
567.230838289104
 20
-709.1577520369834
 30
0.0
  0
VERTEX
  5
2087D
  8
1DIM
 10
567.2581108153424
 20
-709.1564119537072
 30
0.0
  0
VERTEX
  5
2087E
  8
1DIM
 10
567.2849843516444
 20
-709.1550507642003
 30
0.0
  0
VERTEX
  5
2087F
  8
1DIM
 10
567.3114582963196
 20
-709.1536682287572
 30
0.0
  0
VERTEX
  5
20880
  8
1DIM
 10
567.3375320476773
 20
-709.1522641076718
 30
0.0
  0
VERTEX
  5
20881
  8
1DIM
 10
567.363178467689
 20
-709.1508392231019
 30
0.0
  0
VERTEX
  5
20882
  8
1DIM
 10
567.3883685655053
 20
-709.1493946542121
 30
0.0
  0
VERTEX
  5
20883
  8
1DIM
 10
567.4130989602047
 20
-709.1479305468082
 30
0.0
  0
VERTEX
  5
20884
  8
1DIM
 10
567.4373662708658
 20
-709.146447046696
 30
0.0
  0
VERTEX
  5
20885
  8
1DIM
 10
567.4611671165674
 20
-709.1449442996812
 30
0.0
  0
VERTEX
  5
20886
  8
1DIM
 10
567.4844981163875
 20
-709.1434224515697
 30
0.0
  0
VERTEX
  5
20887
  8
1DIM
 10
567.5073558894048
 20
-709.1418816481672
 30
0.0
  0
VERTEX
  5
20888
  8
1DIM
 10
567.5297370546981
 20
-709.1403220352795
 30
0.0
  0
VERTEX
  5
20889
  8
1DIM
 10
567.5516382313456
 20
-709.1387437587123
 30
0.0
  0
VERTEX
  5
2088A
  8
1DIM
 10
567.573056038426
 20
-709.1371469642716
 30
0.0
  0
VERTEX
  5
2088B
  8
1DIM
 10
567.5939870950177
 20
-709.1355317977628
 30
0.0
  0
VERTEX
  5
2088C
  8
1DIM
 10
567.6144280201994
 20
-709.1338984049919
 30
0.0
  0
VERTEX
  5
2088D
  8
1DIM
 10
567.6343754330495
 20
-709.1322469317646
 30
0.0
  0
VERTEX
  5
2088E
  8
1DIM
 10
567.6538259526465
 20
-709.1305775238868
 30
0.0
  0
VERTEX
  5
2088F
  8
1DIM
 10
567.6727761980687
 20
-709.1288903271642
 30
0.0
  0
VERTEX
  5
20890
  8
1DIM
 10
567.6912227883951
 20
-709.1271854874025
 30
0.0
  0
VERTEX
  5
20891
  8
1DIM
 10
567.709162342704
 20
-709.1254631504077
 30
0.0
  0
VERTEX
  5
20892
  8
1DIM
 10
567.7266075390327
 20
-709.1237220902583
 30
0.0
  0
VERTEX
  5
20893
  8
1DIM
 10
567.7435714551468
 20
-709.1219610334821
 30
0.0
  0
VERTEX
  5
20894
  8
1DIM
 10
567.7600513097168
 20
-709.1201800545568
 30
0.0
  0
VERTEX
  5
20895
  8
1DIM
 10
567.7760443214132
 20
-709.1183792279608
 30
0.0
  0
VERTEX
  5
20896
  8
1DIM
 10
567.7915477089067
 20
-709.1165586281717
 30
0.0
  0
VERTEX
  5
20897
  8
1DIM
 10
567.806558690868
 20
-709.1147183296679
 30
0.0
  0
VERTEX
  5
20898
  8
1DIM
 10
567.8210744859673
 20
-709.1128584069274
 30
0.0
  0
VERTEX
  5
20899
  8
1DIM
 10
567.8350923128756
 20
-709.1109789344284
 30
0.0
  0
VERTEX
  5
2089A
  8
1DIM
 10
567.8486093902632
 20
-709.1090799866488
 30
0.0
  0
VERTEX
  5
2089B
  8
1DIM
 10
567.8616229368008
 20
-709.1071616380667
 30
0.0
  0
VERTEX
  5
2089C
  8
1DIM
 10
567.8741301711589
 20
-709.1052239631603
 30
0.0
  0
VERTEX
  5
2089D
  8
1DIM
 10
567.8861283120082
 20
-709.1032670364076
 30
0.0
  0
VERTEX
  5
2089E
  8
1DIM
 10
567.8976145780192
 20
-709.1012909322866
 30
0.0
  0
VERTEX
  5
2089F
  8
1DIM
 10
567.9085861878626
 20
-709.0992957252756
 30
0.0
  0
VERTEX
  5
208A0
  8
1DIM
 10
567.9190403602087
 20
-709.0972814898523
 30
0.0
  0
VERTEX
  5
208A1
  8
1DIM
 10
567.9289743137283
 20
-709.0952483004952
 30
0.0
  0
VERTEX
  5
208A2
  8
1DIM
 10
567.938385267092
 20
-709.0931962316821
 30
0.0
  0
VERTEX
  5
208A3
  8
1DIM
 10
567.9472656552424
 20
-709.0911273056755
 30
0.0
  0
VERTEX
  5
208A4
  8
1DIM
 10
567.9556096144809
 20
-709.0890434616996
 30
0.0
  0
VERTEX
  5
208A5
  8
1DIM
 10
567.9634169155155
 20
-709.0869446496752
 30
0.0
  0
VERTEX
  5
208A6
  8
1DIM
 10
567.9706873290552
 20
-709.0848308195224
 30
0.0
  0
VERTEX
  5
208A7
  8
1DIM
 10
567.9774206258081
 20
-709.0827019211619
 30
0.0
  0
VERTEX
  5
208A8
  8
1DIM
 10
567.983616576483
 20
-709.0805579045143
 30
0.0
  0
VERTEX
  5
208A9
  8
1DIM
 10
567.989274951788
 20
-709.0783987195001
 30
0.0
  0
VERTEX
  5
208AA
  8
1DIM
 10
567.9943955224318
 20
-709.0762243160399
 30
0.0
  0
VERTEX
  5
208AB
  8
1DIM
 10
567.9989780591229
 20
-709.0740346440541
 30
0.0
  0
VERTEX
  5
208AC
  8
1DIM
 10
568.0030223325695
 20
-709.0718296534635
 30
0.0
  0
VERTEX
  5
208AD
  8
1DIM
 10
568.0065281134802
 20
-709.0696092941884
 30
0.0
  0
VERTEX
  5
208AE
  8
1DIM
 10
568.0094951725636
 20
-709.0673735161494
 30
0.0
  0
VERTEX
  5
208AF
  8
1DIM
 10
568.0119232805279
 20
-709.065122269267
 30
0.0
  0
VERTEX
  5
208B0
  8
1DIM
 10
568.0138122080817
 20
-709.0628555034618
 30
0.0
  0
VERTEX
  5
208B1
  8
1DIM
 10
568.0151617259334
 20
-709.0605731686543
 30
0.0
  0
VERTEX
  5
208B2
  8
1DIM
 10
568.0159716047916
 20
-709.0582752147652
 30
0.0
  0
VERTEX
  5
208B3
  8
1DIM
 10
568.0162416153647
 20
-709.0559615917149
 30
0.0
  0
SEQEND
  5
2123D
  8
1DIM
  0
POLYLINE
  5
1FF22
  8
01
  6
CONTINUOUS
 66
     1
 10
0.0
 20
0.0
 30
0.0
  0
VERTEX
  5
208B4
  8
01
  6
CONTINUOUS
 10
575.0162416153647
 20
-701.7920046566671
 30
0.0
  0
VERTEX
  5
208B5
  8
01
  6
CONTINUOUS
 10
575.0158619053028
 20
-701.7717323105923
 30
0.0
  0
VERTEX
  5
208B6
  8
01
  6
CONTINUOUS
 10
575.0147279256613
 20
-701.7515212099511
 30
0.0
  0
VERTEX
  5
208B7
  8
01
  6
CONTINUOUS
 10
575.0128474022559
 20
-701.7313954661411
 30
0.0
  0
VERTEX
  5
208B8
  8
01
  6
CONTINUOUS
 10
575.0102280609026
 20
-701.7113791905601
 30
0.0
  0
VERTEX
  5
208B9
  8
01
  6
CONTINUOUS
 10
575.0068776274172
 20
-701.6914964946059
 30
0.0
  0
VERTEX
  5
208BA
  8
01
  6
CONTINUOUS
 10
575.0028038276158
 20
-701.6717714896758
 30
0.0
  0
VERTEX
  5
208BB
  8
01
  6
CONTINUOUS
 10
574.9980143873144
 20
-701.652228287168
 30
0.0
  0
VERTEX
  5
208BC
  8
01
  6
CONTINUOUS
 10
574.9925170323287
 20
-701.6328909984796
 30
0.0
  0
VERTEX
  5
208BD
  8
01
  6
CONTINUOUS
 10
574.9863194884746
 20
-701.6137837350088
 30
0.0
  0
VERTEX
  5
208BE
  8
01
  6
CONTINUOUS
 10
574.9794294815683
 20
-701.594930608153
 30
0.0
  0
VERTEX
  5
208BF
  8
01
  6
CONTINUOUS
 10
574.9718547374254
 20
-701.5763557293097
 30
0.0
  0
VERTEX
  5
208C0
  8
01
  6
CONTINUOUS
 10
574.9636029818619
 20
-701.5580832098769
 30
0.0
  0
VERTEX
  5
208C1
  8
01
  6
CONTINUOUS
 10
574.954681940694
 20
-701.5401371612522
 30
0.0
  0
VERTEX
  5
208C2
  8
01
  6
CONTINUOUS
 10
574.9450993397371
 20
-701.5225416948332
 30
0.0
  0
VERTEX
  5
208C3
  8
01
  6
CONTINUOUS
 10
574.9348629048076
 20
-701.5053209220176
 30
0.0
  0
VERTEX
  5
208C4
  8
01
  6
CONTINUOUS
 10
574.9239803617212
 20
-701.4884989542031
 30
0.0
  0
VERTEX
  5
208C5
  8
01
  6
CONTINUOUS
 10
574.9124594362937
 20
-701.4720999027872
 30
0.0
  0
VERTEX
  5
208C6
  8
01
  6
CONTINUOUS
 10
574.9003078543415
 20
-701.4561478791679
 30
0.0
  0
VERTEX
  5
208C7
  8
01
  6
CONTINUOUS
 10
574.88753334168
 20
-701.4406669947427
 30
0.0
  0
VERTEX
  5
208C8
  8
01
  6
CONTINUOUS
 10
574.8741436241253
 20
-701.4256813609093
 30
0.0
  0
VERTEX
  5
208C9
  8
01
  6
CONTINUOUS
 10
574.860154747089
 20
-701.4112399429184
 30
0.0
  0
VERTEX
  5
208CA
  8
01
  6
CONTINUOUS
 10
574.8455953137594
 20
-701.3973866242895
 30
0.0
  0
VERTEX
  5
208CB
  8
01
  6
CONTINUOUS
 10
574.8304918866169
 20
-701.3841378938235
 30
0.0
  0
VERTEX
  5
208CC
  8
01
  6
CONTINUOUS
 10
574.8148710281416
 20
-701.3715102403215
 30
0.0
  0
VERTEX
  5
208CD
  8
01
  6
CONTINUOUS
 10
574.7987593008144
 20
-701.3595201525842
 30
0.0
  0
VERTEX
  5
208CE
  8
01
  6
CONTINUOUS
 10
574.7821832671156
 20
-701.3481841194126
 30
0.0
  0
VERTEX
  5
208CF
  8
01
  6
CONTINUOUS
 10
574.7651694895254
 20
-701.3375186296078
 30
0.0
  0
VERTEX
  5
208D0
  8
01
  6
CONTINUOUS
 10
574.7477445305248
 20
-701.3275401719702
 30
0.0
  0
VERTEX
  5
208D1
  8
01
  6
CONTINUOUS
 10
574.7299349525937
 20
-701.3182652353014
 30
0.0
  0
VERTEX
  5
208D2
  8
01
  6
CONTINUOUS
 10
574.7117673182127
 20
-701.3097103084016
 30
0.0
  0
VERTEX
  5
208D3
  8
01
  6
CONTINUOUS
 10
574.6932681898626
 20
-701.3018918800723
 30
0.0
  0
VERTEX
  5
208D4
  8
01
  6
CONTINUOUS
 10
574.6744641300234
 20
-701.294826439114
 30
0.0
  0
VERTEX
  5
208D5
  8
01
  6
CONTINUOUS
 10
574.6553817011759
 20
-701.2885304743278
 30
0.0
  0
VERTEX
  5
208D6
  8
01
  6
CONTINUOUS
 10
574.6360474658003
 20
-701.2830204745146
 30
0.0
  0
VERTEX
  5
208D7
  8
01
  6
CONTINUOUS
 10
574.6164879863771
 20
-701.2783129284752
 30
0.0
  0
VERTEX
  5
208D8
  8
01
  6
CONTINUOUS
 10
574.596729825387
 20
-701.2744243250108
 30
0.0
  0
VERTEX
  5
208D9
  8
01
  6
CONTINUOUS
 10
574.5767995453102
 20
-701.2713711529219
 30
0.0
  0
VERTEX
  5
208DA
  8
01
  6
CONTINUOUS
 10
574.5567237086273
 20
-701.2691699010098
 30
0.0
  0
VERTEX
  5
208DB
  8
01
  6
CONTINUOUS
 10
574.5365288778186
 20
-701.2678370580752
 30
0.0
  0
VERTEX
  5
208DC
  8
01
  6
CONTINUOUS
 10
574.5162416153647
 20
-701.267389112919
 30
0.0
  0
SEQEND
  5
2123E
  8
01
  6
CONTINUOUS
  0
LINE
  5
1FF23
  8
01
  6
CONTINUOUS
 10
575.0162416153647
 20
-709.7491195511814
 30
0.0
 11
575.0162416153647
 21
-701.7920046566671
 31
0.0
  0
LINE
  5
1FF24
  8
01
  6
CONTINUOUS
 10
564.0162416153647
 20
-709.2077808515294
 30
0.0
 11
564.0162416153647
 21
-709.2081331032672
 31
0.0
  0
LINE
  5
1FF25
  8
1DIM
 10
567.0162416153647
 20
-706.5343442655175
 30
0.0
 11
567.0162416153647
 21
-709.2225696985194
 31
0.0
  0
ARC
  5
1FF26
  8
1DIM
 10
568.005443631415
 20
-706.5453832790081
 30
0.0
 40
0.9892636091442009
 50
89.37459420571348
 51
179.3606335014585
  0
POLYLINE
  5
1FF27
  8
1DIM
 66
     1
 10
0.0
 20
0.0
 30
0.0
  0
VERTEX
  5
208DD
  8
1DIM
 10
562.0162416153647
 20
-705.1461766794291
 30
0.0
  0
VERTEX
  5
208DE
  8
1DIM
 10
562.0693567691653
 20
-705.1462610590517
 30
0.0
  0
VERTEX
  5
208DF
  8
1DIM
 10
562.1224198746723
 20
-705.1465140628736
 30
0.0
  0
VERTEX
  5
208E0
  8
1DIM
 10
562.1754294913842
 20
-705.1469354883264
 30
0.0
  0
VERTEX
  5
208E1
  8
1DIM
 10
562.2283841787987
 20
-705.1475251328416
 30
0.0
  0
VERTEX
  5
208E2
  8
1DIM
 10
562.2812824964137
 20
-705.1482827938507
 30
0.0
  0
VERTEX
  5
208E3
  8
1DIM
 10
562.3341230037277
 20
-705.1492082687851
 30
0.0
  0
VERTEX
  5
208E4
  8
1DIM
 10
562.386904260238
 20
-705.1503013550764
 30
0.0
  0
VERTEX
  5
208E5
  8
1DIM
 10
562.4396248254433
 20
-705.151561850156
 30
0.0
  0
VERTEX
  5
208E6
  8
1DIM
 10
562.4922832588412
 20
-705.1529895514554
 30
0.0
  0
VERTEX
  5
208E7
  8
1DIM
 10
562.5448781199296
 20
-705.1545842564061
 30
0.0
  0
VERTEX
  5
208E8
  8
1DIM
 10
562.597407968207
 20
-705.1563457624396
 30
0.0
  0
VERTEX
  5
208E9
  8
1DIM
 10
562.6498713631712
 20
-705.1582738669874
 30
0.0
  0
VERTEX
  5
208EA
  8
1DIM
 10
562.70226686432
 20
-705.160368367481
 30
0.0
  0
VERTEX
  5
208EB
  8
1DIM
 10
562.7545930311516
 20
-705.1626290613518
 30
0.0
  0
VERTEX
  5
208EC
  8
1DIM
 10
562.8068484231641
 20
-705.1650557460315
 30
0.0
  0
VERTEX
  5
208ED
  8
1DIM
 10
562.8590315998553
 20
-705.1676482189513
 30
0.0
  0
VERTEX
  5
208EE
  8
1DIM
 10
562.9111411207233
 20
-705.1704062775427
 30
0.0
  0
VERTEX
  5
208EF
  8
1DIM
 10
562.963175545266
 20
-705.1733297192376
 30
0.0
  0
VERTEX
  5
208F0
  8
1DIM
 10
563.0151334329818
 20
-705.176418341467
 30
0.0
  0
VERTEX
  5
208F1
  8
1DIM
 10
563.066943902032
 20
-705.1796672640355
 30
0.0
  0
VERTEX
  5
208F2
  8
1DIM
 10
563.1185374617298
 20
-705.1830713000581
 30
0.0
  0
VERTEX
  5
208F3
  8
1DIM
 10
563.1699147583003
 20
-705.1866297869319
 30
0.0
  0
VERTEX
  5
208F4
  8
1DIM
 10
563.2210764379686
 20
-705.190342062054
 30
0.0
  0
VERTEX
  5
208F5
  8
1DIM
 10
563.2720231469599
 20
-705.1942074628215
 30
0.0
  0
VERTEX
  5
208F6
  8
1DIM
 10
563.3227555314991
 20
-705.1982253266318
 30
0.0
  0
VERTEX
  5
208F7
  8
1DIM
 10
563.3732742378114
 20
-705.202394990882
 30
0.0
  0
VERTEX
  5
208F8
  8
1DIM
 10
563.4235799121219
 20
-705.206715792969
 30
0.0
  0
VERTEX
  5
208F9
  8
1DIM
 10
563.4736732006556
 20
-705.2111870702904
 30
0.0
  0
VERTEX
  5
208FA
  8
1DIM
 10
563.5235547496378
 20
-705.2158081602431
 30
0.0
  0
VERTEX
  5
208FB
  8
1DIM
 10
563.5732252052934
 20
-705.2205784002244
 30
0.0
  0
VERTEX
  5
208FC
  8
1DIM
 10
563.6226852138476
 20
-705.2254971276313
 30
0.0
  0
VERTEX
  5
208FD
  8
1DIM
 10
563.6719354215254
 20
-705.2305636798611
 30
0.0
  0
VERTEX
  5
208FE
  8
1DIM
 10
563.720976474552
 20
-705.2357773943111
 30
0.0
  0
VERTEX
  5
208FF
  8
1DIM
 10
563.7698090191525
 20
-705.241137608378
 30
0.0
  0
VERTEX
  5
20900
  8
1DIM
 10
563.8184337015517
 20
-705.2466436594596
 30
0.0
  0
VERTEX
  5
20901
  8
1DIM
 10
563.8668511679751
 20
-705.2522948849526
 30
0.0
  0
VERTEX
  5
20902
  8
1DIM
 10
563.9150620646477
 20
-705.2580906222544
 30
0.0
  0
VERTEX
  5
20903
  8
1DIM
 10
563.9630670377944
 20
-705.264030208762
 30
0.0
  0
VERTEX
  5
20904
  8
1DIM
 10
564.0108657616274
 20
-705.2701136025713
 30
0.0
  0
VERTEX
  5
20905
  8
1DIM
 10
564.0584572539761
 20
-705.276341171932
 30
0.0
  0
VERTEX
  5
20906
  8
1DIM
 10
564.1058411764922
 20
-705.282712869473
 30
0.0
  0
VERTEX
  5
20907
  8
1DIM
 10
564.1530171908266
 20
-705.2892286478233
 30
0.0
  0
VERTEX
  5
20908
  8
1DIM
 10
564.199984958631
 20
-705.2958884596113
 30
0.0
  0
VERTEX
  5
20909
  8
1DIM
 10
564.2467441415567
 20
-705.3026922574662
 30
0.0
  0
VERTEX
  5
2090A
  8
1DIM
 10
564.293294401255
 20
-705.3096399940165
 30
0.0
  0
VERTEX
  5
2090B
  8
1DIM
 10
564.3396353993776
 20
-705.3167316218911
 30
0.0
  0
VERTEX
  5
2090C
  8
1DIM
 10
564.3857667975752
 20
-705.3239670937189
 30
0.0
  0
VERTEX
  5
2090D
  8
1DIM
 10
564.4316884257229
 20
-705.3313467217704
 30
0.0
  0
VERTEX
  5
2090E
  8
1DIM
 10
564.47739227456
 20
-705.3388707746337
 30
0.0
  0
VERTEX
  5
2090F
  8
1DIM
 10
564.5228559911023
 20
-705.3465348575248
 30
0.0
  0
VERTEX
  5
20910
  8
1DIM
 10
564.5680560896707
 20
-705.3543340113632
 30
0.0
  0
VERTEX
  5
20911
  8
1DIM
 10
564.6129690845858
 20
-705.3622632770686
 30
0.0
  0
VERTEX
  5
20912
  8
1DIM
 10
564.6575714901682
 20
-705.3703176955603
 30
0.0
  0
VERTEX
  5
20913
  8
1DIM
 10
564.7018398207385
 20
-705.3784923077579
 30
0.0
  0
VERTEX
  5
20914
  8
1DIM
 10
564.7457505906176
 20
-705.386782154581
 30
0.0
  0
VERTEX
  5
20915
  8
1DIM
 10
564.789280314126
 20
-705.3951822769494
 30
0.0
  0
VERTEX
  5
20916
  8
1DIM
 10
564.8324055055846
 20
-705.4036877157821
 30
0.0
  0
VERTEX
  5
20917
  8
1DIM
 10
564.8751375026175
 20
-705.412298220997
 30
0.0
  0
VERTEX
  5
20918
  8
1DIM
 10
564.9175036947989
 20
-705.4210165078044
 30
0.0
  0
VERTEX
  5
20919
  8
1DIM
 10
564.9595046743749
 20
-705.4298420650638
 30
0.0
  0
VERTEX
  5
2091A
  8
1DIM
 10
565.0011410335908
 20
-705.4387743816343
 30
0.0
  0
VERTEX
  5
2091B
  8
1DIM
 10
565.0424133646924
 20
-705.4478129463749
 30
0.0
  0
VERTEX
  5
2091C
  8
1DIM
 10
565.0833222599255
 20
-705.4569572481453
 30
0.0
  0
VERTEX
  5
2091D
  8
1DIM
 10
565.1238683115357
 20
-705.4662067758044
 30
0.0
  0
VERTEX
  5
2091E
  8
1DIM
 10
565.1640521117686
 20
-705.4755610182115
 30
0.0
  0
VERTEX
  5
2091F
  8
1DIM
 10
565.2038742528699
 20
-705.4850194642258
 30
0.0
  0
VERTEX
  5
20920
  8
1DIM
 10
565.2433353270856
 20
-705.4945816027065
 30
0.0
  0
VERTEX
  5
20921
  8
1DIM
 10
565.2824359266608
 20
-705.5042469225132
 30
0.0
  0
VERTEX
  5
20922
  8
1DIM
 10
565.3211766438416
 20
-705.5140149125045
 30
0.0
  0
VERTEX
  5
20923
  8
1DIM
 10
565.3595580708736
 20
-705.5238850615401
 30
0.0
  0
VERTEX
  5
20924
  8
1DIM
 10
565.3975808000024
 20
-705.533856858479
 30
0.0
  0
VERTEX
  5
20925
  8
1DIM
 10
565.4352454234737
 20
-705.5439297921806
 30
0.0
  0
VERTEX
  5
20926
  8
1DIM
 10
565.4725525335334
 20
-705.554103351504
 30
0.0
  0
VERTEX
  5
20927
  8
1DIM
 10
565.5095027224269
 20
-705.5643770253084
 30
0.0
  0
VERTEX
  5
20928
  8
1DIM
 10
565.5460965823999
 20
-705.5747503024531
 30
0.0
  0
VERTEX
  5
20929
  8
1DIM
 10
565.5823347056983
 20
-705.5852226717975
 30
0.0
  0
VERTEX
  5
2092A
  8
1DIM
 10
565.6182212131787
 20
-705.5957978563174
 30
0.0
  0
VERTEX
  5
2092B
  8
1DIM
 10
565.6537543749064
 20
-705.6064775875428
 30
0.0
  0
VERTEX
  5
2092C
  8
1DIM
 10
565.6889260069394
 20
-705.6172583671646
 30
0.0
  0
VERTEX
  5
2092D
  8
1DIM
 10
565.7237279253355
 20
-705.6281366968735
 30
0.0
  0
VERTEX
  5
2092E
  8
1DIM
 10
565.7581519461531
 20
-705.6391090783602
 30
0.0
  0
VERTEX
  5
2092F
  8
1DIM
 10
565.79218988545
 20
-705.6501720133151
 30
0.0
  0
VERTEX
  5
20930
  8
1DIM
 10
565.8258335592842
 20
-705.6613220034292
 30
0.0
  0
VERTEX
  5
20931
  8
1DIM
 10
565.8590747837137
 20
-705.672555550393
 30
0.0
  0
VERTEX
  5
20932
  8
1DIM
 10
565.8919053747967
 20
-705.6838691558971
 30
0.0
  0
VERTEX
  5
20933
  8
1DIM
 10
565.9243171485912
 20
-705.6952593216323
 30
0.0
  0
VERTEX
  5
20934
  8
1DIM
 10
565.9563019211549
 20
-705.7067225492892
 30
0.0
  0
VERTEX
  5
20935
  8
1DIM
 10
565.9878515085463
 20
-705.7182553405585
 30
0.0
  0
VERTEX
  5
20936
  8
1DIM
 10
566.0189577268233
 20
-705.729854197131
 30
0.0
  0
VERTEX
  5
20937
  8
1DIM
 10
566.0496123920436
 20
-705.7415156206971
 30
0.0
  0
VERTEX
  5
20938
  8
1DIM
 10
566.0798073202654
 20
-705.7532361129477
 30
0.0
  0
VERTEX
  5
20939
  8
1DIM
 10
566.109534327547
 20
-705.7650121755732
 30
0.0
  0
VERTEX
  5
2093A
  8
1DIM
 10
566.138785229946
 20
-705.7768403102646
 30
0.0
  0
VERTEX
  5
2093B
  8
1DIM
 10
566.1675518435208
 20
-705.7887170187123
 30
0.0
  0
VERTEX
  5
2093C
  8
1DIM
 10
566.1958259843291
 20
-705.8006388026072
 30
0.0
  0
VERTEX
  5
2093D
  8
1DIM
 10
566.2236227693762
 20
-705.8126079689351
 30
0.0
  0
VERTEX
  5
2093E
  8
1DIM
 10
566.2509626982267
 20
-705.8246289824126
 30
0.0
  0
VERTEX
  5
2093F
  8
1DIM
 10
566.2778456607776
 20
-705.8367015813255
 30
0.0
  0
VERTEX
  5
20940
  8
1DIM
 10
566.304271546926
 20
-705.8488255039601
 30
0.0
  0
VERTEX
  5
20941
  8
1DIM
 10
566.330240246569
 20
-705.8610004886023
 30
0.0
  0
VERTEX
  5
20942
  8
1DIM
 10
566.3557516496036
 20
-705.8732262735383
 30
0.0
  0
VERTEX
  5
20943
  8
1DIM
 10
566.3808056459268
 20
-705.8855025970541
 30
0.0
  0
VERTEX
  5
20944
  8
1DIM
 10
566.4054021254358
 20
-705.8978291974358
 30
0.0
  0
VERTEX
  5
20945
  8
1DIM
 10
566.4295409780276
 20
-705.9102058129695
 30
0.0
  0
VERTEX
  5
20946
  8
1DIM
 10
566.4532220935994
 20
-705.9226321819413
 30
0.0
  0
VERTEX
  5
20947
  8
1DIM
 10
566.476445362048
 20
-705.9351080426371
 30
0.0
  0
VERTEX
  5
20948
  8
1DIM
 10
566.4992106732707
 20
-705.9476331333433
 30
0.0
  0
VERTEX
  5
20949
  8
1DIM
 10
566.5215179171645
 20
-705.9602071923457
 30
0.0
  0
VERTEX
  5
2094A
  8
1DIM
 10
566.5433669836265
 20
-705.9728299579303
 30
0.0
  0
VERTEX
  5
2094B
  8
1DIM
 10
566.5647577625535
 20
-705.9855011683836
 30
0.0
  0
VERTEX
  5
2094C
  8
1DIM
 10
566.585690143843
 20
-705.9982205619914
 30
0.0
  0
VERTEX
  5
2094D
  8
1DIM
 10
566.6061640173918
 20
-706.0109878770396
 30
0.0
  0
VERTEX
  5
2094E
  8
1DIM
 10
566.626179273097
 20
-706.0238028518147
 30
0.0
  0
VERTEX
  5
2094F
  8
1DIM
 10
566.6457358008557
 20
-706.0366652246024
 30
0.0
  0
VERTEX
  5
20950
  8
1DIM
 10
566.6648193983054
 20
-706.049568947907
 30
0.0
  0
VERTEX
  5
20951
  8
1DIM
 10
566.6834146781308
 20
-706.0625064423302
 30
0.0
  0
VERTEX
  5
20952
  8
1DIM
 10
566.7015197527994
 20
-706.0754751483057
 30
0.0
  0
VERTEX
  5
20953
  8
1DIM
 10
566.719132734779
 20
-706.0884725062668
 30
0.0
  0
VERTEX
  5
20954
  8
1DIM
 10
566.7362517365372
 20
-706.101495956647
 30
0.0
  0
VERTEX
  5
20955
  8
1DIM
 10
566.7528748705419
 20
-706.1145429398795
 30
0.0
  0
VERTEX
  5
20956
  8
1DIM
 10
566.7690002492604
 20
-706.1276108963978
 30
0.0
  0
VERTEX
  5
20957
  8
1DIM
 10
566.7846259851607
 20
-706.1406972666352
 30
0.0
  0
VERTEX
  5
20958
  8
1DIM
 10
566.7997501907104
 20
-706.1537994910253
 30
0.0
  0
VERTEX
  5
20959
  8
1DIM
 10
566.8143709783772
 20
-706.1669150100012
 30
0.0
  0
VERTEX
  5
2095A
  8
1DIM
 10
566.8284864606287
 20
-706.1800412639965
 30
0.0
  0
VERTEX
  5
2095B
  8
1DIM
 10
566.8420947499327
 20
-706.1931756934446
 30
0.0
  0
VERTEX
  5
2095C
  8
1DIM
 10
566.8551939587568
 20
-706.2063157387787
 30
0.0
  0
VERTEX
  5
2095D
  8
1DIM
 10
566.8677821995685
 20
-706.2194588404324
 30
0.0
  0
VERTEX
  5
2095E
  8
1DIM
 10
566.879857584836
 20
-706.2326024388391
 30
0.0
  0
VERTEX
  5
2095F
  8
1DIM
 10
566.8914182270265
 20
-706.2457439744318
 30
0.0
  0
VERTEX
  5
20960
  8
1DIM
 10
566.9024622386079
 20
-706.2588808876443
 30
0.0
  0
VERTEX
  5
20961
  8
1DIM
 10
566.9129877320478
 20
-706.2720106189099
 30
0.0
  0
VERTEX
  5
20962
  8
1DIM
 10
566.9229928198139
 20
-706.2851306086619
 30
0.0
  0
VERTEX
  5
20963
  8
1DIM
 10
566.9324860873693
 20
-706.2982451697405
 30
0.0
  0
VERTEX
  5
20964
  8
1DIM
 10
566.9414765873198
 20
-706.311360281975
 30
0.0
  0
VERTEX
  5
20965
  8
1DIM
 10
566.949963132846
 20
-706.3244758862826
 30
0.0
  0
VERTEX
  5
20966
  8
1DIM
 10
566.9579445371295
 20
-706.33759192358
 30
0.0
  0
VERTEX
  5
20967
  8
1DIM
 10
566.965419613351
 20
-706.3507083347849
 30
0.0
  0
VERTEX
  5
20968
  8
1DIM
 10
566.9723871746917
 20
-706.3638250608142
 30
0.0
  0
VERTEX
  5
20969
  8
1DIM
 10
566.9788460343326
 20
-706.3769420425849
 30
0.0
  0
VERTEX
  5
2096A
  8
1DIM
 10
566.984795005455
 20
-706.3900592210146
 30
0.0
  0
VERTEX
  5
2096B
  8
1DIM
 10
566.9902329012399
 20
-706.4031765370199
 30
0.0
  0
VERTEX
  5
2096C
  8
1DIM
 10
566.9951585348683
 20
-706.4162939315183
 30
0.0
  0
VERTEX
  5
2096D
  8
1DIM
 10
566.9995707195214
 20
-706.4294113454268
 30
0.0
  0
VERTEX
  5
2096E
  8
1DIM
 10
567.0034682683802
 20
-706.4425287196627
 30
0.0
  0
VERTEX
  5
2096F
  8
1DIM
 10
567.006849994626
 20
-706.4556459951428
 30
0.0
  0
VERTEX
  5
20970
  8
1DIM
 10
567.0097147114395
 20
-706.4687631127847
 30
0.0
  0
VERTEX
  5
20971
  8
1DIM
 10
567.0120612320022
 20
-706.4818800135052
 30
0.0
  0
VERTEX
  5
20972
  8
1DIM
 10
567.0138883694949
 20
-706.4949966382217
 30
0.0
  0
VERTEX
  5
20973
  8
1DIM
 10
567.0151949370988
 20
-706.508112927851
 30
0.0
  0
VERTEX
  5
20974
  8
1DIM
 10
567.0159797479951
 20
-706.5212288233106
 30
0.0
  0
VERTEX
  5
20975
  8
1DIM
 10
567.0162416153647
 20
-706.5343442655173
 30
0.0
  0
SEQEND
  5
2123F
  8
1DIM
  0
LINE
  5
1FF28
  8
1DIM
 10
562.0162416153647
 20
-704.1761289555652
 30
0.0
 11
562.0162416153647
 21
-705.1461766794291
 31
0.0
  0
LINE
  5
1FF29
  8
1DIM
 10
562.0162416153647
 20
-705.1461766794291
 30
0.0
 11
500.0162416153649
 21
-705.1461766794291
 31
0.0
  0
LINE
  5
1FF2B
  8
1DIM
 10
562.0162416153647
 20
-705.1461766794291
 30
0.0
 11
562.0162416153647
 21
-709.2077808515294
 31
0.0
  0
LINE
  5
1FF2E
  8
1DIM
 10
574.5162416153647
 20
-597.1407054265212
 30
0.0
 11
574.5162416153647
 21
-646.148149312474
 31
0.0
  0
LINE
  5
1FF2F
  8
01
  6
CONTINUOUS
 10
575.0162416153647
 20
-646.1407054265212
 30
0.0
 11
575.0162416153647
 21
-597.1407054265212
 31
0.0
  0
ARC
  5
1FF30
  8
1DIM
 10
574.6412139096466
 20
-637.7464141199388
 30
0.0
 40
8.4026645964135
 50
269.1478121080386
 51
272.5580748582775
  0
POLYLINE
  5
1FF31
  8
01
  6
CONTINUOUS
 10
0.0
 20
0.0
 30
0.0
 66
     1
 70
     8
  0
VERTEX
  5
20976
  8
01
  6
CONTINUOUS
 10
575.0162416153647
 20
-597.1407054265212
 30
0.0
 70
    32
  0
VERTEX
  5
20977
  8
01
  6
CONTINUOUS
 10
575.0158619053028
 20
-597.1407054265212
 30
0.0
 70
    32
  0
VERTEX
  5
20978
  8
01
  6
CONTINUOUS
 10
575.0147279256613
 20
-597.1407054265212
 30
0.0
 70
    32
  0
VERTEX
  5
20979
  8
01
  6
CONTINUOUS
 10
575.0128474022559
 20
-597.1407054265212
 30
0.0
 70
    32
  0
VERTEX
  5
2097A
  8
01
  6
CONTINUOUS
 10
575.0102280609026
 20
-597.1407054265212
 30
0.0
 70
    32
  0
VERTEX
  5
2097B
  8
01
  6
CONTINUOUS
 10
575.0068776274172
 20
-597.1407054265212
 30
0.0
 70
    32
  0
VERTEX
  5
2097C
  8
01
  6
CONTINUOUS
 10
575.0028038276158
 20
-597.1407054265212
 30
0.0
 70
    32
  0
VERTEX
  5
2097D
  8
01
  6
CONTINUOUS
 10
574.9980143873144
 20
-597.1407054265212
 30
0.0
 70
    32
  0
VERTEX
  5
2097E
  8
01
  6
CONTINUOUS
 10
574.9925170323287
 20
-597.1407054265212
 30
0.0
 70
    32
  0
VERTEX
  5
2097F
  8
01
  6
CONTINUOUS
 10
574.9863194884746
 20
-597.1407054265212
 30
0.0
 70
    32
  0
VERTEX
  5
20980
  8
01
  6
CONTINUOUS
 10
574.9794294815683
 20
-597.1407054265212
 30
0.0
 70
    32
  0
VERTEX
  5
20981
  8
01
  6
CONTINUOUS
 10
574.9718547374254
 20
-597.1407054265212
 30
0.0
 70
    32
  0
VERTEX
  5
20982
  8
01
  6
CONTINUOUS
 10
574.9636029818619
 20
-597.1407054265212
 30
0.0
 70
    32
  0
VERTEX
  5
20983
  8
01
  6
CONTINUOUS
 10
574.954681940694
 20
-597.1407054265212
 30
0.0
 70
    32
  0
VERTEX
  5
20984
  8
01
  6
CONTINUOUS
 10
574.9450993397371
 20
-597.1407054265212
 30
0.0
 70
    32
  0
VERTEX
  5
20985
  8
01
  6
CONTINUOUS
 10
574.9348629048076
 20
-597.1407054265212
 30
0.0
 70
    32
  0
VERTEX
  5
20986
  8
01
  6
CONTINUOUS
 10
574.9239803617212
 20
-597.1407054265212
 30
0.0
 70
    32
  0
VERTEX
  5
20987
  8
01
  6
CONTINUOUS
 10
574.9124594362937
 20
-597.1407054265212
 30
0.0
 70
    32
  0
VERTEX
  5
20988
  8
01
  6
CONTINUOUS
 10
574.9003078543415
 20
-597.1407054265212
 30
0.0
 70
    32
  0
VERTEX
  5
20989
  8
01
  6
CONTINUOUS
 10
574.88753334168
 20
-597.1407054265212
 30
0.0
 70
    32
  0
VERTEX
  5
2098A
  8
01
  6
CONTINUOUS
 10
574.8741436241253
 20
-597.1407054265212
 30
0.0
 70
    32
  0
VERTEX
  5
2098B
  8
01
  6
CONTINUOUS
 10
574.860154747089
 20
-597.1407054265212
 30
0.0
 70
    32
  0
VERTEX
  5
2098C
  8
01
  6
CONTINUOUS
 10
574.8455953137594
 20
-597.1407054265212
 30
0.0
 70
    32
  0
VERTEX
  5
2098D
  8
01
  6
CONTINUOUS
 10
574.8304918866169
 20
-597.1407054265212
 30
0.0
 70
    32
  0
VERTEX
  5
2098E
  8
01
  6
CONTINUOUS
 10
574.8148710281416
 20
-597.1407054265212
 30
0.0
 70
    32
  0
VERTEX
  5
2098F
  8
01
  6
CONTINUOUS
 10
574.7987593008144
 20
-597.1407054265212
 30
0.0
 70
    32
  0
VERTEX
  5
20990
  8
01
  6
CONTINUOUS
 10
574.7821832671156
 20
-597.1407054265212
 30
0.0
 70
    32
  0
VERTEX
  5
20991
  8
01
  6
CONTINUOUS
 10
574.7651694895254
 20
-597.1407054265212
 30
0.0
 70
    32
  0
VERTEX
  5
20992
  8
01
  6
CONTINUOUS
 10
574.7477445305248
 20
-597.1407054265212
 30
0.0
 70
    32
  0
VERTEX
  5
20993
  8
01
  6
CONTINUOUS
 10
574.7299349525937
 20
-597.1407054265212
 30
0.0
 70
    32
  0
VERTEX
  5
20994
  8
01
  6
CONTINUOUS
 10
574.7117673182127
 20
-597.1407054265212
 30
0.0
 70
    32
  0
VERTEX
  5
20995
  8
01
  6
CONTINUOUS
 10
574.6932681898626
 20
-597.1407054265212
 30
0.0
 70
    32
  0
VERTEX
  5
20996
  8
01
  6
CONTINUOUS
 10
574.6744641300234
 20
-597.1407054265212
 30
0.0
 70
    32
  0
VERTEX
  5
20997
  8
01
  6
CONTINUOUS
 10
574.6553817011759
 20
-597.1407054265212
 30
0.0
 70
    32
  0
VERTEX
  5
20998
  8
01
  6
CONTINUOUS
 10
574.6360474658003
 20
-597.1407054265212
 30
0.0
 70
    32
  0
VERTEX
  5
20999
  8
01
  6
CONTINUOUS
 10
574.6164879863771
 20
-597.1407054265212
 30
0.0
 70
    32
  0
VERTEX
  5
2099A
  8
01
  6
CONTINUOUS
 10
574.596729825387
 20
-597.1407054265212
 30
0.0
 70
    32
  0
VERTEX
  5
2099B
  8
01
  6
CONTINUOUS
 10
574.5767995453102
 20
-597.1407054265212
 30
0.0
 70
    32
  0
VERTEX
  5
2099C
  8
01
  6
CONTINUOUS
 10
574.5567237086273
 20
-597.1407054265212
 30
0.0
 70
    32
  0
VERTEX
  5
2099D
  8
01
  6
CONTINUOUS
 10
574.5365288778186
 20
-597.1407054265212
 30
0.0
 70
    32
  0
VERTEX
  5
2099E
  8
01
  6
CONTINUOUS
 10
574.5162416153647
 20
-597.1407054265212
 30
0.0
 70
    32
  0
SEQEND
  5
21240
  8
01
  6
CONTINUOUS
  0
POLYLINE
  5
1FF32
  8
1DIM
 66
     1
 10
0.0
 20
0.0
 30
0.0
  0
VERTEX
  5
2099F
  8
1DIM
 10
574.5162416153647
 20
-646.148149312474
 30
0.0
  0
VERTEX
  5
209A0
  8
1DIM
 10
574.516020102549
 20
-646.1811048388366
 30
0.0
  0
VERTEX
  5
209A1
  8
1DIM
 10
574.5153567493497
 20
-646.2140406905119
 30
0.0
  0
VERTEX
  5
209A2
  8
1DIM
 10
574.5142533336389
 20
-646.2469511982381
 30
0.0
  0
VERTEX
  5
209A3
  8
1DIM
 10
574.5127116332883
 20
-646.2798306927538
 30
0.0
  0
VERTEX
  5
209A4
  8
1DIM
 10
574.5107334261702
 20
-646.3126735047975
 30
0.0
  0
VERTEX
  5
209A5
  8
1DIM
 10
574.5083204901562
 20
-646.3454739651079
 30
0.0
  0
VERTEX
  5
209A6
  8
1DIM
 10
574.5054746031184
 20
-646.3782264044233
 30
0.0
  0
VERTEX
  5
209A7
  8
1DIM
 10
574.5021975429289
 20
-646.4109251534826
 30
0.0
  0
VERTEX
  5
209A8
  8
1DIM
 10
574.4984910874593
 20
-646.4435645430242
 30
0.0
  0
VERTEX
  5
209A9
  8
1DIM
 10
574.4943570145819
 20
-646.4761389037864
 30
0.0
  0
VERTEX
  5
209AA
  8
1DIM
 10
574.4897971021685
 20
-646.508642566508
 30
0.0
  0
VERTEX
  5
209AB
  8
1DIM
 10
574.484813128091
 20
-646.5410698619276
 30
0.0
  0
VERTEX
  5
209AC
  8
1DIM
 10
574.4794068702213
 20
-646.5734151207835
 30
0.0
  0
VERTEX
  5
209AD
  8
1DIM
 10
574.4735801064315
 20
-646.6056726738144
 30
0.0
  0
VERTEX
  5
209AE
  8
1DIM
 10
574.4673346145936
 20
-646.6378368517588
 30
0.0
  0
VERTEX
  5
209AF
  8
1DIM
 10
574.4606721725792
 20
-646.6699019853555
 30
0.0
  0
VERTEX
  5
209B0
  8
1DIM
 10
574.4535945582605
 20
-646.7018624053427
 30
0.0
  0
VERTEX
  5
209B1
  8
1DIM
 10
574.4461035495094
 20
-646.7337124424591
 30
0.0
  0
VERTEX
  5
209B2
  8
1DIM
 10
574.438200924198
 20
-646.7654464274433
 30
0.0
  0
VERTEX
  5
209B3
  8
1DIM
 10
574.4298884601981
 20
-646.7970586910336
 30
0.0
  0
VERTEX
  5
209B4
  8
1DIM
 10
574.4211679353816
 20
-646.8285435639689
 30
0.0
  0
VERTEX
  5
209B5
  8
1DIM
 10
574.4120411276205
 20
-646.8598953769874
 30
0.0
  0
VERTEX
  5
209B6
  8
1DIM
 10
574.4025098147868
 20
-646.8911084608279
 30
0.0
  0
VERTEX
  5
209B7
  8
1DIM
 10
574.3925757747523
 20
-646.9221771462288
 30
0.0
  0
VERTEX
  5
209B8
  8
1DIM
 10
574.3822407853892
 20
-646.9530957639288
 30
0.0
  0
VERTEX
  5
209B9
  8
1DIM
 10
574.3715066245691
 20
-646.9838586446664
 30
0.0
  0
VERTEX
  5
209BA
  8
1DIM
 10
574.3603750701643
 20
-647.0144601191801
 30
0.0
  0
VERTEX
  5
209BB
  8
1DIM
 10
574.3488479000464
 20
-647.0448945182084
 30
0.0
  0
VERTEX
  5
209BC
  8
1DIM
 10
574.3369268920877
 20
-647.0751561724898
 30
0.0
  0
VERTEX
  5
209BD
  8
1DIM
 10
574.3246138241599
 20
-647.105239412763
 30
0.0
  0
VERTEX
  5
209BE
  8
1DIM
 10
574.3119011432402
 20
-647.1351652536146
 30
0.0
  0
VERTEX
  5
209BF
  8
1DIM
 10
574.2987821420445
 20
-647.1649536370356
 30
0.0
  0
VERTEX
  5
209C0
  8
1DIM
 10
574.2852598670523
 20
-647.1945972848722
 30
0.0
  0
VERTEX
  5
209C1
  8
1DIM
 10
574.2713373647437
 20
-647.2240889189699
 30
0.0
  0
VERTEX
  5
209C2
  8
1DIM
 10
574.2570176815981
 20
-647.2534212611746
 30
0.0
  0
VERTEX
  5
209C3
  8
1DIM
 10
574.2423038640952
 20
-647.282587033332
 30
0.0
  0
VERTEX
  5
209C4
  8
1DIM
 10
574.2271989587152
 20
-647.3115789572879
 30
0.0
  0
VERTEX
  5
209C5
  8
1DIM
 10
574.2117060119375
 20
-647.3403897548882
 30
0.0
  0
VERTEX
  5
209C6
  8
1DIM
 10
574.195828070242
 20
-647.3690121479785
 30
0.0
  0
VERTEX
  5
209C7
  8
1DIM
 10
574.1795681801084
 20
-647.3974388584047
 30
0.0
  0
VERTEX
  5
209C8
  8
1DIM
 10
574.1629293880164
 20
-647.4256626080125
 30
0.0
  0
VERTEX
  5
209C9
  8
1DIM
 10
574.145914740446
 20
-647.4536761186479
 30
0.0
  0
VERTEX
  5
209CA
  8
1DIM
 10
574.1285272838766
 20
-647.4814721121564
 30
0.0
  0
VERTEX
  5
209CB
  8
1DIM
 10
574.1107700647881
 20
-647.5090433103841
 30
0.0
  0
VERTEX
  5
209CC
  8
1DIM
 10
574.0926461296602
 20
-647.5363824351763
 30
0.0
  0
VERTEX
  5
209CD
  8
1DIM
 10
574.074178934407
 20
-647.5634594421324
 30
0.0
  0
VERTEX
  5
209CE
  8
1DIM
 10
574.0553902515265
 20
-647.5902494488236
 30
0.0
  0
VERTEX
  5
209CF
  8
1DIM
 10
574.0362806023757
 20
-647.6167529200529
 30
0.0
  0
VERTEX
  5
209D0
  8
1DIM
 10
574.0168505083109
 20
-647.6429703206248
 30
0.0
  0
VERTEX
  5
209D1
  8
1DIM
 10
573.9971004906886
 20
-647.6689021153428
 30
0.0
  0
VERTEX
  5
209D2
  8
1DIM
 10
573.9770310708652
 20
-647.6945487690105
 30
0.0
  0
VERTEX
  5
209D3
  8
1DIM
 10
573.9566427701976
 20
-647.7199107464315
 30
0.0
  0
VERTEX
  5
209D4
  8
1DIM
 10
573.9359361100421
 20
-647.7449885124098
 30
0.0
  0
VERTEX
  5
209D5
  8
1DIM
 10
573.9149116117553
 20
-647.7697825317489
 30
0.0
  0
VERTEX
  5
209D6
  8
1DIM
 10
573.8935697966938
 20
-647.7942932692526
 30
0.0
  0
VERTEX
  5
209D7
  8
1DIM
 10
573.871911186214
 20
-647.8185211897248
 30
0.0
  0
VERTEX
  5
209D8
  8
1DIM
 10
573.8499363016724
 20
-647.842466757969
 30
0.0
  0
VERTEX
  5
209D9
  8
1DIM
 10
573.8276456644257
 20
-647.8661304387889
 30
0.0
  0
VERTEX
  5
209DA
  8
1DIM
 10
573.8050397958306
 20
-647.8895126969883
 30
0.0
  0
VERTEX
  5
209DB
  8
1DIM
 10
573.7821192172432
 20
-647.912613997371
 30
0.0
  0
VERTEX
  5
209DC
  8
1DIM
 10
573.7588660191602
 20
-647.9354434552829
 30
0.0
  0
VERTEX
  5
209DD
  8
1DIM
 10
573.7352692587847
 20
-647.9580038295476
 30
0.0
  0
VERTEX
  5
209DE
  8
1DIM
 10
573.7113399075339
 20
-647.9802860501846
 30
0.0
  0
VERTEX
  5
209DF
  8
1DIM
 10
573.6870889368248
 20
-648.0022810472133
 30
0.0
  0
VERTEX
  5
209E0
  8
1DIM
 10
573.6625273180745
 20
-648.0239797506531
 30
0.0
  0
VERTEX
  5
209E1
  8
1DIM
 10
573.6376660227
 20
-648.0453730905234
 30
0.0
  0
VERTEX
  5
209E2
  8
1DIM
 10
573.6125160221185
 20
-648.0664519968439
 30
0.0
  0
VERTEX
  5
209E3
  8
1DIM
 10
573.5870882877467
 20
-648.0872073996339
 30
0.0
  0
VERTEX
  5
209E4
  8
1DIM
 10
573.561393791002
 20
-648.1076302289129
 30
0.0
  0
VERTEX
  5
209E5
  8
1DIM
 10
573.5354435033014
 20
-648.1277114147003
 30
0.0
  0
VERTEX
  5
209E6
  8
1DIM
 10
573.5092483960619
 20
-648.1474418870157
 30
0.0
  0
VERTEX
  5
209E7
  8
1DIM
 10
573.4828194407005
 20
-648.1668125758786
 30
0.0
  0
VERTEX
  5
209E8
  8
1DIM
 10
573.4561676086344
 20
-648.1858144113081
 30
0.0
  0
VERTEX
  5
209E9
  8
1DIM
 10
573.4293038712804
 20
-648.2044383233241
 30
0.0
  0
VERTEX
  5
209EA
  8
1DIM
 10
573.4022392000558
 20
-648.2226752419458
 30
0.0
  0
VERTEX
  5
209EB
  8
1DIM
 10
573.3749755229909
 20
-648.2405306942959
 30
0.0
  0
VERTEX
  5
209EC
  8
1DIM
 10
573.3475073806344
 20
-648.2580161215212
 30
0.0
  0
VERTEX
  5
209ED
  8
1DIM
 10
573.3198346631807
 20
-648.2751313246771
 30
0.0
  0
VERTEX
  5
209EE
  8
1DIM
 10
573.2919572608242
 20
-648.2918761048195
 30
0.0
  0
VERTEX
  5
209EF
  8
1DIM
 10
573.2638750637593
 20
-648.3082502630037
 30
0.0
  0
VERTEX
  5
209F0
  8
1DIM
 10
573.2355879621804
 20
-648.3242536002857
 30
0.0
  0
VERTEX
  5
209F1
  8
1DIM
 10
573.2070958462821
 20
-648.3398859177207
 30
0.0
  0
VERTEX
  5
209F2
  8
1DIM
 10
573.1783986062584
 20
-648.3551470163645
 30
0.0
  0
VERTEX
  5
209F3
  8
1DIM
 10
573.149496132304
 20
-648.3700366972728
 30
0.0
  0
VERTEX
  5
209F4
  8
1DIM
 10
573.120388314613
 20
-648.3845547615011
 30
0.0
  0
VERTEX
  5
209F5
  8
1DIM
 10
573.0910750433802
 20
-648.3987010101051
 30
0.0
  0
VERTEX
  5
209F6
  8
1DIM
 10
573.0615562087999
 20
-648.4124752441403
 30
0.0
  0
VERTEX
  5
209F7
  8
1DIM
 10
573.0318317010662
 20
-648.4258772646623
 30
0.0
  0
VERTEX
  5
209F8
  8
1DIM
 10
573.0019014103738
 20
-648.4389068727269
 30
0.0
  0
VERTEX
  5
209F9
  8
1DIM
 10
572.9717652269171
 20
-648.4515638693895
 30
0.0
  0
VERTEX
  5
209FA
  8
1DIM
 10
572.941430777862
 20
-648.4638391257521
 30
0.0
  0
VERTEX
  5
209FB
  8
1DIM
 10
572.9109132316138
 20
-648.475721770544
 30
0.0
  0
VERTEX
  5
209FC
  8
1DIM
 10
572.8802237902255
 20
-648.4872089912622
 30
0.0
  0
VERTEX
  5
209FD
  8
1DIM
 10
572.8493736557501
 20
-648.4982979754033
 30
0.0
  0
VERTEX
  5
209FE
  8
1DIM
 10
572.8183740302409
 20
-648.5089859104643
 30
0.0
  0
VERTEX
  5
209FF
  8
1DIM
 10
572.7872361157505
 20
-648.5192699839419
 30
0.0
  0
VERTEX
  5
20A00
  8
1DIM
 10
572.7559711143325
 20
-648.5291473833331
 30
0.0
  0
VERTEX
  5
20A01
  8
1DIM
 10
572.7245902280396
 20
-648.5386152961346
 30
0.0
  0
VERTEX
  5
20A02
  8
1DIM
 10
572.693104658925
 20
-648.5476709098433
 30
0.0
  0
VERTEX
  5
20A03
  8
1DIM
 10
572.6615256090417
 20
-648.5563114119558
 30
0.0
  0
VERTEX
  5
20A04
  8
1DIM
 10
572.6298642804428
 20
-648.5645339899694
 30
0.0
  0
VERTEX
  5
20A05
  8
1DIM
 10
572.5981318751815
 20
-648.5723358313804
 30
0.0
  0
VERTEX
  5
20A06
  8
1DIM
 10
572.5663395953105
 20
-648.579714123686
 30
0.0
  0
VERTEX
  5
20A07
  8
1DIM
 10
572.5344986428832
 20
-648.586666054383
 30
0.0
  0
VERTEX
  5
20A08
  8
1DIM
 10
572.5026202199525
 20
-648.5931888109681
 30
0.0
  0
VERTEX
  5
20A09
  8
1DIM
 10
572.4706917990471
 20
-648.5992899411785
 30
0.0
  0
VERTEX
  5
20A0A
  8
1DIM
 10
572.4386932538979
 20
-648.6049780976608
 30
0.0
  0
VERTEX
  5
20A0B
  8
1DIM
 10
572.4066243883609
 20
-648.6102521252756
 30
0.0
  0
VERTEX
  5
20A0C
  8
1DIM
 10
572.3744850062925
 20
-648.6151108688828
 30
0.0
  0
VERTEX
  5
20A0D
  8
1DIM
 10
572.3422749115491
 20
-648.6195531733433
 30
0.0
  0
VERTEX
  5
20A0E
  8
1DIM
 10
572.309993907987
 20
-648.6235778835174
 30
0.0
  0
VERTEX
  5
20A0F
  8
1DIM
 10
572.2776417994621
 20
-648.6271838442657
 30
0.0
  0
VERTEX
  5
20A10
  8
1DIM
 10
572.245218389831
 20
-648.6303699004486
 30
0.0
  0
VERTEX
  5
20A11
  8
1DIM
 10
572.21272348295
 20
-648.6331348969264
 30
0.0
  0
VERTEX
  5
20A12
  8
1DIM
 10
572.1801568826752
 20
-648.6354776785598
 30
0.0
  0
VERTEX
  5
20A13
  8
1DIM
 10
572.1475183928629
 20
-648.6373970902091
 30
0.0
  0
VERTEX
  5
20A14
  8
1DIM
 10
572.1148078173694
 20
-648.6388919767348
 30
0.0
  0
VERTEX
  5
20A15
  8
1DIM
 10
572.0820249600512
 20
-648.6399611829974
 30
0.0
  0
VERTEX
  5
20A16
  8
1DIM
 10
572.0491696247641
 20
-648.6406035538572
 30
0.0
  0
VERTEX
  5
20A17
  8
1DIM
 10
572.0162416153647
 20
-648.6408179341748
 30
0.0
  0
SEQEND
  5
21241
  8
1DIM
  0
LINE
  5
1FF33
  8
1DIM
 10
500.0162416153649
 20
-648.6408179341748
 30
0.0
 11
572.0162416153647
 21
-648.6408179341748
 31
0.0
  0
LINE
  5
1FF34
  8
1DIM
 10
568.0162416153647
 20
-640.1906373862281
 30
0.0
 11
568.0162416153647
 21
-614.3485321230702
 31
0.0
  0
POLYLINE
  5
1FF35
  8
1DIM
 66
     1
 10
0.0
 20
0.0
 30
0.0
  0
VERTEX
  5
20A18
  8
1DIM
 10
568.0162416153647
 20
-614.3485321230702
 30
0.0
  0
VERTEX
  5
20A19
  8
1DIM
 10
568.0159807776205
 20
-614.292665297579
 30
0.0
  0
VERTEX
  5
20A1A
  8
1DIM
 10
568.0151989941043
 20
-614.2368896597676
 30
0.0
  0
VERTEX
  5
20A1B
  8
1DIM
 10
568.0138973593907
 20
-614.1812050082424
 30
0.0
  0
VERTEX
  5
20A1C
  8
1DIM
 10
568.0120769680545
 20
-614.1256111416097
 30
0.0
  0
VERTEX
  5
20A1D
  8
1DIM
 10
568.0097389146704
 20
-614.070107858476
 30
0.0
  0
VERTEX
  5
20A1E
  8
1DIM
 10
568.0068842938126
 20
-614.014694957448
 30
0.0
  0
VERTEX
  5
20A1F
  8
1DIM
 10
568.0035142000562
 20
-613.959372237132
 30
0.0
  0
VERTEX
  5
20A20
  8
1DIM
 10
567.9996297279758
 20
-613.9041394961346
 30
0.0
  0
VERTEX
  5
20A21
  8
1DIM
 10
567.9952319721459
 20
-613.8489965330622
 30
0.0
  0
VERTEX
  5
20A22
  8
1DIM
 10
567.9903220271412
 20
-613.7939431465212
 30
0.0
  0
VERTEX
  5
20A23
  8
1DIM
 10
567.9849009875364
 20
-613.7389791351183
 30
0.0
  0
VERTEX
  5
20A24
  8
1DIM
 10
567.9789699479061
 20
-613.6841042974596
 30
0.0
  0
VERTEX
  5
20A25
  8
1DIM
 10
567.972530002825
 20
-613.629318432152
 30
0.0
  0
VERTEX
  5
20A26
  8
1DIM
 10
567.9655822468676
 20
-613.5746213378018
 30
0.0
  0
VERTEX
  5
20A27
  8
1DIM
 10
567.9581277746088
 20
-613.5200128130155
 30
0.0
  0
VERTEX
  5
20A28
  8
1DIM
 10
567.9501676806229
 20
-613.4654926563995
 30
0.0
  0
VERTEX
  5
20A29
  8
1DIM
 10
567.941703059485
 20
-613.4110606665604
 30
0.0
  0
VERTEX
  5
20A2A
  8
1DIM
 10
567.9327350057695
 20
-613.3567166421046
 30
0.0
  0
VERTEX
  5
20A2B
  8
1DIM
 10
567.9232646140509
 20
-613.3024603816386
 30
0.0
  0
VERTEX
  5
20A2C
  8
1DIM
 10
567.9132929789041
 20
-613.2482916837689
 30
0.0
  0
VERTEX
  5
20A2D
  8
1DIM
 10
567.9028211949037
 20
-613.194210347102
 30
0.0
  0
VERTEX
  5
20A2E
  8
1DIM
 10
567.8918481603758
 20
-613.1402165385977
 30
0.0
  0
VERTEX
  5
20A2F
  8
1DIM
 10
567.8803713822264
 20
-613.0863106579294
 30
0.0
  0
VERTEX
  5
20A30
  8
1DIM
 10
567.8683898679001
 20
-613.0324928527747
 30
0.0
  0
VERTEX
  5
20A31
  8
1DIM
 10
567.8559026248412
 20
-612.9787632708102
 30
0.0
  0
VERTEX
  5
20A32
  8
1DIM
 10
567.8429086604942
 20
-612.9251220597132
 30
0.0
  0
VERTEX
  5
20A33
  8
1DIM
 10
567.8294069823037
 20
-612.8715693671605
 30
0.0
  0
VERTEX
  5
20A34
  8
1DIM
 10
567.815396597714
 20
-612.8181053408294
 30
0.0
  0
VERTEX
  5
20A35
  8
1DIM
 10
567.8008765141698
 20
-612.764730128397
 30
0.0
  0
VERTEX
  5
20A36
  8
1DIM
 10
567.7858457391153
 20
-612.7114438775401
 30
0.0
  0
VERTEX
  5
20A37
  8
1DIM
 10
567.770303279995
 20
-612.658246735936
 30
0.0
  0
VERTEX
  5
20A38
  8
1DIM
 10
567.7542455208761
 20
-612.6051337068508
 30
0.0
  0
VERTEX
  5
20A39
  8
1DIM
 10
567.7376591480333
 20
-612.5520827641786
 30
0.0
  0
VERTEX
  5
20A3A
  8
1DIM
 10
567.7205492832203
 20
-612.499111125821
 30
0.0
  0
VERTEX
  5
20A3B
  8
1DIM
 10
567.702924051468
 20
-612.4462421199433
 30
0.0
  0
VERTEX
  5
20A3C
  8
1DIM
 10
567.684791577807
 20
-612.3934990747115
 30
0.0
  0
VERTEX
  5
20A3D
  8
1DIM
 10
567.6661599872682
 20
-612.3409053182914
 30
0.0
  0
VERTEX
  5
20A3E
  8
1DIM
 10
567.6470374048822
 20
-612.2884841788489
 30
0.0
  0
VERTEX
  5
20A3F
  8
1DIM
 10
567.6274319556798
 20
-612.2362589845495
 30
0.0
  0
VERTEX
  5
20A40
  8
1DIM
 10
567.6073517646918
 20
-612.1842530635593
 30
0.0
  0
VERTEX
  5
20A41
  8
1DIM
 10
567.5868049569489
 20
-612.1324897440436
 30
0.0
  0
VERTEX
  5
20A42
  8
1DIM
 10
567.5657996574818
 20
-612.0809923541688
 30
0.0
  0
VERTEX
  5
20A43
  8
1DIM
 10
567.5443412001156
 20
-612.0297607539077
 30
0.0
  0
VERTEX
  5
20A44
  8
1DIM
 10
567.5224296451879
 20
-611.9787791400262
 30
0.0
  0
VERTEX
  5
20A45
  8
1DIM
 10
567.5000652074974
 20
-611.9280473458788
 30
0.0
  0
VERTEX
  5
20A46
  8
1DIM
 10
567.477248101843
 20
-611.8775652048195
 30
0.0
  0
VERTEX
  5
20A47
  8
1DIM
 10
567.4539785430235
 20
-611.8273325502028
 30
0.0
  0
VERTEX
  5
20A48
  8
1DIM
 10
567.4302567458378
 20
-611.7773492153829
 30
0.0
  0
VERTEX
  5
20A49
  8
1DIM
 10
567.4060829250845
 20
-611.7276150337142
 30
0.0
  0
VERTEX
  5
20A4A
  8
1DIM
 10
567.381457295563
 20
-611.6781298385511
 30
0.0
  0
VERTEX
  5
20A4B
  8
1DIM
 10
567.3563800720718
 20
-611.6288934632478
 30
0.0
  0
VERTEX
  5
20A4C
  8
1DIM
 10
567.3308514694098
 20
-611.5799057411587
 30
0.0
  0
VERTEX
  5
20A4D
  8
1DIM
 10
567.3048717023759
 20
-611.531166505638
 30
0.0
  0
VERTEX
  5
20A4E
  8
1DIM
 10
567.2784409857691
 20
-611.4826755900401
 30
0.0
  0
VERTEX
  5
20A4F
  8
1DIM
 10
567.2515595343879
 20
-611.4344328277194
 30
0.0
  0
VERTEX
  5
20A50
  8
1DIM
 10
567.2242275630315
 20
-611.3864380520303
 30
0.0
  0
VERTEX
  5
20A51
  8
1DIM
 10
567.1964452864986
 20
-611.3386910963267
 30
0.0
  0
VERTEX
  5
20A52
  8
1DIM
 10
567.1682129195882
 20
-611.2911917939633
 30
0.0
  0
VERTEX
  5
20A53
  8
1DIM
 10
567.1395306770991
 20
-611.2439399782944
 30
0.0
  0
VERTEX
  5
20A54
  8
1DIM
 10
567.11039877383
 20
-611.196935482674
 30
0.0
  0
VERTEX
  5
20A55
  8
1DIM
 10
567.08081742458
 20
-611.150178140457
 30
0.0
  0
VERTEX
  5
20A56
  8
1DIM
 10
567.0507868441478
 20
-611.1036677849971
 30
0.0
  0
VERTEX
  5
20A57
  8
1DIM
 10
567.0203072473323
 20
-611.057404249649
 30
0.0
  0
VERTEX
  5
20A58
  8
1DIM
 10
566.9893588189145
 20
-611.011372543589
 30
0.0
  0
VERTEX
  5
20A59
  8
1DIM
 10
566.9579267286382
 20
-610.965564386566
 30
0.0
  0
VERTEX
  5
20A5A
  8
1DIM
 10
566.9260186687467
 20
-610.9199896777927
 30
0.0
  0
VERTEX
  5
20A5B
  8
1DIM
 10
566.893642331483
 20
-610.8746583164818
 30
0.0
  0
VERTEX
  5
20A5C
  8
1DIM
 10
566.8608054090905
 20
-610.8295802018462
 30
0.0
  0
VERTEX
  5
20A5D
  8
1DIM
 10
566.8275155938123
 20
-610.7847652330985
 30
0.0
  0
VERTEX
  5
20A5E
  8
1DIM
 10
566.7937805778918
 20
-610.7402233094516
 30
0.0
  0
VERTEX
  5
20A5F
  8
1DIM
 10
566.7596080535718
 20
-610.6959643301183
 30
0.0
  0
VERTEX
  5
20A60
  8
1DIM
 10
566.7250057130959
 20
-610.6519981943112
 30
0.0
  0
VERTEX
  5
20A61
  8
1DIM
 10
566.6899812487072
 20
-610.6083348012431
 30
0.0
  0
VERTEX
  5
20A62
  8
1DIM
 10
566.654542352649
 20
-610.5649840501269
 30
0.0
  0
VERTEX
  5
20A63
  8
1DIM
 10
566.6186967171642
 20
-610.5219558401752
 30
0.0
  0
VERTEX
  5
20A64
  8
1DIM
 10
566.5824520344963
 20
-610.479260070601
 30
0.0
  0
VERTEX
  5
20A65
  8
1DIM
 10
566.5458159968886
 20
-610.4369066406168
 30
0.0
  0
VERTEX
  5
20A66
  8
1DIM
 10
566.5087962965838
 20
-610.3949054494354
 30
0.0
  0
VERTEX
  5
20A67
  8
1DIM
 10
566.4714006258256
 20
-610.3532663962699
 30
0.0
  0
VERTEX
  5
20A68
  8
1DIM
 10
566.4336366768572
 20
-610.3119993803326
 30
0.0
  0
VERTEX
  5
20A69
  8
1DIM
 10
566.3955121419214
 20
-610.2711143008366
 30
0.0
  0
VERTEX
  5
20A6A
  8
1DIM
 10
566.3570347132619
 20
-610.2306210569944
 30
0.0
  0
VERTEX
  5
20A6B
  8
1DIM
 10
566.3182120831216
 20
-610.1905295480191
 30
0.0
  0
VERTEX
  5
20A6C
  8
1DIM
 10
566.2790519437439
 20
-610.1508496731233
 30
0.0
  0
VERTEX
  5
20A6D
  8
1DIM
 10
566.2395539264691
 20
-610.1115707907009
 30
0.0
  0
VERTEX
  5
20A6E
  8
1DIM
 10
566.1997122829118
 20
-610.0726758992334
 30
0.0
  0
VERTEX
  5
20A6F
  8
1DIM
 10
566.1595266357255
 20
-610.034165358065
 30
0.0
  0
VERTEX
  5
20A70
  8
1DIM
 10
566.1189966075636
 20
-609.9960395265392
 30
0.0
  0
VERTEX
  5
20A71
  8
1DIM
 10
566.0781218210799
 20
-609.9582987640002
 30
0.0
  0
VERTEX
  5
20A72
  8
1DIM
 10
566.0369018989277
 20
-609.9209434297919
 30
0.0
  0
VERTEX
  5
20A73
  8
1DIM
 10
565.9953364637606
 20
-609.8839738832581
 30
0.0
  0
VERTEX
  5
20A74
  8
1DIM
 10
565.9534251382323
 20
-609.8473904837427
 30
0.0
  0
VERTEX
  5
20A75
  8
1DIM
 10
565.9111675449963
 20
-609.8111935905897
 30
0.0
  0
VERTEX
  5
20A76
  8
1DIM
 10
565.8685633067062
 20
-609.775383563143
 30
0.0
  0
VERTEX
  5
20A77
  8
1DIM
 10
565.8256120460155
 20
-609.7399607607465
 30
0.0
  0
VERTEX
  5
20A78
  8
1DIM
 10
565.7823133855778
 20
-609.704925542744
 30
0.0
  0
VERTEX
  5
20A79
  8
1DIM
 10
565.7386669480467
 20
-609.6702782684795
 30
0.0
  0
VERTEX
  5
20A7A
  8
1DIM
 10
565.6946723560756
 20
-609.636019297297
 30
0.0
  0
VERTEX
  5
20A7B
  8
1DIM
 10
565.6503292323182
 20
-609.6021489885403
 30
0.0
  0
VERTEX
  5
20A7C
  8
1DIM
 10
565.605637199428
 20
-609.5686677015534
 30
0.0
  0
VERTEX
  5
20A7D
  8
1DIM
 10
565.5605958800586
 20
-609.5355757956801
 30
0.0
  0
VERTEX
  5
20A7E
  8
1DIM
 10
565.5152048968637
 20
-609.5028736302643
 30
0.0
  0
VERTEX
  5
20A7F
  8
1DIM
 10
565.4694638724966
 20
-609.4705615646501
 30
0.0
  0
VERTEX
  5
20A80
  8
1DIM
 10
565.423372429611
 20
-609.4386399581812
 30
0.0
  0
VERTEX
  5
20A81
  8
1DIM
 10
565.3769301908605
 20
-609.4071091702016
 30
0.0
  0
VERTEX
  5
20A82
  8
1DIM
 10
565.3301115735599
 20
-609.3759599934182
 30
0.0
  0
VERTEX
  5
20A83
  8
1DIM
 10
565.2829055786444
 20
-609.3451921418762
 30
0.0
  0
VERTEX
  5
20A84
  8
1DIM
 10
565.2353337041991
 20
-609.3148193569266
 30
0.0
  0
VERTEX
  5
20A85
  8
1DIM
 10
565.1874174483087
 20
-609.2848553799208
 30
0.0
  0
VERTEX
  5
20A86
  8
1DIM
 10
565.1391783090579
 20
-609.2553139522098
 30
0.0
  0
VERTEX
  5
20A87
  8
1DIM
 10
565.0906377845313
 20
-609.2262088151448
 30
0.0
  0
VERTEX
  5
20A88
  8
1DIM
 10
565.041817372814
 20
-609.1975537100769
 30
0.0
  0
VERTEX
  5
20A89
  8
1DIM
 10
564.9927385719903
 20
-609.1693623783572
 30
0.0
  0
VERTEX
  5
20A8A
  8
1DIM
 10
564.9434228801452
 20
-609.141648561337
 30
0.0
  0
VERTEX
  5
20A8B
  8
1DIM
 10
564.8938917953636
 20
-609.1144260003671
 30
0.0
  0
VERTEX
  5
20A8C
  8
1DIM
 10
564.8441644470914
 20
-609.0877058425524
 30
0.0
  0
VERTEX
  5
20A8D
  8
1DIM
 10
564.7942401897621
 20
-609.0614807686266
 30
0.0
  0
VERTEX
  5
20A8E
  8
1DIM
 10
564.744117882613
 20
-609.0357478825711
 30
0.0
  0
VERTEX
  5
20A8F
  8
1DIM
 10
564.6937978722062
 20
-609.0105062720423
 30
0.0
  0
VERTEX
  5
20A90
  8
1DIM
 10
564.6432805051039
 20
-608.9857550246977
 30
0.0
  0
VERTEX
  5
20A91
  8
1DIM
 10
564.5925661278682
 20
-608.961493228194
 30
0.0
  0
VERTEX
  5
20A92
  8
1DIM
 10
564.5416550870611
 20
-608.9377199701884
 30
0.0
  0
VERTEX
  5
20A93
  8
1DIM
 10
564.4905477292451
 20
-608.9144343383376
 30
0.0
  0
VERTEX
  5
20A94
  8
1DIM
 10
564.4392444009821
 20
-608.8916354202992
 30
0.0
  0
VERTEX
  5
20A95
  8
1DIM
 10
564.3877454488344
 20
-608.8693223037296
 30
0.0
  0
VERTEX
  5
20A96
  8
1DIM
 10
564.3360512193641
 20
-608.8474940762864
 30
0.0
  0
VERTEX
  5
20A97
  8
1DIM
 10
564.2841626616187
 20
-608.8261483225644
 30
0.0
  0
VERTEX
  5
20A98
  8
1DIM
 10
564.2320801732006
 20
-608.8052840052654
 30
0.0
  0
VERTEX
  5
20A99
  8
1DIM
 10
564.1798032735051
 20
-608.7849022792053
 30
0.0
  0
VERTEX
  5
20A9A
  8
1DIM
 10
564.1273314819265
 20
-608.7650042991996
 30
0.0
  0
VERTEX
  5
20A9B
  8
1DIM
 10
564.0746643178603
 20
-608.7455912200644
 30
0.0
  0
VERTEX
  5
20A9C
  8
1DIM
 10
564.0218013007011
 20
-608.7266641966153
 30
0.0
  0
VERTEX
  5
20A9D
  8
1DIM
 10
563.9687419498437
 20
-608.7082243836684
 30
0.0
  0
VERTEX
  5
20A9E
  8
1DIM
 10
563.9154857846831
 20
-608.6902729360393
 30
0.0
  0
VERTEX
  5
20A9F
  8
1DIM
 10
563.8620323246143
 20
-608.672811008544
 30
0.0
  0
VERTEX
  5
20AA0
  8
1DIM
 10
563.808381089032
 20
-608.6558397559982
 30
0.0
  0
VERTEX
  5
20AA1
  8
1DIM
 10
563.7545315973312
 20
-608.6393603332177
 30
0.0
  0
VERTEX
  5
20AA2
  8
1DIM
 10
563.7004833689067
 20
-608.6233738950186
 30
0.0
  0
VERTEX
  5
20AA3
  8
1DIM
 10
563.6462359231534
 20
-608.6078815962165
 30
0.0
  0
VERTEX
  5
20AA4
  8
1DIM
 10
563.5917887794662
 20
-608.5928845916274
 30
0.0
  0
VERTEX
  5
20AA5
  8
1DIM
 10
563.5371414572402
 20
-608.5783840360668
 30
0.0
  0
VERTEX
  5
20AA6
  8
1DIM
 10
563.4822934758699
 20
-608.5643810843509
 30
0.0
  0
VERTEX
  5
20AA7
  8
1DIM
 10
563.4272443547504
 20
-608.5508768912953
 30
0.0
  0
VERTEX
  5
20AA8
  8
1DIM
 10
563.3719936132766
 20
-608.5378726117161
 30
0.0
  0
VERTEX
  5
20AA9
  8
1DIM
 10
563.3165407708433
 20
-608.5253694004288
 30
0.0
  0
VERTEX
  5
20AAA
  8
1DIM
 10
563.2608853468454
 20
-608.5133684122494
 30
0.0
  0
VERTEX
  5
20AAB
  8
1DIM
 10
563.205026860678
 20
-608.5018708019937
 30
0.0
  0
VERTEX
  5
20AAC
  8
1DIM
 10
563.1490328192739
 20
-608.490891878128
 30
0.0
  0
VERTEX
  5
20AAD
  8
1DIM
 10
563.0929716452001
 20
-608.4804463285363
 30
0.0
  0
VERTEX
  5
20AAE
  8
1DIM
 10
563.0368442313023
 20
-608.4705343771617
 30
0.0
  0
VERTEX
  5
20AAF
  8
1DIM
 10
562.9806514704264
 20
-608.4611562479469
 30
0.0
  0
VERTEX
  5
20AB0
  8
1DIM
 10
562.924394255418
 20
-608.4523121648346
 30
0.0
  0
VERTEX
  5
20AB1
  8
1DIM
 10
562.8680734791227
 20
-608.4440023517681
 30
0.0
  0
VERTEX
  5
20AB2
  8
1DIM
 10
562.8116900343863
 20
-608.4362270326895
 30
0.0
  0
VERTEX
  5
20AB3
  8
1DIM
 10
562.7552448140545
 20
-608.4289864315425
 30
0.0
  0
VERTEX
  5
20AB4
  8
1DIM
 10
562.6987387109732
 20
-608.4222807722695
 30
0.0
  0
VERTEX
  5
20AB5
  8
1DIM
 10
562.6421726179879
 20
-608.4161102788133
 30
0.0
  0
VERTEX
  5
20AB6
  8
1DIM
 10
562.5855474279442
 20
-608.410475175117
 30
0.0
  0
VERTEX
  5
20AB7
  8
1DIM
 10
562.5288640336883
 20
-608.4053756851232
 30
0.0
  0
VERTEX
  5
20AB8
  8
1DIM
 10
562.4721233280654
 20
-608.4008120327751
 30
0.0
  0
VERTEX
  5
20AB9
  8
1DIM
 10
562.4153262039215
 20
-608.3967844420151
 30
0.0
  0
VERTEX
  5
20ABA
  8
1DIM
 10
562.3584735541024
 20
-608.3932931367864
 30
0.0
  0
VERTEX
  5
20ABB
  8
1DIM
 10
562.3015662714535
 20
-608.3903383410317
 30
0.0
  0
VERTEX
  5
20ABC
  8
1DIM
 10
562.2446052488208
 20
-608.387920278694
 30
0.0
  0
VERTEX
  5
20ABD
  8
1DIM
 10
562.1875913790496
 20
-608.3860391737159
 30
0.0
  0
VERTEX
  5
20ABE
  8
1DIM
 10
562.1305255549863
 20
-608.3846952500403
 30
0.0
  0
VERTEX
  5
20ABF
  8
1DIM
 10
562.0734086694761
 20
-608.3838887316102
 30
0.0
  0
VERTEX
  5
20AC0
  8
1DIM
 10
562.0162416153647
 20
-608.3836198423685
 30
0.0
  0
SEQEND
  5
21242
  8
1DIM
  0
LINE
  5
1FF36
  8
1DIM
 10
500.0162416153649
 20
-608.3836198423685
 30
0.0
 11
562.0162416153647
 21
-608.3836198423685
 31
0.0
  0
LINE
  5
1FF37
  8
1DIM
 10
564.0162416153647
 20
-644.1672455733626
 30
0.0
 11
500.0162416153649
 21
-644.1672455733626
 31
0.0
  0
POLYLINE
  5
1FF38
  8
1DIM
 66
     1
 10
0.0
 20
0.0
 30
0.0
  0
VERTEX
  5
20AC1
  8
1DIM
 10
564.0162416153647
 20
-644.1672455733626
 30
0.0
  0
VERTEX
  5
20AC2
  8
1DIM
 10
564.062682628837
 20
-644.1669798629919
 30
0.0
  0
VERTEX
  5
20AC3
  8
1DIM
 10
564.1090337769144
 20
-644.1661835636786
 30
0.0
  0
VERTEX
  5
20AC4
  8
1DIM
 10
564.1552952707314
 20
-644.1648579231213
 30
0.0
  0
VERTEX
  5
20AC5
  8
1DIM
 10
564.2014673214226
 20
-644.1630041890186
 30
0.0
  0
VERTEX
  5
20AC6
  8
1DIM
 10
564.2475501401225
 20
-644.1606236090689
 30
0.0
  0
VERTEX
  5
20AC7
  8
1DIM
 10
564.2935439379658
 20
-644.1577174309709
 30
0.0
  0
VERTEX
  5
20AC8
  8
1DIM
 10
564.3394489260868
 20
-644.154286902423
 30
0.0
  0
VERTEX
  5
20AC9
  8
1DIM
 10
564.3852653156204
 20
-644.1503332711237
 30
0.0
  0
VERTEX
  5
20ACA
  8
1DIM
 10
564.4309933177009
 20
-644.1458577847717
 30
0.0
  0
VERTEX
  5
20ACB
  8
1DIM
 10
564.4766331434629
 20
-644.1408616910653
 30
0.0
  0
VERTEX
  5
20ACC
  8
1DIM
 10
564.5221850040411
 20
-644.1353462377031
 30
0.0
  0
VERTEX
  5
20ACD
  8
1DIM
 10
564.5676491105701
 20
-644.1293126723835
 30
0.0
  0
VERTEX
  5
20ACE
  8
1DIM
 10
564.6130256741842
 20
-644.1227622428055
 30
0.0
  0
VERTEX
  5
20ACF
  8
1DIM
 10
564.6583149060182
 20
-644.1156961966672
 30
0.0
  0
VERTEX
  5
20AD0
  8
1DIM
 10
564.7035170172064
 20
-644.108115781667
 30
0.0
  0
VERTEX
  5
20AD1
  8
1DIM
 10
564.7486322188837
 20
-644.1000222455039
 30
0.0
  0
VERTEX
  5
20AD2
  8
1DIM
 10
564.7936607221844
 20
-644.0914168358761
 30
0.0
  0
VERTEX
  5
20AD3
  8
1DIM
 10
564.838627685641
 20
-644.0822886805965
 30
0.0
  0
VERTEX
  5
20AD4
  8
1DIM
 10
564.883549980732
 20
-644.0726280931259
 30
0.0
  0
VERTEX
  5
20AD5
  8
1DIM
 10
564.9284153880126
 20
-644.0624380996348
 30
0.0
  0
VERTEX
  5
20AD6
  8
1DIM
 10
564.973211688037
 20
-644.0517217262942
 30
0.0
  0
VERTEX
  5
20AD7
  8
1DIM
 10
565.0179266613601
 20
-644.0404819992746
 30
0.0
  0
VERTEX
  5
20AD8
  8
1DIM
 10
565.0625480885365
 20
-644.0287219447464
 30
0.0
  0
VERTEX
  5
20AD9
  8
1DIM
 10
565.1070637501207
 20
-644.0164445888805
 30
0.0
  0
VERTEX
  5
20ADA
  8
1DIM
 10
565.1514614266674
 20
-644.0036529578476
 30
0.0
  0
VERTEX
  5
20ADB
  8
1DIM
 10
565.1957288987313
 20
-643.9903500778181
 30
0.0
  0
VERTEX
  5
20ADC
  8
1DIM
 10
565.239853946867
 20
-643.9765389749629
 30
0.0
  0
VERTEX
  5
20ADD
  8
1DIM
 10
565.2838243516292
 20
-643.9622226754526
 30
0.0
  0
VERTEX
  5
20ADE
  8
1DIM
 10
565.3276278935724
 20
-643.9474042054577
 30
0.0
  0
VERTEX
  5
20ADF
  8
1DIM
 10
565.3712523532514
 20
-643.932086591149
 30
0.0
  0
VERTEX
  5
20AE0
  8
1DIM
 10
565.4146855112207
 20
-643.916272858697
 30
0.0
  0
VERTEX
  5
20AE1
  8
1DIM
 10
565.457915148035
 20
-643.8999660342724
 30
0.0
  0
VERTEX
  5
20AE2
  8
1DIM
 10
565.500929044249
 20
-643.8831691440461
 30
0.0
  0
VERTEX
  5
20AE3
  8
1DIM
 10
565.5437149804172
 20
-643.8658852141883
 30
0.0
  0
VERTEX
  5
20AE4
  8
1DIM
 10
565.5862553006993
 20
-643.8481273576646
 30
0.0
  0
VERTEX
  5
20AE5
  8
1DIM
 10
565.6285405635637
 20
-643.829906796854
 30
0.0
  0
VERTEX
  5
20AE6
  8
1DIM
 10
565.6705708710284
 20
-643.8112237220477
 30
0.0
  0
VERTEX
  5
20AE7
  8
1DIM
 10
565.7123463251114
 20
-643.7920783235375
 30
0.0
  0
VERTEX
  5
20AE8
  8
1DIM
 10
565.7538670278306
 20
-643.7724707916146
 30
0.0
  0
VERTEX
  5
20AE9
  8
1DIM
 10
565.7951330812041
 20
-643.7524013165706
 30
0.0
  0
VERTEX
  5
20AEA
  8
1DIM
 10
565.8361445872497
 20
-643.731870088697
 30
0.0
  0
VERTEX
  5
20AEB
  8
1DIM
 10
565.8769016479853
 20
-643.710877298285
 30
0.0
  0
VERTEX
  5
20AEC
  8
1DIM
 10
565.9174043654292
 20
-643.6894231356263
 30
0.0
  0
VERTEX
  5
20AED
  8
1DIM
 10
565.9576528415992
 20
-643.6675077910122
 30
0.0
  0
VERTEX
  5
20AEE
  8
1DIM
 10
565.9976471785131
 20
-643.6451314547342
 30
0.0
  0
VERTEX
  5
20AEF
  8
1DIM
 10
566.0373874781892
 20
-643.6222943170836
 30
0.0
  0
VERTEX
  5
20AF0
  8
1DIM
 10
566.0768738426452
 20
-643.598996568352
 30
0.0
  0
VERTEX
  5
20AF1
  8
1DIM
 10
566.1161063738992
 20
-643.5752383988311
 30
0.0
  0
VERTEX
  5
20AF2
  8
1DIM
 10
566.1550851739693
 20
-643.551019998812
 30
0.0
  0
VERTEX
  5
20AF3
  8
1DIM
 10
566.1938103448731
 20
-643.5263415585862
 30
0.0
  0
VERTEX
  5
20AF4
  8
1DIM
 10
566.2322819886289
 20
-643.501203268445
 30
0.0
  0
VERTEX
  5
20AF5
  8
1DIM
 10
566.2705072761968
 20
-643.4755905749773
 30
0.0
  0
VERTEX
  5
20AF6
  8
1DIM
 10
566.308485254899
 20
-643.44949539558
 30
0.0
  0
VERTEX
  5
20AF7
  8
1DIM
 10
566.3462038412964
 20
-643.4229276267563
 30
0.0
  0
VERTEX
  5
20AF8
  8
1DIM
 10
566.3836509519499
 20
-643.3958971650098
 30
0.0
  0
VERTEX
  5
20AF9
  8
1DIM
 10
566.4208145034206
 20
-643.3684139068439
 30
0.0
  0
VERTEX
  5
20AFA
  8
1DIM
 10
566.4576824122694
 20
-643.3404877487623
 30
0.0
  0
VERTEX
  5
20AFB
  8
1DIM
 10
566.494242595057
 20
-643.3121285872684
 30
0.0
  0
VERTEX
  5
20AFC
  8
1DIM
 10
566.5304829683446
 20
-643.2833463188656
 30
0.0
  0
VERTEX
  5
20AFD
  8
1DIM
 10
566.566391448693
 20
-643.2541508400575
 30
0.0
  0
VERTEX
  5
20AFE
  8
1DIM
 10
566.6019559526633
 20
-643.2245520473476
 30
0.0
  0
VERTEX
  5
20AFF
  8
1DIM
 10
566.637164396816
 20
-643.1945598372394
 30
0.0
  0
VERTEX
  5
20B00
  8
1DIM
 10
566.6720046977126
 20
-643.1641841062363
 30
0.0
  0
VERTEX
  5
20B01
  8
1DIM
 10
566.7064647719137
 20
-643.1334347508422
 30
0.0
  0
VERTEX
  5
20B02
  8
1DIM
 10
566.7405325359802
 20
-643.10232166756
 30
0.0
  0
VERTEX
  5
20B03
  8
1DIM
 10
566.7741959064733
 20
-643.0708547528935
 30
0.0
  0
VERTEX
  5
20B04
  8
1DIM
 10
566.8074427999536
 20
-643.0390439033465
 30
0.0
  0
VERTEX
  5
20B05
  8
1DIM
 10
566.8402611329823
 20
-643.0068990154219
 30
0.0
  0
VERTEX
  5
20B06
  8
1DIM
 10
566.8726657745558
 20
-642.9744156322979
 30
0.0
  0
VERTEX
  5
20B07
  8
1DIM
 10
566.9046792481698
 20
-642.9415823455643
 30
0.0
  0
VERTEX
  5
20B08
  8
1DIM
 10
566.9363009521338
 20
-642.9083986243419
 30
0.0
  0
VERTEX
  5
20B09
  8
1DIM
 10
566.9675302847571
 20
-642.8748639377518
 30
0.0
  0
VERTEX
  5
20B0A
  8
1DIM
 10
566.9983666443493
 20
-642.8409777549153
 30
0.0
  0
VERTEX
  5
20B0B
  8
1DIM
 10
567.02880942922
 20
-642.8067395449533
 30
0.0
  0
VERTEX
  5
20B0C
  8
1DIM
 10
567.0588580376784
 20
-642.772148776987
 30
0.0
  0
VERTEX
  5
20B0D
  8
1DIM
 10
567.0885118680342
 20
-642.7372049201374
 30
0.0
  0
VERTEX
  5
20B0E
  8
1DIM
 10
567.1177703185966
 20
-642.7019074435257
 30
0.0
  0
VERTEX
  5
20B0F
  8
1DIM
 10
567.1466327876755
 20
-642.6662558162728
 30
0.0
  0
VERTEX
  5
20B10
  8
1DIM
 10
567.1750986735799
 20
-642.6302495075
 30
0.0
  0
VERTEX
  5
20B11
  8
1DIM
 10
567.2031673746196
 20
-642.5938879863285
 30
0.0
  0
VERTEX
  5
20B12
  8
1DIM
 10
567.230838289104
 20
-642.557170721879
 30
0.0
  0
VERTEX
  5
20B13
  8
1DIM
 10
567.2581108153424
 20
-642.5200971832728
 30
0.0
  0
VERTEX
  5
20B14
  8
1DIM
 10
567.2849843516444
 20
-642.482666839631
 30
0.0
  0
VERTEX
  5
20B15
  8
1DIM
 10
567.3114582963196
 20
-642.4448791600746
 30
0.0
  0
VERTEX
  5
20B16
  8
1DIM
 10
567.3375320476773
 20
-642.4067336137249
 30
0.0
  0
VERTEX
  5
20B17
  8
1DIM
 10
567.363178467689
 20
-642.3682610985546
 30
0.0
  0
VERTEX
  5
20B18
  8
1DIM
 10
567.3883685655053
 20
-642.3294981910393
 30
0.0
  0
VERTEX
  5
20B19
  8
1DIM
 10
567.4130989602047
 20
-642.290452878054
 30
0.0
  0
VERTEX
  5
20B1A
  8
1DIM
 10
567.4373662708658
 20
-642.2511331464736
 30
0.0
  0
VERTEX
  5
20B1B
  8
1DIM
 10
567.4611671165674
 20
-642.2115469831732
 30
0.0
  0
VERTEX
  5
20B1C
  8
1DIM
 10
567.4844981163875
 20
-642.1717023750276
 30
0.0
  0
VERTEX
  5
20B1D
  8
1DIM
 10
567.5073558894048
 20
-642.131607308912
 30
0.0
  0
VERTEX
  5
20B1E
  8
1DIM
 10
567.5297370546981
 20
-642.0912697717013
 30
0.0
  0
VERTEX
  5
20B1F
  8
1DIM
 10
567.5516382313456
 20
-642.0506977502704
 30
0.0
  0
VERTEX
  5
20B20
  8
1DIM
 10
567.573056038426
 20
-642.0098992314943
 30
0.0
  0
VERTEX
  5
20B21
  8
1DIM
 10
567.5939870950177
 20
-641.9688822022481
 30
0.0
  0
VERTEX
  5
20B22
  8
1DIM
 10
567.6144280201994
 20
-641.9276546494067
 30
0.0
  0
VERTEX
  5
20B23
  8
1DIM
 10
567.6343754330495
 20
-641.886224559845
 30
0.0
  0
VERTEX
  5
20B24
  8
1DIM
 10
567.6538259526465
 20
-641.8445999204381
 30
0.0
  0
VERTEX
  5
20B25
  8
1DIM
 10
567.6727761980687
 20
-641.8027887180612
 30
0.0
  0
VERTEX
  5
20B26
  8
1DIM
 10
567.6912227883951
 20
-641.7607989395888
 30
0.0
  0
VERTEX
  5
20B27
  8
1DIM
 10
567.709162342704
 20
-641.7186385718961
 30
0.0
  0
VERTEX
  5
20B28
  8
1DIM
 10
567.7266075390327
 20
-641.676281263744
 30
0.0
  0
VERTEX
  5
20B29
  8
1DIM
 10
567.7435714551468
 20
-641.6336987401644
 30
0.0
  0
VERTEX
  5
20B2A
  8
1DIM
 10
567.7600513097168
 20
-641.5908961024397
 30
0.0
  0
VERTEX
  5
20B2B
  8
1DIM
 10
567.7760443214132
 20
-641.547878451852
 30
0.0
  0
VERTEX
  5
20B2C
  8
1DIM
 10
567.7915477089067
 20
-641.5046508896834
 30
0.0
  0
VERTEX
  5
20B2D
  8
1DIM
 10
567.806558690868
 20
-641.4612185172158
 30
0.0
  0
VERTEX
  5
20B2E
  8
1DIM
 10
567.8210744859673
 20
-641.4175864357317
 30
0.0
  0
VERTEX
  5
20B2F
  8
1DIM
 10
567.8350923128756
 20
-641.3737597465131
 30
0.0
  0
VERTEX
  5
20B30
  8
1DIM
 10
567.8486093902632
 20
-641.3297435508422
 30
0.0
  0
VERTEX
  5
20B31
  8
1DIM
 10
567.8616229368008
 20
-641.2855429500011
 30
0.0
  0
VERTEX
  5
20B32
  8
1DIM
 10
567.8741301711589
 20
-641.241163045272
 30
0.0
  0
VERTEX
  5
20B33
  8
1DIM
 10
567.8861283120082
 20
-641.196608937937
 30
0.0
  0
VERTEX
  5
20B34
  8
1DIM
 10
567.8976145780192
 20
-641.1518857292782
 30
0.0
  0
VERTEX
  5
20B35
  8
1DIM
 10
567.9085861878626
 20
-641.1069985205778
 30
0.0
  0
VERTEX
  5
20B36
  8
1DIM
 10
567.9190403602087
 20
-641.0619524131178
 30
0.0
  0
VERTEX
  5
20B37
  8
1DIM
 10
567.9289743137283
 20
-641.0167525081805
 30
0.0
  0
VERTEX
  5
20B38
  8
1DIM
 10
567.938385267092
 20
-640.9714039070482
 30
0.0
  0
VERTEX
  5
20B39
  8
1DIM
 10
567.9472656552424
 20
-640.9259529443823
 30
0.0
  0
VERTEX
  5
20B3A
  8
1DIM
 10
567.9556096144809
 20
-640.8804425384321
 30
0.0
  0
VERTEX
  5
20B3B
  8
1DIM
 10
567.9634169155155
 20
-640.8348726658613
 30
0.0
  0
VERTEX
  5
20B3C
  8
1DIM
 10
567.9706873290552
 20
-640.7892433033331
 30
0.0
  0
VERTEX
  5
20B3D
  8
1DIM
 10
567.9774206258081
 20
-640.7435544275111
 30
0.0
  0
VERTEX
  5
20B3E
  8
1DIM
 10
567.983616576483
 20
-640.6978060150587
 30
0.0
  0
VERTEX
  5
20B3F
  8
1DIM
 10
567.989274951788
 20
-640.6519980426394
 30
0.0
  0
VERTEX
  5
20B40
  8
1DIM
 10
567.9943955224318
 20
-640.6061304869166
 30
0.0
  0
VERTEX
  5
20B41
  8
1DIM
 10
567.9989780591229
 20
-640.5602033245539
 30
0.0
  0
VERTEX
  5
20B42
  8
1DIM
 10
568.0030223325695
 20
-640.5142165322146
 30
0.0
  0
VERTEX
  5
20B43
  8
1DIM
 10
568.0065281134802
 20
-640.4681700865623
 30
0.0
  0
VERTEX
  5
20B44
  8
1DIM
 10
568.0094951725636
 20
-640.4220639642604
 30
0.0
  0
VERTEX
  5
20B45
  8
1DIM
 10
568.0119232805279
 20
-640.3758981419724
 30
0.0
  0
VERTEX
  5
20B46
  8
1DIM
 10
568.0138122080817
 20
-640.3296725963617
 30
0.0
  0
VERTEX
  5
20B47
  8
1DIM
 10
568.0151617259334
 20
-640.2833873040917
 30
0.0
  0
VERTEX
  5
20B48
  8
1DIM
 10
568.0159716047916
 20
-640.237042241826
 30
0.0
  0
VERTEX
  5
20B49
  8
1DIM
 10
568.0162416153647
 20
-640.1906373862281
 30
0.0
  0
SEQEND
  5
21243
  8
1DIM
  0
LINE
  5
1FF39
  8
01
  6
CONTINUOUS
 10
574.5162416153647
 20
-597.1407054265212
 30
0.0
 11
500.0162416153649
 21
-597.1407054265212
 31
0.0
  0
POLYLINE
  5
1FF3A
  8
01
  6
CONTINUOUS
 66
     1
 10
0.0
 20
0.0
 30
0.0
  0
VERTEX
  5
20B4A
  8
01
  6
CONTINUOUS
 10
562.0162416153647
 20
-609.1407054265212
 30
0.0
  0
VERTEX
  5
20B4B
  8
01
  6
CONTINUOUS
 10
562.0693567691653
 20
-609.1409858433329
 30
0.0
  0
VERTEX
  5
20B4C
  8
01
  6
CONTINUOUS
 10
562.1224198746723
 20
-609.1418268253587
 30
0.0
  0
VERTEX
  5
20B4D
  8
01
  6
CONTINUOUS
 10
562.1754294913842
 20
-609.1432279699848
 30
0.0
  0
VERTEX
  5
20B4E
  8
01
  6
CONTINUOUS
 10
562.2283841787987
 20
-609.1451888745974
 30
0.0
  0
VERTEX
  5
20B4F
  8
01
  6
CONTINUOUS
 10
562.2812824964137
 20
-609.1477091365823
 30
0.0
  0
VERTEX
  5
20B50
  8
01
  6
CONTINUOUS
 10
562.3341230037277
 20
-609.150788353326
 30
0.0
  0
VERTEX
  5
20B51
  8
01
  6
CONTINUOUS
 10
562.386904260238
 20
-609.1544261222145
 30
0.0
  0
VERTEX
  5
20B52
  8
01
  6
CONTINUOUS
 10
562.4396248254433
 20
-609.1586220406341
 30
0.0
  0
VERTEX
  5
20B53
  8
01
  6
CONTINUOUS
 10
562.4922832588412
 20
-609.1633757059707
 30
0.0
  0
VERTEX
  5
20B54
  8
01
  6
CONTINUOUS
 10
562.5448781199296
 20
-609.1686867156106
 30
0.0
  0
VERTEX
  5
20B55
  8
01
  6
CONTINUOUS
 10
562.597407968207
 20
-609.1745546669398
 30
0.0
  0
VERTEX
  5
20B56
  8
01
  6
CONTINUOUS
 10
562.6498713631712
 20
-609.1809791573446
 30
0.0
  0
VERTEX
  5
20B57
  8
01
  6
CONTINUOUS
 10
562.70226686432
 20
-609.187959784211
 30
0.0
  0
VERTEX
  5
20B58
  8
01
  6
CONTINUOUS
 10
562.7545930311516
 20
-609.1954961449253
 30
0.0
  0
VERTEX
  5
20B59
  8
01
  6
CONTINUOUS
 10
562.8068484231641
 20
-609.2035878368736
 30
0.0
  0
VERTEX
  5
20B5A
  8
01
  6
CONTINUOUS
 10
562.8590315998553
 20
-609.2122344574418
 30
0.0
  0
VERTEX
  5
20B5B
  8
01
  6
CONTINUOUS
 10
562.9111411207233
 20
-609.2214356040164
 30
0.0
  0
VERTEX
  5
20B5C
  8
01
  6
CONTINUOUS
 10
562.963175545266
 20
-609.2311908739832
 30
0.0
  0
VERTEX
  5
20B5D
  8
01
  6
CONTINUOUS
 10
563.0151334329818
 20
-609.2414998647288
 30
0.0
  0
VERTEX
  5
20B5E
  8
01
  6
CONTINUOUS
 10
563.066943902032
 20
-609.252346736709
 30
0.0
  0
VERTEX
  5
20B5F
  8
01
  6
CONTINUOUS
 10
563.1185374617298
 20
-609.2637149230494
 30
0.0
  0
VERTEX
  5
20B60
  8
01
  6
CONTINUOUS
 10
563.1699147583003
 20
-609.2756029301408
 30
0.0
  0
VERTEX
  5
20B61
  8
01
  6
CONTINUOUS
 10
563.2210764379687
 20
-609.2880092643735
 30
0.0
  0
VERTEX
  5
20B62
  8
01
  6
CONTINUOUS
 10
563.2720231469599
 20
-609.3009324321381
 30
0.0
  0
VERTEX
  5
20B63
  8
01
  6
CONTINUOUS
 10
563.3227555314991
 20
-609.3143709398249
 30
0.0
  0
VERTEX
  5
20B64
  8
01
  6
CONTINUOUS
 10
563.3732742378114
 20
-609.3283232938246
 30
0.0
  0
VERTEX
  5
20B65
  8
01
  6
CONTINUOUS
 10
563.4235799121219
 20
-609.3427880005275
 30
0.0
  0
VERTEX
  5
20B66
  8
01
  6
CONTINUOUS
 10
563.4736732006558
 20
-609.3577635663241
 30
0.0
  0
VERTEX
  5
20B67
  8
01
  6
CONTINUOUS
 10
563.5235547496379
 20
-609.373248497605
 30
0.0
  0
VERTEX
  5
20B68
  8
01
  6
CONTINUOUS
 10
563.5732252052935
 20
-609.3892413007604
 30
0.0
  0
VERTEX
  5
20B69
  8
01
  6
CONTINUOUS
 10
563.6226852138477
 20
-609.4057404821812
 30
0.0
  0
VERTEX
  5
20B6A
  8
01
  6
CONTINUOUS
 10
563.6719354215255
 20
-609.4227445482575
 30
0.0
  0
VERTEX
  5
20B6B
  8
01
  6
CONTINUOUS
 10
563.7209764745521
 20
-609.4402520053799
 30
0.0
  0
VERTEX
  5
20B6C
  8
01
  6
CONTINUOUS
 10
563.7698090191526
 20
-609.4582613599388
 30
0.0
  0
VERTEX
  5
20B6D
  8
01
  6
CONTINUOUS
 10
563.818433701552
 20
-609.4767711183249
 30
0.0
  0
VERTEX
  5
20B6E
  8
01
  6
CONTINUOUS
 10
563.8668511679753
 20
-609.4957797869283
 30
0.0
  0
VERTEX
  5
20B6F
  8
01
  6
CONTINUOUS
 10
563.9150620646478
 20
-609.5152858721399
 30
0.0
  0
VERTEX
  5
20B70
  8
01
  6
CONTINUOUS
 10
563.9630670377945
 20
-609.53528788035
 30
0.0
  0
VERTEX
  5
20B71
  8
01
  6
CONTINUOUS
 10
564.0108657616274
 20
-609.5557866761436
 30
0.0
  0
VERTEX
  5
20B72
  8
01
  6
CONTINUOUS
 10
564.0584572539761
 20
-609.5767847192204
 30
0.0
  0
VERTEX
  5
20B73
  8
01
  6
CONTINUOUS
 10
564.1058411764922
 20
-609.5982829086427
 30
0.0
  0
VERTEX
  5
20B74
  8
01
  6
CONTINUOUS
 10
564.1530171908266
 20
-609.6202821434724
 30
0.0
  0
VERTEX
  5
20B75
  8
01
  6
CONTINUOUS
 10
564.199984958631
 20
-609.6427833227718
 30
0.0
  0
VERTEX
  5
20B76
  8
01
  6
CONTINUOUS
 10
564.2467441415567
 20
-609.665787345603
 30
0.0
  0
VERTEX
  5
20B77
  8
01
  6
CONTINUOUS
 10
564.293294401255
 20
-609.6892951110283
 30
0.0
  0
VERTEX
  5
20B78
  8
01
  6
CONTINUOUS
 10
564.3396353993776
 20
-609.7133075181096
 30
0.0
  0
VERTEX
  5
20B79
  8
01
  6
CONTINUOUS
 10
564.3857667975752
 20
-609.7378254659092
 30
0.0
  0
VERTEX
  5
20B7A
  8
01
  6
CONTINUOUS
 10
564.4316884257229
 20
-609.7628511289396
 30
0.0
  0
VERTEX
  5
20B7B
  8
01
  6
CONTINUOUS
 10
564.47739227456
 20
-609.78838681559
 30
0.0
  0
VERTEX
  5
20B7C
  8
01
  6
CONTINUOUS
 10
564.5228559911025
 20
-609.8144187450803
 30
0.0
  0
VERTEX
  5
20B7D
  8
01
  6
CONTINUOUS
 10
564.5680560896708
 20
-609.8409311674715
 30
0.0
  0
VERTEX
  5
20B7E
  8
01
  6
CONTINUOUS
 10
564.6129690845859
 20
-609.8679083328245
 30
0.0
  0
VERTEX
  5
20B7F
  8
01
  6
CONTINUOUS
 10
564.6575714901683
 20
-609.8953344912004
 30
0.0
  0
VERTEX
  5
20B80
  8
01
  6
CONTINUOUS
 10
564.7018398207387
 20
-609.9231938926603
 30
0.0
  0
VERTEX
  5
20B81
  8
01
  6
CONTINUOUS
 10
564.7457505906178
 20
-609.9514707872651
 30
0.0
  0
VERTEX
  5
20B82
  8
01
  6
CONTINUOUS
 10
564.7892803141261
 20
-609.9801494250758
 30
0.0
  0
VERTEX
  5
20B83
  8
01
  6
CONTINUOUS
 10
564.8324055055848
 20
-610.0092140561537
 30
0.0
  0
VERTEX
  5
20B84
  8
01
  6
CONTINUOUS
 10
564.8751375026176
 20
-610.0386647088346
 30
0.0
  0
VERTEX
  5
20B85
  8
01
  6
CONTINUOUS
 10
564.917503694799
 20
-610.068511548635
 30
0.0
  0
VERTEX
  5
20B86
  8
01
  6
CONTINUOUS
 10
564.959504674375
 20
-610.0987540313855
 30
0.0
  0
VERTEX
  5
20B87
  8
01
  6
CONTINUOUS
 10
565.0011410335908
 20
-610.129391612917
 30
0.0
  0
VERTEX
  5
20B88
  8
01
  6
CONTINUOUS
 10
565.0424133646925
 20
-610.1604237490606
 30
0.0
  0
VERTEX
  5
20B89
  8
01
  6
CONTINUOUS
 10
565.0833222599256
 20
-610.191849895647
 30
0.0
  0
VERTEX
  5
20B8A
  8
01
  6
CONTINUOUS
 10
565.1238683115357
 20
-610.223669508507
 30
0.0
  0
VERTEX
  5
20B8B
  8
01
  6
CONTINUOUS
 10
565.1640521117687
 20
-610.2558820434718
 30
0.0
  0
VERTEX
  5
20B8C
  8
01
  6
CONTINUOUS
 10
565.2038742528699
 20
-610.2884869563723
 30
0.0
  0
VERTEX
  5
20B8D
  8
01
  6
CONTINUOUS
 10
565.2433353270856
 20
-610.321483703039
 30
0.0
  0
VERTEX
  5
20B8E
  8
01
  6
CONTINUOUS
 10
565.2824359266608
 20
-610.3548717393031
 30
0.0
  0
VERTEX
  5
20B8F
  8
01
  6
CONTINUOUS
 10
565.3211766438416
 20
-610.3886505209956
 30
0.0
  0
VERTEX
  5
20B90
  8
01
  6
CONTINUOUS
 10
565.3595580708736
 20
-610.422819503947
 30
0.0
  0
VERTEX
  5
20B91
  8
01
  6
CONTINUOUS
 10
565.3975808000024
 20
-610.4573781439886
 30
0.0
  0
VERTEX
  5
20B92
  8
01
  6
CONTINUOUS
 10
565.4352454234737
 20
-610.4923258969511
 30
0.0
  0
VERTEX
  5
20B93
  8
01
  6
CONTINUOUS
 10
565.4725525335334
 20
-610.5276622186653
 30
0.0
  0
VERTEX
  5
20B94
  8
01
  6
CONTINUOUS
 10
565.5095027224269
 20
-610.5633865649623
 30
0.0
  0
VERTEX
  5
20B95
  8
01
  6
CONTINUOUS
 10
565.5460965823999
 20
-610.599498391673
 30
0.0
  0
VERTEX
  5
20B96
  8
01
  6
CONTINUOUS
 10
565.5823347056983
 20
-610.6359971546281
 30
0.0
  0
VERTEX
  5
20B97
  8
01
  6
CONTINUOUS
 10
565.6182212131787
 20
-610.6728979090698
 30
0.0
  0
VERTEX
  5
20B98
  8
01
  6
CONTINUOUS
 10
565.6537543749064
 20
-610.7102086470957
 30
0.0
  0
VERTEX
  5
20B99
  8
01
  6
CONTINUOUS
 10
565.6889260069394
 20
-610.7479182298199
 30
0.0
  0
VERTEX
  5
20B9A
  8
01
  6
CONTINUOUS
 10
565.7237279253355
 20
-610.7860155183564
 30
0.0
  0
VERTEX
  5
20B9B
  8
01
  6
CONTINUOUS
 10
565.7581519461531
 20
-610.8244893738191
 30
0.0
  0
VERTEX
  5
20B9C
  8
01
  6
CONTINUOUS
 10
565.79218988545
 20
-610.8633286573223
 30
0.0
  0
VERTEX
  5
20B9D
  8
01
  6
CONTINUOUS
 10
565.8258335592842
 20
-610.9025222299798
 30
0.0
  0
VERTEX
  5
20B9E
  8
01
  6
CONTINUOUS
 10
565.8590747837137
 20
-610.9420589529058
 30
0.0
  0
VERTEX
  5
20B9F
  8
01
  6
CONTINUOUS
 10
565.8919053747967
 20
-610.9819276872142
 30
0.0
  0
VERTEX
  5
20BA0
  8
01
  6
CONTINUOUS
 10
565.9243171485912
 20
-611.0221172940194
 30
0.0
  0
VERTEX
  5
20BA1
  8
01
  6
CONTINUOUS
 10
565.9563019211549
 20
-611.0626166344349
 30
0.0
  0
VERTEX
  5
20BA2
  8
01
  6
CONTINUOUS
 10
565.9878515085463
 20
-611.1034145695751
 30
0.0
  0
VERTEX
  5
20BA3
  8
01
  6
CONTINUOUS
 10
566.0189577268233
 20
-611.144499960554
 30
0.0
  0
VERTEX
  5
20BA4
  8
01
  6
CONTINUOUS
 10
566.0496123920436
 20
-611.1858616684855
 30
0.0
  0
VERTEX
  5
20BA5
  8
01
  6
CONTINUOUS
 10
566.0798073202654
 20
-611.2274885544837
 30
0.0
  0
VERTEX
  5
20BA6
  8
01
  6
CONTINUOUS
 10
566.109534327547
 20
-611.2693694796628
 30
0.0
  0
VERTEX
  5
20BA7
  8
01
  6
CONTINUOUS
 10
566.138785229946
 20
-611.3114933051367
 30
0.0
  0
VERTEX
  5
20BA8
  8
01
  6
CONTINUOUS
 10
566.1675518435208
 20
-611.3538488920193
 30
0.0
  0
VERTEX
  5
20BA9
  8
01
  6
CONTINUOUS
 10
566.1958259843291
 20
-611.3964251014249
 30
0.0
  0
VERTEX
  5
20BAA
  8
01
  6
CONTINUOUS
 10
566.2236227693762
 20
-611.4392306318034
 30
0.0
  0
VERTEX
  5
20BAB
  8
01
  6
CONTINUOUS
 10
566.2509626982267
 20
-611.482281697616
 30
0.0
  0
VERTEX
  5
20BAC
  8
01
  6
CONTINUOUS
 10
566.2778456607776
 20
-611.5255784339942
 30
0.0
  0
VERTEX
  5
20BAD
  8
01
  6
CONTINUOUS
 10
566.304271546926
 20
-611.5691209760688
 30
0.0
  0
VERTEX
  5
20BAE
  8
01
  6
CONTINUOUS
 10
566.330240246569
 20
-611.6129094589713
 30
0.0
  0
VERTEX
  5
20BAF
  8
01
  6
CONTINUOUS
 10
566.3557516496036
 20
-611.6569440178331
 30
0.0
  0
VERTEX
  5
20BB0
  8
01
  6
CONTINUOUS
 10
566.3808056459268
 20
-611.7012247877851
 30
0.0
  0
VERTEX
  5
20BB1
  8
01
  6
CONTINUOUS
 10
566.4054021254358
 20
-611.7457519039588
 30
0.0
  0
VERTEX
  5
20BB2
  8
01
  6
CONTINUOUS
 10
566.4295409780276
 20
-611.7905255014853
 30
0.0
  0
VERTEX
  5
20BB3
  8
01
  6
CONTINUOUS
 10
566.4532220935994
 20
-611.8355457154956
 30
0.0
  0
VERTEX
  5
20BB4
  8
01
  6
CONTINUOUS
 10
566.476445362048
 20
-611.8808126811213
 30
0.0
  0
VERTEX
  5
20BB5
  8
01
  6
CONTINUOUS
 10
566.4992106732707
 20
-611.9263265334935
 30
0.0
  0
VERTEX
  5
20BB6
  8
01
  6
CONTINUOUS
 10
566.5215179171645
 20
-611.9720874077434
 30
0.0
  0
VERTEX
  5
20BB7
  8
01
  6
CONTINUOUS
 10
566.5433669836265
 20
-612.0180954390022
 30
0.0
  0
VERTEX
  5
20BB8
  8
01
  6
CONTINUOUS
 10
566.5647577625535
 20
-612.0643507624012
 30
0.0
  0
VERTEX
  5
20BB9
  8
01
  6
CONTINUOUS
 10
566.585690143843
 20
-612.1108535130716
 30
0.0
  0
VERTEX
  5
20BBA
  8
01
  6
CONTINUOUS
 10
566.6061640173918
 20
-612.1576038261445
 30
0.0
  0
VERTEX
  5
20BBB
  8
01
  6
CONTINUOUS
 10
566.626179273097
 20
-612.2046018367514
 30
0.0
  0
VERTEX
  5
20BBC
  8
01
  6
CONTINUOUS
 10
566.6457358008557
 20
-612.2518476800233
 30
0.0
  0
VERTEX
  5
20BBD
  8
01
  6
CONTINUOUS
 10
566.6648193983054
 20
-612.2993210573511
 30
0.0
  0
VERTEX
  5
20BBE
  8
01
  6
CONTINUOUS
 10
566.6834146781308
 20
-612.346995609223
 30
0.0
  0
VERTEX
  5
20BBF
  8
01
  6
CONTINUOUS
 10
566.7015197527994
 20
-612.3948623794164
 30
0.0
  0
VERTEX
  5
20BC0
  8
01
  6
CONTINUOUS
 10
566.719132734779
 20
-612.4429124117087
 30
0.0
  0
VERTEX
  5
20BC1
  8
01
  6
CONTINUOUS
 10
566.7362517365372
 20
-612.4911367498773
 30
0.0
  0
VERTEX
  5
20BC2
  8
01
  6
CONTINUOUS
 10
566.7528748705419
 20
-612.5395264376997
 30
0.0
  0
VERTEX
  5
20BC3
  8
01
  6
CONTINUOUS
 10
566.7690002492604
 20
-612.5880725189531
 30
0.0
  0
VERTEX
  5
20BC4
  8
01
  6
CONTINUOUS
 10
566.7846259851607
 20
-612.6367660374152
 30
0.0
  0
VERTEX
  5
20BC5
  8
01
  6
CONTINUOUS
 10
566.7997501907104
 20
-612.6855980368632
 30
0.0
  0
VERTEX
  5
20BC6
  8
01
  6
CONTINUOUS
 10
566.8143709783772
 20
-612.7345595610745
 30
0.0
  0
VERTEX
  5
20BC7
  8
01
  6
CONTINUOUS
 10
566.8284864606287
 20
-612.7836416538267
 30
0.0
  0
VERTEX
  5
20BC8
  8
01
  6
CONTINUOUS
 10
566.8420947499327
 20
-612.8328353588971
 30
0.0
  0
VERTEX
  5
20BC9
  8
01
  6
CONTINUOUS
 10
566.8551939587568
 20
-612.882131720063
 30
0.0
  0
VERTEX
  5
20BCA
  8
01
  6
CONTINUOUS
 10
566.8677821995685
 20
-612.9315217811019
 30
0.0
  0
VERTEX
  5
20BCB
  8
01
  6
CONTINUOUS
 10
566.879857584836
 20
-612.980996585791
 30
0.0
  0
VERTEX
  5
20BCC
  8
01
  6
CONTINUOUS
 10
566.8914182270265
 20
-613.030547177908
 30
0.0
  0
VERTEX
  5
20BCD
  8
01
  6
CONTINUOUS
 10
566.9024622386079
 20
-613.0801646012303
 30
0.0
  0
VERTEX
  5
20BCE
  8
01
  6
CONTINUOUS
 10
566.9129877320478
 20
-613.1298398995352
 30
0.0
  0
VERTEX
  5
20BCF
  8
01
  6
CONTINUOUS
 10
566.9229928198139
 20
-613.1795641166001
 30
0.0
  0
VERTEX
  5
20BD0
  8
01
  6
CONTINUOUS
 10
566.9324860873693
 20
-613.2293533888015
 30
0.0
  0
VERTEX
  5
20BD1
  8
01
  6
CONTINUOUS
 10
566.9414765873198
 20
-613.2792299713029
 30
0.0
  0
VERTEX
  5
20BD2
  8
01
  6
CONTINUOUS
 10
566.949963132846
 20
-613.3291940860619
 30
0.0
  0
VERTEX
  5
20BD3
  8
01
  6
CONTINUOUS
 10
566.9579445371295
 20
-613.3792459550356
 30
0.0
  0
VERTEX
  5
20BD4
  8
01
  6
CONTINUOUS
 10
566.965419613351
 20
-613.4293858001819
 30
0.0
  0
VERTEX
  5
20BD5
  8
01
  6
CONTINUOUS
 10
566.9723871746917
 20
-613.4796138434577
 30
0.0
  0
VERTEX
  5
20BD6
  8
01
  6
CONTINUOUS
 10
566.9788460343326
 20
-613.5299303068211
 30
0.0
  0
VERTEX
  5
20BD7
  8
01
  6
CONTINUOUS
 10
566.984795005455
 20
-613.5803354122294
 30
0.0
  0
VERTEX
  5
20BD8
  8
01
  6
CONTINUOUS
 10
566.9902329012399
 20
-613.63082938164
 30
0.0
  0
VERTEX
  5
20BD9
  8
01
  6
CONTINUOUS
 10
566.9951585348683
 20
-613.6814124370104
 30
0.0
  0
VERTEX
  5
20BDA
  8
01
  6
CONTINUOUS
 10
566.9995707195214
 20
-613.7320848002981
 30
0.0
  0
VERTEX
  5
20BDB
  8
01
  6
CONTINUOUS
 10
567.0034682683802
 20
-613.7828466934607
 30
0.0
  0
VERTEX
  5
20BDC
  8
01
  6
CONTINUOUS
 10
567.006849994626
 20
-613.8336983384554
 30
0.0
  0
VERTEX
  5
20BDD
  8
01
  6
CONTINUOUS
 10
567.0097147114395
 20
-613.88463995724
 30
0.0
  0
VERTEX
  5
20BDE
  8
01
  6
CONTINUOUS
 10
567.0120612320022
 20
-613.9356717717718
 30
0.0
  0
VERTEX
  5
20BDF
  8
01
  6
CONTINUOUS
 10
567.0138883694949
 20
-613.9867940040083
 30
0.0
  0
VERTEX
  5
20BE0
  8
01
  6
CONTINUOUS
 10
567.0151949370988
 20
-614.0380068759071
 30
0.0
  0
VERTEX
  5
20BE1
  8
01
  6
CONTINUOUS
 10
567.0159797479951
 20
-614.0893106094255
 30
0.0
  0
VERTEX
  5
20BE2
  8
01
  6
CONTINUOUS
 10
567.0162416153647
 20
-614.1407054265212
 30
0.0
  0
SEQEND
  5
21244
  8
01
  6
CONTINUOUS
  0
LINE
  5
1FF3B
  8
1DIM
 10
562.0162416153647
 20
-608.3836198423685
 30
0.0
 11
562.0162416153647
 21
-609.1407054265212
 31
0.0
  0
ARC
  5
1FF3C
  8
1DIM
 10
567.7770395993144
 20
-612.9897367587691
 30
0.0
 40
1.379689257234564
 50
236.5350299101779
 51
279.9840391620783
  0
LINE
  5
1FF3D
  8
01
  6
CONTINUOUS
 10
562.0162416153647
 20
-609.1407054265212
 30
0.0
 11
500.0162416153649
 21
-609.1407054265212
 31
0.0
  0
LINE
  5
1FF3E
  8
01
  6
CONTINUOUS
 10
567.0162416153647
 20
-614.140705426521
 30
0.0
 11
567.0162416153647
 21
-640.1407054265212
 31
0.0
  0
ARC
  5
1FF3F
  8
1DIM
 10
567.7668649155147
 20
-635.1463751155602
 30
0.0
 40
5.050422813360462
 50
261.4527000032506
 51
272.8302669706676
  0
POLYLINE
  5
1FF40
  8
01
  6
CONTINUOUS
 66
     1
 10
0.0
 20
0.0
 30
0.0
  0
VERTEX
  5
20BE3
  8
01
  6
CONTINUOUS
 10
567.0162416153647
 20
-640.1407054265212
 30
0.0
  0
VERTEX
  5
20BE4
  8
01
  6
CONTINUOUS
 10
567.0159773942661
 20
-640.1802529547983
 30
0.0
  0
VERTEX
  5
20BE5
  8
01
  6
CONTINUOUS
 10
567.0151860921959
 20
-640.2197784936568
 30
0.0
  0
VERTEX
  5
20BE6
  8
01
  6
CONTINUOUS
 10
567.0138697509924
 20
-640.259275277146
 30
0.0
  0
VERTEX
  5
20BE7
  8
01
  6
CONTINUOUS
 10
567.0120304124938
 20
-640.2987365393155
 30
0.0
  0
VERTEX
  5
20BE8
  8
01
  6
CONTINUOUS
 10
567.0096701185383
 20
-640.3381555142154
 30
0.0
  0
VERTEX
  5
20BE9
  8
01
  6
CONTINUOUS
 10
567.0067909109642
 20
-640.3775254358948
 30
0.0
  0
VERTEX
  5
20BEA
  8
01
  6
CONTINUOUS
 10
567.0033948316097
 20
-640.4168395384036
 30
0.0
  0
VERTEX
  5
20BEB
  8
01
  6
CONTINUOUS
 10
566.9994839223133
 20
-640.4560910557915
 30
0.0
  0
VERTEX
  5
20BEC
  8
01
  6
CONTINUOUS
 10
566.995060224913
 20
-640.4952732221079
 30
0.0
  0
VERTEX
  5
20BED
  8
01
  6
CONTINUOUS
 10
566.9901257812471
 20
-640.5343792714027
 30
0.0
  0
VERTEX
  5
20BEE
  8
01
  6
CONTINUOUS
 10
566.9846826331539
 20
-640.5734024377255
 30
0.0
  0
VERTEX
  5
20BEF
  8
01
  6
CONTINUOUS
 10
566.9787328224718
 20
-640.6123359551257
 30
0.0
  0
VERTEX
  5
20BF0
  8
01
  6
CONTINUOUS
 10
566.9722783910388
 20
-640.6511730576531
 30
0.0
  0
VERTEX
  5
20BF1
  8
01
  6
CONTINUOUS
 10
566.9653213806931
 20
-640.6899069793573
 30
0.0
  0
VERTEX
  5
20BF2
  8
01
  6
CONTINUOUS
 10
566.9578638332733
 20
-640.7285309542881
 30
0.0
  0
VERTEX
  5
20BF3
  8
01
  6
CONTINUOUS
 10
566.9499077906177
 20
-640.7670382164947
 30
0.0
  0
VERTEX
  5
20BF4
  8
01
  6
CONTINUOUS
 10
566.941455294564
 20
-640.8054220000272
 30
0.0
  0
VERTEX
  5
20BF5
  8
01
  6
CONTINUOUS
 10
566.932508386951
 20
-640.843675538935
 30
0.0
  0
VERTEX
  5
20BF6
  8
01
  6
CONTINUOUS
 10
566.9230691096167
 20
-640.8817920672678
 30
0.0
  0
VERTEX
  5
20BF7
  8
01
  6
CONTINUOUS
 10
566.9131395043993
 20
-640.9197648190753
 30
0.0
  0
VERTEX
  5
20BF8
  8
01
  6
CONTINUOUS
 10
566.9027216131373
 20
-640.9575870284071
 30
0.0
  0
VERTEX
  5
20BF9
  8
01
  6
CONTINUOUS
 10
566.8918174776688
 20
-640.9952519293128
 30
0.0
  0
VERTEX
  5
20BFA
  8
01
  6
CONTINUOUS
 10
566.880429139832
 20
-641.0327527558419
 30
0.0
  0
VERTEX
  5
20BFB
  8
01
  6
CONTINUOUS
 10
566.8685586414654
 20
-641.0700827420442
 30
0.0
  0
VERTEX
  5
20BFC
  8
01
  6
CONTINUOUS
 10
566.856208024407
 20
-641.1072351219693
 30
0.0
  0
VERTEX
  5
20BFD
  8
01
  6
CONTINUOUS
 10
566.8433793304953
 20
-641.144203129667
 30
0.0
  0
VERTEX
  5
20BFE
  8
01
  6
CONTINUOUS
 10
566.8300746015683
 20
-641.1809799991865
 30
0.0
  0
VERTEX
  5
20BFF
  8
01
  6
CONTINUOUS
 10
566.8162958794645
 20
-641.217558964578
 30
0.0
  0
VERTEX
  5
20C00
  8
01
  6
CONTINUOUS
 10
566.802045206022
 20
-641.2539332598907
 30
0.0
  0
VERTEX
  5
20C01
  8
01
  6
CONTINUOUS
 10
566.7873246230789
 20
-641.2900961191743
 30
0.0
  0
VERTEX
  5
20C02
  8
01
  6
CONTINUOUS
 10
566.772125574077
 20
-641.3260717690509
 30
0.0
  0
VERTEX
  5
20C03
  8
01
  6
CONTINUOUS
 10
566.7564403758553
 20
-641.3618833207323
 30
0.0
  0
VERTEX
  5
20C04
  8
01
  6
CONTINUOUS
 10
566.7402723803489
 20
-641.3975223351516
 30
0.0
  0
VERTEX
  5
20C05
  8
01
  6
CONTINUOUS
 10
566.7236249394925
 20
-641.4329803732429
 30
0.0
  0
VERTEX
  5
20C06
  8
01
  6
CONTINUOUS
 10
566.7065014052214
 20
-641.4682489959396
 30
0.0
  0
VERTEX
  5
20C07
  8
01
  6
CONTINUOUS
 10
566.6889051294703
 20
-641.5033197641753
 30
0.0
  0
VERTEX
  5
20C08
  8
01
  6
CONTINUOUS
 10
566.6708394641744
 20
-641.5381842388839
 30
0.0
  0
VERTEX
  5
20C09
  8
01
  6
CONTINUOUS
 10
566.6523077612682
 20
-641.572833980999
 30
0.0
  0
VERTEX
  5
20C0A
  8
01
  6
CONTINUOUS
 10
566.6333133726871
 20
-641.6072605514541
 30
0.0
  0
VERTEX
  5
20C0B
  8
01
  6
CONTINUOUS
 10
566.6138596503661
 20
-641.6414555111832
 30
0.0
  0
VERTEX
  5
20C0C
  8
01
  6
CONTINUOUS
 10
566.5939499462398
 20
-641.6754104211194
 30
0.0
  0
VERTEX
  5
20C0D
  8
01
  6
CONTINUOUS
 10
566.5735876122433
 20
-641.709116842197
 30
0.0
  0
VERTEX
  5
20C0E
  8
01
  6
CONTINUOUS
 10
566.5527760003116
 20
-641.7425663353491
 30
0.0
  0
VERTEX
  5
20C0F
  8
01
  6
CONTINUOUS
 10
566.5315184623798
 20
-641.7757504615098
 30
0.0
  0
VERTEX
  5
20C10
  8
01
  6
CONTINUOUS
 10
566.5098183503826
 20
-641.8086607816126
 30
0.0
  0
VERTEX
  5
20C11
  8
01
  6
CONTINUOUS
 10
566.4877044676954
 20
-641.841259558575
 30
0.0
  0
VERTEX
  5
20C12
  8
01
  6
CONTINUOUS
 10
566.4652037748737
 20
-641.8735150197856
 30
0.0
  0
VERTEX
  5
20C13
  8
01
  6
CONTINUOUS
 10
566.442316859622
 20
-641.9054276728849
 30
0.0
  0
VERTEX
  5
20C14
  8
01
  6
CONTINUOUS
 10
566.4190443096455
 20
-641.9369980255127
 30
0.0
  0
VERTEX
  5
20C15
  8
01
  6
CONTINUOUS
 10
566.3953867126488
 20
-641.9682265853094
 30
0.0
  0
VERTEX
  5
20C16
  8
01
  6
CONTINUOUS
 10
566.371344656337
 20
-641.9991138599152
 30
0.0
  0
VERTEX
  5
20C17
  8
01
  6
CONTINUOUS
 10
566.3469187284148
 20
-642.0296603569702
 30
0.0
  0
VERTEX
  5
20C18
  8
01
  6
CONTINUOUS
 10
566.322109516587
 20
-642.0598665841147
 30
0.0
  0
VERTEX
  5
20C19
  8
01
  6
CONTINUOUS
 10
566.2969176085587
 20
-642.0897330489889
 30
0.0
  0
VERTEX
  5
20C1A
  8
01
  6
CONTINUOUS
 10
566.2713435920346
 20
-642.1192602592329
 30
0.0
  0
VERTEX
  5
20C1B
  8
01
  6
CONTINUOUS
 10
566.2453880547195
 20
-642.1484487224869
 30
0.0
  0
VERTEX
  5
20C1C
  8
01
  6
CONTINUOUS
 10
566.2190515843182
 20
-642.1772989463913
 30
0.0
  0
VERTEX
  5
20C1D
  8
01
  6
CONTINUOUS
 10
566.1923347685359
 20
-642.2058114385859
 30
0.0
  0
VERTEX
  5
20C1E
  8
01
  6
CONTINUOUS
 10
566.1652381950772
 20
-642.2339867067112
 30
0.0
  0
VERTEX
  5
20C1F
  8
01
  6
CONTINUOUS
 10
566.137762451647
 20
-642.2618252584074
 30
0.0
  0
VERTEX
  5
20C20
  8
01
  6
CONTINUOUS
 10
566.1098856582786
 20
-642.2893384028732
 30
0.0
  0
VERTEX
  5
20C21
  8
01
  6
CONTINUOUS
 10
566.0815942719529
 20
-642.3165297710833
 30
0.0
  0
VERTEX
  5
20C22
  8
01
  6
CONTINUOUS
 10
566.0529013857963
 20
-642.3433883533413
 30
0.0
  0
VERTEX
  5
20C23
  8
01
  6
CONTINUOUS
 10
566.0238200929352
 20
-642.3699031399509
 30
0.0
  0
VERTEX
  5
20C24
  8
01
  6
CONTINUOUS
 10
565.9943634864958
 20
-642.3960631212158
 30
0.0
  0
VERTEX
  5
20C25
  8
01
  6
CONTINUOUS
 10
565.9645446596044
 20
-642.4218572874395
 30
0.0
  0
VERTEX
  5
20C26
  8
01
  6
CONTINUOUS
 10
565.9343767053873
 20
-642.4472746289258
 30
0.0
  0
VERTEX
  5
20C27
  8
01
  6
CONTINUOUS
 10
565.903872716971
 20
-642.4723041359783
 30
0.0
  0
VERTEX
  5
20C28
  8
01
  6
CONTINUOUS
 10
565.8730457874816
 20
-642.4969347989007
 30
0.0
  0
VERTEX
  5
20C29
  8
01
  6
CONTINUOUS
 10
565.8419090100456
 20
-642.5211556079967
 30
0.0
  0
VERTEX
  5
20C2A
  8
01
  6
CONTINUOUS
 10
565.8104754777892
 20
-642.5449555535698
 30
0.0
  0
VERTEX
  5
20C2B
  8
01
  6
CONTINUOUS
 10
565.7787582838387
 20
-642.5683236259239
 30
0.0
  0
VERTEX
  5
20C2C
  8
01
  6
CONTINUOUS
 10
565.7467705213204
 20
-642.5912488153624
 30
0.0
  0
VERTEX
  5
20C2D
  8
01
  6
CONTINUOUS
 10
565.7145252833609
 20
-642.6137201121893
 30
0.0
  0
VERTEX
  5
20C2E
  8
01
  6
CONTINUOUS
 10
565.6820356630863
 20
-642.6357265067079
 30
0.0
  0
VERTEX
  5
20C2F
  8
01
  6
CONTINUOUS
 10
565.649304625326
 20
-642.6572741213913
 30
0.0
  0
VERTEX
  5
20C30
  8
01
  6
CONTINUOUS
 10
565.6163263062007
 20
-642.6783762315399
 30
0.0
  0
VERTEX
  5
20C31
  8
01
  6
CONTINUOUS
 10
565.5831005557727
 20
-642.6990325566986
 30
0.0
  0
VERTEX
  5
20C32
  8
01
  6
CONTINUOUS
 10
565.549627224105
 20
-642.7192428164126
 30
0.0
  0
VERTEX
  5
20C33
  8
01
  6
CONTINUOUS
 10
565.5159061612603
 20
-642.7390067302267
 30
0.0
  0
VERTEX
  5
20C34
  8
01
  6
CONTINUOUS
 10
565.4819372173012
 20
-642.7583240176862
 30
0.0
  0
VERTEX
  5
20C35
  8
01
  6
CONTINUOUS
 10
565.4477202422903
 20
-642.7771943983356
 30
0.0
  0
VERTEX
  5
20C36
  8
01
  6
CONTINUOUS
 10
565.4132550862904
 20
-642.7956175917203
 30
0.0
  0
VERTEX
  5
20C37
  8
01
  6
CONTINUOUS
 10
565.3785415993641
 20
-642.8135933173852
 30
0.0
  0
VERTEX
  5
20C38
  8
01
  6
CONTINUOUS
 10
565.3435796315742
 20
-642.8311212948753
 30
0.0
  0
VERTEX
  5
20C39
  8
01
  6
CONTINUOUS
 10
565.3083690329835
 20
-642.8482012437356
 30
0.0
  0
VERTEX
  5
20C3A
  8
01
  6
CONTINUOUS
 10
565.2729096536543
 20
-642.864832883511
 30
0.0
  0
VERTEX
  5
20C3B
  8
01
  6
CONTINUOUS
 10
565.2372013436496
 20
-642.8810159337465
 30
0.0
  0
VERTEX
  5
20C3C
  8
01
  6
CONTINUOUS
 10
565.2012439530321
 20
-642.8967501139873
 30
0.0
  0
VERTEX
  5
20C3D
  8
01
  6
CONTINUOUS
 10
565.1650373318644
 20
-642.9120351437783
 30
0.0
  0
VERTEX
  5
20C3E
  8
01
  6
CONTINUOUS
 10
565.1285898900063
 20
-642.9268601451361
 30
0.0
  0
VERTEX
  5
20C3F
  8
01
  6
CONTINUOUS
 10
565.0919192521956
 20
-642.9412120860749
 30
0.0
  0
VERTEX
  5
20C40
  8
01
  6
CONTINUOUS
 10
565.0550390908123
 20
-642.9550874551361
 30
0.0
  0
VERTEX
  5
20C41
  8
01
  6
CONTINUOUS
 10
565.0179630782361
 20
-642.968482740861
 30
0.0
  0
VERTEX
  5
20C42
  8
01
  6
CONTINUOUS
 10
564.9807048868466
 20
-642.9813944317912
 30
0.0
  0
VERTEX
  5
20C43
  8
01
  6
CONTINUOUS
 10
564.9432781890238
 20
-642.9938190164678
 30
0.0
  0
VERTEX
  5
20C44
  8
01
  6
CONTINUOUS
 10
564.9056966571471
 20
-643.0057529834322
 30
0.0
  0
VERTEX
  5
20C45
  8
01
  6
CONTINUOUS
 10
564.8679739635967
 20
-643.0171928212259
 30
0.0
  0
VERTEX
  5
20C46
  8
01
  6
CONTINUOUS
 10
564.8301237807522
 20
-643.0281350183901
 30
0.0
  0
VERTEX
  5
20C47
  8
01
  6
CONTINUOUS
 10
564.7921597809931
 20
-643.0385760634663
 30
0.0
  0
VERTEX
  5
20C48
  8
01
  6
CONTINUOUS
 10
564.7540956366995
 20
-643.0485124449957
 30
0.0
  0
VERTEX
  5
20C49
  8
01
  6
CONTINUOUS
 10
564.715945020251
 20
-643.0579406515199
 30
0.0
  0
VERTEX
  5
20C4A
  8
01
  6
CONTINUOUS
 10
564.6777216040274
 20
-643.0668571715798
 30
0.0
  0
VERTEX
  5
20C4B
  8
01
  6
CONTINUOUS
 10
564.6394390604084
 20
-643.0752584937175
 30
0.0
  0
VERTEX
  5
20C4C
  8
01
  6
CONTINUOUS
 10
564.6011110617738
 20
-643.0831411064736
 30
0.0
  0
VERTEX
  5
20C4D
  8
01
  6
CONTINUOUS
 10
564.5627224474937
 20
-643.0905142037315
 30
0.0
  0
VERTEX
  5
20C4E
  8
01
  6
CONTINUOUS
 10
564.524248781184
 20
-643.097388375367
 30
0.0
  0
VERTEX
  5
20C4F
  8
01
  6
CONTINUOUS
 10
564.4856898215943
 20
-643.1037622039108
 30
0.0
  0
VERTEX
  5
20C50
  8
01
  6
CONTINUOUS
 10
564.4470453274736
 20
-643.1096342718942
 30
0.0
  0
VERTEX
  5
20C51
  8
01
  6
CONTINUOUS
 10
564.4083150575709
 20
-643.1150031618474
 30
0.0
  0
VERTEX
  5
20C52
  8
01
  6
CONTINUOUS
 10
564.3694987706357
 20
-643.1198674563018
 30
0.0
  0
VERTEX
  5
20C53
  8
01
  6
CONTINUOUS
 10
564.3305962254169
 20
-643.1242257377878
 30
0.0
  0
VERTEX
  5
20C54
  8
01
  6
CONTINUOUS
 10
564.291607180664
 20
-643.1280765888365
 30
0.0
  0
VERTEX
  5
20C55
  8
01
  6
CONTINUOUS
 10
564.2525313951259
 20
-643.1314185919787
 30
0.0
  0
VERTEX
  5
20C56
  8
01
  6
CONTINUOUS
 10
564.2133686275519
 20
-643.1342503297452
 30
0.0
  0
VERTEX
  5
20C57
  8
01
  6
CONTINUOUS
 10
564.1741186366912
 20
-643.1365703846667
 30
0.0
  0
VERTEX
  5
20C58
  8
01
  6
CONTINUOUS
 10
564.134781181293
 20
-643.1383773392744
 30
0.0
  0
VERTEX
  5
20C59
  8
01
  6
CONTINUOUS
 10
564.0953560201064
 20
-643.1396697760987
 30
0.0
  0
VERTEX
  5
20C5A
  8
01
  6
CONTINUOUS
 10
564.0558429118805
 20
-643.1404462776708
 30
0.0
  0
VERTEX
  5
20C5B
  8
01
  6
CONTINUOUS
 10
564.0162416153647
 20
-643.1407054265212
 30
0.0
  0
SEQEND
  5
21245
  8
01
  6
CONTINUOUS
  0
LINE
  5
1FF41
  8
1DIM
 10
564.0162416153647
 20
-643.1407054265212
 30
0.0
 11
564.0162416153647
 21
-644.1672455733626
 31
0.0
  0
POLYLINE
  5
1FF42
  8
01
  6
CONTINUOUS
 66
     1
 10
0.0
 20
0.0
 30
0.0
  0
VERTEX
  5
20C5C
  8
01
  6
CONTINUOUS
 10
572.0162416153647
 20
-649.1407054265212
 30
0.0
  0
VERTEX
  5
20C5D
  8
01
  6
CONTINUOUS
 10
572.0558144384117
 20
-649.1404466471016
 30
0.0
  0
VERTEX
  5
20C5E
  8
01
  6
CONTINUOUS
 10
572.0952992802844
 20
-649.1396712506252
 30
0.0
  0
VERTEX
  5
20C5F
  8
01
  6
CONTINUOUS
 10
572.1346963815623
 20
-649.1383806497653
 30
0.0
  0
VERTEX
  5
20C60
  8
01
  6
CONTINUOUS
 10
572.1740059828253
 20
-649.1365762571957
 30
0.0
  0
VERTEX
  5
20C61
  8
01
  6
CONTINUOUS
 10
572.213228324653
 20
-649.1342594855896
 30
0.0
  0
VERTEX
  5
20C62
  8
01
  6
CONTINUOUS
 10
572.2523636476252
 20
-649.1314317476207
 30
0.0
  0
VERTEX
  5
20C63
  8
01
  6
CONTINUOUS
 10
572.2914121923214
 20
-649.1280944559626
 30
0.0
  0
VERTEX
  5
20C64
  8
01
  6
CONTINUOUS
 10
572.3303741993215
 20
-649.1242490232886
 30
0.0
  0
VERTEX
  5
20C65
  8
01
  6
CONTINUOUS
 10
572.369249909205
 20
-649.1198968622723
 30
0.0
  0
VERTEX
  5
20C66
  8
01
  6
CONTINUOUS
 10
572.4080395625518
 20
-649.1150393855871
 30
0.0
  0
VERTEX
  5
20C67
  8
01
  6
CONTINUOUS
 10
572.4467433999416
 20
-649.1096780059066
 30
0.0
  0
VERTEX
  5
20C68
  8
01
  6
CONTINUOUS
 10
572.4853616619539
 20
-649.1038141359044
 30
0.0
  0
VERTEX
  5
20C69
  8
01
  6
CONTINUOUS
 10
572.5238945891684
 20
-649.0974491882539
 30
0.0
  0
VERTEX
  5
20C6A
  8
01
  6
CONTINUOUS
 10
572.562342422165
 20
-649.0905845756286
 30
0.0
  0
VERTEX
  5
20C6B
  8
01
  6
CONTINUOUS
 10
572.6007054015233
 20
-649.083221710702
 30
0.0
  0
VERTEX
  5
20C6C
  8
01
  6
CONTINUOUS
 10
572.6390078803139
 20
-649.0753500648595
 30
0.0
  0
VERTEX
  5
20C6D
  8
01
  6
CONTINUOUS
 10
572.6772649892625
 20
-649.0669604820401
 30
0.0
  0
VERTEX
  5
20C6E
  8
01
  6
CONTINUOUS
 10
572.7154631354314
 20
-649.0580564337472
 30
0.0
  0
VERTEX
  5
20C6F
  8
01
  6
CONTINUOUS
 10
572.7535887258827
 20
-649.0486413914841
 30
0.0
  0
VERTEX
  5
20C70
  8
01
  6
CONTINUOUS
 10
572.7916281676787
 20
-649.0387188267546
 30
0.0
  0
VERTEX
  5
20C71
  8
01
  6
CONTINUOUS
 10
572.8295678678817
 20
-649.0282922110621
 30
0.0
  0
VERTEX
  5
20C72
  8
01
  6
CONTINUOUS
 10
572.8673942335537
 20
-649.0173650159101
 30
0.0
  0
VERTEX
  5
20C73
  8
01
  6
CONTINUOUS
 10
572.9050936717573
 20
-649.0059407128019
 30
0.0
  0
VERTEX
  5
20C74
  8
01
  6
CONTINUOUS
 10
572.9426525895544
 20
-648.9940227732415
 30
0.0
  0
VERTEX
  5
20C75
  8
01
  6
CONTINUOUS
 10
572.9800573940075
 20
-648.9816146687319
 30
0.0
  0
VERTEX
  5
20C76
  8
01
  6
CONTINUOUS
 10
573.0172944921788
 20
-648.968719870777
 30
0.0
  0
VERTEX
  5
20C77
  8
01
  6
CONTINUOUS
 10
573.0543502911305
 20
-648.95534185088
 30
0.0
  0
VERTEX
  5
20C78
  8
01
  6
CONTINUOUS
 10
573.0912111979247
 20
-648.9414840805447
 30
0.0
  0
VERTEX
  5
20C79
  8
01
  6
CONTINUOUS
 10
573.1278636196238
 20
-648.9271500312743
 30
0.0
  0
VERTEX
  5
20C7A
  8
01
  6
CONTINUOUS
 10
573.1642939632901
 20
-648.9123431745726
 30
0.0
  0
VERTEX
  5
20C7B
  8
01
  6
CONTINUOUS
 10
573.2004843349172
 20
-648.8970765961083
 30
0.0
  0
VERTEX
  5
20C7C
  8
01
  6
CONTINUOUS
 10
573.236426003213
 20
-648.8813612491479
 30
0.0
  0
VERTEX
  5
20C7D
  8
01
  6
CONTINUOUS
 10
573.2721191193115
 20
-648.8651974065912
 30
0.0
  0
VERTEX
  5
20C7E
  8
01
  6
CONTINUOUS
 10
573.3075638343465
 20
-648.8485853413376
 30
0.0
  0
VERTEX
  5
20C7F
  8
01
  6
CONTINUOUS
 10
573.342760299452
 20
-648.8315253262872
 30
0.0
  0
VERTEX
  5
20C80
  8
01
  6
CONTINUOUS
 10
573.3777086657616
 20
-648.8140176343393
 30
0.0
  0
VERTEX
  5
20C81
  8
01
  6
CONTINUOUS
 10
573.4124090844091
 20
-648.7960625383937
 30
0.0
  0
VERTEX
  5
20C82
  8
01
  6
CONTINUOUS
 10
573.4468617065284
 20
-648.77766031135
 30
0.0
  0
VERTEX
  5
20C83
  8
01
  6
CONTINUOUS
 10
573.4810666832533
 20
-648.7588112261082
 30
0.0
  0
VERTEX
  5
20C84
  8
01
  6
CONTINUOUS
 10
573.5150241657176
 20
-648.7395155555676
 30
0.0
  0
VERTEX
  5
20C85
  8
01
  6
CONTINUOUS
 10
573.5487343050553
 20
-648.719773572628
 30
0.0
  0
VERTEX
  5
20C86
  8
01
  6
CONTINUOUS
 10
573.5821972524001
 20
-648.6995855501892
 30
0.0
  0
VERTEX
  5
20C87
  8
01
  6
CONTINUOUS
 10
573.6154131588858
 20
-648.6789517611508
 30
0.0
  0
VERTEX
  5
20C88
  8
01
  6
CONTINUOUS
 10
573.6483821756461
 20
-648.6578724784124
 30
0.0
  0
VERTEX
  5
20C89
  8
01
  6
CONTINUOUS
 10
573.681104453815
 20
-648.6363479748737
 30
0.0
  0
VERTEX
  5
20C8A
  8
01
  6
CONTINUOUS
 10
573.7135861950883
 20
-648.6143647468681
 30
0.0
  0
VERTEX
  5
20C8B
  8
01
  6
CONTINUOUS
 10
573.7458247556771
 20
-648.5919164264515
 30
0.0
  0
VERTEX
  5
20C8C
  8
01
  6
CONTINUOUS
 10
573.7778070184875
 20
-648.569013990108
 30
0.0
  0
VERTEX
  5
20C8D
  8
01
  6
CONTINUOUS
 10
573.8095198664263
 20
-648.5456684143219
 30
0.0
  0
VERTEX
  5
20C8E
  8
01
  6
CONTINUOUS
 10
573.8409501823998
 20
-648.5218906755771
 30
0.0
  0
VERTEX
  5
20C8F
  8
01
  6
CONTINUOUS
 10
573.8720848493147
 20
-648.4976917503577
 30
0.0
  0
VERTEX
  5
20C90
  8
01
  6
CONTINUOUS
 10
573.9029107500771
 20
-648.4730826151479
 30
0.0
  0
VERTEX
  5
20C91
  8
01
  6
CONTINUOUS
 10
573.933414767594
 20
-648.4480742464315
 30
0.0
  0
VERTEX
  5
20C92
  8
01
  6
CONTINUOUS
 10
573.9635837847712
 20
-648.4226776206929
 30
0.0
  0
VERTEX
  5
20C93
  8
01
  6
CONTINUOUS
 10
573.993404684516
 20
-648.3969037144159
 30
0.0
  0
VERTEX
  5
20C94
  8
01
  6
CONTINUOUS
 10
574.0228643497342
 20
-648.3707635040848
 30
0.0
  0
VERTEX
  5
20C95
  8
01
  6
CONTINUOUS
 10
574.0519496633325
 20
-648.3442679661836
 30
0.0
  0
VERTEX
  5
20C96
  8
01
  6
CONTINUOUS
 10
574.0806475082176
 20
-648.3174280771963
 30
0.0
  0
VERTEX
  5
20C97
  8
01
  6
CONTINUOUS
 10
574.1089447672956
 20
-648.290254813607
 30
0.0
  0
VERTEX
  5
20C98
  8
01
  6
CONTINUOUS
 10
574.1368283234733
 20
-648.2627591518999
 30
0.0
  0
VERTEX
  5
20C99
  8
01
  6
CONTINUOUS
 10
574.164311541668
 20
-648.2349376086621
 30
0.0
  0
VERTEX
  5
20C9A
  8
01
  6
CONTINUOUS
 10
574.1914161359097
 20
-648.2067790310189
 30
0.0
  0
VERTEX
  5
20C9B
  8
01
  6
CONTINUOUS
 10
574.2181415127727
 20
-648.1782828912619
 30
0.0
  0
VERTEX
  5
20C9C
  8
01
  6
CONTINUOUS
 10
574.2444870788322
 20
-648.1494486616828
 30
0.0
  0
VERTEX
  5
20C9D
  8
01
  6
CONTINUOUS
 10
574.2704522406632
 20
-648.1202758145726
 30
0.0
  0
VERTEX
  5
20C9E
  8
01
  6
CONTINUOUS
 10
574.2960364048403
 20
-648.0907638222229
 30
0.0
  0
VERTEX
  5
20C9F
  8
01
  6
CONTINUOUS
 10
574.3212389779383
 20
-648.0609121569256
 30
0.0
  0
VERTEX
  5
20CA0
  8
01
  6
CONTINUOUS
 10
574.3460593665321
 20
-648.0307202909717
 30
0.0
  0
VERTEX
  5
20CA1
  8
01
  6
CONTINUOUS
 10
574.3704969771967
 20
-648.0001876966527
 30
0.0
  0
VERTEX
  5
20CA2
  8
01
  6
CONTINUOUS
 10
574.3945512165067
 20
-647.9693138462604
 30
0.0
  0
VERTEX
  5
20CA3
  8
01
  6
CONTINUOUS
 10
574.4182214910371
 20
-647.9380982120861
 30
0.0
  0
VERTEX
  5
20CA4
  8
01
  6
CONTINUOUS
 10
574.4415072073626
 20
-647.9065402664212
 30
0.0
  0
VERTEX
  5
20CA5
  8
01
  6
CONTINUOUS
 10
574.4644077720582
 20
-647.8746394815572
 30
0.0
  0
VERTEX
  5
20CA6
  8
01
  6
CONTINUOUS
 10
574.4869225916987
 20
-647.8423953297855
 30
0.0
  0
VERTEX
  5
20CA7
  8
01
  6
CONTINUOUS
 10
574.5090510728587
 20
-647.809807283398
 30
0.0
  0
VERTEX
  5
20CA8
  8
01
  6
CONTINUOUS
 10
574.5307668162119
 20
-647.7769060026575
 30
0.0
  0
VERTEX
  5
20CA9
  8
01
  6
CONTINUOUS
 10
574.5520414786415
 20
-647.743728239036
 30
0.0
  0
VERTEX
  5
20CAA
  8
01
  6
CONTINUOUS
 10
574.5728715510371
 20
-647.7102826016371
 30
0.0
  0
VERTEX
  5
20CAB
  8
01
  6
CONTINUOUS
 10
574.5932535242885
 20
-647.676577699565
 30
0.0
  0
VERTEX
  5
20CAC
  8
01
  6
CONTINUOUS
 10
574.6131838892851
 20
-647.6426221419233
 30
0.0
  0
VERTEX
  5
20CAD
  8
01
  6
CONTINUOUS
 10
574.6326591369168
 20
-647.6084245378161
 30
0.0
  0
VERTEX
  5
20CAE
  8
01
  6
CONTINUOUS
 10
574.6516757580731
 20
-647.573993496347
 30
0.0
  0
VERTEX
  5
20CAF
  8
01
  6
CONTINUOUS
 10
574.6702302436438
 20
-647.5393376266202
 30
0.0
  0
VERTEX
  5
20CB0
  8
01
  6
CONTINUOUS
 10
574.6883190845183
 20
-647.5044655377393
 30
0.0
  0
VERTEX
  5
20CB1
  8
01
  6
CONTINUOUS
 10
574.7059387715866
 20
-647.4693858388084
 30
0.0
  0
VERTEX
  5
20CB2
  8
01
  6
CONTINUOUS
 10
574.7230857957381
 20
-647.4341071389313
 30
0.0
  0
VERTEX
  5
20CB3
  8
01
  6
CONTINUOUS
 10
574.7397566478626
 20
-647.3986380472118
 30
0.0
  0
VERTEX
  5
20CB4
  8
01
  6
CONTINUOUS
 10
574.7559478188497
 20
-647.3629871727536
 30
0.0
  0
VERTEX
  5
20CB5
  8
01
  6
CONTINUOUS
 10
574.771655799589
 20
-647.3271631246611
 30
0.0
  0
VERTEX
  5
20CB6
  8
01
  6
CONTINUOUS
 10
574.7868770809703
 20
-647.2911745120377
 30
0.0
  0
VERTEX
  5
20CB7
  8
01
  6
CONTINUOUS
 10
574.8016195914983
 20
-647.254997715001
 30
0.0
  0
VERTEX
  5
20CB8
  8
01
  6
CONTINUOUS
 10
574.8158922026092
 20
-647.218607890179
 30
0.0
  0
VERTEX
  5
20CB9
  8
01
  6
CONTINUOUS
 10
574.8296928195903
 20
-647.1820118114415
 30
0.0
  0
VERTEX
  5
20CBA
  8
01
  6
CONTINUOUS
 10
574.8430193477283
 20
-647.1452162526589
 30
0.0
  0
VERTEX
  5
20CBB
  8
01
  6
CONTINUOUS
 10
574.8558696923101
 20
-647.1082279877007
 30
0.0
  0
VERTEX
  5
20CBC
  8
01
  6
CONTINUOUS
 10
574.8682417586226
 20
-647.0710537904374
 30
0.0
  0
VERTEX
  5
20CBD
  8
01
  6
CONTINUOUS
 10
574.8801334519529
 20
-647.0337004347386
 30
0.0
  0
VERTEX
  5
20CBE
  8
01
  6
CONTINUOUS
 10
574.8915426775876
 20
-646.9961746944746
 30
0.0
  0
VERTEX
  5
20CBF
  8
01
  6
CONTINUOUS
 10
574.902467340814
 20
-646.9584833435151
 30
0.0
  0
VERTEX
  5
20CC0
  8
01
  6
CONTINUOUS
 10
574.9129053469189
 20
-646.9206331557305
 30
0.0
  0
VERTEX
  5
20CC1
  8
01
  6
CONTINUOUS
 10
574.9228546011892
 20
-646.8826309049905
 30
0.0
  0
VERTEX
  5
20CC2
  8
01
  6
CONTINUOUS
 10
574.9323130089118
 20
-646.8444833651652
 30
0.0
  0
VERTEX
  5
20CC3
  8
01
  6
CONTINUOUS
 10
574.9412784753737
 20
-646.8061973101245
 30
0.0
  0
VERTEX
  5
20CC4
  8
01
  6
CONTINUOUS
 10
574.9497489058618
 20
-646.7677795137386
 30
0.0
  0
VERTEX
  5
20CC5
  8
01
  6
CONTINUOUS
 10
574.9577222056629
 20
-646.7292367498773
 30
0.0
  0
VERTEX
  5
20CC6
  8
01
  6
CONTINUOUS
 10
574.9651962800641
 20
-646.6905757924106
 30
0.0
  0
VERTEX
  5
20CC7
  8
01
  6
CONTINUOUS
 10
574.9721690343523
 20
-646.6518034152086
 30
0.0
  0
VERTEX
  5
20CC8
  8
01
  6
CONTINUOUS
 10
574.9786383738143
 20
-646.6129263921414
 30
0.0
  0
VERTEX
  5
20CC9
  8
01
  6
CONTINUOUS
 10
574.9846022037373
 20
-646.573951497079
 30
0.0
  0
VERTEX
  5
20CCA
  8
01
  6
CONTINUOUS
 10
574.9900584294079
 20
-646.534885503891
 30
0.0
  0
VERTEX
  5
20CCB
  8
01
  6
CONTINUOUS
 10
574.9950049561132
 20
-646.4957351864479
 30
0.0
  0
VERTEX
  5
20CCC
  8
01
  6
CONTINUOUS
 10
574.9994396891401
 20
-646.4565073186195
 30
0.0
  0
VERTEX
  5
20CCD
  8
01
  6
CONTINUOUS
 10
575.0033605337757
 20
-646.4172086742758
 30
0.0
  0
VERTEX
  5
20CCE
  8
01
  6
CONTINUOUS
 10
575.0067653953065
 20
-646.3778460272866
 30
0.0
  0
VERTEX
  5
20CCF
  8
01
  6
CONTINUOUS
 10
575.0096521790198
 20
-646.3384261515224
 30
0.0
  0
VERTEX
  5
20CD0
  8
01
  6
CONTINUOUS
 10
575.0120187902024
 20
-646.2989558208526
 30
0.0
  0
VERTEX
  5
20CD1
  8
01
  6
CONTINUOUS
 10
575.0138631341414
 20
-646.2594418091478
 30
0.0
  0
VERTEX
  5
20CD2
  8
01
  6
CONTINUOUS
 10
575.0151831161234
 20
-646.2198908902776
 30
0.0
  0
VERTEX
  5
20CD3
  8
01
  6
CONTINUOUS
 10
575.0159766414355
 20
-646.1803098381121
 30
0.0
  0
VERTEX
  5
20CD4
  8
01
  6
CONTINUOUS
 10
575.0162416153647
 20
-646.1407054265212
 30
0.0
  0
SEQEND
  5
21246
  8
01
  6
CONTINUOUS
  0
LINE
  5
1FF43
  8
1DIM
 10
572.0162416153647
 20
-649.1407054265212
 30
0.0
 11
572.0162416153647
 21
-648.6408179341748
 31
0.0
  0
LINE
  5
1FF44
  8
01
  6
CONTINUOUS
 10
500.0162416153649
 20
-643.1407054265212
 30
0.0
 11
564.0162416153647
 21
-643.1407054265212
 31
0.0
  0
LINE
  5
1FF45
  8
01
  6
CONTINUOUS
 10
572.0162416153647
 20
-649.1407054265212
 30
0.0
 11
500.0162416153649
 21
-649.1407054265212
 31
0.0
  0
POLYLINE
  5
1FF4F
  8
1DIM
 66
     1
 10
0.0
 20
0.0
 30
0.0
  0
VERTEX
  5
20CD5
  8
1DIM
 10
432.3166682766595
 20
-709.1170823187949
 30
0.0
  0
VERTEX
  5
20CD6
  8
1DIM
 10
432.315506968326
 20
-709.116839464954
 30
0.0
  0
VERTEX
  5
20CD7
  8
1DIM
 10
432.3153788555244
 20
-709.1167520635302
 30
0.0
  0
VERTEX
  5
20CD8
  8
1DIM
 10
432.3173159051696
 20
-709.1169753620869
 30
0.0
  0
VERTEX
  5
20CD9
  8
1DIM
 10
432.321993099217
 20
-709.117605086155
 30
0.0
  0
VERTEX
  5
20CDA
  8
1DIM
 10
432.3292353280479
 20
-709.1185952209014
 30
0.0
  0
VERTEX
  5
20CDB
  8
1DIM
 10
432.3387436635488
 20
-709.1198791065659
 30
0.0
  0
VERTEX
  5
20CDC
  8
1DIM
 10
432.3502191776062
 20
-709.1213900833884
 30
0.0
  0
VERTEX
  5
20CDD
  8
1DIM
 10
432.3633629421064
 20
-709.1230614916087
 30
0.0
  0
VERTEX
  5
20CDE
  8
1DIM
 10
432.377876028936
 20
-709.1248266714664
 30
0.0
  0
VERTEX
  5
20CDF
  8
1DIM
 10
432.3934599124231
 20
-709.1266190546188
 30
0.0
  0
VERTEX
  5
20CE0
  8
1DIM
 10
432.409902457589
 20
-709.1283916969294
 30
0.0
  0
VERTEX
  5
20CE1
  8
1DIM
 10
432.4271848081557
 20
-709.1301415587722
 30
0.0
  0
VERTEX
  5
20CE2
  8
1DIM
 10
432.4453143420042
 20
-709.1318715597804
 30
0.0
  0
VERTEX
  5
20CE3
  8
1DIM
 10
432.4642984370154
 20
-709.1335846195876
 30
0.0
  0
VERTEX
  5
20CE4
  8
1DIM
 10
432.48414447107
 20
-709.1352836578274
 30
0.0
  0
VERTEX
  5
20CE5
  8
1DIM
 10
432.5048598220491
 20
-709.136971594133
 30
0.0
  0
VERTEX
  5
20CE6
  8
1DIM
 10
432.5264518678334
 20
-709.138651348138
 30
0.0
  0
VERTEX
  5
20CE7
  8
1DIM
 10
432.5489279863038
 20
-709.1403258394757
 30
0.0
  0
VERTEX
  5
20CE8
  8
1DIM
 10
432.5722955553413
 20
-709.1419979877797
 30
0.0
  0
VERTEX
  5
20CE9
  8
1DIM
 10
432.5965580498448
 20
-709.1436699825886
 30
0.0
  0
VERTEX
  5
20CEA
  8
1DIM
 10
432.6216995972238
 20
-709.1453403942858
 30
0.0
  0
VERTEX
  5
20CEB
  8
1DIM
 10
432.6476983408976
 20
-709.1470066738849
 30
0.0
  0
VERTEX
  5
20CEC
  8
1DIM
 10
432.6745324225195
 20
-709.1486662720691
 30
0.0
  0
VERTEX
  5
20CED
  8
1DIM
 10
432.7021799837425
 20
-709.1503166395222
 30
0.0
  0
VERTEX
  5
20CEE
  8
1DIM
 10
432.73061916622
 20
-709.151955226927
 30
0.0
  0
VERTEX
  5
20CEF
  8
1DIM
 10
432.7598281116051
 20
-709.153579484967
 30
0.0
  0
VERTEX
  5
20CF0
  8
1DIM
 10
432.7897849615511
 20
-709.1551868643255
 30
0.0
  0
VERTEX
  5
20CF1
  8
1DIM
 10
432.8204678577111
 20
-709.1567748156859
 30
0.0
  0
VERTEX
  5
20CF2
  8
1DIM
 10
432.8518549417383
 20
-709.1583407897314
 30
0.0
  0
VERTEX
  5
20CF3
  8
1DIM
 10
432.8839243552861
 20
-709.1598822371452
 30
0.0
  0
VERTEX
  5
20CF4
  8
1DIM
 10
432.9166563857369
 20
-709.1613970056537
 30
0.0
  0
VERTEX
  5
20CF5
  8
1DIM
 10
432.9500411436927
 20
-709.1628847606572
 30
0.0
  0
VERTEX
  5
20CF6
  8
1DIM
 10
432.9840715491737
 20
-709.1643456874073
 30
0.0
  0
VERTEX
  5
20CF7
  8
1DIM
 10
433.0187405224241
 20
-709.1657799711965
 30
0.0
  0
VERTEX
  5
20CF8
  8
1DIM
 10
433.0540409836882
 20
-709.1671877973176
 30
0.0
  0
VERTEX
  5
20CF9
  8
1DIM
 10
433.0899658532099
 20
-709.1685693510638
 30
0.0
  0
VERTEX
  5
20CFA
  8
1DIM
 10
433.1265080512332
 20
-709.1699248177274
 30
0.0
  0
VERTEX
  5
20CFB
  8
1DIM
 10
433.1636604980023
 20
-709.1712543826015
 30
0.0
  0
VERTEX
  5
20CFC
  8
1DIM
 10
433.2014161137614
 20
-709.1725582309788
 30
0.0
  0
VERTEX
  5
20CFD
  8
1DIM
 10
433.2397678187544
 20
-709.1738365481519
 30
0.0
  0
VERTEX
  5
20CFE
  8
1DIM
 10
433.2787085332255
 20
-709.175089519414
 30
0.0
  0
VERTEX
  5
20CFF
  8
1DIM
 10
433.3182311774187
 20
-709.1763173300574
 30
0.0
  0
VERTEX
  5
20D00
  8
1DIM
 10
433.3583279473096
 20
-709.1775201500874
 30
0.0
  0
VERTEX
  5
20D01
  8
1DIM
 10
433.3989875741124
 20
-709.1786980763749
 30
0.0
  0
VERTEX
  5
20D02
  8
1DIM
 10
433.4401977541742
 20
-709.179851183947
 30
0.0
  0
VERTEX
  5
20D03
  8
1DIM
 10
433.481946183658
 20
-709.1809795478271
 30
0.0
  0
VERTEX
  5
20D04
  8
1DIM
 10
433.5242205587273
 20
-709.1820832430383
 30
0.0
  0
VERTEX
  5
20D05
  8
1DIM
 10
433.5670085755453
 20
-709.1831623446038
 30
0.0
  0
VERTEX
  5
20D06
  8
1DIM
 10
433.6102979302751
 20
-709.1842169275471
 30
0.0
  0
VERTEX
  5
20D07
  8
1DIM
 10
433.6540763190802
 20
-709.1852470668913
 30
0.0
  0
VERTEX
  5
20D08
  8
1DIM
 10
433.6983314381237
 20
-709.1862528376596
 30
0.0
  0
VERTEX
  5
20D09
  8
1DIM
 10
433.7430509835688
 20
-709.1872343148752
 30
0.0
  0
VERTEX
  5
20D0A
  8
1DIM
 10
433.7882226515789
 20
-709.1881915735615
 30
0.0
  0
VERTEX
  5
20D0B
  8
1DIM
 10
433.8338341383172
 20
-709.1891246887418
 30
0.0
  0
VERTEX
  5
20D0C
  8
1DIM
 10
433.8798731766095
 20
-709.1900337343508
 30
0.0
  0
VERTEX
  5
20D0D
  8
1DIM
 10
433.9263288029289
 20
-709.1909187456239
 30
0.0
  0
VERTEX
  5
20D0E
  8
1DIM
 10
433.9731916800596
 20
-709.1917797095184
 30
0.0
  0
VERTEX
  5
20D0F
  8
1DIM
 10
434.020452572971
 20
-709.1926166099582
 30
0.0
  0
VERTEX
  5
20D10
  8
1DIM
 10
434.0681022466333
 20
-709.1934294308671
 30
0.0
  0
VERTEX
  5
20D11
  8
1DIM
 10
434.1161314660161
 20
-709.1942181561691
 30
0.0
  0
VERTEX
  5
20D12
  8
1DIM
 10
434.1645309960895
 20
-709.1949827697878
 30
0.0
  0
VERTEX
  5
20D13
  8
1DIM
 10
434.2132916018232
 20
-709.1957232556473
 30
0.0
  0
VERTEX
  5
20D14
  8
1DIM
 10
434.2624040481871
 20
-709.1964395976713
 30
0.0
  0
VERTEX
  5
20D15
  8
1DIM
 10
434.311859100151
 20
-709.1971317797837
 30
0.0
  0
VERTEX
  5
20D16
  8
1DIM
 10
434.3616475226849
 20
-709.1977997859084
 30
0.0
  0
VERTEX
  5
20D17
  8
1DIM
 10
434.4117600807585
 20
-709.1984435999691
 30
0.0
  0
VERTEX
  5
20D18
  8
1DIM
 10
434.4621875393417
 20
-709.1990632058898
 30
0.0
  0
VERTEX
  5
20D19
  8
1DIM
 10
434.5129206422243
 20
-709.199658637441
 30
0.0
  0
VERTEX
  5
20D1A
  8
1DIM
 10
434.5639499414604
 20
-709.2002303796364
 30
0.0
  0
VERTEX
  5
20D1B
  8
1DIM
 10
434.6152658871574
 20
-709.2007791574185
 30
0.0
  0
VERTEX
  5
20D1C
  8
1DIM
 10
434.6668589284792
 20
-709.2013056979499
 30
0.0
  0
VERTEX
  5
20D1D
  8
1DIM
 10
434.7187195145896
 20
-709.2018107283935
 30
0.0
  0
VERTEX
  5
20D1E
  8
1DIM
 10
434.7708380946523
 20
-709.202294975912
 30
0.0
  0
VERTEX
  5
20D1F
  8
1DIM
 10
434.8232051178313
 20
-709.2027591676685
 30
0.0
  0
VERTEX
  5
20D20
  8
1DIM
 10
434.8758110332902
 20
-709.2032040308255
 30
0.0
  0
VERTEX
  5
20D21
  8
1DIM
 10
434.9286462901931
 20
-709.203630292546
 30
0.0
  0
VERTEX
  5
20D22
  8
1DIM
 10
434.9817013377036
 20
-709.204038679993
 30
0.0
  0
VERTEX
  5
20D23
  8
1DIM
 10
435.0349666249857
 20
-709.2044299203291
 30
0.0
  0
VERTEX
  5
20D24
  8
1DIM
 10
435.0884326012032
 20
-709.2048047407171
 30
0.0
  0
VERTEX
  5
20D25
  8
1DIM
 10
435.1420897155197
 20
-709.2051638683199
 30
0.0
  0
VERTEX
  5
20D26
  8
1DIM
 10
435.195928037958
 20
-709.2055077521927
 30
0.0
  0
VERTEX
  5
20D27
  8
1DIM
 10
435.2499350431377
 20
-709.2058349376111
 30
0.0
  0
VERTEX
  5
20D28
  8
1DIM
 10
435.3040971186369
 20
-709.2061431724843
 30
0.0
  0
VERTEX
  5
20D29
  8
1DIM
 10
435.3584006483435
 20
-709.2064302020143
 30
0.0
  0
VERTEX
  5
20D2A
  8
1DIM
 10
435.4128320161452
 20
-709.2066937714031
 30
0.0
  0
VERTEX
  5
20D2B
  8
1DIM
 10
435.4673776059295
 20
-709.2069316258528
 30
0.0
  0
VERTEX
  5
20D2C
  8
1DIM
 10
435.5220238015842
 20
-709.2071415105654
 30
0.0
  0
VERTEX
  5
20D2D
  8
1DIM
 10
435.576756986997
 20
-709.2073211707431
 30
0.0
  0
VERTEX
  5
20D2E
  8
1DIM
 10
435.6315635460556
 20
-709.2074683515876
 30
0.0
  0
VERTEX
  5
20D2F
  8
1DIM
 10
435.6864298626476
 20
-709.2075807983014
 30
0.0
  0
VERTEX
  5
20D30
  8
1DIM
 10
435.7413423206607
 20
-709.2076562560861
 30
0.0
  0
VERTEX
  5
20D31
  8
1DIM
 10
435.7962873039828
 20
-709.2076924701443
 30
0.0
  0
VERTEX
  5
20D32
  8
1DIM
 10
435.851251196685
 20
-709.2076871859384
 30
0.0
  0
VERTEX
  5
20D33
  8
1DIM
 10
435.9062226059288
 20
-709.2076413075489
 30
0.0
  0
VERTEX
  5
20D34
  8
1DIM
 10
435.9611978982672
 20
-709.2075667637773
 30
0.0
  0
VERTEX
  5
20D35
  8
1DIM
 10
436.0161751321531
 20
-709.2074778873146
 30
0.0
  0
SEQEND
  5
21247
  8
1DIM
  0
LINE
  5
1FF50
  8
1DIM
 10
436.0162416153652
 20
-709.2077808515294
 30
0.0
 11
500.0162416153649
 21
-709.2077808515294
 31
0.0
  0
LINE
  5
1FF51
  8
1DIM
 10
425.0162416153652
 20
-723.2673891129191
 30
0.0
 11
428.0162416153652
 21
-723.2673891129191
 31
0.0
  0
LINE
  5
1FF52
  8
1DIM
 10
428.0162416153652
 20
-709.7680115823289
 30
0.0
 11
428.0162416153652
 21
-723.2673891129191
 31
0.0
  0
POLYLINE
  5
1FF53
  8
1DIM
 66
     1
 10
0.0
 20
0.0
 30
0.0
  0
VERTEX
  5
20D36
  8
1DIM
 10
428.0162416153652
 20
-709.7680115823289
 30
0.0
  0
VERTEX
  5
20D37
  8
1DIM
 10
427.9766687923182
 20
-709.7680115589532
 30
0.0
  0
VERTEX
  5
20D38
  8
1DIM
 10
427.9371839504456
 20
-709.7680114732719
 30
0.0
  0
VERTEX
  5
20D39
  8
1DIM
 10
427.8977868491676
 20
-709.7680113019544
 30
0.0
  0
VERTEX
  5
20D3A
  8
1DIM
 10
427.8584772479046
 20
-709.7680110216696
 30
0.0
  0
VERTEX
  5
20D3B
  8
1DIM
 10
427.8192549060769
 20
-709.7680106090866
 30
0.0
  0
VERTEX
  5
20D3C
  8
1DIM
 10
427.7801195831047
 20
-709.7680100408744
 30
0.0
  0
VERTEX
  5
20D3D
  8
1DIM
 10
427.7410710384085
 20
-709.7680092937022
 30
0.0
  0
VERTEX
  5
20D3E
  8
1DIM
 10
427.7021090314084
 20
-709.7680083442391
 30
0.0
  0
VERTEX
  5
20D3F
  8
1DIM
 10
427.6632333215248
 20
-709.7680071691541
 30
0.0
  0
VERTEX
  5
20D40
  8
1DIM
 10
427.6244436681781
 20
-709.7680057451163
 30
0.0
  0
VERTEX
  5
20D41
  8
1DIM
 10
427.5857398307883
 20
-709.7680040487946
 30
0.0
  0
VERTEX
  5
20D42
  8
1DIM
 10
427.5471215687761
 20
-709.7680020568584
 30
0.0
  0
VERTEX
  5
20D43
  8
1DIM
 10
427.5085886415614
 20
-709.7679997459766
 30
0.0
  0
VERTEX
  5
20D44
  8
1DIM
 10
427.4701408085648
 20
-709.7679970928183
 30
0.0
  0
VERTEX
  5
20D45
  8
1DIM
 10
427.4317778292066
 20
-709.7679940740526
 30
0.0
  0
VERTEX
  5
20D46
  8
1DIM
 10
427.3934753504159
 20
-709.767990648814
 30
0.0
  0
VERTEX
  5
20D47
  8
1DIM
 10
427.3552182414674
 20
-709.7679867476028
 30
0.0
  0
VERTEX
  5
20D48
  8
1DIM
 10
427.3170200952985
 20
-709.7679823041359
 30
0.0
  0
VERTEX
  5
20D49
  8
1DIM
 10
427.2788945048472
 20
-709.7679772521308
 30
0.0
  0
VERTEX
  5
20D4A
  8
1DIM
 10
427.2408550630513
 20
-709.7679715253043
 30
0.0
  0
VERTEX
  5
20D4B
  8
1DIM
 10
427.2029153628484
 20
-709.7679650573739
 30
0.0
  0
VERTEX
  5
20D4C
  8
1DIM
 10
427.1650889971763
 20
-709.7679577820567
 30
0.0
  0
VERTEX
  5
20D4D
  8
1DIM
 10
427.1273895589728
 20
-709.7679496330697
 30
0.0
  0
VERTEX
  5
20D4E
  8
1DIM
 10
427.0898306411755
 20
-709.7679405441303
 30
0.0
  0
VERTEX
  5
20D4F
  8
1DIM
 10
427.0524258367225
 20
-709.7679304489556
 30
0.0
  0
VERTEX
  5
20D50
  8
1DIM
 10
427.0151887385512
 20
-709.7679192812625
 30
0.0
  0
VERTEX
  5
20D51
  8
1DIM
 10
426.9781329395996
 20
-709.7679069747686
 30
0.0
  0
VERTEX
  5
20D52
  8
1DIM
 10
426.9412720328052
 20
-709.767893463191
 30
0.0
  0
VERTEX
  5
20D53
  8
1DIM
 10
426.9046196111062
 20
-709.7678786802466
 30
0.0
  0
VERTEX
  5
20D54
  8
1DIM
 10
426.8681892674399
 20
-709.7678625596528
 30
0.0
  0
VERTEX
  5
20D55
  8
1DIM
 10
426.8319988958129
 20
-709.76784504194
 30
0.0
  0
VERTEX
  5
20D56
  8
1DIM
 10
426.796057227517
 20
-709.7678260451344
 30
0.0
  0
VERTEX
  5
20D57
  8
1DIM
 10
426.7603641114184
 20
-709.7678054691974
 30
0.0
  0
VERTEX
  5
20D58
  8
1DIM
 10
426.7249193963834
 20
-709.7677832140906
 30
0.0
  0
VERTEX
  5
20D59
  8
1DIM
 10
426.689722931278
 20
-709.7677591797755
 30
0.0
  0
VERTEX
  5
20D5A
  8
1DIM
 10
426.6547745649685
 20
-709.7677332662132
 30
0.0
  0
VERTEX
  5
20D5B
  8
1DIM
 10
426.620074146321
 20
-709.7677053733655
 30
0.0
  0
VERTEX
  5
20D5C
  8
1DIM
 10
426.5856215242017
 20
-709.7676754011934
 30
0.0
  0
VERTEX
  5
20D5D
  8
1DIM
 10
426.5514165474767
 20
-709.7676432496588
 30
0.0
  0
VERTEX
  5
20D5E
  8
1DIM
 10
426.5174590650124
 20
-709.7676088187227
 30
0.0
  0
VERTEX
  5
20D5F
  8
1DIM
 10
426.4837489256747
 20
-709.7675720083469
 30
0.0
  0
VERTEX
  5
20D60
  8
1DIM
 10
426.45028597833
 20
-709.7675327184922
 30
0.0
  0
VERTEX
  5
20D61
  8
1DIM
 10
426.4170700718444
 20
-709.7674908491209
 30
0.0
  0
VERTEX
  5
20D62
  8
1DIM
 10
426.384101055084
 20
-709.7674463001937
 30
0.0
  0
VERTEX
  5
20D63
  8
1DIM
 10
426.351378776915
 20
-709.7673989716724
 30
0.0
  0
VERTEX
  5
20D64
  8
1DIM
 10
426.3188970356417
 20
-709.7673486873458
 30
0.0
  0
VERTEX
  5
20D65
  8
1DIM
 10
426.286658475053
 20
-709.7672952797795
 30
0.0
  0
VERTEX
  5
20D66
  8
1DIM
 10
426.2546762122425
 20
-709.7672386620993
 30
0.0
  0
VERTEX
  5
20D67
  8
1DIM
 10
426.2229633643037
 20
-709.7671787474308
 30
0.0
  0
VERTEX
  5
20D68
  8
1DIM
 10
426.1915330483301
 20
-709.7671154489
 30
0.0
  0
VERTEX
  5
20D69
  8
1DIM
 10
426.1603983814153
 20
-709.7670486796325
 30
0.0
  0
VERTEX
  5
20D6A
  8
1DIM
 10
426.1295724806528
 20
-709.7669783527543
 30
0.0
  0
VERTEX
  5
20D6B
  8
1DIM
 10
426.0990684631361
 20
-709.7669043813913
 30
0.0
  0
VERTEX
  5
20D6C
  8
1DIM
 10
426.0688994459587
 20
-709.7668266786691
 30
0.0
  0
VERTEX
  5
20D6D
  8
1DIM
 10
426.0390785462141
 20
-709.7667451577136
 30
0.0
  0
VERTEX
  5
20D6E
  8
1DIM
 10
426.0096188809959
 20
-709.7666597316505
 30
0.0
  0
VERTEX
  5
20D6F
  8
1DIM
 10
425.9805335673975
 20
-709.7665703136059
 30
0.0
  0
VERTEX
  5
20D70
  8
1DIM
 10
425.9518357225125
 20
-709.7664768167053
 30
0.0
  0
VERTEX
  5
20D71
  8
1DIM
 10
425.9235384634343
 20
-709.7663791540748
 30
0.0
  0
VERTEX
  5
20D72
  8
1DIM
 10
425.8956549072567
 20
-709.76627723884
 30
0.0
  0
VERTEX
  5
20D73
  8
1DIM
 10
425.8681716890619
 20
-709.7661709720501
 30
0.0
  0
VERTEX
  5
20D74
  8
1DIM
 10
425.8410670948205
 20
-709.7660602272637
 30
0.0
  0
VERTEX
  5
20D75
  8
1DIM
 10
425.8143417179573
 20
-709.7659448763701
 30
0.0
  0
VERTEX
  5
20D76
  8
1DIM
 10
425.7879961518976
 20
-709.7658247912591
 30
0.0
  0
VERTEX
  5
20D77
  8
1DIM
 10
425.7620309900668
 20
-709.76569984382
 30
0.0
  0
VERTEX
  5
20D78
  8
1DIM
 10
425.7364468258897
 20
-709.7655699059426
 30
0.0
  0
VERTEX
  5
20D79
  8
1DIM
 10
425.7112442527916
 20
-709.7654348495164
 30
0.0
  0
VERTEX
  5
20D7A
  8
1DIM
 10
425.6864238641978
 20
-709.7652945464308
 30
0.0
  0
VERTEX
  5
20D7B
  8
1DIM
 10
425.6619862535333
 20
-709.7651488685755
 30
0.0
  0
VERTEX
  5
20D7C
  8
1DIM
 10
425.6379320142232
 20
-709.7649976878398
 30
0.0
  0
VERTEX
  5
20D7D
  8
1DIM
 10
425.6142617396929
 20
-709.7648408761136
 30
0.0
  0
VERTEX
  5
20D7E
  8
1DIM
 10
425.5909760233673
 20
-709.7646783052863
 30
0.0
  0
VERTEX
  5
20D7F
  8
1DIM
 10
425.5680754586717
 20
-709.7645098472473
 30
0.0
  0
VERTEX
  5
20D80
  8
1DIM
 10
425.5455606390313
 20
-709.7643353738864
 30
0.0
  0
VERTEX
  5
20D81
  8
1DIM
 10
425.5234321578712
 20
-709.764154757093
 30
0.0
  0
VERTEX
  5
20D82
  8
1DIM
 10
425.5017164145179
 20
-709.7639679959411
 30
0.0
  0
VERTEX
  5
20D83
  8
1DIM
 10
425.4804417520884
 20
-709.7637751510332
 30
0.0
  0
VERTEX
  5
20D84
  8
1DIM
 10
425.4596116796928
 20
-709.7635761865508
 30
0.0
  0
VERTEX
  5
20D85
  8
1DIM
 10
425.4392297064414
 20
-709.7633710666761
 30
0.0
  0
VERTEX
  5
20D86
  8
1DIM
 10
425.4192993414447
 20
-709.7631597555908
 30
0.0
  0
VERTEX
  5
20D87
  8
1DIM
 10
425.3998240938132
 20
-709.7629422174767
 30
0.0
  0
VERTEX
  5
20D88
  8
1DIM
 10
425.3808074726568
 20
-709.7627184165158
 30
0.0
  0
VERTEX
  5
20D89
  8
1DIM
 10
425.3622529870862
 20
-709.7624883168897
 30
0.0
  0
VERTEX
  5
20D8A
  8
1DIM
 10
425.3441641462115
 20
-709.7622518827807
 30
0.0
  0
VERTEX
  5
20D8B
  8
1DIM
 10
425.3265444591433
 20
-709.7620090783702
 30
0.0
  0
VERTEX
  5
20D8C
  8
1DIM
 10
425.3093974349917
 20
-709.7617598678402
 30
0.0
  0
VERTEX
  5
20D8D
  8
1DIM
 10
425.2927265828673
 20
-709.7615042153726
 30
0.0
  0
VERTEX
  5
20D8E
  8
1DIM
 10
425.2765354118802
 20
-709.7612420851493
 30
0.0
  0
VERTEX
  5
20D8F
  8
1DIM
 10
425.2608274311409
 20
-709.760973441352
 30
0.0
  0
VERTEX
  5
20D90
  8
1DIM
 10
425.2456061497596
 20
-709.7606982481627
 30
0.0
  0
VERTEX
  5
20D91
  8
1DIM
 10
425.2308636392316
 20
-709.7604161242118
 30
0.0
  0
VERTEX
  5
20D92
  8
1DIM
 10
425.2165910281205
 20
-709.7601267205006
 30
0.0
  0
VERTEX
  5
20D93
  8
1DIM
 10
425.2027904111395
 20
-709.7598300497673
 30
0.0
  0
VERTEX
  5
20D94
  8
1DIM
 10
425.1894638830016
 20
-709.7595261247503
 30
0.0
  0
VERTEX
  5
20D95
  8
1DIM
 10
425.1766135384198
 20
-709.7592149581877
 30
0.0
  0
VERTEX
  5
20D96
  8
1DIM
 10
425.1642414721073
 20
-709.7588965628179
 30
0.0
  0
VERTEX
  5
20D97
  8
1DIM
 10
425.1523497787771
 20
-709.7585709513788
 30
0.0
  0
VERTEX
  5
20D98
  8
1DIM
 10
425.1409405531422
 20
-709.7582381366091
 30
0.0
  0
VERTEX
  5
20D99
  8
1DIM
 10
425.1300158899158
 20
-709.7578981312467
 30
0.0
  0
VERTEX
  5
20D9A
  8
1DIM
 10
425.119577883811
 20
-709.75755094803
 30
0.0
  0
VERTEX
  5
20D9B
  8
1DIM
 10
425.1096286295406
 20
-709.7571965996973
 30
0.0
  0
VERTEX
  5
20D9C
  8
1DIM
 10
425.100170221818
 20
-709.7568350989867
 30
0.0
  0
VERTEX
  5
20D9D
  8
1DIM
 10
425.0912047553562
 20
-709.7564664586365
 30
0.0
  0
VERTEX
  5
20D9E
  8
1DIM
 10
425.0827343248681
 20
-709.756090691385
 30
0.0
  0
VERTEX
  5
20D9F
  8
1DIM
 10
425.074761025067
 20
-709.7557078099704
 30
0.0
  0
VERTEX
  5
20DA0
  8
1DIM
 10
425.0672869506658
 20
-709.7553178271307
 30
0.0
  0
VERTEX
  5
20DA1
  8
1DIM
 10
425.0603141963776
 20
-709.7549207556045
 30
0.0
  0
VERTEX
  5
20DA2
  8
1DIM
 10
425.0538448569155
 20
-709.7545166081301
 30
0.0
  0
VERTEX
  5
20DA3
  8
1DIM
 10
425.0478810269927
 20
-709.7541053974453
 30
0.0
  0
VERTEX
  5
20DA4
  8
1DIM
 10
425.042424801322
 20
-709.7536871362887
 30
0.0
  0
VERTEX
  5
20DA5
  8
1DIM
 10
425.0374782746167
 20
-709.7532618373984
 30
0.0
  0
VERTEX
  5
20DA6
  8
1DIM
 10
425.0330435415897
 20
-709.7528295135127
 30
0.0
  0
VERTEX
  5
20DA7
  8
1DIM
 10
425.0291226969543
 20
-709.7523901773699
 30
0.0
  0
VERTEX
  5
20DA8
  8
1DIM
 10
425.0257178354234
 20
-709.751943841708
 30
0.0
  0
VERTEX
  5
20DA9
  8
1DIM
 10
425.0228310517101
 20
-709.7514905192655
 30
0.0
  0
VERTEX
  5
20DAA
  8
1DIM
 10
425.0204644405274
 20
-709.7510302227806
 30
0.0
  0
VERTEX
  5
20DAB
  8
1DIM
 10
425.0186200965886
 20
-709.7505629649914
 30
0.0
  0
VERTEX
  5
20DAC
  8
1DIM
 10
425.0173001146065
 20
-709.7500887586365
 30
0.0
  0
VERTEX
  5
20DAD
  8
1DIM
 10
425.0165065892944
 20
-709.7496076164537
 30
0.0
  0
VERTEX
  5
20DAE
  8
1DIM
 10
425.0162416153652
 20
-709.7491195511814
 30
0.0
  0
SEQEND
  5
21248
  8
1DIM
  0
LINE
  5
1FF54
  8
01
  6
CONTINUOUS
 10
425.0162416153652
 20
-723.2673891129191
 30
0.0
 11
425.0162416153652
 21
-709.7491195511814
 31
0.0
  0
POLYLINE
  5
1FF55
  8
01
  6
CONTINUOUS
 66
     1
 10
0.0
 20
0.0
 30
0.0
  0
VERTEX
  5
20DAF
  8
01
  6
CONTINUOUS
 10
425.5162416153652
 20
-709.2491749656901
 30
0.0
  0
VERTEX
  5
20DB0
  8
01
  6
CONTINUOUS
 10
425.5164631281809
 20
-709.2496623132083
 30
0.0
  0
VERTEX
  5
20DB1
  8
01
  6
CONTINUOUS
 10
425.5171264813802
 20
-709.2501427331848
 30
0.0
  0
VERTEX
  5
20DB2
  8
01
  6
CONTINUOUS
 10
425.5182298970911
 20
-709.250616212985
 30
0.0
  0
VERTEX
  5
20DB3
  8
01
  6
CONTINUOUS
 10
425.5197715974415
 20
-709.2510827399734
 30
0.0
  0
VERTEX
  5
20DB4
  8
01
  6
CONTINUOUS
 10
425.5217498045598
 20
-709.2515423015147
 30
0.0
  0
VERTEX
  5
20DB5
  8
01
  6
CONTINUOUS
 10
425.5241627405737
 20
-709.2519948849741
 30
0.0
  0
VERTEX
  5
20DB6
  8
01
  6
CONTINUOUS
 10
425.5270086276114
 20
-709.2524404777164
 30
0.0
  0
VERTEX
  5
20DB7
  8
01
  6
CONTINUOUS
 10
425.530285687801
 20
-709.2528790671063
 30
0.0
  0
VERTEX
  5
20DB8
  8
01
  6
CONTINUOUS
 10
425.5339921432705
 20
-709.2533106405086
 30
0.0
  0
VERTEX
  5
20DB9
  8
01
  6
CONTINUOUS
 10
425.5381262161479
 20
-709.2537351852883
 30
0.0
  0
VERTEX
  5
20DBA
  8
01
  6
CONTINUOUS
 10
425.5426861285614
 20
-709.2541526888101
 30
0.0
  0
VERTEX
  5
20DBB
  8
01
  6
CONTINUOUS
 10
425.547670102639
 20
-709.2545631384392
 30
0.0
  0
VERTEX
  5
20DBC
  8
01
  6
CONTINUOUS
 10
425.5530763605086
 20
-709.2549665215399
 30
0.0
  0
VERTEX
  5
20DBD
  8
01
  6
CONTINUOUS
 10
425.5589031242984
 20
-709.2553628254774
 30
0.0
  0
VERTEX
  5
20DBE
  8
01
  6
CONTINUOUS
 10
425.5651486161364
 20
-709.2557520376165
 30
0.0
  0
VERTEX
  5
20DBF
  8
01
  6
CONTINUOUS
 10
425.5718110581507
 20
-709.256134145322
 30
0.0
  0
VERTEX
  5
20DC0
  8
01
  6
CONTINUOUS
 10
425.5788886724694
 20
-709.2565091359589
 30
0.0
  0
VERTEX
  5
20DC1
  8
01
  6
CONTINUOUS
 10
425.5863796812204
 20
-709.2568769968917
 30
0.0
  0
VERTEX
  5
20DC2
  8
01
  6
CONTINUOUS
 10
425.5942823065319
 20
-709.2572377154858
 30
0.0
  0
VERTEX
  5
20DC3
  8
01
  6
CONTINUOUS
 10
425.6025947705318
 20
-709.2575912791053
 30
0.0
  0
VERTEX
  5
20DC4
  8
01
  6
CONTINUOUS
 10
425.6113152953483
 20
-709.2579376751157
 30
0.0
  0
VERTEX
  5
20DC5
  8
01
  6
CONTINUOUS
 10
425.6204421031094
 20
-709.2582768908816
 30
0.0
  0
VERTEX
  5
20DC6
  8
01
  6
CONTINUOUS
 10
425.6299734159431
 20
-709.2586089137677
 30
0.0
  0
VERTEX
  5
20DC7
  8
01
  6
CONTINUOUS
 10
425.6399074559775
 20
-709.2589337311392
 30
0.0
  0
VERTEX
  5
20DC8
  8
01
  6
CONTINUOUS
 10
425.6502424453407
 20
-709.2592513303606
 30
0.0
  0
VERTEX
  5
20DC9
  8
01
  6
CONTINUOUS
 10
425.6609766061608
 20
-709.2595616987969
 30
0.0
  0
VERTEX
  5
20DCA
  8
01
  6
CONTINUOUS
 10
425.6721081605656
 20
-709.2598648238131
 30
0.0
  0
VERTEX
  5
20DCB
  8
01
  6
CONTINUOUS
 10
425.6836353306835
 20
-709.2601606927738
 30
0.0
  0
VERTEX
  5
20DCC
  8
01
  6
CONTINUOUS
 10
425.6955563386422
 20
-709.2604492930438
 30
0.0
  0
VERTEX
  5
20DCD
  8
01
  6
CONTINUOUS
 10
425.70786940657
 20
-709.2607306119882
 30
0.0
  0
VERTEX
  5
20DCE
  8
01
  6
CONTINUOUS
 10
425.7205820874896
 20
-709.261005001814
 30
0.0
  0
VERTEX
  5
20DCF
  8
01
  6
CONTINUOUS
 10
425.7337010886854
 20
-709.2612728468814
 30
0.0
  0
VERTEX
  5
20DD0
  8
01
  6
CONTINUOUS
 10
425.7472233636775
 20
-709.2615341827844
 30
0.0
  0
VERTEX
  5
20DD1
  8
01
  6
CONTINUOUS
 10
425.7611458659863
 20
-709.2617890451171
 30
0.0
  0
VERTEX
  5
20DD2
  8
01
  6
CONTINUOUS
 10
425.7754655491319
 20
-709.2620374694734
 30
0.0
  0
VERTEX
  5
20DD3
  8
01
  6
CONTINUOUS
 10
425.7901793666346
 20
-709.2622794914474
 30
0.0
  0
VERTEX
  5
20DD4
  8
01
  6
CONTINUOUS
 10
425.8052842720147
 20
-709.2625151466334
 30
0.0
  0
VERTEX
  5
20DD5
  8
01
  6
CONTINUOUS
 10
425.8207772187923
 20
-709.2627444706252
 30
0.0
  0
VERTEX
  5
20DD6
  8
01
  6
CONTINUOUS
 10
425.8366551604879
 20
-709.2629674990169
 30
0.0
  0
VERTEX
  5
20DD7
  8
01
  6
CONTINUOUS
 10
425.8529150506214
 20
-709.2631842674027
 30
0.0
  0
VERTEX
  5
20DD8
  8
01
  6
CONTINUOUS
 10
425.8695538427135
 20
-709.2633948113765
 30
0.0
  0
VERTEX
  5
20DD9
  8
01
  6
CONTINUOUS
 10
425.886568490284
 20
-709.2635991665325
 30
0.0
  0
VERTEX
  5
20DDA
  8
01
  6
CONTINUOUS
 10
425.9039559468534
 20
-709.2637973684646
 30
0.0
  0
VERTEX
  5
20DDB
  8
01
  6
CONTINUOUS
 10
425.9217131659419
 20
-709.263989452767
 30
0.0
  0
VERTEX
  5
20DDC
  8
01
  6
CONTINUOUS
 10
425.9398371010697
 20
-709.2641754550336
 30
0.0
  0
VERTEX
  5
20DDD
  8
01
  6
CONTINUOUS
 10
425.9583042963229
 20
-709.2643553199637
 30
0.0
  0
VERTEX
  5
20DDE
  8
01
  6
CONTINUOUS
 10
425.9770929792033
 20
-709.2645290540744
 30
0.0
  0
VERTEX
  5
20DDF
  8
01
  6
CONTINUOUS
 10
425.9962026283541
 20
-709.2646967856873
 30
0.0
  0
VERTEX
  5
20DE0
  8
01
  6
CONTINUOUS
 10
426.015632722419
 20
-709.2648586431241
 30
0.0
  0
VERTEX
  5
20DE1
  8
01
  6
CONTINUOUS
 10
426.0353827400414
 20
-709.2650147547059
 30
0.0
  0
VERTEX
  5
20DE2
  8
01
  6
CONTINUOUS
 10
426.0554521598646
 20
-709.2651652487547
 30
0.0
  0
VERTEX
  5
20DE3
  8
01
  6
CONTINUOUS
 10
426.0758404605323
 20
-709.2653102535918
 30
0.0
  0
VERTEX
  5
20DE4
  8
01
  6
CONTINUOUS
 10
426.0965471206878
 20
-709.2654498975387
 30
0.0
  0
VERTEX
  5
20DE5
  8
01
  6
CONTINUOUS
 10
426.1175716189745
 20
-709.265584308917
 30
0.0
  0
VERTEX
  5
20DE6
  8
01
  6
CONTINUOUS
 10
426.1389134340361
 20
-709.2657136160483
 30
0.0
  0
VERTEX
  5
20DE7
  8
01
  6
CONTINUOUS
 10
426.1605720445159
 20
-709.2658379472539
 30
0.0
  0
VERTEX
  5
20DE8
  8
01
  6
CONTINUOUS
 10
426.1825469290574
 20
-709.2659574308557
 30
0.0
  0
VERTEX
  5
20DE9
  8
01
  6
CONTINUOUS
 10
426.204837566304
 20
-709.2660721951748
 30
0.0
  0
VERTEX
  5
20DEA
  8
01
  6
CONTINUOUS
 10
426.2274434348993
 20
-709.2661823685328
 30
0.0
  0
VERTEX
  5
20DEB
  8
01
  6
CONTINUOUS
 10
426.2503640134867
 20
-709.2662880792516
 30
0.0
  0
VERTEX
  5
20DEC
  8
01
  6
CONTINUOUS
 10
426.2736172115697
 20
-709.2663894532009
 30
0.0
  0
VERTEX
  5
20DED
  8
01
  6
CONTINUOUS
 10
426.2972139719452
 20
-709.2664865887333
 30
0.0
  0
VERTEX
  5
20DEE
  8
01
  6
CONTINUOUS
 10
426.321143323196
 20
-709.2665795728941
 30
0.0
  0
VERTEX
  5
20DEF
  8
01
  6
CONTINUOUS
 10
426.3453942939051
 20
-709.2666684927287
 30
0.0
  0
VERTEX
  5
20DF0
  8
01
  6
CONTINUOUS
 10
426.3699559126554
 20
-709.2667534352825
 30
0.0
  0
VERTEX
  5
20DF1
  8
01
  6
CONTINUOUS
 10
426.3948172080299
 20
-709.2668344876007
 30
0.0
  0
VERTEX
  5
20DF2
  8
01
  6
CONTINUOUS
 10
426.4199672086116
 20
-709.2669117367287
 30
0.0
  0
VERTEX
  5
20DF3
  8
01
  6
CONTINUOUS
 10
426.4453949429832
 20
-709.2669852697117
 30
0.0
  0
VERTEX
  5
20DF4
  8
01
  6
CONTINUOUS
 10
426.471089439728
 20
-709.2670551735953
 30
0.0
  0
VERTEX
  5
20DF5
  8
01
  6
CONTINUOUS
 10
426.4970397274286
 20
-709.2671215354245
 30
0.0
  0
VERTEX
  5
20DF6
  8
01
  6
CONTINUOUS
 10
426.5232348346681
 20
-709.267184442245
 30
0.0
  0
VERTEX
  5
20DF7
  8
01
  6
CONTINUOUS
 10
426.5496637900295
 20
-709.2672439811018
 30
0.0
  0
VERTEX
  5
20DF8
  8
01
  6
CONTINUOUS
 10
426.5763156220958
 20
-709.2673002390404
 30
0.0
  0
VERTEX
  5
20DF9
  8
01
  6
CONTINUOUS
 10
426.6031793594497
 20
-709.267353303106
 30
0.0
  0
VERTEX
  5
20DFA
  8
01
  6
CONTINUOUS
 10
426.6302440306742
 20
-709.2674032603442
 30
0.0
  0
VERTEX
  5
20DFB
  8
01
  6
CONTINUOUS
 10
426.6575077077391
 20
-709.2674502781956
 30
0.0
  0
VERTEX
  5
20DFC
  8
01
  6
CONTINUOUS
 10
426.6849758500956
 20
-709.2674945324648
 30
0.0
  0
VERTEX
  5
20DFD
  8
01
  6
CONTINUOUS
 10
426.7126485675493
 20
-709.2675361227416
 30
0.0
  0
VERTEX
  5
20DFE
  8
01
  6
CONTINUOUS
 10
426.7405259699057
 20
-709.2675751486162
 30
0.0
  0
VERTEX
  5
20DFF
  8
01
  6
CONTINUOUS
 10
426.7686081669706
 20
-709.2676117096787
 30
0.0
  0
VERTEX
  5
20E00
  8
01
  6
CONTINUOUS
 10
426.7968952685495
 20
-709.2676459055189
 30
0.0
  0
VERTEX
  5
20E01
  8
01
  6
CONTINUOUS
 10
426.8253873844479
 20
-709.2676778357269
 30
0.0
  0
VERTEX
  5
20E02
  8
01
  6
CONTINUOUS
 10
426.8540846244716
 20
-709.267707599893
 30
0.0
  0
VERTEX
  5
20E03
  8
01
  6
CONTINUOUS
 10
426.882987098426
 20
-709.267735297607
 30
0.0
  0
VERTEX
  5
20E04
  8
01
  6
CONTINUOUS
 10
426.9120949161168
 20
-709.2677610284592
 30
0.0
  0
VERTEX
  5
20E05
  8
01
  6
CONTINUOUS
 10
426.9414081873496
 20
-709.2677848920393
 30
0.0
  0
VERTEX
  5
20E06
  8
01
  6
CONTINUOUS
 10
426.97092702193
 20
-709.2678069879378
 30
0.0
  0
VERTEX
  5
20E07
  8
01
  6
CONTINUOUS
 10
427.0006515296636
 20
-709.2678274157444
 30
0.0
  0
VERTEX
  5
20E08
  8
01
  6
CONTINUOUS
 10
427.030581820356
 20
-709.2678462750492
 30
0.0
  0
VERTEX
  5
20E09
  8
01
  6
CONTINUOUS
 10
427.0607180038128
 20
-709.2678636654424
 30
0.0
  0
VERTEX
  5
20E0A
  8
01
  6
CONTINUOUS
 10
427.0910524528679
 20
-709.2678796684497
 30
0.0
  0
VERTEX
  5
20E0B
  8
01
  6
CONTINUOUS
 10
427.1215699991161
 20
-709.2678943431165
 30
0.0
  0
VERTEX
  5
20E0C
  8
01
  6
CONTINUOUS
 10
427.1522594405044
 20
-709.2679077553124
 30
0.0
  0
VERTEX
  5
20E0D
  8
01
  6
CONTINUOUS
 10
427.1831095749798
 20
-709.2679199709077
 30
0.0
  0
VERTEX
  5
20E0E
  8
01
  6
CONTINUOUS
 10
427.2141092004891
 20
-709.2679310557716
 30
0.0
  0
VERTEX
  5
20E0F
  8
01
  6
CONTINUOUS
 10
427.2452471149793
 20
-709.267941075774
 30
0.0
  0
VERTEX
  5
20E10
  8
01
  6
CONTINUOUS
 10
427.2765121163974
 20
-709.2679500967851
 30
0.0
  0
VERTEX
  5
20E11
  8
01
  6
CONTINUOUS
 10
427.3078930026903
 20
-709.2679581846741
 30
0.0
  0
VERTEX
  5
20E12
  8
01
  6
CONTINUOUS
 10
427.3393785718049
 20
-709.2679654053111
 30
0.0
  0
VERTEX
  5
20E13
  8
01
  6
CONTINUOUS
 10
427.3709576216881
 20
-709.2679718245657
 30
0.0
  0
VERTEX
  5
20E14
  8
01
  6
CONTINUOUS
 10
427.402618950287
 20
-709.2679775083079
 30
0.0
  0
VERTEX
  5
20E15
  8
01
  6
CONTINUOUS
 10
427.4343513555485
 20
-709.2679825224074
 30
0.0
  0
VERTEX
  5
20E16
  8
01
  6
CONTINUOUS
 10
427.4661436354194
 20
-709.2679869327337
 30
0.0
  0
VERTEX
  5
20E17
  8
01
  6
CONTINUOUS
 10
427.4979845878467
 20
-709.267990805157
 30
0.0
  0
VERTEX
  5
20E18
  8
01
  6
CONTINUOUS
 10
427.5298630107774
 20
-709.2679942055468
 30
0.0
  0
VERTEX
  5
20E19
  8
01
  6
CONTINUOUS
 10
427.5617914316828
 20
-709.2679972027482
 30
0.0
  0
VERTEX
  5
20E1A
  8
01
  6
CONTINUOUS
 10
427.5937899768321
 20
-709.2679998371199
 30
0.0
  0
VERTEX
  5
20E1B
  8
01
  6
CONTINUOUS
 10
427.625858842369
 20
-709.2680021318015
 30
0.0
  0
VERTEX
  5
20E1C
  8
01
  6
CONTINUOUS
 10
427.6579982244373
 20
-709.2680041099325
 30
0.0
  0
VERTEX
  5
20E1D
  8
01
  6
CONTINUOUS
 10
427.6902083191808
 20
-709.2680057946527
 30
0.0
  0
VERTEX
  5
20E1E
  8
01
  6
CONTINUOUS
 10
427.722489322743
 20
-709.2680072091017
 30
0.0
  0
VERTEX
  5
20E1F
  8
01
  6
CONTINUOUS
 10
427.7548414312678
 20
-709.2680083764193
 30
0.0
  0
VERTEX
  5
20E20
  8
01
  6
CONTINUOUS
 10
427.7872648408988
 20
-709.268009319745
 30
0.0
  0
VERTEX
  5
20E21
  8
01
  6
CONTINUOUS
 10
427.8197597477799
 20
-709.2680100622187
 30
0.0
  0
VERTEX
  5
20E22
  8
01
  6
CONTINUOUS
 10
427.8523263480547
 20
-709.2680106269797
 30
0.0
  0
VERTEX
  5
20E23
  8
01
  6
CONTINUOUS
 10
427.884964837867
 20
-709.2680110371681
 30
0.0
  0
VERTEX
  5
20E24
  8
01
  6
CONTINUOUS
 10
427.9176754133604
 20
-709.2680113159233
 30
0.0
  0
VERTEX
  5
20E25
  8
01
  6
CONTINUOUS
 10
427.9504582706788
 20
-709.2680114863851
 30
0.0
  0
VERTEX
  5
20E26
  8
01
  6
CONTINUOUS
 10
427.9833136059658
 20
-709.268011571693
 30
0.0
  0
VERTEX
  5
20E27
  8
01
  6
CONTINUOUS
 10
428.0162416153652
 20
-709.2680115949869
 30
0.0
  0
SEQEND
  5
21249
  8
01
  6
CONTINUOUS
  0
ARC
  5
1FF56
  8
01
 10
425.5162139096461
 20
-709.7491472599713
 30
0.0
 40
0.4999722950488845
 50
89.99682498256064
 51
179.9968246305953
  0
LINE
  5
1FF57
  8
1DIM
 10
428.0162416153652
 20
-709.7680115823289
 30
0.0
 11
428.0162416153652
 21
-709.2680115949869
 31
0.0
  0
LINE
  5
1FF58
  8
01
  6
CONTINUOUS
 10
500.0162416153649
 20
-709.2680115949869
 30
0.0
 11
428.0162416153652
 21
-709.2680115949869
 31
0.0
  0
LINE
  5
1FF59
  8
1DIM
 10
428.0162416153652
 20
-709.7680115823289
 30
0.0
 11
500.0162416153649
 21
-709.7680115823289
 31
0.0
  0
LINE
  5
1FF5A
  8
1DIM
 10
500.0162416153649
 20
-723.2673891129191
 30
0.0
 11
428.0162416153652
 21
-723.2673891129191
 31
0.0
  0
LINE
  5
1FF5B
  8
1DIM
 10
428.0162416153652
 20
-724.2673891129191
 30
0.0
 11
428.0162416153652
 21
-723.2673891129191
 31
0.0
  0
LINE
  5
1FF5C
  8
01
  6
CONTINUOUS
 10
428.0162416153652
 20
-724.2673891129191
 30
0.0
 11
500.0162416153649
 21
-724.2673891129191
 31
0.0
  0
ARC
  5
1FF5D
  8
01
  6
CONTINUOUS
 10
426.0162416153652
 20
-723.2673891129191
 30
0.0
 40
1.0
 50
180.0
 51
270.0
  0
LINE
  5
1FF5E
  8
01
  6
CONTINUOUS
 10
428.0162416153652
 20
-724.2673891129191
 30
0.0
 11
426.0162416153652
 21
-724.2673891129191
 31
0.0
  0
LINE
  5
1FF5F
  8
01
  6
CONTINUOUS
 10
425.5162416153652
 20
-701.2673891129191
 30
0.0
 11
500.0162416153649
 21
-701.2673891129191
 31
0.0
  0
LINE
  5
1FF60
  8
1DIM
 10
425.5162416153652
 20
-701.2673891129191
 30
0.0
 11
425.5162416153652
 21
-709.2491749656901
 31
0.0
  0
LINE
  5
1FF61
  8
1DIM
 10
432.0162416153652
 20
-709.0559615917149
 30
0.0
 11
432.0162416153652
 21
-705.5561786025536
 31
0.0
  0
POLYLINE
  5
1FF62
  8
1DIM
 66
     1
 10
0.0
 20
0.0
 30
0.0
  0
VERTEX
  5
20E28
  8
1DIM
 10
432.0162416153652
 20
-705.5561786025536
 30
0.0
  0
VERTEX
  5
20E29
  8
1DIM
 10
432.0165024531094
 20
-705.5442990135385
 30
0.0
  0
VERTEX
  5
20E2A
  8
1DIM
 10
432.0172842366256
 20
-705.5324192527902
 30
0.0
  0
VERTEX
  5
20E2B
  8
1DIM
 10
432.0185858713391
 20
-705.5205393654396
 30
0.0
  0
VERTEX
  5
20E2C
  8
1DIM
 10
432.0204062626753
 20
-705.5086593966186
 30
0.0
  0
VERTEX
  5
20E2D
  8
1DIM
 10
432.0227443160596
 20
-705.4967793914589
 30
0.0
  0
VERTEX
  5
20E2E
  8
1DIM
 10
432.0255989369172
 20
-705.4848993950916
 30
0.0
  0
VERTEX
  5
20E2F
  8
1DIM
 10
432.0289690306736
 20
-705.4730194526487
 30
0.0
  0
VERTEX
  5
20E30
  8
1DIM
 10
432.0328535027541
 20
-705.4611396092614
 30
0.0
  0
VERTEX
  5
20E31
  8
1DIM
 10
432.037251258584
 20
-705.4492599100615
 30
0.0
  0
VERTEX
  5
20E32
  8
1DIM
 10
432.0421612035887
 20
-705.4373804001805
 30
0.0
  0
VERTEX
  5
20E33
  8
1DIM
 10
432.0475822431935
 20
-705.42550112475
 30
0.0
  0
VERTEX
  5
20E34
  8
1DIM
 10
432.0535132828238
 20
-705.4136221289014
 30
0.0
  0
VERTEX
  5
20E35
  8
1DIM
 10
432.0599532279049
 20
-705.4017434577662
 30
0.0
  0
VERTEX
  5
20E36
  8
1DIM
 10
432.0669009838623
 20
-705.3898651564762
 30
0.0
  0
VERTEX
  5
20E37
  8
1DIM
 10
432.0743554561212
 20
-705.3779872701629
 30
0.0
  0
VERTEX
  5
20E38
  8
1DIM
 10
432.0823155501069
 20
-705.3661098439577
 30
0.0
  0
VERTEX
  5
20E39
  8
1DIM
 10
432.0907801712449
 20
-705.3542329229921
 30
0.0
  0
VERTEX
  5
20E3A
  8
1DIM
 10
432.0997482249604
 20
-705.342356552398
 30
0.0
  0
VERTEX
  5
20E3B
  8
1DIM
 10
432.1092186166789
 20
-705.3304807773067
 30
0.0
  0
VERTEX
  5
20E3C
  8
1DIM
 10
432.1191902518257
 20
-705.3186056428498
 30
0.0
  0
VERTEX
  5
20E3D
  8
1DIM
 10
432.1296620358261
 20
-705.3067311941588
 30
0.0
  0
VERTEX
  5
20E3E
  8
1DIM
 10
432.140635070354
 20
-705.2948575491454
 30
0.0
  0
VERTEX
  5
20E3F
  8
1DIM
 10
432.1521118485034
 20
-705.2829848748208
 30
0.0
  0
VERTEX
  5
20E40
  8
1DIM
 10
432.1640933628298
 20
-705.2711132899667
 30
0.0
  0
VERTEX
  5
20E41
  8
1DIM
 10
432.1765806058887
 20
-705.2592429133641
 30
0.0
  0
VERTEX
  5
20E42
  8
1DIM
 10
432.1895745702357
 20
-705.2473738637946
 30
0.0
  0
VERTEX
  5
20E43
  8
1DIM
 10
432.2030762484262
 20
-705.2355062600392
 30
0.0
  0
VERTEX
  5
20E44
  8
1DIM
 10
432.2170866330159
 20
-705.2236402208795
 30
0.0
  0
VERTEX
  5
20E45
  8
1DIM
 10
432.2316067165602
 20
-705.2117758650968
 30
0.0
  0
VERTEX
  5
20E46
  8
1DIM
 10
432.2466374916147
 20
-705.1999133114724
 30
0.0
  0
VERTEX
  5
20E47
  8
1DIM
 10
432.2621799507349
 20
-705.1880526787877
 30
0.0
  0
VERTEX
  5
20E48
  8
1DIM
 10
432.2782377098537
 20
-705.1761929043433
 30
0.0
  0
VERTEX
  5
20E49
  8
1DIM
 10
432.2948240826966
 20
-705.1643290030738
 30
0.0
  0
VERTEX
  5
20E4A
  8
1DIM
 10
432.3119339475095
 20
-705.1524649851531
 30
0.0
  0
VERTEX
  5
20E4B
  8
1DIM
 10
432.3295591792619
 20
-705.1406062627951
 30
0.0
  0
VERTEX
  5
20E4C
  8
1DIM
 10
432.3476916529228
 20
-705.1287582482139
 30
0.0
  0
VERTEX
  5
20E4D
  8
1DIM
 10
432.3663232434617
 20
-705.1169263536236
 30
0.0
  0
VERTEX
  5
20E4E
  8
1DIM
 10
432.3854458258477
 20
-705.1051159912382
 30
0.0
  0
VERTEX
  5
20E4F
  8
1DIM
 10
432.4050512750501
 20
-705.0933325732718
 30
0.0
  0
VERTEX
  5
20E50
  8
1DIM
 10
432.4251314660381
 20
-705.0815815119385
 30
0.0
  0
VERTEX
  5
20E51
  8
1DIM
 10
432.4456782737811
 20
-705.0698682194522
 30
0.0
  0
VERTEX
  5
20E52
  8
1DIM
 10
432.4666835732482
 20
-705.0581981080271
 30
0.0
  0
VERTEX
  5
20E53
  8
1DIM
 10
432.4881420306143
 20
-705.0465714481714
 30
0.0
  0
VERTEX
  5
20E54
  8
1DIM
 10
432.510053585542
 20
-705.0349850285501
 30
0.0
  0
VERTEX
  5
20E55
  8
1DIM
 10
432.5324180232326
 20
-705.023439038612
 30
0.0
  0
VERTEX
  5
20E56
  8
1DIM
 10
432.555235128887
 20
-705.011933667806
 30
0.0
  0
VERTEX
  5
20E57
  8
1DIM
 10
432.5785046877066
 20
-705.0004691055813
 30
0.0
  0
VERTEX
  5
20E58
  8
1DIM
 10
432.6022264848924
 20
-704.9890455413868
 30
0.0
  0
VERTEX
  5
20E59
  8
1DIM
 10
432.6264003056454
 20
-704.9776631646714
 30
0.0
  0
VERTEX
  5
20E5A
  8
1DIM
 10
432.651025935167
 20
-704.9663221648841
 30
0.0
  0
VERTEX
  5
20E5B
  8
1DIM
 10
432.6761031586582
 20
-704.9550227314738
 30
0.0
  0
VERTEX
  5
20E5C
  8
1DIM
 10
432.7016317613202
 20
-704.9437650538896
 30
0.0
  0
VERTEX
  5
20E5D
  8
1DIM
 10
432.7276115283541
 20
-704.9325493215803
 30
0.0
  0
VERTEX
  5
20E5E
  8
1DIM
 10
432.754042244961
 20
-704.9213757239949
 30
0.0
  0
VERTEX
  5
20E5F
  8
1DIM
 10
432.7809236963421
 20
-704.9102444505824
 30
0.0
  0
VERTEX
  5
20E60
  8
1DIM
 10
432.8082556676985
 20
-704.8991556907918
 30
0.0
  0
VERTEX
  5
20E61
  8
1DIM
 10
432.8360379442313
 20
-704.8881096340718
 30
0.0
  0
VERTEX
  5
20E62
  8
1DIM
 10
432.8642703111418
 20
-704.8771064698717
 30
0.0
  0
VERTEX
  5
20E63
  8
1DIM
 10
432.8929525536309
 20
-704.8661463876404
 30
0.0
  0
VERTEX
  5
20E64
  8
1DIM
 10
432.9220844568999
 20
-704.8552295768267
 30
0.0
  0
VERTEX
  5
20E65
  8
1DIM
 10
432.95166580615
 20
-704.8443562268797
 30
0.0
  0
VERTEX
  5
20E66
  8
1DIM
 10
432.9816963865821
 20
-704.8335265272483
 30
0.0
  0
VERTEX
  5
20E67
  8
1DIM
 10
433.0121759833976
 20
-704.8227406673815
 30
0.0
  0
VERTEX
  5
20E68
  8
1DIM
 10
433.0431244118154
 20
-704.8119951909737
 30
0.0
  0
VERTEX
  5
20E69
  8
1DIM
 10
433.0745565020917
 20
-704.8012882475905
 30
0.0
  0
VERTEX
  5
20E6A
  8
1DIM
 10
433.1064645619833
 20
-704.7906224354879
 30
0.0
  0
VERTEX
  5
20E6B
  8
1DIM
 10
433.1388408992469
 20
-704.780000352921
 30
0.0
  0
VERTEX
  5
20E6C
  8
1DIM
 10
433.1716778216394
 20
-704.769424598146
 30
0.0
  0
VERTEX
  5
20E6D
  8
1DIM
 10
433.2049676369176
 20
-704.7588977694182
 30
0.0
  0
VERTEX
  5
20E6E
  8
1DIM
 10
433.2387026528382
 20
-704.7484224649936
 30
0.0
  0
VERTEX
  5
20E6F
  8
1DIM
 10
433.2728751771581
 20
-704.7380012831276
 30
0.0
  0
VERTEX
  5
20E70
  8
1DIM
 10
433.3074775176339
 20
-704.727636822076
 30
0.0
  0
VERTEX
  5
20E71
  8
1DIM
 10
433.3425019820226
 20
-704.7173316800945
 30
0.0
  0
VERTEX
  5
20E72
  8
1DIM
 10
433.3779408780809
 20
-704.7070884554387
 30
0.0
  0
VERTEX
  5
20E73
  8
1DIM
 10
433.4137865135656
 20
-704.6969097463643
 30
0.0
  0
VERTEX
  5
20E74
  8
1DIM
 10
433.4500311962336
 20
-704.686798151127
 30
0.0
  0
VERTEX
  5
20E75
  8
1DIM
 10
433.4866672338414
 20
-704.6767562679826
 30
0.0
  0
VERTEX
  5
20E76
  8
1DIM
 10
433.523686934146
 20
-704.6667866951866
 30
0.0
  0
VERTEX
  5
20E77
  8
1DIM
 10
433.5610826049042
 20
-704.6568920309945
 30
0.0
  0
VERTEX
  5
20E78
  8
1DIM
 10
433.5988465538728
 20
-704.6470748736624
 30
0.0
  0
VERTEX
  5
20E79
  8
1DIM
 10
433.6369710888084
 20
-704.6373378214457
 30
0.0
  0
VERTEX
  5
20E7A
  8
1DIM
 10
433.6754485174679
 20
-704.6276834726002
 30
0.0
  0
VERTEX
  5
20E7B
  8
1DIM
 10
433.7142711476083
 20
-704.6181144253815
 30
0.0
  0
VERTEX
  5
20E7C
  8
1DIM
 10
433.753431286986
 20
-704.6086332780452
 30
0.0
  0
VERTEX
  5
20E7D
  8
1DIM
 10
433.7929293042607
 20
-704.5992379271203
 30
0.0
  0
VERTEX
  5
20E7E
  8
1DIM
 10
433.832770947818
 20
-704.5899247697132
 30
0.0
  0
VERTEX
  5
20E7F
  8
1DIM
 10
433.8729565950043
 20
-704.5806941549461
 30
0.0
  0
VERTEX
  5
20E80
  8
1DIM
 10
433.9134866231663
 20
-704.5715464319417
 30
0.0
  0
VERTEX
  5
20E81
  8
1DIM
 10
433.9543614096501
 20
-704.5624819498219
 30
0.0
  0
VERTEX
  5
20E82
  8
1DIM
 10
433.9955813318023
 20
-704.5535010577091
 30
0.0
  0
VERTEX
  5
20E83
  8
1DIM
 10
434.0371467669693
 20
-704.5446041047259
 30
0.0
  0
VERTEX
  5
20E84
  8
1DIM
 10
434.0790580924976
 20
-704.5357914399943
 30
0.0
  0
VERTEX
  5
20E85
  8
1DIM
 10
434.1213156857336
 20
-704.5270634126367
 30
0.0
  0
VERTEX
  5
20E86
  8
1DIM
 10
434.1639199240237
 20
-704.5184203717755
 30
0.0
  0
VERTEX
  5
20E87
  8
1DIM
 10
434.2068711847144
 20
-704.5098626665329
 30
0.0
  0
VERTEX
  5
20E88
  8
1DIM
 10
434.2501698451521
 20
-704.5013906460313
 30
0.0
  0
VERTEX
  5
20E89
  8
1DIM
 10
434.2938162826833
 20
-704.4930046593929
 30
0.0
  0
VERTEX
  5
20E8A
  8
1DIM
 10
434.3378108746543
 20
-704.4847050557403
 30
0.0
  0
VERTEX
  5
20E8B
  8
1DIM
 10
434.3821539984117
 20
-704.4764921841954
 30
0.0
  0
VERTEX
  5
20E8C
  8
1DIM
 10
434.4268460313019
 20
-704.4683663938807
 30
0.0
  0
VERTEX
  5
20E8D
  8
1DIM
 10
434.4718873506712
 20
-704.4603280339187
 30
0.0
  0
VERTEX
  5
20E8E
  8
1DIM
 10
434.5172783338662
 20
-704.4523774534315
 30
0.0
  0
VERTEX
  5
20E8F
  8
1DIM
 10
434.5630193582333
 20
-704.4445150015413
 30
0.0
  0
VERTEX
  5
20E90
  8
1DIM
 10
434.6091108011188
 20
-704.4367410273708
 30
0.0
  0
VERTEX
  5
20E91
  8
1DIM
 10
434.6555530398693
 20
-704.429055880042
 30
0.0
  0
VERTEX
  5
20E92
  8
1DIM
 10
434.7023716571701
 20
-704.4214574975064
 30
0.0
  0
VERTEX
  5
20E93
  8
1DIM
 10
434.7495776520855
 20
-704.4139459918147
 30
0.0
  0
VERTEX
  5
20E94
  8
1DIM
 10
434.7971495265307
 20
-704.4065249732386
 30
0.0
  0
VERTEX
  5
20E95
  8
1DIM
 10
434.8450657824212
 20
-704.3991980520495
 30
0.0
  0
VERTEX
  5
20E96
  8
1DIM
 10
434.8933049216719
 20
-704.3919688385192
 30
0.0
  0
VERTEX
  5
20E97
  8
1DIM
 10
434.9418454461984
 20
-704.3848409429189
 30
0.0
  0
VERTEX
  5
20E98
  8
1DIM
 10
434.9906658579159
 20
-704.3778179755203
 30
0.0
  0
VERTEX
  5
20E99
  8
1DIM
 10
435.0397446587396
 20
-704.370903546595
 30
0.0
  0
VERTEX
  5
20E9A
  8
1DIM
 10
435.0890603505846
 20
-704.3641012664142
 30
0.0
  0
VERTEX
  5
20E9B
  8
1DIM
 10
435.1385914353664
 20
-704.3574147452497
 30
0.0
  0
VERTEX
  5
20E9C
  8
1DIM
 10
435.1883187836385
 20
-704.350846968623
 30
0.0
  0
VERTEX
  5
20E9D
  8
1DIM
 10
435.2382430409678
 20
-704.3443964452523
 30
0.0
  0
VERTEX
  5
20E9E
  8
1DIM
 10
435.2883653481168
 20
-704.3380627028556
 30
0.0
  0
VERTEX
  5
20E9F
  8
1DIM
 10
435.3386853585237
 20
-704.3318457435614
 30
0.0
  0
VERTEX
  5
20EA0
  8
1DIM
 10
435.389202725626
 20
-704.3257455694983
 30
0.0
  0
VERTEX
  5
20EA1
  8
1DIM
 10
435.4399171028618
 20
-704.3197621827948
 30
0.0
  0
VERTEX
  5
20EA2
  8
1DIM
 10
435.4908281436688
 20
-704.3138955855798
 30
0.0
  0
VERTEX
  5
20EA3
  8
1DIM
 10
435.5419355014849
 20
-704.3081457799814
 30
0.0
  0
VERTEX
  5
20EA4
  8
1DIM
 10
435.5932388297479
 20
-704.3025127681285
 30
0.0
  0
VERTEX
  5
20EA5
  8
1DIM
 10
435.6447377818956
 20
-704.2969965521497
 30
0.0
  0
VERTEX
  5
20EA6
  8
1DIM
 10
435.6964320113659
 20
-704.2915971341735
 30
0.0
  0
VERTEX
  5
20EA7
  8
1DIM
 10
435.7483205691114
 20
-704.2863141844443
 30
0.0
  0
VERTEX
  5
20EA8
  8
1DIM
 10
435.8004030575294
 20
-704.2811476673594
 30
0.0
  0
VERTEX
  5
20EA9
  8
1DIM
 10
435.852679957225
 20
-704.2760980262772
 30
0.0
  0
VERTEX
  5
20EAA
  8
1DIM
 10
435.9051517488034
 20
-704.2711657045555
 30
0.0
  0
VERTEX
  5
20EAB
  8
1DIM
 10
435.9578189128697
 20
-704.2663511455528
 30
0.0
  0
VERTEX
  5
20EAC
  8
1DIM
 10
436.0106819300289
 20
-704.261654792627
 30
0.0
  0
VERTEX
  5
20EAD
  8
1DIM
 10
436.0637412808862
 20
-704.2570770891363
 30
0.0
  0
VERTEX
  5
20EAE
  8
1DIM
 10
436.1169974460468
 20
-704.2526184784388
 30
0.0
  0
VERTEX
  5
20EAF
  8
1DIM
 10
436.1704509061156
 20
-704.2482794038925
 30
0.0
  0
VERTEX
  5
20EB0
  8
1DIM
 10
436.2241021416979
 20
-704.244060308856
 30
0.0
  0
VERTEX
  5
20EB1
  8
1DIM
 10
436.2779516333987
 20
-704.2399616366869
 30
0.0
  0
VERTEX
  5
20EB2
  8
1DIM
 10
436.3319998618232
 20
-704.2359838307437
 30
0.0
  0
VERTEX
  5
20EB3
  8
1DIM
 10
436.3862473075765
 20
-704.2321273343842
 30
0.0
  0
VERTEX
  5
20EB4
  8
1DIM
 10
436.4406944512637
 20
-704.2283925909669
 30
0.0
  0
VERTEX
  5
20EB5
  8
1DIM
 10
436.4953417734898
 20
-704.2247800438498
 30
0.0
  0
VERTEX
  5
20EB6
  8
1DIM
 10
436.55018975486
 20
-704.2212901363911
 30
0.0
  0
VERTEX
  5
20EB7
  8
1DIM
 10
436.6052388759795
 20
-704.2179233119487
 30
0.0
  0
VERTEX
  5
20EB8
  8
1DIM
 10
436.6604896174533
 20
-704.2146800138809
 30
0.0
  0
VERTEX
  5
20EB9
  8
1DIM
 10
436.7159424598865
 20
-704.2115606855458
 30
0.0
  0
VERTEX
  5
20EBA
  8
1DIM
 10
436.7715978838844
 20
-704.2085657703016
 30
0.0
  0
VERTEX
  5
20EBB
  8
1DIM
 10
436.8274563700519
 20
-704.2056957115063
 30
0.0
  0
VERTEX
  5
20EBC
  8
1DIM
 10
436.8834504114561
 20
-704.2029544926851
 30
0.0
  0
VERTEX
  5
20EBD
  8
1DIM
 10
436.9395115855298
 20
-704.2003458779698
 30
0.0
  0
VERTEX
  5
20EBE
  8
1DIM
 10
436.9956389994276
 20
-704.1978699816285
 30
0.0
  0
VERTEX
  5
20EBF
  8
1DIM
 10
437.0518317603035
 20
-704.1955269179302
 30
0.0
  0
VERTEX
  5
20EC0
  8
1DIM
 10
437.108088975312
 20
-704.1933168011432
 30
0.0
  0
VERTEX
  5
20EC1
  8
1DIM
 10
437.1644097516073
 20
-704.1912397455358
 30
0.0
  0
VERTEX
  5
20EC2
  8
1DIM
 10
437.2207931963437
 20
-704.1892958653767
 30
0.0
  0
VERTEX
  5
20EC3
  8
1DIM
 10
437.2772384166754
 20
-704.1874852749344
 30
0.0
  0
VERTEX
  5
20EC4
  8
1DIM
 10
437.3337445197568
 20
-704.1858080884772
 30
0.0
  0
VERTEX
  5
20EC5
  8
1DIM
 10
437.3903106127421
 20
-704.1842644202737
 30
0.0
  0
VERTEX
  5
20EC6
  8
1DIM
 10
437.4469358027856
 20
-704.1828543845924
 30
0.0
  0
VERTEX
  5
20EC7
  8
1DIM
 10
437.5036191970416
 20
-704.1815780957019
 30
0.0
  0
VERTEX
  5
20EC8
  8
1DIM
 10
437.5603599026645
 20
-704.1804356678703
 30
0.0
  0
VERTEX
  5
20EC9
  8
1DIM
 10
437.6171570268083
 20
-704.1794272153663
 30
0.0
  0
VERTEX
  5
20ECA
  8
1DIM
 10
437.6740096766275
 20
-704.1785528524587
 30
0.0
  0
VERTEX
  5
20ECB
  8
1DIM
 10
437.7309169592764
 20
-704.1778126934155
 30
0.0
  0
VERTEX
  5
20ECC
  8
1DIM
 10
437.7878779819092
 20
-704.1772068525054
 30
0.0
  0
VERTEX
  5
20ECD
  8
1DIM
 10
437.8448918516802
 20
-704.1767354439967
 30
0.0
  0
VERTEX
  5
20ECE
  8
1DIM
 10
437.9019576757436
 20
-704.1763985821582
 30
0.0
  0
VERTEX
  5
20ECF
  8
1DIM
 10
437.9590745612538
 20
-704.1761963812581
 30
0.0
  0
VERTEX
  5
20ED0
  8
1DIM
 10
438.0162416153652
 20
-704.1761289555652
 30
0.0
  0
SEQEND
  5
2124A
  8
1DIM
  0
LINE
  5
1FF63
  8
1DIM
 10
500.0162416153649
 20
-704.1761289555652
 30
0.0
 11
438.0162416153652
 21
-704.1761289555652
 31
0.0
  0
LINE
  5
1FF64
  8
1DIM
 10
436.0162416153652
 20
-709.2081331032672
 30
0.0
 11
500.0162416153649
 21
-709.2081331032672
 31
0.0
  0
POLYLINE
  5
1FF65
  8
1DIM
 66
     1
 10
0.0
 20
0.0
 30
0.0
  0
VERTEX
  5
20ED1
  8
1DIM
 10
436.0162416153652
 20
-709.2081331032672
 30
0.0
  0
VERTEX
  5
20ED2
  8
1DIM
 10
435.9698006018928
 20
-709.2081260989945
 30
0.0
  0
VERTEX
  5
20ED3
  8
1DIM
 10
435.9234494538155
 20
-709.208105081064
 30
0.0
  0
VERTEX
  5
20ED4
  8
1DIM
 10
435.8771879599985
 20
-709.2080700418069
 30
0.0
  0
VERTEX
  5
20ED5
  8
1DIM
 10
435.8310159093073
 20
-709.2080209735547
 30
0.0
  0
VERTEX
  5
20ED6
  8
1DIM
 10
435.7849330906074
 20
-709.2079578686385
 30
0.0
  0
VERTEX
  5
20ED7
  8
1DIM
 10
435.7389392927642
 20
-709.2078807193894
 30
0.0
  0
VERTEX
  5
20ED8
  8
1DIM
 10
435.6930343046431
 20
-709.207789518139
 30
0.0
  0
VERTEX
  5
20ED9
  8
1DIM
 10
435.6472179151096
 20
-709.2076842572184
 30
0.0
  0
VERTEX
  5
20EDA
  8
1DIM
 10
435.601489913029
 20
-709.207564928959
 30
0.0
  0
VERTEX
  5
20EDB
  8
1DIM
 10
435.5558500872669
 20
-709.2074315256921
 30
0.0
  0
VERTEX
  5
20EDC
  8
1DIM
 10
435.5102982266887
 20
-709.2072840397486
 30
0.0
  0
VERTEX
  5
20EDD
  8
1DIM
 10
435.4648341201598
 20
-709.2071224634603
 30
0.0
  0
VERTEX
  5
20EDE
  8
1DIM
 10
435.4194575565457
 20
-709.2069467891583
 30
0.0
  0
VERTEX
  5
20EDF
  8
1DIM
 10
435.3741683247118
 20
-709.2067570091738
 30
0.0
  0
VERTEX
  5
20EE0
  8
1DIM
 10
435.3289662135235
 20
-709.2065531158381
 30
0.0
  0
VERTEX
  5
20EE1
  8
1DIM
 10
435.2838510118462
 20
-709.2063351014825
 30
0.0
  0
VERTEX
  5
20EE2
  8
1DIM
 10
435.2388225085455
 20
-709.2061029584384
 30
0.0
  0
VERTEX
  5
20EE3
  8
1DIM
 10
435.193855545089
 20
-709.2058563295042
 30
0.0
  0
VERTEX
  5
20EE4
  8
1DIM
 10
435.1489332499978
 20
-709.20559483874
 30
0.0
  0
VERTEX
  5
20EE5
  8
1DIM
 10
435.1040678427173
 20
-709.2053184503693
 30
0.0
  0
VERTEX
  5
20EE6
  8
1DIM
 10
435.0592715426929
 20
-709.2050271286149
 30
0.0
  0
VERTEX
  5
20EE7
  8
1DIM
 10
435.0145565693699
 20
-709.2047208377006
 30
0.0
  0
VERTEX
  5
20EE8
  8
1DIM
 10
434.9699351421935
 20
-709.2043995418493
 30
0.0
  0
VERTEX
  5
20EE9
  8
1DIM
 10
434.9254194806093
 20
-709.2040632052842
 30
0.0
  0
VERTEX
  5
20EEA
  8
1DIM
 10
434.8810218040626
 20
-709.2037117922288
 30
0.0
  0
VERTEX
  5
20EEB
  8
1DIM
 10
434.8367543319987
 20
-709.2033452669061
 30
0.0
  0
VERTEX
  5
20EEC
  8
1DIM
 10
434.792629283863
 20
-709.2029635935396
 30
0.0
  0
VERTEX
  5
20EED
  8
1DIM
 10
434.7486588791009
 20
-709.2025667363524
 30
0.0
  0
VERTEX
  5
20EEE
  8
1DIM
 10
434.7048553371576
 20
-709.2021546595679
 30
0.0
  0
VERTEX
  5
20EEF
  8
1DIM
 10
434.6612308774787
 20
-709.2017273274091
 30
0.0
  0
VERTEX
  5
20EF0
  8
1DIM
 10
434.6177977195093
 20
-709.2012847040995
 30
0.0
  0
VERTEX
  5
20EF1
  8
1DIM
 10
434.574568082695
 20
-709.2008267538623
 30
0.0
  0
VERTEX
  5
20EF2
  8
1DIM
 10
434.5315541864811
 20
-709.2003534409207
 30
0.0
  0
VERTEX
  5
20EF3
  8
1DIM
 10
434.4887682503128
 20
-709.1998647294979
 30
0.0
  0
VERTEX
  5
20EF4
  8
1DIM
 10
434.4462279300307
 20
-709.1993608628519
 30
0.0
  0
VERTEX
  5
20EF5
  8
1DIM
 10
434.4039426671662
 20
-709.1988419952351
 30
0.0
  0
VERTEX
  5
20EF6
  8
1DIM
 10
434.3619123597015
 20
-709.1983079573627
 30
0.0
  0
VERTEX
  5
20EF7
  8
1DIM
 10
434.3201369056185
 20
-709.1977585799501
 30
0.0
  0
VERTEX
  5
20EF8
  8
1DIM
 10
434.2786162028993
 20
-709.1971936937125
 30
0.0
  0
VERTEX
  5
20EF9
  8
1DIM
 10
434.2373501495259
 20
-709.1966131293651
 30
0.0
  0
VERTEX
  5
20EFA
  8
1DIM
 10
434.1963386434803
 20
-709.1960167176235
 30
0.0
  0
VERTEX
  5
20EFB
  8
1DIM
 10
434.1555815827446
 20
-709.1954042892025
 30
0.0
  0
VERTEX
  5
20EFC
  8
1DIM
 10
434.1150788653007
 20
-709.1947756748178
 30
0.0
  0
VERTEX
  5
20EFD
  8
1DIM
 10
434.0748303891307
 20
-709.1941307051845
 30
0.0
  0
VERTEX
  5
20EFE
  8
1DIM
 10
434.0348360522167
 20
-709.1934692110177
 30
0.0
  0
VERTEX
  5
20EFF
  8
1DIM
 10
433.9950957525407
 20
-709.1927910230331
 30
0.0
  0
VERTEX
  5
20F00
  8
1DIM
 10
433.9556093880847
 20
-709.1920959719455
 30
0.0
  0
VERTEX
  5
20F01
  8
1DIM
 10
433.9163768568307
 20
-709.1913838884705
 30
0.0
  0
VERTEX
  5
20F02
  8
1DIM
 10
433.8773980567607
 20
-709.1906546033232
 30
0.0
  0
VERTEX
  5
20F03
  8
1DIM
 10
433.8386728858568
 20
-709.189907947219
 30
0.0
  0
VERTEX
  5
20F04
  8
1DIM
 10
433.800201242101
 20
-709.1891437508731
 30
0.0
  0
VERTEX
  5
20F05
  8
1DIM
 10
433.7619759545331
 20
-709.1883613072097
 30
0.0
  0
VERTEX
  5
20F06
  8
1DIM
 10
433.723997975831
 20
-709.1875600927351
 30
0.0
  0
VERTEX
  5
20F07
  8
1DIM
 10
433.6862793894335
 20
-709.1867402135382
 30
0.0
  0
VERTEX
  5
20F08
  8
1DIM
 10
433.6488322787799
 20
-709.1859017757079
 30
0.0
  0
VERTEX
  5
20F09
  8
1DIM
 10
433.6116687273093
 20
-709.1850448853327
 30
0.0
  0
VERTEX
  5
20F0A
  8
1DIM
 10
433.5748008184605
 20
-709.1841696485017
 30
0.0
  0
VERTEX
  5
20F0B
  8
1DIM
 10
433.5382406356729
 20
-709.1832761713033
 30
0.0
  0
VERTEX
  5
20F0C
  8
1DIM
 10
433.5020002623853
 20
-709.1823645598264
 30
0.0
  0
VERTEX
  5
20F0D
  8
1DIM
 10
433.4660917820369
 20
-709.18143492016
 30
0.0
  0
VERTEX
  5
20F0E
  8
1DIM
 10
433.4305272780667
 20
-709.1804873583926
 30
0.0
  0
VERTEX
  5
20F0F
  8
1DIM
 10
433.3953188339138
 20
-709.1795219806131
 30
0.0
  0
VERTEX
  5
20F10
  8
1DIM
 10
433.3604785330173
 20
-709.1785388929104
 30
0.0
  0
VERTEX
  5
20F11
  8
1DIM
 10
433.3260184588162
 20
-709.1775382013731
 30
0.0
  0
VERTEX
  5
20F12
  8
1DIM
 10
433.2919506947497
 20
-709.1765200120898
 30
0.0
  0
VERTEX
  5
20F13
  8
1DIM
 10
433.2582873242566
 20
-709.1754844311496
 30
0.0
  0
VERTEX
  5
20F14
  8
1DIM
 10
433.2250404307762
 20
-709.1744315646412
 30
0.0
  0
VERTEX
  5
20F15
  8
1DIM
 10
433.1922220977476
 20
-709.1733615186532
 30
0.0
  0
VERTEX
  5
20F16
  8
1DIM
 10
433.1598174561741
 20
-709.1722740031615
 30
0.0
  0
VERTEX
  5
20F17
  8
1DIM
 10
433.1278039825601
 20
-709.1711684976128
 30
0.0
  0
VERTEX
  5
20F18
  8
1DIM
 10
433.0961822785961
 20
-709.1700447623012
 30
0.0
  0
VERTEX
  5
20F19
  8
1DIM
 10
433.0649529459728
 20
-709.1689025575212
 30
0.0
  0
VERTEX
  5
20F1A
  8
1DIM
 10
433.0341165863805
 20
-709.1677416435668
 30
0.0
  0
VERTEX
  5
20F1B
  8
1DIM
 10
433.0036738015099
 20
-709.1665617807326
 30
0.0
  0
VERTEX
  5
20F1C
  8
1DIM
 10
432.9736251930515
 20
-709.165362729313
 30
0.0
  0
VERTEX
  5
20F1D
  8
1DIM
 10
432.9439713626957
 20
-709.1641442496021
 30
0.0
  0
VERTEX
  5
20F1E
  8
1DIM
 10
432.9147129121332
 20
-709.1629061018946
 30
0.0
  0
VERTEX
  5
20F1F
  8
1DIM
 10
432.8858504430545
 20
-709.1616480464845
 30
0.0
  0
VERTEX
  5
20F20
  8
1DIM
 10
432.85738455715
 20
-709.1603698436666
 30
0.0
  0
VERTEX
  5
20F21
  8
1DIM
 10
432.8293158561103
 20
-709.1590712537346
 30
0.0
  0
VERTEX
  5
20F22
  8
1DIM
 10
432.801644941626
 20
-709.1577520369834
 30
0.0
  0
VERTEX
  5
20F23
  8
1DIM
 10
432.7743724153875
 20
-709.1564119537072
 30
0.0
  0
VERTEX
  5
20F24
  8
1DIM
 10
432.7474988790854
 20
-709.1550507642003
 30
0.0
  0
VERTEX
  5
20F25
  8
1DIM
 10
432.7210249344103
 20
-709.1536682287572
 30
0.0
  0
VERTEX
  5
20F26
  8
1DIM
 10
432.6949511830526
 20
-709.1522641076718
 30
0.0
  0
VERTEX
  5
20F27
  8
1DIM
 10
432.6693047630409
 20
-709.1508392231019
 30
0.0
  0
VERTEX
  5
20F28
  8
1DIM
 10
432.6441146652247
 20
-709.1493946542121
 30
0.0
  0
VERTEX
  5
20F29
  8
1DIM
 10
432.6193842705251
 20
-709.1479305468082
 30
0.0
  0
VERTEX
  5
20F2A
  8
1DIM
 10
432.595116959864
 20
-709.146447046696
 30
0.0
  0
VERTEX
  5
20F2B
  8
1DIM
 10
432.5713161141626
 20
-709.1449442996812
 30
0.0
  0
VERTEX
  5
20F2C
  8
1DIM
 10
432.5479851143425
 20
-709.1434224515697
 30
0.0
  0
VERTEX
  5
20F2D
  8
1DIM
 10
432.525127341325
 20
-709.1418816481672
 30
0.0
  0
VERTEX
  5
20F2E
  8
1DIM
 10
432.5027461760318
 20
-709.1403220352795
 30
0.0
  0
VERTEX
  5
20F2F
  8
1DIM
 10
432.4808449993843
 20
-709.1387437587123
 30
0.0
  0
VERTEX
  5
20F30
  8
1DIM
 10
432.4594271923039
 20
-709.1371469642716
 30
0.0
  0
VERTEX
  5
20F31
  8
1DIM
 10
432.4384961357121
 20
-709.1355317977628
 30
0.0
  0
VERTEX
  5
20F32
  8
1DIM
 10
432.4180552105306
 20
-709.1338984049919
 30
0.0
  0
VERTEX
  5
20F33
  8
1DIM
 10
432.3981077976805
 20
-709.1322469317646
 30
0.0
  0
VERTEX
  5
20F34
  8
1DIM
 10
432.3786572780836
 20
-709.1305775238868
 30
0.0
  0
VERTEX
  5
20F35
  8
1DIM
 10
432.3597070326612
 20
-709.1288903271642
 30
0.0
  0
VERTEX
  5
20F36
  8
1DIM
 10
432.3412604423348
 20
-709.1271854874025
 30
0.0
  0
VERTEX
  5
20F37
  8
1DIM
 10
432.3233208880259
 20
-709.1254631504077
 30
0.0
  0
VERTEX
  5
20F38
  8
1DIM
 10
432.3058756916972
 20
-709.1237220902583
 30
0.0
  0
VERTEX
  5
20F39
  8
1DIM
 10
432.2889117755831
 20
-709.1219610334821
 30
0.0
  0
VERTEX
  5
20F3A
  8
1DIM
 10
432.2724319210131
 20
-709.1201800545568
 30
0.0
  0
VERTEX
  5
20F3B
  8
1DIM
 10
432.2564389093167
 20
-709.1183792279608
 30
0.0
  0
VERTEX
  5
20F3C
  8
1DIM
 10
432.2409355218231
 20
-709.1165586281717
 30
0.0
  0
VERTEX
  5
20F3D
  8
1DIM
 10
432.225924539862
 20
-709.1147183296679
 30
0.0
  0
VERTEX
  5
20F3E
  8
1DIM
 10
432.2114087447625
 20
-709.1128584069274
 30
0.0
  0
VERTEX
  5
20F3F
  8
1DIM
 10
432.1973909178543
 20
-709.1109789344284
 30
0.0
  0
VERTEX
  5
20F40
  8
1DIM
 10
432.1838738404667
 20
-709.1090799866488
 30
0.0
  0
VERTEX
  5
20F41
  8
1DIM
 10
432.1708602939291
 20
-709.1071616380667
 30
0.0
  0
VERTEX
  5
20F42
  8
1DIM
 10
432.158353059571
 20
-709.1052239631603
 30
0.0
  0
VERTEX
  5
20F43
  8
1DIM
 10
432.1463549187217
 20
-709.1032670364076
 30
0.0
  0
VERTEX
  5
20F44
  8
1DIM
 10
432.1348686527107
 20
-709.1012909322866
 30
0.0
  0
VERTEX
  5
20F45
  8
1DIM
 10
432.1238970428674
 20
-709.0992957252756
 30
0.0
  0
VERTEX
  5
20F46
  8
1DIM
 10
432.1134428705212
 20
-709.0972814898523
 30
0.0
  0
VERTEX
  5
20F47
  8
1DIM
 10
432.1035089170016
 20
-709.0952483004952
 30
0.0
  0
VERTEX
  5
20F48
  8
1DIM
 10
432.0940979636379
 20
-709.0931962316821
 30
0.0
  0
VERTEX
  5
20F49
  8
1DIM
 10
432.0852175754874
 20
-709.0911273056755
 30
0.0
  0
VERTEX
  5
20F4A
  8
1DIM
 10
432.0768736162491
 20
-709.0890434616996
 30
0.0
  0
VERTEX
  5
20F4B
  8
1DIM
 10
432.0690663152143
 20
-709.0869446496752
 30
0.0
  0
VERTEX
  5
20F4C
  8
1DIM
 10
432.0617959016747
 20
-709.0848308195224
 30
0.0
  0
VERTEX
  5
20F4D
  8
1DIM
 10
432.0550626049217
 20
-709.0827019211619
 30
0.0
  0
VERTEX
  5
20F4E
  8
1DIM
 10
432.0488666542469
 20
-709.0805579045143
 30
0.0
  0
VERTEX
  5
20F4F
  8
1DIM
 10
432.0432082789418
 20
-709.0783987195001
 30
0.0
  0
VERTEX
  5
20F50
  8
1DIM
 10
432.0380877082981
 20
-709.0762243160399
 30
0.0
  0
VERTEX
  5
20F51
  8
1DIM
 10
432.033505171607
 20
-709.0740346440541
 30
0.0
  0
VERTEX
  5
20F52
  8
1DIM
 10
432.0294608981604
 20
-709.0718296534635
 30
0.0
  0
VERTEX
  5
20F53
  8
1DIM
 10
432.0259551172497
 20
-709.0696092941884
 30
0.0
  0
VERTEX
  5
20F54
  8
1DIM
 10
432.0229880581664
 20
-709.0673735161494
 30
0.0
  0
VERTEX
  5
20F55
  8
1DIM
 10
432.0205599502021
 20
-709.065122269267
 30
0.0
  0
VERTEX
  5
20F56
  8
1DIM
 10
432.0186710226482
 20
-709.0628555034618
 30
0.0
  0
VERTEX
  5
20F57
  8
1DIM
 10
432.0173215047964
 20
-709.0605731686543
 30
0.0
  0
VERTEX
  5
20F58
  8
1DIM
 10
432.0165116259383
 20
-709.0582752147652
 30
0.0
  0
VERTEX
  5
20F59
  8
1DIM
 10
432.0162416153652
 20
-709.0559615917149
 30
0.0
  0
SEQEND
  5
2124B
  8
1DIM
  0
POLYLINE
  5
1FF66
  8
01
  6
CONTINUOUS
 66
     1
 10
0.0
 20
0.0
 30
0.0
  0
VERTEX
  5
20F5A
  8
01
  6
CONTINUOUS
 10
425.0162416153652
 20
-701.7920046566671
 30
0.0
  0
VERTEX
  5
20F5B
  8
01
  6
CONTINUOUS
 10
425.016621325427
 20
-701.7717323105923
 30
0.0
  0
VERTEX
  5
20F5C
  8
01
  6
CONTINUOUS
 10
425.0177553050686
 20
-701.7515212099511
 30
0.0
  0
VERTEX
  5
20F5D
  8
01
  6
CONTINUOUS
 10
425.019635828474
 20
-701.7313954661411
 30
0.0
  0
VERTEX
  5
20F5E
  8
01
  6
CONTINUOUS
 10
425.0222551698273
 20
-701.7113791905601
 30
0.0
  0
VERTEX
  5
20F5F
  8
01
  6
CONTINUOUS
 10
425.0256056033127
 20
-701.6914964946059
 30
0.0
  0
VERTEX
  5
20F60
  8
01
  6
CONTINUOUS
 10
425.029679403114
 20
-701.6717714896758
 30
0.0
  0
VERTEX
  5
20F61
  8
01
  6
CONTINUOUS
 10
425.0344688434155
 20
-701.652228287168
 30
0.0
  0
VERTEX
  5
20F62
  8
01
  6
CONTINUOUS
 10
425.0399661984012
 20
-701.6328909984796
 30
0.0
  0
VERTEX
  5
20F63
  8
01
  6
CONTINUOUS
 10
425.0461637422553
 20
-701.6137837350088
 30
0.0
  0
VERTEX
  5
20F64
  8
01
  6
CONTINUOUS
 10
425.0530537491616
 20
-701.594930608153
 30
0.0
  0
VERTEX
  5
20F65
  8
01
  6
CONTINUOUS
 10
425.0606284933045
 20
-701.5763557293097
 30
0.0
  0
VERTEX
  5
20F66
  8
01
  6
CONTINUOUS
 10
425.068880248868
 20
-701.5580832098769
 30
0.0
  0
VERTEX
  5
20F67
  8
01
  6
CONTINUOUS
 10
425.077801290036
 20
-701.5401371612522
 30
0.0
  0
VERTEX
  5
20F68
  8
01
  6
CONTINUOUS
 10
425.0873838909928
 20
-701.5225416948332
 30
0.0
  0
VERTEX
  5
20F69
  8
01
  6
CONTINUOUS
 10
425.0976203259224
 20
-701.5053209220176
 30
0.0
  0
VERTEX
  5
20F6A
  8
01
  6
CONTINUOUS
 10
425.1085028690087
 20
-701.4884989542031
 30
0.0
  0
VERTEX
  5
20F6B
  8
01
  6
CONTINUOUS
 10
425.1200237944361
 20
-701.4720999027872
 30
0.0
  0
VERTEX
  5
20F6C
  8
01
  6
CONTINUOUS
 10
425.1321753763885
 20
-701.4561478791679
 30
0.0
  0
VERTEX
  5
20F6D
  8
01
  6
CONTINUOUS
 10
425.1449498890499
 20
-701.4406669947427
 30
0.0
  0
VERTEX
  5
20F6E
  8
01
  6
CONTINUOUS
 10
425.1583396066046
 20
-701.4256813609093
 30
0.0
  0
VERTEX
  5
20F6F
  8
01
  6
CONTINUOUS
 10
425.1723284836409
 20
-701.4112399429184
 30
0.0
  0
VERTEX
  5
20F70
  8
01
  6
CONTINUOUS
 10
425.1868879169704
 20
-701.3973866242895
 30
0.0
  0
VERTEX
  5
20F71
  8
01
  6
CONTINUOUS
 10
425.201991344113
 20
-701.3841378938235
 30
0.0
  0
VERTEX
  5
20F72
  8
01
  6
CONTINUOUS
 10
425.2176122025882
 20
-701.3715102403215
 30
0.0
  0
VERTEX
  5
20F73
  8
01
  6
CONTINUOUS
 10
425.2337239299155
 20
-701.3595201525842
 30
0.0
  0
VERTEX
  5
20F74
  8
01
  6
CONTINUOUS
 10
425.2502999636144
 20
-701.3481841194126
 30
0.0
  0
VERTEX
  5
20F75
  8
01
  6
CONTINUOUS
 10
425.2673137412044
 20
-701.3375186296078
 30
0.0
  0
VERTEX
  5
20F76
  8
01
  6
CONTINUOUS
 10
425.2847387002052
 20
-701.3275401719702
 30
0.0
  0
VERTEX
  5
20F77
  8
01
  6
CONTINUOUS
 10
425.3025482781363
 20
-701.3182652353014
 30
0.0
  0
VERTEX
  5
20F78
  8
01
  6
CONTINUOUS
 10
425.3207159125171
 20
-701.3097103084016
 30
0.0
  0
VERTEX
  5
20F79
  8
01
  6
CONTINUOUS
 10
425.3392150408674
 20
-701.3018918800723
 30
0.0
  0
VERTEX
  5
20F7A
  8
01
  6
CONTINUOUS
 10
425.3580191007064
 20
-701.294826439114
 30
0.0
  0
VERTEX
  5
20F7B
  8
01
  6
CONTINUOUS
 10
425.377101529554
 20
-701.2885304743278
 30
0.0
  0
VERTEX
  5
20F7C
  8
01
  6
CONTINUOUS
 10
425.3964357649295
 20
-701.2830204745146
 30
0.0
  0
VERTEX
  5
20F7D
  8
01
  6
CONTINUOUS
 10
425.4159952443527
 20
-701.2783129284752
 30
0.0
  0
VERTEX
  5
20F7E
  8
01
  6
CONTINUOUS
 10
425.4357534053428
 20
-701.2744243250108
 30
0.0
  0
VERTEX
  5
20F7F
  8
01
  6
CONTINUOUS
 10
425.4556836854196
 20
-701.2713711529219
 30
0.0
  0
VERTEX
  5
20F80
  8
01
  6
CONTINUOUS
 10
425.4757595221026
 20
-701.2691699010098
 30
0.0
  0
VERTEX
  5
20F81
  8
01
  6
CONTINUOUS
 10
425.4959543529112
 20
-701.2678370580752
 30
0.0
  0
VERTEX
  5
20F82
  8
01
  6
CONTINUOUS
 10
425.5162416153652
 20
-701.267389112919
 30
0.0
  0
SEQEND
  5
2124C
  8
01
  6
CONTINUOUS
  0
LINE
  5
1FF67
  8
01
  6
CONTINUOUS
 10
425.0162416153652
 20
-709.7491195511814
 30
0.0
 11
425.0162416153652
 21
-701.7920046566671
 31
0.0
  0
LINE
  5
1FF68
  8
01
  6
CONTINUOUS
 10
436.0162416153652
 20
-709.2077808515294
 30
0.0
 11
436.0162416153652
 21
-709.2081331032672
 31
0.0
  0
LINE
  5
1FF69
  8
1DIM
 10
433.0162416153652
 20
-706.5343442655175
 30
0.0
 11
433.0162416153652
 21
-709.2225696985194
 31
0.0
  0
ARC
  5
1FF6A
  8
1DIM
 10
432.0270395993149
 20
-706.5453832790081
 30
0.0
 40
0.9892636091442009
 50
0.639366498541539
 51
90.6254057942995
  0
POLYLINE
  5
1FF6B
  8
1DIM
 66
     1
 10
0.0
 20
0.0
 30
0.0
  0
VERTEX
  5
20F83
  8
1DIM
 10
438.0162416153652
 20
-705.1461766794291
 30
0.0
  0
VERTEX
  5
20F84
  8
1DIM
 10
437.9631264615646
 20
-705.1462610590517
 30
0.0
  0
VERTEX
  5
20F85
  8
1DIM
 10
437.9100633560575
 20
-705.1465140628736
 30
0.0
  0
VERTEX
  5
20F86
  8
1DIM
 10
437.8570537393456
 20
-705.1469354883264
 30
0.0
  0
VERTEX
  5
20F87
  8
1DIM
 10
437.8040990519312
 20
-705.1475251328416
 30
0.0
  0
VERTEX
  5
20F88
  8
1DIM
 10
437.7512007343161
 20
-705.1482827938507
 30
0.0
  0
VERTEX
  5
20F89
  8
1DIM
 10
437.6983602270023
 20
-705.1492082687851
 30
0.0
  0
VERTEX
  5
20F8A
  8
1DIM
 10
437.6455789704918
 20
-705.1503013550764
 30
0.0
  0
VERTEX
  5
20F8B
  8
1DIM
 10
437.5928584052867
 20
-705.151561850156
 30
0.0
  0
VERTEX
  5
20F8C
  8
1DIM
 10
437.5401999718888
 20
-705.1529895514554
 30
0.0
  0
VERTEX
  5
20F8D
  8
1DIM
 10
437.4876051108001
 20
-705.1545842564061
 30
0.0
  0
VERTEX
  5
20F8E
  8
1DIM
 10
437.4350752625228
 20
-705.1563457624396
 30
0.0
  0
VERTEX
  5
20F8F
  8
1DIM
 10
437.3826118675588
 20
-705.1582738669874
 30
0.0
  0
VERTEX
  5
20F90
  8
1DIM
 10
437.3302163664098
 20
-705.160368367481
 30
0.0
  0
VERTEX
  5
20F91
  8
1DIM
 10
437.2778901995783
 20
-705.1626290613518
 30
0.0
  0
VERTEX
  5
20F92
  8
1DIM
 10
437.2256348075658
 20
-705.1650557460315
 30
0.0
  0
VERTEX
  5
20F93
  8
1DIM
 10
437.1734516308746
 20
-705.1676482189513
 30
0.0
  0
VERTEX
  5
20F94
  8
1DIM
 10
437.1213421100067
 20
-705.1704062775427
 30
0.0
  0
VERTEX
  5
20F95
  8
1DIM
 10
437.0693076854639
 20
-705.1733297192376
 30
0.0
  0
VERTEX
  5
20F96
  8
1DIM
 10
437.0173497977481
 20
-705.176418341467
 30
0.0
  0
VERTEX
  5
20F97
  8
1DIM
 10
436.965539328698
 20
-705.1796672640355
 30
0.0
  0
VERTEX
  5
20F98
  8
1DIM
 10
436.9139457690001
 20
-705.1830713000581
 30
0.0
  0
VERTEX
  5
20F99
  8
1DIM
 10
436.8625684724296
 20
-705.1866297869319
 30
0.0
  0
VERTEX
  5
20F9A
  8
1DIM
 10
436.8114067927613
 20
-705.190342062054
 30
0.0
  0
VERTEX
  5
20F9B
  8
1DIM
 10
436.7604600837701
 20
-705.1942074628215
 30
0.0
  0
VERTEX
  5
20F9C
  8
1DIM
 10
436.7097276992308
 20
-705.1982253266318
 30
0.0
  0
VERTEX
  5
20F9D
  8
1DIM
 10
436.6592089929185
 20
-705.202394990882
 30
0.0
  0
VERTEX
  5
20F9E
  8
1DIM
 10
436.608903318608
 20
-705.206715792969
 30
0.0
  0
VERTEX
  5
20F9F
  8
1DIM
 10
436.5588100300743
 20
-705.2111870702904
 30
0.0
  0
VERTEX
  5
20FA0
  8
1DIM
 10
436.5089284810921
 20
-705.2158081602431
 30
0.0
  0
VERTEX
  5
20FA1
  8
1DIM
 10
436.4592580254365
 20
-705.2205784002244
 30
0.0
  0
VERTEX
  5
20FA2
  8
1DIM
 10
436.4097980168823
 20
-705.2254971276313
 30
0.0
  0
VERTEX
  5
20FA3
  8
1DIM
 10
436.3605478092045
 20
-705.2305636798611
 30
0.0
  0
VERTEX
  5
20FA4
  8
1DIM
 10
436.3115067561778
 20
-705.2357773943111
 30
0.0
  0
VERTEX
  5
20FA5
  8
1DIM
 10
436.2626742115775
 20
-705.241137608378
 30
0.0
  0
VERTEX
  5
20FA6
  8
1DIM
 10
436.2140495291781
 20
-705.2466436594596
 30
0.0
  0
VERTEX
  5
20FA7
  8
1DIM
 10
436.1656320627548
 20
-705.2522948849526
 30
0.0
  0
VERTEX
  5
20FA8
  8
1DIM
 10
436.1174211660822
 20
-705.2580906222544
 30
0.0
  0
VERTEX
  5
20FA9
  8
1DIM
 10
436.0694161929355
 20
-705.264030208762
 30
0.0
  0
VERTEX
  5
20FAA
  8
1DIM
 10
436.0216174691025
 20
-705.2701136025713
 30
0.0
  0
VERTEX
  5
20FAB
  8
1DIM
 10
435.9740259767538
 20
-705.276341171932
 30
0.0
  0
VERTEX
  5
20FAC
  8
1DIM
 10
435.9266420542378
 20
-705.282712869473
 30
0.0
  0
VERTEX
  5
20FAD
  8
1DIM
 10
435.8794660399033
 20
-705.2892286478233
 30
0.0
  0
VERTEX
  5
20FAE
  8
1DIM
 10
435.8324982720989
 20
-705.2958884596113
 30
0.0
  0
VERTEX
  5
20FAF
  8
1DIM
 10
435.7857390891732
 20
-705.3026922574662
 30
0.0
  0
VERTEX
  5
20FB0
  8
1DIM
 10
435.7391888294748
 20
-705.3096399940165
 30
0.0
  0
VERTEX
  5
20FB1
  8
1DIM
 10
435.6928478313524
 20
-705.3167316218911
 30
0.0
  0
VERTEX
  5
20FB2
  8
1DIM
 10
435.6467164331546
 20
-705.3239670937189
 30
0.0
  0
VERTEX
  5
20FB3
  8
1DIM
 10
435.6007948050071
 20
-705.3313467217704
 30
0.0
  0
VERTEX
  5
20FB4
  8
1DIM
 10
435.55509095617
 20
-705.3388707746337
 30
0.0
  0
VERTEX
  5
20FB5
  8
1DIM
 10
435.5096272396275
 20
-705.3465348575248
 30
0.0
  0
VERTEX
  5
20FB6
  8
1DIM
 10
435.4644271410592
 20
-705.3543340113632
 30
0.0
  0
VERTEX
  5
20FB7
  8
1DIM
 10
435.4195141461441
 20
-705.3622632770686
 30
0.0
  0
VERTEX
  5
20FB8
  8
1DIM
 10
435.3749117405617
 20
-705.3703176955603
 30
0.0
  0
VERTEX
  5
20FB9
  8
1DIM
 10
435.3306434099914
 20
-705.3784923077579
 30
0.0
  0
VERTEX
  5
20FBA
  8
1DIM
 10
435.2867326401123
 20
-705.386782154581
 30
0.0
  0
VERTEX
  5
20FBB
  8
1DIM
 10
435.2432029166038
 20
-705.3951822769494
 30
0.0
  0
VERTEX
  5
20FBC
  8
1DIM
 10
435.2000777251453
 20
-705.4036877157821
 30
0.0
  0
VERTEX
  5
20FBD
  8
1DIM
 10
435.1573457281125
 20
-705.412298220997
 30
0.0
  0
VERTEX
  5
20FBE
  8
1DIM
 10
435.114979535931
 20
-705.4210165078044
 30
0.0
  0
VERTEX
  5
20FBF
  8
1DIM
 10
435.0729785563551
 20
-705.4298420650638
 30
0.0
  0
VERTEX
  5
20FC0
  8
1DIM
 10
435.0313421971391
 20
-705.4387743816343
 30
0.0
  0
VERTEX
  5
20FC1
  8
1DIM
 10
434.9900698660375
 20
-705.4478129463749
 30
0.0
  0
VERTEX
  5
20FC2
  8
1DIM
 10
434.9491609708044
 20
-705.4569572481453
 30
0.0
  0
VERTEX
  5
20FC3
  8
1DIM
 10
434.9086149191942
 20
-705.4662067758044
 30
0.0
  0
VERTEX
  5
20FC4
  8
1DIM
 10
434.8684311189613
 20
-705.4755610182115
 30
0.0
  0
VERTEX
  5
20FC5
  8
1DIM
 10
434.8286089778599
 20
-705.4850194642258
 30
0.0
  0
VERTEX
  5
20FC6
  8
1DIM
 10
434.7891479036444
 20
-705.4945816027065
 30
0.0
  0
VERTEX
  5
20FC7
  8
1DIM
 10
434.7500473040691
 20
-705.5042469225132
 30
0.0
  0
VERTEX
  5
20FC8
  8
1DIM
 10
434.7113065868883
 20
-705.5140149125045
 30
0.0
  0
VERTEX
  5
20FC9
  8
1DIM
 10
434.6729251598563
 20
-705.5238850615401
 30
0.0
  0
VERTEX
  5
20FCA
  8
1DIM
 10
434.6349024307275
 20
-705.533856858479
 30
0.0
  0
VERTEX
  5
20FCB
  8
1DIM
 10
434.5972378072561
 20
-705.5439297921806
 30
0.0
  0
VERTEX
  5
20FCC
  8
1DIM
 10
434.5599306971966
 20
-705.554103351504
 30
0.0
  0
VERTEX
  5
20FCD
  8
1DIM
 10
434.522980508303
 20
-705.5643770253084
 30
0.0
  0
VERTEX
  5
20FCE
  8
1DIM
 10
434.48638664833
 20
-705.5747503024531
 30
0.0
  0
VERTEX
  5
20FCF
  8
1DIM
 10
434.4501485250316
 20
-705.5852226717975
 30
0.0
  0
VERTEX
  5
20FD0
  8
1DIM
 10
434.4142620175512
 20
-705.5957978563174
 30
0.0
  0
VERTEX
  5
20FD1
  8
1DIM
 10
434.3787288558235
 20
-705.6064775875428
 30
0.0
  0
VERTEX
  5
20FD2
  8
1DIM
 10
434.3435572237906
 20
-705.6172583671646
 30
0.0
  0
VERTEX
  5
20FD3
  8
1DIM
 10
434.3087553053944
 20
-705.6281366968735
 30
0.0
  0
VERTEX
  5
20FD4
  8
1DIM
 10
434.2743312845768
 20
-705.6391090783602
 30
0.0
  0
VERTEX
  5
20FD5
  8
1DIM
 10
434.24029334528
 20
-705.6501720133151
 30
0.0
  0
VERTEX
  5
20FD6
  8
1DIM
 10
434.2066496714457
 20
-705.6613220034292
 30
0.0
  0
VERTEX
  5
20FD7
  8
1DIM
 10
434.1734084470161
 20
-705.672555550393
 30
0.0
  0
VERTEX
  5
20FD8
  8
1DIM
 10
434.1405778559331
 20
-705.6838691558971
 30
0.0
  0
VERTEX
  5
20FD9
  8
1DIM
 10
434.1081660821387
 20
-705.6952593216323
 30
0.0
  0
VERTEX
  5
20FDA
  8
1DIM
 10
434.0761813095748
 20
-705.7067225492892
 30
0.0
  0
VERTEX
  5
20FDB
  8
1DIM
 10
434.0446317221836
 20
-705.7182553405585
 30
0.0
  0
VERTEX
  5
20FDC
  8
1DIM
 10
434.0135255039067
 20
-705.729854197131
 30
0.0
  0
VERTEX
  5
20FDD
  8
1DIM
 10
433.9828708386864
 20
-705.7415156206971
 30
0.0
  0
VERTEX
  5
20FDE
  8
1DIM
 10
433.9526759104644
 20
-705.7532361129477
 30
0.0
  0
VERTEX
  5
20FDF
  8
1DIM
 10
433.9229489031829
 20
-705.7650121755732
 30
0.0
  0
VERTEX
  5
20FE0
  8
1DIM
 10
433.8936980007839
 20
-705.7768403102646
 30
0.0
  0
VERTEX
  5
20FE1
  8
1DIM
 10
433.8649313872092
 20
-705.7887170187123
 30
0.0
  0
VERTEX
  5
20FE2
  8
1DIM
 10
433.8366572464008
 20
-705.8006388026072
 30
0.0
  0
VERTEX
  5
20FE3
  8
1DIM
 10
433.8088604613537
 20
-705.8126079689351
 30
0.0
  0
VERTEX
  5
20FE4
  8
1DIM
 10
433.7815205325031
 20
-705.8246289824126
 30
0.0
  0
VERTEX
  5
20FE5
  8
1DIM
 10
433.7546375699523
 20
-705.8367015813255
 30
0.0
  0
VERTEX
  5
20FE6
  8
1DIM
 10
433.7282116838039
 20
-705.8488255039601
 30
0.0
  0
VERTEX
  5
20FE7
  8
1DIM
 10
433.7022429841609
 20
-705.8610004886023
 30
0.0
  0
VERTEX
  5
20FE8
  8
1DIM
 10
433.6767315811264
 20
-705.8732262735383
 30
0.0
  0
VERTEX
  5
20FE9
  8
1DIM
 10
433.6516775848031
 20
-705.8855025970541
 30
0.0
  0
VERTEX
  5
20FEA
  8
1DIM
 10
433.6270811052941
 20
-705.8978291974358
 30
0.0
  0
VERTEX
  5
20FEB
  8
1DIM
 10
433.6029422527022
 20
-705.9102058129695
 30
0.0
  0
VERTEX
  5
20FEC
  8
1DIM
 10
433.5792611371305
 20
-705.9226321819413
 30
0.0
  0
VERTEX
  5
20FED
  8
1DIM
 10
433.5560378686819
 20
-705.9351080426371
 30
0.0
  0
VERTEX
  5
20FEE
  8
1DIM
 10
433.5332725574592
 20
-705.9476331333433
 30
0.0
  0
VERTEX
  5
20FEF
  8
1DIM
 10
433.5109653135654
 20
-705.9602071923457
 30
0.0
  0
VERTEX
  5
20FF0
  8
1DIM
 10
433.4891162471035
 20
-705.9728299579303
 30
0.0
  0
VERTEX
  5
20FF1
  8
1DIM
 10
433.4677254681764
 20
-705.9855011683836
 30
0.0
  0
VERTEX
  5
20FF2
  8
1DIM
 10
433.4467930868869
 20
-705.9982205619914
 30
0.0
  0
VERTEX
  5
20FF3
  8
1DIM
 10
433.4263192133381
 20
-706.0109878770396
 30
0.0
  0
VERTEX
  5
20FF4
  8
1DIM
 10
433.4063039576329
 20
-706.0238028518147
 30
0.0
  0
VERTEX
  5
20FF5
  8
1DIM
 10
433.3867474298742
 20
-706.0366652246024
 30
0.0
  0
VERTEX
  5
20FF6
  8
1DIM
 10
433.3676638324245
 20
-706.049568947907
 30
0.0
  0
VERTEX
  5
20FF7
  8
1DIM
 10
433.3490685525991
 20
-706.0625064423302
 30
0.0
  0
VERTEX
  5
20FF8
  8
1DIM
 10
433.3309634779305
 20
-706.0754751483057
 30
0.0
  0
VERTEX
  5
20FF9
  8
1DIM
 10
433.3133504959509
 20
-706.0884725062668
 30
0.0
  0
VERTEX
  5
20FFA
  8
1DIM
 10
433.2962314941927
 20
-706.101495956647
 30
0.0
  0
VERTEX
  5
20FFB
  8
1DIM
 10
433.2796083601881
 20
-706.1145429398795
 30
0.0
  0
VERTEX
  5
20FFC
  8
1DIM
 10
433.2634829814695
 20
-706.1276108963978
 30
0.0
  0
VERTEX
  5
20FFD
  8
1DIM
 10
433.2478572455692
 20
-706.1406972666352
 30
0.0
  0
VERTEX
  5
20FFE
  8
1DIM
 10
433.2327330400195
 20
-706.1537994910253
 30
0.0
  0
VERTEX
  5
20FFF
  8
1DIM
 10
433.2181122523527
 20
-706.1669150100012
 30
0.0
  0
VERTEX
  5
21000
  8
1DIM
 10
433.2039967701012
 20
-706.1800412639965
 30
0.0
  0
VERTEX
  5
21001
  8
1DIM
 10
433.1903884807973
 20
-706.1931756934446
 30
0.0
  0
VERTEX
  5
21002
  8
1DIM
 10
433.1772892719732
 20
-706.2063157387787
 30
0.0
  0
VERTEX
  5
21003
  8
1DIM
 10
433.1647010311613
 20
-706.2194588404324
 30
0.0
  0
VERTEX
  5
21004
  8
1DIM
 10
433.1526256458939
 20
-706.2326024388391
 30
0.0
  0
VERTEX
  5
21005
  8
1DIM
 10
433.1410650037034
 20
-706.2457439744318
 30
0.0
  0
VERTEX
  5
21006
  8
1DIM
 10
433.130020992122
 20
-706.2588808876443
 30
0.0
  0
VERTEX
  5
21007
  8
1DIM
 10
433.1194954986822
 20
-706.2720106189099
 30
0.0
  0
VERTEX
  5
21008
  8
1DIM
 10
433.109490410916
 20
-706.2851306086619
 30
0.0
  0
VERTEX
  5
21009
  8
1DIM
 10
433.0999971433604
 20
-706.2982451697405
 30
0.0
  0
VERTEX
  5
2100A
  8
1DIM
 10
433.0910066434101
 20
-706.311360281975
 30
0.0
  0
VERTEX
  5
2100B
  8
1DIM
 10
433.0825200978838
 20
-706.3244758862826
 30
0.0
  0
VERTEX
  5
2100C
  8
1DIM
 10
433.0745386936005
 20
-706.33759192358
 30
0.0
  0
VERTEX
  5
2100D
  8
1DIM
 10
433.067063617379
 20
-706.3507083347849
 30
0.0
  0
VERTEX
  5
2100E
  8
1DIM
 10
433.0600960560383
 20
-706.3638250608142
 30
0.0
  0
VERTEX
  5
2100F
  8
1DIM
 10
433.0536371963973
 20
-706.3769420425849
 30
0.0
  0
VERTEX
  5
21010
  8
1DIM
 10
433.0476882252749
 20
-706.3900592210146
 30
0.0
  0
VERTEX
  5
21011
  8
1DIM
 10
433.04225032949
 20
-706.4031765370199
 30
0.0
  0
VERTEX
  5
21012
  8
1DIM
 10
433.0373246958616
 20
-706.4162939315183
 30
0.0
  0
VERTEX
  5
21013
  8
1DIM
 10
433.0329125112085
 20
-706.4294113454268
 30
0.0
  0
VERTEX
  5
21014
  8
1DIM
 10
433.0290149623497
 20
-706.4425287196627
 30
0.0
  0
VERTEX
  5
21015
  8
1DIM
 10
433.025633236104
 20
-706.4556459951428
 30
0.0
  0
VERTEX
  5
21016
  8
1DIM
 10
433.0227685192904
 20
-706.4687631127847
 30
0.0
  0
VERTEX
  5
21017
  8
1DIM
 10
433.0204219987277
 20
-706.4818800135052
 30
0.0
  0
VERTEX
  5
21018
  8
1DIM
 10
433.018594861235
 20
-706.4949966382217
 30
0.0
  0
VERTEX
  5
21019
  8
1DIM
 10
433.017288293631
 20
-706.508112927851
 30
0.0
  0
VERTEX
  5
2101A
  8
1DIM
 10
433.0165034827348
 20
-706.5212288233106
 30
0.0
  0
VERTEX
  5
2101B
  8
1DIM
 10
433.0162416153652
 20
-706.5343442655173
 30
0.0
  0
SEQEND
  5
2124D
  8
1DIM
  0
LINE
  5
1FF6C
  8
1DIM
 10
438.0162416153652
 20
-704.1761289555652
 30
0.0
 11
438.0162416153652
 21
-705.1461766794291
 31
0.0
  0
LINE
  5
1FF6D
  8
1DIM
 10
438.0162416153652
 20
-705.1461766794291
 30
0.0
 11
500.0162416153649
 21
-705.1461766794291
 31
0.0
  0
LINE
  5
1FF6F
  8
1DIM
 10
438.0162416153652
 20
-705.1461766794291
 30
0.0
 11
438.0162416153652
 21
-709.2077808515294
 31
0.0
  0
LINE
  5
1FF70
  8
1DIM
 10
425.5162416153652
 20
-597.1407054265212
 30
0.0
 11
425.5162416153652
 21
-646.148149312474
 31
0.0
  0
LINE
  5
1FF71
  8
01
  6
CONTINUOUS
 10
425.0162416153652
 20
-646.1407054265212
 30
0.0
 11
425.0162416153652
 21
-597.1407054265212
 31
0.0
  0
ARC
  5
1FF72
  8
1DIM
 10
425.3912693210833
 20
-637.7464141199388
 30
0.0
 40
8.4026645964135
 50
267.4419251417225
 51
270.8521878919483
  0
POLYLINE
  5
1FF73
  8
01
  6
CONTINUOUS
 10
0.0
 20
0.0
 30
0.0
 66
     1
 70
     8
  0
VERTEX
  5
2101C
  8
01
  6
CONTINUOUS
 10
425.0162416153652
 20
-597.1407054265212
 30
0.0
 70
    32
  0
VERTEX
  5
2101D
  8
01
  6
CONTINUOUS
 10
425.016621325427
 20
-597.1407054265212
 30
0.0
 70
    32
  0
VERTEX
  5
2101E
  8
01
  6
CONTINUOUS
 10
425.0177553050686
 20
-597.1407054265212
 30
0.0
 70
    32
  0
VERTEX
  5
2101F
  8
01
  6
CONTINUOUS
 10
425.019635828474
 20
-597.1407054265212
 30
0.0
 70
    32
  0
VERTEX
  5
21020
  8
01
  6
CONTINUOUS
 10
425.0222551698273
 20
-597.1407054265212
 30
0.0
 70
    32
  0
VERTEX
  5
21021
  8
01
  6
CONTINUOUS
 10
425.0256056033127
 20
-597.1407054265212
 30
0.0
 70
    32
  0
VERTEX
  5
21022
  8
01
  6
CONTINUOUS
 10
425.029679403114
 20
-597.1407054265212
 30
0.0
 70
    32
  0
VERTEX
  5
21023
  8
01
  6
CONTINUOUS
 10
425.0344688434155
 20
-597.1407054265212
 30
0.0
 70
    32
  0
VERTEX
  5
21024
  8
01
  6
CONTINUOUS
 10
425.0399661984012
 20
-597.1407054265212
 30
0.0
 70
    32
  0
VERTEX
  5
21025
  8
01
  6
CONTINUOUS
 10
425.0461637422553
 20
-597.1407054265212
 30
0.0
 70
    32
  0
VERTEX
  5
21026
  8
01
  6
CONTINUOUS
 10
425.0530537491616
 20
-597.1407054265212
 30
0.0
 70
    32
  0
VERTEX
  5
21027
  8
01
  6
CONTINUOUS
 10
425.0606284933045
 20
-597.1407054265212
 30
0.0
 70
    32
  0
VERTEX
  5
21028
  8
01
  6
CONTINUOUS
 10
425.068880248868
 20
-597.1407054265212
 30
0.0
 70
    32
  0
VERTEX
  5
21029
  8
01
  6
CONTINUOUS
 10
425.077801290036
 20
-597.1407054265212
 30
0.0
 70
    32
  0
VERTEX
  5
2102A
  8
01
  6
CONTINUOUS
 10
425.0873838909928
 20
-597.1407054265212
 30
0.0
 70
    32
  0
VERTEX
  5
2102B
  8
01
  6
CONTINUOUS
 10
425.0976203259224
 20
-597.1407054265212
 30
0.0
 70
    32
  0
VERTEX
  5
2102C
  8
01
  6
CONTINUOUS
 10
425.1085028690087
 20
-597.1407054265212
 30
0.0
 70
    32
  0
VERTEX
  5
2102D
  8
01
  6
CONTINUOUS
 10
425.1200237944361
 20
-597.1407054265212
 30
0.0
 70
    32
  0
VERTEX
  5
2102E
  8
01
  6
CONTINUOUS
 10
425.1321753763885
 20
-597.1407054265212
 30
0.0
 70
    32
  0
VERTEX
  5
2102F
  8
01
  6
CONTINUOUS
 10
425.1449498890499
 20
-597.1407054265212
 30
0.0
 70
    32
  0
VERTEX
  5
21030
  8
01
  6
CONTINUOUS
 10
425.1583396066046
 20
-597.1407054265212
 30
0.0
 70
    32
  0
VERTEX
  5
21031
  8
01
  6
CONTINUOUS
 10
425.1723284836409
 20
-597.1407054265212
 30
0.0
 70
    32
  0
VERTEX
  5
21032
  8
01
  6
CONTINUOUS
 10
425.1868879169704
 20
-597.1407054265212
 30
0.0
 70
    32
  0
VERTEX
  5
21033
  8
01
  6
CONTINUOUS
 10
425.201991344113
 20
-597.1407054265212
 30
0.0
 70
    32
  0
VERTEX
  5
21034
  8
01
  6
CONTINUOUS
 10
425.2176122025882
 20
-597.1407054265212
 30
0.0
 70
    32
  0
VERTEX
  5
21035
  8
01
  6
CONTINUOUS
 10
425.2337239299155
 20
-597.1407054265212
 30
0.0
 70
    32
  0
VERTEX
  5
21036
  8
01
  6
CONTINUOUS
 10
425.2502999636144
 20
-597.1407054265212
 30
0.0
 70
    32
  0
VERTEX
  5
21037
  8
01
  6
CONTINUOUS
 10
425.2673137412044
 20
-597.1407054265212
 30
0.0
 70
    32
  0
VERTEX
  5
21038
  8
01
  6
CONTINUOUS
 10
425.2847387002052
 20
-597.1407054265212
 30
0.0
 70
    32
  0
VERTEX
  5
21039
  8
01
  6
CONTINUOUS
 10
425.3025482781363
 20
-597.1407054265212
 30
0.0
 70
    32
  0
VERTEX
  5
2103A
  8
01
  6
CONTINUOUS
 10
425.3207159125171
 20
-597.1407054265212
 30
0.0
 70
    32
  0
VERTEX
  5
2103B
  8
01
  6
CONTINUOUS
 10
425.3392150408674
 20
-597.1407054265212
 30
0.0
 70
    32
  0
VERTEX
  5
2103C
  8
01
  6
CONTINUOUS
 10
425.3580191007064
 20
-597.1407054265212
 30
0.0
 70
    32
  0
VERTEX
  5
2103D
  8
01
  6
CONTINUOUS
 10
425.377101529554
 20
-597.1407054265212
 30
0.0
 70
    32
  0
VERTEX
  5
2103E
  8
01
  6
CONTINUOUS
 10
425.3964357649295
 20
-597.1407054265212
 30
0.0
 70
    32
  0
VERTEX
  5
2103F
  8
01
  6
CONTINUOUS
 10
425.4159952443527
 20
-597.1407054265212
 30
0.0
 70
    32
  0
VERTEX
  5
21040
  8
01
  6
CONTINUOUS
 10
425.4357534053428
 20
-597.1407054265212
 30
0.0
 70
    32
  0
VERTEX
  5
21041
  8
01
  6
CONTINUOUS
 10
425.4556836854196
 20
-597.1407054265212
 30
0.0
 70
    32
  0
VERTEX
  5
21042
  8
01
  6
CONTINUOUS
 10
425.4757595221026
 20
-597.1407054265212
 30
0.0
 70
    32
  0
VERTEX
  5
21043
  8
01
  6
CONTINUOUS
 10
425.4959543529112
 20
-597.1407054265212
 30
0.0
 70
    32
  0
VERTEX
  5
21044
  8
01
  6
CONTINUOUS
 10
425.5162416153652
 20
-597.1407054265212
 30
0.0
 70
    32
  0
SEQEND
  5
2124E
  8
01
  6
CONTINUOUS
  0
POLYLINE
  5
1FF74
  8
1DIM
 66
     1
 10
0.0
 20
0.0
 30
0.0
  0
VERTEX
  5
21045
  8
1DIM
 10
425.5162416153652
 20
-646.148149312474
 30
0.0
  0
VERTEX
  5
21046
  8
1DIM
 10
425.5164631281809
 20
-646.1811048388366
 30
0.0
  0
VERTEX
  5
21047
  8
1DIM
 10
425.5171264813802
 20
-646.2140406905119
 30
0.0
  0
VERTEX
  5
21048
  8
1DIM
 10
425.5182298970911
 20
-646.2469511982381
 30
0.0
  0
VERTEX
  5
21049
  8
1DIM
 10
425.5197715974415
 20
-646.2798306927538
 30
0.0
  0
VERTEX
  5
2104A
  8
1DIM
 10
425.5217498045598
 20
-646.3126735047975
 30
0.0
  0
VERTEX
  5
2104B
  8
1DIM
 10
425.5241627405737
 20
-646.3454739651079
 30
0.0
  0
VERTEX
  5
2104C
  8
1DIM
 10
425.5270086276114
 20
-646.3782264044233
 30
0.0
  0
VERTEX
  5
2104D
  8
1DIM
 10
425.530285687801
 20
-646.4109251534826
 30
0.0
  0
VERTEX
  5
2104E
  8
1DIM
 10
425.5339921432705
 20
-646.4435645430242
 30
0.0
  0
VERTEX
  5
2104F
  8
1DIM
 10
425.5381262161479
 20
-646.4761389037864
 30
0.0
  0
VERTEX
  5
21050
  8
1DIM
 10
425.5426861285614
 20
-646.508642566508
 30
0.0
  0
VERTEX
  5
21051
  8
1DIM
 10
425.547670102639
 20
-646.5410698619276
 30
0.0
  0
VERTEX
  5
21052
  8
1DIM
 10
425.5530763605086
 20
-646.5734151207835
 30
0.0
  0
VERTEX
  5
21053
  8
1DIM
 10
425.5589031242984
 20
-646.6056726738144
 30
0.0
  0
VERTEX
  5
21054
  8
1DIM
 10
425.5651486161364
 20
-646.6378368517588
 30
0.0
  0
VERTEX
  5
21055
  8
1DIM
 10
425.5718110581507
 20
-646.6699019853555
 30
0.0
  0
VERTEX
  5
21056
  8
1DIM
 10
425.5788886724694
 20
-646.7018624053427
 30
0.0
  0
VERTEX
  5
21057
  8
1DIM
 10
425.5863796812204
 20
-646.7337124424591
 30
0.0
  0
VERTEX
  5
21058
  8
1DIM
 10
425.5942823065319
 20
-646.7654464274433
 30
0.0
  0
VERTEX
  5
21059
  8
1DIM
 10
425.6025947705318
 20
-646.7970586910336
 30
0.0
  0
VERTEX
  5
2105A
  8
1DIM
 10
425.6113152953483
 20
-646.8285435639689
 30
0.0
  0
VERTEX
  5
2105B
  8
1DIM
 10
425.6204421031094
 20
-646.8598953769874
 30
0.0
  0
VERTEX
  5
2105C
  8
1DIM
 10
425.6299734159431
 20
-646.8911084608279
 30
0.0
  0
VERTEX
  5
2105D
  8
1DIM
 10
425.6399074559775
 20
-646.9221771462288
 30
0.0
  0
VERTEX
  5
2105E
  8
1DIM
 10
425.6502424453407
 20
-646.9530957639288
 30
0.0
  0
VERTEX
  5
2105F
  8
1DIM
 10
425.6609766061608
 20
-646.9838586446664
 30
0.0
  0
VERTEX
  5
21060
  8
1DIM
 10
425.6721081605656
 20
-647.0144601191801
 30
0.0
  0
VERTEX
  5
21061
  8
1DIM
 10
425.6836353306835
 20
-647.0448945182084
 30
0.0
  0
VERTEX
  5
21062
  8
1DIM
 10
425.6955563386422
 20
-647.0751561724898
 30
0.0
  0
VERTEX
  5
21063
  8
1DIM
 10
425.70786940657
 20
-647.105239412763
 30
0.0
  0
VERTEX
  5
21064
  8
1DIM
 10
425.7205820874896
 20
-647.1351652536146
 30
0.0
  0
VERTEX
  5
21065
  8
1DIM
 10
425.7337010886854
 20
-647.1649536370356
 30
0.0
  0
VERTEX
  5
21066
  8
1DIM
 10
425.7472233636775
 20
-647.1945972848722
 30
0.0
  0
VERTEX
  5
21067
  8
1DIM
 10
425.7611458659863
 20
-647.2240889189699
 30
0.0
  0
VERTEX
  5
21068
  8
1DIM
 10
425.7754655491319
 20
-647.2534212611746
 30
0.0
  0
VERTEX
  5
21069
  8
1DIM
 10
425.7901793666346
 20
-647.282587033332
 30
0.0
  0
VERTEX
  5
2106A
  8
1DIM
 10
425.8052842720147
 20
-647.3115789572879
 30
0.0
  0
VERTEX
  5
2106B
  8
1DIM
 10
425.8207772187923
 20
-647.3403897548882
 30
0.0
  0
VERTEX
  5
2106C
  8
1DIM
 10
425.8366551604879
 20
-647.3690121479785
 30
0.0
  0
VERTEX
  5
2106D
  8
1DIM
 10
425.8529150506214
 20
-647.3974388584047
 30
0.0
  0
VERTEX
  5
2106E
  8
1DIM
 10
425.8695538427135
 20
-647.4256626080125
 30
0.0
  0
VERTEX
  5
2106F
  8
1DIM
 10
425.886568490284
 20
-647.4536761186479
 30
0.0
  0
VERTEX
  5
21070
  8
1DIM
 10
425.9039559468534
 20
-647.4814721121564
 30
0.0
  0
VERTEX
  5
21071
  8
1DIM
 10
425.9217131659419
 20
-647.5090433103841
 30
0.0
  0
VERTEX
  5
21072
  8
1DIM
 10
425.9398371010697
 20
-647.5363824351763
 30
0.0
  0
VERTEX
  5
21073
  8
1DIM
 10
425.9583042963229
 20
-647.5634594421324
 30
0.0
  0
VERTEX
  5
21074
  8
1DIM
 10
425.9770929792033
 20
-647.5902494488236
 30
0.0
  0
VERTEX
  5
21075
  8
1DIM
 10
425.9962026283541
 20
-647.6167529200529
 30
0.0
  0
VERTEX
  5
21076
  8
1DIM
 10
426.015632722419
 20
-647.6429703206248
 30
0.0
  0
VERTEX
  5
21077
  8
1DIM
 10
426.0353827400414
 20
-647.6689021153428
 30
0.0
  0
VERTEX
  5
21078
  8
1DIM
 10
426.0554521598646
 20
-647.6945487690105
 30
0.0
  0
VERTEX
  5
21079
  8
1DIM
 10
426.0758404605323
 20
-647.7199107464315
 30
0.0
  0
VERTEX
  5
2107A
  8
1DIM
 10
426.0965471206878
 20
-647.7449885124098
 30
0.0
  0
VERTEX
  5
2107B
  8
1DIM
 10
426.1175716189745
 20
-647.7697825317489
 30
0.0
  0
VERTEX
  5
2107C
  8
1DIM
 10
426.1389134340361
 20
-647.7942932692526
 30
0.0
  0
VERTEX
  5
2107D
  8
1DIM
 10
426.1605720445159
 20
-647.8185211897248
 30
0.0
  0
VERTEX
  5
2107E
  8
1DIM
 10
426.1825469290574
 20
-647.842466757969
 30
0.0
  0
VERTEX
  5
2107F
  8
1DIM
 10
426.204837566304
 20
-647.8661304387889
 30
0.0
  0
VERTEX
  5
21080
  8
1DIM
 10
426.2274434348993
 20
-647.8895126969883
 30
0.0
  0
VERTEX
  5
21081
  8
1DIM
 10
426.2503640134867
 20
-647.912613997371
 30
0.0
  0
VERTEX
  5
21082
  8
1DIM
 10
426.2736172115697
 20
-647.9354434552829
 30
0.0
  0
VERTEX
  5
21083
  8
1DIM
 10
426.2972139719452
 20
-647.9580038295476
 30
0.0
  0
VERTEX
  5
21084
  8
1DIM
 10
426.321143323196
 20
-647.9802860501846
 30
0.0
  0
VERTEX
  5
21085
  8
1DIM
 10
426.3453942939051
 20
-648.0022810472133
 30
0.0
  0
VERTEX
  5
21086
  8
1DIM
 10
426.3699559126554
 20
-648.0239797506531
 30
0.0
  0
VERTEX
  5
21087
  8
1DIM
 10
426.3948172080299
 20
-648.0453730905234
 30
0.0
  0
VERTEX
  5
21088
  8
1DIM
 10
426.4199672086115
 20
-648.0664519968439
 30
0.0
  0
VERTEX
  5
21089
  8
1DIM
 10
426.4453949429831
 20
-648.0872073996339
 30
0.0
  0
VERTEX
  5
2108A
  8
1DIM
 10
426.4710894397278
 20
-648.1076302289129
 30
0.0
  0
VERTEX
  5
2108B
  8
1DIM
 10
426.4970397274285
 20
-648.1277114147003
 30
0.0
  0
VERTEX
  5
2108C
  8
1DIM
 10
426.523234834668
 20
-648.1474418870157
 30
0.0
  0
VERTEX
  5
2108D
  8
1DIM
 10
426.5496637900294
 20
-648.1668125758786
 30
0.0
  0
VERTEX
  5
2108E
  8
1DIM
 10
426.5763156220956
 20
-648.1858144113081
 30
0.0
  0
VERTEX
  5
2108F
  8
1DIM
 10
426.6031793594495
 20
-648.2044383233241
 30
0.0
  0
VERTEX
  5
21090
  8
1DIM
 10
426.6302440306741
 20
-648.2226752419458
 30
0.0
  0
VERTEX
  5
21091
  8
1DIM
 10
426.657507707739
 20
-648.2405306942959
 30
0.0
  0
VERTEX
  5
21092
  8
1DIM
 10
426.6849758500955
 20
-648.2580161215212
 30
0.0
  0
VERTEX
  5
21093
  8
1DIM
 10
426.7126485675492
 20
-648.2751313246771
 30
0.0
  0
VERTEX
  5
21094
  8
1DIM
 10
426.7405259699057
 20
-648.2918761048195
 30
0.0
  0
VERTEX
  5
21095
  8
1DIM
 10
426.7686081669705
 20
-648.3082502630037
 30
0.0
  0
VERTEX
  5
21096
  8
1DIM
 10
426.7968952685494
 20
-648.3242536002857
 30
0.0
  0
VERTEX
  5
21097
  8
1DIM
 10
426.8253873844479
 20
-648.3398859177207
 30
0.0
  0
VERTEX
  5
21098
  8
1DIM
 10
426.8540846244715
 20
-648.3551470163645
 30
0.0
  0
VERTEX
  5
21099
  8
1DIM
 10
426.882987098426
 20
-648.3700366972728
 30
0.0
  0
VERTEX
  5
2109A
  8
1DIM
 10
426.9120949161168
 20
-648.3845547615011
 30
0.0
  0
VERTEX
  5
2109B
  8
1DIM
 10
426.9414081873496
 20
-648.3987010101051
 30
0.0
  0
VERTEX
  5
2109C
  8
1DIM
 10
426.97092702193
 20
-648.4124752441403
 30
0.0
  0
VERTEX
  5
2109D
  8
1DIM
 10
427.0006515296636
 20
-648.4258772646623
 30
0.0
  0
VERTEX
  5
2109E
  8
1DIM
 10
427.030581820356
 20
-648.4389068727269
 30
0.0
  0
VERTEX
  5
2109F
  8
1DIM
 10
427.0607180038128
 20
-648.4515638693895
 30
0.0
  0
VERTEX
  5
210A0
  8
1DIM
 10
427.0910524528679
 20
-648.4638391257521
 30
0.0
  0
VERTEX
  5
210A1
  8
1DIM
 10
427.1215699991161
 20
-648.475721770544
 30
0.0
  0
VERTEX
  5
210A2
  8
1DIM
 10
427.1522594405044
 20
-648.4872089912622
 30
0.0
  0
VERTEX
  5
210A3
  8
1DIM
 10
427.1831095749798
 20
-648.4982979754033
 30
0.0
  0
VERTEX
  5
210A4
  8
1DIM
 10
427.2141092004891
 20
-648.5089859104643
 30
0.0
  0
VERTEX
  5
210A5
  8
1DIM
 10
427.2452471149793
 20
-648.5192699839419
 30
0.0
  0
VERTEX
  5
210A6
  8
1DIM
 10
427.2765121163974
 20
-648.5291473833331
 30
0.0
  0
VERTEX
  5
210A7
  8
1DIM
 10
427.3078930026903
 20
-648.5386152961346
 30
0.0
  0
VERTEX
  5
210A8
  8
1DIM
 10
427.3393785718049
 20
-648.5476709098433
 30
0.0
  0
VERTEX
  5
210A9
  8
1DIM
 10
427.3709576216881
 20
-648.5563114119558
 30
0.0
  0
VERTEX
  5
210AA
  8
1DIM
 10
427.402618950287
 20
-648.5645339899694
 30
0.0
  0
VERTEX
  5
210AB
  8
1DIM
 10
427.4343513555485
 20
-648.5723358313804
 30
0.0
  0
VERTEX
  5
210AC
  8
1DIM
 10
427.4661436354194
 20
-648.579714123686
 30
0.0
  0
VERTEX
  5
210AD
  8
1DIM
 10
427.4979845878467
 20
-648.586666054383
 30
0.0
  0
VERTEX
  5
210AE
  8
1DIM
 10
427.5298630107774
 20
-648.5931888109681
 30
0.0
  0
VERTEX
  5
210AF
  8
1DIM
 10
427.5617914316828
 20
-648.5992899411785
 30
0.0
  0
VERTEX
  5
210B0
  8
1DIM
 10
427.5937899768321
 20
-648.6049780976608
 30
0.0
  0
VERTEX
  5
210B1
  8
1DIM
 10
427.625858842369
 20
-648.6102521252756
 30
0.0
  0
VERTEX
  5
210B2
  8
1DIM
 10
427.6579982244373
 20
-648.6151108688828
 30
0.0
  0
VERTEX
  5
210B3
  8
1DIM
 10
427.6902083191808
 20
-648.6195531733433
 30
0.0
  0
VERTEX
  5
210B4
  8
1DIM
 10
427.722489322743
 20
-648.6235778835174
 30
0.0
  0
VERTEX
  5
210B5
  8
1DIM
 10
427.7548414312678
 20
-648.6271838442657
 30
0.0
  0
VERTEX
  5
210B6
  8
1DIM
 10
427.7872648408988
 20
-648.6303699004486
 30
0.0
  0
VERTEX
  5
210B7
  8
1DIM
 10
427.8197597477799
 20
-648.6331348969264
 30
0.0
  0
VERTEX
  5
210B8
  8
1DIM
 10
427.8523263480547
 20
-648.6354776785598
 30
0.0
  0
VERTEX
  5
210B9
  8
1DIM
 10
427.884964837867
 20
-648.6373970902091
 30
0.0
  0
VERTEX
  5
210BA
  8
1DIM
 10
427.9176754133604
 20
-648.6388919767348
 30
0.0
  0
VERTEX
  5
210BB
  8
1DIM
 10
427.9504582706788
 20
-648.6399611829974
 30
0.0
  0
VERTEX
  5
210BC
  8
1DIM
 10
427.9833136059658
 20
-648.6406035538572
 30
0.0
  0
VERTEX
  5
210BD
  8
1DIM
 10
428.0162416153652
 20
-648.6408179341748
 30
0.0
  0
SEQEND
  5
2124F
  8
1DIM
  0
LINE
  5
1FF75
  8
1DIM
 10
500.0162416153649
 20
-648.6408179341748
 30
0.0
 11
428.0162416153652
 21
-648.6408179341748
 31
0.0
  0
LINE
  5
1FF76
  8
1DIM
 10
432.0162416153652
 20
-640.1906373862281
 30
0.0
 11
432.0162416153652
 21
-614.3485321230702
 31
0.0
  0
POLYLINE
  5
1FF77
  8
1DIM
 66
     1
 10
0.0
 20
0.0
 30
0.0
  0
VERTEX
  5
210BE
  8
1DIM
 10
432.0162416153652
 20
-614.3485321230702
 30
0.0
  0
VERTEX
  5
210BF
  8
1DIM
 10
432.0165024531094
 20
-614.292665297579
 30
0.0
  0
VERTEX
  5
210C0
  8
1DIM
 10
432.0172842366256
 20
-614.2368896597676
 30
0.0
  0
VERTEX
  5
210C1
  8
1DIM
 10
432.0185858713391
 20
-614.1812050082424
 30
0.0
  0
VERTEX
  5
210C2
  8
1DIM
 10
432.0204062626753
 20
-614.1256111416097
 30
0.0
  0
VERTEX
  5
210C3
  8
1DIM
 10
432.0227443160596
 20
-614.070107858476
 30
0.0
  0
VERTEX
  5
210C4
  8
1DIM
 10
432.0255989369172
 20
-614.014694957448
 30
0.0
  0
VERTEX
  5
210C5
  8
1DIM
 10
432.0289690306736
 20
-613.959372237132
 30
0.0
  0
VERTEX
  5
210C6
  8
1DIM
 10
432.0328535027541
 20
-613.9041394961346
 30
0.0
  0
VERTEX
  5
210C7
  8
1DIM
 10
432.037251258584
 20
-613.8489965330622
 30
0.0
  0
VERTEX
  5
210C8
  8
1DIM
 10
432.0421612035887
 20
-613.7939431465212
 30
0.0
  0
VERTEX
  5
210C9
  8
1DIM
 10
432.0475822431935
 20
-613.7389791351183
 30
0.0
  0
VERTEX
  5
210CA
  8
1DIM
 10
432.0535132828238
 20
-613.6841042974596
 30
0.0
  0
VERTEX
  5
210CB
  8
1DIM
 10
432.0599532279049
 20
-613.629318432152
 30
0.0
  0
VERTEX
  5
210CC
  8
1DIM
 10
432.0669009838623
 20
-613.5746213378018
 30
0.0
  0
VERTEX
  5
210CD
  8
1DIM
 10
432.0743554561212
 20
-613.5200128130155
 30
0.0
  0
VERTEX
  5
210CE
  8
1DIM
 10
432.0823155501069
 20
-613.4654926563995
 30
0.0
  0
VERTEX
  5
210CF
  8
1DIM
 10
432.0907801712449
 20
-613.4110606665604
 30
0.0
  0
VERTEX
  5
210D0
  8
1DIM
 10
432.0997482249604
 20
-613.3567166421046
 30
0.0
  0
VERTEX
  5
210D1
  8
1DIM
 10
432.1092186166789
 20
-613.3024603816386
 30
0.0
  0
VERTEX
  5
210D2
  8
1DIM
 10
432.1191902518257
 20
-613.2482916837689
 30
0.0
  0
VERTEX
  5
210D3
  8
1DIM
 10
432.1296620358261
 20
-613.194210347102
 30
0.0
  0
VERTEX
  5
210D4
  8
1DIM
 10
432.140635070354
 20
-613.1402165385977
 30
0.0
  0
VERTEX
  5
210D5
  8
1DIM
 10
432.1521118485034
 20
-613.0863106579294
 30
0.0
  0
VERTEX
  5
210D6
  8
1DIM
 10
432.1640933628298
 20
-613.0324928527747
 30
0.0
  0
VERTEX
  5
210D7
  8
1DIM
 10
432.1765806058887
 20
-612.9787632708102
 30
0.0
  0
VERTEX
  5
210D8
  8
1DIM
 10
432.1895745702357
 20
-612.9251220597132
 30
0.0
  0
VERTEX
  5
210D9
  8
1DIM
 10
432.2030762484262
 20
-612.8715693671605
 30
0.0
  0
VERTEX
  5
210DA
  8
1DIM
 10
432.2170866330159
 20
-612.8181053408294
 30
0.0
  0
VERTEX
  5
210DB
  8
1DIM
 10
432.2316067165602
 20
-612.764730128397
 30
0.0
  0
VERTEX
  5
210DC
  8
1DIM
 10
432.2466374916147
 20
-612.7114438775401
 30
0.0
  0
VERTEX
  5
210DD
  8
1DIM
 10
432.2621799507349
 20
-612.658246735936
 30
0.0
  0
VERTEX
  5
210DE
  8
1DIM
 10
432.2782377098537
 20
-612.6051337068508
 30
0.0
  0
VERTEX
  5
210DF
  8
1DIM
 10
432.2948240826966
 20
-612.5520827641786
 30
0.0
  0
VERTEX
  5
210E0
  8
1DIM
 10
432.3119339475095
 20
-612.499111125821
 30
0.0
  0
VERTEX
  5
210E1
  8
1DIM
 10
432.3295591792619
 20
-612.4462421199433
 30
0.0
  0
VERTEX
  5
210E2
  8
1DIM
 10
432.3476916529228
 20
-612.3934990747115
 30
0.0
  0
VERTEX
  5
210E3
  8
1DIM
 10
432.3663232434617
 20
-612.3409053182914
 30
0.0
  0
VERTEX
  5
210E4
  8
1DIM
 10
432.3854458258477
 20
-612.2884841788489
 30
0.0
  0
VERTEX
  5
210E5
  8
1DIM
 10
432.4050512750501
 20
-612.2362589845495
 30
0.0
  0
VERTEX
  5
210E6
  8
1DIM
 10
432.4251314660381
 20
-612.1842530635593
 30
0.0
  0
VERTEX
  5
210E7
  8
1DIM
 10
432.445678273781
 20
-612.1324897440436
 30
0.0
  0
VERTEX
  5
210E8
  8
1DIM
 10
432.4666835732481
 20
-612.0809923541688
 30
0.0
  0
VERTEX
  5
210E9
  8
1DIM
 10
432.4881420306142
 20
-612.0297607539077
 30
0.0
  0
VERTEX
  5
210EA
  8
1DIM
 10
432.5100535855419
 20
-611.9787791400262
 30
0.0
  0
VERTEX
  5
210EB
  8
1DIM
 10
432.5324180232324
 20
-611.9280473458788
 30
0.0
  0
VERTEX
  5
210EC
  8
1DIM
 10
432.5552351288869
 20
-611.8775652048195
 30
0.0
  0
VERTEX
  5
210ED
  8
1DIM
 10
432.5785046877065
 20
-611.8273325502028
 30
0.0
  0
VERTEX
  5
210EE
  8
1DIM
 10
432.6022264848922
 20
-611.7773492153829
 30
0.0
  0
VERTEX
  5
210EF
  8
1DIM
 10
432.6264003056453
 20
-611.7276150337142
 30
0.0
  0
VERTEX
  5
210F0
  8
1DIM
 10
432.6510259351669
 20
-611.6781298385511
 30
0.0
  0
VERTEX
  5
210F1
  8
1DIM
 10
432.6761031586581
 20
-611.6288934632478
 30
0.0
  0
VERTEX
  5
210F2
  8
1DIM
 10
432.7016317613201
 20
-611.5799057411587
 30
0.0
  0
VERTEX
  5
210F3
  8
1DIM
 10
432.727611528354
 20
-611.531166505638
 30
0.0
  0
VERTEX
  5
210F4
  8
1DIM
 10
432.7540422449609
 20
-611.4826755900401
 30
0.0
  0
VERTEX
  5
210F5
  8
1DIM
 10
432.780923696342
 20
-611.4344328277194
 30
0.0
  0
VERTEX
  5
210F6
  8
1DIM
 10
432.8082556676985
 20
-611.3864380520303
 30
0.0
  0
VERTEX
  5
210F7
  8
1DIM
 10
432.8360379442313
 20
-611.3386910963267
 30
0.0
  0
VERTEX
  5
210F8
  8
1DIM
 10
432.8642703111418
 20
-611.2911917939633
 30
0.0
  0
VERTEX
  5
210F9
  8
1DIM
 10
432.8929525536309
 20
-611.2439399782944
 30
0.0
  0
VERTEX
  5
210FA
  8
1DIM
 10
432.9220844568999
 20
-611.196935482674
 30
0.0
  0
VERTEX
  5
210FB
  8
1DIM
 10
432.95166580615
 20
-611.150178140457
 30
0.0
  0
VERTEX
  5
210FC
  8
1DIM
 10
432.9816963865821
 20
-611.1036677849971
 30
0.0
  0
VERTEX
  5
210FD
  8
1DIM
 10
433.0121759833976
 20
-611.057404249649
 30
0.0
  0
VERTEX
  5
210FE
  8
1DIM
 10
433.0431244118154
 20
-611.011372543589
 30
0.0
  0
VERTEX
  5
210FF
  8
1DIM
 10
433.0745565020917
 20
-610.965564386566
 30
0.0
  0
VERTEX
  5
21100
  8
1DIM
 10
433.1064645619833
 20
-610.9199896777927
 30
0.0
  0
VERTEX
  5
21101
  8
1DIM
 10
433.1388408992469
 20
-610.8746583164818
 30
0.0
  0
VERTEX
  5
21102
  8
1DIM
 10
433.1716778216394
 20
-610.8295802018462
 30
0.0
  0
VERTEX
  5
21103
  8
1DIM
 10
433.2049676369176
 20
-610.7847652330985
 30
0.0
  0
VERTEX
  5
21104
  8
1DIM
 10
433.2387026528382
 20
-610.7402233094516
 30
0.0
  0
VERTEX
  5
21105
  8
1DIM
 10
433.2728751771581
 20
-610.6959643301183
 30
0.0
  0
VERTEX
  5
21106
  8
1DIM
 10
433.3074775176339
 20
-610.6519981943112
 30
0.0
  0
VERTEX
  5
21107
  8
1DIM
 10
433.3425019820226
 20
-610.6083348012431
 30
0.0
  0
VERTEX
  5
21108
  8
1DIM
 10
433.3779408780809
 20
-610.5649840501269
 30
0.0
  0
VERTEX
  5
21109
  8
1DIM
 10
433.4137865135656
 20
-610.5219558401752
 30
0.0
  0
VERTEX
  5
2110A
  8
1DIM
 10
433.4500311962336
 20
-610.479260070601
 30
0.0
  0
VERTEX
  5
2110B
  8
1DIM
 10
433.4866672338414
 20
-610.4369066406168
 30
0.0
  0
VERTEX
  5
2110C
  8
1DIM
 10
433.523686934146
 20
-610.3949054494354
 30
0.0
  0
VERTEX
  5
2110D
  8
1DIM
 10
433.5610826049042
 20
-610.3532663962699
 30
0.0
  0
VERTEX
  5
2110E
  8
1DIM
 10
433.5988465538728
 20
-610.3119993803326
 30
0.0
  0
VERTEX
  5
2110F
  8
1DIM
 10
433.6369710888084
 20
-610.2711143008366
 30
0.0
  0
VERTEX
  5
21110
  8
1DIM
 10
433.6754485174679
 20
-610.2306210569944
 30
0.0
  0
VERTEX
  5
21111
  8
1DIM
 10
433.7142711476083
 20
-610.1905295480191
 30
0.0
  0
VERTEX
  5
21112
  8
1DIM
 10
433.753431286986
 20
-610.1508496731233
 30
0.0
  0
VERTEX
  5
21113
  8
1DIM
 10
433.7929293042607
 20
-610.1115707907009
 30
0.0
  0
VERTEX
  5
21114
  8
1DIM
 10
433.832770947818
 20
-610.0726758992334
 30
0.0
  0
VERTEX
  5
21115
  8
1DIM
 10
433.8729565950043
 20
-610.034165358065
 30
0.0
  0
VERTEX
  5
21116
  8
1DIM
 10
433.9134866231663
 20
-609.9960395265392
 30
0.0
  0
VERTEX
  5
21117
  8
1DIM
 10
433.9543614096501
 20
-609.9582987640002
 30
0.0
  0
VERTEX
  5
21118
  8
1DIM
 10
433.9955813318023
 20
-609.9209434297919
 30
0.0
  0
VERTEX
  5
21119
  8
1DIM
 10
434.0371467669693
 20
-609.8839738832581
 30
0.0
  0
VERTEX
  5
2111A
  8
1DIM
 10
434.0790580924976
 20
-609.8473904837427
 30
0.0
  0
VERTEX
  5
2111B
  8
1DIM
 10
434.1213156857336
 20
-609.8111935905897
 30
0.0
  0
VERTEX
  5
2111C
  8
1DIM
 10
434.1639199240237
 20
-609.775383563143
 30
0.0
  0
VERTEX
  5
2111D
  8
1DIM
 10
434.2068711847144
 20
-609.7399607607465
 30
0.0
  0
VERTEX
  5
2111E
  8
1DIM
 10
434.2501698451521
 20
-609.704925542744
 30
0.0
  0
VERTEX
  5
2111F
  8
1DIM
 10
434.2938162826833
 20
-609.6702782684795
 30
0.0
  0
VERTEX
  5
21120
  8
1DIM
 10
434.3378108746543
 20
-609.636019297297
 30
0.0
  0
VERTEX
  5
21121
  8
1DIM
 10
434.3821539984117
 20
-609.6021489885403
 30
0.0
  0
VERTEX
  5
21122
  8
1DIM
 10
434.4268460313019
 20
-609.5686677015534
 30
0.0
  0
VERTEX
  5
21123
  8
1DIM
 10
434.4718873506712
 20
-609.5355757956801
 30
0.0
  0
VERTEX
  5
21124
  8
1DIM
 10
434.5172783338662
 20
-609.5028736302643
 30
0.0
  0
VERTEX
  5
21125
  8
1DIM
 10
434.5630193582333
 20
-609.4705615646501
 30
0.0
  0
VERTEX
  5
21126
  8
1DIM
 10
434.6091108011188
 20
-609.4386399581812
 30
0.0
  0
VERTEX
  5
21127
  8
1DIM
 10
434.6555530398693
 20
-609.4071091702016
 30
0.0
  0
VERTEX
  5
21128
  8
1DIM
 10
434.7023716571701
 20
-609.3759599934182
 30
0.0
  0
VERTEX
  5
21129
  8
1DIM
 10
434.7495776520855
 20
-609.3451921418762
 30
0.0
  0
VERTEX
  5
2112A
  8
1DIM
 10
434.7971495265307
 20
-609.3148193569266
 30
0.0
  0
VERTEX
  5
2112B
  8
1DIM
 10
434.8450657824212
 20
-609.2848553799208
 30
0.0
  0
VERTEX
  5
2112C
  8
1DIM
 10
434.8933049216719
 20
-609.2553139522098
 30
0.0
  0
VERTEX
  5
2112D
  8
1DIM
 10
434.9418454461984
 20
-609.2262088151448
 30
0.0
  0
VERTEX
  5
2112E
  8
1DIM
 10
434.9906658579159
 20
-609.1975537100769
 30
0.0
  0
VERTEX
  5
2112F
  8
1DIM
 10
435.0397446587396
 20
-609.1693623783572
 30
0.0
  0
VERTEX
  5
21130
  8
1DIM
 10
435.0890603505846
 20
-609.141648561337
 30
0.0
  0
VERTEX
  5
21131
  8
1DIM
 10
435.1385914353664
 20
-609.1144260003671
 30
0.0
  0
VERTEX
  5
21132
  8
1DIM
 10
435.1883187836385
 20
-609.0877058425524
 30
0.0
  0
VERTEX
  5
21133
  8
1DIM
 10
435.2382430409677
 20
-609.0614807686266
 30
0.0
  0
VERTEX
  5
21134
  8
1DIM
 10
435.2883653481168
 20
-609.0357478825711
 30
0.0
  0
VERTEX
  5
21135
  8
1DIM
 10
435.3386853585235
 20
-609.0105062720423
 30
0.0
  0
VERTEX
  5
21136
  8
1DIM
 10
435.3892027256259
 20
-608.9857550246977
 30
0.0
  0
VERTEX
  5
21137
  8
1DIM
 10
435.4399171028617
 20
-608.961493228194
 30
0.0
  0
VERTEX
  5
21138
  8
1DIM
 10
435.4908281436687
 20
-608.9377199701884
 30
0.0
  0
VERTEX
  5
21139
  8
1DIM
 10
435.5419355014847
 20
-608.9144343383376
 30
0.0
  0
VERTEX
  5
2113A
  8
1DIM
 10
435.5932388297477
 20
-608.8916354202992
 30
0.0
  0
VERTEX
  5
2113B
  8
1DIM
 10
435.6447377818954
 20
-608.8693223037296
 30
0.0
  0
VERTEX
  5
2113C
  8
1DIM
 10
435.6964320113657
 20
-608.8474940762864
 30
0.0
  0
VERTEX
  5
2113D
  8
1DIM
 10
435.7483205691113
 20
-608.8261483225644
 30
0.0
  0
VERTEX
  5
2113E
  8
1DIM
 10
435.8004030575293
 20
-608.8052840052654
 30
0.0
  0
VERTEX
  5
2113F
  8
1DIM
 10
435.852679957225
 20
-608.7849022792053
 30
0.0
  0
VERTEX
  5
21140
  8
1DIM
 10
435.9051517488033
 20
-608.7650042991996
 30
0.0
  0
VERTEX
  5
21141
  8
1DIM
 10
435.9578189128696
 20
-608.7455912200644
 30
0.0
  0
VERTEX
  5
21142
  8
1DIM
 10
436.0106819300289
 20
-608.7266641966153
 30
0.0
  0
VERTEX
  5
21143
  8
1DIM
 10
436.0637412808862
 20
-608.7082243836684
 30
0.0
  0
VERTEX
  5
21144
  8
1DIM
 10
436.1169974460468
 20
-608.6902729360393
 30
0.0
  0
VERTEX
  5
21145
  8
1DIM
 10
436.1704509061155
 20
-608.672811008544
 30
0.0
  0
VERTEX
  5
21146
  8
1DIM
 10
436.2241021416979
 20
-608.6558397559982
 30
0.0
  0
VERTEX
  5
21147
  8
1DIM
 10
436.2779516333987
 20
-608.6393603332177
 30
0.0
  0
VERTEX
  5
21148
  8
1DIM
 10
436.3319998618232
 20
-608.6233738950186
 30
0.0
  0
VERTEX
  5
21149
  8
1DIM
 10
436.3862473075765
 20
-608.6078815962165
 30
0.0
  0
VERTEX
  5
2114A
  8
1DIM
 10
436.4406944512637
 20
-608.5928845916274
 30
0.0
  0
VERTEX
  5
2114B
  8
1DIM
 10
436.4953417734898
 20
-608.5783840360668
 30
0.0
  0
VERTEX
  5
2114C
  8
1DIM
 10
436.55018975486
 20
-608.5643810843509
 30
0.0
  0
VERTEX
  5
2114D
  8
1DIM
 10
436.6052388759795
 20
-608.5508768912953
 30
0.0
  0
VERTEX
  5
2114E
  8
1DIM
 10
436.6604896174533
 20
-608.5378726117161
 30
0.0
  0
VERTEX
  5
2114F
  8
1DIM
 10
436.7159424598865
 20
-608.5253694004288
 30
0.0
  0
VERTEX
  5
21150
  8
1DIM
 10
436.7715978838844
 20
-608.5133684122494
 30
0.0
  0
VERTEX
  5
21151
  8
1DIM
 10
436.8274563700519
 20
-608.5018708019937
 30
0.0
  0
VERTEX
  5
21152
  8
1DIM
 10
436.8834504114561
 20
-608.490891878128
 30
0.0
  0
VERTEX
  5
21153
  8
1DIM
 10
436.9395115855298
 20
-608.4804463285363
 30
0.0
  0
VERTEX
  5
21154
  8
1DIM
 10
436.9956389994276
 20
-608.4705343771617
 30
0.0
  0
VERTEX
  5
21155
  8
1DIM
 10
437.0518317603035
 20
-608.4611562479469
 30
0.0
  0
VERTEX
  5
21156
  8
1DIM
 10
437.108088975312
 20
-608.4523121648346
 30
0.0
  0
VERTEX
  5
21157
  8
1DIM
 10
437.1644097516073
 20
-608.4440023517681
 30
0.0
  0
VERTEX
  5
21158
  8
1DIM
 10
437.2207931963437
 20
-608.4362270326895
 30
0.0
  0
VERTEX
  5
21159
  8
1DIM
 10
437.2772384166754
 20
-608.4289864315425
 30
0.0
  0
VERTEX
  5
2115A
  8
1DIM
 10
437.3337445197568
 20
-608.4222807722695
 30
0.0
  0
VERTEX
  5
2115B
  8
1DIM
 10
437.3903106127421
 20
-608.4161102788133
 30
0.0
  0
VERTEX
  5
2115C
  8
1DIM
 10
437.4469358027856
 20
-608.410475175117
 30
0.0
  0
VERTEX
  5
2115D
  8
1DIM
 10
437.5036191970416
 20
-608.4053756851232
 30
0.0
  0
VERTEX
  5
2115E
  8
1DIM
 10
437.5603599026645
 20
-608.4008120327751
 30
0.0
  0
VERTEX
  5
2115F
  8
1DIM
 10
437.6171570268083
 20
-608.3967844420151
 30
0.0
  0
VERTEX
  5
21160
  8
1DIM
 10
437.6740096766275
 20
-608.3932931367864
 30
0.0
  0
VERTEX
  5
21161
  8
1DIM
 10
437.7309169592764
 20
-608.3903383410317
 30
0.0
  0
VERTEX
  5
21162
  8
1DIM
 10
437.7878779819092
 20
-608.387920278694
 30
0.0
  0
VERTEX
  5
21163
  8
1DIM
 10
437.8448918516802
 20
-608.3860391737159
 30
0.0
  0
VERTEX
  5
21164
  8
1DIM
 10
437.9019576757436
 20
-608.3846952500403
 30
0.0
  0
VERTEX
  5
21165
  8
1DIM
 10
437.9590745612538
 20
-608.3838887316102
 30
0.0
  0
VERTEX
  5
21166
  8
1DIM
 10
438.0162416153652
 20
-608.3836198423685
 30
0.0
  0
SEQEND
  5
21250
  8
1DIM
  0
LINE
  5
1FF78
  8
1DIM
 10
500.0162416153649
 20
-608.3836198423685
 30
0.0
 11
438.0162416153652
 21
-608.3836198423685
 31
0.0
  0
LINE
  5
1FF79
  8
1DIM
 10
436.0162416153652
 20
-644.1672455733626
 30
0.0
 11
500.0162416153649
 21
-644.1672455733626
 31
0.0
  0
POLYLINE
  5
1FF7A
  8
1DIM
 66
     1
 10
0.0
 20
0.0
 30
0.0
  0
VERTEX
  5
21167
  8
1DIM
 10
436.0162416153652
 20
-644.1672455733626
 30
0.0
  0
VERTEX
  5
21168
  8
1DIM
 10
435.9698006018928
 20
-644.1669798629919
 30
0.0
  0
VERTEX
  5
21169
  8
1DIM
 10
435.9234494538155
 20
-644.1661835636786
 30
0.0
  0
VERTEX
  5
2116A
  8
1DIM
 10
435.8771879599985
 20
-644.1648579231213
 30
0.0
  0
VERTEX
  5
2116B
  8
1DIM
 10
435.8310159093073
 20
-644.1630041890186
 30
0.0
  0
VERTEX
  5
2116C
  8
1DIM
 10
435.7849330906074
 20
-644.1606236090689
 30
0.0
  0
VERTEX
  5
2116D
  8
1DIM
 10
435.7389392927642
 20
-644.1577174309709
 30
0.0
  0
VERTEX
  5
2116E
  8
1DIM
 10
435.6930343046431
 20
-644.154286902423
 30
0.0
  0
VERTEX
  5
2116F
  8
1DIM
 10
435.6472179151096
 20
-644.1503332711237
 30
0.0
  0
VERTEX
  5
21170
  8
1DIM
 10
435.601489913029
 20
-644.1458577847717
 30
0.0
  0
VERTEX
  5
21171
  8
1DIM
 10
435.5558500872669
 20
-644.1408616910653
 30
0.0
  0
VERTEX
  5
21172
  8
1DIM
 10
435.5102982266887
 20
-644.1353462377031
 30
0.0
  0
VERTEX
  5
21173
  8
1DIM
 10
435.4648341201598
 20
-644.1293126723835
 30
0.0
  0
VERTEX
  5
21174
  8
1DIM
 10
435.4194575565457
 20
-644.1227622428055
 30
0.0
  0
VERTEX
  5
21175
  8
1DIM
 10
435.3741683247118
 20
-644.1156961966672
 30
0.0
  0
VERTEX
  5
21176
  8
1DIM
 10
435.3289662135235
 20
-644.108115781667
 30
0.0
  0
VERTEX
  5
21177
  8
1DIM
 10
435.2838510118462
 20
-644.1000222455039
 30
0.0
  0
VERTEX
  5
21178
  8
1DIM
 10
435.2388225085455
 20
-644.0914168358761
 30
0.0
  0
VERTEX
  5
21179
  8
1DIM
 10
435.193855545089
 20
-644.0822886805965
 30
0.0
  0
VERTEX
  5
2117A
  8
1DIM
 10
435.1489332499978
 20
-644.0726280931259
 30
0.0
  0
VERTEX
  5
2117B
  8
1DIM
 10
435.1040678427173
 20
-644.0624380996348
 30
0.0
  0
VERTEX
  5
2117C
  8
1DIM
 10
435.0592715426928
 20
-644.0517217262942
 30
0.0
  0
VERTEX
  5
2117D
  8
1DIM
 10
435.0145565693697
 20
-644.0404819992746
 30
0.0
  0
VERTEX
  5
2117E
  8
1DIM
 10
434.9699351421934
 20
-644.0287219447464
 30
0.0
  0
VERTEX
  5
2117F
  8
1DIM
 10
434.9254194806093
 20
-644.0164445888805
 30
0.0
  0
VERTEX
  5
21180
  8
1DIM
 10
434.8810218040625
 20
-644.0036529578476
 30
0.0
  0
VERTEX
  5
21181
  8
1DIM
 10
434.8367543319986
 20
-643.9903500778181
 30
0.0
  0
VERTEX
  5
21182
  8
1DIM
 10
434.7926292838629
 20
-643.9765389749629
 30
0.0
  0
VERTEX
  5
21183
  8
1DIM
 10
434.7486588791007
 20
-643.9622226754526
 30
0.0
  0
VERTEX
  5
21184
  8
1DIM
 10
434.7048553371575
 20
-643.9474042054577
 30
0.0
  0
VERTEX
  5
21185
  8
1DIM
 10
434.6612308774785
 20
-643.932086591149
 30
0.0
  0
VERTEX
  5
21186
  8
1DIM
 10
434.6177977195092
 20
-643.916272858697
 30
0.0
  0
VERTEX
  5
21187
  8
1DIM
 10
434.5745680826949
 20
-643.8999660342724
 30
0.0
  0
VERTEX
  5
21188
  8
1DIM
 10
434.5315541864809
 20
-643.8831691440461
 30
0.0
  0
VERTEX
  5
21189
  8
1DIM
 10
434.4887682503127
 20
-643.8658852141883
 30
0.0
  0
VERTEX
  5
2118A
  8
1DIM
 10
434.4462279300306
 20
-643.8481273576646
 30
0.0
  0
VERTEX
  5
2118B
  8
1DIM
 10
434.4039426671662
 20
-643.829906796854
 30
0.0
  0
VERTEX
  5
2118C
  8
1DIM
 10
434.3619123597014
 20
-643.8112237220477
 30
0.0
  0
VERTEX
  5
2118D
  8
1DIM
 10
434.3201369056185
 20
-643.7920783235375
 30
0.0
  0
VERTEX
  5
2118E
  8
1DIM
 10
434.2786162028993
 20
-643.7724707916146
 30
0.0
  0
VERTEX
  5
2118F
  8
1DIM
 10
434.2373501495259
 20
-643.7524013165706
 30
0.0
  0
VERTEX
  5
21190
  8
1DIM
 10
434.1963386434803
 20
-643.731870088697
 30
0.0
  0
VERTEX
  5
21191
  8
1DIM
 10
434.1555815827446
 20
-643.710877298285
 30
0.0
  0
VERTEX
  5
21192
  8
1DIM
 10
434.1150788653007
 20
-643.6894231356263
 30
0.0
  0
VERTEX
  5
21193
  8
1DIM
 10
434.0748303891307
 20
-643.6675077910122
 30
0.0
  0
VERTEX
  5
21194
  8
1DIM
 10
434.0348360522167
 20
-643.6451314547342
 30
0.0
  0
VERTEX
  5
21195
  8
1DIM
 10
433.9950957525407
 20
-643.6222943170836
 30
0.0
  0
VERTEX
  5
21196
  8
1DIM
 10
433.9556093880847
 20
-643.598996568352
 30
0.0
  0
VERTEX
  5
21197
  8
1DIM
 10
433.9163768568307
 20
-643.5752383988311
 30
0.0
  0
VERTEX
  5
21198
  8
1DIM
 10
433.8773980567607
 20
-643.551019998812
 30
0.0
  0
VERTEX
  5
21199
  8
1DIM
 10
433.8386728858568
 20
-643.5263415585862
 30
0.0
  0
VERTEX
  5
2119A
  8
1DIM
 10
433.800201242101
 20
-643.501203268445
 30
0.0
  0
VERTEX
  5
2119B
  8
1DIM
 10
433.7619759545331
 20
-643.4755905749773
 30
0.0
  0
VERTEX
  5
2119C
  8
1DIM
 10
433.723997975831
 20
-643.44949539558
 30
0.0
  0
VERTEX
  5
2119D
  8
1DIM
 10
433.6862793894335
 20
-643.4229276267563
 30
0.0
  0
VERTEX
  5
2119E
  8
1DIM
 10
433.6488322787799
 20
-643.3958971650098
 30
0.0
  0
VERTEX
  5
2119F
  8
1DIM
 10
433.6116687273093
 20
-643.3684139068439
 30
0.0
  0
VERTEX
  5
211A0
  8
1DIM
 10
433.5748008184605
 20
-643.3404877487623
 30
0.0
  0
VERTEX
  5
211A1
  8
1DIM
 10
433.5382406356729
 20
-643.3121285872684
 30
0.0
  0
VERTEX
  5
211A2
  8
1DIM
 10
433.5020002623853
 20
-643.2833463188656
 30
0.0
  0
VERTEX
  5
211A3
  8
1DIM
 10
433.4660917820369
 20
-643.2541508400575
 30
0.0
  0
VERTEX
  5
211A4
  8
1DIM
 10
433.4305272780667
 20
-643.2245520473476
 30
0.0
  0
VERTEX
  5
211A5
  8
1DIM
 10
433.3953188339138
 20
-643.1945598372394
 30
0.0
  0
VERTEX
  5
211A6
  8
1DIM
 10
433.3604785330173
 20
-643.1641841062363
 30
0.0
  0
VERTEX
  5
211A7
  8
1DIM
 10
433.3260184588162
 20
-643.1334347508422
 30
0.0
  0
VERTEX
  5
211A8
  8
1DIM
 10
433.2919506947497
 20
-643.10232166756
 30
0.0
  0
VERTEX
  5
211A9
  8
1DIM
 10
433.2582873242566
 20
-643.0708547528935
 30
0.0
  0
VERTEX
  5
211AA
  8
1DIM
 10
433.2250404307762
 20
-643.0390439033465
 30
0.0
  0
VERTEX
  5
211AB
  8
1DIM
 10
433.1922220977476
 20
-643.0068990154219
 30
0.0
  0
VERTEX
  5
211AC
  8
1DIM
 10
433.1598174561741
 20
-642.9744156322979
 30
0.0
  0
VERTEX
  5
211AD
  8
1DIM
 10
433.1278039825601
 20
-642.9415823455643
 30
0.0
  0
VERTEX
  5
211AE
  8
1DIM
 10
433.0961822785961
 20
-642.9083986243419
 30
0.0
  0
VERTEX
  5
211AF
  8
1DIM
 10
433.0649529459728
 20
-642.8748639377518
 30
0.0
  0
VERTEX
  5
211B0
  8
1DIM
 10
433.0341165863805
 20
-642.8409777549153
 30
0.0
  0
VERTEX
  5
211B1
  8
1DIM
 10
433.0036738015099
 20
-642.8067395449533
 30
0.0
  0
VERTEX
  5
211B2
  8
1DIM
 10
432.9736251930515
 20
-642.772148776987
 30
0.0
  0
VERTEX
  5
211B3
  8
1DIM
 10
432.9439713626957
 20
-642.7372049201374
 30
0.0
  0
VERTEX
  5
211B4
  8
1DIM
 10
432.9147129121332
 20
-642.7019074435257
 30
0.0
  0
VERTEX
  5
211B5
  8
1DIM
 10
432.8858504430545
 20
-642.6662558162728
 30
0.0
  0
VERTEX
  5
211B6
  8
1DIM
 10
432.85738455715
 20
-642.6302495075
 30
0.0
  0
VERTEX
  5
211B7
  8
1DIM
 10
432.8293158561103
 20
-642.5938879863285
 30
0.0
  0
VERTEX
  5
211B8
  8
1DIM
 10
432.801644941626
 20
-642.557170721879
 30
0.0
  0
VERTEX
  5
211B9
  8
1DIM
 10
432.7743724153875
 20
-642.5200971832728
 30
0.0
  0
VERTEX
  5
211BA
  8
1DIM
 10
432.7474988790854
 20
-642.482666839631
 30
0.0
  0
VERTEX
  5
211BB
  8
1DIM
 10
432.7210249344103
 20
-642.4448791600746
 30
0.0
  0
VERTEX
  5
211BC
  8
1DIM
 10
432.6949511830526
 20
-642.4067336137249
 30
0.0
  0
VERTEX
  5
211BD
  8
1DIM
 10
432.6693047630409
 20
-642.3682610985546
 30
0.0
  0
VERTEX
  5
211BE
  8
1DIM
 10
432.6441146652247
 20
-642.3294981910393
 30
0.0
  0
VERTEX
  5
211BF
  8
1DIM
 10
432.6193842705251
 20
-642.290452878054
 30
0.0
  0
VERTEX
  5
211C0
  8
1DIM
 10
432.595116959864
 20
-642.2511331464736
 30
0.0
  0
VERTEX
  5
211C1
  8
1DIM
 10
432.5713161141626
 20
-642.2115469831732
 30
0.0
  0
VERTEX
  5
211C2
  8
1DIM
 10
432.5479851143425
 20
-642.1717023750276
 30
0.0
  0
VERTEX
  5
211C3
  8
1DIM
 10
432.525127341325
 20
-642.131607308912
 30
0.0
  0
VERTEX
  5
211C4
  8
1DIM
 10
432.5027461760318
 20
-642.0912697717013
 30
0.0
  0
VERTEX
  5
211C5
  8
1DIM
 10
432.4808449993843
 20
-642.0506977502704
 30
0.0
  0
VERTEX
  5
211C6
  8
1DIM
 10
432.4594271923039
 20
-642.0098992314943
 30
0.0
  0
VERTEX
  5
211C7
  8
1DIM
 10
432.4384961357121
 20
-641.9688822022481
 30
0.0
  0
VERTEX
  5
211C8
  8
1DIM
 10
432.4180552105306
 20
-641.9276546494067
 30
0.0
  0
VERTEX
  5
211C9
  8
1DIM
 10
432.3981077976805
 20
-641.886224559845
 30
0.0
  0
VERTEX
  5
211CA
  8
1DIM
 10
432.3786572780836
 20
-641.8445999204381
 30
0.0
  0
VERTEX
  5
211CB
  8
1DIM
 10
432.3597070326612
 20
-641.8027887180612
 30
0.0
  0
VERTEX
  5
211CC
  8
1DIM
 10
432.3412604423348
 20
-641.7607989395888
 30
0.0
  0
VERTEX
  5
211CD
  8
1DIM
 10
432.3233208880259
 20
-641.7186385718961
 30
0.0
  0
VERTEX
  5
211CE
  8
1DIM
 10
432.3058756916972
 20
-641.676281263744
 30
0.0
  0
VERTEX
  5
211CF
  8
1DIM
 10
432.2889117755831
 20
-641.6336987401644
 30
0.0
  0
VERTEX
  5
211D0
  8
1DIM
 10
432.2724319210131
 20
-641.5908961024397
 30
0.0
  0
VERTEX
  5
211D1
  8
1DIM
 10
432.2564389093167
 20
-641.547878451852
 30
0.0
  0
VERTEX
  5
211D2
  8
1DIM
 10
432.2409355218231
 20
-641.5046508896834
 30
0.0
  0
VERTEX
  5
211D3
  8
1DIM
 10
432.225924539862
 20
-641.4612185172158
 30
0.0
  0
VERTEX
  5
211D4
  8
1DIM
 10
432.2114087447625
 20
-641.4175864357317
 30
0.0
  0
VERTEX
  5
211D5
  8
1DIM
 10
432.1973909178543
 20
-641.3737597465131
 30
0.0
  0
VERTEX
  5
211D6
  8
1DIM
 10
432.1838738404667
 20
-641.3297435508422
 30
0.0
  0
VERTEX
  5
211D7
  8
1DIM
 10
432.1708602939291
 20
-641.2855429500011
 30
0.0
  0
VERTEX
  5
211D8
  8
1DIM
 10
432.158353059571
 20
-641.241163045272
 30
0.0
  0
VERTEX
  5
211D9
  8
1DIM
 10
432.1463549187217
 20
-641.196608937937
 30
0.0
  0
VERTEX
  5
211DA
  8
1DIM
 10
432.1348686527107
 20
-641.1518857292782
 30
0.0
  0
VERTEX
  5
211DB
  8
1DIM
 10
432.1238970428674
 20
-641.1069985205778
 30
0.0
  0
VERTEX
  5
211DC
  8
1DIM
 10
432.1134428705212
 20
-641.0619524131178
 30
0.0
  0
VERTEX
  5
211DD
  8
1DIM
 10
432.1035089170016
 20
-641.0167525081805
 30
0.0
  0
VERTEX
  5
211DE
  8
1DIM
 10
432.0940979636379
 20
-640.9714039070482
 30
0.0
  0
VERTEX
  5
211DF
  8
1DIM
 10
432.0852175754874
 20
-640.9259529443823
 30
0.0
  0
VERTEX
  5
211E0
  8
1DIM
 10
432.0768736162491
 20
-640.8804425384321
 30
0.0
  0
VERTEX
  5
211E1
  8
1DIM
 10
432.0690663152143
 20
-640.8348726658613
 30
0.0
  0
VERTEX
  5
211E2
  8
1DIM
 10
432.0617959016747
 20
-640.7892433033331
 30
0.0
  0
VERTEX
  5
211E3
  8
1DIM
 10
432.0550626049217
 20
-640.7435544275111
 30
0.0
  0
VERTEX
  5
211E4
  8
1DIM
 10
432.0488666542469
 20
-640.6978060150587
 30
0.0
  0
VERTEX
  5
211E5
  8
1DIM
 10
432.0432082789418
 20
-640.6519980426394
 30
0.0
  0
VERTEX
  5
211E6
  8
1DIM
 10
432.0380877082981
 20
-640.6061304869166
 30
0.0
  0
VERTEX
  5
211E7
  8
1DIM
 10
432.033505171607
 20
-640.5602033245539
 30
0.0
  0
VERTEX
  5
211E8
  8
1DIM
 10
432.0294608981604
 20
-640.5142165322146
 30
0.0
  0
VERTEX
  5
211E9
  8
1DIM
 10
432.0259551172497
 20
-640.4681700865623
 30
0.0
  0
VERTEX
  5
211EA
  8
1DIM
 10
432.0229880581664
 20
-640.4220639642604
 30
0.0
  0
VERTEX
  5
211EB
  8
1DIM
 10
432.0205599502021
 20
-640.3758981419724
 30
0.0
  0
VERTEX
  5
211EC
  8
1DIM
 10
432.0186710226482
 20
-640.3296725963617
 30
0.0
  0
VERTEX
  5
211ED
  8
1DIM
 10
432.0173215047964
 20
-640.2833873040917
 30
0.0
  0
VERTEX
  5
211EE
  8
1DIM
 10
432.0165116259383
 20
-640.237042241826
 30
0.0
  0
VERTEX
  5
211EF
  8
1DIM
 10
432.0162416153652
 20
-640.1906373862281
 30
0.0
  0
SEQEND
  5
21251
  8
1DIM
  0
LINE
  5
1FF7B
  8
01
  6
CONTINUOUS
 10
425.5162416153652
 20
-597.1407054265212
 30
0.0
 11
500.0162416153649
 21
-597.1407054265212
 31
0.0
  0
LINE
  5
1FF7C
  8
1DIM
 10
438.0162416153652
 20
-608.3836198423685
 30
0.0
 11
438.0162416153652
 21
-609.1407054265212
 31
0.0
  0
ARC
  5
1FF7D
  8
1DIM
 10
432.2554436314159
 20
-612.9897367587693
 30
0.0
 40
1.379689257234564
 50
260.0159608379092
 51
303.4649700898071
  0
LINE
  5
1FF7E
  8
01
  6
CONTINUOUS
 10
438.0162416153652
 20
-609.1407054265212
 30
0.0
 11
500.0162416153649
 21
-609.1407054265212
 31
0.0
  0
ARC
  5
1FF7F
  8
01
  6
CONTINUOUS
 10
438.0162416153652
 20
-614.1407054265212
 30
0.0
 40
5.0
 50
90.0
 51
180.0
  0
LINE
  5
1FF80
  8
01
  6
CONTINUOUS
 10
433.0162416153652
 20
-614.1407054265212
 30
0.0
 11
433.0162416153652
 21
-640.1407054265212
 31
0.0
  0
ARC
  5
1FF81
  8
1DIM
 10
432.2656183152152
 20
-635.1463751155602
 30
0.0
 40
5.050422813360462
 50
267.1697330293324
 51
278.5472999967624
  0
LINE
  5
1FF82
  8
1DIM
 10
436.0162416153652
 20
-643.1407054265212
 30
0.0
 11
436.0162416153652
 21
-644.1672455733626
 31
0.0
  0
LINE
  5
1FF83
  8
1DIM
 10
428.0162416153652
 20
-649.1407054265212
 30
0.0
 11
428.0162416153652
 21
-648.6408179341748
 31
0.0
  0
LINE
  5
1FF84
  8
01
  6
CONTINUOUS
 10
500.0162416153649
 20
-643.1407054265212
 30
0.0
 11
436.0162416153652
 21
-643.1407054265212
 31
0.0
  0
ARC
  5
1FF85
  8
01
  6
CONTINUOUS
 10
436.0162416153652
 20
-640.1407054265212
 30
0.0
 40
3.0
 50
180.0
 51
270.0
  0
LINE
  5
1FF86
  8
01
  6
CONTINUOUS
 10
428.0162416153647
 20
-649.1407054265212
 30
0.0
 11
500.0162416153649
 21
-649.1407054265212
 31
0.0
  0
ARC
  5
1FF87
  8
01
 10
428.0162416153647
 20
-646.1407054265212
 30
0.0
 40
3.0
 50
180.0
 51
270.0
  0
LINE
  5
20103
  8
01
 10
713.0162416153648
 20
-708.6241665813582
 30
0.0
 11
713.0162416153648
 21
-730.7741665813596
 31
0.0
  0
LINE
  5
20104
  8
01
 10
713.0162416153648
 20
-711.1241665813588
 30
0.0
 11
713.0162416153648
 21
-728.7741665813583
 31
0.0
  0
LINE
  5
20107
  8
1DIM
 10
673.8436125890391
 20
-578.8213303512664
 30
0.0
 11
743.8436125890391
 21
-578.8213303512664
 31
0.0
  0
LINE
  5
20109
  8
1DIM
 10
708.8436125890391
 20
-564.8213303512664
 30
0.0
 11
708.8436125890389
 21
-578.8213303512664
 31
0.0
  0
LINE
  5
2010B
  8
1DIM
 10
673.8436125890391
 20
-578.8213303512664
 30
0.0
 11
673.8436125890391
 21
-564.8213303512664
 31
0.0
  0
LINE
  5
2010C
  8
1DIM
 10
743.8436125890389
 20
-578.8213303512664
 30
0.0
 11
743.8436125890391
 21
-564.8213303512664
 31
0.0
  0
TEXT
  5
2010F
  8
1TEXT
 10
710.0810199964469
 20
-577.5356873349157
 30
0.0
 40
4.0
  1
SC-960-XCS
 41
0.85
 72
     1
 11
726.2436125890395
 21
-577.5356873349157
 31
0.0
  0
LINE
  5
20110
  8
01
 10
725.5162416153648
 20
-676.5459929960768
 30
0.0
 11
725.5162416153648
 21
-751.0023401666406
 31
0.0
  0
LINE
  5
20111
  8
01
 10
734.5162416153648
 20
-676.5459929960768
 30
0.0
 11
734.5162416153648
 21
-751.0023401666406
 31
0.0
  0
LINE
  5
20112
  8
01
 10
713.0162416153648
 20
-676.5459929960768
 30
0.0
 11
713.0162416153648
 21
-751.0023401666406
 31
0.0
  0
LINE
  5
20119
  8
01
 10
534.0162414684693
 20
-602.3407054265211
 30
0.0
 11
533.0162417684693
 21
-601.3407054265211
 31
0.0
  0
LINE
  5
2011A
  8
01
 10
537.3162416184692
 20
-602.3407054265211
 30
0.0
 11
537.3162416184692
 21
-601.3407054265211
 31
0.0
  0
LINE
  5
2011B
  8
01
 10
537.3162416184692
 20
-601.3407054265211
 30
0.0
 11
529.7162416184693
 21
-601.3407054265211
 31
0.0
  0
LINE
  5
2011C
  8
01
 10
537.3162416184692
 20
-602.3407054265211
 30
0.0
 11
529.7162416184693
 21
-602.3407054265211
 31
0.0
  0
LINE
  5
2011D
  8
01
 10
529.7162416184693
 20
-602.3407054265211
 30
0.0
 11
529.7162416184693
 21
-601.3407054265211
 31
0.0
  0
LINE
  5
2011F
  8
01
 10
467.0162414684693
 20
-602.3407054265211
 30
0.0
 11
466.0162417684693
 21
-601.3407054265211
 31
0.0
  0
LINE
  5
20120
  8
01
 10
470.3162416184692
 20
-602.3407054265211
 30
0.0
 11
470.3162416184692
 21
-601.3407054265211
 31
0.0
  0
LINE
  5
20121
  8
01
 10
470.3162416184692
 20
-601.3407054265211
 30
0.0
 11
462.7162416184693
 21
-601.3407054265211
 31
0.0
  0
LINE
  5
20122
  8
01
 10
470.3162416184692
 20
-602.3407054265211
 30
0.0
 11
462.7162416184693
 21
-602.3407054265211
 31
0.0
  0
LINE
  5
20123
  8
01
 10
462.7162416184693
 20
-602.3407054265211
 30
0.0
 11
462.7162416184693
 21
-601.3407054265211
 31
0.0
  0
LINE
  5
20162
  8
01
 10
471.0162416153649
 20
-601.3407054265211
 30
0.0
 11
471.0162416153651
 21
-600.5407054265212
 31
0.0
  0
LINE
  5
20163
  8
01
 10
462.0162416153649
 20
-601.3407054265211
 30
0.0
 11
462.0162416153651
 21
-600.5407054265212
 31
0.0
  0
LINE
  5
20178
  8
01
  6
CONTINUOUS
 10
471.0162416153651
 20
-600.5407054265212
 30
0.0
 11
462.0162416153651
 21
-600.5407054265212
 31
0.0
  0
LINE
  5
20179
  8
01
  6
CONTINUOUS
 10
471.0162416153649
 20
-601.3407054265211
 30
0.0
 11
462.0162416153649
 21
-601.3407054265211
 31
0.0
  0
LINE
  5
2018D
  8
01
  6
CONTINUOUS
 10
704.0162416027797
 20
-724.2673891129191
 30
0.0
 11
713.0162416027797
 21
-724.2673891129191
 31
0.0
  0
LINE
  5
2018E
  8
01
  6
CONTINUOUS
 10
713.0162416153648
 20
-723.7741683360266
 30
0.0
 11
713.0162416153648
 21
-700.7741683360267
 31
0.0
  0
LINE
  5
2018F
  8
01
  6
CONTINUOUS
 10
661.0162416027797
 20
-710.2671683069957
 30
0.0
 11
661.0162416027797
 21
-723.2673891129191
 31
0.0
  0
LINE
  5
20190
  8
01
  6
CONTINUOUS
 10
697.0162416027797
 20
-724.2673891129191
 30
0.0
 11
670.0162416027797
 21
-724.2673891129191
 31
0.0
  0
LINE
  5
20191
  8
01
  6
CONTINUOUS
 10
670.0162416027797
 20
-724.2673891129191
 30
0.0
 11
666.0162416027797
 21
-724.2673891129191
 31
0.0
  0
LINE
  5
20192
  8
01
  6
CONTINUOUS
 10
703.0162416027797
 20
-724.2673891129191
 30
0.0
 11
697.0162416027797
 21
-724.2673891129191
 31
0.0
  0
LINE
  5
20193
  8
01
  6
CONTINUOUS
 10
703.0162416027797
 20
-724.2673891129191
 30
0.0
 11
697.0162416027797
 21
-724.2673891129191
 31
0.0
  0
LINE
  5
20194
  8
01
  6
CONTINUOUS
 10
664.0162416027797
 20
-724.2673891129191
 30
0.0
 11
713.0162416027797
 21
-724.2673891129191
 31
0.0
  0
LINE
  5
20195
  8
01
  6
CONTINUOUS
 10
670.0162416027797
 20
-724.2673891129191
 30
0.0
 11
666.0162416027797
 21
-724.2673891129191
 31
0.0
  0
LINE
  5
20196
  8
01
  6
CONTINUOUS
 10
704.0162416027797
 20
-724.2673891129191
 30
0.0
 11
703.5162416027797
 21
-724.2673891129191
 31
0.0
  0
LINE
  5
20197
  8
01
  6
CONTINUOUS
 10
704.0162416027797
 20
-724.2673891129191
 30
0.0
 11
703.5162416027797
 21
-724.2673891129191
 31
0.0
  0
LINE
  5
20198
  8
01
  6
CONTINUOUS
 10
662.0162416027797
 20
-724.2673891129191
 30
0.0
 11
664.0162416027797
 21
-724.2673891129191
 31
0.0
  0
ARC
  5
20199
  8
01
  6
CONTINUOUS
 10
662.0162416027797
 20
-723.2673891129191
 30
0.0
 40
1.0
 50
180.0
 51
270.0
  0
LINE
  5
2019A
  8
01
  6
CONTINUOUS
 10
662.0162416027797
 20
-724.2673891129191
 30
0.0
 11
664.0162416027797
 21
-724.2673891129191
 31
0.0
  0
ARC
  5
2019B
  8
01
  6
CONTINUOUS
 10
661.4778764928997
 20
-539.2680158986975
 30
0.0
 40
170.0
 50
270.8530380105584
 51
287.6479113685525
  0
POLYLINE
  5
2019C
  8
01
  6
CONTINUOUS
 66
     1
 10
0.0
 20
0.0
 30
0.0
  0
VERTEX
  5
211F0
  8
01
  6
CONTINUOUS
 10
664.0087977168268
 20
-709.2491749656901
 30
0.0
  0
VERTEX
  5
211F1
  8
01
  6
CONTINUOUS
 10
663.976383545324
 20
-709.2496543614556
 30
0.0
  0
VERTEX
  5
211F2
  8
01
  6
CONTINUOUS
 10
663.9439883171472
 20
-709.2501270556654
 30
0.0
  0
VERTEX
  5
211F3
  8
01
  6
CONTINUOUS
 10
663.9116174266663
 20
-709.2505930362972
 30
0.0
  0
VERTEX
  5
211F4
  8
01
  6
CONTINUOUS
 10
663.8792762682518
 20
-709.2510522913287
 30
0.0
  0
VERTEX
  5
211F5
  8
01
  6
CONTINUOUS
 10
663.8469702362735
 20
-709.2515048087371
 30
0.0
  0
VERTEX
  5
211F6
  8
01
  6
CONTINUOUS
 10
663.8147047251015
 20
-709.2519505765
 30
0.0
  0
VERTEX
  5
211F7
  8
01
  6
CONTINUOUS
 10
663.782485129106
 20
-709.2523895825949
 30
0.0
  0
VERTEX
  5
211F8
  8
01
  6
CONTINUOUS
 10
663.750316842657
 20
-709.2528218149994
 30
0.0
  0
VERTEX
  5
211F9
  8
01
  6
CONTINUOUS
 10
663.7182052601247
 20
-709.2532472616908
 30
0.0
  0
VERTEX
  5
211FA
  8
01
  6
CONTINUOUS
 10
663.6861557758791
 20
-709.2536659106469
 30
0.0
  0
VERTEX
  5
211FB
  8
01
  6
CONTINUOUS
 10
663.6541737842903
 20
-709.2540777498449
 30
0.0
  0
VERTEX
  5
211FC
  8
01
  6
CONTINUOUS
 10
663.6222646797283
 20
-709.2544827672623
 30
0.0
  0
VERTEX
  5
211FD
  8
01
  6
CONTINUOUS
 10
663.5904338565637
 20
-709.2548809508768
 30
0.0
  0
VERTEX
  5
211FE
  8
01
  6
CONTINUOUS
 10
663.5586867091658
 20
-709.2552722886658
 30
0.0
  0
VERTEX
  5
211FF
  8
01
  6
CONTINUOUS
 10
663.5270286319052
 20
-709.2556567686067
 30
0.0
  0
VERTEX
  5
21200
  8
01
  6
CONTINUOUS
 10
663.495465019152
 20
-709.2560343786774
 30
0.0
  0
VERTEX
  5
21201
  8
01
  6
CONTINUOUS
 10
663.464001265276
 20
-709.2564051068549
 30
0.0
  0
VERTEX
  5
21202
  8
01
  6
CONTINUOUS
 10
663.4326427646477
 20
-709.256768941117
 30
0.0
  0
VERTEX
  5
21203
  8
01
  6
CONTINUOUS
 10
663.4013949116368
 20
-709.2571258694411
 30
0.0
  0
VERTEX
  5
21204
  8
01
  6
CONTINUOUS
 10
663.3702631006136
 20
-709.2574758798047
 30
0.0
  0
VERTEX
  5
21205
  8
01
  6
CONTINUOUS
 10
663.3392527259481
 20
-709.2578189601853
 30
0.0
  0
VERTEX
  5
21206
  8
01
  6
CONTINUOUS
 10
663.3083691820104
 20
-709.2581550985605
 30
0.0
  0
VERTEX
  5
21207
  8
01
  6
CONTINUOUS
 10
663.2776178631708
 20
-709.2584842829076
 30
0.0
  0
VERTEX
  5
21208
  8
01
  6
CONTINUOUS
 10
663.247004163799
 20
-709.2588065012043
 30
0.0
  0
VERTEX
  5
21209
  8
01
  6
CONTINUOUS
 10
663.2165334782655
 20
-709.259121741428
 30
0.0
  0
VERTEX
  5
2120A
  8
01
  6
CONTINUOUS
 10
663.1862112009402
 20
-709.2594299915562
 30
0.0
  0
VERTEX
  5
2120B
  8
01
  6
CONTINUOUS
 10
663.1560427261932
 20
-709.2597312395663
 30
0.0
  0
VERTEX
  5
2120C
  8
01
  6
CONTINUOUS
 10
663.1260334483947
 20
-709.260025473436
 30
0.0
  0
VERTEX
  5
2120D
  8
01
  6
CONTINUOUS
 10
663.0961887619145
 20
-709.2603126811429
 30
0.0
  0
VERTEX
  5
2120E
  8
01
  6
CONTINUOUS
 10
663.0665140611228
 20
-709.2605928506642
 30
0.0
  0
VERTEX
  5
2120F
  8
01
  6
CONTINUOUS
 10
663.0370082841475
 20
-709.2608660568171
 30
0.0
  0
VERTEX
  5
21210
  8
01
  6
CONTINUOUS
 10
663.0076384791762
 20
-709.2611328282459
 30
0.0
  0
VERTEX
  5
21211
  8
01
  6
CONTINUOUS
 10
662.9784049903993
 20
-709.2613932845542
 30
0.0
  0
VERTEX
  5
21212
  8
01
  6
CONTINUOUS
 10
662.9493147430677
 20
-709.2616474596101
 30
0.0
  0
VERTEX
  5
21213
  8
01
  6
CONTINUOUS
 10
662.920374662432
 20
-709.2618953872818
 30
0.0
  0
VERTEX
  5
21214
  8
01
  6
CONTINUOUS
 10
662.8915916737433
 20
-709.2621371014375
 30
0.0
  0
VERTEX
  5
21215
  8
01
  6
CONTINUOUS
 10
662.862972702252
 20
-709.2623726359454
 30
0.0
  0
VERTEX
  5
21216
  8
01
  6
CONTINUOUS
 10
662.8345246732093
 20
-709.2626020246736
 30
0.0
  0
VERTEX
  5
21217
  8
01
  6
CONTINUOUS
 10
662.8062545118659
 20
-709.2628253014904
 30
0.0
  0
VERTEX
  5
21218
  8
01
  6
CONTINUOUS
 10
662.7781691434724
 20
-709.2630425002637
 30
0.0
  0
VERTEX
  5
21219
  8
01
  6
CONTINUOUS
 10
662.7502754932798
 20
-709.2632536548621
 30
0.0
  0
VERTEX
  5
2121A
  8
01
  6
CONTINUOUS
 10
662.722580486539
 20
-709.2634587991533
 30
0.0
  0
VERTEX
  5
2121B
  8
01
  6
CONTINUOUS
 10
662.6950910485004
 20
-709.2636579670058
 30
0.0
  0
VERTEX
  5
2121C
  8
01
  6
CONTINUOUS
 10
662.6678141044154
 20
-709.2638511922878
 30
0.0
  0
VERTEX
  5
2121D
  8
01
  6
CONTINUOUS
 10
662.6407565795342
 20
-709.2640385088672
 30
0.0
  0
VERTEX
  5
2121E
  8
01
  6
CONTINUOUS
 10
662.6139268145092
 20
-709.2642199444971
 30
0.0
  0
VERTEX
  5
2121F
  8
01
  6
CONTINUOUS
 10
662.5873613616822
 20
-709.2643954196876
 30
0.0
  0
VERTEX
  5
21220
  8
01
  6
CONTINUOUS
 10
662.5610734526956
 20
-709.2645649921476
 30
0.0
  0
VERTEX
  5
21221
  8
01
  6
CONTINUOUS
 10
662.535062645283
 20
-709.2647287839766
 30
0.0
  0
VERTEX
  5
21222
  8
01
  6
CONTINUOUS
 10
662.5093284971782
 20
-709.264886917274
 30
0.0
  0
VERTEX
  5
21223
  8
01
  6
CONTINUOUS
 10
662.4838705661148
 20
-709.2650395141393
 30
0.0
  0
VERTEX
  5
21224
  8
01
  6
CONTINUOUS
 10
662.4586884098266
 20
-709.2651866966718
 30
0.0
  0
VERTEX
  5
21225
  8
01
  6
CONTINUOUS
 10
662.4337815860472
 20
-709.2653285869711
 30
0.0
  0
VERTEX
  5
21226
  8
01
  6
CONTINUOUS
 10
662.4091496525105
 20
-709.2654653071368
 30
0.0
  0
VERTEX
  5
21227
  8
01
  6
CONTINUOUS
 10
662.38479216695
 20
-709.2655969792683
 30
0.0
  0
VERTEX
  5
21228
  8
01
  6
CONTINUOUS
 10
662.3607086870994
 20
-709.2657237254649
 30
0.0
  0
VERTEX
  5
21229
  8
01
  6
CONTINUOUS
 10
662.3368987706925
 20
-709.2658456678263
 30
0.0
  0
VERTEX
  5
2122A
  8
01
  6
CONTINUOUS
 10
662.313361975463
 20
-709.2659629284518
 30
0.0
  0
VERTEX
  5
2122B
  8
01
  6
CONTINUOUS
 10
662.2900978591445
 20
-709.2660756294409
 30
0.0
  0
VERTEX
  5
2122C
  8
01
  6
CONTINUOUS
 10
662.2671059794708
 20
-709.2661838928932
 30
0.0
  0
VERTEX
  5
2122D
  8
01
  6
CONTINUOUS
 10
662.2443858941755
 20
-709.266287840908
 30
0.0
  0
VERTEX
  5
2122E
  8
01
  6
CONTINUOUS
 10
662.2219288028576
 20
-709.2663875933484
 30
0.0
  0
VERTEX
  5
2122F
  8
01
  6
CONTINUOUS
 10
662.1997318607896
 20
-709.2664832439345
 30
0.0
  0
VERTEX
  5
21230
  8
01
  6
CONTINUOUS
 10
662.1778036981124
 20
-709.2665748754911
 30
0.0
  0
VERTEX
  5
21231
  8
01
  6
CONTINUOUS
 10
662.1561529450207
 20
-709.2666625708426
 30
0.0
  0
VERTEX
  5
21232
  8
01
  6
CONTINUOUS
 10
662.1347882317096
 20
-709.266746412814
 30
0.0
  0
VERTEX
  5
21233
  8
01
  6
CONTINUOUS
 10
662.1137181883742
 20
-709.2668264842298
 30
0.0
  0
VERTEX
  5
21234
  8
01
  6
CONTINUOUS
 10
662.0929514452093
 20
-709.2669028679146
 30
0.0
  0
VERTEX
  5
21235
  8
01
  6
CONTINUOUS
 10
662.0724966324101
 20
-709.2669756466933
 30
0.0
  0
VERTEX
  5
21236
  8
01
  6
CONTINUOUS
 10
662.0523623801713
 20
-709.2670449033903
 30
0.0
  0
VERTEX
  5
21237
  8
01
  6
CONTINUOUS
 10
662.0325573186881
 20
-709.2671107208304
 30
0.0
  0
VERTEX
  5
21238
  8
01
  6
CONTINUOUS
 10
662.0130900781555
 20
-709.2671731818384
 30
0.0
  0
SEQEND
  5
21252
  8
01
  6
CONTINUOUS
  0
ARC
  5
2019D
  8
01
  6
CONTINUOUS
 10
662.016241602827
 20
-710.2671682613839
 30
0.0
 40
1.0
 50
90.18056935335994
 51
180.0000026133595
  0
LINE
  5
2019E
  8
1PHANTOM
 10
542.6162398153045
 20
-597.1407054265212
 30
0.0
 11
457.0162398153046
 21
-597.1407054265212
 31
0.0
  0
ARC
  5
2019F
  8
1PHANTOM
 10
541.6162398153045
 20
-605.6407069564189
 30
0.0
 40
1.0
 50
270.0000000002345
 51
0.0
  0
ARC
  5
201A0
  8
1PHANTOM
 10
-458.0162398153046
 20
-605.6407069564189
 30
0.0
 40
1.0
 50
270.0000000002345
 51
0.0
210
0.0
220
0.0
230
-1.0
  0
LINE
  5
201A1
  8
1PHANTOM
 10
458.0150946769288
 20
-606.6407063007476
 30
0.0
 11
541.617384953625
 21
-606.6407063007478
 31
0.0
  0
LINE
  5
201A2
  8
1PHANTOM
 10
457.0162398153046
 20
-605.6407069564189
 30
0.0
 11
457.0162398153046
 21
-597.14070538281
 31
0.0
  0
LINE
  5
201A3
  8
1PHANTOM
 10
542.6162398153045
 20
-605.6407069564189
 30
0.0
 11
542.6162398153045
 21
-597.1407054265212
 31
0.0
  0
LINE
  5
201A4
  8
1PHANTOM
 10
456.616251250069
 20
-605.3407070045012
 30
0.0
 11
456.616251250069
 21
-603.8407070045012
 31
0.0
  0
LINE
  5
201A5
  8
1PHANTOM
 10
543.0162436206746
 20
-605.3407070045012
 30
0.0
 11
543.0162436206746
 21
-603.8407070045012
 31
0.0
  0
LINE
  5
201A6
  8
1PHANTOM
 10
457.0162512619903
 20
-603.8407070219857
 30
0.0
 11
456.616251250069
 21
-603.8407070045012
 31
0.0
  0
LINE
  5
201A7
  8
1PHANTOM
 10
457.0162512619903
 20
-605.3407070219857
 30
0.0
 11
456.616251250069
 21
-605.3407070045012
 31
0.0
  0
LINE
  5
201A8
  8
1PHANTOM
 10
542.6162436087542
 20
-603.8407070219857
 30
0.0
 11
543.0162436206746
 21
-603.8407070045012
 31
0.0
  0
LINE
  5
201A9
  8
1PHANTOM
 10
542.6162436087542
 20
-605.3407070219857
 30
0.0
 11
543.0162436206746
 21
-605.3407070045012
 31
0.0
  0
LINE
  5
201AA
  8
1PHANTOM
 10
526.3162392184732
 20
-606.6407063007478
 30
0.0
 11
526.010897661805
 21
-606.6407063007478
 31
0.0
  0
ARC
  5
201AB
  8
1PHANTOM
 10
466.5162416153648
 20
-712.8741691665407
 30
0.0
 40
2.099999999999994
 50
0.0
 51
180.0
  0
LINE
  5
201AC
  8
1PHANTOM
 10
464.4162424855926
 20
-714.67416889333
 30
0.0
 11
464.4162424855926
 21
-712.8741691570806
 31
0.0
  0
ARC
  5
201AD
  8
1PHANTOM
 10
466.5162416153648
 20
-714.6741691665408
 30
0.0
 40
2.099999999999994
 50
180.0
 51
0.0
  0
LINE
  5
201AE
  8
1PHANTOM
 10
468.6162428014973
 20
-712.8741691570806
 30
0.0
 11
468.6162428014973
 21
-714.67416889333
 31
0.0
  0
LINE
  5
201AF
  8
1CENTER
 10
463.7862416154949
 20
-713.7741691665403
 30
0.0
 11
469.246241615235
 21
-713.7741691665403
 31
0.0
  0
LINE
  5
201B0
  8
1CENTER
 10
466.5162416153649
 20
-715.6041691664104
 30
0.0
 11
466.5162416153649
 21
-710.1441691666704
 31
0.0
  0
LINE
  5
201B1
  8
1CENTER
 10
466.5162416153649
 20
-717.4041691664105
 30
0.0
 11
466.5162416153649
 21
-711.9441691666705
 31
0.0
  0
ARC
  5
201B3
  8
1PHANTOM
 10
533.5162416153651
 20
-712.8741691665407
 30
0.0
 40
2.099999999999994
 50
0.0
 51
180.0
  0
LINE
  5
201B4
  8
1PHANTOM
 10
535.6162407451372
 20
-714.67416889333
 30
0.0
 11
535.6162407451372
 21
-712.8741691570806
 31
0.0
  0
ARC
  5
201B5
  8
1PHANTOM
 10
533.5162416153651
 20
-714.6741691665408
 30
0.0
 40
2.099999999999994
 50
180.0
 51
0.0
  0
LINE
  5
201B6
  8
1PHANTOM
 10
531.4162404292326
 20
-712.8741691570806
 30
0.0
 11
531.4162404292326
 21
-714.67416889333
 31
0.0
  0
LINE
  5
201B7
  8
1CENTER
 10
533.516241615365
 20
-715.6041691664104
 30
0.0
 11
533.516241615365
 21
-710.1441691666704
 31
0.0
  0
LINE
  5
201B8
  8
1CENTER
 10
533.516241615365
 20
-717.4041691664105
 30
0.0
 11
533.516241615365
 21
-711.9441691666705
 31
0.0
  0
LINE
  5
201B9
  8
01
 10
529.016241615365
 20
-601.3407054265211
 30
0.0
 11
529.0162416153648
 21
-600.5407054265212
 31
0.0
  0
LINE
  5
201BA
  8
01
 10
538.016241615365
 20
-601.3407054265211
 30
0.0
 11
538.0162416153648
 21
-600.5407054265212
 31
0.0
  0
LINE
  5
201BB
  8
01
  6
CONTINUOUS
 10
529.0162416153648
 20
-600.5407054265212
 30
0.0
 11
538.0162416153648
 21
-600.5407054265212
 31
0.0
  0
LINE
  5
201BC
  8
01
  6
CONTINUOUS
 10
529.016241615365
 20
-601.3407054265211
 30
0.0
 11
538.016241615365
 21
-601.3407054265211
 31
0.0
  0
LINE
  5
201BD
  8
1PHANTOM
 10
703.5162383771922
 20
-720.7809511871801
 30
0.0
 11
703.5162388798726
 21
-709.2809511871803
 31
0.0
  0
LINE
  5
201BE
  8
1PHANTOM
 10
703.5162388361614
 20
-709.2809511871803
 30
0.0
 11
703.5162388798726
 21
-708.2809511434689
 31
0.0
  0
LINE
  5
201BF
  8
1PHANTOM
 10
703.51623833348
 20
-720.7809511871801
 30
0.0
 11
703.5162382897688
 21
-721.7809511434689
 31
0.0
  0
LINE
  5
201C0
  8
1PHANTOM
 10
713.0162418193177
 20
-705.7809487743086
 30
0.0
 11
713.0162413600347
 21
-723.7809479437944
 31
0.0
  0
ARC
  5
201C1
  8
1PHANTOM
 10
-704.5162387487389
 20
-706.7809484115039
 30
0.0
 40
1.0
 50
0.0000025047031979
 51
90.00000250446867
210
0.0
220
0.0
230
-1.0
  0
LINE
  5
201C2
  8
1PHANTOM
 10
704.5162387924502
 20
-705.7809484115039
 30
0.0
 11
713.0162403660588
 21
-705.7809487743086
 31
0.0
  0
LINE
  5
201C3
  8
1PHANTOM
 10
713.0162413671362
 20
-724.2741687206869
 30
0.0
 11
704.0162397935276
 21
-724.2741683360266
 31
0.0
  0
LINE
  5
201C4
  8
1PHANTOM
 10
713.0162413885064
 20
-723.7741687206869
 30
0.0
 11
704.0162398148977
 21
-723.7741683360266
 31
0.0
  0
LINE
  5
201C5
  8
1PHANTOM
 10
703.5162387487389
 20
-706.7809483677927
 30
0.0
 11
703.5162386831717
 21
-708.2809509467677
 31
0.0
  0
LINE
  5
201C6
  8
1PHANTOM
 10
703.5162380930678
 20
-721.7809509467675
 30
0.0
 11
703.5162380275005
 21
-723.2809475372783
 31
0.0
  0
ARC
  5
201C7
  8
1PHANTOM
 10
704.0162380275005
 20
-723.2809475591341
 30
0.0
 40
0.5
 50
179.9999974957528
 51
269.9999974955313
  0
LINE
  5
201C8
  8
1CENTER
 10
705.693892385118
 20
-713.7741665813587
 30
0.0
 11
715.7990746893743
 21
-713.7741665813587
 31
0.0
  0
LINE
  5
201C9
  8
01
 10
707.8162398148979
 20
-714.274166434463
 30
0.0
 11
708.8162398148979
 21
-713.274166734463
 31
0.0
  0
LINE
  5
201CA
  8
01
 10
707.8162398148979
 20
-717.574166584463
 30
0.0
 11
708.8162398148979
 21
-717.574166584463
 31
0.0
  0
LINE
  5
201CB
  8
01
 10
708.8162398148979
 20
-717.574166584463
 30
0.0
 11
708.8162398148979
 21
-709.9741665844631
 31
0.0
  0
LINE
  5
201CC
  8
01
 10
707.8162398148979
 20
-717.574166584463
 30
0.0
 11
707.8162398148979
 21
-709.9741665844631
 31
0.0
  0
LINE
  5
201CD
  8
01
 10
707.8162398148979
 20
-709.9741665844631
 30
0.0
 11
708.8162398148979
 21
-709.9741665844631
 31
0.0
  0
LINE
  5
201CF
  8
01
 10
708.8162398148979
 20
-709.2741665813587
 30
0.0
 11
709.6162398148977
 21
-709.2741665813586
 31
0.0
  0
LINE
  5
201D0
  8
01
 10
708.8162398148979
 20
-718.2741665813587
 30
0.0
 11
709.6162398148977
 21
-718.2741665813586
 31
0.0
  0
LINE
  5
201D1
  8
01
  6
CONTINUOUS
 10
709.6162398148977
 20
-709.2741665813586
 30
0.0
 11
709.6162398148977
 21
-718.2741665813586
 31
0.0
  0
LINE
  5
201D2
  8
01
  6
CONTINUOUS
 10
708.8162398148979
 20
-709.2741665813587
 30
0.0
 11
708.8162398148979
 21
-718.2741665813587
 31
0.0
  0
LINE
  5
201D5
  8
1CENTER
 10
536.246241615235
 20
-713.7741691665403
 30
0.0
 11
530.7862416154949
 21
-713.7741691665403
 31
0.0
  0
LINE
  5
20471
  8
01
  6
CONTINUOUS
 10
438.0162416153652
 20
-609.1407054265212
 30
0.0
 11
500.0162416153649
 21
-609.1407054265212
 31
0.0
  0
TEXT
  5
204DF
  8
01
  6
CONTINUOUS
 10
719.7537571261873
 20
-669.3430975342395
 30
0.0
 40
3.5
  1
PB
  0
TEXT
  5
204E0
  8
01
  6
CONTINUOUS
 10
732.8891752713525
 20
-669.3430975342395
 30
0.0
 40
3.5
  1
合板9mm以上
  0
LINE
  5
204E1
  8
1DIM
 10
568.0162416153647
 20
-709.0559615917149
 30
0.0
 11
567.8211512933486
 21
-709.0751523432878
 31
0.0
  0
LINE
  5
204E2
  8
1DIM
 10
567.8211512933486
 20
-709.0751523432878
 30
0.0
 11
567.7123948045308
 21
-709.1031817156137
 31
0.0
  0
LINE
  5
204E3
  8
1DIM
 10
572.0162416153647
 20
-649.1407054265212
 30
0.0
 11
595.3955558894663
 21
-649.1407054265212
 31
0.0
  0
LINE
  5
204E4
  8
1DIM
 10
575.0162416153647
 20
-597.1407054265212
 30
0.0
 11
595.3955558894663
 21
-597.1407054265212
 31
0.0
  0
LINE
  5
204E5
  8
1DIM
 10
594.3955558894663
 20
-647.1407054265212
 30
0.0
 11
594.3955558894663
 21
-599.1407054265212
 31
0.0
  0
LINE
  5
204E9
  8
1DIM
 10
564.0162416153648
 20
-643.1407054265212
 30
0.0
 11
585.4402967795036
 21
-643.1407054265212
 31
0.0
  0
LINE
  5
204EA
  8
1DIM
 10
562.0162416153646
 20
-609.1407054265212
 30
0.0
 11
585.4402967795036
 21
-609.1407054265212
 31
0.0
  0
LINE
  5
204EB
  8
1DIM
 10
584.4402967795036
 20
-641.1407054265212
 30
0.0
 11
584.4402967795036
 21
-611.1407054265212
 31
0.0
  0
LINE
  5
204EF
  8
1DIM
 10
562.0162416153647
 20
-609.1407054265212
 30
0.0
 11
585.4402967795035
 21
-609.1407054265212
 31
0.0
  0
LINE
  5
204F0
  8
1DIM
 10
575.0162416153647
 20
-597.1407054265212
 30
0.0
 11
585.4402967795035
 21
-597.1407054265212
 31
0.0
  0
LINE
  5
204F1
  8
1DIM
 10
584.4402967795035
 20
-607.1407054265212
 30
0.0
 11
584.4402967795035
 21
-599.1407054265212
 31
0.0
  0
LINE
  5
204F5
  8
1DIM
 10
432.0162416153652
 20
-709.0559615917149
 30
0.0
 11
432.2113319373813
 21
-709.0751523432878
 31
0.0
  0
LINE
  5
204F6
  8
1DIM
 10
432.2113319373813
 20
-709.0751523432878
 30
0.0
 11
432.320088426199
 21
-709.1031817156137
 31
0.0
  0
SOLID
  5
204F7
  8
1DIM
 10
691.1841592626207
 20
-718.4491597772511
 30
0.0
 11
692.3506453287046
 21
-716.7907203394834
 31
0.0
 12
691.7850848135769
 22
-718.737834207453
 32
0.0
 13
691.7850848135769
 23
-718.737834207453
 33
0.0
1001
ACAD
1000
DSTYLE
1002
{
1070
    45
1040
0.5
1002
}
  0
LINE
  5
204F8
  8
1DIM
 10
691.4846220380988
 20
-718.5934969923521
 30
0.0
 11
677.8424033003705
 21
-746.9921251822484
 31
0.0
1001
ACAD
1000
DSTYLE
1002
{
1070
    45
1040
0.5
1002
}
  0
LINE
  5
204F9
  8
1DIM
 10
677.8424033003705
 20
-746.9921251822484
 30
0.0
 11
630.5757366337039
 21
-746.9921251822484
 31
0.0
1001
ACAD
1000
DSTYLE
1002
{
1070
    45
1040
0.5
1002
}
  0
TEXT
  5
204FA
  8
1DIM
  6
CONTINUOUS
 10
630.3424033003704
 20
-740.458791848915
 30
0.0
 40
3.5
  1
材質：亜鉛ダイキャスト
  0
TEXT
  5
204FB
  8
1DIM
  6
CONTINUOUS
 10
638.2757366337038
 20
-746.2921251822484
 30
0.0
 40
3.5
  1
仕上げ：各種メッキ
  0
LINE
  5
204FC
  8
1DIM
 10
744.247034732201
 20
-713.7741665813587
 30
0.0
 11
751.3162416153648
 21
-713.7741665813587
 31
0.0
1001
ACAD
1000
DSTYLE
1002
{
1070
    45
1040
0.5
1070
   271
1070
     0
1002
}
  0
LINE
  5
204FD
  8
1DIM
 10
713.0162416027592
 20
-701.2673891129258
 30
0.0
 11
751.3162416153648
 21
-701.2673891129258
 31
0.0
1001
ACAD
1000
DSTYLE
1002
{
1070
    45
1040
0.5
1070
   271
1070
     0
1002
}
  0
LINE
  5
204FE
  8
1DIM
 10
750.3162416153648
 20
-711.7741665813587
 30
0.0
 11
750.3162416153648
 21
-703.2673891129258
 31
0.0
1001
ACAD
1000
DSTYLE
1002
{
1070
    45
1040
0.5
1070
   271
1070
     0
1002
}
  0
LINE
  5
20502
  8
1DIM
 10
713.0162416153648
 20
-724.2741687206869
 30
0.0
 11
759.5069040167624
 21
-724.2741687206869
 31
0.0
1001
ACAD
1000
DSTYLE
1002
{
1070
    45
1040
0.5
1002
}
  0
LINE
  5
20503
  8
1DIM
 10
713.0162416027592
 20
-701.2673891129258
 30
0.0
 11
759.5069040167624
 21
-701.2673891129258
 31
0.0
1001
ACAD
1000
DSTYLE
1002
{
1070
    45
1040
0.5
1002
}
  0
LINE
  5
20504
  8
1DIM
 10
758.5069040167624
 20
-722.2741687206869
 30
0.0
 11
758.5069040167624
 21
-703.2673891129258
 31
0.0
1001
ACAD
1000
DSTYLE
1002
{
1070
    45
1040
0.5
1002
}
  0
SOLID
  5
20508
  8
1DIM
 10
716.6708479197653
 20
-682.8882654439238
 30
0.0
 11
715.9299131930725
 21
-684.775625198155
 31
0.0
 12
716.0186807169501
 22
-682.7499817354953
 32
0.0
 13
716.0186807169501
 23
-682.7499817354953
 33
0.0
1001
ACAD
1000
DSTYLE
1002
{
1070
    45
1040
0.5
1002
}
  0
LINE
  5
20509
  8
1DIM
 10
716.3447643183578
 20
-682.8191235897095
 30
0.0
 11
719.0537571261873
 21
-670.0430975342396
 31
0.0
1001
ACAD
1000
DSTYLE
1002
{
1070
    45
1040
0.5
1002
}
  0
SOLID
  5
2050A
  8
1DIM
 10
729.8062660649305
 20
-682.8882654439238
 30
0.0
 11
729.0653313382377
 21
-684.775625198155
 31
0.0
 12
729.1540988621153
 22
-682.7499817354953
 32
0.0
 13
729.1540988621153
 23
-682.7499817354953
 33
0.0
1001
ACAD
1000
DSTYLE
1002
{
1070
    45
1040
0.5
1002
}
  0
LINE
  5
2050B
  8
1DIM
 10
729.480182463523
 20
-682.8191235897095
 30
0.0
 11
732.1891752713525
 21
-670.0430975342396
 31
0.0
1001
ACAD
1000
DSTYLE
1002
{
1070
    45
1040
0.5
1002
}
  0
LINE
  5
2050C
  8
0
 10
533.5162881512629
 20
-567.3407054266835
 30
0.0
 11
532.0162881512629
 21
-572.6407019365452
 31
0.0
  0
LINE
  5
2050D
  8
0
 10
532.0162881512629
 20
-572.6407019365452
 30
0.0
 11
532.0162881512631
 21
-602.3407019364371
 31
0.0
  0
LINE
  5
2050E
  8
0
 10
533.5162881512629
 20
-567.3407054266835
 30
0.0
 11
535.016288151263
 21
-572.6407089169288
 31
0.0
  0
LINE
  5
2050F
  8
0
 10
530.0162416153651
 20
-602.3406972827389
 30
0.0
 11
537.016241615365
 21
-602.3407135703034
 31
0.0
  0
LINE
  5
20510
  8
0
 10
535.016288151263
 20
-572.6407089169288
 30
0.0
 11
535.0162881512631
 21
-602.3407089168218
 31
0.0
  0
LINE
  5
20511
  8
0
 10
530.0162416153651
 20
-602.3406972827389
 30
0.0
 11
530.016241615365
 21
-603.4407007729343
 31
0.0
  0
ARC
  5
20512
  8
0
 10
531.516241615365
 20
-603.4407007729343
 30
0.0
 40
1.5
 50
180.0
 51
269.9998666844662
  0
LINE
  5
20513
  8
0
 10
537.016241615365
 20
-602.3407135703034
 30
0.0
 11
537.016241615365
 21
-603.440710080114
 31
0.0
  0
LINE
  5
20514
  8
0
 10
531.5162381251725
 20
-604.9407007729302
 30
0.0
 11
535.5162381251725
 21
-604.9407100801099
 31
0.0
  0
ARC
  5
20515
  8
0
 10
535.516241615365
 20
-603.440710080114
 30
0.0
 40
1.5
 50
269.9998666844662
 51
0.0
  0
LINE
  5
20516
  8
1CENTER
 10
533.516241615365
 20
-565.9099105092181
 30
0.0
 11
533.516241615365
 21
-606.01098183583
 31
0.0
  0
LINE
  5
20517
  8
0
 10
532.4219178013699
 20
-569.4407028803613
 30
0.0
 11
534.3842528902453
 21
-568.6407074463103
 31
0.0
  0
LINE
  5
20518
  8
0
 10
534.3842528902453
 20
-568.6407074463103
 30
0.0
 11
533.7959763152029
 21
-568.3289375900582
 31
0.0
  0
LINE
  5
20519
  8
0
 10
531.5162881512629
 20
-591.8407007731513
 30
0.0
 11
535.5162881512629
 21
-591.040710080333
 31
0.0
  0
LINE
  5
2051A
  8
0
 10
531.5162881512629
 20
-580.6407007731469
 30
0.0
 11
535.5162881512629
 21
-579.8407100803244
 31
0.0
  0
LINE
  5
2051B
  8
0
 10
531.5162881512629
 20
-577.4407007731469
 30
0.0
 11
535.5162881512629
 21
-576.6407100803243
 31
0.0
  0
LINE
  5
2051C
  8
0
 10
535.5162881512629
 20
-576.6407100803243
 30
0.0
 11
535.0162881512629
 21
-576.5407089169271
 31
0.0
  0
LINE
  5
2051D
  8
0
 10
532.0162881512629
 20
-575.9407019365441
 30
0.0
 11
531.5162881512629
 21
-575.8407007731469
 31
0.0
  0
LINE
  5
2051E
  8
0
 10
535.5162881512629
 20
-579.8407100803244
 30
0.0
 11
535.0162881512629
 21
-579.7407089169271
 31
0.0
  0
LINE
  5
2051F
  8
0
 10
535.5162881512629
 20
-578.2407100803242
 30
0.0
 11
535.0162881512629
 21
-578.1407089169271
 31
0.0
  0
LINE
  5
20520
  8
0
 10
532.0162881512629
 20
-577.540701936544
 30
0.0
 11
531.5162881512629
 21
-577.4407007731469
 31
0.0
  0
LINE
  5
20521
  8
0
 10
532.0162881512629
 20
-579.1407019365439
 30
0.0
 11
531.5162881512629
 21
-579.0407007731468
 31
0.0
  0
LINE
  5
20522
  8
0
 10
531.5162881512629
 20
-579.0407007731468
 30
0.0
 11
535.5162881512629
 21
-578.2407100803242
 31
0.0
  0
LINE
  5
20523
  8
0
 10
534.8370669946521
 20
-570.240708499916
 30
0.0
 11
534.2853175308488
 21
-570.057944357288
 31
0.0
  0
LINE
  5
20524
  8
0
 10
535.5162881512629
 20
-573.4407100803243
 30
0.0
 11
535.0162881512629
 21
-573.3407089169272
 31
0.0
  0
LINE
  5
20525
  8
0
 10
535.5162881512629
 20
-575.0407100803243
 30
0.0
 11
535.0162881512629
 21
-574.9407089169273
 31
0.0
  0
LINE
  5
20526
  8
0
 10
535.2898810990589
 20
-571.8407095535216
 30
0.0
 11
534.7532873637878
 21
-571.7114388558917
 31
0.0
  0
LINE
  5
20527
  8
0
 10
532.4372027484716
 20
-571.1534713391071
 30
0.0
 11
531.9691042933216
 21
-571.0407018267571
 31
0.0
  0
LINE
  5
20528
  8
0
 10
532.0162881512629
 20
-574.340701936544
 30
0.0
 11
531.5162881512629
 21
-574.2407007731468
 31
0.0
  0
LINE
  5
20529
  8
0
 10
532.0162881512629
 20
-572.740701936544
 30
0.0
 11
531.5162881512629
 21
-572.6407007731469
 31
0.0
  0
LINE
  5
2052A
  8
0
 10
532.879089642001
 20
-569.5921386768017
 30
0.0
 11
532.4219178013699
 21
-569.4407028803613
 31
0.0
  0
LINE
  5
2052B
  8
0
 10
531.9691042933216
 20
-571.0407018267571
 30
0.0
 11
534.8370669946521
 21
-570.240708499916
 31
0.0
  0
LINE
  5
2052C
  8
0
 10
531.5162881512629
 20
-574.2407007731468
 30
0.0
 11
535.5162881512629
 21
-573.4407100803243
 31
0.0
  0
LINE
  5
2052D
  8
0
 10
531.5162881512629
 20
-572.6407007731469
 30
0.0
 11
535.2898810990589
 21
-571.8407095535216
 31
0.0
  0
LINE
  5
2052E
  8
0
 10
531.5162881512629
 20
-575.8407007731469
 30
0.0
 11
535.5162881512629
 21
-575.0407100803243
 31
0.0
  0
LINE
  5
2052F
  8
0
 10
531.5162881512629
 20
-588.6407007731513
 30
0.0
 11
535.5162881512629
 21
-587.840710080333
 31
0.0
  0
LINE
  5
20530
  8
0
 10
535.5162881512629
 20
-587.840710080333
 30
0.0
 11
535.0162881512629
 21
-587.7407089169353
 31
0.0
  0
LINE
  5
20531
  8
0
 10
532.0162881512629
 20
-587.1407019365446
 30
0.0
 11
531.5162881512629
 21
-587.0407007731469
 31
0.0
  0
LINE
  5
20532
  8
0
 10
535.5162881512629
 20
-589.4407100803331
 30
0.0
 11
535.0162881512629
 21
-589.3407089169355
 31
0.0
  0
LINE
  5
20533
  8
0
 10
535.5162881512629
 20
-591.040710080333
 30
0.0
 11
535.0162881512629
 21
-590.9407089169354
 31
0.0
  0
LINE
  5
20534
  8
0
 10
532.0162881512629
 20
-588.7407019365489
 30
0.0
 11
531.5162881512629
 21
-588.6407007731513
 31
0.0
  0
LINE
  5
20535
  8
0
 10
532.0162881512629
 20
-590.3407019365491
 30
0.0
 11
531.5162881512629
 21
-590.2407007731514
 31
0.0
  0
LINE
  5
20536
  8
0
 10
531.5162881512629
 20
-590.2407007731514
 30
0.0
 11
535.5162881512629
 21
-589.4407100803331
 31
0.0
  0
LINE
  5
20537
  8
0
 10
535.5162881512629
 20
-583.0407100803286
 30
0.0
 11
535.0162881512629
 21
-582.9407089169309
 31
0.0
  0
LINE
  5
20538
  8
0
 10
535.5162881512629
 20
-581.4407100803243
 30
0.0
 11
535.0162881512629
 21
-581.3407089169272
 31
0.0
  0
LINE
  5
20539
  8
0
 10
535.5162881512629
 20
-586.2407100803287
 30
0.0
 11
535.0162881512629
 21
-586.140708916931
 31
0.0
  0
LINE
  5
2053A
  8
0
 10
535.5162881512629
 20
-584.6407100803287
 30
0.0
 11
535.0162881512629
 21
-584.5407089169311
 31
0.0
  0
LINE
  5
2053B
  8
0
 10
532.0162881512629
 20
-580.740701936544
 30
0.0
 11
531.5162881512629
 21
-580.6407007731469
 31
0.0
  0
LINE
  5
2053C
  8
0
 10
532.0162881512629
 20
-582.3407019365446
 30
0.0
 11
531.5162881512629
 21
-582.2407007731468
 31
0.0
  0
LINE
  5
2053D
  8
0
 10
532.0162881512629
 20
-585.5407019365447
 30
0.0
 11
531.5162881512629
 21
-585.440700773147
 31
0.0
  0
LINE
  5
2053E
  8
0
 10
532.0162881512629
 20
-583.9407019365445
 30
0.0
 11
531.5162881512629
 21
-583.8407007731469
 31
0.0
  0
LINE
  5
2053F
  8
0
 10
531.5162881512629
 20
-583.8407007731469
 30
0.0
 11
535.5162881512629
 21
-583.0407100803286
 31
0.0
  0
LINE
  5
20540
  8
0
 10
531.5162881512629
 20
-582.2407007731468
 30
0.0
 11
535.5162881512629
 21
-581.4407100803243
 31
0.0
  0
LINE
  5
20541
  8
0
 10
531.5162881512629
 20
-585.440700773147
 30
0.0
 11
535.5162881512629
 21
-584.6407100803287
 31
0.0
  0
LINE
  5
20542
  8
0
 10
531.5162881512629
 20
-587.0407007731469
 30
0.0
 11
535.5162881512629
 21
-586.2407100803287
 31
0.0
  0
LINE
  5
20543
  8
0
 10
532.0162881512629
 20
-596.7407019365531
 30
0.0
 11
531.5162881512629
 21
-596.6407007731555
 31
0.0
  0
LINE
  5
20544
  8
0
 10
531.5162881512629
 20
-596.6407007731555
 30
0.0
 11
535.5162881512629
 21
-595.8407100803372
 31
0.0
  0
LINE
  5
20545
  8
0
 10
535.5162881512629
 20
-595.8407100803372
 30
0.0
 11
535.0162881512629
 21
-595.7407089169395
 31
0.0
  0
LINE
  5
20546
  8
0
 10
532.0162881512629
 20
-595.1407019365532
 30
0.0
 11
531.5162881512629
 21
-595.0407007731555
 31
0.0
  0
LINE
  5
20547
  8
0
 10
532.0162881512629
 20
-593.5407019365533
 30
0.0
 11
531.5162881512629
 21
-593.4407007731556
 31
0.0
  0
LINE
  5
20548
  8
0
 10
531.5162881512629
 20
-593.4407007731556
 30
0.0
 11
535.5162881512629
 21
-592.6407100803374
 31
0.0
  0
LINE
  5
20549
  8
0
 10
535.5162881512629
 20
-594.2407100803373
 30
0.0
 11
535.0162881512629
 21
-594.1407089169396
 31
0.0
  0
LINE
  5
2054A
  8
0
 10
535.5162881512629
 20
-592.6407100803374
 30
0.0
 11
535.0162881512629
 21
-592.5407089169397
 31
0.0
  0
LINE
  5
2054B
  8
0
 10
531.5162881512629
 20
-595.0407007731555
 30
0.0
 11
535.5162881512629
 21
-594.2407100803373
 31
0.0
  0
LINE
  5
2054C
  8
0
 10
532.0162881512629
 20
-591.940701936549
 30
0.0
 11
531.5162881512629
 21
-591.8407007731513
 31
0.0
  0
LINE
  5
2054D
  8
0
 10
532.0162881512629
 20
-598.340701936553
 30
0.0
 11
531.5162881512629
 21
-598.2407007731554
 31
0.0
  0
LINE
  5
2054E
  8
0
 10
531.5162881512629
 20
-598.2407007731554
 30
0.0
 11
535.5162881512629
 21
-597.4407100803371
 31
0.0
  0
LINE
  5
2054F
  8
0
 10
535.5162881512629
 20
-597.4407100803371
 30
0.0
 11
535.0162881512629
 21
-597.3407089169394
 31
0.0
  0
LINE
  5
20550
  8
0
 10
532.0162881512629
 20
-599.940701936553
 30
0.0
 11
531.5162881512629
 21
-599.8407007731553
 31
0.0
  0
LINE
  5
20551
  8
0
 10
531.5162881512629
 20
-599.8407007731553
 30
0.0
 11
535.5162881512629
 21
-599.040710080337
 31
0.0
  0
LINE
  5
20552
  8
0
 10
535.5162881512629
 20
-599.040710080337
 30
0.0
 11
535.0162881512629
 21
-598.9407089169393
 31
0.0
  0
LINE
  5
20553
  8
0
 10
532.0162881512629
 20
-601.5407019365529
 30
0.0
 11
531.5162881512629
 21
-601.4407007731552
 31
0.0
  0
LINE
  5
20554
  8
0
 10
531.5162881512629
 20
-601.4407007731552
 30
0.0
 11
535.5162881512629
 21
-600.6407100803369
 31
0.0
  0
LINE
  5
20555
  8
0
 10
535.5162881512629
 20
-600.6407100803369
 30
0.0
 11
535.0162881512629
 21
-600.5407089169393
 31
0.0
  0
LINE
  5
20556
  8
0
 10
466.5162881512629
 20
-567.3407054266835
 30
0.0
 11
465.0162881512629
 21
-572.6407019365452
 31
0.0
  0
LINE
  5
20557
  8
0
 10
465.0162881512629
 20
-572.6407019365452
 30
0.0
 11
465.0162881512631
 21
-602.3407019364371
 31
0.0
  0
LINE
  5
20558
  8
0
 10
466.5162881512629
 20
-567.3407054266835
 30
0.0
 11
468.016288151263
 21
-572.6407089169288
 31
0.0
  0
LINE
  5
20559
  8
0
 10
463.0162416153651
 20
-602.3406972827389
 30
0.0
 11
470.0162416153649
 21
-602.3407135703034
 31
0.0
  0
LINE
  5
2055A
  8
0
 10
468.016288151263
 20
-572.6407089169288
 30
0.0
 11
468.0162881512631
 21
-602.3407089168218
 31
0.0
  0
LINE
  5
2055B
  8
0
 10
463.0162416153651
 20
-602.3406972827389
 30
0.0
 11
463.0162416153649
 21
-603.4407007729343
 31
0.0
  0
ARC
  5
2055C
  8
0
 10
464.5162416153649
 20
-603.4407007729343
 30
0.0
 40
1.5
 50
180.0
 51
269.9998666844684
  0
LINE
  5
2055D
  8
0
 10
470.0162416153649
 20
-602.3407135703034
 30
0.0
 11
470.0162416153649
 21
-603.440710080114
 31
0.0
  0
LINE
  5
2055E
  8
0
 10
464.5162381251725
 20
-604.9407007729302
 30
0.0
 11
468.5162381251725
 21
-604.9407100801099
 31
0.0
  0
ARC
  5
2055F
  8
0
 10
468.5162416153649
 20
-603.440710080114
 30
0.0
 40
1.5
 50
269.9998666844684
 51
0.0
  0
LINE
  5
20560
  8
1CENTER
 10
466.5162416153649
 20
-565.9099105092181
 30
0.0
 11
466.5162416153649
 21
-606.01098183583
 31
0.0
  0
LINE
  5
20561
  8
0
 10
465.4219178013699
 20
-569.4407028803613
 30
0.0
 11
467.3842528902453
 21
-568.6407074463103
 31
0.0
  0
LINE
  5
20562
  8
0
 10
467.3842528902453
 20
-568.6407074463103
 30
0.0
 11
466.7959763152029
 21
-568.3289375900582
 31
0.0
  0
LINE
  5
20563
  8
0
 10
464.5162881512629
 20
-591.8407007731513
 30
0.0
 11
468.5162881512629
 21
-591.040710080333
 31
0.0
  0
LINE
  5
20564
  8
0
 10
464.5162881512629
 20
-580.6407007731469
 30
0.0
 11
468.5162881512629
 21
-579.8407100803244
 31
0.0
  0
LINE
  5
20565
  8
0
 10
464.5162881512629
 20
-577.4407007731469
 30
0.0
 11
468.5162881512629
 21
-576.6407100803243
 31
0.0
  0
LINE
  5
20566
  8
0
 10
468.5162881512629
 20
-576.6407100803243
 30
0.0
 11
468.0162881512629
 21
-576.5407089169271
 31
0.0
  0
LINE
  5
20567
  8
0
 10
465.0162881512629
 20
-575.9407019365441
 30
0.0
 11
464.5162881512629
 21
-575.8407007731469
 31
0.0
  0
LINE
  5
20568
  8
0
 10
468.5162881512629
 20
-579.8407100803244
 30
0.0
 11
468.0162881512629
 21
-579.7407089169271
 31
0.0
  0
LINE
  5
20569
  8
0
 10
468.5162881512629
 20
-578.2407100803242
 30
0.0
 11
468.0162881512629
 21
-578.1407089169271
 31
0.0
  0
LINE
  5
2056A
  8
0
 10
465.0162881512629
 20
-577.540701936544
 30
0.0
 11
464.5162881512629
 21
-577.4407007731469
 31
0.0
  0
LINE
  5
2056B
  8
0
 10
465.0162881512629
 20
-579.1407019365439
 30
0.0
 11
464.5162881512629
 21
-579.0407007731468
 31
0.0
  0
LINE
  5
2056C
  8
0
 10
464.5162881512629
 20
-579.0407007731468
 30
0.0
 11
468.5162881512629
 21
-578.2407100803242
 31
0.0
  0
LINE
  5
2056D
  8
0
 10
467.8370669946521
 20
-570.240708499916
 30
0.0
 11
467.2853175308488
 21
-570.057944357288
 31
0.0
  0
LINE
  5
2056E
  8
0
 10
468.5162881512629
 20
-573.4407100803243
 30
0.0
 11
468.0162881512629
 21
-573.3407089169272
 31
0.0
  0
LINE
  5
2056F
  8
0
 10
468.5162881512629
 20
-575.0407100803243
 30
0.0
 11
468.0162881512629
 21
-574.9407089169273
 31
0.0
  0
LINE
  5
20570
  8
0
 10
468.2898810990589
 20
-571.8407095535216
 30
0.0
 11
467.7532873637878
 21
-571.7114388558917
 31
0.0
  0
LINE
  5
20571
  8
0
 10
465.4372027484716
 20
-571.1534713391071
 30
0.0
 11
464.9691042933216
 21
-571.0407018267571
 31
0.0
  0
LINE
  5
20572
  8
0
 10
465.0162881512629
 20
-574.340701936544
 30
0.0
 11
464.5162881512629
 21
-574.2407007731468
 31
0.0
  0
LINE
  5
20573
  8
0
 10
465.0162881512629
 20
-572.740701936544
 30
0.0
 11
464.5162881512629
 21
-572.6407007731469
 31
0.0
  0
LINE
  5
20574
  8
0
 10
465.879089642001
 20
-569.5921386768017
 30
0.0
 11
465.4219178013699
 21
-569.4407028803613
 31
0.0
  0
LINE
  5
20575
  8
0
 10
464.9691042933216
 20
-571.0407018267571
 30
0.0
 11
467.8370669946521
 21
-570.240708499916
 31
0.0
  0
LINE
  5
20576
  8
0
 10
464.5162881512629
 20
-574.2407007731468
 30
0.0
 11
468.5162881512629
 21
-573.4407100803243
 31
0.0
  0
LINE
  5
20577
  8
0
 10
464.5162881512629
 20
-572.6407007731469
 30
0.0
 11
468.2898810990589
 21
-571.8407095535216
 31
0.0
  0
LINE
  5
20578
  8
0
 10
464.5162881512629
 20
-575.8407007731469
 30
0.0
 11
468.5162881512629
 21
-575.0407100803243
 31
0.0
  0
LINE
  5
20579
  8
0
 10
464.5162881512629
 20
-588.6407007731513
 30
0.0
 11
468.5162881512629
 21
-587.840710080333
 31
0.0
  0
LINE
  5
2057A
  8
0
 10
468.5162881512629
 20
-587.840710080333
 30
0.0
 11
468.0162881512629
 21
-587.7407089169353
 31
0.0
  0
LINE
  5
2057B
  8
0
 10
465.0162881512629
 20
-587.1407019365446
 30
0.0
 11
464.5162881512629
 21
-587.0407007731469
 31
0.0
  0
LINE
  5
2057C
  8
0
 10
468.5162881512629
 20
-589.4407100803331
 30
0.0
 11
468.0162881512629
 21
-589.3407089169355
 31
0.0
  0
LINE
  5
2057D
  8
0
 10
468.5162881512629
 20
-591.040710080333
 30
0.0
 11
468.0162881512629
 21
-590.9407089169354
 31
0.0
  0
LINE
  5
2057E
  8
0
 10
465.0162881512629
 20
-588.7407019365489
 30
0.0
 11
464.5162881512629
 21
-588.6407007731513
 31
0.0
  0
LINE
  5
2057F
  8
0
 10
465.0162881512629
 20
-590.3407019365491
 30
0.0
 11
464.5162881512629
 21
-590.2407007731514
 31
0.0
  0
LINE
  5
20580
  8
0
 10
464.5162881512629
 20
-590.2407007731514
 30
0.0
 11
468.5162881512629
 21
-589.4407100803331
 31
0.0
  0
LINE
  5
20581
  8
0
 10
468.5162881512629
 20
-583.0407100803286
 30
0.0
 11
468.0162881512629
 21
-582.9407089169309
 31
0.0
  0
LINE
  5
20582
  8
0
 10
468.5162881512629
 20
-581.4407100803243
 30
0.0
 11
468.0162881512629
 21
-581.3407089169272
 31
0.0
  0
LINE
  5
20583
  8
0
 10
468.5162881512629
 20
-586.2407100803287
 30
0.0
 11
468.0162881512629
 21
-586.140708916931
 31
0.0
  0
LINE
  5
20584
  8
0
 10
468.5162881512629
 20
-584.6407100803287
 30
0.0
 11
468.0162881512629
 21
-584.5407089169311
 31
0.0
  0
LINE
  5
20585
  8
0
 10
465.0162881512629
 20
-580.740701936544
 30
0.0
 11
464.5162881512629
 21
-580.6407007731469
 31
0.0
  0
LINE
  5
20586
  8
0
 10
465.0162881512629
 20
-582.3407019365446
 30
0.0
 11
464.5162881512629
 21
-582.2407007731468
 31
0.0
  0
LINE
  5
20587
  8
0
 10
465.0162881512629
 20
-585.5407019365447
 30
0.0
 11
464.5162881512629
 21
-585.440700773147
 31
0.0
  0
LINE
  5
20588
  8
0
 10
465.0162881512629
 20
-583.9407019365445
 30
0.0
 11
464.5162881512629
 21
-583.8407007731469
 31
0.0
  0
LINE
  5
20589
  8
0
 10
464.5162881512629
 20
-583.8407007731469
 30
0.0
 11
468.5162881512629
 21
-583.0407100803286
 31
0.0
  0
LINE
  5
2058A
  8
0
 10
464.5162881512629
 20
-582.2407007731468
 30
0.0
 11
468.5162881512629
 21
-581.4407100803243
 31
0.0
  0
LINE
  5
2058B
  8
0
 10
464.5162881512629
 20
-585.440700773147
 30
0.0
 11
468.5162881512629
 21
-584.6407100803287
 31
0.0
  0
LINE
  5
2058C
  8
0
 10
464.5162881512629
 20
-587.0407007731469
 30
0.0
 11
468.5162881512629
 21
-586.2407100803287
 31
0.0
  0
LINE
  5
2058D
  8
0
 10
465.0162881512629
 20
-596.7407019365531
 30
0.0
 11
464.5162881512629
 21
-596.6407007731555
 31
0.0
  0
LINE
  5
2058E
  8
0
 10
464.5162881512629
 20
-596.6407007731555
 30
0.0
 11
468.5162881512629
 21
-595.8407100803372
 31
0.0
  0
LINE
  5
2058F
  8
0
 10
468.5162881512629
 20
-595.8407100803372
 30
0.0
 11
468.0162881512629
 21
-595.7407089169395
 31
0.0
  0
LINE
  5
20590
  8
0
 10
465.0162881512629
 20
-595.1407019365532
 30
0.0
 11
464.5162881512629
 21
-595.0407007731555
 31
0.0
  0
LINE
  5
20591
  8
0
 10
465.0162881512629
 20
-593.5407019365533
 30
0.0
 11
464.5162881512629
 21
-593.4407007731556
 31
0.0
  0
LINE
  5
20592
  8
0
 10
464.5162881512629
 20
-593.4407007731556
 30
0.0
 11
468.5162881512629
 21
-592.6407100803374
 31
0.0
  0
LINE
  5
20593
  8
0
 10
468.5162881512629
 20
-594.2407100803373
 30
0.0
 11
468.0162881512629
 21
-594.1407089169396
 31
0.0
  0
LINE
  5
20594
  8
0
 10
468.5162881512629
 20
-592.6407100803374
 30
0.0
 11
468.0162881512629
 21
-592.5407089169397
 31
0.0
  0
LINE
  5
20595
  8
0
 10
464.5162881512629
 20
-595.0407007731555
 30
0.0
 11
468.5162881512629
 21
-594.2407100803373
 31
0.0
  0
LINE
  5
20596
  8
0
 10
465.0162881512629
 20
-591.940701936549
 30
0.0
 11
464.5162881512629
 21
-591.8407007731513
 31
0.0
  0
LINE
  5
20597
  8
0
 10
465.0162881512629
 20
-598.340701936553
 30
0.0
 11
464.5162881512629
 21
-598.2407007731554
 31
0.0
  0
LINE
  5
20598
  8
0
 10
464.5162881512629
 20
-598.2407007731554
 30
0.0
 11
468.5162881512629
 21
-597.4407100803371
 31
0.0
  0
LINE
  5
20599
  8
0
 10
468.5162881512629
 20
-597.4407100803371
 30
0.0
 11
468.0162881512629
 21
-597.3407089169394
 31
0.0
  0
LINE
  5
2059A
  8
0
 10
465.0162881512629
 20
-599.940701936553
 30
0.0
 11
464.5162881512629
 21
-599.8407007731553
 31
0.0
  0
LINE
  5
2059B
  8
0
 10
464.5162881512629
 20
-599.8407007731553
 30
0.0
 11
468.5162881512629
 21
-599.040710080337
 31
0.0
  0
LINE
  5
2059C
  8
0
 10
468.5162881512629
 20
-599.040710080337
 30
0.0
 11
468.0162881512629
 21
-598.9407089169393
 31
0.0
  0
LINE
  5
2059D
  8
0
 10
465.0162881512629
 20
-601.5407019365529
 30
0.0
 11
464.5162881512629
 21
-601.4407007731552
 31
0.0
  0
LINE
  5
2059E
  8
0
 10
464.5162881512629
 20
-601.4407007731552
 30
0.0
 11
468.5162881512629
 21
-600.6407100803369
 31
0.0
  0
LINE
  5
2059F
  8
0
 10
468.5162881512629
 20
-600.6407100803369
 30
0.0
 11
468.0162881512629
 21
-600.5407089169393
 31
0.0
  0
LINE
  5
205A0
  8
1DIM
 10
466.5162416153649
 20
-717.4041691664105
 30
0.0
 11
466.5162416153649
 21
-743.2720306785329
 31
0.0
1001
ACAD
1000
DSTYLE
1002
{
1070
    45
1040
0.5
1002
}
  0
LINE
  5
205A1
  8
1DIM
 10
533.516241615365
 20
-717.4041691664105
 30
0.0
 11
533.516241615365
 21
-743.2720306785329
 31
0.0
1001
ACAD
1000
DSTYLE
1002
{
1070
    45
1040
0.5
1002
}
  0
LINE
  5
205A2
  8
1DIM
 10
468.5162416153649
 20
-742.2720306785329
 30
0.0
 11
531.516241615365
 21
-742.2720306785329
 31
0.0
1001
ACAD
1000
DSTYLE
1002
{
1070
    45
1040
0.5
1002
}
  0
LINE
  5
205A6
  8
0
 10
742.8162398147356
 20
-713.7742131172566
 30
0.0
 11
737.5162433048739
 21
-712.2742131172566
 31
0.0
  0
LINE
  5
205A7
  8
0
 10
737.5162433048739
 20
-712.2742131172566
 30
0.0
 11
707.816243304982
 21
-712.2742131172569
 31
0.0
  0
LINE
  5
205A8
  8
0
 10
742.8162398147356
 20
-713.7742131172566
 30
0.0
 11
737.5162363244903
 21
-715.2742131172567
 31
0.0
  0
LINE
  5
205A9
  8
0
 10
707.8162479586802
 20
-710.2741665813588
 30
0.0
 11
707.8162316711157
 21
-717.2741665813587
 31
0.0
  0
LINE
  5
205AA
  8
0
 10
737.5162363244903
 20
-715.2742131172567
 30
0.0
 11
707.8162363245973
 21
-715.2742131172569
 31
0.0
  0
LINE
  5
205AB
  8
0
 10
707.8162479586802
 20
-710.2741665813588
 30
0.0
 11
706.7162444684848
 21
-710.2741665813587
 31
0.0
  0
ARC
  5
205AC
  8
0
 10
706.7162444684848
 20
-711.7741665813587
 30
0.0
 40
1.5
 50
90.0
 51
179.9998666844663
  0
LINE
  5
205AD
  8
0
 10
707.8162316711157
 20
-717.2741665813587
 30
0.0
 11
706.7162351613051
 21
-717.2741665813587
 31
0.0
  0
LINE
  5
205AE
  8
0
 10
705.2162444684889
 20
-711.7741630911663
 30
0.0
 11
705.2162351613092
 21
-715.7741630911663
 31
0.0
  0
ARC
  5
205AF
  8
0
 10
706.7162351613051
 20
-715.7741665813587
 30
0.0
 40
1.5
 50
179.9998666844663
 51
270.0
  0
LINE
  5
205B0
  8
1CENTER
 10
744.247034732201
 20
-713.7741665813587
 30
0.0
 11
704.1459634055891
 21
-713.7741665813587
 31
0.0
  0
LINE
  5
205B1
  8
0
 10
740.7162423610578
 20
-712.6798427673637
 30
0.0
 11
741.5162377951087
 21
-714.6421778562391
 31
0.0
  0
LINE
  5
205B2
  8
0
 10
741.5162377951087
 20
-714.6421778562391
 30
0.0
 11
741.8280076513608
 21
-714.0539012811967
 31
0.0
  0
LINE
  5
205B3
  8
0
 10
718.3162444682678
 20
-711.7742131172566
 30
0.0
 11
719.116235161086
 21
-715.7742131172566
 31
0.0
  0
LINE
  5
205B4
  8
0
 10
729.5162444682721
 20
-711.7742131172566
 30
0.0
 11
730.3162351610947
 21
-715.7742131172566
 31
0.0
  0
LINE
  5
205B5
  8
0
 10
732.7162444682722
 20
-711.7742131172566
 30
0.0
 11
733.5162351610948
 21
-715.7742131172566
 31
0.0
  0
LINE
  5
205B6
  8
0
 10
733.5162351610948
 20
-715.7742131172566
 30
0.0
 11
733.616236324492
 21
-715.2742131172566
 31
0.0
  0
LINE
  5
205B7
  8
0
 10
734.216243304875
 20
-712.2742131172566
 30
0.0
 11
734.3162444682722
 21
-711.7742131172566
 31
0.0
  0
LINE
  5
205B8
  8
0
 10
730.3162351610947
 20
-715.7742131172566
 30
0.0
 11
730.4162363244919
 21
-715.2742131172566
 31
0.0
  0
LINE
  5
205B9
  8
0
 10
731.9162351610948
 20
-715.7742131172566
 30
0.0
 11
732.016236324492
 21
-715.2742131172566
 31
0.0
  0
LINE
  5
205BA
  8
0
 10
732.6162433048751
 20
-712.2742131172566
 30
0.0
 11
732.7162444682722
 21
-711.7742131172566
 31
0.0
  0
LINE
  5
205BB
  8
0
 10
731.0162433048752
 20
-712.2742131172566
 30
0.0
 11
731.1162444682723
 21
-711.7742131172566
 31
0.0
  0
LINE
  5
205BC
  8
0
 10
731.1162444682723
 20
-711.7742131172566
 30
0.0
 11
731.9162351610948
 21
-715.7742131172566
 31
0.0
  0
LINE
  5
205BD
  8
0
 10
739.9162367415031
 20
-715.0949919606459
 30
0.0
 11
740.0990008841311
 21
-714.5432424968426
 31
0.0
  0
LINE
  5
205BE
  8
0
 10
736.7162351610948
 20
-715.7742131172566
 30
0.0
 11
736.8162363244919
 21
-715.2742131172566
 31
0.0
  0
LINE
  5
205BF
  8
0
 10
735.1162351610948
 20
-715.7742131172566
 30
0.0
 11
735.2162363244918
 21
-715.2742131172566
 31
0.0
  0
LINE
  5
205C0
  8
0
 10
738.3162356878975
 20
-715.5478060650527
 30
0.0
 11
738.4455063855273
 21
-715.0112123297815
 31
0.0
  0
LINE
  5
205C1
  8
0
 10
739.003473902312
 20
-712.6951277144653
 30
0.0
 11
739.116243414662
 21
-712.2270292593154
 31
0.0
  0
LINE
  5
205C2
  8
0
 10
735.8162433048751
 20
-712.2742131172566
 30
0.0
 11
735.9162444682722
 21
-711.7742131172566
 31
0.0
  0
LINE
  5
205C3
  8
0
 10
737.416243304875
 20
-712.2742131172566
 30
0.0
 11
737.5162444682721
 21
-711.7742131172566
 31
0.0
  0
LINE
  5
205C4
  8
0
 10
740.5648065646174
 20
-713.1370146079947
 30
0.0
 11
740.7162423610578
 21
-712.6798427673637
 31
0.0
  0
LINE
  5
205C5
  8
0
 10
739.116243414662
 20
-712.2270292593154
 30
0.0
 11
739.9162367415031
 21
-715.0949919606459
 31
0.0
  0
LINE
  5
205C6
  8
0
 10
735.9162444682722
 20
-711.7742131172566
 30
0.0
 11
736.7162351610948
 21
-715.7742131172566
 31
0.0
  0
LINE
  5
205C7
  8
0
 10
737.5162444682721
 20
-711.7742131172566
 30
0.0
 11
738.3162356878975
 21
-715.5478060650527
 31
0.0
  0
LINE
  5
205C8
  8
0
 10
734.3162444682722
 20
-711.7742131172566
 30
0.0
 11
735.1162351610948
 21
-715.7742131172566
 31
0.0
  0
LINE
  5
205C9
  8
0
 10
721.5162444682678
 20
-711.7742131172566
 30
0.0
 11
722.3162351610861
 21
-715.7742131172566
 31
0.0
  0
LINE
  5
205CA
  8
0
 10
722.3162351610861
 20
-715.7742131172566
 30
0.0
 11
722.4162363244837
 21
-715.2742131172566
 31
0.0
  0
LINE
  5
205CB
  8
0
 10
723.0162433048745
 20
-712.2742131172566
 30
0.0
 11
723.1162444682722
 21
-711.7742131172566
 31
0.0
  0
LINE
  5
205CC
  8
0
 10
720.7162351610859
 20
-715.7742131172566
 30
0.0
 11
720.8162363244836
 21
-715.2742131172566
 31
0.0
  0
LINE
  5
205CD
  8
0
 10
719.116235161086
 20
-715.7742131172566
 30
0.0
 11
719.2162363244837
 21
-715.2742131172566
 31
0.0
  0
LINE
  5
205CE
  8
0
 10
721.4162433048701
 20
-712.2742131172566
 30
0.0
 11
721.5162444682678
 21
-711.7742131172566
 31
0.0
  0
LINE
  5
205CF
  8
0
 10
719.81624330487
 20
-712.2742131172566
 30
0.0
 11
719.9162444682677
 21
-711.7742131172566
 31
0.0
  0
LINE
  5
205D0
  8
0
 10
719.9162444682677
 20
-711.7742131172566
 30
0.0
 11
720.7162351610859
 21
-715.7742131172566
 31
0.0
  0
LINE
  5
205D1
  8
0
 10
727.1162351610905
 20
-715.7742131172566
 30
0.0
 11
727.2162363244881
 21
-715.2742131172566
 31
0.0
  0
LINE
  5
205D2
  8
0
 10
728.7162351610948
 20
-715.7742131172566
 30
0.0
 11
728.8162363244919
 21
-715.2742131172566
 31
0.0
  0
LINE
  5
205D3
  8
0
 10
723.9162351610904
 20
-715.7742131172566
 30
0.0
 11
724.0162363244881
 21
-715.2742131172566
 31
0.0
  0
LINE
  5
205D4
  8
0
 10
725.5162351610903
 20
-715.7742131172566
 30
0.0
 11
725.616236324488
 21
-715.2742131172566
 31
0.0
  0
LINE
  5
205D5
  8
0
 10
729.416243304875
 20
-712.2742131172566
 30
0.0
 11
729.5162444682721
 21
-711.7742131172566
 31
0.0
  0
LINE
  5
205D6
  8
0
 10
727.8162433048744
 20
-712.2742131172566
 30
0.0
 11
727.9162444682722
 21
-711.7742131172566
 31
0.0
  0
LINE
  5
205D7
  8
0
 10
724.6162433048744
 20
-712.2742131172566
 30
0.0
 11
724.7162444682721
 21
-711.7742131172566
 31
0.0
  0
LINE
  5
205D8
  8
0
 10
726.2162433048745
 20
-712.2742131172566
 30
0.0
 11
726.3162444682722
 21
-711.7742131172566
 31
0.0
  0
LINE
  5
205D9
  8
0
 10
726.3162444682722
 20
-711.7742131172566
 30
0.0
 11
727.1162351610905
 21
-715.7742131172566
 31
0.0
  0
LINE
  5
205DA
  8
0
 10
727.9162444682722
 20
-711.7742131172566
 30
0.0
 11
728.7162351610948
 21
-715.7742131172566
 31
0.0
  0
LINE
  5
205DB
  8
0
 10
724.7162444682721
 20
-711.7742131172566
 30
0.0
 11
725.5162351610903
 21
-715.7742131172566
 31
0.0
  0
LINE
  5
205DC
  8
0
 10
723.1162444682722
 20
-711.7742131172566
 30
0.0
 11
723.9162351610904
 21
-715.7742131172566
 31
0.0
  0
LINE
  5
205DD
  8
0
 10
713.4162433048659
 20
-712.2742131172566
 30
0.0
 11
713.5162444682636
 21
-711.7742131172566
 31
0.0
  0
LINE
  5
205DE
  8
0
 10
713.5162444682636
 20
-711.7742131172566
 30
0.0
 11
714.3162351610819
 21
-715.7742131172566
 31
0.0
  0
LINE
  5
205DF
  8
0
 10
714.3162351610819
 20
-715.7742131172566
 30
0.0
 11
714.4162363244795
 21
-715.2742131172566
 31
0.0
  0
LINE
  5
205E0
  8
0
 10
715.0162433048658
 20
-712.2742131172566
 30
0.0
 11
715.1162444682635
 21
-711.7742131172566
 31
0.0
  0
LINE
  5
205E1
  8
0
 10
716.6162433048657
 20
-712.2742131172566
 30
0.0
 11
716.7162444682634
 21
-711.7742131172566
 31
0.0
  0
LINE
  5
205E2
  8
0
 10
716.7162444682634
 20
-711.7742131172566
 30
0.0
 11
717.5162351610817
 21
-715.7742131172566
 31
0.0
  0
LINE
  5
205E3
  8
0
 10
715.9162351610818
 20
-715.7742131172566
 30
0.0
 11
716.0162363244795
 21
-715.2742131172566
 31
0.0
  0
LINE
  5
205E4
  8
0
 10
717.5162351610817
 20
-715.7742131172566
 30
0.0
 11
717.6162363244794
 21
-715.2742131172566
 31
0.0
  0
LINE
  5
205E5
  8
0
 10
715.1162444682635
 20
-711.7742131172566
 30
0.0
 11
715.9162351610818
 21
-715.7742131172566
 31
0.0
  0
LINE
  5
205E6
  8
0
 10
718.2162433048701
 20
-712.2742131172566
 30
0.0
 11
718.3162444682678
 21
-711.7742131172566
 31
0.0
  0
LINE
  5
205E7
  8
0
 10
711.816243304866
 20
-712.2742131172566
 30
0.0
 11
711.9162444682637
 21
-711.7742131172566
 31
0.0
  0
LINE
  5
205E8
  8
0
 10
711.9162444682637
 20
-711.7742131172566
 30
0.0
 11
712.716235161082
 21
-715.7742131172566
 31
0.0
  0
LINE
  5
205E9
  8
0
 10
712.716235161082
 20
-715.7742131172566
 30
0.0
 11
712.8162363244796
 21
-715.2742131172566
 31
0.0
  0
LINE
  5
205EA
  8
0
 10
710.2162433048661
 20
-712.2742131172566
 30
0.0
 11
710.3162444682638
 21
-711.7742131172566
 31
0.0
  0
LINE
  5
205EB
  8
0
 10
710.3162444682638
 20
-711.7742131172566
 30
0.0
 11
711.116235161082
 21
-715.7742131172566
 31
0.0
  0
LINE
  5
205EC
  8
0
 10
711.116235161082
 20
-715.7742131172566
 30
0.0
 11
711.2162363244797
 21
-715.2742131172566
 31
0.0
  0
LINE
  5
205ED
  8
0
 10
708.6162433048662
 20
-712.2742131172566
 30
0.0
 11
708.7162444682639
 21
-711.7742131172566
 31
0.0
  0
LINE
  5
205EE
  8
0
 10
708.7162444682639
 20
-711.7742131172566
 30
0.0
 11
709.5162351610821
 21
-715.7742131172566
 31
0.0
  0
LINE
  5
205EF
  8
0
 10
709.5162351610821
 20
-715.7742131172566
 30
0.0
 11
709.6162363244798
 21
-715.2742131172566
 31
0.0
  0
SOLID
  5
205F0
  8
1DIM
 10
706.3899759555075
 20
-722.3116151547331
 30
0.0
 11
707.5581761562139
 21
-720.6543827020637
 31
0.0
 12
706.9906027077627
 22
-722.600910762926
 32
0.0
 13
706.9906027077627
 23
-722.600910762926
 33
0.0
1001
ACAD
1000
DSTYLE
1002
{
1070
    45
1040
0.5
1002
}
  0
LINE
  5
205F1
  8
1DIM
 10
706.6902893316351
 20
-722.4562629588295
 30
0.0
 11
687.372549051697
 21
-762.5631684100613
 31
0.0
1001
ACAD
1000
DSTYLE
1002
{
1070
    45
1040
0.5
1002
}
  0
LINE
  5
205F2
  8
1DIM
 10
687.372549051697
 20
-762.5631684100613
 30
0.0
 11
646.1725490516969
 21
-762.5631684100613
 31
0.0
1001
ACAD
1000
DSTYLE
1002
{
1070
    45
1040
0.5
1002
}
  0
TEXT
  5
205F3
  8
1DIM
  6
CONTINUOUS
 10
653.8725490516969
 20
-756.0298350767279
 30
0.0
 40
3.5
  1
材質：POM樹脂
  0
TEXT
  5
205F4
  8
1DIM
  6
CONTINUOUS
 10
646.0558823850303
 20
-761.8631684100612
 30
0.0
 40
3.5
  1
仕上げ：黒（艶消し）
  0
LINE
  5
205F5
  8
1DIM
 10
425.0162416153652
 20
-701.7920046566671
 30
0.0
 11
425.0162416153652
 21
-687.9982062394301
 31
0.0
  0
LINE
  5
205F6
  8
1DIM
 10
575.0162416153647
 20
-701.7920046566671
 30
0.0
 11
575.0162416153647
 21
-687.9982062394301
 31
0.0
  0
LINE
  5
205F7
  8
1DIM
 10
427.0162416153652
 20
-688.9982062394301
 30
0.0
 11
573.0162416153647
 21
-688.9982062394301
 31
0.0
  0
LINE
  5
205FB
  8
0
  6
BYBLOCK
 10
594.9314542694664
 20
-647.1407054265212
 30
0.0
 11
594.3955558894663
 21
-649.1407054265212
 31
0.0
  0
LINE
  5
205FC
  8
0
  6
BYBLOCK
 10
594.3955558894663
 20
-649.1407054265212
 30
0.0
 11
593.8596575094663
 21
-647.1407054265212
 31
0.0
  0
LINE
  5
205FD
  8
0
  6
BYBLOCK
 10
594.3955558894663
 20
-649.1407054265212
 30
0.0
 11
594.3955558894663
 21
-647.1407054265212
 31
0.0
  0
LINE
  5
205FE
  8
0
  6
BYBLOCK
 10
593.8596575094663
 20
-599.1407054265212
 30
0.0
 11
594.3955558894663
 21
-597.1407054265212
 31
0.0
  0
LINE
  5
205FF
  8
0
  6
BYBLOCK
 10
594.3955558894663
 20
-597.1407054265212
 30
0.0
 11
594.9314542694664
 21
-599.1407054265212
 31
0.0
  0
LINE
  5
20600
  8
0
  6
BYBLOCK
 10
594.3955558894663
 20
-597.1407054265212
 30
0.0
 11
594.3955558894663
 21
-599.1407054265212
 31
0.0
  0
TEXT
  5
20601
  8
1DIM
  6
CONTINUOUS
 10
593.6931253339109
 20
-626.0695248709657
 30
0.0
 40
3.5
  1
52
 50
90.0
  0
LINE
  5
20602
  8
0
  6
BYBLOCK
 10
584.9761951595036
 20
-641.1407054265212
 30
0.0
 11
584.4402967795036
 21
-643.1407054265212
 31
0.0
  0
LINE
  5
20603
  8
0
  6
BYBLOCK
 10
584.4402967795036
 20
-643.1407054265212
 30
0.0
 11
583.9043983995035
 21
-641.1407054265212
 31
0.0
  0
LINE
  5
20604
  8
0
  6
BYBLOCK
 10
584.4402967795036
 20
-643.1407054265212
 30
0.0
 11
584.4402967795036
 21
-641.1407054265212
 31
0.0
  0
LINE
  5
20605
  8
0
  6
BYBLOCK
 10
583.9043983995035
 20
-611.1407054265212
 30
0.0
 11
584.4402967795036
 21
-609.1407054265212
 31
0.0
  0
LINE
  5
20606
  8
0
  6
BYBLOCK
 10
584.4402967795036
 20
-609.1407054265212
 30
0.0
 11
584.9761951595036
 21
-611.1407054265212
 31
0.0
  0
LINE
  5
20607
  8
0
  6
BYBLOCK
 10
584.4402967795036
 20
-609.1407054265212
 30
0.0
 11
584.4402967795036
 21
-611.1407054265212
 31
0.0
  0
TEXT
  5
20608
  8
1DIM
  6
CONTINUOUS
 10
583.7402967795035
 20
-629.0573720931878
 30
0.0
 40
3.5
  1
34
 50
90.0
  0
LINE
  5
20609
  8
0
  6
BYBLOCK
 10
584.9761951595035
 20
-607.1407054265212
 30
0.0
 11
584.4402967795035
 21
-609.1407054265212
 31
0.0
  0
LINE
  5
2060A
  8
0
  6
BYBLOCK
 10
584.4402967795035
 20
-609.1407054265212
 30
0.0
 11
583.9043983995034
 21
-607.1407054265212
 31
0.0
  0
LINE
  5
2060B
  8
0
  6
BYBLOCK
 10
584.4402967795035
 20
-609.1407054265212
 30
0.0
 11
584.4402967795035
 21
-607.1407054265212
 31
0.0
  0
LINE
  5
2060C
  8
0
  6
BYBLOCK
 10
583.9043983995034
 20
-599.1407054265212
 30
0.0
 11
584.4402967795035
 21
-597.1407054265212
 31
0.0
  0
LINE
  5
2060D
  8
0
  6
BYBLOCK
 10
584.4402967795035
 20
-597.1407054265212
 30
0.0
 11
584.9761951595035
 21
-599.1407054265212
 31
0.0
  0
LINE
  5
2060E
  8
0
  6
BYBLOCK
 10
584.4402967795035
 20
-597.1407054265212
 30
0.0
 11
584.4402967795035
 21
-599.1407054265212
 31
0.0
  0
TEXT
  5
2060F
  8
1DIM
  6
CONTINUOUS
 10
583.7402967795034
 20
-605.4740387598547
 30
0.0
 40
3.5
  1
12
 50
90.0
  0
LINE
  5
20610
  8
0
  6
BYBLOCK
 10
750.8521399953648
 20
-711.7741665813587
 30
0.0
 11
750.3162416153648
 21
-713.7741665813587
 31
0.0
  0
LINE
  5
20611
  8
0
  6
BYBLOCK
 10
750.3162416153648
 20
-713.7741665813587
 30
0.0
 11
749.7803432353647
 21
-711.7741665813587
 31
0.0
  0
LINE
  5
20612
  8
0
  6
BYBLOCK
 10
750.3162416153648
 20
-713.7741665813587
 30
0.0
 11
750.3162416153648
 21
-711.7741665813587
 31
0.0
  0
LINE
  5
20613
  8
0
  6
BYBLOCK
 10
749.7803432353647
 20
-703.2673891129258
 30
0.0
 11
750.3162416153648
 21
-701.2673891129258
 31
0.0
  0
LINE
  5
20614
  8
0
  6
BYBLOCK
 10
750.3162416153648
 20
-701.2673891129258
 30
0.0
 11
750.8521399953648
 21
-703.2673891129258
 31
0.0
  0
LINE
  5
20615
  8
0
  6
BYBLOCK
 10
750.3162416153648
 20
-701.2673891129258
 30
0.0
 11
750.3162416153648
 21
-703.2673891129258
 31
0.0
  0
TEXT
  5
20616
  8
1DIM
  6
CONTINUOUS
 10
749.6162416153649
 20
-709.8541111804755
 30
0.0
 40
3.5
  1
13
 50
90.0
1001
ACAD
1000
DSTYLE
1002
{
1070
    45
1040
0.5
1070
   271
1070
     0
1002
}
  0
LINE
  5
20617
  8
0
  6
BYBLOCK
 10
759.0428023967625
 20
-722.2741687206869
 30
0.0
 11
758.5069040167624
 21
-724.2741687206869
 31
0.0
  0
LINE
  5
20618
  8
0
  6
BYBLOCK
 10
758.5069040167624
 20
-724.2741687206869
 30
0.0
 11
757.9710056367624
 21
-722.2741687206869
 31
0.0
  0
LINE
  5
20619
  8
0
  6
BYBLOCK
 10
758.5069040167624
 20
-724.2741687206869
 30
0.0
 11
758.5069040167624
 21
-722.2741687206869
 31
0.0
  0
LINE
  5
2061A
  8
0
  6
BYBLOCK
 10
757.9710056367624
 20
-703.2673891129258
 30
0.0
 11
758.5069040167624
 21
-701.2673891129258
 31
0.0
  0
LINE
  5
2061B
  8
0
  6
BYBLOCK
 10
758.5069040167624
 20
-701.2673891129258
 30
0.0
 11
759.0428023967625
 21
-703.2673891129258
 31
0.0
  0
LINE
  5
2061C
  8
0
  6
BYBLOCK
 10
758.5069040167624
 20
-701.2673891129258
 30
0.0
 11
758.5069040167624
 21
-703.2673891129258
 31
0.0
  0
TEXT
  5
2061D
  8
1DIM
  6
CONTINUOUS
 10
757.8069040167625
 20
-715.6874455834728
 30
0.0
 40
3.5
  1
23
 50
90.0
1001
ACAD
1000
DSTYLE
1002
{
1070
    45
1040
0.5
1002
}
  0
LINE
  5
2061E
  8
0
  6
BYBLOCK
 10
468.5162416153649
 20
-742.807929058533
 30
0.0
 11
466.5162416153649
 21
-742.2720306785329
 31
0.0
  0
LINE
  5
2061F
  8
0
  6
BYBLOCK
 10
466.5162416153649
 20
-742.2720306785329
 30
0.0
 11
468.5162416153649
 21
-741.7361322985329
 31
0.0
  0
LINE
  5
20620
  8
0
  6
BYBLOCK
 10
466.5162416153649
 20
-742.2720306785329
 30
0.0
 11
468.5162416153649
 21
-742.2720306785329
 31
0.0
  0
LINE
  5
20621
  8
0
  6
BYBLOCK
 10
531.516241615365
 20
-741.7361322985329
 30
0.0
 11
533.516241615365
 21
-742.2720306785329
 31
0.0
  0
LINE
  5
20622
  8
0
  6
BYBLOCK
 10
533.516241615365
 20
-742.2720306785329
 30
0.0
 11
531.516241615365
 21
-742.807929058533
 31
0.0
  0
LINE
  5
20623
  8
0
  6
BYBLOCK
 10
533.516241615365
 20
-742.2720306785329
 30
0.0
 11
531.516241615365
 21
-742.2720306785329
 31
0.0
  0
TEXT
  5
20624
  8
1DIM
  6
CONTINUOUS
 10
495.3374221709205
 20
-741.5720306785329
 30
0.0
 40
3.5
  1
P67
1001
ACAD
1000
DSTYLE
1002
{
1070
    45
1040
0.5
1002
}
  0
LINE
  5
20625
  8
0
  6
BYBLOCK
 10
427.0162416153652
 20
-689.5341046194302
 30
0.0
 11
425.0162416153652
 21
-688.9982062394301
 31
0.0
  0
LINE
  5
20626
  8
0
  6
BYBLOCK
 10
425.0162416153652
 20
-688.9982062394301
 30
0.0
 11
427.0162416153652
 21
-688.4623078594301
 31
0.0
  0
LINE
  5
20627
  8
0
  6
BYBLOCK
 10
425.0162416153652
 20
-688.9982062394301
 30
0.0
 11
427.0162416153652
 21
-688.9982062394301
 31
0.0
  0
LINE
  5
20628
  8
0
  6
BYBLOCK
 10
573.0162416153647
 20
-688.4623078594301
 30
0.0
 11
575.0162416153647
 21
-688.9982062394301
 31
0.0
  0
LINE
  5
20629
  8
0
  6
BYBLOCK
 10
575.0162416153647
 20
-688.9982062394301
 30
0.0
 11
573.0162416153647
 21
-689.5341046194302
 31
0.0
  0
LINE
  5
2062A
  8
0
  6
BYBLOCK
 10
575.0162416153647
 20
-688.9982062394301
 30
0.0
 11
573.0162416153647
 21
-688.9982062394301
 31
0.0
  0
TEXT
  5
2062B
  8
1DIM
  6
CONTINUOUS
 10
496.1395055042539
 20
-688.2957756838747
 30
0.0
 40
3.5
  1
150
  0
VIEWPORT
  5
57
 67
     1
  8
0
 10
0.0
 20
0.0
 30
0.0
 40
629.0235849056603
 41
297.0
 68
     1
 69
     1
1001
ACAD
1000
MVIEW
1002
{
1070
    16
1010
0.0
1020
0.0
1030
0.0
1010
0.0
1020
0.0
1030
1.0
1040
0.0
1040
297.0
1040
-4.272048862584541
1040
18.33904653606845
1040
50.0
1040
0.0
1040
0.0
1070
    16
1070
   100
1070
     0
1070
     1
1070
     0
1070
     0
1070
     0
1070
     0
1040
0.0
1040
0.0
1040
0.0
1040
10.0
1040
10.0
1040
10.0
1040
10.0
1070
     0
1002
{
1002
}
1002
}
  0
ENDSEC
  0
EOF
