  0
SECTION
  2
HEADER
  9
$ACADVER
  1
AC1009
  9
$DWGCODEPAGE
  3
ansi_932
  9
$INSBASE
 10
0.0
 20
0.0
 30
0.0
  9
$EXTMIN
 10
400.0162416153641
 20
-759.4253292040937
 30
0.0
  9
$EXTMAX
 10
759.4907956417231
 20
-549.0668652283634
 30
0.0
  9
$LIMMIN
 10
0.0
 20
0.0
  9
$LIMMAX
 10
420.0
 20
297.0
  9
$ORTHOMODE
 70
     0
  9
$REGENMODE
 70
     1
  9
$FILLMODE
 70
     1
  9
$QTEXTMODE
 70
     0
  9
$MIRRTEXT
 70
     0
  9
$DRAGMODE
 70
     2
  9
$LTSCALE
 40
0.5
  9
$OSMODE
 70
  2351
  9
$ATTMODE
 70
     1
  9
$TEXTSIZE
 40
4.0
  9
$TRACEWID
 40
1.0
  9
$TEXTSTYLE
  7
STANDARD
  9
$CLAYER
  8
1TEXT
  9
$CELTYPE
  6
BYLAYER
  9
$CECOLOR
 62
   256
  9
$DIMSCALE
 40
1.0
  9
$DIMASZ
 40
2.0
  9
$DIMEXO
 40
0.0
  9
$DIMDLI
 40
7.0
  9
$DIMRND
 40
0.0
  9
$DIMDLE
 40
0.0
  9
$DIMEXE
 40
1.0
  9
$DIMTP
 40
0.0
  9
$DIMTM
 40
0.0
  9
$DIMTXT
 40
3.5
  9
$DIMCEN
 40
0.0
  9
$DIMTSZ
 40
0.0
  9
$DIMTOL
 70
     0
  9
$DIMLIM
 70
     0
  9
$DIMTIH
 70
     0
  9
$DIMTOH
 70
     0
  9
$DIMSE1
 70
     0
  9
$DIMSE2
 70
     0
  9
$DIMTAD
 70
     1
  9
$DIMZIN
 70
     8
  9
$DIMBLK
  1

  9
$DIMASO
 70
     1
  9
$DIMSHO
 70
     1
  9
$DIMPOST
  1
 
  9
$DIMAPOST
  1

  9
$DIMALT
 70
     0
  9
$DIMALTD
 70
     2
  9
$DIMALTF
 40
25.4
  9
$DIMLFAC
 40
1.0
  9
$DIMTOFL
 70
     1
  9
$DIMTVP
 40
0.0
  9
$DIMTIX
 70
     0
  9
$DIMSOXD
 70
     0
  9
$DIMSAH
 70
     1
  9
$DIMBLK1
  1
OPEN30
  9
$DIMBLK2
  1
OPEN30
  9
$DIMSTYLE
  2
NEWX10
  9
$DIMCLRD
 70
   256
  9
$DIMCLRE
 70
   256
  9
$DIMCLRT
 70
   201
  9
$DIMTFAC
 40
0.7
  9
$DIMGAP
 40
0.7
  9
$LUNITS
 70
     2
  9
$LUPREC
 70
     4
  9
$SKETCHINC
 40
1.0
  9
$FILLETRAD
 40
0.0
  9
$AUNITS
 70
     0
  9
$AUPREC
 70
     2
  9
$MENU
  1
acad
  9
$ELEVATION
 40
0.0
  9
$PELEVATION
 40
0.0
  9
$THICKNESS
 40
0.0
  9
$LIMCHECK
 70
     0
  9
$CHAMFERA
 40
1.0
  9
$CHAMFERB
 40
1.0
  9
$SKPOLY
 70
     0
  9
$TDCREATE
 40
2453033.732663484
  9
$TDUPDATE
 40
2457862.662241597
  9
$TDINDWG
 40
2.6093592361
  9
$TDUSRTIMER
 40
2.6093592361
  9
$USRTIMER
 70
     1
  9
$ANGBASE
 50
0.0
  9
$ANGDIR
 70
     0
  9
$PDMODE
 70
     0
  9
$PDSIZE
 40
0.0
  9
$PLINEWID
 40
0.0
  9
$COORDS
 70
     2
  9
$SPLFRAME
 70
     0
  9
$SPLINETYPE
 70
     6
  9
$SPLINESEGS
 70
     8
  9
$ATTDIA
 70
     0
  9
$ATTREQ
 70
     1
  9
$HANDLING
 70
     1
  9
$HANDSEED
  5
2450A
  9
$SURFTAB1
 70
     6
  9
$SURFTAB2
 70
     6
  9
$SURFTYPE
 70
     6
  9
$SURFU
 70
     6
  9
$SURFV
 70
     6
  9
$UCSNAME
  2

  9
$UCSORG
 10
0.0
 20
0.0
 30
0.0
  9
$UCSXDIR
 10
1.0
 20
0.0
 30
0.0
  9
$UCSYDIR
 10
0.0
 20
1.0
 30
0.0
  9
$PUCSNAME
  2

  9
$PUCSORG
 10
0.0
 20
0.0
 30
0.0
  9
$PUCSXDIR
 10
1.0
 20
0.0
 30
0.0
  9
$PUCSYDIR
 10
0.0
 20
1.0
 30
0.0
  9
$USERI1
 70
     0
  9
$USERI2
 70
     0
  9
$USERI3
 70
     0
  9
$USERI4
 70
     0
  9
$USERI5
 70
     0
  9
$USERR1
 40
0.0
  9
$USERR2
 40
0.0
  9
$USERR3
 40
0.0
  9
$USERR4
 40
0.0
  9
$USERR5
 40
0.0
  9
$WORLDVIEW
 70
     1
  9
$SHADEDGE
 70
     3
  9
$SHADEDIF
 70
    70
  9
$TILEMODE
 70
     1
  9
$MAXACTVP
 70
    48
  9
$PLIMCHECK
 70
     0
  9
$PEXTMIN
 10
1.000000000000000E+20
 20
1.000000000000000E+20
 30
1.000000000000000E+20
  9
$PEXTMAX
 10
-1.000000000000000E+20
 20
-1.000000000000000E+20
 30
-1.000000000000000E+20
  9
$PLIMMIN
 10
0.0
 20
0.0
  9
$PLIMMAX
 10
420.0
 20
297.0
  9
$UNITMODE
 70
     0
  9
$VISRETAIN
 70
     1
  9
$PLINEGEN
 70
     0
  9
$PSLTSCALE
 70
     1
  0
ENDSEC
  0
SECTION
  2
TABLES
  0
TABLE
  2
VPORT
 70
     1
  0
VPORT
  2
*ACTIVE
 70
     0
 10
0.0
 20
0.0
 11
1.0
 21
1.0
 12
579.7535186285436
 22
-654.2460972162286
 13
0.0
 23
0.0
 14
10.0
 24
10.0
 15
10.0
 25
10.0
 16
0.0
 26
0.0
 36
1.0
 17
0.0
 27
0.0
 37
0.0
 40
225.8585613213104
 41
2.117924528301887
 42
50.0
 43
0.0
 44
0.0
 50
0.0
 51
0.0
 71
    16
 72
   100
 73
     1
 74
     1
 75
     0
 76
     0
 77
     0
 78
     0
  0
ENDTAB
  0
TABLE
  2
LTYPE
 70
    18
  0
LTYPE
  2
CONTINUOUS
 70
     0
  3
Solid line
 72
    65
 73
     0
 40
0.0
  0
LTYPE
  2
CENTER2
 70
     0
  3
Center (.5x) ___ _ ___ _ ___ _ ___ _ ___ _ ___
 72
    65
 73
     4
 40
28.575
 49
19.05
 49
-3.175
 49
3.175
 49
-3.175
  0
LTYPE
  2
PHANTOM2
 70
     0
  3
Phantom (0.5x) ___ _ _ ___ _ _ ___ _ _ ___ _ _
 72
    65
 73
     6
 40
31.75
 49
15.875
 49
-3.175
 49
3.175
 49
-3.175
 49
3.175
 49
-3.175
  0
ENDTAB
  0
TABLE
  2
LAYER
 70
    44
  0
LAYER
  2
0
 70
     0
 62
     7
  6
CONTINUOUS
  0
LAYER
  2
1CENTER
 70
     0
 62
     7
  6
CENTER2
  0
LAYER
  2
1TEXT
 70
     0
 62
     7
  6
CONTINUOUS
  0
LAYER
  2
1DIM
 70
     0
 62
     7
  6
CONTINUOUS
  0
LAYER
  2
1PHANTOM
 70
     0
 62
     7
  6
PHANTOM2
  0
LAYER
  2
01
 70
     0
 62
     1
  6
CONTINUOUS
  0
ENDTAB
  0
TABLE
  2
STYLE
 70
    25
  0
STYLE
  2
STANDARD
 70
     0
 40
0.0
 41
1.0
 50
0.0
 71
     0
 42
4.0
  3
txt.shx
  4
extfont.shx
  0
ENDTAB
  0
TABLE
  2
VIEW
 70
     0
  0
ENDTAB
  0
TABLE
  2
UCS
 70
     0
  0
ENDTAB
  0
TABLE
  2
APPID
 70
    14
  0
APPID
  2
ACAD
 70
     0
  0
APPID
  2
DRAWINGVARIABLESXDATA
 70
     0
  0
APPID
  2
CONTENTTABDATA
 70
     0
  0
APPID
  2
CONTENTCURRENTTAB
 70
     0
  0
APPID
  2
CONTENTBLOCKDESCRIPTION
 70
     0
  0
APPID
  2
CONTENTBLOCKICON
 70
     0
  0
APPID
  2
CONTENTLONGBLOCKNAME
 70
     0
  0
APPID
  2
ACAD_PSEXT
 70
     0
  0
APPID
  2
ACAD_DSTYLE_DIMTEXT_FILL
 70
     0
  0
APPID
  2
ACAD_MLEADERVER
 70
     0
  0
APPID
  2
ACAD_DSTYLE_DIMRADIAL_EXTE
 70
     0
  0
APPID
  2
ACADANNOTATIVE
 70
     0
  0
APPID
  2
ACAD_EXEMPT_FROM_CAD_STAND
 70
     0
  0
APPID
  2
ACAD_NAV_VCDISPLAY
 70
     0
  0
ENDTAB
  0
TABLE
  2
DIMSTYLE
 70
    10
  0
DIMSTYLE
  2
NEWX10
 70
     0
  3
 
  4

  5

  6
OPEN30
  7
OPEN30
 40
1.0
 41
2.0
 42
0.0
 43
7.0
 44
1.0
 45
0.0
 46
0.0
 47
0.0
 48
0.0
140
3.5
141
0.0
142
0.0
143
25.4
144
1.0
145
0.0
146
0.7
147
0.7
 71
     0
 72
     0
 73
     0
 74
     0
 75
     0
 76
     0
 77
     1
 78
     8
170
     0
171
     2
172
     1
173
     1
174
     0
175
     0
176
   256
177
   256
178
   201
  0
ENDTAB
  0
ENDSEC
  0
SECTION
  2
BLOCKS
  0
BLOCK
  8
0
  2
$MODEL_SPACE
 70
     0
 10
0.0
 20
0.0
 30
0.0
  3
$MODEL_SPACE
  1

  0
ENDBLK
  5
1A
  8
0
  0
BLOCK
 67
     1
  8
0
  2
$PAPER_SPACE
 70
     0
 10
0.0
 20
0.0
 30
0.0
  3
$PAPER_SPACE
  1

  0
ENDBLK
  5
17
 67
     1
  8
0
  0
BLOCK
  8
0
  2
_OPEN30
 70
     0
 10
0.0
 20
0.0
 30
0.0
  3
_OPEN30
  1

  0
LINE
  5
44
  8
0
  6
BYBLOCK
 62
     0
 10
-1.0
 20
0.26794919
 30
0.0
 11
0.0
 21
0.0
 31
0.0
  0
LINE
  5
45
  8
0
  6
BYBLOCK
 62
     0
 10
0.0
 20
0.0
 30
0.0
 11
-1.0
 21
-0.26794919
 31
0.0
  0
LINE
  5
46
  8
0
  6
BYBLOCK
 62
     0
 10
0.0
 20
0.0
 30
0.0
 11
-1.0
 21
0.0
 31
0.0
  0
ENDBLK
  5
47
  8
0
  0
ENDSEC
  0
SECTION
  2
ENTITIES
  0
LINE
  5
1D8CA
  8
01
 10
713.016241615365
 20
-705.4863273753906
 30
0.0
 11
713.016241615365
 21
-727.636327375392
 31
0.0
  0
LINE
  5
1D90A
  8
01
 10
713.016241615365
 20
-707.9863273753913
 30
0.0
 11
713.016241615365
 21
-725.6363273753907
 31
0.0
  0
TEXT
  5
1DB93
  8
1TEXT
 10
681.9769459223726
 20
-570.3213303512664
 30
0.0
 40
4.0
  1
表面処理
 72
     1
 11
691.2436125890392
 21
-570.3213303512664
 31
0.0
  0
LINE
  5
1DB94
  8
1DIM
 10
673.8436125890391
 20
-564.8213303512664
 30
0.0
 11
743.8436125890391
 21
-564.8213303512664
 31
0.0
  0
LINE
  5
1DB95
  8
1DIM
 10
673.8436125890391
 20
-578.8213303512664
 30
0.0
 11
743.8436125890391
 21
-578.8213303512664
 31
0.0
  0
LINE
  5
1DB96
  8
1DIM
 10
673.8436125890391
 20
-571.8213303512664
 30
0.0
 11
743.8436125890391
 21
-571.8213303512664
 31
0.0
  0
LINE
  5
1DB97
  8
1DIM
 10
708.8436125890391
 20
-564.8213303512664
 30
0.0
 11
708.8436125890388
 21
-578.8213303512664
 31
0.0
  0
TEXT
  5
1DB98
  8
1TEXT
 10
719.3769459223726
 20
-570.3213303512664
 30
0.0
 40
4.0
  1
コード
 72
     1
 11
726.2436125890392
 21
-570.3213303512664
 31
0.0
  0
LINE
  5
1DB99
  8
1DIM
 10
673.8436125890391
 20
-578.8213303512664
 30
0.0
 11
673.8436125890391
 21
-564.8213303512664
 31
0.0
  0
LINE
  5
1DB9A
  8
1DIM
 10
743.843612589039
 20
-578.8213303512664
 30
0.0
 11
743.8436125890391
 21
-564.8213303512664
 31
0.0
  0
TEXT
  5
1DB9B
  8
1TEXT
 10
673.8436125890391
 20
-559.8213303512664
 30
0.0
 40
8.0
  1
SC-960-X
  0
TEXT
  5
1DB9C
  8
1TEXT
 10
681.7769459223725
 20
-577.1566190107907
 30
0.0
 40
4.0
  1
クローム
 72
     1
 11
691.2436125890392
 21
-577.1566190107907
 31
0.0
  0
TEXT
  5
1DB9D
  8
1TEXT
 10
711.7810199964468
 20
-577.5356873349157
 30
0.0
 40
4.0
  1
SC-960-XC
 41
0.85
 72
     1
 11
726.2436125890395
 21
-577.5356873349157
 31
0.0
  0
LINE
  5
1DBA4
  8
01
 10
725.516241615365
 20
-673.4081537901093
 30
0.0
 11
725.516241615365
 21
-747.864500960673
 31
0.0
  0
LINE
  5
1DBA5
  8
01
 10
734.516241615365
 20
-673.4081537901093
 30
0.0
 11
734.516241615365
 21
-747.864500960673
 31
0.0
  0
LINE
  5
1DBA6
  8
01
 10
713.016241615365
 20
-673.4081537901093
 30
0.0
 11
713.016241615365
 21
-747.864500960673
 31
0.0
  0
LINE
  5
1E7B5
  8
01
 10
534.0162414684693
 20
-585.4976601456665
 30
0.0
 11
533.0162417684693
 21
-584.4976601456665
 31
0.0
  0
LINE
  5
1E7B6
  8
01
 10
537.3162416184692
 20
-585.4976601456665
 30
0.0
 11
537.3162416184692
 21
-584.4976601456665
 31
0.0
  0
LINE
  5
1E7B7
  8
01
 10
537.3162416184692
 20
-584.4976601456665
 30
0.0
 11
529.7162416184693
 21
-584.4976601456665
 31
0.0
  0
LINE
  5
1E7B8
  8
01
 10
537.3162416184692
 20
-585.4976601456665
 30
0.0
 11
529.7162416184693
 21
-585.4976601456665
 31
0.0
  0
LINE
  5
1E7B9
  8
01
 10
529.7162416184693
 20
-585.4976601456665
 30
0.0
 11
529.7162416184693
 21
-584.4976601456665
 31
0.0
  0
LINE
  5
1E9D4
  8
01
 10
467.0162414684693
 20
-585.4976601456665
 30
0.0
 11
466.0162417684693
 21
-584.4976601456665
 31
0.0
  0
LINE
  5
1E9D5
  8
01
 10
470.3162416184692
 20
-585.4976601456665
 30
0.0
 11
470.3162416184692
 21
-584.4976601456665
 31
0.0
  0
LINE
  5
1E9D6
  8
01
 10
470.3162416184692
 20
-584.4976601456665
 30
0.0
 11
462.7162416184693
 21
-584.4976601456665
 31
0.0
  0
LINE
  5
1E9D7
  8
01
 10
470.3162416184692
 20
-585.4976601456665
 30
0.0
 11
462.7162416184693
 21
-585.4976601456665
 31
0.0
  0
LINE
  5
1E9D8
  8
01
 10
462.7162416184693
 20
-585.4976601456665
 30
0.0
 11
462.7162416184693
 21
-584.4976601456665
 31
0.0
  0
POLYLINE
  5
2005F
  8
1DIM
 66
     1
 10
0.0
 20
0.0
 30
0.0
  0
VERTEX
  5
23A7C
  8
1DIM
 10
410.9255096049402
 20
-706.0695411220154
 30
0.0
  0
VERTEX
  5
23A7D
  8
1DIM
 10
410.8664708598837
 20
-706.0695817173508
 30
0.0
  0
VERTEX
  5
23A7E
  8
1DIM
 10
410.8074509465532
 20
-706.0696106907745
 30
0.0
  0
VERTEX
  5
23A7F
  8
1DIM
 10
410.7484686966744
 20
-706.0696164203744
 30
0.0
  0
VERTEX
  5
23A80
  8
1DIM
 10
410.6895429419626
 20
-706.0695872842671
 30
0.0
  0
VERTEX
  5
23A81
  8
1DIM
 10
410.6306915681773
 20
-706.0695141464672
 30
0.0
  0
VERTEX
  5
23A82
  8
1DIM
 10
410.5719289295324
 20
-706.0693971516162
 30
0.0
  0
VERTEX
  5
23A83
  8
1DIM
 10
410.5132685562729
 20
-706.0692386096829
 30
0.0
  0
VERTEX
  5
23A84
  8
1DIM
 10
410.4547239786433
 20
-706.0690408306365
 30
0.0
  0
VERTEX
  5
23A85
  8
1DIM
 10
410.3963087268883
 20
-706.068806124446
 30
0.0
  0
VERTEX
  5
23A86
  8
1DIM
 10
410.3380363312526
 20
-706.0685368010805
 30
0.0
  0
VERTEX
  5
23A87
  8
1DIM
 10
410.2799203219811
 20
-706.068235170509
 30
0.0
  0
VERTEX
  5
23A88
  8
1DIM
 10
410.2219742293182
 20
-706.0679035427005
 30
0.0
  0
VERTEX
  5
23A89
  8
1DIM
 10
410.1642115835088
 20
-706.067544227624
 30
0.0
  0
VERTEX
  5
23A8A
  8
1DIM
 10
410.1066459147974
 20
-706.0671595352487
 30
0.0
  0
VERTEX
  5
23A8B
  8
1DIM
 10
410.0492907534289
 20
-706.0667517755436
 30
0.0
  0
VERTEX
  5
23A8C
  8
1DIM
 10
409.9921596296479
 20
-706.0663232584777
 30
0.0
  0
VERTEX
  5
23A8D
  8
1DIM
 10
409.9352657683298
 20
-706.0658757884175
 30
0.0
  0
VERTEX
  5
23A8E
  8
1DIM
 10
409.8786211373518
 20
-706.0654090885058
 30
0.0
  0
VERTEX
  5
23A8F
  8
1DIM
 10
409.8222373812042
 20
-706.0649223464512
 30
0.0
  0
VERTEX
  5
23A90
  8
1DIM
 10
409.7661261443773
 20
-706.0644147499623
 30
0.0
  0
VERTEX
  5
23A91
  8
1DIM
 10
409.7102990713612
 20
-706.0638854867473
 30
0.0
  0
VERTEX
  5
23A92
  8
1DIM
 10
409.6547678066464
 20
-706.0633337445145
 30
0.0
  0
VERTEX
  5
23A93
  8
1DIM
 10
409.5995439947227
 20
-706.062758710972
 30
0.0
  0
VERTEX
  5
23A94
  8
1DIM
 10
409.5446392800805
 20
-706.0621595738286
 30
0.0
  0
VERTEX
  5
23A95
  8
1DIM
 10
409.4900653072101
 20
-706.0615355207923
 30
0.0
  0
VERTEX
  5
23A96
  8
1DIM
 10
409.4358337206015
 20
-706.0608857395713
 30
0.0
  0
VERTEX
  5
23A97
  8
1DIM
 10
409.3819561647451
 20
-706.0602094178744
 30
0.0
  0
VERTEX
  5
23A98
  8
1DIM
 10
409.3284442841354
 20
-706.0595057434133
 30
0.0
  0
VERTEX
  5
23A99
  8
1DIM
 10
409.275309904559
 20
-706.0587740624477
 30
0.0
  0
VERTEX
  5
23A9A
  8
1DIM
 10
409.222565514782
 20
-706.0580143010404
 30
0.0
  0
VERTEX
  5
23A9B
  8
1DIM
 10
409.1702237550815
 20
-706.0572265177567
 30
0.0
  0
VERTEX
  5
23A9C
  8
1DIM
 10
409.118297265734
 20
-706.0564107711615
 30
0.0
  0
VERTEX
  5
23A9D
  8
1DIM
 10
409.0667986870165
 20
-706.0555671198198
 30
0.0
  0
VERTEX
  5
23A9E
  8
1DIM
 10
409.0157406592056
 20
-706.054695622297
 30
0.0
  0
VERTEX
  5
23A9F
  8
1DIM
 10
408.9651358225782
 20
-706.0537963371579
 30
0.0
  0
VERTEX
  5
23AA0
  8
1DIM
 10
408.9149968174111
 20
-706.0528693229678
 30
0.0
  0
VERTEX
  5
23AA1
  8
1DIM
 10
408.865336283981
 20
-706.0519146382917
 30
0.0
  0
VERTEX
  5
23AA2
  8
1DIM
 10
408.8161668625647
 20
-706.0509323416946
 30
0.0
  0
VERTEX
  5
23AA3
  8
1DIM
 10
408.767501193439
 20
-706.0499224917419
 30
0.0
  0
VERTEX
  5
23AA4
  8
1DIM
 10
408.71935191688
 20
-706.0488851469836
 30
0.0
  0
VERTEX
  5
23AA5
  8
1DIM
 10
408.6717316698563
 20
-706.0478202854819
 30
0.0
  0
VERTEX
  5
23AA6
  8
1DIM
 10
408.6246530782948
 20
-706.046727616628
 30
0.0
  0
VERTEX
  5
23AA7
  8
1DIM
 10
408.5781287658214
 20
-706.0456067938203
 30
0.0
  0
VERTEX
  5
23AA8
  8
1DIM
 10
408.5321713560622
 20
-706.0444574704569
 30
0.0
  0
VERTEX
  5
23AA9
  8
1DIM
 10
408.4867934726432
 20
-706.043279299936
 30
0.0
  0
VERTEX
  5
23AAA
  8
1DIM
 10
408.4420077391903
 20
-706.042071935656
 30
0.0
  0
VERTEX
  5
23AAB
  8
1DIM
 10
408.3978267793293
 20
-706.0408350310153
 30
0.0
  0
VERTEX
  5
23AAC
  8
1DIM
 10
408.3542632166863
 20
-706.0395682394119
 30
0.0
  0
VERTEX
  5
23AAD
  8
1DIM
 10
408.3113296748872
 20
-706.0382712142443
 30
0.0
  0
VERTEX
  5
23AAE
  8
1DIM
 10
408.2690387775581
 20
-706.0369436089106
 30
0.0
  0
VERTEX
  5
23AAF
  8
1DIM
 10
408.2274031483248
 20
-706.0355850768094
 30
0.0
  0
VERTEX
  5
23AB0
  8
1DIM
 10
408.1864354115359
 20
-706.0341952716504
 30
0.0
  0
VERTEX
  5
23AB1
  8
1DIM
 10
408.1461489847064
 20
-706.0327741892621
 30
0.0
  0
VERTEX
  5
23AB2
  8
1DIM
 10
408.1065595930317
 20
-706.0313228208498
 30
0.0
  0
VERTEX
  5
23AB3
  8
1DIM
 10
408.0676833790711
 20
-706.0298423376421
 30
0.0
  0
VERTEX
  5
23AB4
  8
1DIM
 10
408.0295364853836
 20
-706.0283339108668
 30
0.0
  0
VERTEX
  5
23AB5
  8
1DIM
 10
407.9921350545288
 20
-706.0267987117521
 30
0.0
  0
VERTEX
  5
23AB6
  8
1DIM
 10
407.9554952290658
 20
-706.0252379115262
 30
0.0
  0
VERTEX
  5
23AB7
  8
1DIM
 10
407.9196331515538
 20
-706.0236526814173
 30
0.0
  0
VERTEX
  5
23AB8
  8
1DIM
 10
407.8845649645521
 20
-706.0220441926535
 30
0.0
  0
VERTEX
  5
23AB9
  8
1DIM
 10
407.85030681062
 20
-706.0204136164631
 30
0.0
  0
VERTEX
  5
23ABA
  8
1DIM
 10
407.8168748323167
 20
-706.0187621240741
 30
0.0
  0
VERTEX
  5
23ABB
  8
1DIM
 10
407.7842851722015
 20
-706.0170908867146
 30
0.0
  0
VERTEX
  5
23ABC
  8
1DIM
 10
407.7525537220038
 20
-706.0154010286925
 30
0.0
  0
VERTEX
  5
23ABD
  8
1DIM
 10
407.7216900455727
 20
-706.0136924906191
 30
0.0
  0
VERTEX
  5
23ABE
  8
1DIM
 10
407.6916970519247
 20
-706.0119639682491
 30
0.0
  0
VERTEX
  5
23ABF
  8
1DIM
 10
407.6625773338048
 20
-706.0102140981754
 30
0.0
  0
VERTEX
  5
23AC0
  8
1DIM
 10
407.6343334839575
 20
-706.008441516991
 30
0.0
  0
VERTEX
  5
23AC1
  8
1DIM
 10
407.6069680951279
 20
-706.0066448612885
 30
0.0
  0
VERTEX
  5
23AC2
  8
1DIM
 10
407.5804837600604
 20
-706.0048227676609
 30
0.0
  0
VERTEX
  5
23AC3
  8
1DIM
 10
407.5548830715001
 20
-706.0029738727011
 30
0.0
  0
VERTEX
  5
23AC4
  8
1DIM
 10
407.5301686221915
 20
-706.0010968130019
 30
0.0
  0
VERTEX
  5
23AC5
  8
1DIM
 10
407.5063430048797
 20
-705.9991902251564
 30
0.0
  0
VERTEX
  5
23AC6
  8
1DIM
 10
407.4834092002193
 20
-705.9972528228976
 30
0.0
  0
VERTEX
  5
23AC7
  8
1DIM
 10
407.4614162297303
 20
-705.9952924757287
 30
0.0
  0
VERTEX
  5
23AC8
  8
1DIM
 10
407.4405020550953
 20
-705.9933347399543
 30
0.0
  0
VERTEX
  5
23AC9
  8
1DIM
 10
407.4208147902509
 20
-705.9914071907749
 30
0.0
  0
VERTEX
  5
23ACA
  8
1DIM
 10
407.4025025491338
 20
-705.9895374033904
 30
0.0
  0
VERTEX
  5
23ACB
  8
1DIM
 10
407.3857134456808
 20
-705.9877529530013
 30
0.0
  0
VERTEX
  5
23ACC
  8
1DIM
 10
407.3705955938286
 20
-705.9860814148077
 30
0.0
  0
VERTEX
  5
23ACD
  8
1DIM
 10
407.3572971075139
 20
-705.9845503640099
 30
0.0
  0
VERTEX
  5
23ACE
  8
1DIM
 10
407.3459661006735
 20
-705.9831873758083
 30
0.0
  0
VERTEX
  5
23ACF
  8
1DIM
 10
407.3367320569996
 20
-705.9820177862033
 30
0.0
  0
VERTEX
  5
23AD0
  8
1DIM
 10
407.3294373376606
 20
-705.981032421467
 30
0.0
  0
VERTEX
  5
23AD1
  8
1DIM
 10
407.3236989216534
 20
-705.9801950188178
 30
0.0
  0
VERTEX
  5
23AD2
  8
1DIM
 10
407.3191277331449
 20
-705.9794685877338
 30
0.0
  0
VERTEX
  5
23AD3
  8
1DIM
 10
407.3153346963022
 20
-705.9788161376931
 30
0.0
  0
VERTEX
  5
23AD4
  8
1DIM
 10
407.3119307352924
 20
-705.9782006781743
 30
0.0
  0
SEQEND
  5
244F3
  8
1DIM
  0
POLYLINE
  5
20060
  8
1DIM
 66
     1
 10
0.0
 20
0.0
 30
0.0
  0
VERTEX
  5
23AD5
  8
1DIM
 10
592.7158149540704
 20
-705.9792431128274
 30
0.0
  0
VERTEX
  5
23AD6
  8
1DIM
 10
592.7169762624039
 20
-705.9790002589864
 30
0.0
  0
VERTEX
  5
23AD7
  8
1DIM
 10
592.7171043752054
 20
-705.9789128575626
 30
0.0
  0
VERTEX
  5
23AD8
  8
1DIM
 10
592.7151673255604
 20
-705.9791361561194
 30
0.0
  0
VERTEX
  5
23AD9
  8
1DIM
 10
592.7104901315129
 20
-705.9797658801873
 30
0.0
  0
VERTEX
  5
23ADA
  8
1DIM
 10
592.7032479026819
 20
-705.9807560149337
 30
0.0
  0
VERTEX
  5
23ADB
  8
1DIM
 10
592.6937395671811
 20
-705.9820399005984
 30
0.0
  0
VERTEX
  5
23ADC
  8
1DIM
 10
592.6822640531237
 20
-705.9835508774208
 30
0.0
  0
VERTEX
  5
23ADD
  8
1DIM
 10
592.6691202886235
 20
-705.985222285641
 30
0.0
  0
VERTEX
  5
23ADE
  8
1DIM
 10
592.654607201794
 20
-705.9869874654988
 30
0.0
  0
VERTEX
  5
23ADF
  8
1DIM
 10
592.639023318307
 20
-705.9887798486512
 30
0.0
  0
VERTEX
  5
23AE0
  8
1DIM
 10
592.622580773141
 20
-705.9905524909618
 30
0.0
  0
VERTEX
  5
23AE1
  8
1DIM
 10
592.6052984225742
 20
-705.9923023528046
 30
0.0
  0
VERTEX
  5
23AE2
  8
1DIM
 10
592.5871688887257
 20
-705.9940323538127
 30
0.0
  0
VERTEX
  5
23AE3
  8
1DIM
 10
592.5681847937146
 20
-705.99574541362
 30
0.0
  0
VERTEX
  5
23AE4
  8
1DIM
 10
592.5483387596599
 20
-705.9974444518598
 30
0.0
  0
VERTEX
  5
23AE5
  8
1DIM
 10
592.527623408681
 20
-705.9991323881654
 30
0.0
  0
VERTEX
  5
23AE6
  8
1DIM
 10
592.5060313628967
 20
-706.0008121421703
 30
0.0
  0
VERTEX
  5
23AE7
  8
1DIM
 10
592.4835552444262
 20
-706.002486633508
 30
0.0
  0
VERTEX
  5
23AE8
  8
1DIM
 10
592.4601876753886
 20
-706.0041587818121
 30
0.0
  0
VERTEX
  5
23AE9
  8
1DIM
 10
592.4359251808853
 20
-706.005830776621
 30
0.0
  0
VERTEX
  5
23AEA
  8
1DIM
 10
592.4107836335063
 20
-706.0075011883182
 30
0.0
  0
VERTEX
  5
23AEB
  8
1DIM
 10
592.3847848898325
 20
-706.0091674679173
 30
0.0
  0
VERTEX
  5
23AEC
  8
1DIM
 10
592.3579508082107
 20
-706.0108270661016
 30
0.0
  0
VERTEX
  5
23AED
  8
1DIM
 10
592.3303032469876
 20
-706.0124774335545
 30
0.0
  0
VERTEX
  5
23AEE
  8
1DIM
 10
592.3018640645101
 20
-706.0141160209594
 30
0.0
  0
VERTEX
  5
23AEF
  8
1DIM
 10
592.2726551191249
 20
-706.0157402789994
 30
0.0
  0
VERTEX
  5
23AF0
  8
1DIM
 10
592.2426982691791
 20
-706.0173476583578
 30
0.0
  0
VERTEX
  5
23AF1
  8
1DIM
 10
592.212015373019
 20
-706.0189356097184
 30
0.0
  0
VERTEX
  5
23AF2
  8
1DIM
 10
592.1806282889918
 20
-706.0205015837638
 30
0.0
  0
VERTEX
  5
23AF3
  8
1DIM
 10
592.148558875444
 20
-706.0220430311776
 30
0.0
  0
VERTEX
  5
23AF4
  8
1DIM
 10
592.1158268449931
 20
-706.0235577996862
 30
0.0
  0
VERTEX
  5
23AF5
  8
1DIM
 10
592.0824420870375
 20
-706.0250455546897
 30
0.0
  0
VERTEX
  5
23AF6
  8
1DIM
 10
592.0484116815564
 20
-706.0265064814397
 30
0.0
  0
VERTEX
  5
23AF7
  8
1DIM
 10
592.0137427083059
 20
-706.0279407652289
 30
0.0
  0
VERTEX
  5
23AF8
  8
1DIM
 10
591.9784422470419
 20
-706.0293485913501
 30
0.0
  0
VERTEX
  5
23AF9
  8
1DIM
 10
591.9425173775203
 20
-706.0307301450962
 30
0.0
  0
VERTEX
  5
23AFA
  8
1DIM
 10
591.9059751794969
 20
-706.0320856117598
 30
0.0
  0
VERTEX
  5
23AFB
  8
1DIM
 10
591.8688227327277
 20
-706.033415176634
 30
0.0
  0
VERTEX
  5
23AFC
  8
1DIM
 10
591.8310671169687
 20
-706.0347190250112
 30
0.0
  0
VERTEX
  5
23AFD
  8
1DIM
 10
591.7927154119757
 20
-706.0359973421844
 30
0.0
  0
VERTEX
  5
23AFE
  8
1DIM
 10
591.7537746975047
 20
-706.0372503134464
 30
0.0
  0
VERTEX
  5
23AFF
  8
1DIM
 10
591.7142520533114
 20
-706.0384781240898
 30
0.0
  0
VERTEX
  5
23B00
  8
1DIM
 10
591.6741552834205
 20
-706.0396809441198
 30
0.0
  0
VERTEX
  5
23B01
  8
1DIM
 10
591.6334956566177
 20
-706.0408588704073
 30
0.0
  0
VERTEX
  5
23B02
  8
1DIM
 10
591.592285476556
 20
-706.0420119779794
 30
0.0
  0
VERTEX
  5
23B03
  8
1DIM
 10
591.5505370470721
 20
-706.0431403418595
 30
0.0
  0
VERTEX
  5
23B04
  8
1DIM
 10
591.5082626720028
 20
-706.0442440370707
 30
0.0
  0
VERTEX
  5
23B05
  8
1DIM
 10
591.4654746551848
 20
-706.0453231386363
 30
0.0
  0
VERTEX
  5
23B06
  8
1DIM
 10
591.422185300455
 20
-706.0463777215796
 30
0.0
  0
VERTEX
  5
23B07
  8
1DIM
 10
591.3784069116499
 20
-706.0474078609237
 30
0.0
  0
VERTEX
  5
23B08
  8
1DIM
 10
591.3341517926065
 20
-706.048413631692
 30
0.0
  0
VERTEX
  5
23B09
  8
1DIM
 10
591.2894322471614
 20
-706.0493951089077
 30
0.0
  0
VERTEX
  5
23B0A
  8
1DIM
 10
591.2442605791512
 20
-706.050352367594
 30
0.0
  0
VERTEX
  5
23B0B
  8
1DIM
 10
591.1986490924129
 20
-706.0512854827741
 30
0.0
  0
VERTEX
  5
23B0C
  8
1DIM
 10
591.1526100541207
 20
-706.0521945283832
 30
0.0
  0
VERTEX
  5
23B0D
  8
1DIM
 10
591.1061544278011
 20
-706.0530795396563
 30
0.0
  0
VERTEX
  5
23B0E
  8
1DIM
 10
591.0592915506705
 20
-706.0539405035508
 30
0.0
  0
VERTEX
  5
23B0F
  8
1DIM
 10
591.012030657759
 20
-706.0547774039907
 30
0.0
  0
VERTEX
  5
23B10
  8
1DIM
 10
590.9643809840968
 20
-706.0555902248994
 30
0.0
  0
VERTEX
  5
23B11
  8
1DIM
 10
590.9163517647139
 20
-706.0563789502014
 30
0.0
  0
VERTEX
  5
23B12
  8
1DIM
 10
590.8679522346405
 20
-706.0571435638202
 30
0.0
  0
VERTEX
  5
23B13
  8
1DIM
 10
590.8191916289069
 20
-706.0578840496797
 30
0.0
  0
VERTEX
  5
23B14
  8
1DIM
 10
590.7700791825429
 20
-706.0586003917036
 30
0.0
  0
VERTEX
  5
23B15
  8
1DIM
 10
590.7206241305789
 20
-706.059292573816
 30
0.0
  0
VERTEX
  5
23B16
  8
1DIM
 10
590.6708357080452
 20
-706.0599605799408
 30
0.0
  0
VERTEX
  5
23B17
  8
1DIM
 10
590.6207231499715
 20
-706.0606043940015
 30
0.0
  0
VERTEX
  5
23B18
  8
1DIM
 10
590.5702956913883
 20
-706.0612239999222
 30
0.0
  0
VERTEX
  5
23B19
  8
1DIM
 10
590.5195625885057
 20
-706.0618194314733
 30
0.0
  0
VERTEX
  5
23B1A
  8
1DIM
 10
590.4685332892697
 20
-706.0623911736689
 30
0.0
  0
VERTEX
  5
23B1B
  8
1DIM
 10
590.4172173435726
 20
-706.0629399514509
 30
0.0
  0
VERTEX
  5
23B1C
  8
1DIM
 10
590.3656243022508
 20
-706.0634664919824
 30
0.0
  0
VERTEX
  5
23B1D
  8
1DIM
 10
590.3137637161404
 20
-706.063971522426
 30
0.0
  0
VERTEX
  5
23B1E
  8
1DIM
 10
590.2616451360777
 20
-706.0644557699444
 30
0.0
  0
VERTEX
  5
23B1F
  8
1DIM
 10
590.2092781128988
 20
-706.0649199617009
 30
0.0
  0
VERTEX
  5
23B20
  8
1DIM
 10
590.1566721974398
 20
-706.065364824858
 30
0.0
  0
VERTEX
  5
23B21
  8
1DIM
 10
590.103836940537
 20
-706.0657910865784
 30
0.0
  0
VERTEX
  5
23B22
  8
1DIM
 10
590.0507818930264
 20
-706.0661994740256
 30
0.0
  0
VERTEX
  5
23B23
  8
1DIM
 10
589.9975166057443
 20
-706.0665907143615
 30
0.0
  0
VERTEX
  5
23B24
  8
1DIM
 10
589.9440506295268
 20
-706.0669655347496
 30
0.0
  0
VERTEX
  5
23B25
  8
1DIM
 10
589.8903935152103
 20
-706.0673246623525
 30
0.0
  0
VERTEX
  5
23B26
  8
1DIM
 10
589.836555192772
 20
-706.0676685462251
 30
0.0
  0
VERTEX
  5
23B27
  8
1DIM
 10
589.7825481875924
 20
-706.0679957316436
 30
0.0
  0
VERTEX
  5
23B28
  8
1DIM
 10
589.7283861120932
 20
-706.0683039665167
 30
0.0
  0
VERTEX
  5
23B29
  8
1DIM
 10
589.6740825823864
 20
-706.0685909960467
 30
0.0
  0
VERTEX
  5
23B2A
  8
1DIM
 10
589.6196512145849
 20
-706.0688545654355
 30
0.0
  0
VERTEX
  5
23B2B
  8
1DIM
 10
589.5651056248005
 20
-706.0690924198852
 30
0.0
  0
VERTEX
  5
23B2C
  8
1DIM
 10
589.5104594291457
 20
-706.0693023045977
 30
0.0
  0
VERTEX
  5
23B2D
  8
1DIM
 10
589.455726243733
 20
-706.0694819647755
 30
0.0
  0
VERTEX
  5
23B2E
  8
1DIM
 10
589.4009196846744
 20
-706.06962914562
 30
0.0
  0
VERTEX
  5
23B2F
  8
1DIM
 10
589.3460533680824
 20
-706.0697415923338
 30
0.0
  0
VERTEX
  5
23B30
  8
1DIM
 10
589.2911409100691
 20
-706.0698170501186
 30
0.0
  0
VERTEX
  5
23B31
  8
1DIM
 10
589.2361959267471
 20
-706.0698532641766
 30
0.0
  0
VERTEX
  5
23B32
  8
1DIM
 10
589.1812320340449
 20
-706.0698479799709
 30
0.0
  0
VERTEX
  5
23B33
  8
1DIM
 10
589.1262606248011
 20
-706.0698021015813
 30
0.0
  0
VERTEX
  5
23B34
  8
1DIM
 10
589.0712853324627
 20
-706.0697275578098
 30
0.0
  0
VERTEX
  5
23B35
  8
1DIM
 10
589.016308098577
 20
-706.069638681347
 30
0.0
  0
SEQEND
  5
244F4
  8
1DIM
  0
LINE
  5
20061
  8
1DIM
 10
589.016241615365
 20
-706.0699416455618
 30
0.0
 11
411.0162416153649
 21
-706.0699416455618
 31
0.0
  0
LINE
  5
20062
  8
1DIM
 10
600.016241615365
 20
-720.1295499069515
 30
0.0
 11
597.016241615365
 21
-720.1295499069515
 31
0.0
  0
LINE
  5
20063
  8
1DIM
 10
597.016241615365
 20
-706.6301723763613
 30
0.0
 11
597.016241615365
 21
-720.1295499069515
 31
0.0
  0
POLYLINE
  5
20064
  8
1DIM
 66
     1
 10
0.0
 20
0.0
 30
0.0
  0
VERTEX
  5
23B36
  8
1DIM
 10
597.016241615365
 20
-706.6301723763613
 30
0.0
  0
VERTEX
  5
23B37
  8
1DIM
 10
597.055814438412
 20
-706.6301723529856
 30
0.0
  0
VERTEX
  5
23B38
  8
1DIM
 10
597.0952992802845
 20
-706.6301722673044
 30
0.0
  0
VERTEX
  5
23B39
  8
1DIM
 10
597.1346963815624
 20
-706.6301720959868
 30
0.0
  0
VERTEX
  5
23B3A
  8
1DIM
 10
597.1740059828254
 20
-706.630171815702
 30
0.0
  0
VERTEX
  5
23B3B
  8
1DIM
 10
597.2132283246531
 20
-706.630171403119
 30
0.0
  0
VERTEX
  5
23B3C
  8
1DIM
 10
597.2523636476252
 20
-706.6301708349068
 30
0.0
  0
VERTEX
  5
23B3D
  8
1DIM
 10
597.2914121923214
 20
-706.6301700877347
 30
0.0
  0
VERTEX
  5
23B3E
  8
1DIM
 10
597.3303741993215
 20
-706.6301691382715
 30
0.0
  0
VERTEX
  5
23B3F
  8
1DIM
 10
597.3692499092051
 20
-706.6301679631864
 30
0.0
  0
VERTEX
  5
23B40
  8
1DIM
 10
597.4080395625518
 20
-706.6301665391486
 30
0.0
  0
VERTEX
  5
23B41
  8
1DIM
 10
597.4467433999416
 20
-706.6301648428271
 30
0.0
  0
VERTEX
  5
23B42
  8
1DIM
 10
597.4853616619539
 20
-706.6301628508908
 30
0.0
  0
VERTEX
  5
23B43
  8
1DIM
 10
597.5238945891685
 20
-706.6301605400089
 30
0.0
  0
VERTEX
  5
23B44
  8
1DIM
 10
597.5623424221651
 20
-706.6301578868506
 30
0.0
  0
VERTEX
  5
23B45
  8
1DIM
 10
597.6007054015234
 20
-706.6301548680849
 30
0.0
  0
VERTEX
  5
23B46
  8
1DIM
 10
597.6390078803141
 20
-706.6301514428465
 30
0.0
  0
VERTEX
  5
23B47
  8
1DIM
 10
597.6772649892627
 20
-706.6301475416352
 30
0.0
  0
VERTEX
  5
23B48
  8
1DIM
 10
597.7154631354315
 20
-706.6301430981683
 30
0.0
  0
VERTEX
  5
23B49
  8
1DIM
 10
597.7535887258829
 20
-706.6301380461632
 30
0.0
  0
VERTEX
  5
23B4A
  8
1DIM
 10
597.7916281676788
 20
-706.6301323193368
 30
0.0
  0
VERTEX
  5
23B4B
  8
1DIM
 10
597.8295678678817
 20
-706.6301258514063
 30
0.0
  0
VERTEX
  5
23B4C
  8
1DIM
 10
597.8673942335538
 20
-706.6301185760891
 30
0.0
  0
VERTEX
  5
23B4D
  8
1DIM
 10
597.9050936717573
 20
-706.6301104271022
 30
0.0
  0
VERTEX
  5
23B4E
  8
1DIM
 10
597.9426525895545
 20
-706.6301013381627
 30
0.0
  0
VERTEX
  5
23B4F
  8
1DIM
 10
597.9800573940076
 20
-706.630091242988
 30
0.0
  0
VERTEX
  5
23B50
  8
1DIM
 10
598.017294492179
 20
-706.6300800752949
 30
0.0
  0
VERTEX
  5
23B51
  8
1DIM
 10
598.0543502911305
 20
-706.630067768801
 30
0.0
  0
VERTEX
  5
23B52
  8
1DIM
 10
598.0912111979247
 20
-706.6300542572234
 30
0.0
  0
VERTEX
  5
23B53
  8
1DIM
 10
598.1278636196238
 20
-706.630039474279
 30
0.0
  0
VERTEX
  5
23B54
  8
1DIM
 10
598.1642939632901
 20
-706.6300233536853
 30
0.0
  0
VERTEX
  5
23B55
  8
1DIM
 10
598.2004843349172
 20
-706.6300058359724
 30
0.0
  0
VERTEX
  5
23B56
  8
1DIM
 10
598.236426003213
 20
-706.6299868391668
 30
0.0
  0
VERTEX
  5
23B57
  8
1DIM
 10
598.2721191193115
 20
-706.6299662632298
 30
0.0
  0
VERTEX
  5
23B58
  8
1DIM
 10
598.3075638343465
 20
-706.6299440081231
 30
0.0
  0
VERTEX
  5
23B59
  8
1DIM
 10
598.342760299452
 20
-706.6299199738078
 30
0.0
  0
VERTEX
  5
23B5A
  8
1DIM
 10
598.3777086657616
 20
-706.6298940602455
 30
0.0
  0
VERTEX
  5
23B5B
  8
1DIM
 10
598.4124090844091
 20
-706.6298661673978
 30
0.0
  0
VERTEX
  5
23B5C
  8
1DIM
 10
598.4468617065284
 20
-706.6298361952258
 30
0.0
  0
VERTEX
  5
23B5D
  8
1DIM
 10
598.4810666832533
 20
-706.629804043691
 30
0.0
  0
VERTEX
  5
23B5E
  8
1DIM
 10
598.5150241657176
 20
-706.629769612755
 30
0.0
  0
VERTEX
  5
23B5F
  8
1DIM
 10
598.5487343050553
 20
-706.6297328023791
 30
0.0
  0
VERTEX
  5
23B60
  8
1DIM
 10
598.5821972524001
 20
-706.6296935125246
 30
0.0
  0
VERTEX
  5
23B61
  8
1DIM
 10
598.6154131588858
 20
-706.6296516431531
 30
0.0
  0
VERTEX
  5
23B62
  8
1DIM
 10
598.6483821756461
 20
-706.629607094226
 30
0.0
  0
VERTEX
  5
23B63
  8
1DIM
 10
598.681104453815
 20
-706.6295597657047
 30
0.0
  0
VERTEX
  5
23B64
  8
1DIM
 10
598.7135861950883
 20
-706.6295094813782
 30
0.0
  0
VERTEX
  5
23B65
  8
1DIM
 10
598.7458247556771
 20
-706.6294560738119
 30
0.0
  0
VERTEX
  5
23B66
  8
1DIM
 10
598.7778070184875
 20
-706.6293994561316
 30
0.0
  0
VERTEX
  5
23B67
  8
1DIM
 10
598.8095198664263
 20
-706.6293395414631
 30
0.0
  0
VERTEX
  5
23B68
  8
1DIM
 10
598.8409501823999
 20
-706.6292762429323
 30
0.0
  0
VERTEX
  5
23B69
  8
1DIM
 10
598.8720848493147
 20
-706.6292094736649
 30
0.0
  0
VERTEX
  5
23B6A
  8
1DIM
 10
598.9029107500771
 20
-706.6291391467868
 30
0.0
  0
VERTEX
  5
23B6B
  8
1DIM
 10
598.933414767594
 20
-706.6290651754238
 30
0.0
  0
VERTEX
  5
23B6C
  8
1DIM
 10
598.9635837847713
 20
-706.6289874727014
 30
0.0
  0
VERTEX
  5
23B6D
  8
1DIM
 10
598.993404684516
 20
-706.628905951746
 30
0.0
  0
VERTEX
  5
23B6E
  8
1DIM
 10
599.0228643497343
 20
-706.628820525683
 30
0.0
  0
VERTEX
  5
23B6F
  8
1DIM
 10
599.0519496633326
 20
-706.6287311076384
 30
0.0
  0
VERTEX
  5
23B70
  8
1DIM
 10
599.0806475082177
 20
-706.6286376107379
 30
0.0
  0
VERTEX
  5
23B71
  8
1DIM
 10
599.1089447672957
 20
-706.6285399481072
 30
0.0
  0
VERTEX
  5
23B72
  8
1DIM
 10
599.1368283234734
 20
-706.6284380328724
 30
0.0
  0
VERTEX
  5
23B73
  8
1DIM
 10
599.1643115416681
 20
-706.6283317660826
 30
0.0
  0
VERTEX
  5
23B74
  8
1DIM
 10
599.1914161359098
 20
-706.6282210212961
 30
0.0
  0
VERTEX
  5
23B75
  8
1DIM
 10
599.2181415127728
 20
-706.6281056704026
 30
0.0
  0
VERTEX
  5
23B76
  8
1DIM
 10
599.2444870788323
 20
-706.6279855852916
 30
0.0
  0
VERTEX
  5
23B77
  8
1DIM
 10
599.2704522406633
 20
-706.6278606378526
 30
0.0
  0
VERTEX
  5
23B78
  8
1DIM
 10
599.2960364048404
 20
-706.6277306999751
 30
0.0
  0
VERTEX
  5
23B79
  8
1DIM
 10
599.3212389779384
 20
-706.6275956435488
 30
0.0
  0
VERTEX
  5
23B7A
  8
1DIM
 10
599.3460593665322
 20
-706.6274553404633
 30
0.0
  0
VERTEX
  5
23B7B
  8
1DIM
 10
599.3704969771967
 20
-706.6273096626079
 30
0.0
  0
VERTEX
  5
23B7C
  8
1DIM
 10
599.3945512165068
 20
-706.6271584818724
 30
0.0
  0
VERTEX
  5
23B7D
  8
1DIM
 10
599.4182214910371
 20
-706.6270016701461
 30
0.0
  0
VERTEX
  5
23B7E
  8
1DIM
 10
599.4415072073626
 20
-706.6268390993188
 30
0.0
  0
VERTEX
  5
23B7F
  8
1DIM
 10
599.4644077720582
 20
-706.6266706412797
 30
0.0
  0
VERTEX
  5
23B80
  8
1DIM
 10
599.4869225916987
 20
-706.6264961679188
 30
0.0
  0
VERTEX
  5
23B81
  8
1DIM
 10
599.5090510728587
 20
-706.6263155511253
 30
0.0
  0
VERTEX
  5
23B82
  8
1DIM
 10
599.5307668162119
 20
-706.6261287899734
 30
0.0
  0
VERTEX
  5
23B83
  8
1DIM
 10
599.5520414786415
 20
-706.6259359450655
 30
0.0
  0
VERTEX
  5
23B84
  8
1DIM
 10
599.5728715510371
 20
-706.6257369805832
 30
0.0
  0
VERTEX
  5
23B85
  8
1DIM
 10
599.5932535242885
 20
-706.6255318607084
 30
0.0
  0
VERTEX
  5
23B86
  8
1DIM
 10
599.6131838892851
 20
-706.6253205496231
 30
0.0
  0
VERTEX
  5
23B87
  8
1DIM
 10
599.6326591369168
 20
-706.625103011509
 30
0.0
  0
VERTEX
  5
23B88
  8
1DIM
 10
599.6516757580731
 20
-706.6248792105481
 30
0.0
  0
VERTEX
  5
23B89
  8
1DIM
 10
599.6702302436438
 20
-706.6246491109221
 30
0.0
  0
VERTEX
  5
23B8A
  8
1DIM
 10
599.6883190845183
 20
-706.624412676813
 30
0.0
  0
VERTEX
  5
23B8B
  8
1DIM
 10
599.7059387715866
 20
-706.6241698724025
 30
0.0
  0
VERTEX
  5
23B8C
  8
1DIM
 10
599.7230857957381
 20
-706.6239206618725
 30
0.0
  0
VERTEX
  5
23B8D
  8
1DIM
 10
599.7397566478626
 20
-706.6236650094049
 30
0.0
  0
VERTEX
  5
23B8E
  8
1DIM
 10
599.7559478188497
 20
-706.6234028791816
 30
0.0
  0
VERTEX
  5
23B8F
  8
1DIM
 10
599.771655799589
 20
-706.6231342353843
 30
0.0
  0
VERTEX
  5
23B90
  8
1DIM
 10
599.7868770809703
 20
-706.622859042195
 30
0.0
  0
VERTEX
  5
23B91
  8
1DIM
 10
599.8016195914983
 20
-706.6225769182441
 30
0.0
  0
VERTEX
  5
23B92
  8
1DIM
 10
599.8158922026092
 20
-706.6222875145329
 30
0.0
  0
VERTEX
  5
23B93
  8
1DIM
 10
599.8296928195903
 20
-706.6219908437996
 30
0.0
  0
VERTEX
  5
23B94
  8
1DIM
 10
599.8430193477283
 20
-706.6216869187826
 30
0.0
  0
VERTEX
  5
23B95
  8
1DIM
 10
599.8558696923101
 20
-706.62137575222
 30
0.0
  0
VERTEX
  5
23B96
  8
1DIM
 10
599.8682417586226
 20
-706.6210573568502
 30
0.0
  0
VERTEX
  5
23B97
  8
1DIM
 10
599.8801334519529
 20
-706.6207317454111
 30
0.0
  0
VERTEX
  5
23B98
  8
1DIM
 10
599.8915426775877
 20
-706.6203989306414
 30
0.0
  0
VERTEX
  5
23B99
  8
1DIM
 10
599.9024673408142
 20
-706.6200589252791
 30
0.0
  0
VERTEX
  5
23B9A
  8
1DIM
 10
599.912905346919
 20
-706.6197117420623
 30
0.0
  0
VERTEX
  5
23B9B
  8
1DIM
 10
599.9228546011892
 20
-706.6193573937297
 30
0.0
  0
VERTEX
  5
23B9C
  8
1DIM
 10
599.9323130089119
 20
-706.618995893019
 30
0.0
  0
VERTEX
  5
23B9D
  8
1DIM
 10
599.9412784753738
 20
-706.618627252669
 30
0.0
  0
VERTEX
  5
23B9E
  8
1DIM
 10
599.949748905862
 20
-706.6182514854173
 30
0.0
  0
VERTEX
  5
23B9F
  8
1DIM
 10
599.957722205663
 20
-706.6178686040028
 30
0.0
  0
VERTEX
  5
23BA0
  8
1DIM
 10
599.9651962800642
 20
-706.6174786211631
 30
0.0
  0
VERTEX
  5
23BA1
  8
1DIM
 10
599.9721690343524
 20
-706.617081549637
 30
0.0
  0
VERTEX
  5
23BA2
  8
1DIM
 10
599.9786383738144
 20
-706.6166774021624
 30
0.0
  0
VERTEX
  5
23BA3
  8
1DIM
 10
599.9846022037374
 20
-706.6162661914777
 30
0.0
  0
VERTEX
  5
23BA4
  8
1DIM
 10
599.990058429408
 20
-706.615847930321
 30
0.0
  0
VERTEX
  5
23BA5
  8
1DIM
 10
599.9950049561135
 20
-706.6154226314308
 30
0.0
  0
VERTEX
  5
23BA6
  8
1DIM
 10
599.9994396891403
 20
-706.6149903075451
 30
0.0
  0
VERTEX
  5
23BA7
  8
1DIM
 10
600.0033605337758
 20
-706.6145509714023
 30
0.0
  0
VERTEX
  5
23BA8
  8
1DIM
 10
600.0067653953067
 20
-706.6141046357404
 30
0.0
  0
VERTEX
  5
23BA9
  8
1DIM
 10
600.00965217902
 20
-706.613651313298
 30
0.0
  0
VERTEX
  5
23BAA
  8
1DIM
 10
600.0120187902027
 20
-706.6131910168131
 30
0.0
  0
VERTEX
  5
23BAB
  8
1DIM
 10
600.0138631341416
 20
-706.6127237590239
 30
0.0
  0
VERTEX
  5
23BAC
  8
1DIM
 10
600.0151831161236
 20
-706.6122495526689
 30
0.0
  0
VERTEX
  5
23BAD
  8
1DIM
 10
600.0159766414357
 20
-706.6117684104861
 30
0.0
  0
VERTEX
  5
23BAE
  8
1DIM
 10
600.016241615365
 20
-706.6112803452138
 30
0.0
  0
SEQEND
  5
244F5
  8
1DIM
  0
LINE
  5
20065
  8
01
  6
CONTINUOUS
 10
600.016241615365
 20
-720.1295499069515
 30
0.0
 11
600.016241615365
 21
-706.6112803452138
 31
0.0
  0
POLYLINE
  5
20066
  8
01
  6
CONTINUOUS
 66
     1
 10
0.0
 20
0.0
 30
0.0
  0
VERTEX
  5
23BAF
  8
01
  6
CONTINUOUS
 10
599.5162416153647
 20
-706.1113357597226
 30
0.0
  0
VERTEX
  5
23BB0
  8
01
  6
CONTINUOUS
 10
599.516020102549
 20
-706.1118231072408
 30
0.0
  0
VERTEX
  5
23BB1
  8
01
  6
CONTINUOUS
 10
599.5153567493497
 20
-706.1123035272173
 30
0.0
  0
VERTEX
  5
23BB2
  8
01
  6
CONTINUOUS
 10
599.5142533336389
 20
-706.1127770070175
 30
0.0
  0
VERTEX
  5
23BB3
  8
01
  6
CONTINUOUS
 10
599.5127116332883
 20
-706.1132435340058
 30
0.0
  0
VERTEX
  5
23BB4
  8
01
  6
CONTINUOUS
 10
599.5107334261702
 20
-706.1137030955472
 30
0.0
  0
VERTEX
  5
23BB5
  8
01
  6
CONTINUOUS
 10
599.5083204901563
 20
-706.1141556790066
 30
0.0
  0
VERTEX
  5
23BB6
  8
01
  6
CONTINUOUS
 10
599.5054746031185
 20
-706.1146012717488
 30
0.0
  0
VERTEX
  5
23BB7
  8
01
  6
CONTINUOUS
 10
599.5021975429289
 20
-706.1150398611387
 30
0.0
  0
VERTEX
  5
23BB8
  8
01
  6
CONTINUOUS
 10
599.4984910874595
 20
-706.1154714345411
 30
0.0
  0
VERTEX
  5
23BB9
  8
01
  6
CONTINUOUS
 10
599.4943570145821
 20
-706.1158959793207
 30
0.0
  0
VERTEX
  5
23BBA
  8
01
  6
CONTINUOUS
 10
599.4897971021685
 20
-706.1163134828425
 30
0.0
  0
VERTEX
  5
23BBB
  8
01
  6
CONTINUOUS
 10
599.4848131280911
 20
-706.1167239324716
 30
0.0
  0
VERTEX
  5
23BBC
  8
01
  6
CONTINUOUS
 10
599.4794068702214
 20
-706.1171273155724
 30
0.0
  0
VERTEX
  5
23BBD
  8
01
  6
CONTINUOUS
 10
599.4735801064317
 20
-706.1175236195098
 30
0.0
  0
VERTEX
  5
23BBE
  8
01
  6
CONTINUOUS
 10
599.4673346145936
 20
-706.1179128316489
 30
0.0
  0
VERTEX
  5
23BBF
  8
01
  6
CONTINUOUS
 10
599.4606721725793
 20
-706.1182949393544
 30
0.0
  0
VERTEX
  5
23BC0
  8
01
  6
CONTINUOUS
 10
599.4535945582606
 20
-706.1186699299914
 30
0.0
  0
VERTEX
  5
23BC1
  8
01
  6
CONTINUOUS
 10
599.4461035495096
 20
-706.1190377909242
 30
0.0
  0
VERTEX
  5
23BC2
  8
01
  6
CONTINUOUS
 10
599.4382009241982
 20
-706.1193985095182
 30
0.0
  0
VERTEX
  5
23BC3
  8
01
  6
CONTINUOUS
 10
599.4298884601983
 20
-706.1197520731378
 30
0.0
  0
VERTEX
  5
23BC4
  8
01
  6
CONTINUOUS
 10
599.4211679353817
 20
-706.1200984691482
 30
0.0
  0
VERTEX
  5
23BC5
  8
01
  6
CONTINUOUS
 10
599.4120411276207
 20
-706.120437684914
 30
0.0
  0
VERTEX
  5
23BC6
  8
01
  6
CONTINUOUS
 10
599.402509814787
 20
-706.1207697078002
 30
0.0
  0
VERTEX
  5
23BC7
  8
01
  6
CONTINUOUS
 10
599.3925757747526
 20
-706.1210945251717
 30
0.0
  0
VERTEX
  5
23BC8
  8
01
  6
CONTINUOUS
 10
599.3822407853894
 20
-706.121412124393
 30
0.0
  0
VERTEX
  5
23BC9
  8
01
  6
CONTINUOUS
 10
599.3715066245693
 20
-706.1217224928293
 30
0.0
  0
VERTEX
  5
23BCA
  8
01
  6
CONTINUOUS
 10
599.3603750701645
 20
-706.1220256178456
 30
0.0
  0
VERTEX
  5
23BCB
  8
01
  6
CONTINUOUS
 10
599.3488479000466
 20
-706.1223214868062
 30
0.0
  0
VERTEX
  5
23BCC
  8
01
  6
CONTINUOUS
 10
599.336926892088
 20
-706.1226100870763
 30
0.0
  0
VERTEX
  5
23BCD
  8
01
  6
CONTINUOUS
 10
599.3246138241601
 20
-706.1228914060206
 30
0.0
  0
VERTEX
  5
23BCE
  8
01
  6
CONTINUOUS
 10
599.3119011432404
 20
-706.1231657958465
 30
0.0
  0
VERTEX
  5
23BCF
  8
01
  6
CONTINUOUS
 10
599.2987821420447
 20
-706.1234336409138
 30
0.0
  0
VERTEX
  5
23BD0
  8
01
  6
CONTINUOUS
 10
599.2852598670526
 20
-706.1236949768169
 30
0.0
  0
VERTEX
  5
23BD1
  8
01
  6
CONTINUOUS
 10
599.2713373647439
 20
-706.1239498391495
 30
0.0
  0
VERTEX
  5
23BD2
  8
01
  6
CONTINUOUS
 10
599.2570176815983
 20
-706.1241982635058
 30
0.0
  0
VERTEX
  5
23BD3
  8
01
  6
CONTINUOUS
 10
599.2423038640954
 20
-706.1244402854799
 30
0.0
  0
VERTEX
  5
23BD4
  8
01
  6
CONTINUOUS
 10
599.2271989587155
 20
-706.1246759406658
 30
0.0
  0
VERTEX
  5
23BD5
  8
01
  6
CONTINUOUS
 10
599.2117060119377
 20
-706.1249052646576
 30
0.0
  0
VERTEX
  5
23BD6
  8
01
  6
CONTINUOUS
 10
599.1958280702422
 20
-706.1251282930493
 30
0.0
  0
VERTEX
  5
23BD7
  8
01
  6
CONTINUOUS
 10
599.1795681801086
 20
-706.1253450614352
 30
0.0
  0
VERTEX
  5
23BD8
  8
01
  6
CONTINUOUS
 10
599.1629293880166
 20
-706.125555605409
 30
0.0
  0
VERTEX
  5
23BD9
  8
01
  6
CONTINUOUS
 10
599.1459147404461
 20
-706.1257599605649
 30
0.0
  0
VERTEX
  5
23BDA
  8
01
  6
CONTINUOUS
 10
599.1285272838767
 20
-706.125958162497
 30
0.0
  0
VERTEX
  5
23BDB
  8
01
  6
CONTINUOUS
 10
599.1107700647882
 20
-706.1261502467994
 30
0.0
  0
VERTEX
  5
23BDC
  8
01
  6
CONTINUOUS
 10
599.0926461296604
 20
-706.1263362490661
 30
0.0
  0
VERTEX
  5
23BDD
  8
01
  6
CONTINUOUS
 10
599.0741789344071
 20
-706.1265161139961
 30
0.0
  0
VERTEX
  5
23BDE
  8
01
  6
CONTINUOUS
 10
599.0553902515267
 20
-706.1266898481068
 30
0.0
  0
VERTEX
  5
23BDF
  8
01
  6
CONTINUOUS
 10
599.0362806023758
 20
-706.1268575797197
 30
0.0
  0
VERTEX
  5
23BE0
  8
01
  6
CONTINUOUS
 10
599.016850508311
 20
-706.1270194371565
 30
0.0
  0
VERTEX
  5
23BE1
  8
01
  6
CONTINUOUS
 10
598.9971004906886
 20
-706.1271755487384
 30
0.0
  0
VERTEX
  5
23BE2
  8
01
  6
CONTINUOUS
 10
598.9770310708653
 20
-706.1273260427871
 30
0.0
  0
VERTEX
  5
23BE3
  8
01
  6
CONTINUOUS
 10
598.9566427701977
 20
-706.1274710476242
 30
0.0
  0
VERTEX
  5
23BE4
  8
01
  6
CONTINUOUS
 10
598.9359361100422
 20
-706.1276106915711
 30
0.0
  0
VERTEX
  5
23BE5
  8
01
  6
CONTINUOUS
 10
598.9149116117555
 20
-706.1277451029495
 30
0.0
  0
VERTEX
  5
23BE6
  8
01
  6
CONTINUOUS
 10
598.893569796694
 20
-706.1278744100807
 30
0.0
  0
VERTEX
  5
23BE7
  8
01
  6
CONTINUOUS
 10
598.8719111862141
 20
-706.1279987412863
 30
0.0
  0
VERTEX
  5
23BE8
  8
01
  6
CONTINUOUS
 10
598.8499363016726
 20
-706.1281182248881
 30
0.0
  0
VERTEX
  5
23BE9
  8
01
  6
CONTINUOUS
 10
598.827645664426
 20
-706.1282329892073
 30
0.0
  0
VERTEX
  5
23BEA
  8
01
  6
CONTINUOUS
 10
598.8050397958308
 20
-706.1283431625652
 30
0.0
  0
VERTEX
  5
23BEB
  8
01
  6
CONTINUOUS
 10
598.7821192172435
 20
-706.128448873284
 30
0.0
  0
VERTEX
  5
23BEC
  8
01
  6
CONTINUOUS
 10
598.7588660191605
 20
-706.1285502472333
 30
0.0
  0
VERTEX
  5
23BED
  8
01
  6
CONTINUOUS
 10
598.7352692587849
 20
-706.1286473827657
 30
0.0
  0
VERTEX
  5
23BEE
  8
01
  6
CONTINUOUS
 10
598.7113399075341
 20
-706.1287403669265
 30
0.0
  0
VERTEX
  5
23BEF
  8
01
  6
CONTINUOUS
 10
598.687088936825
 20
-706.1288292867612
 30
0.0
  0
VERTEX
  5
23BF0
  8
01
  6
CONTINUOUS
 10
598.6625273180747
 20
-706.1289142293149
 30
0.0
  0
VERTEX
  5
23BF1
  8
01
  6
CONTINUOUS
 10
598.6376660227002
 20
-706.1289952816331
 30
0.0
  0
VERTEX
  5
23BF2
  8
01
  6
CONTINUOUS
 10
598.6125160221186
 20
-706.1290725307612
 30
0.0
  0
VERTEX
  5
23BF3
  8
01
  6
CONTINUOUS
 10
598.587088287747
 20
-706.1291460637441
 30
0.0
  0
VERTEX
  5
23BF4
  8
01
  6
CONTINUOUS
 10
598.5613937910022
 20
-706.1292159676276
 30
0.0
  0
VERTEX
  5
23BF5
  8
01
  6
CONTINUOUS
 10
598.5354435033015
 20
-706.1292823294569
 30
0.0
  0
VERTEX
  5
23BF6
  8
01
  6
CONTINUOUS
 10
598.5092483960619
 20
-706.1293452362773
 30
0.0
  0
VERTEX
  5
23BF7
  8
01
  6
CONTINUOUS
 10
598.4828194407005
 20
-706.1294047751342
 30
0.0
  0
VERTEX
  5
23BF8
  8
01
  6
CONTINUOUS
 10
598.4561676086344
 20
-706.1294610330727
 30
0.0
  0
VERTEX
  5
23BF9
  8
01
  6
CONTINUOUS
 10
598.4293038712804
 20
-706.1295140971383
 30
0.0
  0
VERTEX
  5
23BFA
  8
01
  6
CONTINUOUS
 10
598.4022392000558
 20
-706.1295640543765
 30
0.0
  0
VERTEX
  5
23BFB
  8
01
  6
CONTINUOUS
 10
598.3749755229909
 20
-706.129611072228
 30
0.0
  0
VERTEX
  5
23BFC
  8
01
  6
CONTINUOUS
 10
598.3475073806344
 20
-706.1296553264972
 30
0.0
  0
VERTEX
  5
23BFD
  8
01
  6
CONTINUOUS
 10
598.3198346631807
 20
-706.129696916774
 30
0.0
  0
VERTEX
  5
23BFE
  8
01
  6
CONTINUOUS
 10
598.2919572608242
 20
-706.1297359426486
 30
0.0
  0
VERTEX
  5
23BFF
  8
01
  6
CONTINUOUS
 10
598.2638750637594
 20
-706.129772503711
 30
0.0
  0
VERTEX
  5
23C00
  8
01
  6
CONTINUOUS
 10
598.2355879621806
 20
-706.1298066995512
 30
0.0
  0
VERTEX
  5
23C01
  8
01
  6
CONTINUOUS
 10
598.2070958462821
 20
-706.1298386297592
 30
0.0
  0
VERTEX
  5
23C02
  8
01
  6
CONTINUOUS
 10
598.1783986062585
 20
-706.1298683939253
 30
0.0
  0
VERTEX
  5
23C03
  8
01
  6
CONTINUOUS
 10
598.1494961323041
 20
-706.1298960916394
 30
0.0
  0
VERTEX
  5
23C04
  8
01
  6
CONTINUOUS
 10
598.1203883146131
 20
-706.1299218224914
 30
0.0
  0
VERTEX
  5
23C05
  8
01
  6
CONTINUOUS
 10
598.0910750433804
 20
-706.1299456860717
 30
0.0
  0
VERTEX
  5
23C06
  8
01
  6
CONTINUOUS
 10
598.0615562088
 20
-706.12996778197
 30
0.0
  0
VERTEX
  5
23C07
  8
01
  6
CONTINUOUS
 10
598.0318317010664
 20
-706.1299882097767
 30
0.0
  0
VERTEX
  5
23C08
  8
01
  6
CONTINUOUS
 10
598.001901410374
 20
-706.1300070690814
 30
0.0
  0
VERTEX
  5
23C09
  8
01
  6
CONTINUOUS
 10
597.9717652269173
 20
-706.1300244594747
 30
0.0
  0
VERTEX
  5
23C0A
  8
01
  6
CONTINUOUS
 10
597.9414307778623
 20
-706.130040462482
 30
0.0
  0
VERTEX
  5
23C0B
  8
01
  6
CONTINUOUS
 10
597.910913231614
 20
-706.1300551371487
 30
0.0
  0
VERTEX
  5
23C0C
  8
01
  6
CONTINUOUS
 10
597.8802237902257
 20
-706.1300685493447
 30
0.0
  0
VERTEX
  5
23C0D
  8
01
  6
CONTINUOUS
 10
597.8493736557504
 20
-706.1300807649399
 30
0.0
  0
VERTEX
  5
23C0E
  8
01
  6
CONTINUOUS
 10
597.818374030241
 20
-706.1300918498039
 30
0.0
  0
VERTEX
  5
23C0F
  8
01
  6
CONTINUOUS
 10
597.7872361157507
 20
-706.1301018698064
 30
0.0
  0
VERTEX
  5
23C10
  8
01
  6
CONTINUOUS
 10
597.7559711143326
 20
-706.1301108908174
 30
0.0
  0
VERTEX
  5
23C11
  8
01
  6
CONTINUOUS
 10
597.7245902280397
 20
-706.1301189787064
 30
0.0
  0
VERTEX
  5
23C12
  8
01
  6
CONTINUOUS
 10
597.6931046589251
 20
-706.1301261993434
 30
0.0
  0
VERTEX
  5
23C13
  8
01
  6
CONTINUOUS
 10
597.6615256090417
 20
-706.130132618598
 30
0.0
  0
VERTEX
  5
23C14
  8
01
  6
CONTINUOUS
 10
597.6298642804429
 20
-706.1301383023404
 30
0.0
  0
VERTEX
  5
23C15
  8
01
  6
CONTINUOUS
 10
597.5981318751816
 20
-706.1301433164398
 30
0.0
  0
VERTEX
  5
23C16
  8
01
  6
CONTINUOUS
 10
597.5663395953106
 20
-706.1301477267662
 30
0.0
  0
VERTEX
  5
23C17
  8
01
  6
CONTINUOUS
 10
597.5344986428834
 20
-706.1301515991894
 30
0.0
  0
VERTEX
  5
23C18
  8
01
  6
CONTINUOUS
 10
597.5026202199526
 20
-706.1301549995792
 30
0.0
  0
VERTEX
  5
23C19
  8
01
  6
CONTINUOUS
 10
597.4706917990472
 20
-706.1301579967807
 30
0.0
  0
VERTEX
  5
23C1A
  8
01
  6
CONTINUOUS
 10
597.438693253898
 20
-706.1301606311523
 30
0.0
  0
VERTEX
  5
23C1B
  8
01
  6
CONTINUOUS
 10
597.406624388361
 20
-706.1301629258338
 30
0.0
  0
VERTEX
  5
23C1C
  8
01
  6
CONTINUOUS
 10
597.3744850062926
 20
-706.1301649039649
 30
0.0
  0
VERTEX
  5
23C1D
  8
01
  6
CONTINUOUS
 10
597.3422749115493
 20
-706.1301665886851
 30
0.0
  0
VERTEX
  5
23C1E
  8
01
  6
CONTINUOUS
 10
597.3099939079871
 20
-706.1301680031341
 30
0.0
  0
VERTEX
  5
23C1F
  8
01
  6
CONTINUOUS
 10
597.2776417994623
 20
-706.1301691704516
 30
0.0
  0
VERTEX
  5
23C20
  8
01
  6
CONTINUOUS
 10
597.2452183898313
 20
-706.1301701137775
 30
0.0
  0
VERTEX
  5
23C21
  8
01
  6
CONTINUOUS
 10
597.2127234829502
 20
-706.130170856251
 30
0.0
  0
VERTEX
  5
23C22
  8
01
  6
CONTINUOUS
 10
597.1801568826754
 20
-706.130171421012
 30
0.0
  0
VERTEX
  5
23C23
  8
01
  6
CONTINUOUS
 10
597.1475183928632
 20
-706.1301718312004
 30
0.0
  0
VERTEX
  5
23C24
  8
01
  6
CONTINUOUS
 10
597.1148078173696
 20
-706.1301721099557
 30
0.0
  0
VERTEX
  5
23C25
  8
01
  6
CONTINUOUS
 10
597.0820249600514
 20
-706.1301722804175
 30
0.0
  0
VERTEX
  5
23C26
  8
01
  6
CONTINUOUS
 10
597.0491696247643
 20
-706.1301723657253
 30
0.0
  0
VERTEX
  5
23C27
  8
01
  6
CONTINUOUS
 10
597.016241615365
 20
-706.1301723890192
 30
0.0
  0
SEQEND
  5
244F6
  8
01
  6
CONTINUOUS
  0
ARC
  5
20067
  8
01
 10
599.5162693210838
 20
-706.6113080540038
 30
0.0
 40
0.4999722950488845
 50
0.0031753693917141
 51
90.00317501745236
  0
LINE
  5
20068
  8
1DIM
 10
597.016241615365
 20
-706.6301723763613
 30
0.0
 11
597.016241615365
 21
-706.1301723890192
 31
0.0
  0
POLYLINE
  5
20069
  8
1DIM
 66
     1
 10
0.0
 20
0.0
 30
0.0
  0
VERTEX
  5
23C28
  8
1DIM
 10
403.0162416153649
 20
-706.6301723763613
 30
0.0
  0
VERTEX
  5
23C29
  8
1DIM
 10
402.976668792318
 20
-706.6301723529856
 30
0.0
  0
VERTEX
  5
23C2A
  8
1DIM
 10
402.9371839504454
 20
-706.6301722673044
 30
0.0
  0
VERTEX
  5
23C2B
  8
1DIM
 10
402.8977868491675
 20
-706.6301720959868
 30
0.0
  0
VERTEX
  5
23C2C
  8
1DIM
 10
402.8584772479044
 20
-706.630171815702
 30
0.0
  0
VERTEX
  5
23C2D
  8
1DIM
 10
402.8192549060767
 20
-706.630171403119
 30
0.0
  0
VERTEX
  5
23C2E
  8
1DIM
 10
402.7801195831046
 20
-706.6301708349068
 30
0.0
  0
VERTEX
  5
23C2F
  8
1DIM
 10
402.7410710384083
 20
-706.6301700877347
 30
0.0
  0
VERTEX
  5
23C30
  8
1DIM
 10
402.7021090314083
 20
-706.6301691382715
 30
0.0
  0
VERTEX
  5
23C31
  8
1DIM
 10
402.6632333215247
 20
-706.6301679631864
 30
0.0
  0
VERTEX
  5
23C32
  8
1DIM
 10
402.6244436681779
 20
-706.6301665391486
 30
0.0
  0
VERTEX
  5
23C33
  8
1DIM
 10
402.5857398307882
 20
-706.6301648428271
 30
0.0
  0
VERTEX
  5
23C34
  8
1DIM
 10
402.5471215687759
 20
-706.6301628508908
 30
0.0
  0
VERTEX
  5
23C35
  8
1DIM
 10
402.5085886415612
 20
-706.6301605400089
 30
0.0
  0
VERTEX
  5
23C36
  8
1DIM
 10
402.4701408085647
 20
-706.6301578868506
 30
0.0
  0
VERTEX
  5
23C37
  8
1DIM
 10
402.4317778292064
 20
-706.6301548680849
 30
0.0
  0
VERTEX
  5
23C38
  8
1DIM
 10
402.3934753504158
 20
-706.6301514428465
 30
0.0
  0
VERTEX
  5
23C39
  8
1DIM
 10
402.3552182414672
 20
-706.6301475416352
 30
0.0
  0
VERTEX
  5
23C3A
  8
1DIM
 10
402.3170200952984
 20
-706.6301430981683
 30
0.0
  0
VERTEX
  5
23C3B
  8
1DIM
 10
402.2788945048471
 20
-706.6301380461632
 30
0.0
  0
VERTEX
  5
23C3C
  8
1DIM
 10
402.2408550630511
 20
-706.6301323193368
 30
0.0
  0
VERTEX
  5
23C3D
  8
1DIM
 10
402.2029153628482
 20
-706.6301258514063
 30
0.0
  0
VERTEX
  5
23C3E
  8
1DIM
 10
402.1650889971761
 20
-706.6301185760891
 30
0.0
  0
VERTEX
  5
23C3F
  8
1DIM
 10
402.1273895589725
 20
-706.6301104271022
 30
0.0
  0
VERTEX
  5
23C40
  8
1DIM
 10
402.0898306411754
 20
-706.6301013381627
 30
0.0
  0
VERTEX
  5
23C41
  8
1DIM
 10
402.0524258367223
 20
-706.630091242988
 30
0.0
  0
VERTEX
  5
23C42
  8
1DIM
 10
402.015188738551
 20
-706.6300800752949
 30
0.0
  0
VERTEX
  5
23C43
  8
1DIM
 10
401.9781329395993
 20
-706.630067768801
 30
0.0
  0
VERTEX
  5
23C44
  8
1DIM
 10
401.941272032805
 20
-706.6300542572234
 30
0.0
  0
VERTEX
  5
23C45
  8
1DIM
 10
401.9046196111059
 20
-706.630039474279
 30
0.0
  0
VERTEX
  5
23C46
  8
1DIM
 10
401.8681892674397
 20
-706.6300233536853
 30
0.0
  0
VERTEX
  5
23C47
  8
1DIM
 10
401.8319988958126
 20
-706.6300058359724
 30
0.0
  0
VERTEX
  5
23C48
  8
1DIM
 10
401.7960572275168
 20
-706.6299868391668
 30
0.0
  0
VERTEX
  5
23C49
  8
1DIM
 10
401.7603641114182
 20
-706.6299662632298
 30
0.0
  0
VERTEX
  5
23C4A
  8
1DIM
 10
401.7249193963831
 20
-706.6299440081231
 30
0.0
  0
VERTEX
  5
23C4B
  8
1DIM
 10
401.6897229312777
 20
-706.6299199738078
 30
0.0
  0
VERTEX
  5
23C4C
  8
1DIM
 10
401.6547745649682
 20
-706.6298940602455
 30
0.0
  0
VERTEX
  5
23C4D
  8
1DIM
 10
401.6200741463207
 20
-706.6298661673978
 30
0.0
  0
VERTEX
  5
23C4E
  8
1DIM
 10
401.5856215242014
 20
-706.6298361952258
 30
0.0
  0
VERTEX
  5
23C4F
  8
1DIM
 10
401.5514165474764
 20
-706.629804043691
 30
0.0
  0
VERTEX
  5
23C50
  8
1DIM
 10
401.5174590650121
 20
-706.629769612755
 30
0.0
  0
VERTEX
  5
23C51
  8
1DIM
 10
401.4837489256744
 20
-706.6297328023791
 30
0.0
  0
VERTEX
  5
23C52
  8
1DIM
 10
401.4502859783297
 20
-706.6296935125246
 30
0.0
  0
VERTEX
  5
23C53
  8
1DIM
 10
401.4170700718441
 20
-706.6296516431531
 30
0.0
  0
VERTEX
  5
23C54
  8
1DIM
 10
401.3841010550837
 20
-706.629607094226
 30
0.0
  0
VERTEX
  5
23C55
  8
1DIM
 10
401.3513787769147
 20
-706.6295597657047
 30
0.0
  0
VERTEX
  5
23C56
  8
1DIM
 10
401.3188970356414
 20
-706.6295094813782
 30
0.0
  0
VERTEX
  5
23C57
  8
1DIM
 10
401.2866584750527
 20
-706.6294560738119
 30
0.0
  0
VERTEX
  5
23C58
  8
1DIM
 10
401.2546762122422
 20
-706.6293994561316
 30
0.0
  0
VERTEX
  5
23C59
  8
1DIM
 10
401.2229633643034
 20
-706.6293395414631
 30
0.0
  0
VERTEX
  5
23C5A
  8
1DIM
 10
401.1915330483299
 20
-706.6292762429323
 30
0.0
  0
VERTEX
  5
23C5B
  8
1DIM
 10
401.1603983814151
 20
-706.6292094736649
 30
0.0
  0
VERTEX
  5
23C5C
  8
1DIM
 10
401.1295724806526
 20
-706.6291391467868
 30
0.0
  0
VERTEX
  5
23C5D
  8
1DIM
 10
401.0990684631359
 20
-706.6290651754238
 30
0.0
  0
VERTEX
  5
23C5E
  8
1DIM
 10
401.0688994459585
 20
-706.6289874727014
 30
0.0
  0
VERTEX
  5
23C5F
  8
1DIM
 10
401.0390785462139
 20
-706.628905951746
 30
0.0
  0
VERTEX
  5
23C60
  8
1DIM
 10
401.0096188809957
 20
-706.628820525683
 30
0.0
  0
VERTEX
  5
23C61
  8
1DIM
 10
400.9805335673972
 20
-706.6287311076384
 30
0.0
  0
VERTEX
  5
23C62
  8
1DIM
 10
400.9518357225123
 20
-706.6286376107379
 30
0.0
  0
VERTEX
  5
23C63
  8
1DIM
 10
400.9235384634341
 20
-706.6285399481072
 30
0.0
  0
VERTEX
  5
23C64
  8
1DIM
 10
400.8956549072565
 20
-706.6284380328724
 30
0.0
  0
VERTEX
  5
23C65
  8
1DIM
 10
400.8681716890617
 20
-706.6283317660826
 30
0.0
  0
VERTEX
  5
23C66
  8
1DIM
 10
400.8410670948202
 20
-706.6282210212961
 30
0.0
  0
VERTEX
  5
23C67
  8
1DIM
 10
400.8143417179571
 20
-706.6281056704026
 30
0.0
  0
VERTEX
  5
23C68
  8
1DIM
 10
400.7879961518974
 20
-706.6279855852916
 30
0.0
  0
VERTEX
  5
23C69
  8
1DIM
 10
400.7620309900666
 20
-706.6278606378526
 30
0.0
  0
VERTEX
  5
23C6A
  8
1DIM
 10
400.7364468258895
 20
-706.6277306999751
 30
0.0
  0
VERTEX
  5
23C6B
  8
1DIM
 10
400.7112442527915
 20
-706.6275956435488
 30
0.0
  0
VERTEX
  5
23C6C
  8
1DIM
 10
400.6864238641976
 20
-706.6274553404633
 30
0.0
  0
VERTEX
  5
23C6D
  8
1DIM
 10
400.6619862535331
 20
-706.6273096626079
 30
0.0
  0
VERTEX
  5
23C6E
  8
1DIM
 10
400.6379320142231
 20
-706.6271584818724
 30
0.0
  0
VERTEX
  5
23C6F
  8
1DIM
 10
400.6142617396927
 20
-706.6270016701461
 30
0.0
  0
VERTEX
  5
23C70
  8
1DIM
 10
400.5909760233671
 20
-706.6268390993188
 30
0.0
  0
VERTEX
  5
23C71
  8
1DIM
 10
400.5680754586716
 20
-706.6266706412797
 30
0.0
  0
VERTEX
  5
23C72
  8
1DIM
 10
400.5455606390311
 20
-706.6264961679188
 30
0.0
  0
VERTEX
  5
23C73
  8
1DIM
 10
400.523432157871
 20
-706.6263155511253
 30
0.0
  0
VERTEX
  5
23C74
  8
1DIM
 10
400.5017164145178
 20
-706.6261287899734
 30
0.0
  0
VERTEX
  5
23C75
  8
1DIM
 10
400.4804417520882
 20
-706.6259359450655
 30
0.0
  0
VERTEX
  5
23C76
  8
1DIM
 10
400.4596116796926
 20
-706.6257369805832
 30
0.0
  0
VERTEX
  5
23C77
  8
1DIM
 10
400.4392297064412
 20
-706.6255318607084
 30
0.0
  0
VERTEX
  5
23C78
  8
1DIM
 10
400.4192993414446
 20
-706.6253205496231
 30
0.0
  0
VERTEX
  5
23C79
  8
1DIM
 10
400.399824093813
 20
-706.625103011509
 30
0.0
  0
VERTEX
  5
23C7A
  8
1DIM
 10
400.3808074726566
 20
-706.6248792105481
 30
0.0
  0
VERTEX
  5
23C7B
  8
1DIM
 10
400.362252987086
 20
-706.6246491109221
 30
0.0
  0
VERTEX
  5
23C7C
  8
1DIM
 10
400.3441641462114
 20
-706.624412676813
 30
0.0
  0
VERTEX
  5
23C7D
  8
1DIM
 10
400.3265444591432
 20
-706.6241698724025
 30
0.0
  0
VERTEX
  5
23C7E
  8
1DIM
 10
400.3093974349916
 20
-706.6239206618725
 30
0.0
  0
VERTEX
  5
23C7F
  8
1DIM
 10
400.2927265828671
 20
-706.6236650094049
 30
0.0
  0
VERTEX
  5
23C80
  8
1DIM
 10
400.2765354118801
 20
-706.6234028791816
 30
0.0
  0
VERTEX
  5
23C81
  8
1DIM
 10
400.2608274311407
 20
-706.6231342353843
 30
0.0
  0
VERTEX
  5
23C82
  8
1DIM
 10
400.2456061497595
 20
-706.622859042195
 30
0.0
  0
VERTEX
  5
23C83
  8
1DIM
 10
400.2308636392315
 20
-706.6225769182441
 30
0.0
  0
VERTEX
  5
23C84
  8
1DIM
 10
400.2165910281204
 20
-706.6222875145329
 30
0.0
  0
VERTEX
  5
23C85
  8
1DIM
 10
400.2027904111394
 20
-706.6219908437996
 30
0.0
  0
VERTEX
  5
23C86
  8
1DIM
 10
400.1894638830015
 20
-706.6216869187826
 30
0.0
  0
VERTEX
  5
23C87
  8
1DIM
 10
400.1766135384196
 20
-706.62137575222
 30
0.0
  0
VERTEX
  5
23C88
  8
1DIM
 10
400.1642414721072
 20
-706.6210573568502
 30
0.0
  0
VERTEX
  5
23C89
  8
1DIM
 10
400.1523497787769
 20
-706.6207317454111
 30
0.0
  0
VERTEX
  5
23C8A
  8
1DIM
 10
400.1409405531421
 20
-706.6203989306414
 30
0.0
  0
VERTEX
  5
23C8B
  8
1DIM
 10
400.1300158899156
 20
-706.6200589252791
 30
0.0
  0
VERTEX
  5
23C8C
  8
1DIM
 10
400.1195778838108
 20
-706.6197117420623
 30
0.0
  0
VERTEX
  5
23C8D
  8
1DIM
 10
400.1096286295405
 20
-706.6193573937297
 30
0.0
  0
VERTEX
  5
23C8E
  8
1DIM
 10
400.1001702218178
 20
-706.618995893019
 30
0.0
  0
VERTEX
  5
23C8F
  8
1DIM
 10
400.091204755356
 20
-706.618627252669
 30
0.0
  0
VERTEX
  5
23C90
  8
1DIM
 10
400.0827343248679
 20
-706.6182514854173
 30
0.0
  0
VERTEX
  5
23C91
  8
1DIM
 10
400.0747610250668
 20
-706.6178686040028
 30
0.0
  0
VERTEX
  5
23C92
  8
1DIM
 10
400.0672869506656
 20
-706.6174786211631
 30
0.0
  0
VERTEX
  5
23C93
  8
1DIM
 10
400.0603141963774
 20
-706.617081549637
 30
0.0
  0
VERTEX
  5
23C94
  8
1DIM
 10
400.0538448569153
 20
-706.6166774021624
 30
0.0
  0
VERTEX
  5
23C95
  8
1DIM
 10
400.0478810269924
 20
-706.6162661914777
 30
0.0
  0
VERTEX
  5
23C96
  8
1DIM
 10
400.0424248013218
 20
-706.615847930321
 30
0.0
  0
VERTEX
  5
23C97
  8
1DIM
 10
400.0374782746164
 20
-706.6154226314308
 30
0.0
  0
VERTEX
  5
23C98
  8
1DIM
 10
400.0330435415895
 20
-706.6149903075451
 30
0.0
  0
VERTEX
  5
23C99
  8
1DIM
 10
400.0291226969541
 20
-706.6145509714023
 30
0.0
  0
VERTEX
  5
23C9A
  8
1DIM
 10
400.0257178354231
 20
-706.6141046357404
 30
0.0
  0
VERTEX
  5
23C9B
  8
1DIM
 10
400.0228310517098
 20
-706.613651313298
 30
0.0
  0
VERTEX
  5
23C9C
  8
1DIM
 10
400.0204644405272
 20
-706.6131910168131
 30
0.0
  0
VERTEX
  5
23C9D
  8
1DIM
 10
400.0186200965883
 20
-706.6127237590239
 30
0.0
  0
VERTEX
  5
23C9E
  8
1DIM
 10
400.0173001146063
 20
-706.6122495526689
 30
0.0
  0
VERTEX
  5
23C9F
  8
1DIM
 10
400.0165065892941
 20
-706.6117684104861
 30
0.0
  0
VERTEX
  5
23CA0
  8
1DIM
 10
400.0162416153649
 20
-706.6112803452138
 30
0.0
  0
SEQEND
  5
244F7
  8
1DIM
  0
LINE
  5
2006A
  8
1DIM
 10
403.0162416153649
 20
-706.6301723763613
 30
0.0
 11
403.0162416153649
 21
-720.1295499069515
 31
0.0
  0
LINE
  5
2006B
  8
1DIM
 10
400.0162416153649
 20
-720.1295499069515
 30
0.0
 11
403.0162416153649
 21
-720.1295499069515
 31
0.0
  0
LINE
  5
2006C
  8
01
  6
CONTINUOUS
 10
400.0162416153649
 20
-720.1295499069515
 30
0.0
 11
400.0162416153649
 21
-706.6112803452138
 31
0.0
  0
LINE
  5
2006D
  8
1DIM
 10
403.0162416153649
 20
-706.6301723763613
 30
0.0
 11
403.0162416153649
 21
-706.1301723890192
 31
0.0
  0
LINE
  5
2006E
  8
01
  6
CONTINUOUS
 10
403.0162416153649
 20
-706.1301723890192
 30
0.0
 11
597.016241615365
 21
-706.1301723890192
 31
0.0
  0
LINE
  5
2006F
  8
1DIM
 10
597.016241615365
 20
-706.6301723763613
 30
0.0
 11
403.0162416153649
 21
-706.6301723763613
 31
0.0
  0
LINE
  5
20070
  8
1DIM
 10
403.0162416153649
 20
-720.1295499069515
 30
0.0
 11
597.016241615365
 21
-720.1295499069515
 31
0.0
  0
LINE
  5
20071
  8
1DIM
 10
403.0162416153649
 20
-721.1295499069515
 30
0.0
 11
403.0162416153649
 21
-720.1295499069515
 31
0.0
  0
LINE
  5
20072
  8
1DIM
 10
597.016241615365
 20
-721.1295499069515
 30
0.0
 11
597.016241615365
 21
-720.1295499069515
 31
0.0
  0
LINE
  5
20073
  8
01
  6
CONTINUOUS
 10
597.016241615365
 20
-721.1295499069515
 30
0.0
 11
403.0162416153649
 21
-721.1295499069515
 31
0.0
  0
LINE
  5
20074
  8
01
  6
CONTINUOUS
 10
403.0162416153649
 20
-721.1295499069515
 30
0.0
 11
401.0162416153649
 21
-721.1295499069515
 31
0.0
  0
ARC
  5
20075
  8
01
  6
CONTINUOUS
 10
401.0162416153649
 20
-720.1295499069515
 30
0.0
 40
1.0
 50
180.0
 51
270.0
  0
ARC
  5
20076
  8
01
  6
CONTINUOUS
 10
599.016241615365
 20
-720.1295499069515
 30
0.0
 40
1.0
 50
270.0
 51
0.0
  0
LINE
  5
20077
  8
01
  6
CONTINUOUS
 10
597.016241615365
 20
-721.1295499069515
 30
0.0
 11
599.016241615365
 21
-721.1295499069515
 31
0.0
  0
ARC
  5
20078
  8
01
  6
CONTINUOUS
 10
400.5162139096459
 20
-706.6113080540038
 30
0.0
 40
0.4999722950487996
 50
89.99682498253458
 51
179.9968246306083
  0
POLYLINE
  5
20079
  8
01
  6
CONTINUOUS
 66
     1
 10
0.0
 20
0.0
 30
0.0
  0
VERTEX
  5
23CA1
  8
01
  6
CONTINUOUS
 10
400.5162416153649
 20
-706.1113357597226
 30
0.0
  0
VERTEX
  5
23CA2
  8
01
  6
CONTINUOUS
 10
400.5164631281806
 20
-706.1118231072408
 30
0.0
  0
VERTEX
  5
23CA3
  8
01
  6
CONTINUOUS
 10
400.51712648138
 20
-706.1123035272173
 30
0.0
  0
VERTEX
  5
23CA4
  8
01
  6
CONTINUOUS
 10
400.5182298970909
 20
-706.1127770070175
 30
0.0
  0
VERTEX
  5
23CA5
  8
01
  6
CONTINUOUS
 10
400.5197715974413
 20
-706.1132435340058
 30
0.0
  0
VERTEX
  5
23CA6
  8
01
  6
CONTINUOUS
 10
400.5217498045595
 20
-706.1137030955472
 30
0.0
  0
VERTEX
  5
23CA7
  8
01
  6
CONTINUOUS
 10
400.5241627405734
 20
-706.1141556790066
 30
0.0
  0
VERTEX
  5
23CA8
  8
01
  6
CONTINUOUS
 10
400.5270086276112
 20
-706.1146012717488
 30
0.0
  0
VERTEX
  5
23CA9
  8
01
  6
CONTINUOUS
 10
400.5302856878008
 20
-706.1150398611387
 30
0.0
  0
VERTEX
  5
23CAA
  8
01
  6
CONTINUOUS
 10
400.5339921432703
 20
-706.1154714345411
 30
0.0
  0
VERTEX
  5
23CAB
  8
01
  6
CONTINUOUS
 10
400.5381262161477
 20
-706.1158959793207
 30
0.0
  0
VERTEX
  5
23CAC
  8
01
  6
CONTINUOUS
 10
400.5426861285612
 20
-706.1163134828425
 30
0.0
  0
VERTEX
  5
23CAD
  8
01
  6
CONTINUOUS
 10
400.5476701026387
 20
-706.1167239324716
 30
0.0
  0
VERTEX
  5
23CAE
  8
01
  6
CONTINUOUS
 10
400.5530763605083
 20
-706.1171273155724
 30
0.0
  0
VERTEX
  5
23CAF
  8
01
  6
CONTINUOUS
 10
400.5589031242981
 20
-706.1175236195098
 30
0.0
  0
VERTEX
  5
23CB0
  8
01
  6
CONTINUOUS
 10
400.5651486161362
 20
-706.1179128316489
 30
0.0
  0
VERTEX
  5
23CB1
  8
01
  6
CONTINUOUS
 10
400.5718110581505
 20
-706.1182949393544
 30
0.0
  0
VERTEX
  5
23CB2
  8
01
  6
CONTINUOUS
 10
400.5788886724691
 20
-706.1186699299914
 30
0.0
  0
VERTEX
  5
23CB3
  8
01
  6
CONTINUOUS
 10
400.5863796812202
 20
-706.1190377909242
 30
0.0
  0
VERTEX
  5
23CB4
  8
01
  6
CONTINUOUS
 10
400.5942823065316
 20
-706.1193985095182
 30
0.0
  0
VERTEX
  5
23CB5
  8
01
  6
CONTINUOUS
 10
400.6025947705316
 20
-706.1197520731378
 30
0.0
  0
VERTEX
  5
23CB6
  8
01
  6
CONTINUOUS
 10
400.611315295348
 20
-706.1200984691482
 30
0.0
  0
VERTEX
  5
23CB7
  8
01
  6
CONTINUOUS
 10
400.6204421031092
 20
-706.120437684914
 30
0.0
  0
VERTEX
  5
23CB8
  8
01
  6
CONTINUOUS
 10
400.6299734159429
 20
-706.1207697078002
 30
0.0
  0
VERTEX
  5
23CB9
  8
01
  6
CONTINUOUS
 10
400.6399074559773
 20
-706.1210945251717
 30
0.0
  0
VERTEX
  5
23CBA
  8
01
  6
CONTINUOUS
 10
400.6502424453405
 20
-706.121412124393
 30
0.0
  0
VERTEX
  5
23CBB
  8
01
  6
CONTINUOUS
 10
400.6609766061605
 20
-706.1217224928293
 30
0.0
  0
VERTEX
  5
23CBC
  8
01
  6
CONTINUOUS
 10
400.6721081605654
 20
-706.1220256178456
 30
0.0
  0
VERTEX
  5
23CBD
  8
01
  6
CONTINUOUS
 10
400.6836353306833
 20
-706.1223214868062
 30
0.0
  0
VERTEX
  5
23CBE
  8
01
  6
CONTINUOUS
 10
400.695556338642
 20
-706.1226100870763
 30
0.0
  0
VERTEX
  5
23CBF
  8
01
  6
CONTINUOUS
 10
400.7078694065698
 20
-706.1228914060206
 30
0.0
  0
VERTEX
  5
23CC0
  8
01
  6
CONTINUOUS
 10
400.7205820874894
 20
-706.1231657958465
 30
0.0
  0
VERTEX
  5
23CC1
  8
01
  6
CONTINUOUS
 10
400.7337010886852
 20
-706.1234336409138
 30
0.0
  0
VERTEX
  5
23CC2
  8
01
  6
CONTINUOUS
 10
400.7472233636773
 20
-706.1236949768169
 30
0.0
  0
VERTEX
  5
23CC3
  8
01
  6
CONTINUOUS
 10
400.761145865986
 20
-706.1239498391495
 30
0.0
  0
VERTEX
  5
23CC4
  8
01
  6
CONTINUOUS
 10
400.7754655491316
 20
-706.1241982635058
 30
0.0
  0
VERTEX
  5
23CC5
  8
01
  6
CONTINUOUS
 10
400.7901793666343
 20
-706.1244402854799
 30
0.0
  0
VERTEX
  5
23CC6
  8
01
  6
CONTINUOUS
 10
400.8052842720144
 20
-706.1246759406658
 30
0.0
  0
VERTEX
  5
23CC7
  8
01
  6
CONTINUOUS
 10
400.820777218792
 20
-706.1249052646576
 30
0.0
  0
VERTEX
  5
23CC8
  8
01
  6
CONTINUOUS
 10
400.8366551604876
 20
-706.1251282930493
 30
0.0
  0
VERTEX
  5
23CC9
  8
01
  6
CONTINUOUS
 10
400.8529150506212
 20
-706.1253450614352
 30
0.0
  0
VERTEX
  5
23CCA
  8
01
  6
CONTINUOUS
 10
400.8695538427132
 20
-706.125555605409
 30
0.0
  0
VERTEX
  5
23CCB
  8
01
  6
CONTINUOUS
 10
400.8865684902837
 20
-706.1257599605649
 30
0.0
  0
VERTEX
  5
23CCC
  8
01
  6
CONTINUOUS
 10
400.9039559468531
 20
-706.125958162497
 30
0.0
  0
VERTEX
  5
23CCD
  8
01
  6
CONTINUOUS
 10
400.9217131659416
 20
-706.1261502467994
 30
0.0
  0
VERTEX
  5
23CCE
  8
01
  6
CONTINUOUS
 10
400.9398371010694
 20
-706.1263362490661
 30
0.0
  0
VERTEX
  5
23CCF
  8
01
  6
CONTINUOUS
 10
400.9583042963226
 20
-706.1265161139961
 30
0.0
  0
VERTEX
  5
23CD0
  8
01
  6
CONTINUOUS
 10
400.977092979203
 20
-706.1266898481068
 30
0.0
  0
VERTEX
  5
23CD1
  8
01
  6
CONTINUOUS
 10
400.9962026283538
 20
-706.1268575797197
 30
0.0
  0
VERTEX
  5
23CD2
  8
01
  6
CONTINUOUS
 10
401.0156327224187
 20
-706.1270194371565
 30
0.0
  0
VERTEX
  5
23CD3
  8
01
  6
CONTINUOUS
 10
401.0353827400411
 20
-706.1271755487384
 30
0.0
  0
VERTEX
  5
23CD4
  8
01
  6
CONTINUOUS
 10
401.0554521598643
 20
-706.1273260427871
 30
0.0
  0
VERTEX
  5
23CD5
  8
01
  6
CONTINUOUS
 10
401.075840460532
 20
-706.1274710476242
 30
0.0
  0
VERTEX
  5
23CD6
  8
01
  6
CONTINUOUS
 10
401.0965471206875
 20
-706.1276106915711
 30
0.0
  0
VERTEX
  5
23CD7
  8
01
  6
CONTINUOUS
 10
401.1175716189742
 20
-706.1277451029495
 30
0.0
  0
VERTEX
  5
23CD8
  8
01
  6
CONTINUOUS
 10
401.1389134340358
 20
-706.1278744100807
 30
0.0
  0
VERTEX
  5
23CD9
  8
01
  6
CONTINUOUS
 10
401.1605720445156
 20
-706.1279987412863
 30
0.0
  0
VERTEX
  5
23CDA
  8
01
  6
CONTINUOUS
 10
401.1825469290571
 20
-706.1281182248881
 30
0.0
  0
VERTEX
  5
23CDB
  8
01
  6
CONTINUOUS
 10
401.2048375663038
 20
-706.1282329892073
 30
0.0
  0
VERTEX
  5
23CDC
  8
01
  6
CONTINUOUS
 10
401.227443434899
 20
-706.1283431625652
 30
0.0
  0
VERTEX
  5
23CDD
  8
01
  6
CONTINUOUS
 10
401.2503640134864
 20
-706.128448873284
 30
0.0
  0
VERTEX
  5
23CDE
  8
01
  6
CONTINUOUS
 10
401.2736172115695
 20
-706.1285502472333
 30
0.0
  0
VERTEX
  5
23CDF
  8
01
  6
CONTINUOUS
 10
401.2972139719449
 20
-706.1286473827657
 30
0.0
  0
VERTEX
  5
23CE0
  8
01
  6
CONTINUOUS
 10
401.3211433231958
 20
-706.1287403669265
 30
0.0
  0
VERTEX
  5
23CE1
  8
01
  6
CONTINUOUS
 10
401.3453942939049
 20
-706.1288292867612
 30
0.0
  0
VERTEX
  5
23CE2
  8
01
  6
CONTINUOUS
 10
401.3699559126552
 20
-706.1289142293149
 30
0.0
  0
VERTEX
  5
23CE3
  8
01
  6
CONTINUOUS
 10
401.3948172080297
 20
-706.1289952816331
 30
0.0
  0
VERTEX
  5
23CE4
  8
01
  6
CONTINUOUS
 10
401.4199672086114
 20
-706.1290725307612
 30
0.0
  0
VERTEX
  5
23CE5
  8
01
  6
CONTINUOUS
 10
401.445394942983
 20
-706.1291460637441
 30
0.0
  0
VERTEX
  5
23CE6
  8
01
  6
CONTINUOUS
 10
401.4710894397277
 20
-706.1292159676276
 30
0.0
  0
VERTEX
  5
23CE7
  8
01
  6
CONTINUOUS
 10
401.4970397274283
 20
-706.1292823294569
 30
0.0
  0
VERTEX
  5
23CE8
  8
01
  6
CONTINUOUS
 10
401.523234834668
 20
-706.1293452362773
 30
0.0
  0
VERTEX
  5
23CE9
  8
01
  6
CONTINUOUS
 10
401.5496637900293
 20
-706.1294047751342
 30
0.0
  0
VERTEX
  5
23CEA
  8
01
  6
CONTINUOUS
 10
401.5763156220956
 20
-706.1294610330727
 30
0.0
  0
VERTEX
  5
23CEB
  8
01
  6
CONTINUOUS
 10
401.6031793594495
 20
-706.1295140971383
 30
0.0
  0
VERTEX
  5
23CEC
  8
01
  6
CONTINUOUS
 10
401.6302440306741
 20
-706.1295640543765
 30
0.0
  0
VERTEX
  5
23CED
  8
01
  6
CONTINUOUS
 10
401.6575077077389
 20
-706.129611072228
 30
0.0
  0
VERTEX
  5
23CEE
  8
01
  6
CONTINUOUS
 10
401.6849758500954
 20
-706.1296553264972
 30
0.0
  0
VERTEX
  5
23CEF
  8
01
  6
CONTINUOUS
 10
401.7126485675491
 20
-706.129696916774
 30
0.0
  0
VERTEX
  5
23CF0
  8
01
  6
CONTINUOUS
 10
401.7405259699055
 20
-706.1297359426486
 30
0.0
  0
VERTEX
  5
23CF1
  8
01
  6
CONTINUOUS
 10
401.7686081669704
 20
-706.129772503711
 30
0.0
  0
VERTEX
  5
23CF2
  8
01
  6
CONTINUOUS
 10
401.7968952685492
 20
-706.1298066995512
 30
0.0
  0
VERTEX
  5
23CF3
  8
01
  6
CONTINUOUS
 10
401.8253873844477
 20
-706.1298386297592
 30
0.0
  0
VERTEX
  5
23CF4
  8
01
  6
CONTINUOUS
 10
401.8540846244713
 20
-706.1298683939253
 30
0.0
  0
VERTEX
  5
23CF5
  8
01
  6
CONTINUOUS
 10
401.8829870984258
 20
-706.1298960916394
 30
0.0
  0
VERTEX
  5
23CF6
  8
01
  6
CONTINUOUS
 10
401.9120949161165
 20
-706.1299218224914
 30
0.0
  0
VERTEX
  5
23CF7
  8
01
  6
CONTINUOUS
 10
401.9414081873494
 20
-706.1299456860717
 30
0.0
  0
VERTEX
  5
23CF8
  8
01
  6
CONTINUOUS
 10
401.9709270219298
 20
-706.12996778197
 30
0.0
  0
VERTEX
  5
23CF9
  8
01
  6
CONTINUOUS
 10
402.0006515296633
 20
-706.1299882097767
 30
0.0
  0
VERTEX
  5
23CFA
  8
01
  6
CONTINUOUS
 10
402.0305818203557
 20
-706.1300070690814
 30
0.0
  0
VERTEX
  5
23CFB
  8
01
  6
CONTINUOUS
 10
402.0607180038125
 20
-706.1300244594747
 30
0.0
  0
VERTEX
  5
23CFC
  8
01
  6
CONTINUOUS
 10
402.0910524528676
 20
-706.130040462482
 30
0.0
  0
VERTEX
  5
23CFD
  8
01
  6
CONTINUOUS
 10
402.1215699991159
 20
-706.1300551371487
 30
0.0
  0
VERTEX
  5
23CFE
  8
01
  6
CONTINUOUS
 10
402.1522594405042
 20
-706.1300685493447
 30
0.0
  0
VERTEX
  5
23CFF
  8
01
  6
CONTINUOUS
 10
402.1831095749795
 20
-706.1300807649399
 30
0.0
  0
VERTEX
  5
23D00
  8
01
  6
CONTINUOUS
 10
402.2141092004888
 20
-706.1300918498039
 30
0.0
  0
VERTEX
  5
23D01
  8
01
  6
CONTINUOUS
 10
402.2452471149791
 20
-706.1301018698064
 30
0.0
  0
VERTEX
  5
23D02
  8
01
  6
CONTINUOUS
 10
402.2765121163972
 20
-706.1301108908174
 30
0.0
  0
VERTEX
  5
23D03
  8
01
  6
CONTINUOUS
 10
402.30789300269
 20
-706.1301189787064
 30
0.0
  0
VERTEX
  5
23D04
  8
01
  6
CONTINUOUS
 10
402.3393785718047
 20
-706.1301261993434
 30
0.0
  0
VERTEX
  5
23D05
  8
01
  6
CONTINUOUS
 10
402.3709576216879
 20
-706.130132618598
 30
0.0
  0
VERTEX
  5
23D06
  8
01
  6
CONTINUOUS
 10
402.4026189502868
 20
-706.1301383023404
 30
0.0
  0
VERTEX
  5
23D07
  8
01
  6
CONTINUOUS
 10
402.4343513555483
 20
-706.1301433164398
 30
0.0
  0
VERTEX
  5
23D08
  8
01
  6
CONTINUOUS
 10
402.4661436354191
 20
-706.1301477267662
 30
0.0
  0
VERTEX
  5
23D09
  8
01
  6
CONTINUOUS
 10
402.4979845878465
 20
-706.1301515991894
 30
0.0
  0
VERTEX
  5
23D0A
  8
01
  6
CONTINUOUS
 10
402.5298630107771
 20
-706.1301549995792
 30
0.0
  0
VERTEX
  5
23D0B
  8
01
  6
CONTINUOUS
 10
402.5617914316825
 20
-706.1301579967807
 30
0.0
  0
VERTEX
  5
23D0C
  8
01
  6
CONTINUOUS
 10
402.5937899768319
 20
-706.1301606311523
 30
0.0
  0
VERTEX
  5
23D0D
  8
01
  6
CONTINUOUS
 10
402.6258588423688
 20
-706.1301629258338
 30
0.0
  0
VERTEX
  5
23D0E
  8
01
  6
CONTINUOUS
 10
402.6579982244371
 20
-706.1301649039649
 30
0.0
  0
VERTEX
  5
23D0F
  8
01
  6
CONTINUOUS
 10
402.6902083191806
 20
-706.1301665886851
 30
0.0
  0
VERTEX
  5
23D10
  8
01
  6
CONTINUOUS
 10
402.7224893227428
 20
-706.1301680031341
 30
0.0
  0
VERTEX
  5
23D11
  8
01
  6
CONTINUOUS
 10
402.7548414312676
 20
-706.1301691704516
 30
0.0
  0
VERTEX
  5
23D12
  8
01
  6
CONTINUOUS
 10
402.7872648408986
 20
-706.1301701137775
 30
0.0
  0
VERTEX
  5
23D13
  8
01
  6
CONTINUOUS
 10
402.8197597477797
 20
-706.130170856251
 30
0.0
  0
VERTEX
  5
23D14
  8
01
  6
CONTINUOUS
 10
402.8523263480545
 20
-706.130171421012
 30
0.0
  0
VERTEX
  5
23D15
  8
01
  6
CONTINUOUS
 10
402.8849648378668
 20
-706.1301718312004
 30
0.0
  0
VERTEX
  5
23D16
  8
01
  6
CONTINUOUS
 10
402.9176754133602
 20
-706.1301721099557
 30
0.0
  0
VERTEX
  5
23D17
  8
01
  6
CONTINUOUS
 10
402.9504582706786
 20
-706.1301722804175
 30
0.0
  0
VERTEX
  5
23D18
  8
01
  6
CONTINUOUS
 10
402.9833136059656
 20
-706.1301723657253
 30
0.0
  0
VERTEX
  5
23D19
  8
01
  6
CONTINUOUS
 10
403.0162416153649
 20
-706.1301723890192
 30
0.0
  0
SEQEND
  5
244F8
  8
01
  6
CONTINUOUS
  0
LINE
  5
2007A
  8
1DIM
 10
400.5162416153649
 20
-698.1295499069515
 30
0.0
 11
400.5162416153649
 21
-706.1113357597226
 31
0.0
  0
LINE
  5
2007B
  8
01
  6
CONTINUOUS
 10
599.516241615365
 20
-698.1295499069515
 30
0.0
 11
400.5162416153649
 21
-698.1295499069515
 31
0.0
  0
LINE
  5
2007C
  8
1DIM
 10
599.516241615365
 20
-698.1295499069515
 30
0.0
 11
599.516241615365
 21
-706.1113357597226
 31
0.0
  0
LINE
  5
2007D
  8
1DIM
 10
593.016241615365
 20
-705.9181223857472
 30
0.0
 11
593.016241615365
 21
-702.4183393965859
 31
0.0
  0
POLYLINE
  5
2007E
  8
1DIM
 66
     1
 10
0.0
 20
0.0
 30
0.0
  0
VERTEX
  5
23D1A
  8
1DIM
 10
593.016241615365
 20
-702.4183393965859
 30
0.0
  0
VERTEX
  5
23D1B
  8
1DIM
 10
593.0159807776207
 20
-702.4064598075709
 30
0.0
  0
VERTEX
  5
23D1C
  8
1DIM
 10
593.0151989941045
 20
-702.3945800468225
 30
0.0
  0
VERTEX
  5
23D1D
  8
1DIM
 10
593.013897359391
 20
-702.3827001594719
 30
0.0
  0
VERTEX
  5
23D1E
  8
1DIM
 10
593.0120769680548
 20
-702.3708201906509
 30
0.0
  0
VERTEX
  5
23D1F
  8
1DIM
 10
593.0097389146706
 20
-702.3589401854912
 30
0.0
  0
VERTEX
  5
23D20
  8
1DIM
 10
593.0068842938128
 20
-702.3470601891239
 30
0.0
  0
VERTEX
  5
23D21
  8
1DIM
 10
593.0035142000564
 20
-702.335180246681
 30
0.0
  0
VERTEX
  5
23D22
  8
1DIM
 10
592.9996297279761
 20
-702.3233004032938
 30
0.0
  0
VERTEX
  5
23D23
  8
1DIM
 10
592.9952319721461
 20
-702.3114207040938
 30
0.0
  0
VERTEX
  5
23D24
  8
1DIM
 10
592.9903220271414
 20
-702.2995411942129
 30
0.0
  0
VERTEX
  5
23D25
  8
1DIM
 10
592.9849009875367
 20
-702.2876619187823
 30
0.0
  0
VERTEX
  5
23D26
  8
1DIM
 10
592.9789699479063
 20
-702.2757829229337
 30
0.0
  0
VERTEX
  5
23D27
  8
1DIM
 10
592.9725300028251
 20
-702.2639042517985
 30
0.0
  0
VERTEX
  5
23D28
  8
1DIM
 10
592.9655822468678
 20
-702.2520259505085
 30
0.0
  0
VERTEX
  5
23D29
  8
1DIM
 10
592.9581277746089
 20
-702.2401480641952
 30
0.0
  0
VERTEX
  5
23D2A
  8
1DIM
 10
592.950167680623
 20
-702.22827063799
 30
0.0
  0
VERTEX
  5
23D2B
  8
1DIM
 10
592.9417030594852
 20
-702.2163937170246
 30
0.0
  0
VERTEX
  5
23D2C
  8
1DIM
 10
592.9327350057696
 20
-702.2045173464304
 30
0.0
  0
VERTEX
  5
23D2D
  8
1DIM
 10
592.9232646140512
 20
-702.1926415713391
 30
0.0
  0
VERTEX
  5
23D2E
  8
1DIM
 10
592.9132929789042
 20
-702.1807664368822
 30
0.0
  0
VERTEX
  5
23D2F
  8
1DIM
 10
592.9028211949038
 20
-702.1688919881913
 30
0.0
  0
VERTEX
  5
23D30
  8
1DIM
 10
592.891848160376
 20
-702.1570183431779
 30
0.0
  0
VERTEX
  5
23D31
  8
1DIM
 10
592.8803713822265
 20
-702.1451456688534
 30
0.0
  0
VERTEX
  5
23D32
  8
1DIM
 10
592.8683898679002
 20
-702.1332740839991
 30
0.0
  0
VERTEX
  5
23D33
  8
1DIM
 10
592.8559026248413
 20
-702.1214037073966
 30
0.0
  0
VERTEX
  5
23D34
  8
1DIM
 10
592.8429086604945
 20
-702.109534657827
 30
0.0
  0
VERTEX
  5
23D35
  8
1DIM
 10
592.8294069823038
 20
-702.0976670540717
 30
0.0
  0
VERTEX
  5
23D36
  8
1DIM
 10
592.8153965977142
 20
-702.085801014912
 30
0.0
  0
VERTEX
  5
23D37
  8
1DIM
 10
592.80087651417
 20
-702.0739366591292
 30
0.0
  0
VERTEX
  5
23D38
  8
1DIM
 10
592.7858457391155
 20
-702.0620741055048
 30
0.0
  0
VERTEX
  5
23D39
  8
1DIM
 10
592.7703032799952
 20
-702.0502134728201
 30
0.0
  0
VERTEX
  5
23D3A
  8
1DIM
 10
592.7542455208763
 20
-702.0383536983757
 30
0.0
  0
VERTEX
  5
23D3B
  8
1DIM
 10
592.7376591480336
 20
-702.0264897971061
 30
0.0
  0
VERTEX
  5
23D3C
  8
1DIM
 10
592.7205492832205
 20
-702.0146257791854
 30
0.0
  0
VERTEX
  5
23D3D
  8
1DIM
 10
592.7029240514681
 20
-702.0027670568275
 30
0.0
  0
VERTEX
  5
23D3E
  8
1DIM
 10
592.6847915778072
 20
-701.9909190422462
 30
0.0
  0
VERTEX
  5
23D3F
  8
1DIM
 10
592.6661599872683
 20
-701.979087147656
 30
0.0
  0
VERTEX
  5
23D40
  8
1DIM
 10
592.6470374048822
 20
-701.9672767852705
 30
0.0
  0
VERTEX
  5
23D41
  8
1DIM
 10
592.6274319556799
 20
-701.9554933673041
 30
0.0
  0
VERTEX
  5
23D42
  8
1DIM
 10
592.6073517646918
 20
-701.9437423059708
 30
0.0
  0
VERTEX
  5
23D43
  8
1DIM
 10
592.5868049569489
 20
-701.9320290134846
 30
0.0
  0
VERTEX
  5
23D44
  8
1DIM
 10
592.5657996574818
 20
-701.9203589020594
 30
0.0
  0
VERTEX
  5
23D45
  8
1DIM
 10
592.5443412001156
 20
-701.9087322422038
 30
0.0
  0
VERTEX
  5
23D46
  8
1DIM
 10
592.5224296451879
 20
-701.8971458225824
 30
0.0
  0
VERTEX
  5
23D47
  8
1DIM
 10
592.5000652074974
 20
-701.8855998326443
 30
0.0
  0
VERTEX
  5
23D48
  8
1DIM
 10
592.477248101843
 20
-701.8740944618385
 30
0.0
  0
VERTEX
  5
23D49
  8
1DIM
 10
592.4539785430235
 20
-701.8626298996137
 30
0.0
  0
VERTEX
  5
23D4A
  8
1DIM
 10
592.4302567458378
 20
-701.8512063354192
 30
0.0
  0
VERTEX
  5
23D4B
  8
1DIM
 10
592.4060829250845
 20
-701.8398239587038
 30
0.0
  0
VERTEX
  5
23D4C
  8
1DIM
 10
592.381457295563
 20
-701.8284829589165
 30
0.0
  0
VERTEX
  5
23D4D
  8
1DIM
 10
592.3563800720718
 20
-701.8171835255063
 30
0.0
  0
VERTEX
  5
23D4E
  8
1DIM
 10
592.3308514694098
 20
-701.805925847922
 30
0.0
  0
VERTEX
  5
23D4F
  8
1DIM
 10
592.3048717023759
 20
-701.7947101156127
 30
0.0
  0
VERTEX
  5
23D50
  8
1DIM
 10
592.2784409857691
 20
-701.7835365180273
 30
0.0
  0
VERTEX
  5
23D51
  8
1DIM
 10
592.2515595343879
 20
-701.7724052446148
 30
0.0
  0
VERTEX
  5
23D52
  8
1DIM
 10
592.2242275630315
 20
-701.7613164848242
 30
0.0
  0
VERTEX
  5
23D53
  8
1DIM
 10
592.1964452864986
 20
-701.7502704281043
 30
0.0
  0
VERTEX
  5
23D54
  8
1DIM
 10
592.1682129195882
 20
-701.7392672639041
 30
0.0
  0
VERTEX
  5
23D55
  8
1DIM
 10
592.1395306770991
 20
-701.7283071816728
 30
0.0
  0
VERTEX
  5
23D56
  8
1DIM
 10
592.11039877383
 20
-701.7173903708591
 30
0.0
  0
VERTEX
  5
23D57
  8
1DIM
 10
592.08081742458
 20
-701.7065170209121
 30
0.0
  0
VERTEX
  5
23D58
  8
1DIM
 10
592.0507868441478
 20
-701.6956873212807
 30
0.0
  0
VERTEX
  5
23D59
  8
1DIM
 10
592.0203072473323
 20
-701.6849014614139
 30
0.0
  0
VERTEX
  5
23D5A
  8
1DIM
 10
591.9893588189145
 20
-701.6741559850061
 30
0.0
  0
VERTEX
  5
23D5B
  8
1DIM
 10
591.9579267286382
 20
-701.6634490416229
 30
0.0
  0
VERTEX
  5
23D5C
  8
1DIM
 10
591.9260186687467
 20
-701.6527832295203
 30
0.0
  0
VERTEX
  5
23D5D
  8
1DIM
 10
591.893642331483
 20
-701.6421611469534
 30
0.0
  0
VERTEX
  5
23D5E
  8
1DIM
 10
591.8608054090905
 20
-701.6315853921784
 30
0.0
  0
VERTEX
  5
23D5F
  8
1DIM
 10
591.8275155938123
 20
-701.6210585634507
 30
0.0
  0
VERTEX
  5
23D60
  8
1DIM
 10
591.7937805778918
 20
-701.610583259026
 30
0.0
  0
VERTEX
  5
23D61
  8
1DIM
 10
591.7596080535719
 20
-701.60016207716
 30
0.0
  0
VERTEX
  5
23D62
  8
1DIM
 10
591.725005713096
 20
-701.5897976161084
 30
0.0
  0
VERTEX
  5
23D63
  8
1DIM
 10
591.6899812487073
 20
-701.5794924741268
 30
0.0
  0
VERTEX
  5
23D64
  8
1DIM
 10
591.6545423526491
 20
-701.5692492494711
 30
0.0
  0
VERTEX
  5
23D65
  8
1DIM
 10
591.6186967171643
 20
-701.5590705403968
 30
0.0
  0
VERTEX
  5
23D66
  8
1DIM
 10
591.5824520344964
 20
-701.5489589451595
 30
0.0
  0
VERTEX
  5
23D67
  8
1DIM
 10
591.5458159968887
 20
-701.5389170620149
 30
0.0
  0
VERTEX
  5
23D68
  8
1DIM
 10
591.5087962965839
 20
-701.5289474892189
 30
0.0
  0
VERTEX
  5
23D69
  8
1DIM
 10
591.4714006258258
 20
-701.519052825027
 30
0.0
  0
VERTEX
  5
23D6A
  8
1DIM
 10
591.4336366768573
 20
-701.5092356676947
 30
0.0
  0
VERTEX
  5
23D6B
  8
1DIM
 10
591.3955121419216
 20
-701.4994986154782
 30
0.0
  0
VERTEX
  5
23D6C
  8
1DIM
 10
591.357034713262
 20
-701.4898442666326
 30
0.0
  0
VERTEX
  5
23D6D
  8
1DIM
 10
591.3182120831217
 20
-701.4802752194138
 30
0.0
  0
VERTEX
  5
23D6E
  8
1DIM
 10
591.279051943744
 20
-701.4707940720776
 30
0.0
  0
VERTEX
  5
23D6F
  8
1DIM
 10
591.2395539264692
 20
-701.4613987211527
 30
0.0
  0
VERTEX
  5
23D70
  8
1DIM
 10
591.199712282912
 20
-701.4520855637455
 30
0.0
  0
VERTEX
  5
23D71
  8
1DIM
 10
591.1595266357256
 20
-701.4428549489785
 30
0.0
  0
VERTEX
  5
23D72
  8
1DIM
 10
591.1189966075638
 20
-701.4337072259741
 30
0.0
  0
VERTEX
  5
23D73
  8
1DIM
 10
591.07812182108
 20
-701.4246427438542
 30
0.0
  0
VERTEX
  5
23D74
  8
1DIM
 10
591.0369018989277
 20
-701.4156618517416
 30
0.0
  0
VERTEX
  5
23D75
  8
1DIM
 10
590.9953364637607
 20
-701.4067648987583
 30
0.0
  0
VERTEX
  5
23D76
  8
1DIM
 10
590.9534251382324
 20
-701.3979522340267
 30
0.0
  0
VERTEX
  5
23D77
  8
1DIM
 10
590.9111675449964
 20
-701.389224206669
 30
0.0
  0
VERTEX
  5
23D78
  8
1DIM
 10
590.8685633067063
 20
-701.3805811658078
 30
0.0
  0
VERTEX
  5
23D79
  8
1DIM
 10
590.8256120460156
 20
-701.3720234605652
 30
0.0
  0
VERTEX
  5
23D7A
  8
1DIM
 10
590.7823133855778
 20
-701.3635514400637
 30
0.0
  0
VERTEX
  5
23D7B
  8
1DIM
 10
590.7386669480468
 20
-701.3551654534252
 30
0.0
  0
VERTEX
  5
23D7C
  8
1DIM
 10
590.6946723560757
 20
-701.3468658497726
 30
0.0
  0
VERTEX
  5
23D7D
  8
1DIM
 10
590.6503292323183
 20
-701.3386529782277
 30
0.0
  0
VERTEX
  5
23D7E
  8
1DIM
 10
590.6056371994282
 20
-701.330527187913
 30
0.0
  0
VERTEX
  5
23D7F
  8
1DIM
 10
590.5605958800588
 20
-701.322488827951
 30
0.0
  0
VERTEX
  5
23D80
  8
1DIM
 10
590.5152048968638
 20
-701.3145382474638
 30
0.0
  0
VERTEX
  5
23D81
  8
1DIM
 10
590.4694638724967
 20
-701.3066757955736
 30
0.0
  0
VERTEX
  5
23D82
  8
1DIM
 10
590.423372429611
 20
-701.2989018214032
 30
0.0
  0
VERTEX
  5
23D83
  8
1DIM
 10
590.3769301908607
 20
-701.2912166740743
 30
0.0
  0
VERTEX
  5
23D84
  8
1DIM
 10
590.3301115735599
 20
-701.2836182915387
 30
0.0
  0
VERTEX
  5
23D85
  8
1DIM
 10
590.2829055786445
 20
-701.2761067858471
 30
0.0
  0
VERTEX
  5
23D86
  8
1DIM
 10
590.2353337041991
 20
-701.268685767271
 30
0.0
  0
VERTEX
  5
23D87
  8
1DIM
 10
590.1874174483087
 20
-701.261358846082
 30
0.0
  0
VERTEX
  5
23D88
  8
1DIM
 10
590.1391783090579
 20
-701.2541296325516
 30
0.0
  0
VERTEX
  5
23D89
  8
1DIM
 10
590.0906377845313
 20
-701.2470017369513
 30
0.0
  0
VERTEX
  5
23D8A
  8
1DIM
 10
590.041817372814
 20
-701.2399787695527
 30
0.0
  0
VERTEX
  5
23D8B
  8
1DIM
 10
589.9927385719903
 20
-701.2330643406274
 30
0.0
  0
VERTEX
  5
23D8C
  8
1DIM
 10
589.9434228801452
 20
-701.2262620604466
 30
0.0
  0
VERTEX
  5
23D8D
  8
1DIM
 10
589.8938917953636
 20
-701.2195755392821
 30
0.0
  0
VERTEX
  5
23D8E
  8
1DIM
 10
589.8441644470914
 20
-701.2130077626555
 30
0.0
  0
VERTEX
  5
23D8F
  8
1DIM
 10
589.7942401897621
 20
-701.2065572392847
 30
0.0
  0
VERTEX
  5
23D90
  8
1DIM
 10
589.744117882613
 20
-701.200223496888
 30
0.0
  0
VERTEX
  5
23D91
  8
1DIM
 10
589.6937978722062
 20
-701.1940065375939
 30
0.0
  0
VERTEX
  5
23D92
  8
1DIM
 10
589.6432805051039
 20
-701.1879063635307
 30
0.0
  0
VERTEX
  5
23D93
  8
1DIM
 10
589.5925661278682
 20
-701.1819229768272
 30
0.0
  0
VERTEX
  5
23D94
  8
1DIM
 10
589.5416550870613
 20
-701.1760563796122
 30
0.0
  0
VERTEX
  5
23D95
  8
1DIM
 10
589.4905477292452
 20
-701.1703065740138
 30
0.0
  0
VERTEX
  5
23D96
  8
1DIM
 10
589.4392444009823
 20
-701.1646735621609
 30
0.0
  0
VERTEX
  5
23D97
  8
1DIM
 10
589.3877454488345
 20
-701.1591573461822
 30
0.0
  0
VERTEX
  5
23D98
  8
1DIM
 10
589.3360512193642
 20
-701.1537579282059
 30
0.0
  0
VERTEX
  5
23D99
  8
1DIM
 10
589.2841626616187
 20
-701.1484749784768
 30
0.0
  0
VERTEX
  5
23D9A
  8
1DIM
 10
589.2320801732006
 20
-701.1433084613918
 30
0.0
  0
VERTEX
  5
23D9B
  8
1DIM
 10
589.1798032735051
 20
-701.1382588203096
 30
0.0
  0
VERTEX
  5
23D9C
  8
1DIM
 10
589.1273314819266
 20
-701.133326498588
 30
0.0
  0
VERTEX
  5
23D9D
  8
1DIM
 10
589.0746643178605
 20
-701.1285119395852
 30
0.0
  0
VERTEX
  5
23D9E
  8
1DIM
 10
589.0218013007011
 20
-701.1238155866595
 30
0.0
  0
VERTEX
  5
23D9F
  8
1DIM
 10
588.9687419498438
 20
-701.1192378831686
 30
0.0
  0
VERTEX
  5
23DA0
  8
1DIM
 10
588.9154857846833
 20
-701.1147792724711
 30
0.0
  0
VERTEX
  5
23DA1
  8
1DIM
 10
588.8620323246145
 20
-701.110440197925
 30
0.0
  0
VERTEX
  5
23DA2
  8
1DIM
 10
588.8083810890321
 20
-701.1062211028883
 30
0.0
  0
VERTEX
  5
23DA3
  8
1DIM
 10
588.7545315973313
 20
-701.1021224307193
 30
0.0
  0
VERTEX
  5
23DA4
  8
1DIM
 10
588.7004833689068
 20
-701.0981446247761
 30
0.0
  0
VERTEX
  5
23DA5
  8
1DIM
 10
588.6462359231534
 20
-701.0942881284167
 30
0.0
  0
VERTEX
  5
23DA6
  8
1DIM
 10
588.5917887794664
 20
-701.0905533849993
 30
0.0
  0
VERTEX
  5
23DA7
  8
1DIM
 10
588.5371414572402
 20
-701.0869408378821
 30
0.0
  0
VERTEX
  5
23DA8
  8
1DIM
 10
588.4822934758699
 20
-701.0834509304234
 30
0.0
  0
VERTEX
  5
23DA9
  8
1DIM
 10
588.4272443547504
 20
-701.080084105981
 30
0.0
  0
VERTEX
  5
23DAA
  8
1DIM
 10
588.3719936132766
 20
-701.0768408079132
 30
0.0
  0
VERTEX
  5
23DAB
  8
1DIM
 10
588.3165407708433
 20
-701.0737214795781
 30
0.0
  0
VERTEX
  5
23DAC
  8
1DIM
 10
588.2608853468454
 20
-701.0707265643339
 30
0.0
  0
VERTEX
  5
23DAD
  8
1DIM
 10
588.205026860678
 20
-701.0678565055388
 30
0.0
  0
VERTEX
  5
23DAE
  8
1DIM
 10
588.1490328192739
 20
-701.0651152867175
 30
0.0
  0
VERTEX
  5
23DAF
  8
1DIM
 10
588.0929716452001
 20
-701.0625066720021
 30
0.0
  0
VERTEX
  5
23DB0
  8
1DIM
 10
588.0368442313023
 20
-701.060030775661
 30
0.0
  0
VERTEX
  5
23DB1
  8
1DIM
 10
587.9806514704264
 20
-701.0576877119626
 30
0.0
  0
VERTEX
  5
23DB2
  8
1DIM
 10
587.924394255418
 20
-701.0554775951756
 30
0.0
  0
VERTEX
  5
23DB3
  8
1DIM
 10
587.8680734791227
 20
-701.0534005395682
 30
0.0
  0
VERTEX
  5
23DB4
  8
1DIM
 10
587.8116900343863
 20
-701.0514566594092
 30
0.0
  0
VERTEX
  5
23DB5
  8
1DIM
 10
587.7552448140545
 20
-701.0496460689668
 30
0.0
  0
VERTEX
  5
23DB6
  8
1DIM
 10
587.6987387109732
 20
-701.0479688825096
 30
0.0
  0
VERTEX
  5
23DB7
  8
1DIM
 10
587.6421726179879
 20
-701.0464252143062
 30
0.0
  0
VERTEX
  5
23DB8
  8
1DIM
 10
587.5855474279442
 20
-701.0450151786248
 30
0.0
  0
VERTEX
  5
23DB9
  8
1DIM
 10
587.5288640336883
 20
-701.0437388897343
 30
0.0
  0
VERTEX
  5
23DBA
  8
1DIM
 10
587.4721233280655
 20
-701.0425964619027
 30
0.0
  0
VERTEX
  5
23DBB
  8
1DIM
 10
587.4153262039216
 20
-701.0415880093988
 30
0.0
  0
VERTEX
  5
23DBC
  8
1DIM
 10
587.3584735541025
 20
-701.0407136464911
 30
0.0
  0
VERTEX
  5
23DBD
  8
1DIM
 10
587.3015662714537
 20
-701.0399734874479
 30
0.0
  0
VERTEX
  5
23DBE
  8
1DIM
 10
587.2446052488208
 20
-701.0393676465378
 30
0.0
  0
VERTEX
  5
23DBF
  8
1DIM
 10
587.1875913790499
 20
-701.0388962380291
 30
0.0
  0
VERTEX
  5
23DC0
  8
1DIM
 10
587.1305255549864
 20
-701.0385593761906
 30
0.0
  0
VERTEX
  5
23DC1
  8
1DIM
 10
587.0734086694763
 20
-701.0383571752906
 30
0.0
  0
VERTEX
  5
23DC2
  8
1DIM
 10
587.016241615365
 20
-701.0382897495977
 30
0.0
  0
SEQEND
  5
244F9
  8
1DIM
  0
LINE
  5
2007F
  8
1DIM
 10
413.0162416153649
 20
-701.0382897495977
 30
0.0
 11
587.016241615365
 21
-701.0382897495977
 31
0.0
  0
POLYLINE
  5
20080
  8
1DIM
 66
     1
 10
0.0
 20
0.0
 30
0.0
  0
VERTEX
  5
23DC3
  8
1DIM
 10
407.0162416153649
 20
-702.4183393965859
 30
0.0
  0
VERTEX
  5
23DC4
  8
1DIM
 10
407.0165024531091
 20
-702.4064598075709
 30
0.0
  0
VERTEX
  5
23DC5
  8
1DIM
 10
407.0172842366254
 20
-702.3945800468225
 30
0.0
  0
VERTEX
  5
23DC6
  8
1DIM
 10
407.0185858713389
 20
-702.3827001594719
 30
0.0
  0
VERTEX
  5
23DC7
  8
1DIM
 10
407.0204062626751
 20
-702.3708201906509
 30
0.0
  0
VERTEX
  5
23DC8
  8
1DIM
 10
407.0227443160593
 20
-702.3589401854912
 30
0.0
  0
VERTEX
  5
23DC9
  8
1DIM
 10
407.025598936917
 20
-702.3470601891239
 30
0.0
  0
VERTEX
  5
23DCA
  8
1DIM
 10
407.0289690306734
 20
-702.335180246681
 30
0.0
  0
VERTEX
  5
23DCB
  8
1DIM
 10
407.0328535027538
 20
-702.3233004032938
 30
0.0
  0
VERTEX
  5
23DCC
  8
1DIM
 10
407.0372512585838
 20
-702.3114207040938
 30
0.0
  0
VERTEX
  5
23DCD
  8
1DIM
 10
407.0421612035885
 20
-702.2995411942129
 30
0.0
  0
VERTEX
  5
23DCE
  8
1DIM
 10
407.0475822431933
 20
-702.2876619187823
 30
0.0
  0
VERTEX
  5
23DCF
  8
1DIM
 10
407.0535132828236
 20
-702.2757829229337
 30
0.0
  0
VERTEX
  5
23DD0
  8
1DIM
 10
407.0599532279048
 20
-702.2639042517985
 30
0.0
  0
VERTEX
  5
23DD1
  8
1DIM
 10
407.0669009838621
 20
-702.2520259505085
 30
0.0
  0
VERTEX
  5
23DD2
  8
1DIM
 10
407.0743554561209
 20
-702.2401480641952
 30
0.0
  0
VERTEX
  5
23DD3
  8
1DIM
 10
407.0823155501067
 20
-702.22827063799
 30
0.0
  0
VERTEX
  5
23DD4
  8
1DIM
 10
407.0907801712447
 20
-702.2163937170246
 30
0.0
  0
VERTEX
  5
23DD5
  8
1DIM
 10
407.0997482249603
 20
-702.2045173464304
 30
0.0
  0
VERTEX
  5
23DD6
  8
1DIM
 10
407.1092186166787
 20
-702.1926415713391
 30
0.0
  0
VERTEX
  5
23DD7
  8
1DIM
 10
407.1191902518256
 20
-702.1807664368822
 30
0.0
  0
VERTEX
  5
23DD8
  8
1DIM
 10
407.129662035826
 20
-702.1688919881913
 30
0.0
  0
VERTEX
  5
23DD9
  8
1DIM
 10
407.1406350703538
 20
-702.1570183431779
 30
0.0
  0
VERTEX
  5
23DDA
  8
1DIM
 10
407.1521118485033
 20
-702.1451456688534
 30
0.0
  0
VERTEX
  5
23DDB
  8
1DIM
 10
407.1640933628296
 20
-702.1332740839991
 30
0.0
  0
VERTEX
  5
23DDC
  8
1DIM
 10
407.1765806058885
 20
-702.1214037073966
 30
0.0
  0
VERTEX
  5
23DDD
  8
1DIM
 10
407.1895745702355
 20
-702.109534657827
 30
0.0
  0
VERTEX
  5
23DDE
  8
1DIM
 10
407.2030762484261
 20
-702.0976670540717
 30
0.0
  0
VERTEX
  5
23DDF
  8
1DIM
 10
407.2170866330157
 20
-702.085801014912
 30
0.0
  0
VERTEX
  5
23DE0
  8
1DIM
 10
407.23160671656
 20
-702.0739366591292
 30
0.0
  0
VERTEX
  5
23DE1
  8
1DIM
 10
407.2466374916145
 20
-702.0620741055048
 30
0.0
  0
VERTEX
  5
23DE2
  8
1DIM
 10
407.2621799507347
 20
-702.0502134728201
 30
0.0
  0
VERTEX
  5
23DE3
  8
1DIM
 10
407.2782377098535
 20
-702.0383536983757
 30
0.0
  0
VERTEX
  5
23DE4
  8
1DIM
 10
407.2948240826964
 20
-702.0264897971061
 30
0.0
  0
VERTEX
  5
23DE5
  8
1DIM
 10
407.3119339475094
 20
-702.0146257791854
 30
0.0
  0
VERTEX
  5
23DE6
  8
1DIM
 10
407.3295591792617
 20
-702.0027670568275
 30
0.0
  0
VERTEX
  5
23DE7
  8
1DIM
 10
407.3476916529227
 20
-701.9909190422462
 30
0.0
  0
VERTEX
  5
23DE8
  8
1DIM
 10
407.3663232434616
 20
-701.979087147656
 30
0.0
  0
VERTEX
  5
23DE9
  8
1DIM
 10
407.3854458258475
 20
-701.9672767852705
 30
0.0
  0
VERTEX
  5
23DEA
  8
1DIM
 10
407.40505127505
 20
-701.9554933673041
 30
0.0
  0
VERTEX
  5
23DEB
  8
1DIM
 10
407.425131466038
 20
-701.9437423059708
 30
0.0
  0
VERTEX
  5
23DEC
  8
1DIM
 10
407.4456782737809
 20
-701.9320290134846
 30
0.0
  0
VERTEX
  5
23DED
  8
1DIM
 10
407.466683573248
 20
-701.9203589020594
 30
0.0
  0
VERTEX
  5
23DEE
  8
1DIM
 10
407.4881420306141
 20
-701.9087322422038
 30
0.0
  0
VERTEX
  5
23DEF
  8
1DIM
 10
407.5100535855418
 20
-701.8971458225824
 30
0.0
  0
VERTEX
  5
23DF0
  8
1DIM
 10
407.5324180232323
 20
-701.8855998326443
 30
0.0
  0
VERTEX
  5
23DF1
  8
1DIM
 10
407.5552351288868
 20
-701.8740944618385
 30
0.0
  0
VERTEX
  5
23DF2
  8
1DIM
 10
407.5785046877064
 20
-701.8626298996137
 30
0.0
  0
VERTEX
  5
23DF3
  8
1DIM
 10
407.6022264848921
 20
-701.8512063354192
 30
0.0
  0
VERTEX
  5
23DF4
  8
1DIM
 10
407.6264003056452
 20
-701.8398239587038
 30
0.0
  0
VERTEX
  5
23DF5
  8
1DIM
 10
407.6510259351668
 20
-701.8284829589165
 30
0.0
  0
VERTEX
  5
23DF6
  8
1DIM
 10
407.676103158658
 20
-701.8171835255063
 30
0.0
  0
VERTEX
  5
23DF7
  8
1DIM
 10
407.70163176132
 20
-701.805925847922
 30
0.0
  0
VERTEX
  5
23DF8
  8
1DIM
 10
407.7276115283539
 20
-701.7947101156127
 30
0.0
  0
VERTEX
  5
23DF9
  8
1DIM
 10
407.7540422449608
 20
-701.7835365180273
 30
0.0
  0
VERTEX
  5
23DFA
  8
1DIM
 10
407.7809236963419
 20
-701.7724052446148
 30
0.0
  0
VERTEX
  5
23DFB
  8
1DIM
 10
407.8082556676982
 20
-701.7613164848242
 30
0.0
  0
VERTEX
  5
23DFC
  8
1DIM
 10
407.8360379442311
 20
-701.7502704281043
 30
0.0
  0
VERTEX
  5
23DFD
  8
1DIM
 10
407.8642703111416
 20
-701.7392672639041
 30
0.0
  0
VERTEX
  5
23DFE
  8
1DIM
 10
407.8929525536308
 20
-701.7283071816728
 30
0.0
  0
VERTEX
  5
23DFF
  8
1DIM
 10
407.9220844568998
 20
-701.7173903708591
 30
0.0
  0
VERTEX
  5
23E00
  8
1DIM
 10
407.9516658061498
 20
-701.7065170209121
 30
0.0
  0
VERTEX
  5
23E01
  8
1DIM
 10
407.981696386582
 20
-701.6956873212807
 30
0.0
  0
VERTEX
  5
23E02
  8
1DIM
 10
408.0121759833974
 20
-701.6849014614139
 30
0.0
  0
VERTEX
  5
23E03
  8
1DIM
 10
408.0431244118152
 20
-701.6741559850061
 30
0.0
  0
VERTEX
  5
23E04
  8
1DIM
 10
408.0745565020915
 20
-701.6634490416229
 30
0.0
  0
VERTEX
  5
23E05
  8
1DIM
 10
408.1064645619831
 20
-701.6527832295203
 30
0.0
  0
VERTEX
  5
23E06
  8
1DIM
 10
408.1388408992468
 20
-701.6421611469534
 30
0.0
  0
VERTEX
  5
23E07
  8
1DIM
 10
408.1716778216393
 20
-701.6315853921784
 30
0.0
  0
VERTEX
  5
23E08
  8
1DIM
 10
408.2049676369174
 20
-701.6210585634507
 30
0.0
  0
VERTEX
  5
23E09
  8
1DIM
 10
408.2387026528381
 20
-701.610583259026
 30
0.0
  0
VERTEX
  5
23E0A
  8
1DIM
 10
408.2728751771579
 20
-701.60016207716
 30
0.0
  0
VERTEX
  5
23E0B
  8
1DIM
 10
408.3074775176338
 20
-701.5897976161084
 30
0.0
  0
VERTEX
  5
23E0C
  8
1DIM
 10
408.3425019820225
 20
-701.5794924741268
 30
0.0
  0
VERTEX
  5
23E0D
  8
1DIM
 10
408.3779408780808
 20
-701.5692492494711
 30
0.0
  0
VERTEX
  5
23E0E
  8
1DIM
 10
408.4137865135655
 20
-701.5590705403968
 30
0.0
  0
VERTEX
  5
23E0F
  8
1DIM
 10
408.4500311962334
 20
-701.5489589451595
 30
0.0
  0
VERTEX
  5
23E10
  8
1DIM
 10
408.4866672338412
 20
-701.5389170620149
 30
0.0
  0
VERTEX
  5
23E11
  8
1DIM
 10
408.5236869341459
 20
-701.5289474892189
 30
0.0
  0
VERTEX
  5
23E12
  8
1DIM
 10
408.5610826049041
 20
-701.519052825027
 30
0.0
  0
VERTEX
  5
23E13
  8
1DIM
 10
408.5988465538725
 20
-701.5092356676947
 30
0.0
  0
VERTEX
  5
23E14
  8
1DIM
 10
408.6369710888082
 20
-701.4994986154782
 30
0.0
  0
VERTEX
  5
23E15
  8
1DIM
 10
408.6754485174678
 20
-701.4898442666326
 30
0.0
  0
VERTEX
  5
23E16
  8
1DIM
 10
408.7142711476081
 20
-701.4802752194138
 30
0.0
  0
VERTEX
  5
23E17
  8
1DIM
 10
408.7534312869859
 20
-701.4707940720776
 30
0.0
  0
VERTEX
  5
23E18
  8
1DIM
 10
408.7929293042606
 20
-701.4613987211527
 30
0.0
  0
VERTEX
  5
23E19
  8
1DIM
 10
408.8327709478178
 20
-701.4520855637455
 30
0.0
  0
VERTEX
  5
23E1A
  8
1DIM
 10
408.8729565950042
 20
-701.4428549489785
 30
0.0
  0
VERTEX
  5
23E1B
  8
1DIM
 10
408.9134866231661
 20
-701.4337072259741
 30
0.0
  0
VERTEX
  5
23E1C
  8
1DIM
 10
408.9543614096499
 20
-701.4246427438542
 30
0.0
  0
VERTEX
  5
23E1D
  8
1DIM
 10
408.9955813318021
 20
-701.4156618517416
 30
0.0
  0
VERTEX
  5
23E1E
  8
1DIM
 10
409.0371467669692
 20
-701.4067648987583
 30
0.0
  0
VERTEX
  5
23E1F
  8
1DIM
 10
409.0790580924974
 20
-701.3979522340267
 30
0.0
  0
VERTEX
  5
23E20
  8
1DIM
 10
409.1213156857334
 20
-701.389224206669
 30
0.0
  0
VERTEX
  5
23E21
  8
1DIM
 10
409.1639199240236
 20
-701.3805811658078
 30
0.0
  0
VERTEX
  5
23E22
  8
1DIM
 10
409.2068711847143
 20
-701.3720234605652
 30
0.0
  0
VERTEX
  5
23E23
  8
1DIM
 10
409.250169845152
 20
-701.3635514400637
 30
0.0
  0
VERTEX
  5
23E24
  8
1DIM
 10
409.2938162826831
 20
-701.3551654534252
 30
0.0
  0
VERTEX
  5
23E25
  8
1DIM
 10
409.3378108746542
 20
-701.3468658497726
 30
0.0
  0
VERTEX
  5
23E26
  8
1DIM
 10
409.3821539984115
 20
-701.3386529782277
 30
0.0
  0
VERTEX
  5
23E27
  8
1DIM
 10
409.4268460313016
 20
-701.330527187913
 30
0.0
  0
VERTEX
  5
23E28
  8
1DIM
 10
409.471887350671
 20
-701.322488827951
 30
0.0
  0
VERTEX
  5
23E29
  8
1DIM
 10
409.517278333866
 20
-701.3145382474638
 30
0.0
  0
VERTEX
  5
23E2A
  8
1DIM
 10
409.5630193582331
 20
-701.3066757955736
 30
0.0
  0
VERTEX
  5
23E2B
  8
1DIM
 10
409.6091108011186
 20
-701.2989018214032
 30
0.0
  0
VERTEX
  5
23E2C
  8
1DIM
 10
409.6555530398691
 20
-701.2912166740743
 30
0.0
  0
VERTEX
  5
23E2D
  8
1DIM
 10
409.7023716571699
 20
-701.2836182915387
 30
0.0
  0
VERTEX
  5
23E2E
  8
1DIM
 10
409.7495776520852
 20
-701.2761067858471
 30
0.0
  0
VERTEX
  5
23E2F
  8
1DIM
 10
409.7971495265305
 20
-701.268685767271
 30
0.0
  0
VERTEX
  5
23E30
  8
1DIM
 10
409.8450657824209
 20
-701.261358846082
 30
0.0
  0
VERTEX
  5
23E31
  8
1DIM
 10
409.8933049216717
 20
-701.2541296325516
 30
0.0
  0
VERTEX
  5
23E32
  8
1DIM
 10
409.9418454461983
 20
-701.2470017369513
 30
0.0
  0
VERTEX
  5
23E33
  8
1DIM
 10
409.9906658579156
 20
-701.2399787695527
 30
0.0
  0
VERTEX
  5
23E34
  8
1DIM
 10
410.0397446587393
 20
-701.2330643406274
 30
0.0
  0
VERTEX
  5
23E35
  8
1DIM
 10
410.0890603505844
 20
-701.2262620604466
 30
0.0
  0
VERTEX
  5
23E36
  8
1DIM
 10
410.1385914353662
 20
-701.2195755392821
 30
0.0
  0
VERTEX
  5
23E37
  8
1DIM
 10
410.1883187836384
 20
-701.2130077626555
 30
0.0
  0
VERTEX
  5
23E38
  8
1DIM
 10
410.2382430409676
 20
-701.2065572392847
 30
0.0
  0
VERTEX
  5
23E39
  8
1DIM
 10
410.2883653481167
 20
-701.200223496888
 30
0.0
  0
VERTEX
  5
23E3A
  8
1DIM
 10
410.3386853585235
 20
-701.1940065375939
 30
0.0
  0
VERTEX
  5
23E3B
  8
1DIM
 10
410.3892027256259
 20
-701.1879063635307
 30
0.0
  0
VERTEX
  5
23E3C
  8
1DIM
 10
410.4399171028616
 20
-701.1819229768272
 30
0.0
  0
VERTEX
  5
23E3D
  8
1DIM
 10
410.4908281436686
 20
-701.1760563796122
 30
0.0
  0
VERTEX
  5
23E3E
  8
1DIM
 10
410.5419355014847
 20
-701.1703065740138
 30
0.0
  0
VERTEX
  5
23E3F
  8
1DIM
 10
410.5932388297476
 20
-701.1646735621609
 30
0.0
  0
VERTEX
  5
23E40
  8
1DIM
 10
410.6447377818953
 20
-701.1591573461822
 30
0.0
  0
VERTEX
  5
23E41
  8
1DIM
 10
410.6964320113656
 20
-701.1537579282059
 30
0.0
  0
VERTEX
  5
23E42
  8
1DIM
 10
410.7483205691111
 20
-701.1484749784768
 30
0.0
  0
VERTEX
  5
23E43
  8
1DIM
 10
410.8004030575291
 20
-701.1433084613918
 30
0.0
  0
VERTEX
  5
23E44
  8
1DIM
 10
410.8526799572247
 20
-701.1382588203096
 30
0.0
  0
VERTEX
  5
23E45
  8
1DIM
 10
410.9051517488031
 20
-701.133326498588
 30
0.0
  0
VERTEX
  5
23E46
  8
1DIM
 10
410.9578189128694
 20
-701.1285119395852
 30
0.0
  0
VERTEX
  5
23E47
  8
1DIM
 10
411.0106819300287
 20
-701.1238155866595
 30
0.0
  0
VERTEX
  5
23E48
  8
1DIM
 10
411.0637412808859
 20
-701.1192378831686
 30
0.0
  0
VERTEX
  5
23E49
  8
1DIM
 10
411.1169974460465
 20
-701.1147792724711
 30
0.0
  0
VERTEX
  5
23E4A
  8
1DIM
 10
411.1704509061153
 20
-701.110440197925
 30
0.0
  0
VERTEX
  5
23E4B
  8
1DIM
 10
411.2241021416976
 20
-701.1062211028883
 30
0.0
  0
VERTEX
  5
23E4C
  8
1DIM
 10
411.2779516333985
 20
-701.1021224307193
 30
0.0
  0
VERTEX
  5
23E4D
  8
1DIM
 10
411.3319998618229
 20
-701.0981446247761
 30
0.0
  0
VERTEX
  5
23E4E
  8
1DIM
 10
411.3862473075762
 20
-701.0942881284167
 30
0.0
  0
VERTEX
  5
23E4F
  8
1DIM
 10
411.4406944512634
 20
-701.0905533849993
 30
0.0
  0
VERTEX
  5
23E50
  8
1DIM
 10
411.4953417734895
 20
-701.0869408378821
 30
0.0
  0
VERTEX
  5
23E51
  8
1DIM
 10
411.5501897548598
 20
-701.0834509304234
 30
0.0
  0
VERTEX
  5
23E52
  8
1DIM
 10
411.6052388759792
 20
-701.080084105981
 30
0.0
  0
VERTEX
  5
23E53
  8
1DIM
 10
411.6604896174531
 20
-701.0768408079132
 30
0.0
  0
VERTEX
  5
23E54
  8
1DIM
 10
411.7159424598863
 20
-701.0737214795781
 30
0.0
  0
VERTEX
  5
23E55
  8
1DIM
 10
411.7715978838842
 20
-701.0707265643339
 30
0.0
  0
VERTEX
  5
23E56
  8
1DIM
 10
411.8274563700517
 20
-701.0678565055388
 30
0.0
  0
VERTEX
  5
23E57
  8
1DIM
 10
411.8834504114558
 20
-701.0651152867175
 30
0.0
  0
VERTEX
  5
23E58
  8
1DIM
 10
411.9395115855296
 20
-701.0625066720021
 30
0.0
  0
VERTEX
  5
23E59
  8
1DIM
 10
411.9956389994273
 20
-701.060030775661
 30
0.0
  0
VERTEX
  5
23E5A
  8
1DIM
 10
412.0518317603033
 20
-701.0576877119626
 30
0.0
  0
VERTEX
  5
23E5B
  8
1DIM
 10
412.1080889753118
 20
-701.0554775951756
 30
0.0
  0
VERTEX
  5
23E5C
  8
1DIM
 10
412.1644097516071
 20
-701.0534005395682
 30
0.0
  0
VERTEX
  5
23E5D
  8
1DIM
 10
412.2207931963434
 20
-701.0514566594092
 30
0.0
  0
VERTEX
  5
23E5E
  8
1DIM
 10
412.2772384166752
 20
-701.0496460689668
 30
0.0
  0
VERTEX
  5
23E5F
  8
1DIM
 10
412.3337445197565
 20
-701.0479688825096
 30
0.0
  0
VERTEX
  5
23E60
  8
1DIM
 10
412.3903106127418
 20
-701.0464252143062
 30
0.0
  0
VERTEX
  5
23E61
  8
1DIM
 10
412.4469358027853
 20
-701.0450151786248
 30
0.0
  0
VERTEX
  5
23E62
  8
1DIM
 10
412.5036191970414
 20
-701.0437388897343
 30
0.0
  0
VERTEX
  5
23E63
  8
1DIM
 10
412.5603599026642
 20
-701.0425964619027
 30
0.0
  0
VERTEX
  5
23E64
  8
1DIM
 10
412.6171570268081
 20
-701.0415880093988
 30
0.0
  0
VERTEX
  5
23E65
  8
1DIM
 10
412.6740096766273
 20
-701.0407136464911
 30
0.0
  0
VERTEX
  5
23E66
  8
1DIM
 10
412.7309169592761
 20
-701.0399734874479
 30
0.0
  0
VERTEX
  5
23E67
  8
1DIM
 10
412.7878779819089
 20
-701.0393676465378
 30
0.0
  0
VERTEX
  5
23E68
  8
1DIM
 10
412.8448918516798
 20
-701.0388962380291
 30
0.0
  0
VERTEX
  5
23E69
  8
1DIM
 10
412.9019576757433
 20
-701.0385593761906
 30
0.0
  0
VERTEX
  5
23E6A
  8
1DIM
 10
412.9590745612535
 20
-701.0383571752906
 30
0.0
  0
VERTEX
  5
23E6B
  8
1DIM
 10
413.0162416153648
 20
-701.0382897495977
 30
0.0
  0
SEQEND
  5
244FA
  8
1DIM
  0
LINE
  5
20081
  8
1DIM
 10
407.0162416153649
 20
-705.9181223857472
 30
0.0
 11
407.0162416153649
 21
-702.4183393965859
 31
0.0
  0
POLYLINE
  5
20082
  8
1DIM
 66
     1
 10
0.0
 20
0.0
 30
0.0
  0
VERTEX
  5
23E6C
  8
1DIM
 10
411.0162416153649
 20
-706.0702938972995
 30
0.0
  0
VERTEX
  5
23E6D
  8
1DIM
 10
410.9698006018927
 20
-706.0702868930268
 30
0.0
  0
VERTEX
  5
23E6E
  8
1DIM
 10
410.9234494538153
 20
-706.0702658750963
 30
0.0
  0
VERTEX
  5
23E6F
  8
1DIM
 10
410.8771879599983
 20
-706.0702308358392
 30
0.0
  0
VERTEX
  5
23E70
  8
1DIM
 10
410.8310159093072
 20
-706.070181767587
 30
0.0
  0
VERTEX
  5
23E71
  8
1DIM
 10
410.7849330906072
 20
-706.0701186626708
 30
0.0
  0
VERTEX
  5
23E72
  8
1DIM
 10
410.738939292764
 20
-706.0700415134216
 30
0.0
  0
VERTEX
  5
23E73
  8
1DIM
 10
410.6930343046429
 20
-706.0699503121713
 30
0.0
  0
VERTEX
  5
23E74
  8
1DIM
 10
410.6472179151094
 20
-706.0698450512507
 30
0.0
  0
VERTEX
  5
23E75
  8
1DIM
 10
410.6014899130288
 20
-706.0697257229913
 30
0.0
  0
VERTEX
  5
23E76
  8
1DIM
 10
410.5558500872667
 20
-706.0695923197243
 30
0.0
  0
VERTEX
  5
23E77
  8
1DIM
 10
410.5102982266886
 20
-706.069444833781
 30
0.0
  0
VERTEX
  5
23E78
  8
1DIM
 10
410.4648341201597
 20
-706.0692832574927
 30
0.0
  0
VERTEX
  5
23E79
  8
1DIM
 10
410.4194575565455
 20
-706.0691075831905
 30
0.0
  0
VERTEX
  5
23E7A
  8
1DIM
 10
410.3741683247115
 20
-706.0689178032061
 30
0.0
  0
VERTEX
  5
23E7B
  8
1DIM
 10
410.3289662135232
 20
-706.0687139098703
 30
0.0
  0
VERTEX
  5
23E7C
  8
1DIM
 10
410.283851011846
 20
-706.0684958955147
 30
0.0
  0
VERTEX
  5
23E7D
  8
1DIM
 10
410.2388225085452
 20
-706.0682637524706
 30
0.0
  0
VERTEX
  5
23E7E
  8
1DIM
 10
410.1938555450888
 20
-706.0680171235365
 30
0.0
  0
VERTEX
  5
23E7F
  8
1DIM
 10
410.1489332499976
 20
-706.0677556327722
 30
0.0
  0
VERTEX
  5
23E80
  8
1DIM
 10
410.1040678427171
 20
-706.0674792444016
 30
0.0
  0
VERTEX
  5
23E81
  8
1DIM
 10
410.0592715426926
 20
-706.0671879226473
 30
0.0
  0
VERTEX
  5
23E82
  8
1DIM
 10
410.0145565693696
 20
-706.0668816317329
 30
0.0
  0
VERTEX
  5
23E83
  8
1DIM
 10
409.9699351421932
 20
-706.0665603358816
 30
0.0
  0
VERTEX
  5
23E84
  8
1DIM
 10
409.925419480609
 20
-706.0662239993165
 30
0.0
  0
VERTEX
  5
23E85
  8
1DIM
 10
409.8810218040623
 20
-706.0658725862611
 30
0.0
  0
VERTEX
  5
23E86
  8
1DIM
 10
409.8367543319984
 20
-706.0655060609386
 30
0.0
  0
VERTEX
  5
23E87
  8
1DIM
 10
409.7926292838627
 20
-706.065124387572
 30
0.0
  0
VERTEX
  5
23E88
  8
1DIM
 10
409.7486588791006
 20
-706.0647275303849
 30
0.0
  0
VERTEX
  5
23E89
  8
1DIM
 10
409.7048553371573
 20
-706.0643154536003
 30
0.0
  0
VERTEX
  5
23E8A
  8
1DIM
 10
409.6612308774784
 20
-706.0638881214416
 30
0.0
  0
VERTEX
  5
23E8B
  8
1DIM
 10
409.617797719509
 20
-706.0634454981318
 30
0.0
  0
VERTEX
  5
23E8C
  8
1DIM
 10
409.5745680826948
 20
-706.0629875478947
 30
0.0
  0
VERTEX
  5
23E8D
  8
1DIM
 10
409.5315541864808
 20
-706.062514234953
 30
0.0
  0
VERTEX
  5
23E8E
  8
1DIM
 10
409.4887682503125
 20
-706.0620255235303
 30
0.0
  0
VERTEX
  5
23E8F
  8
1DIM
 10
409.4462279300305
 20
-706.0615216568843
 30
0.0
  0
VERTEX
  5
23E90
  8
1DIM
 10
409.4039426671661
 20
-706.0610027892674
 30
0.0
  0
VERTEX
  5
23E91
  8
1DIM
 10
409.3619123597013
 20
-706.0604687513951
 30
0.0
  0
VERTEX
  5
23E92
  8
1DIM
 10
409.3201369056184
 20
-706.0599193739824
 30
0.0
  0
VERTEX
  5
23E93
  8
1DIM
 10
409.2786162028992
 20
-706.0593544877448
 30
0.0
  0
VERTEX
  5
23E94
  8
1DIM
 10
409.2373501495258
 20
-706.0587739233976
 30
0.0
  0
VERTEX
  5
23E95
  8
1DIM
 10
409.1963386434802
 20
-706.0581775116558
 30
0.0
  0
VERTEX
  5
23E96
  8
1DIM
 10
409.1555815827444
 20
-706.057565083235
 30
0.0
  0
VERTEX
  5
23E97
  8
1DIM
 10
409.1150788653006
 20
-706.0569364688502
 30
0.0
  0
VERTEX
  5
23E98
  8
1DIM
 10
409.0748303891306
 20
-706.0562914992169
 30
0.0
  0
VERTEX
  5
23E99
  8
1DIM
 10
409.0348360522166
 20
-706.05563000505
 30
0.0
  0
VERTEX
  5
23E9A
  8
1DIM
 10
408.9950957525406
 20
-706.0549518170654
 30
0.0
  0
VERTEX
  5
23E9B
  8
1DIM
 10
408.9556093880846
 20
-706.0542567659778
 30
0.0
  0
VERTEX
  5
23E9C
  8
1DIM
 10
408.9163768568305
 20
-706.0535446825028
 30
0.0
  0
VERTEX
  5
23E9D
  8
1DIM
 10
408.8773980567605
 20
-706.0528153973555
 30
0.0
  0
VERTEX
  5
23E9E
  8
1DIM
 10
408.8386728858566
 20
-706.0520687412513
 30
0.0
  0
VERTEX
  5
23E9F
  8
1DIM
 10
408.8002012421009
 20
-706.0513045449054
 30
0.0
  0
VERTEX
  5
23EA0
  8
1DIM
 10
408.7619759545329
 20
-706.050522101242
 30
0.0
  0
VERTEX
  5
23EA1
  8
1DIM
 10
408.7239979758308
 20
-706.0497208867674
 30
0.0
  0
VERTEX
  5
23EA2
  8
1DIM
 10
408.6862793894333
 20
-706.0489010075705
 30
0.0
  0
VERTEX
  5
23EA3
  8
1DIM
 10
408.6488322787797
 20
-706.0480625697402
 30
0.0
  0
VERTEX
  5
23EA4
  8
1DIM
 10
408.6116687273091
 20
-706.047205679365
 30
0.0
  0
VERTEX
  5
23EA5
  8
1DIM
 10
408.5748008184603
 20
-706.046330442534
 30
0.0
  0
VERTEX
  5
23EA6
  8
1DIM
 10
408.5382406356727
 20
-706.0454369653356
 30
0.0
  0
VERTEX
  5
23EA7
  8
1DIM
 10
408.5020002623851
 20
-706.0445253538587
 30
0.0
  0
VERTEX
  5
23EA8
  8
1DIM
 10
408.4660917820367
 20
-706.0435957141922
 30
0.0
  0
VERTEX
  5
23EA9
  8
1DIM
 10
408.4305272780665
 20
-706.0426481524249
 30
0.0
  0
VERTEX
  5
23EAA
  8
1DIM
 10
408.3953188339136
 20
-706.0416827746454
 30
0.0
  0
VERTEX
  5
23EAB
  8
1DIM
 10
408.3604785330172
 20
-706.0406996869426
 30
0.0
  0
VERTEX
  5
23EAC
  8
1DIM
 10
408.3260184588161
 20
-706.0396989954053
 30
0.0
  0
VERTEX
  5
23EAD
  8
1DIM
 10
408.2919506947495
 20
-706.0386808061221
 30
0.0
  0
VERTEX
  5
23EAE
  8
1DIM
 10
408.2582873242565
 20
-706.0376452251818
 30
0.0
  0
VERTEX
  5
23EAF
  8
1DIM
 10
408.2250404307761
 20
-706.0365923586734
 30
0.0
  0
VERTEX
  5
23EB0
  8
1DIM
 10
408.1922220977475
 20
-706.0355223126854
 30
0.0
  0
VERTEX
  5
23EB1
  8
1DIM
 10
408.159817456174
 20
-706.0344347971939
 30
0.0
  0
VERTEX
  5
23EB2
  8
1DIM
 10
408.12780398256
 20
-706.0333292916451
 30
0.0
  0
VERTEX
  5
23EB3
  8
1DIM
 10
408.096182278596
 20
-706.0322055563336
 30
0.0
  0
VERTEX
  5
23EB4
  8
1DIM
 10
408.0649529459727
 20
-706.0310633515535
 30
0.0
  0
VERTEX
  5
23EB5
  8
1DIM
 10
408.0341165863804
 20
-706.0299024375992
 30
0.0
  0
VERTEX
  5
23EB6
  8
1DIM
 10
408.0036738015098
 20
-706.028722574765
 30
0.0
  0
VERTEX
  5
23EB7
  8
1DIM
 10
407.9736251930513
 20
-706.0275235233453
 30
0.0
  0
VERTEX
  5
23EB8
  8
1DIM
 10
407.9439713626955
 20
-706.0263050436345
 30
0.0
  0
VERTEX
  5
23EB9
  8
1DIM
 10
407.9147129121331
 20
-706.0250668959269
 30
0.0
  0
VERTEX
  5
23EBA
  8
1DIM
 10
407.8858504430543
 20
-706.0238088405168
 30
0.0
  0
VERTEX
  5
23EBB
  8
1DIM
 10
407.8573845571498
 20
-706.0225306376989
 30
0.0
  0
VERTEX
  5
23EBC
  8
1DIM
 10
407.8293158561102
 20
-706.021232047767
 30
0.0
  0
VERTEX
  5
23EBD
  8
1DIM
 10
407.8016449416258
 20
-706.0199128310157
 30
0.0
  0
VERTEX
  5
23EBE
  8
1DIM
 10
407.7743724153873
 20
-706.0185727477395
 30
0.0
  0
VERTEX
  5
23EBF
  8
1DIM
 10
407.7474988790852
 20
-706.0172115582326
 30
0.0
  0
VERTEX
  5
23EC0
  8
1DIM
 10
407.7210249344101
 20
-706.0158290227895
 30
0.0
  0
VERTEX
  5
23EC1
  8
1DIM
 10
407.6949511830524
 20
-706.0144249017042
 30
0.0
  0
VERTEX
  5
23EC2
  8
1DIM
 10
407.6693047630408
 20
-706.0130000171342
 30
0.0
  0
VERTEX
  5
23EC3
  8
1DIM
 10
407.6441146652245
 20
-706.0115554482444
 30
0.0
  0
VERTEX
  5
23EC4
  8
1DIM
 10
407.619384270525
 20
-706.0100913408405
 30
0.0
  0
VERTEX
  5
23EC5
  8
1DIM
 10
407.5951169598638
 20
-706.0086078407284
 30
0.0
  0
VERTEX
  5
23EC6
  8
1DIM
 10
407.5713161141625
 20
-706.0071050937136
 30
0.0
  0
VERTEX
  5
23EC7
  8
1DIM
 10
407.5479851143423
 20
-706.005583245602
 30
0.0
  0
VERTEX
  5
23EC8
  8
1DIM
 10
407.5251273413249
 20
-706.0040424421995
 30
0.0
  0
VERTEX
  5
23EC9
  8
1DIM
 10
407.5027461760317
 20
-706.0024828293118
 30
0.0
  0
VERTEX
  5
23ECA
  8
1DIM
 10
407.4808449993841
 20
-706.0009045527446
 30
0.0
  0
VERTEX
  5
23ECB
  8
1DIM
 10
407.4594271923038
 20
-705.9993077583039
 30
0.0
  0
VERTEX
  5
23ECC
  8
1DIM
 10
407.438496135712
 20
-705.9976925917952
 30
0.0
  0
VERTEX
  5
23ECD
  8
1DIM
 10
407.4180552105304
 20
-705.9960591990242
 30
0.0
  0
VERTEX
  5
23ECE
  8
1DIM
 10
407.3981077976804
 20
-705.9944077257969
 30
0.0
  0
VERTEX
  5
23ECF
  8
1DIM
 10
407.3786572780835
 20
-705.9927383179192
 30
0.0
  0
VERTEX
  5
23ED0
  8
1DIM
 10
407.359707032661
 20
-705.9910511211965
 30
0.0
  0
VERTEX
  5
23ED1
  8
1DIM
 10
407.3412604423347
 20
-705.9893462814348
 30
0.0
  0
VERTEX
  5
23ED2
  8
1DIM
 10
407.3233208880258
 20
-705.98762394444
 30
0.0
  0
VERTEX
  5
23ED3
  8
1DIM
 10
407.3058756916971
 20
-705.9858828842907
 30
0.0
  0
VERTEX
  5
23ED4
  8
1DIM
 10
407.288911775583
 20
-705.9841218275145
 30
0.0
  0
VERTEX
  5
23ED5
  8
1DIM
 10
407.272431921013
 20
-705.9823408485893
 30
0.0
  0
VERTEX
  5
23ED6
  8
1DIM
 10
407.2564389093166
 20
-705.9805400219931
 30
0.0
  0
VERTEX
  5
23ED7
  8
1DIM
 10
407.240935521823
 20
-705.9787194222041
 30
0.0
  0
VERTEX
  5
23ED8
  8
1DIM
 10
407.2259245398619
 20
-705.9768791237003
 30
0.0
  0
VERTEX
  5
23ED9
  8
1DIM
 10
407.2114087447624
 20
-705.9750192009599
 30
0.0
  0
VERTEX
  5
23EDA
  8
1DIM
 10
407.1973909178542
 20
-705.9731397284609
 30
0.0
  0
VERTEX
  5
23EDB
  8
1DIM
 10
407.1838738404666
 20
-705.9712407806812
 30
0.0
  0
VERTEX
  5
23EDC
  8
1DIM
 10
407.170860293929
 20
-705.9693224320991
 30
0.0
  0
VERTEX
  5
23EDD
  8
1DIM
 10
407.1583530595709
 20
-705.9673847571927
 30
0.0
  0
VERTEX
  5
23EDE
  8
1DIM
 10
407.1463549187216
 20
-705.96542783044
 30
0.0
  0
VERTEX
  5
23EDF
  8
1DIM
 10
407.1348686527105
 20
-705.9634517263191
 30
0.0
  0
VERTEX
  5
23EE0
  8
1DIM
 10
407.1238970428672
 20
-705.9614565193081
 30
0.0
  0
VERTEX
  5
23EE1
  8
1DIM
 10
407.113442870521
 20
-705.9594422838848
 30
0.0
  0
VERTEX
  5
23EE2
  8
1DIM
 10
407.1035089170014
 20
-705.9574090945277
 30
0.0
  0
VERTEX
  5
23EE3
  8
1DIM
 10
407.0940979636377
 20
-705.9553570257145
 30
0.0
  0
VERTEX
  5
23EE4
  8
1DIM
 10
407.0852175754873
 20
-705.953288099708
 30
0.0
  0
VERTEX
  5
23EE5
  8
1DIM
 10
407.076873616249
 20
-705.9512042557321
 30
0.0
  0
VERTEX
  5
23EE6
  8
1DIM
 10
407.0690663152141
 20
-705.9491054437077
 30
0.0
  0
VERTEX
  5
23EE7
  8
1DIM
 10
407.0617959016745
 20
-705.9469916135548
 30
0.0
  0
VERTEX
  5
23EE8
  8
1DIM
 10
407.0550626049215
 20
-705.9448627151944
 30
0.0
  0
VERTEX
  5
23EE9
  8
1DIM
 10
407.0488666542466
 20
-705.9427186985467
 30
0.0
  0
VERTEX
  5
23EEA
  8
1DIM
 10
407.0432082789416
 20
-705.9405595135327
 30
0.0
  0
VERTEX
  5
23EEB
  8
1DIM
 10
407.0380877082978
 20
-705.9383851100723
 30
0.0
  0
VERTEX
  5
23EEC
  8
1DIM
 10
407.0335051716069
 20
-705.9361954380867
 30
0.0
  0
VERTEX
  5
23EED
  8
1DIM
 10
407.0294608981602
 20
-705.933990447496
 30
0.0
  0
VERTEX
  5
23EEE
  8
1DIM
 10
407.0259551172495
 20
-705.9317700882208
 30
0.0
  0
VERTEX
  5
23EEF
  8
1DIM
 10
407.0229880581662
 20
-705.9295343101818
 30
0.0
  0
VERTEX
  5
23EF0
  8
1DIM
 10
407.0205599502019
 20
-705.9272830632995
 30
0.0
  0
VERTEX
  5
23EF1
  8
1DIM
 10
407.018671022648
 20
-705.9250162974943
 30
0.0
  0
VERTEX
  5
23EF2
  8
1DIM
 10
407.0173215047962
 20
-705.9227339626867
 30
0.0
  0
VERTEX
  5
23EF3
  8
1DIM
 10
407.0165116259381
 20
-705.9204360087975
 30
0.0
  0
VERTEX
  5
23EF4
  8
1DIM
 10
407.0162416153649
 20
-705.9181223857472
 30
0.0
  0
SEQEND
  5
244FB
  8
1DIM
  0
LINE
  5
20083
  8
1DIM
 10
589.016241615365
 20
-706.0702938972995
 30
0.0
 11
411.0162416153649
 21
-706.0702938972995
 31
0.0
  0
POLYLINE
  5
20084
  8
1DIM
 66
     1
 10
0.0
 20
0.0
 30
0.0
  0
VERTEX
  5
23EF5
  8
1DIM
 10
589.016241615365
 20
-706.0702938972995
 30
0.0
  0
VERTEX
  5
23EF6
  8
1DIM
 10
589.0626826288371
 20
-706.0702868930268
 30
0.0
  0
VERTEX
  5
23EF7
  8
1DIM
 10
589.1090337769145
 20
-706.0702658750963
 30
0.0
  0
VERTEX
  5
23EF8
  8
1DIM
 10
589.1552952707315
 20
-706.0702308358392
 30
0.0
  0
VERTEX
  5
23EF9
  8
1DIM
 10
589.2014673214227
 20
-706.070181767587
 30
0.0
  0
VERTEX
  5
23EFA
  8
1DIM
 10
589.2475501401226
 20
-706.0701186626708
 30
0.0
  0
VERTEX
  5
23EFB
  8
1DIM
 10
589.2935439379659
 20
-706.0700415134216
 30
0.0
  0
VERTEX
  5
23EFC
  8
1DIM
 10
589.3394489260869
 20
-706.0699503121713
 30
0.0
  0
VERTEX
  5
23EFD
  8
1DIM
 10
589.3852653156204
 20
-706.0698450512507
 30
0.0
  0
VERTEX
  5
23EFE
  8
1DIM
 10
589.4309933177009
 20
-706.0697257229913
 30
0.0
  0
VERTEX
  5
23EFF
  8
1DIM
 10
589.4766331434629
 20
-706.0695923197243
 30
0.0
  0
VERTEX
  5
23F00
  8
1DIM
 10
589.5221850040411
 20
-706.069444833781
 30
0.0
  0
VERTEX
  5
23F01
  8
1DIM
 10
589.5676491105701
 20
-706.0692832574927
 30
0.0
  0
VERTEX
  5
23F02
  8
1DIM
 10
589.6130256741842
 20
-706.0691075831905
 30
0.0
  0
VERTEX
  5
23F03
  8
1DIM
 10
589.6583149060182
 20
-706.0689178032061
 30
0.0
  0
VERTEX
  5
23F04
  8
1DIM
 10
589.7035170172064
 20
-706.0687139098703
 30
0.0
  0
VERTEX
  5
23F05
  8
1DIM
 10
589.7486322188837
 20
-706.0684958955147
 30
0.0
  0
VERTEX
  5
23F06
  8
1DIM
 10
589.7936607221844
 20
-706.0682637524706
 30
0.0
  0
VERTEX
  5
23F07
  8
1DIM
 10
589.838627685641
 20
-706.0680171235365
 30
0.0
  0
VERTEX
  5
23F08
  8
1DIM
 10
589.883549980732
 20
-706.0677556327722
 30
0.0
  0
VERTEX
  5
23F09
  8
1DIM
 10
589.9284153880126
 20
-706.0674792444016
 30
0.0
  0
VERTEX
  5
23F0A
  8
1DIM
 10
589.973211688037
 20
-706.0671879226473
 30
0.0
  0
VERTEX
  5
23F0B
  8
1DIM
 10
590.0179266613601
 20
-706.0668816317329
 30
0.0
  0
VERTEX
  5
23F0C
  8
1DIM
 10
590.0625480885365
 20
-706.0665603358816
 30
0.0
  0
VERTEX
  5
23F0D
  8
1DIM
 10
590.1070637501207
 20
-706.0662239993165
 30
0.0
  0
VERTEX
  5
23F0E
  8
1DIM
 10
590.1514614266674
 20
-706.0658725862611
 30
0.0
  0
VERTEX
  5
23F0F
  8
1DIM
 10
590.1957288987313
 20
-706.0655060609386
 30
0.0
  0
VERTEX
  5
23F10
  8
1DIM
 10
590.239853946867
 20
-706.065124387572
 30
0.0
  0
VERTEX
  5
23F11
  8
1DIM
 10
590.2838243516292
 20
-706.0647275303849
 30
0.0
  0
VERTEX
  5
23F12
  8
1DIM
 10
590.3276278935724
 20
-706.0643154536003
 30
0.0
  0
VERTEX
  5
23F13
  8
1DIM
 10
590.3712523532514
 20
-706.0638881214416
 30
0.0
  0
VERTEX
  5
23F14
  8
1DIM
 10
590.4146855112207
 20
-706.0634454981318
 30
0.0
  0
VERTEX
  5
23F15
  8
1DIM
 10
590.457915148035
 20
-706.0629875478947
 30
0.0
  0
VERTEX
  5
23F16
  8
1DIM
 10
590.500929044249
 20
-706.062514234953
 30
0.0
  0
VERTEX
  5
23F17
  8
1DIM
 10
590.5437149804172
 20
-706.0620255235303
 30
0.0
  0
VERTEX
  5
23F18
  8
1DIM
 10
590.5862553006993
 20
-706.0615216568843
 30
0.0
  0
VERTEX
  5
23F19
  8
1DIM
 10
590.6285405635637
 20
-706.0610027892674
 30
0.0
  0
VERTEX
  5
23F1A
  8
1DIM
 10
590.6705708710284
 20
-706.0604687513951
 30
0.0
  0
VERTEX
  5
23F1B
  8
1DIM
 10
590.7123463251114
 20
-706.0599193739824
 30
0.0
  0
VERTEX
  5
23F1C
  8
1DIM
 10
590.7538670278306
 20
-706.0593544877448
 30
0.0
  0
VERTEX
  5
23F1D
  8
1DIM
 10
590.7951330812041
 20
-706.0587739233976
 30
0.0
  0
VERTEX
  5
23F1E
  8
1DIM
 10
590.8361445872497
 20
-706.0581775116558
 30
0.0
  0
VERTEX
  5
23F1F
  8
1DIM
 10
590.8769016479853
 20
-706.057565083235
 30
0.0
  0
VERTEX
  5
23F20
  8
1DIM
 10
590.9174043654292
 20
-706.0569364688502
 30
0.0
  0
VERTEX
  5
23F21
  8
1DIM
 10
590.9576528415992
 20
-706.0562914992169
 30
0.0
  0
VERTEX
  5
23F22
  8
1DIM
 10
590.9976471785131
 20
-706.05563000505
 30
0.0
  0
VERTEX
  5
23F23
  8
1DIM
 10
591.0373874781892
 20
-706.0549518170654
 30
0.0
  0
VERTEX
  5
23F24
  8
1DIM
 10
591.0768738426452
 20
-706.0542567659778
 30
0.0
  0
VERTEX
  5
23F25
  8
1DIM
 10
591.1161063738992
 20
-706.0535446825028
 30
0.0
  0
VERTEX
  5
23F26
  8
1DIM
 10
591.1550851739693
 20
-706.0528153973555
 30
0.0
  0
VERTEX
  5
23F27
  8
1DIM
 10
591.1938103448731
 20
-706.0520687412513
 30
0.0
  0
VERTEX
  5
23F28
  8
1DIM
 10
591.2322819886289
 20
-706.0513045449054
 30
0.0
  0
VERTEX
  5
23F29
  8
1DIM
 10
591.2705072761968
 20
-706.050522101242
 30
0.0
  0
VERTEX
  5
23F2A
  8
1DIM
 10
591.308485254899
 20
-706.0497208867674
 30
0.0
  0
VERTEX
  5
23F2B
  8
1DIM
 10
591.3462038412964
 20
-706.0489010075705
 30
0.0
  0
VERTEX
  5
23F2C
  8
1DIM
 10
591.3836509519499
 20
-706.0480625697402
 30
0.0
  0
VERTEX
  5
23F2D
  8
1DIM
 10
591.4208145034206
 20
-706.047205679365
 30
0.0
  0
VERTEX
  5
23F2E
  8
1DIM
 10
591.4576824122694
 20
-706.046330442534
 30
0.0
  0
VERTEX
  5
23F2F
  8
1DIM
 10
591.494242595057
 20
-706.0454369653356
 30
0.0
  0
VERTEX
  5
23F30
  8
1DIM
 10
591.5304829683446
 20
-706.0445253538587
 30
0.0
  0
VERTEX
  5
23F31
  8
1DIM
 10
591.566391448693
 20
-706.0435957141922
 30
0.0
  0
VERTEX
  5
23F32
  8
1DIM
 10
591.6019559526633
 20
-706.0426481524249
 30
0.0
  0
VERTEX
  5
23F33
  8
1DIM
 10
591.637164396816
 20
-706.0416827746454
 30
0.0
  0
VERTEX
  5
23F34
  8
1DIM
 10
591.6720046977126
 20
-706.0406996869426
 30
0.0
  0
VERTEX
  5
23F35
  8
1DIM
 10
591.7064647719137
 20
-706.0396989954053
 30
0.0
  0
VERTEX
  5
23F36
  8
1DIM
 10
591.7405325359803
 20
-706.0386808061221
 30
0.0
  0
VERTEX
  5
23F37
  8
1DIM
 10
591.7741959064734
 20
-706.0376452251818
 30
0.0
  0
VERTEX
  5
23F38
  8
1DIM
 10
591.8074427999537
 20
-706.0365923586734
 30
0.0
  0
VERTEX
  5
23F39
  8
1DIM
 10
591.8402611329824
 20
-706.0355223126854
 30
0.0
  0
VERTEX
  5
23F3A
  8
1DIM
 10
591.8726657745559
 20
-706.0344347971939
 30
0.0
  0
VERTEX
  5
23F3B
  8
1DIM
 10
591.9046792481699
 20
-706.0333292916451
 30
0.0
  0
VERTEX
  5
23F3C
  8
1DIM
 10
591.9363009521339
 20
-706.0322055563336
 30
0.0
  0
VERTEX
  5
23F3D
  8
1DIM
 10
591.9675302847573
 20
-706.0310633515535
 30
0.0
  0
VERTEX
  5
23F3E
  8
1DIM
 10
591.9983666443495
 20
-706.0299024375992
 30
0.0
  0
VERTEX
  5
23F3F
  8
1DIM
 10
592.0288094292202
 20
-706.028722574765
 30
0.0
  0
VERTEX
  5
23F40
  8
1DIM
 10
592.0588580376786
 20
-706.0275235233453
 30
0.0
  0
VERTEX
  5
23F41
  8
1DIM
 10
592.0885118680344
 20
-706.0263050436345
 30
0.0
  0
VERTEX
  5
23F42
  8
1DIM
 10
592.1177703185969
 20
-706.0250668959269
 30
0.0
  0
VERTEX
  5
23F43
  8
1DIM
 10
592.1466327876757
 20
-706.0238088405168
 30
0.0
  0
VERTEX
  5
23F44
  8
1DIM
 10
592.1750986735801
 20
-706.0225306376989
 30
0.0
  0
VERTEX
  5
23F45
  8
1DIM
 10
592.2031673746199
 20
-706.021232047767
 30
0.0
  0
VERTEX
  5
23F46
  8
1DIM
 10
592.2308382891042
 20
-706.0199128310157
 30
0.0
  0
VERTEX
  5
23F47
  8
1DIM
 10
592.2581108153427
 20
-706.0185727477395
 30
0.0
  0
VERTEX
  5
23F48
  8
1DIM
 10
592.2849843516447
 20
-706.0172115582326
 30
0.0
  0
VERTEX
  5
23F49
  8
1DIM
 10
592.3114582963199
 20
-706.0158290227895
 30
0.0
  0
VERTEX
  5
23F4A
  8
1DIM
 10
592.3375320476775
 20
-706.0144249017042
 30
0.0
  0
VERTEX
  5
23F4B
  8
1DIM
 10
592.3631784676892
 20
-706.0130000171342
 30
0.0
  0
VERTEX
  5
23F4C
  8
1DIM
 10
592.3883685655055
 20
-706.0115554482444
 30
0.0
  0
VERTEX
  5
23F4D
  8
1DIM
 10
592.4130989602049
 20
-706.0100913408405
 30
0.0
  0
VERTEX
  5
23F4E
  8
1DIM
 10
592.437366270866
 20
-706.0086078407284
 30
0.0
  0
VERTEX
  5
23F4F
  8
1DIM
 10
592.4611671165675
 20
-706.0071050937136
 30
0.0
  0
VERTEX
  5
23F50
  8
1DIM
 10
592.4844981163876
 20
-706.005583245602
 30
0.0
  0
VERTEX
  5
23F51
  8
1DIM
 10
592.5073558894051
 20
-706.0040424421995
 30
0.0
  0
VERTEX
  5
23F52
  8
1DIM
 10
592.5297370546982
 20
-706.0024828293118
 30
0.0
  0
VERTEX
  5
23F53
  8
1DIM
 10
592.5516382313457
 20
-706.0009045527446
 30
0.0
  0
VERTEX
  5
23F54
  8
1DIM
 10
592.5730560384261
 20
-705.9993077583039
 30
0.0
  0
VERTEX
  5
23F55
  8
1DIM
 10
592.5939870950177
 20
-705.9976925917952
 30
0.0
  0
VERTEX
  5
23F56
  8
1DIM
 10
592.6144280201994
 20
-705.9960591990242
 30
0.0
  0
VERTEX
  5
23F57
  8
1DIM
 10
592.6343754330495
 20
-705.9944077257969
 30
0.0
  0
VERTEX
  5
23F58
  8
1DIM
 10
592.6538259526465
 20
-705.9927383179192
 30
0.0
  0
VERTEX
  5
23F59
  8
1DIM
 10
592.6727761980687
 20
-705.9910511211965
 30
0.0
  0
VERTEX
  5
23F5A
  8
1DIM
 10
592.6912227883951
 20
-705.9893462814348
 30
0.0
  0
VERTEX
  5
23F5B
  8
1DIM
 10
592.709162342704
 20
-705.98762394444
 30
0.0
  0
VERTEX
  5
23F5C
  8
1DIM
 10
592.7266075390327
 20
-705.9858828842907
 30
0.0
  0
VERTEX
  5
23F5D
  8
1DIM
 10
592.7435714551468
 20
-705.9841218275145
 30
0.0
  0
VERTEX
  5
23F5E
  8
1DIM
 10
592.7600513097168
 20
-705.9823408485893
 30
0.0
  0
VERTEX
  5
23F5F
  8
1DIM
 10
592.7760443214132
 20
-705.9805400219931
 30
0.0
  0
VERTEX
  5
23F60
  8
1DIM
 10
592.7915477089067
 20
-705.9787194222041
 30
0.0
  0
VERTEX
  5
23F61
  8
1DIM
 10
592.806558690868
 20
-705.9768791237003
 30
0.0
  0
VERTEX
  5
23F62
  8
1DIM
 10
592.8210744859673
 20
-705.9750192009599
 30
0.0
  0
VERTEX
  5
23F63
  8
1DIM
 10
592.8350923128756
 20
-705.9731397284609
 30
0.0
  0
VERTEX
  5
23F64
  8
1DIM
 10
592.8486093902632
 20
-705.9712407806812
 30
0.0
  0
VERTEX
  5
23F65
  8
1DIM
 10
592.8616229368008
 20
-705.9693224320991
 30
0.0
  0
VERTEX
  5
23F66
  8
1DIM
 10
592.8741301711589
 20
-705.9673847571927
 30
0.0
  0
VERTEX
  5
23F67
  8
1DIM
 10
592.8861283120082
 20
-705.96542783044
 30
0.0
  0
VERTEX
  5
23F68
  8
1DIM
 10
592.8976145780192
 20
-705.9634517263191
 30
0.0
  0
VERTEX
  5
23F69
  8
1DIM
 10
592.9085861878626
 20
-705.9614565193081
 30
0.0
  0
VERTEX
  5
23F6A
  8
1DIM
 10
592.9190403602087
 20
-705.9594422838848
 30
0.0
  0
VERTEX
  5
23F6B
  8
1DIM
 10
592.9289743137283
 20
-705.9574090945277
 30
0.0
  0
VERTEX
  5
23F6C
  8
1DIM
 10
592.938385267092
 20
-705.9553570257145
 30
0.0
  0
VERTEX
  5
23F6D
  8
1DIM
 10
592.9472656552424
 20
-705.953288099708
 30
0.0
  0
VERTEX
  5
23F6E
  8
1DIM
 10
592.9556096144809
 20
-705.9512042557321
 30
0.0
  0
VERTEX
  5
23F6F
  8
1DIM
 10
592.9634169155155
 20
-705.9491054437077
 30
0.0
  0
VERTEX
  5
23F70
  8
1DIM
 10
592.9706873290553
 20
-705.9469916135548
 30
0.0
  0
VERTEX
  5
23F71
  8
1DIM
 10
592.9774206258082
 20
-705.9448627151944
 30
0.0
  0
VERTEX
  5
23F72
  8
1DIM
 10
592.9836165764831
 20
-705.9427186985467
 30
0.0
  0
VERTEX
  5
23F73
  8
1DIM
 10
592.9892749517882
 20
-705.9405595135327
 30
0.0
  0
VERTEX
  5
23F74
  8
1DIM
 10
592.9943955224319
 20
-705.9383851100723
 30
0.0
  0
VERTEX
  5
23F75
  8
1DIM
 10
592.9989780591229
 20
-705.9361954380867
 30
0.0
  0
VERTEX
  5
23F76
  8
1DIM
 10
593.0030223325697
 20
-705.933990447496
 30
0.0
  0
VERTEX
  5
23F77
  8
1DIM
 10
593.0065281134804
 20
-705.9317700882208
 30
0.0
  0
VERTEX
  5
23F78
  8
1DIM
 10
593.0094951725637
 20
-705.9295343101818
 30
0.0
  0
VERTEX
  5
23F79
  8
1DIM
 10
593.011923280528
 20
-705.9272830632995
 30
0.0
  0
VERTEX
  5
23F7A
  8
1DIM
 10
593.0138122080818
 20
-705.9250162974943
 30
0.0
  0
VERTEX
  5
23F7B
  8
1DIM
 10
593.0151617259336
 20
-705.9227339626867
 30
0.0
  0
VERTEX
  5
23F7C
  8
1DIM
 10
593.0159716047918
 20
-705.9204360087975
 30
0.0
  0
VERTEX
  5
23F7D
  8
1DIM
 10
593.016241615365
 20
-705.9181223857472
 30
0.0
  0
SEQEND
  5
244FC
  8
1DIM
  0
POLYLINE
  5
20085
  8
01
  6
CONTINUOUS
 66
     1
 10
0.0
 20
0.0
 30
0.0
  0
VERTEX
  5
23F7E
  8
01
  6
CONTINUOUS
 10
600.016241615365
 20
-698.6541654506996
 30
0.0
  0
VERTEX
  5
23F7F
  8
01
  6
CONTINUOUS
 10
600.015861905303
 20
-698.6338931046247
 30
0.0
  0
VERTEX
  5
23F80
  8
01
  6
CONTINUOUS
 10
600.0147279256615
 20
-698.6136820039835
 30
0.0
  0
VERTEX
  5
23F81
  8
01
  6
CONTINUOUS
 10
600.012847402256
 20
-698.5935562601735
 30
0.0
  0
VERTEX
  5
23F82
  8
01
  6
CONTINUOUS
 10
600.0102280609027
 20
-698.5735399845926
 30
0.0
  0
VERTEX
  5
23F83
  8
01
  6
CONTINUOUS
 10
600.0068776274173
 20
-698.5536572886383
 30
0.0
  0
VERTEX
  5
23F84
  8
01
  6
CONTINUOUS
 10
600.0028038276159
 20
-698.5339322837083
 30
0.0
  0
VERTEX
  5
23F85
  8
01
  6
CONTINUOUS
 10
599.9980143873145
 20
-698.5143890812003
 30
0.0
  0
VERTEX
  5
23F86
  8
01
  6
CONTINUOUS
 10
599.9925170323287
 20
-698.4950517925121
 30
0.0
  0
VERTEX
  5
23F87
  8
01
  6
CONTINUOUS
 10
599.9863194884747
 20
-698.4759445290412
 30
0.0
  0
VERTEX
  5
23F88
  8
01
  6
CONTINUOUS
 10
599.9794294815683
 20
-698.4570914021854
 30
0.0
  0
VERTEX
  5
23F89
  8
01
  6
CONTINUOUS
 10
599.9718547374254
 20
-698.4385165233421
 30
0.0
  0
VERTEX
  5
23F8A
  8
01
  6
CONTINUOUS
 10
599.963602981862
 20
-698.4202440039094
 30
0.0
  0
VERTEX
  5
23F8B
  8
01
  6
CONTINUOUS
 10
599.954681940694
 20
-698.4022979552847
 30
0.0
  0
VERTEX
  5
23F8C
  8
01
  6
CONTINUOUS
 10
599.9450993397371
 20
-698.3847024888656
 30
0.0
  0
VERTEX
  5
23F8D
  8
01
  6
CONTINUOUS
 10
599.9348629048076
 20
-698.36748171605
 30
0.0
  0
VERTEX
  5
23F8E
  8
01
  6
CONTINUOUS
 10
599.9239803617213
 20
-698.3506597482354
 30
0.0
  0
VERTEX
  5
23F8F
  8
01
  6
CONTINUOUS
 10
599.9124594362938
 20
-698.3342606968197
 30
0.0
  0
VERTEX
  5
23F90
  8
01
  6
CONTINUOUS
 10
599.9003078543415
 20
-698.3183086732002
 30
0.0
  0
VERTEX
  5
23F91
  8
01
  6
CONTINUOUS
 10
599.8875333416801
 20
-698.3028277887752
 30
0.0
  0
VERTEX
  5
23F92
  8
01
  6
CONTINUOUS
 10
599.8741436241254
 20
-698.2878421549417
 30
0.0
  0
VERTEX
  5
23F93
  8
01
  6
CONTINUOUS
 10
599.8601547470892
 20
-698.2734007369507
 30
0.0
  0
VERTEX
  5
23F94
  8
01
  6
CONTINUOUS
 10
599.8455953137596
 20
-698.259547418322
 30
0.0
  0
VERTEX
  5
23F95
  8
01
  6
CONTINUOUS
 10
599.830491886617
 20
-698.246298687856
 30
0.0
  0
VERTEX
  5
23F96
  8
01
  6
CONTINUOUS
 10
599.8148710281419
 20
-698.233671034354
 30
0.0
  0
VERTEX
  5
23F97
  8
01
  6
CONTINUOUS
 10
599.7987593008146
 20
-698.2216809466166
 30
0.0
  0
VERTEX
  5
23F98
  8
01
  6
CONTINUOUS
 10
599.7821832671158
 20
-698.210344913445
 30
0.0
  0
VERTEX
  5
23F99
  8
01
  6
CONTINUOUS
 10
599.7651694895256
 20
-698.1996794236402
 30
0.0
  0
VERTEX
  5
23F9A
  8
01
  6
CONTINUOUS
 10
599.7477445305249
 20
-698.1897009660026
 30
0.0
  0
VERTEX
  5
23F9B
  8
01
  6
CONTINUOUS
 10
599.7299349525939
 20
-698.1804260293337
 30
0.0
  0
VERTEX
  5
23F9C
  8
01
  6
CONTINUOUS
 10
599.7117673182129
 20
-698.1718711024339
 30
0.0
  0
VERTEX
  5
23F9D
  8
01
  6
CONTINUOUS
 10
599.6932681898628
 20
-698.1640526741046
 30
0.0
  0
VERTEX
  5
23F9E
  8
01
  6
CONTINUOUS
 10
599.6744641300236
 20
-698.1569872331463
 30
0.0
  0
VERTEX
  5
23F9F
  8
01
  6
CONTINUOUS
 10
599.6553817011761
 20
-698.1506912683601
 30
0.0
  0
VERTEX
  5
23FA0
  8
01
  6
CONTINUOUS
 10
599.6360474658005
 20
-698.1451812685469
 30
0.0
  0
VERTEX
  5
23FA1
  8
01
  6
CONTINUOUS
 10
599.6164879863774
 20
-698.1404737225075
 30
0.0
  0
VERTEX
  5
23FA2
  8
01
  6
CONTINUOUS
 10
599.5967298253872
 20
-698.1365851190432
 30
0.0
  0
VERTEX
  5
23FA3
  8
01
  6
CONTINUOUS
 10
599.5767995453105
 20
-698.1335319469542
 30
0.0
  0
VERTEX
  5
23FA4
  8
01
  6
CONTINUOUS
 10
599.5567237086275
 20
-698.1313306950422
 30
0.0
  0
VERTEX
  5
23FA5
  8
01
  6
CONTINUOUS
 10
599.5365288778188
 20
-698.1299978521075
 30
0.0
  0
VERTEX
  5
23FA6
  8
01
  6
CONTINUOUS
 10
599.516241615365
 20
-698.1295499069513
 30
0.0
  0
SEQEND
  5
244FD
  8
01
  6
CONTINUOUS
  0
LINE
  5
20086
  8
01
  6
CONTINUOUS
 10
600.016241615365
 20
-706.6112803452138
 30
0.0
 11
600.016241615365
 21
-698.6541654506996
 31
0.0
  0
LINE
  5
20087
  8
01
  6
CONTINUOUS
 10
400.0162416153649
 20
-706.6112803452138
 30
0.0
 11
400.0162416153649
 21
-698.6541654506996
 31
0.0
  0
POLYLINE
  5
20088
  8
01
  6
CONTINUOUS
 66
     1
 10
0.0
 20
0.0
 30
0.0
  0
VERTEX
  5
23FA7
  8
01
  6
CONTINUOUS
 10
400.0162416153649
 20
-698.6541654506996
 30
0.0
  0
VERTEX
  5
23FA8
  8
01
  6
CONTINUOUS
 10
400.0166213254268
 20
-698.6338931046247
 30
0.0
  0
VERTEX
  5
23FA9
  8
01
  6
CONTINUOUS
 10
400.0177553050684
 20
-698.6136820039835
 30
0.0
  0
VERTEX
  5
23FAA
  8
01
  6
CONTINUOUS
 10
400.0196358284738
 20
-698.5935562601735
 30
0.0
  0
VERTEX
  5
23FAB
  8
01
  6
CONTINUOUS
 10
400.0222551698271
 20
-698.5735399845926
 30
0.0
  0
VERTEX
  5
23FAC
  8
01
  6
CONTINUOUS
 10
400.0256056033124
 20
-698.5536572886383
 30
0.0
  0
VERTEX
  5
23FAD
  8
01
  6
CONTINUOUS
 10
400.0296794031138
 20
-698.5339322837083
 30
0.0
  0
VERTEX
  5
23FAE
  8
01
  6
CONTINUOUS
 10
400.0344688434153
 20
-698.5143890812003
 30
0.0
  0
VERTEX
  5
23FAF
  8
01
  6
CONTINUOUS
 10
400.039966198401
 20
-698.4950517925121
 30
0.0
  0
VERTEX
  5
23FB0
  8
01
  6
CONTINUOUS
 10
400.046163742255
 20
-698.4759445290412
 30
0.0
  0
VERTEX
  5
23FB1
  8
01
  6
CONTINUOUS
 10
400.0530537491614
 20
-698.4570914021854
 30
0.0
  0
VERTEX
  5
23FB2
  8
01
  6
CONTINUOUS
 10
400.0606284933043
 20
-698.4385165233421
 30
0.0
  0
VERTEX
  5
23FB3
  8
01
  6
CONTINUOUS
 10
400.0688802488677
 20
-698.4202440039094
 30
0.0
  0
VERTEX
  5
23FB4
  8
01
  6
CONTINUOUS
 10
400.0778012900358
 20
-698.4022979552847
 30
0.0
  0
VERTEX
  5
23FB5
  8
01
  6
CONTINUOUS
 10
400.0873838909926
 20
-698.3847024888656
 30
0.0
  0
VERTEX
  5
23FB6
  8
01
  6
CONTINUOUS
 10
400.0976203259222
 20
-698.36748171605
 30
0.0
  0
VERTEX
  5
23FB7
  8
01
  6
CONTINUOUS
 10
400.1085028690085
 20
-698.3506597482354
 30
0.0
  0
VERTEX
  5
23FB8
  8
01
  6
CONTINUOUS
 10
400.1200237944358
 20
-698.3342606968197
 30
0.0
  0
VERTEX
  5
23FB9
  8
01
  6
CONTINUOUS
 10
400.1321753763883
 20
-698.3183086732002
 30
0.0
  0
VERTEX
  5
23FBA
  8
01
  6
CONTINUOUS
 10
400.1449498890497
 20
-698.3028277887752
 30
0.0
  0
VERTEX
  5
23FBB
  8
01
  6
CONTINUOUS
 10
400.1583396066044
 20
-698.2878421549417
 30
0.0
  0
VERTEX
  5
23FBC
  8
01
  6
CONTINUOUS
 10
400.1723284836406
 20
-698.2734007369507
 30
0.0
  0
VERTEX
  5
23FBD
  8
01
  6
CONTINUOUS
 10
400.1868879169702
 20
-698.259547418322
 30
0.0
  0
VERTEX
  5
23FBE
  8
01
  6
CONTINUOUS
 10
400.2019913441128
 20
-698.246298687856
 30
0.0
  0
VERTEX
  5
23FBF
  8
01
  6
CONTINUOUS
 10
400.2176122025879
 20
-698.233671034354
 30
0.0
  0
VERTEX
  5
23FC0
  8
01
  6
CONTINUOUS
 10
400.2337239299153
 20
-698.2216809466166
 30
0.0
  0
VERTEX
  5
23FC1
  8
01
  6
CONTINUOUS
 10
400.2502999636142
 20
-698.210344913445
 30
0.0
  0
VERTEX
  5
23FC2
  8
01
  6
CONTINUOUS
 10
400.2673137412042
 20
-698.1996794236402
 30
0.0
  0
VERTEX
  5
23FC3
  8
01
  6
CONTINUOUS
 10
400.284738700205
 20
-698.1897009660026
 30
0.0
  0
VERTEX
  5
23FC4
  8
01
  6
CONTINUOUS
 10
400.302548278136
 20
-698.1804260293337
 30
0.0
  0
VERTEX
  5
23FC5
  8
01
  6
CONTINUOUS
 10
400.3207159125169
 20
-698.1718711024339
 30
0.0
  0
VERTEX
  5
23FC6
  8
01
  6
CONTINUOUS
 10
400.3392150408671
 20
-698.1640526741046
 30
0.0
  0
VERTEX
  5
23FC7
  8
01
  6
CONTINUOUS
 10
400.3580191007062
 20
-698.1569872331463
 30
0.0
  0
VERTEX
  5
23FC8
  8
01
  6
CONTINUOUS
 10
400.3771015295538
 20
-698.1506912683601
 30
0.0
  0
VERTEX
  5
23FC9
  8
01
  6
CONTINUOUS
 10
400.3964357649293
 20
-698.1451812685469
 30
0.0
  0
VERTEX
  5
23FCA
  8
01
  6
CONTINUOUS
 10
400.4159952443524
 20
-698.1404737225075
 30
0.0
  0
VERTEX
  5
23FCB
  8
01
  6
CONTINUOUS
 10
400.4357534053426
 20
-698.1365851190432
 30
0.0
  0
VERTEX
  5
23FCC
  8
01
  6
CONTINUOUS
 10
400.4556836854193
 20
-698.1335319469542
 30
0.0
  0
VERTEX
  5
23FCD
  8
01
  6
CONTINUOUS
 10
400.4757595221023
 20
-698.1313306950422
 30
0.0
  0
VERTEX
  5
23FCE
  8
01
  6
CONTINUOUS
 10
400.4959543529109
 20
-698.1299978521075
 30
0.0
  0
VERTEX
  5
23FCF
  8
01
  6
CONTINUOUS
 10
400.5162416153648
 20
-698.1295499069513
 30
0.0
  0
SEQEND
  5
244FE
  8
01
  6
CONTINUOUS
  0
LINE
  5
20089
  8
01
  6
CONTINUOUS
 10
411.0162416153649
 20
-706.0699416455618
 30
0.0
 11
411.0162416153649
 21
-706.0702938972995
 31
0.0
  0
LINE
  5
2008A
  8
01
  6
CONTINUOUS
 10
589.016241615365
 20
-706.0699416455618
 30
0.0
 11
589.016241615365
 21
-706.0702938972995
 31
0.0
  0
ARC
  5
2008B
  8
1DIM
 10
407.0270395993145
 20
-703.4075440730405
 30
0.0
 40
0.9892636091442067
 50
0.639366498541539
 51
90.6254057942735
  0
LINE
  5
2008C
  8
1DIM
 10
408.0162416153649
 20
-703.3965050595498
 30
0.0
 11
408.0162416153649
 21
-706.0845607444926
 31
0.0
  0
LINE
  5
2008D
  8
1DIM
 10
592.016241615365
 20
-703.3965050595498
 30
0.0
 11
592.016241615365
 21
-706.0847304925517
 31
0.0
  0
ARC
  5
2008E
  8
1DIM
 10
593.0054436314152
 20
-703.4075440730405
 30
0.0
 40
0.9892636091442009
 50
89.37459420571346
 51
179.3606335014585
  0
POLYLINE
  5
2008F
  8
1DIM
 66
     1
 10
0.0
 20
0.0
 30
0.0
  0
VERTEX
  5
23FD0
  8
1DIM
 10
587.016241615365
 20
-702.0083374734616
 30
0.0
  0
VERTEX
  5
23FD1
  8
1DIM
 10
587.0693567691656
 20
-702.0084218530841
 30
0.0
  0
VERTEX
  5
23FD2
  8
1DIM
 10
587.1224198746726
 20
-702.008674856906
 30
0.0
  0
VERTEX
  5
23FD3
  8
1DIM
 10
587.1754294913844
 20
-702.0090962823589
 30
0.0
  0
VERTEX
  5
23FD4
  8
1DIM
 10
587.2283841787989
 20
-702.009685926874
 30
0.0
  0
VERTEX
  5
23FD5
  8
1DIM
 10
587.281282496414
 20
-702.0104435878832
 30
0.0
  0
VERTEX
  5
23FD6
  8
1DIM
 10
587.3341230037278
 20
-702.0113690628175
 30
0.0
  0
VERTEX
  5
23FD7
  8
1DIM
 10
587.3869042602382
 20
-702.0124621491088
 30
0.0
  0
VERTEX
  5
23FD8
  8
1DIM
 10
587.4396248254434
 20
-702.0137226441884
 30
0.0
  0
VERTEX
  5
23FD9
  8
1DIM
 10
587.4922832588413
 20
-702.0151503454878
 30
0.0
  0
VERTEX
  5
23FDA
  8
1DIM
 10
587.5448781199299
 20
-702.0167450504384
 30
0.0
  0
VERTEX
  5
23FDB
  8
1DIM
 10
587.5974079682072
 20
-702.0185065564721
 30
0.0
  0
VERTEX
  5
23FDC
  8
1DIM
 10
587.6498713631713
 20
-702.0204346610199
 30
0.0
  0
VERTEX
  5
23FDD
  8
1DIM
 10
587.7022668643201
 20
-702.0225291615134
 30
0.0
  0
VERTEX
  5
23FDE
  8
1DIM
 10
587.7545930311517
 20
-702.0247898553843
 30
0.0
  0
VERTEX
  5
23FDF
  8
1DIM
 10
587.8068484231641
 20
-702.0272165400638
 30
0.0
  0
VERTEX
  5
23FE0
  8
1DIM
 10
587.8590315998553
 20
-702.0298090129836
 30
0.0
  0
VERTEX
  5
23FE1
  8
1DIM
 10
587.9111411207233
 20
-702.0325670715752
 30
0.0
  0
VERTEX
  5
23FE2
  8
1DIM
 10
587.963175545266
 20
-702.0354905132699
 30
0.0
  0
VERTEX
  5
23FE3
  8
1DIM
 10
588.0151334329818
 20
-702.0385791354994
 30
0.0
  0
VERTEX
  5
23FE4
  8
1DIM
 10
588.066943902032
 20
-702.041828058068
 30
0.0
  0
VERTEX
  5
23FE5
  8
1DIM
 10
588.1185374617298
 20
-702.0452320940906
 30
0.0
  0
VERTEX
  5
23FE6
  8
1DIM
 10
588.1699147583003
 20
-702.0487905809644
 30
0.0
  0
VERTEX
  5
23FE7
  8
1DIM
 10
588.2210764379687
 20
-702.0525028560864
 30
0.0
  0
VERTEX
  5
23FE8
  8
1DIM
 10
588.2720231469599
 20
-702.056368256854
 30
0.0
  0
VERTEX
  5
23FE9
  8
1DIM
 10
588.3227555314991
 20
-702.0603861206642
 30
0.0
  0
VERTEX
  5
23FEA
  8
1DIM
 10
588.3732742378114
 20
-702.0645557849144
 30
0.0
  0
VERTEX
  5
23FEB
  8
1DIM
 10
588.4235799121219
 20
-702.0688765870016
 30
0.0
  0
VERTEX
  5
23FEC
  8
1DIM
 10
588.4736732006558
 20
-702.0733478643228
 30
0.0
  0
VERTEX
  5
23FED
  8
1DIM
 10
588.5235547496379
 20
-702.0779689542755
 30
0.0
  0
VERTEX
  5
23FEE
  8
1DIM
 10
588.5732252052935
 20
-702.0827391942569
 30
0.0
  0
VERTEX
  5
23FEF
  8
1DIM
 10
588.6226852138477
 20
-702.0876579216638
 30
0.0
  0
VERTEX
  5
23FF0
  8
1DIM
 10
588.6719354215255
 20
-702.0927244738936
 30
0.0
  0
VERTEX
  5
23FF1
  8
1DIM
 10
588.7209764745521
 20
-702.0979381883435
 30
0.0
  0
VERTEX
  5
23FF2
  8
1DIM
 10
588.7698090191526
 20
-702.1032984024105
 30
0.0
  0
VERTEX
  5
23FF3
  8
1DIM
 10
588.818433701552
 20
-702.108804453492
 30
0.0
  0
VERTEX
  5
23FF4
  8
1DIM
 10
588.8668511679753
 20
-702.114455678985
 30
0.0
  0
VERTEX
  5
23FF5
  8
1DIM
 10
588.9150620646478
 20
-702.1202514162869
 30
0.0
  0
VERTEX
  5
23FF6
  8
1DIM
 10
588.9630670377945
 20
-702.1261910027946
 30
0.0
  0
VERTEX
  5
23FF7
  8
1DIM
 10
589.0108657616274
 20
-702.1322743966039
 30
0.0
  0
VERTEX
  5
23FF8
  8
1DIM
 10
589.0584572539761
 20
-702.1385019659645
 30
0.0
  0
VERTEX
  5
23FF9
  8
1DIM
 10
589.1058411764922
 20
-702.1448736635055
 30
0.0
  0
VERTEX
  5
23FFA
  8
1DIM
 10
589.1530171908266
 20
-702.1513894418557
 30
0.0
  0
VERTEX
  5
23FFB
  8
1DIM
 10
589.199984958631
 20
-702.1580492536438
 30
0.0
  0
VERTEX
  5
23FFC
  8
1DIM
 10
589.2467441415567
 20
-702.1648530514985
 30
0.0
  0
VERTEX
  5
23FFD
  8
1DIM
 10
589.2932944012551
 20
-702.1718007880489
 30
0.0
  0
VERTEX
  5
23FFE
  8
1DIM
 10
589.3396353993776
 20
-702.1788924159234
 30
0.0
  0
VERTEX
  5
23FFF
  8
1DIM
 10
589.3857667975753
 20
-702.1861278877514
 30
0.0
  0
VERTEX
  5
24000
  8
1DIM
 10
589.431688425723
 20
-702.1935075158027
 30
0.0
  0
VERTEX
  5
24001
  8
1DIM
 10
589.4773922745601
 20
-702.2010315686662
 30
0.0
  0
VERTEX
  5
24002
  8
1DIM
 10
589.5228559911026
 20
-702.2086956515573
 30
0.0
  0
VERTEX
  5
24003
  8
1DIM
 10
589.5680560896709
 20
-702.2164948053957
 30
0.0
  0
VERTEX
  5
24004
  8
1DIM
 10
589.612969084586
 20
-702.224424071101
 30
0.0
  0
VERTEX
  5
24005
  8
1DIM
 10
589.6575714901684
 20
-702.2324784895927
 30
0.0
  0
VERTEX
  5
24006
  8
1DIM
 10
589.7018398207388
 20
-702.2406531017904
 30
0.0
  0
VERTEX
  5
24007
  8
1DIM
 10
589.7457505906178
 20
-702.2489429486135
 30
0.0
  0
VERTEX
  5
24008
  8
1DIM
 10
589.7892803141261
 20
-702.2573430709818
 30
0.0
  0
VERTEX
  5
24009
  8
1DIM
 10
589.8324055055848
 20
-702.2658485098145
 30
0.0
  0
VERTEX
  5
2400A
  8
1DIM
 10
589.8751375026176
 20
-702.2744590150293
 30
0.0
  0
VERTEX
  5
2400B
  8
1DIM
 10
589.917503694799
 20
-702.2831773018368
 30
0.0
  0
VERTEX
  5
2400C
  8
1DIM
 10
589.959504674375
 20
-702.2920028590962
 30
0.0
  0
VERTEX
  5
2400D
  8
1DIM
 10
590.0011410335909
 20
-702.3009351756666
 30
0.0
  0
VERTEX
  5
2400E
  8
1DIM
 10
590.0424133646926
 20
-702.3099737404073
 30
0.0
  0
VERTEX
  5
2400F
  8
1DIM
 10
590.0833222599256
 20
-702.3191180421777
 30
0.0
  0
VERTEX
  5
24010
  8
1DIM
 10
590.1238683115358
 20
-702.3283675698367
 30
0.0
  0
VERTEX
  5
24011
  8
1DIM
 10
590.1640521117687
 20
-702.3377218122439
 30
0.0
  0
VERTEX
  5
24012
  8
1DIM
 10
590.20387425287
 20
-702.3471802582582
 30
0.0
  0
VERTEX
  5
24013
  8
1DIM
 10
590.2433353270857
 20
-702.3567423967389
 30
0.0
  0
VERTEX
  5
24014
  8
1DIM
 10
590.2824359266609
 20
-702.3664077165455
 30
0.0
  0
VERTEX
  5
24015
  8
1DIM
 10
590.3211766438418
 20
-702.3761757065369
 30
0.0
  0
VERTEX
  5
24016
  8
1DIM
 10
590.3595580708737
 20
-702.3860458555724
 30
0.0
  0
VERTEX
  5
24017
  8
1DIM
 10
590.3975808000026
 20
-702.3960176525114
 30
0.0
  0
VERTEX
  5
24018
  8
1DIM
 10
590.4352454234739
 20
-702.406090586213
 30
0.0
  0
VERTEX
  5
24019
  8
1DIM
 10
590.4725525335336
 20
-702.4162641455364
 30
0.0
  0
VERTEX
  5
2401A
  8
1DIM
 10
590.5095027224271
 20
-702.4265378193409
 30
0.0
  0
VERTEX
  5
2401B
  8
1DIM
 10
590.5460965824001
 20
-702.4369110964856
 30
0.0
  0
VERTEX
  5
2401C
  8
1DIM
 10
590.5823347056985
 20
-702.44738346583
 30
0.0
  0
VERTEX
  5
2401D
  8
1DIM
 10
590.6182212131789
 20
-702.4579586503497
 30
0.0
  0
VERTEX
  5
2401E
  8
1DIM
 10
590.6537543749066
 20
-702.4686383815751
 30
0.0
  0
VERTEX
  5
2401F
  8
1DIM
 10
590.6889260069396
 20
-702.4794191611969
 30
0.0
  0
VERTEX
  5
24020
  8
1DIM
 10
590.7237279253358
 20
-702.4902974909058
 30
0.0
  0
VERTEX
  5
24021
  8
1DIM
 10
590.7581519461534
 20
-702.5012698723925
 30
0.0
  0
VERTEX
  5
24022
  8
1DIM
 10
590.7921898854501
 20
-702.5123328073474
 30
0.0
  0
VERTEX
  5
24023
  8
1DIM
 10
590.8258335592844
 20
-702.5234827974615
 30
0.0
  0
VERTEX
  5
24024
  8
1DIM
 10
590.8590747837138
 20
-702.5347163444253
 30
0.0
  0
VERTEX
  5
24025
  8
1DIM
 10
590.8919053747969
 20
-702.5460299499294
 30
0.0
  0
VERTEX
  5
24026
  8
1DIM
 10
590.9243171485913
 20
-702.5574201156646
 30
0.0
  0
VERTEX
  5
24027
  8
1DIM
 10
590.9563019211552
 20
-702.5688833433215
 30
0.0
  0
VERTEX
  5
24028
  8
1DIM
 10
590.9878515085464
 20
-702.5804161345909
 30
0.0
  0
VERTEX
  5
24029
  8
1DIM
 10
591.0189577268233
 20
-702.5920149911634
 30
0.0
  0
VERTEX
  5
2402A
  8
1DIM
 10
591.0496123920437
 20
-702.6036764147294
 30
0.0
  0
VERTEX
  5
2402B
  8
1DIM
 10
591.0798073202656
 20
-702.61539690698
 30
0.0
  0
VERTEX
  5
2402C
  8
1DIM
 10
591.109534327547
 20
-702.6271729696057
 30
0.0
  0
VERTEX
  5
2402D
  8
1DIM
 10
591.138785229946
 20
-702.639001104297
 30
0.0
  0
VERTEX
  5
2402E
  8
1DIM
 10
591.1675518435209
 20
-702.6508778127447
 30
0.0
  0
VERTEX
  5
2402F
  8
1DIM
 10
591.1958259843292
 20
-702.6627995966396
 30
0.0
  0
VERTEX
  5
24030
  8
1DIM
 10
591.2236227693763
 20
-702.6747687629676
 30
0.0
  0
VERTEX
  5
24031
  8
1DIM
 10
591.2509626982268
 20
-702.6867897764449
 30
0.0
  0
VERTEX
  5
24032
  8
1DIM
 10
591.2778456607778
 20
-702.698862375358
 30
0.0
  0
VERTEX
  5
24033
  8
1DIM
 10
591.3042715469261
 20
-702.7109862979925
 30
0.0
  0
VERTEX
  5
24034
  8
1DIM
 10
591.3302402465691
 20
-702.7231612826347
 30
0.0
  0
VERTEX
  5
24035
  8
1DIM
 10
591.3557516496037
 20
-702.7353870675706
 30
0.0
  0
VERTEX
  5
24036
  8
1DIM
 10
591.380805645927
 20
-702.7476633910865
 30
0.0
  0
VERTEX
  5
24037
  8
1DIM
 10
591.4054021254359
 20
-702.7599899914682
 30
0.0
  0
VERTEX
  5
24038
  8
1DIM
 10
591.4295409780278
 20
-702.7723666070018
 30
0.0
  0
VERTEX
  5
24039
  8
1DIM
 10
591.4532220935995
 20
-702.7847929759736
 30
0.0
  0
VERTEX
  5
2403A
  8
1DIM
 10
591.4764453620481
 20
-702.7972688366694
 30
0.0
  0
VERTEX
  5
2403B
  8
1DIM
 10
591.4992106732708
 20
-702.8097939273756
 30
0.0
  0
VERTEX
  5
2403C
  8
1DIM
 10
591.5215179171646
 20
-702.822367986378
 30
0.0
  0
VERTEX
  5
2403D
  8
1DIM
 10
591.5433669836265
 20
-702.8349907519628
 30
0.0
  0
VERTEX
  5
2403E
  8
1DIM
 10
591.5647577625537
 20
-702.8476619624159
 30
0.0
  0
VERTEX
  5
2403F
  8
1DIM
 10
591.5856901438431
 20
-702.8603813560237
 30
0.0
  0
VERTEX
  5
24040
  8
1DIM
 10
591.6061640173918
 20
-702.873148671072
 30
0.0
  0
VERTEX
  5
24041
  8
1DIM
 10
591.626179273097
 20
-702.885963645847
 30
0.0
  0
VERTEX
  5
24042
  8
1DIM
 10
591.6457358008558
 20
-702.8988260186348
 30
0.0
  0
VERTEX
  5
24043
  8
1DIM
 10
591.6648193983056
 20
-702.9117297419394
 30
0.0
  0
VERTEX
  5
24044
  8
1DIM
 10
591.6834146781309
 20
-702.9246672363627
 30
0.0
  0
VERTEX
  5
24045
  8
1DIM
 10
591.7015197527995
 20
-702.9376359423381
 30
0.0
  0
VERTEX
  5
24046
  8
1DIM
 10
591.7191327347792
 20
-702.9506333002993
 30
0.0
  0
VERTEX
  5
24047
  8
1DIM
 10
591.7362517365374
 20
-702.9636567506793
 30
0.0
  0
VERTEX
  5
24048
  8
1DIM
 10
591.752874870542
 20
-702.9767037339119
 30
0.0
  0
VERTEX
  5
24049
  8
1DIM
 10
591.7690002492606
 20
-702.9897716904302
 30
0.0
  0
VERTEX
  5
2404A
  8
1DIM
 10
591.7846259851609
 20
-703.0028580606676
 30
0.0
  0
VERTEX
  5
2404B
  8
1DIM
 10
591.7997501907106
 20
-703.0159602850576
 30
0.0
  0
VERTEX
  5
2404C
  8
1DIM
 10
591.8143709783774
 20
-703.0290758040336
 30
0.0
  0
VERTEX
  5
2404D
  8
1DIM
 10
591.8284864606289
 20
-703.0422020580289
 30
0.0
  0
VERTEX
  5
2404E
  8
1DIM
 10
591.8420947499329
 20
-703.0553364874769
 30
0.0
  0
VERTEX
  5
2404F
  8
1DIM
 10
591.8551939587569
 20
-703.068476532811
 30
0.0
  0
VERTEX
  5
24050
  8
1DIM
 10
591.8677821995688
 20
-703.0816196344647
 30
0.0
  0
VERTEX
  5
24051
  8
1DIM
 10
591.8798575848361
 20
-703.0947632328713
 30
0.0
  0
VERTEX
  5
24052
  8
1DIM
 10
591.8914182270266
 20
-703.1079047684641
 30
0.0
  0
VERTEX
  5
24053
  8
1DIM
 10
591.902462238608
 20
-703.1210416816766
 30
0.0
  0
VERTEX
  5
24054
  8
1DIM
 10
591.9129877320479
 20
-703.1341714129421
 30
0.0
  0
VERTEX
  5
24055
  8
1DIM
 10
591.922992819814
 20
-703.1472914026942
 30
0.0
  0
VERTEX
  5
24056
  8
1DIM
 10
591.9324860873694
 20
-703.1604059637729
 30
0.0
  0
VERTEX
  5
24057
  8
1DIM
 10
591.9414765873199
 20
-703.1735210760072
 30
0.0
  0
VERTEX
  5
24058
  8
1DIM
 10
591.9499631328462
 20
-703.1866366803148
 30
0.0
  0
VERTEX
  5
24059
  8
1DIM
 10
591.9579445371295
 20
-703.1997527176123
 30
0.0
  0
VERTEX
  5
2405A
  8
1DIM
 10
591.965419613351
 20
-703.2128691288171
 30
0.0
  0
VERTEX
  5
2405B
  8
1DIM
 10
591.9723871746918
 20
-703.2259858548464
 30
0.0
  0
VERTEX
  5
2405C
  8
1DIM
 10
591.9788460343327
 20
-703.2391028366172
 30
0.0
  0
VERTEX
  5
2405D
  8
1DIM
 10
591.9847950054551
 20
-703.2522200150468
 30
0.0
  0
VERTEX
  5
2405E
  8
1DIM
 10
591.99023290124
 20
-703.2653373310523
 30
0.0
  0
VERTEX
  5
2405F
  8
1DIM
 10
591.9951585348684
 20
-703.2784547255505
 30
0.0
  0
VERTEX
  5
24060
  8
1DIM
 10
591.9995707195216
 20
-703.2915721394592
 30
0.0
  0
VERTEX
  5
24061
  8
1DIM
 10
592.0034682683804
 20
-703.304689513695
 30
0.0
  0
VERTEX
  5
24062
  8
1DIM
 10
592.006849994626
 20
-703.3178067891752
 30
0.0
  0
VERTEX
  5
24063
  8
1DIM
 10
592.0097147114398
 20
-703.330923906817
 30
0.0
  0
VERTEX
  5
24064
  8
1DIM
 10
592.0120612320025
 20
-703.3440408075376
 30
0.0
  0
VERTEX
  5
24065
  8
1DIM
 10
592.0138883694951
 20
-703.357157432254
 30
0.0
  0
VERTEX
  5
24066
  8
1DIM
 10
592.0151949370991
 20
-703.3702737218833
 30
0.0
  0
VERTEX
  5
24067
  8
1DIM
 10
592.0159797479953
 20
-703.3833896173429
 30
0.0
  0
VERTEX
  5
24068
  8
1DIM
 10
592.016241615365
 20
-703.3965050595498
 30
0.0
  0
SEQEND
  5
244FF
  8
1DIM
  0
LINE
  5
20090
  8
1DIM
 10
587.016241615365
 20
-701.0382897495977
 30
0.0
 11
587.016241615365
 21
-702.0083374734616
 31
0.0
  0
LINE
  5
20091
  8
1DIM
 10
413.0162416153649
 20
-701.0382897495977
 30
0.0
 11
413.0162416153649
 21
-702.0083374734616
 31
0.0
  0
POLYLINE
  5
20092
  8
1DIM
 66
     1
 10
0.0
 20
0.0
 30
0.0
  0
VERTEX
  5
24069
  8
1DIM
 10
413.0162416153649
 20
-702.0083374734616
 30
0.0
  0
VERTEX
  5
2406A
  8
1DIM
 10
412.9631264615644
 20
-702.0084218530841
 30
0.0
  0
VERTEX
  5
2406B
  8
1DIM
 10
412.9100633560572
 20
-702.008674856906
 30
0.0
  0
VERTEX
  5
2406C
  8
1DIM
 10
412.8570537393454
 20
-702.0090962823589
 30
0.0
  0
VERTEX
  5
2406D
  8
1DIM
 10
412.8040990519309
 20
-702.009685926874
 30
0.0
  0
VERTEX
  5
2406E
  8
1DIM
 10
412.7512007343158
 20
-702.0104435878832
 30
0.0
  0
VERTEX
  5
2406F
  8
1DIM
 10
412.698360227002
 20
-702.0113690628175
 30
0.0
  0
VERTEX
  5
24070
  8
1DIM
 10
412.6455789704916
 20
-702.0124621491088
 30
0.0
  0
VERTEX
  5
24071
  8
1DIM
 10
412.5928584052864
 20
-702.0137226441884
 30
0.0
  0
VERTEX
  5
24072
  8
1DIM
 10
412.5401999718885
 20
-702.0151503454878
 30
0.0
  0
VERTEX
  5
24073
  8
1DIM
 10
412.4876051107999
 20
-702.0167450504384
 30
0.0
  0
VERTEX
  5
24074
  8
1DIM
 10
412.4350752625226
 20
-702.0185065564721
 30
0.0
  0
VERTEX
  5
24075
  8
1DIM
 10
412.3826118675585
 20
-702.0204346610199
 30
0.0
  0
VERTEX
  5
24076
  8
1DIM
 10
412.3302163664097
 20
-702.0225291615134
 30
0.0
  0
VERTEX
  5
24077
  8
1DIM
 10
412.277890199578
 20
-702.0247898553843
 30
0.0
  0
VERTEX
  5
24078
  8
1DIM
 10
412.2256348075657
 20
-702.0272165400638
 30
0.0
  0
VERTEX
  5
24079
  8
1DIM
 10
412.1734516308744
 20
-702.0298090129836
 30
0.0
  0
VERTEX
  5
2407A
  8
1DIM
 10
412.1213421100065
 20
-702.0325670715752
 30
0.0
  0
VERTEX
  5
2407B
  8
1DIM
 10
412.0693076854636
 20
-702.0354905132699
 30
0.0
  0
VERTEX
  5
2407C
  8
1DIM
 10
412.017349797748
 20
-702.0385791354994
 30
0.0
  0
VERTEX
  5
2407D
  8
1DIM
 10
411.9655393286978
 20
-702.041828058068
 30
0.0
  0
VERTEX
  5
2407E
  8
1DIM
 10
411.913945769
 20
-702.0452320940906
 30
0.0
  0
VERTEX
  5
2407F
  8
1DIM
 10
411.8625684724295
 20
-702.0487905809644
 30
0.0
  0
VERTEX
  5
24080
  8
1DIM
 10
411.8114067927611
 20
-702.0525028560864
 30
0.0
  0
VERTEX
  5
24081
  8
1DIM
 10
411.7604600837699
 20
-702.056368256854
 30
0.0
  0
VERTEX
  5
24082
  8
1DIM
 10
411.7097276992307
 20
-702.0603861206642
 30
0.0
  0
VERTEX
  5
24083
  8
1DIM
 10
411.6592089929183
 20
-702.0645557849144
 30
0.0
  0
VERTEX
  5
24084
  8
1DIM
 10
411.6089033186079
 20
-702.0688765870016
 30
0.0
  0
VERTEX
  5
24085
  8
1DIM
 10
411.5588100300741
 20
-702.0733478643228
 30
0.0
  0
VERTEX
  5
24086
  8
1DIM
 10
411.5089284810919
 20
-702.0779689542755
 30
0.0
  0
VERTEX
  5
24087
  8
1DIM
 10
411.4592580254363
 20
-702.0827391942569
 30
0.0
  0
VERTEX
  5
24088
  8
1DIM
 10
411.4097980168821
 20
-702.0876579216638
 30
0.0
  0
VERTEX
  5
24089
  8
1DIM
 10
411.3605478092043
 20
-702.0927244738936
 30
0.0
  0
VERTEX
  5
2408A
  8
1DIM
 10
411.3115067561777
 20
-702.0979381883435
 30
0.0
  0
VERTEX
  5
2408B
  8
1DIM
 10
411.2626742115773
 20
-702.1032984024105
 30
0.0
  0
VERTEX
  5
2408C
  8
1DIM
 10
411.2140495291779
 20
-702.108804453492
 30
0.0
  0
VERTEX
  5
2408D
  8
1DIM
 10
411.1656320627545
 20
-702.114455678985
 30
0.0
  0
VERTEX
  5
2408E
  8
1DIM
 10
411.117421166082
 20
-702.1202514162869
 30
0.0
  0
VERTEX
  5
2408F
  8
1DIM
 10
411.0694161929353
 20
-702.1261910027946
 30
0.0
  0
VERTEX
  5
24090
  8
1DIM
 10
411.0216174691023
 20
-702.1322743966039
 30
0.0
  0
VERTEX
  5
24091
  8
1DIM
 10
410.9740259767535
 20
-702.1385019659645
 30
0.0
  0
VERTEX
  5
24092
  8
1DIM
 10
410.9266420542376
 20
-702.1448736635055
 30
0.0
  0
VERTEX
  5
24093
  8
1DIM
 10
410.8794660399031
 20
-702.1513894418557
 30
0.0
  0
VERTEX
  5
24094
  8
1DIM
 10
410.8324982720987
 20
-702.1580492536438
 30
0.0
  0
VERTEX
  5
24095
  8
1DIM
 10
410.785739089173
 20
-702.1648530514985
 30
0.0
  0
VERTEX
  5
24096
  8
1DIM
 10
410.7391888294746
 20
-702.1718007880489
 30
0.0
  0
VERTEX
  5
24097
  8
1DIM
 10
410.6928478313523
 20
-702.1788924159234
 30
0.0
  0
VERTEX
  5
24098
  8
1DIM
 10
410.6467164331544
 20
-702.1861278877514
 30
0.0
  0
VERTEX
  5
24099
  8
1DIM
 10
410.6007948050069
 20
-702.1935075158027
 30
0.0
  0
VERTEX
  5
2409A
  8
1DIM
 10
410.5550909561698
 20
-702.2010315686662
 30
0.0
  0
VERTEX
  5
2409B
  8
1DIM
 10
410.5096272396273
 20
-702.2086956515573
 30
0.0
  0
VERTEX
  5
2409C
  8
1DIM
 10
410.4644271410589
 20
-702.2164948053957
 30
0.0
  0
VERTEX
  5
2409D
  8
1DIM
 10
410.4195141461439
 20
-702.224424071101
 30
0.0
  0
VERTEX
  5
2409E
  8
1DIM
 10
410.3749117405615
 20
-702.2324784895927
 30
0.0
  0
VERTEX
  5
2409F
  8
1DIM
 10
410.3306434099911
 20
-702.2406531017904
 30
0.0
  0
VERTEX
  5
240A0
  8
1DIM
 10
410.2867326401119
 20
-702.2489429486135
 30
0.0
  0
VERTEX
  5
240A1
  8
1DIM
 10
410.2432029166035
 20
-702.2573430709818
 30
0.0
  0
VERTEX
  5
240A2
  8
1DIM
 10
410.200077725145
 20
-702.2658485098145
 30
0.0
  0
VERTEX
  5
240A3
  8
1DIM
 10
410.1573457281122
 20
-702.2744590150293
 30
0.0
  0
VERTEX
  5
240A4
  8
1DIM
 10
410.1149795359306
 20
-702.2831773018368
 30
0.0
  0
VERTEX
  5
240A5
  8
1DIM
 10
410.0729785563547
 20
-702.2920028590962
 30
0.0
  0
VERTEX
  5
240A6
  8
1DIM
 10
410.0313421971388
 20
-702.3009351756666
 30
0.0
  0
VERTEX
  5
240A7
  8
1DIM
 10
409.9900698660372
 20
-702.3099737404073
 30
0.0
  0
VERTEX
  5
240A8
  8
1DIM
 10
409.9491609708041
 20
-702.3191180421777
 30
0.0
  0
VERTEX
  5
240A9
  8
1DIM
 10
409.908614919194
 20
-702.3283675698367
 30
0.0
  0
VERTEX
  5
240AA
  8
1DIM
 10
409.868431118961
 20
-702.3377218122439
 30
0.0
  0
VERTEX
  5
240AB
  8
1DIM
 10
409.8286089778597
 20
-702.3471802582582
 30
0.0
  0
VERTEX
  5
240AC
  8
1DIM
 10
409.7891479036442
 20
-702.3567423967389
 30
0.0
  0
VERTEX
  5
240AD
  8
1DIM
 10
409.7500473040689
 20
-702.3664077165455
 30
0.0
  0
VERTEX
  5
240AE
  8
1DIM
 10
409.7113065868881
 20
-702.3761757065369
 30
0.0
  0
VERTEX
  5
240AF
  8
1DIM
 10
409.6729251598561
 20
-702.3860458555724
 30
0.0
  0
VERTEX
  5
240B0
  8
1DIM
 10
409.6349024307273
 20
-702.3960176525114
 30
0.0
  0
VERTEX
  5
240B1
  8
1DIM
 10
409.5972378072559
 20
-702.406090586213
 30
0.0
  0
VERTEX
  5
240B2
  8
1DIM
 10
409.5599306971964
 20
-702.4162641455364
 30
0.0
  0
VERTEX
  5
240B3
  8
1DIM
 10
409.5229805083028
 20
-702.4265378193409
 30
0.0
  0
VERTEX
  5
240B4
  8
1DIM
 10
409.4863866483298
 20
-702.4369110964856
 30
0.0
  0
VERTEX
  5
240B5
  8
1DIM
 10
409.4501485250314
 20
-702.44738346583
 30
0.0
  0
VERTEX
  5
240B6
  8
1DIM
 10
409.414262017551
 20
-702.4579586503497
 30
0.0
  0
VERTEX
  5
240B7
  8
1DIM
 10
409.3787288558233
 20
-702.4686383815751
 30
0.0
  0
VERTEX
  5
240B8
  8
1DIM
 10
409.3435572237904
 20
-702.4794191611969
 30
0.0
  0
VERTEX
  5
240B9
  8
1DIM
 10
409.3087553053941
 20
-702.4902974909058
 30
0.0
  0
VERTEX
  5
240BA
  8
1DIM
 10
409.2743312845766
 20
-702.5012698723925
 30
0.0
  0
VERTEX
  5
240BB
  8
1DIM
 10
409.2402933452798
 20
-702.5123328073474
 30
0.0
  0
VERTEX
  5
240BC
  8
1DIM
 10
409.2066496714455
 20
-702.5234827974615
 30
0.0
  0
VERTEX
  5
240BD
  8
1DIM
 10
409.173408447016
 20
-702.5347163444253
 30
0.0
  0
VERTEX
  5
240BE
  8
1DIM
 10
409.140577855933
 20
-702.5460299499294
 30
0.0
  0
VERTEX
  5
240BF
  8
1DIM
 10
409.1081660821386
 20
-702.5574201156646
 30
0.0
  0
VERTEX
  5
240C0
  8
1DIM
 10
409.0761813095747
 20
-702.5688833433215
 30
0.0
  0
VERTEX
  5
240C1
  8
1DIM
 10
409.0446317221834
 20
-702.5804161345909
 30
0.0
  0
VERTEX
  5
240C2
  8
1DIM
 10
409.0135255039066
 20
-702.5920149911634
 30
0.0
  0
VERTEX
  5
240C3
  8
1DIM
 10
408.9828708386862
 20
-702.6036764147294
 30
0.0
  0
VERTEX
  5
240C4
  8
1DIM
 10
408.9526759104643
 20
-702.61539690698
 30
0.0
  0
VERTEX
  5
240C5
  8
1DIM
 10
408.9229489031828
 20
-702.6271729696057
 30
0.0
  0
VERTEX
  5
240C6
  8
1DIM
 10
408.8936980007838
 20
-702.639001104297
 30
0.0
  0
VERTEX
  5
240C7
  8
1DIM
 10
408.8649313872091
 20
-702.6508778127447
 30
0.0
  0
VERTEX
  5
240C8
  8
1DIM
 10
408.8366572464007
 20
-702.6627995966396
 30
0.0
  0
VERTEX
  5
240C9
  8
1DIM
 10
408.8088604613536
 20
-702.6747687629676
 30
0.0
  0
VERTEX
  5
240CA
  8
1DIM
 10
408.781520532503
 20
-702.6867897764449
 30
0.0
  0
VERTEX
  5
240CB
  8
1DIM
 10
408.7546375699521
 20
-702.698862375358
 30
0.0
  0
VERTEX
  5
240CC
  8
1DIM
 10
408.7282116838037
 20
-702.7109862979925
 30
0.0
  0
VERTEX
  5
240CD
  8
1DIM
 10
408.7022429841608
 20
-702.7231612826347
 30
0.0
  0
VERTEX
  5
240CE
  8
1DIM
 10
408.6767315811262
 20
-702.7353870675706
 30
0.0
  0
VERTEX
  5
240CF
  8
1DIM
 10
408.6516775848029
 20
-702.7476633910865
 30
0.0
  0
VERTEX
  5
240D0
  8
1DIM
 10
408.6270811052939
 20
-702.7599899914682
 30
0.0
  0
VERTEX
  5
240D1
  8
1DIM
 10
408.6029422527021
 20
-702.7723666070018
 30
0.0
  0
VERTEX
  5
240D2
  8
1DIM
 10
408.5792611371303
 20
-702.7847929759736
 30
0.0
  0
VERTEX
  5
240D3
  8
1DIM
 10
408.5560378686816
 20
-702.7972688366694
 30
0.0
  0
VERTEX
  5
240D4
  8
1DIM
 10
408.533272557459
 20
-702.8097939273756
 30
0.0
  0
VERTEX
  5
240D5
  8
1DIM
 10
408.5109653135652
 20
-702.822367986378
 30
0.0
  0
VERTEX
  5
240D6
  8
1DIM
 10
408.4891162471033
 20
-702.8349907519628
 30
0.0
  0
VERTEX
  5
240D7
  8
1DIM
 10
408.4677254681761
 20
-702.8476619624159
 30
0.0
  0
VERTEX
  5
240D8
  8
1DIM
 10
408.4467930868867
 20
-702.8603813560237
 30
0.0
  0
VERTEX
  5
240D9
  8
1DIM
 10
408.4263192133378
 20
-702.873148671072
 30
0.0
  0
VERTEX
  5
240DA
  8
1DIM
 10
408.4063039576326
 20
-702.885963645847
 30
0.0
  0
VERTEX
  5
240DB
  8
1DIM
 10
408.3867474298739
 20
-702.8988260186348
 30
0.0
  0
VERTEX
  5
240DC
  8
1DIM
 10
408.3676638324242
 20
-702.9117297419394
 30
0.0
  0
VERTEX
  5
240DD
  8
1DIM
 10
408.3490685525989
 20
-702.9246672363627
 30
0.0
  0
VERTEX
  5
240DE
  8
1DIM
 10
408.3309634779303
 20
-702.9376359423381
 30
0.0
  0
VERTEX
  5
240DF
  8
1DIM
 10
408.3133504959506
 20
-702.9506333002993
 30
0.0
  0
VERTEX
  5
240E0
  8
1DIM
 10
408.2962314941924
 20
-702.9636567506793
 30
0.0
  0
VERTEX
  5
240E1
  8
1DIM
 10
408.2796083601878
 20
-702.9767037339119
 30
0.0
  0
VERTEX
  5
240E2
  8
1DIM
 10
408.2634829814692
 20
-702.9897716904302
 30
0.0
  0
VERTEX
  5
240E3
  8
1DIM
 10
408.2478572455689
 20
-703.0028580606676
 30
0.0
  0
VERTEX
  5
240E4
  8
1DIM
 10
408.2327330400192
 20
-703.0159602850576
 30
0.0
  0
VERTEX
  5
240E5
  8
1DIM
 10
408.2181122523525
 20
-703.0290758040336
 30
0.0
  0
VERTEX
  5
240E6
  8
1DIM
 10
408.203996770101
 20
-703.0422020580289
 30
0.0
  0
VERTEX
  5
240E7
  8
1DIM
 10
408.190388480797
 20
-703.0553364874769
 30
0.0
  0
VERTEX
  5
240E8
  8
1DIM
 10
408.1772892719729
 20
-703.068476532811
 30
0.0
  0
VERTEX
  5
240E9
  8
1DIM
 10
408.164701031161
 20
-703.0816196344647
 30
0.0
  0
VERTEX
  5
240EA
  8
1DIM
 10
408.1526256458937
 20
-703.0947632328713
 30
0.0
  0
VERTEX
  5
240EB
  8
1DIM
 10
408.1410650037032
 20
-703.1079047684641
 30
0.0
  0
VERTEX
  5
240EC
  8
1DIM
 10
408.1300209921218
 20
-703.1210416816766
 30
0.0
  0
VERTEX
  5
240ED
  8
1DIM
 10
408.1194954986819
 20
-703.1341714129421
 30
0.0
  0
VERTEX
  5
240EE
  8
1DIM
 10
408.1094904109158
 20
-703.1472914026942
 30
0.0
  0
VERTEX
  5
240EF
  8
1DIM
 10
408.0999971433602
 20
-703.1604059637729
 30
0.0
  0
VERTEX
  5
240F0
  8
1DIM
 10
408.0910066434099
 20
-703.1735210760072
 30
0.0
  0
VERTEX
  5
240F1
  8
1DIM
 10
408.0825200978836
 20
-703.1866366803148
 30
0.0
  0
VERTEX
  5
240F2
  8
1DIM
 10
408.0745386936002
 20
-703.1997527176123
 30
0.0
  0
VERTEX
  5
240F3
  8
1DIM
 10
408.0670636173787
 20
-703.2128691288171
 30
0.0
  0
VERTEX
  5
240F4
  8
1DIM
 10
408.060096056038
 20
-703.2259858548464
 30
0.0
  0
VERTEX
  5
240F5
  8
1DIM
 10
408.053637196397
 20
-703.2391028366172
 30
0.0
  0
VERTEX
  5
240F6
  8
1DIM
 10
408.0476882252746
 20
-703.2522200150468
 30
0.0
  0
VERTEX
  5
240F7
  8
1DIM
 10
408.0422503294898
 20
-703.2653373310523
 30
0.0
  0
VERTEX
  5
240F8
  8
1DIM
 10
408.0373246958613
 20
-703.2784547255505
 30
0.0
  0
VERTEX
  5
240F9
  8
1DIM
 10
408.0329125112082
 20
-703.2915721394592
 30
0.0
  0
VERTEX
  5
240FA
  8
1DIM
 10
408.0290149623494
 20
-703.304689513695
 30
0.0
  0
VERTEX
  5
240FB
  8
1DIM
 10
408.0256332361037
 20
-703.3178067891752
 30
0.0
  0
VERTEX
  5
240FC
  8
1DIM
 10
408.02276851929
 20
-703.330923906817
 30
0.0
  0
VERTEX
  5
240FD
  8
1DIM
 10
408.0204219987274
 20
-703.3440408075376
 30
0.0
  0
VERTEX
  5
240FE
  8
1DIM
 10
408.0185948612347
 20
-703.357157432254
 30
0.0
  0
VERTEX
  5
240FF
  8
1DIM
 10
408.0172882936308
 20
-703.3702737218833
 30
0.0
  0
VERTEX
  5
24100
  8
1DIM
 10
408.0165034827345
 20
-703.3833896173429
 30
0.0
  0
VERTEX
  5
24101
  8
1DIM
 10
408.0162416153649
 20
-703.3965050595498
 30
0.0
  0
SEQEND
  5
24500
  8
1DIM
  0
LINE
  5
20093
  8
1DIM
 10
587.016241615365
 20
-702.0083374734616
 30
0.0
 11
413.0162416153649
 21
-702.0083374734616
 31
0.0
  0
LINE
  5
20096
  8
1DIM
 10
587.016241615365
 20
-702.0083374734616
 30
0.0
 11
587.016241615365
 21
-706.0699416455618
 31
0.0
  0
LINE
  5
20097
  8
01
  6
CONTINUOUS
 10
413.0162416153649
 20
-702.0083374734616
 30
0.0
 11
413.0162416153649
 21
-706.0699416455618
 31
0.0
  0
LINE
  5
20098
  8
01
  6
CONTINUOUS
 10
400.0162416153649
 20
-629.2976601456666
 30
0.0
 11
400.0162416153649
 21
-580.2976601456666
 31
0.0
  0
ARC
  5
20099
  8
01
  6
CONTINUOUS
 10
403.0162416153649
 20
-629.2976601456666
 30
0.0
 40
3.0
 50
180.0
 51
270.0
  0
POLYLINE
  5
2009B
  8
01
  6
CONTINUOUS
 10
0.0
 20
0.0
 30
0.0
 66
     1
 70
     8
  0
VERTEX
  5
24102
  8
01
  6
CONTINUOUS
 10
400.0162416153649
 20
-580.2976601456666
 30
0.0
 70
    32
  0
VERTEX
  5
24103
  8
01
  6
CONTINUOUS
 10
400.0166213254268
 20
-580.2976601456666
 30
0.0
 70
    32
  0
VERTEX
  5
24104
  8
01
  6
CONTINUOUS
 10
400.0177553050684
 20
-580.2976601456666
 30
0.0
 70
    32
  0
VERTEX
  5
24105
  8
01
  6
CONTINUOUS
 10
400.0196358284738
 20
-580.2976601456666
 30
0.0
 70
    32
  0
VERTEX
  5
24106
  8
01
  6
CONTINUOUS
 10
400.0222551698271
 20
-580.2976601456666
 30
0.0
 70
    32
  0
VERTEX
  5
24107
  8
01
  6
CONTINUOUS
 10
400.0256056033124
 20
-580.2976601456666
 30
0.0
 70
    32
  0
VERTEX
  5
24108
  8
01
  6
CONTINUOUS
 10
400.0296794031138
 20
-580.2976601456666
 30
0.0
 70
    32
  0
VERTEX
  5
24109
  8
01
  6
CONTINUOUS
 10
400.0344688434153
 20
-580.2976601456666
 30
0.0
 70
    32
  0
VERTEX
  5
2410A
  8
01
  6
CONTINUOUS
 10
400.039966198401
 20
-580.2976601456666
 30
0.0
 70
    32
  0
VERTEX
  5
2410B
  8
01
  6
CONTINUOUS
 10
400.046163742255
 20
-580.2976601456666
 30
0.0
 70
    32
  0
VERTEX
  5
2410C
  8
01
  6
CONTINUOUS
 10
400.0530537491614
 20
-580.2976601456666
 30
0.0
 70
    32
  0
VERTEX
  5
2410D
  8
01
  6
CONTINUOUS
 10
400.0606284933043
 20
-580.2976601456666
 30
0.0
 70
    32
  0
VERTEX
  5
2410E
  8
01
  6
CONTINUOUS
 10
400.0688802488677
 20
-580.2976601456666
 30
0.0
 70
    32
  0
VERTEX
  5
2410F
  8
01
  6
CONTINUOUS
 10
400.0778012900358
 20
-580.2976601456666
 30
0.0
 70
    32
  0
VERTEX
  5
24110
  8
01
  6
CONTINUOUS
 10
400.0873838909926
 20
-580.2976601456666
 30
0.0
 70
    32
  0
VERTEX
  5
24111
  8
01
  6
CONTINUOUS
 10
400.0976203259222
 20
-580.2976601456666
 30
0.0
 70
    32
  0
VERTEX
  5
24112
  8
01
  6
CONTINUOUS
 10
400.1085028690085
 20
-580.2976601456666
 30
0.0
 70
    32
  0
VERTEX
  5
24113
  8
01
  6
CONTINUOUS
 10
400.1200237944358
 20
-580.2976601456666
 30
0.0
 70
    32
  0
VERTEX
  5
24114
  8
01
  6
CONTINUOUS
 10
400.1321753763883
 20
-580.2976601456666
 30
0.0
 70
    32
  0
VERTEX
  5
24115
  8
01
  6
CONTINUOUS
 10
400.1449498890497
 20
-580.2976601456666
 30
0.0
 70
    32
  0
VERTEX
  5
24116
  8
01
  6
CONTINUOUS
 10
400.1583396066044
 20
-580.2976601456666
 30
0.0
 70
    32
  0
VERTEX
  5
24117
  8
01
  6
CONTINUOUS
 10
400.1723284836406
 20
-580.2976601456666
 30
0.0
 70
    32
  0
VERTEX
  5
24118
  8
01
  6
CONTINUOUS
 10
400.1868879169702
 20
-580.2976601456666
 30
0.0
 70
    32
  0
VERTEX
  5
24119
  8
01
  6
CONTINUOUS
 10
400.2019913441128
 20
-580.2976601456666
 30
0.0
 70
    32
  0
VERTEX
  5
2411A
  8
01
  6
CONTINUOUS
 10
400.2176122025879
 20
-580.2976601456666
 30
0.0
 70
    32
  0
VERTEX
  5
2411B
  8
01
  6
CONTINUOUS
 10
400.2337239299153
 20
-580.2976601456666
 30
0.0
 70
    32
  0
VERTEX
  5
2411C
  8
01
  6
CONTINUOUS
 10
400.2502999636142
 20
-580.2976601456666
 30
0.0
 70
    32
  0
VERTEX
  5
2411D
  8
01
  6
CONTINUOUS
 10
400.2673137412042
 20
-580.2976601456666
 30
0.0
 70
    32
  0
VERTEX
  5
2411E
  8
01
  6
CONTINUOUS
 10
400.284738700205
 20
-580.2976601456666
 30
0.0
 70
    32
  0
VERTEX
  5
2411F
  8
01
  6
CONTINUOUS
 10
400.302548278136
 20
-580.2976601456666
 30
0.0
 70
    32
  0
VERTEX
  5
24120
  8
01
  6
CONTINUOUS
 10
400.3207159125169
 20
-580.2976601456666
 30
0.0
 70
    32
  0
VERTEX
  5
24121
  8
01
  6
CONTINUOUS
 10
400.3392150408671
 20
-580.2976601456666
 30
0.0
 70
    32
  0
VERTEX
  5
24122
  8
01
  6
CONTINUOUS
 10
400.3580191007062
 20
-580.2976601456666
 30
0.0
 70
    32
  0
VERTEX
  5
24123
  8
01
  6
CONTINUOUS
 10
400.3771015295538
 20
-580.2976601456666
 30
0.0
 70
    32
  0
VERTEX
  5
24124
  8
01
  6
CONTINUOUS
 10
400.3964357649293
 20
-580.2976601456666
 30
0.0
 70
    32
  0
VERTEX
  5
24125
  8
01
  6
CONTINUOUS
 10
400.4159952443524
 20
-580.2976601456666
 30
0.0
 70
    32
  0
VERTEX
  5
24126
  8
01
  6
CONTINUOUS
 10
400.4357534053426
 20
-580.2976601456666
 30
0.0
 70
    32
  0
VERTEX
  5
24127
  8
01
  6
CONTINUOUS
 10
400.4556836854193
 20
-580.2976601456666
 30
0.0
 70
    32
  0
VERTEX
  5
24128
  8
01
  6
CONTINUOUS
 10
400.4757595221023
 20
-580.2976601456666
 30
0.0
 70
    32
  0
VERTEX
  5
24129
  8
01
  6
CONTINUOUS
 10
400.4959543529109
 20
-580.2976601456666
 30
0.0
 70
    32
  0
VERTEX
  5
2412A
  8
01
  6
CONTINUOUS
 10
400.5162416153648
 20
-580.2976601456666
 30
0.0
 70
    32
  0
SEQEND
  5
24501
  8
01
  6
CONTINUOUS
  0
LINE
  5
2009C
  8
1DIM
 10
400.5162416153649
 20
-580.2976601456666
 30
0.0
 11
400.5162416153649
 21
-629.3051040316192
 31
0.0
  0
ARC
  5
2009D
  8
1DIM
 10
400.3912693210839
 20
-620.9033688390463
 30
0.0
 40
8.402664596451372
 50
267.4419251417225
 51
270.8521878919614
  0
LINE
  5
2009E
  8
1DIM
 10
599.516241615365
 20
-580.2976601456666
 30
0.0
 11
599.516241615365
 21
-629.3051040316192
 31
0.0
  0
LINE
  5
2009F
  8
01
  6
CONTINUOUS
 10
600.016241615365
 20
-629.2976601456666
 30
0.0
 11
600.016241615365
 21
-580.2976601456666
 31
0.0
  0
ARC
  5
200A0
  8
01
  6
CONTINUOUS
 10
597.016241615365
 20
-629.2976601456666
 30
0.0
 40
3.0
 50
270.0
 51
0.0
  0
ARC
  5
200A1
  8
1DIM
 10
599.6412139096466
 20
-620.903368839084
 30
0.0
 40
8.4026645964135
 50
269.1478121080386
 51
272.5580748582775
  0
POLYLINE
  5
200A2
  8
01
  6
CONTINUOUS
 10
0.0
 20
0.0
 30
0.0
 66
     1
 70
     8
  0
VERTEX
  5
2412B
  8
01
  6
CONTINUOUS
 10
600.016241615365
 20
-580.2976601456666
 30
0.0
 70
    32
  0
VERTEX
  5
2412C
  8
01
  6
CONTINUOUS
 10
600.015861905303
 20
-580.2976601456666
 30
0.0
 70
    32
  0
VERTEX
  5
2412D
  8
01
  6
CONTINUOUS
 10
600.0147279256615
 20
-580.2976601456666
 30
0.0
 70
    32
  0
VERTEX
  5
2412E
  8
01
  6
CONTINUOUS
 10
600.0128474022562
 20
-580.2976601456666
 30
0.0
 70
    32
  0
VERTEX
  5
2412F
  8
01
  6
CONTINUOUS
 10
600.0102280609028
 20
-580.2976601456666
 30
0.0
 70
    32
  0
VERTEX
  5
24130
  8
01
  6
CONTINUOUS
 10
600.0068776274175
 20
-580.2976601456666
 30
0.0
 70
    32
  0
VERTEX
  5
24131
  8
01
  6
CONTINUOUS
 10
600.002803827616
 20
-580.2976601456666
 30
0.0
 70
    32
  0
VERTEX
  5
24132
  8
01
  6
CONTINUOUS
 10
599.9980143873146
 20
-580.2976601456666
 30
0.0
 70
    32
  0
VERTEX
  5
24133
  8
01
  6
CONTINUOUS
 10
599.9925170323289
 20
-580.2976601456666
 30
0.0
 70
    32
  0
VERTEX
  5
24134
  8
01
  6
CONTINUOUS
 10
599.9863194884748
 20
-580.2976601456666
 30
0.0
 70
    32
  0
VERTEX
  5
24135
  8
01
  6
CONTINUOUS
 10
599.9794294815686
 20
-580.2976601456666
 30
0.0
 70
    32
  0
VERTEX
  5
24136
  8
01
  6
CONTINUOUS
 10
599.9718547374256
 20
-580.2976601456666
 30
0.0
 70
    32
  0
VERTEX
  5
24137
  8
01
  6
CONTINUOUS
 10
599.9636029818621
 20
-580.2976601456666
 30
0.0
 70
    32
  0
VERTEX
  5
24138
  8
01
  6
CONTINUOUS
 10
599.9546819406942
 20
-580.2976601456666
 30
0.0
 70
    32
  0
VERTEX
  5
24139
  8
01
  6
CONTINUOUS
 10
599.9450993397373
 20
-580.2976601456666
 30
0.0
 70
    32
  0
VERTEX
  5
2413A
  8
01
  6
CONTINUOUS
 10
599.9348629048078
 20
-580.2976601456666
 30
0.0
 70
    32
  0
VERTEX
  5
2413B
  8
01
  6
CONTINUOUS
 10
599.9239803617214
 20
-580.2976601456666
 30
0.0
 70
    32
  0
VERTEX
  5
2413C
  8
01
  6
CONTINUOUS
 10
599.912459436294
 20
-580.2976601456666
 30
0.0
 70
    32
  0
VERTEX
  5
2413D
  8
01
  6
CONTINUOUS
 10
599.9003078543417
 20
-580.2976601456666
 30
0.0
 70
    32
  0
VERTEX
  5
2413E
  8
01
  6
CONTINUOUS
 10
599.8875333416802
 20
-580.2976601456666
 30
0.0
 70
    32
  0
VERTEX
  5
2413F
  8
01
  6
CONTINUOUS
 10
599.8741436241255
 20
-580.2976601456666
 30
0.0
 70
    32
  0
VERTEX
  5
24140
  8
01
  6
CONTINUOUS
 10
599.8601547470893
 20
-580.2976601456666
 30
0.0
 70
    32
  0
VERTEX
  5
24141
  8
01
  6
CONTINUOUS
 10
599.8455953137596
 20
-580.2976601456666
 30
0.0
 70
    32
  0
VERTEX
  5
24142
  8
01
  6
CONTINUOUS
 10
599.8304918866171
 20
-580.2976601456666
 30
0.0
 70
    32
  0
VERTEX
  5
24143
  8
01
  6
CONTINUOUS
 10
599.8148710281419
 20
-580.2976601456666
 30
0.0
 70
    32
  0
VERTEX
  5
24144
  8
01
  6
CONTINUOUS
 10
599.7987593008146
 20
-580.2976601456666
 30
0.0
 70
    32
  0
VERTEX
  5
24145
  8
01
  6
CONTINUOUS
 10
599.7821832671158
 20
-580.2976601456666
 30
0.0
 70
    32
  0
VERTEX
  5
24146
  8
01
  6
CONTINUOUS
 10
599.7651694895256
 20
-580.2976601456666
 30
0.0
 70
    32
  0
VERTEX
  5
24147
  8
01
  6
CONTINUOUS
 10
599.747744530525
 20
-580.2976601456666
 30
0.0
 70
    32
  0
VERTEX
  5
24148
  8
01
  6
CONTINUOUS
 10
599.7299349525939
 20
-580.2976601456666
 30
0.0
 70
    32
  0
VERTEX
  5
24149
  8
01
  6
CONTINUOUS
 10
599.7117673182129
 20
-580.2976601456666
 30
0.0
 70
    32
  0
VERTEX
  5
2414A
  8
01
  6
CONTINUOUS
 10
599.6932681898628
 20
-580.2976601456666
 30
0.0
 70
    32
  0
VERTEX
  5
2414B
  8
01
  6
CONTINUOUS
 10
599.6744641300236
 20
-580.2976601456666
 30
0.0
 70
    32
  0
VERTEX
  5
2414C
  8
01
  6
CONTINUOUS
 10
599.6553817011761
 20
-580.2976601456666
 30
0.0
 70
    32
  0
VERTEX
  5
2414D
  8
01
  6
CONTINUOUS
 10
599.6360474658005
 20
-580.2976601456666
 30
0.0
 70
    32
  0
VERTEX
  5
2414E
  8
01
  6
CONTINUOUS
 10
599.6164879863774
 20
-580.2976601456666
 30
0.0
 70
    32
  0
VERTEX
  5
2414F
  8
01
  6
CONTINUOUS
 10
599.5967298253872
 20
-580.2976601456666
 30
0.0
 70
    32
  0
VERTEX
  5
24150
  8
01
  6
CONTINUOUS
 10
599.5767995453105
 20
-580.2976601456666
 30
0.0
 70
    32
  0
VERTEX
  5
24151
  8
01
  6
CONTINUOUS
 10
599.5567237086275
 20
-580.2976601456666
 30
0.0
 70
    32
  0
VERTEX
  5
24152
  8
01
  6
CONTINUOUS
 10
599.5365288778188
 20
-580.2976601456666
 30
0.0
 70
    32
  0
VERTEX
  5
24153
  8
01
  6
CONTINUOUS
 10
599.516241615365
 20
-580.2976601456666
 30
0.0
 70
    32
  0
SEQEND
  5
24502
  8
01
  6
CONTINUOUS
  0
POLYLINE
  5
200A3
  8
1DIM
 66
     1
 10
0.0
 20
0.0
 30
0.0
  0
VERTEX
  5
24154
  8
1DIM
 10
400.5162416153649
 20
-629.3051040316192
 30
0.0
  0
VERTEX
  5
24155
  8
1DIM
 10
400.5164631281806
 20
-629.3380595579819
 30
0.0
  0
VERTEX
  5
24156
  8
1DIM
 10
400.51712648138
 20
-629.3709954096571
 30
0.0
  0
VERTEX
  5
24157
  8
1DIM
 10
400.5182298970909
 20
-629.4039059173833
 30
0.0
  0
VERTEX
  5
24158
  8
1DIM
 10
400.5197715974413
 20
-629.436785411899
 30
0.0
  0
VERTEX
  5
24159
  8
1DIM
 10
400.5217498045595
 20
-629.4696282239428
 30
0.0
  0
VERTEX
  5
2415A
  8
1DIM
 10
400.5241627405734
 20
-629.5024286842531
 30
0.0
  0
VERTEX
  5
2415B
  8
1DIM
 10
400.5270086276112
 20
-629.5351811235686
 30
0.0
  0
VERTEX
  5
2415C
  8
1DIM
 10
400.5302856878008
 20
-629.5678798726279
 30
0.0
  0
VERTEX
  5
2415D
  8
1DIM
 10
400.5339921432703
 20
-629.6005192621694
 30
0.0
  0
VERTEX
  5
2415E
  8
1DIM
 10
400.5381262161478
 20
-629.6330936229317
 30
0.0
  0
VERTEX
  5
2415F
  8
1DIM
 10
400.5426861285612
 20
-629.6655972856532
 30
0.0
  0
VERTEX
  5
24160
  8
1DIM
 10
400.5476701026387
 20
-629.6980245810728
 30
0.0
  0
VERTEX
  5
24161
  8
1DIM
 10
400.5530763605084
 20
-629.7303698399288
 30
0.0
  0
VERTEX
  5
24162
  8
1DIM
 10
400.5589031242982
 20
-629.7626273929598
 30
0.0
  0
VERTEX
  5
24163
  8
1DIM
 10
400.5651486161362
 20
-629.7947915709042
 30
0.0
  0
VERTEX
  5
24164
  8
1DIM
 10
400.5718110581506
 20
-629.8268567045008
 30
0.0
  0
VERTEX
  5
24165
  8
1DIM
 10
400.5788886724692
 20
-629.858817124488
 30
0.0
  0
VERTEX
  5
24166
  8
1DIM
 10
400.5863796812202
 20
-629.8906671616044
 30
0.0
  0
VERTEX
  5
24167
  8
1DIM
 10
400.5942823065317
 20
-629.9224011465885
 30
0.0
  0
VERTEX
  5
24168
  8
1DIM
 10
400.6025947705316
 20
-629.954013410179
 30
0.0
  0
VERTEX
  5
24169
  8
1DIM
 10
400.6113152953481
 20
-629.9854982831141
 30
0.0
  0
VERTEX
  5
2416A
  8
1DIM
 10
400.6204421031092
 20
-630.0168500961327
 30
0.0
  0
VERTEX
  5
2416B
  8
1DIM
 10
400.629973415943
 20
-630.0480631799733
 30
0.0
  0
VERTEX
  5
2416C
  8
1DIM
 10
400.6399074559774
 20
-630.0791318653742
 30
0.0
  0
VERTEX
  5
2416D
  8
1DIM
 10
400.6502424453406
 20
-630.1100504830742
 30
0.0
  0
VERTEX
  5
2416E
  8
1DIM
 10
400.6609766061606
 20
-630.1408133638117
 30
0.0
  0
VERTEX
  5
2416F
  8
1DIM
 10
400.6721081605655
 20
-630.1714148383253
 30
0.0
  0
VERTEX
  5
24170
  8
1DIM
 10
400.6836353306833
 20
-630.2018492373536
 30
0.0
  0
VERTEX
  5
24171
  8
1DIM
 10
400.6955563386421
 20
-630.2321108916351
 30
0.0
  0
VERTEX
  5
24172
  8
1DIM
 10
400.7078694065698
 20
-630.2621941319084
 30
0.0
  0
VERTEX
  5
24173
  8
1DIM
 10
400.7205820874894
 20
-630.2921199727598
 30
0.0
  0
VERTEX
  5
24174
  8
1DIM
 10
400.7337010886852
 20
-630.321908356181
 30
0.0
  0
VERTEX
  5
24175
  8
1DIM
 10
400.7472233636773
 20
-630.3515520040175
 30
0.0
  0
VERTEX
  5
24176
  8
1DIM
 10
400.761145865986
 20
-630.3810436381152
 30
0.0
  0
VERTEX
  5
24177
  8
1DIM
 10
400.7754655491316
 20
-630.4103759803199
 30
0.0
  0
VERTEX
  5
24178
  8
1DIM
 10
400.7901793666343
 20
-630.4395417524773
 30
0.0
  0
VERTEX
  5
24179
  8
1DIM
 10
400.8052842720144
 20
-630.4685336764333
 30
0.0
  0
VERTEX
  5
2417A
  8
1DIM
 10
400.820777218792
 20
-630.4973444740335
 30
0.0
  0
VERTEX
  5
2417B
  8
1DIM
 10
400.8366551604876
 20
-630.5259668671239
 30
0.0
  0
VERTEX
  5
2417C
  8
1DIM
 10
400.8529150506212
 20
-630.5543935775501
 30
0.0
  0
VERTEX
  5
2417D
  8
1DIM
 10
400.8695538427132
 20
-630.5826173271579
 30
0.0
  0
VERTEX
  5
2417E
  8
1DIM
 10
400.8865684902837
 20
-630.6106308377932
 30
0.0
  0
VERTEX
  5
2417F
  8
1DIM
 10
400.9039559468531
 20
-630.6384268313018
 30
0.0
  0
VERTEX
  5
24180
  8
1DIM
 10
400.9217131659416
 20
-630.6659980295294
 30
0.0
  0
VERTEX
  5
24181
  8
1DIM
 10
400.9398371010694
 20
-630.6933371543216
 30
0.0
  0
VERTEX
  5
24182
  8
1DIM
 10
400.9583042963226
 20
-630.7204141612777
 30
0.0
  0
VERTEX
  5
24183
  8
1DIM
 10
400.977092979203
 20
-630.7472041679688
 30
0.0
  0
VERTEX
  5
24184
  8
1DIM
 10
400.9962026283538
 20
-630.7737076391983
 30
0.0
  0
VERTEX
  5
24185
  8
1DIM
 10
401.0156327224187
 20
-630.7999250397702
 30
0.0
  0
VERTEX
  5
24186
  8
1DIM
 10
401.0353827400411
 20
-630.8258568344881
 30
0.0
  0
VERTEX
  5
24187
  8
1DIM
 10
401.0554521598643
 20
-630.8515034881557
 30
0.0
  0
VERTEX
  5
24188
  8
1DIM
 10
401.075840460532
 20
-630.8768654655769
 30
0.0
  0
VERTEX
  5
24189
  8
1DIM
 10
401.0965471206875
 20
-630.9019432315552
 30
0.0
  0
VERTEX
  5
2418A
  8
1DIM
 10
401.1175716189742
 20
-630.9267372508942
 30
0.0
  0
VERTEX
  5
2418B
  8
1DIM
 10
401.1389134340358
 20
-630.951247988398
 30
0.0
  0
VERTEX
  5
2418C
  8
1DIM
 10
401.1605720445157
 20
-630.9754759088701
 30
0.0
  0
VERTEX
  5
2418D
  8
1DIM
 10
401.1825469290571
 20
-630.9994214771142
 30
0.0
  0
VERTEX
  5
2418E
  8
1DIM
 10
401.2048375663038
 20
-631.0230851579341
 30
0.0
  0
VERTEX
  5
2418F
  8
1DIM
 10
401.227443434899
 20
-631.0464674161335
 30
0.0
  0
VERTEX
  5
24190
  8
1DIM
 10
401.2503640134864
 20
-631.0695687165162
 30
0.0
  0
VERTEX
  5
24191
  8
1DIM
 10
401.2736172115696
 20
-631.0923981744282
 30
0.0
  0
VERTEX
  5
24192
  8
1DIM
 10
401.297213971945
 20
-631.1149585486929
 30
0.0
  0
VERTEX
  5
24193
  8
1DIM
 10
401.3211433231958
 20
-631.13724076933
 30
0.0
  0
VERTEX
  5
24194
  8
1DIM
 10
401.345394293905
 20
-631.1592357663585
 30
0.0
  0
VERTEX
  5
24195
  8
1DIM
 10
401.3699559126553
 20
-631.1809344697983
 30
0.0
  0
VERTEX
  5
24196
  8
1DIM
 10
401.3948172080297
 20
-631.2023278096688
 30
0.0
  0
VERTEX
  5
24197
  8
1DIM
 10
401.4199672086114
 20
-631.2234067159892
 30
0.0
  0
VERTEX
  5
24198
  8
1DIM
 10
401.4453949429831
 20
-631.2441621187792
 30
0.0
  0
VERTEX
  5
24199
  8
1DIM
 10
401.4710894397278
 20
-631.2645849480582
 30
0.0
  0
VERTEX
  5
2419A
  8
1DIM
 10
401.4970397274284
 20
-631.2846661338456
 30
0.0
  0
VERTEX
  5
2419B
  8
1DIM
 10
401.523234834668
 20
-631.304396606161
 30
0.0
  0
VERTEX
  5
2419C
  8
1DIM
 10
401.5496637900293
 20
-631.3237672950238
 30
0.0
  0
VERTEX
  5
2419D
  8
1DIM
 10
401.5763156220956
 20
-631.3427691304533
 30
0.0
  0
VERTEX
  5
2419E
  8
1DIM
 10
401.6031793594495
 20
-631.3613930424693
 30
0.0
  0
VERTEX
  5
2419F
  8
1DIM
 10
401.6302440306741
 20
-631.379629961091
 30
0.0
  0
VERTEX
  5
241A0
  8
1DIM
 10
401.6575077077389
 20
-631.3974854134412
 30
0.0
  0
VERTEX
  5
241A1
  8
1DIM
 10
401.6849758500954
 20
-631.4149708406665
 30
0.0
  0
VERTEX
  5
241A2
  8
1DIM
 10
401.7126485675491
 20
-631.4320860438224
 30
0.0
  0
VERTEX
  5
241A3
  8
1DIM
 10
401.7405259699055
 20
-631.4488308239647
 30
0.0
  0
VERTEX
  5
241A4
  8
1DIM
 10
401.7686081669704
 20
-631.4652049821491
 30
0.0
  0
VERTEX
  5
241A5
  8
1DIM
 10
401.7968952685492
 20
-631.4812083194311
 30
0.0
  0
VERTEX
  5
241A6
  8
1DIM
 10
401.8253873844477
 20
-631.4968406368661
 30
0.0
  0
VERTEX
  5
241A7
  8
1DIM
 10
401.8540846244713
 20
-631.5121017355099
 30
0.0
  0
VERTEX
  5
241A8
  8
1DIM
 10
401.8829870984258
 20
-631.5269914164181
 30
0.0
  0
VERTEX
  5
241A9
  8
1DIM
 10
401.9120949161166
 20
-631.5415094806465
 30
0.0
  0
VERTEX
  5
241AA
  8
1DIM
 10
401.9414081873494
 20
-631.5556557292505
 30
0.0
  0
VERTEX
  5
241AB
  8
1DIM
 10
401.9709270219298
 20
-631.5694299632856
 30
0.0
  0
VERTEX
  5
241AC
  8
1DIM
 10
402.0006515296634
 20
-631.5828319838076
 30
0.0
  0
VERTEX
  5
241AD
  8
1DIM
 10
402.0305818203558
 20
-631.5958615918722
 30
0.0
  0
VERTEX
  5
241AE
  8
1DIM
 10
402.0607180038126
 20
-631.6085185885348
 30
0.0
  0
VERTEX
  5
241AF
  8
1DIM
 10
402.0910524528676
 20
-631.6207938448974
 30
0.0
  0
VERTEX
  5
241B0
  8
1DIM
 10
402.1215699991159
 20
-631.6326764896894
 30
0.0
  0
VERTEX
  5
241B1
  8
1DIM
 10
402.1522594405042
 20
-631.6441637104075
 30
0.0
  0
VERTEX
  5
241B2
  8
1DIM
 10
402.1831095749796
 20
-631.6552526945486
 30
0.0
  0
VERTEX
  5
241B3
  8
1DIM
 10
402.214109200489
 20
-631.6659406296096
 30
0.0
  0
VERTEX
  5
241B4
  8
1DIM
 10
402.2452471149792
 20
-631.6762247030872
 30
0.0
  0
VERTEX
  5
241B5
  8
1DIM
 10
402.2765121163973
 20
-631.6861021024785
 30
0.0
  0
VERTEX
  5
241B6
  8
1DIM
 10
402.3078930026902
 20
-631.6955700152799
 30
0.0
  0
VERTEX
  5
241B7
  8
1DIM
 10
402.3393785718048
 20
-631.7046256289885
 30
0.0
  0
VERTEX
  5
241B8
  8
1DIM
 10
402.370957621688
 20
-631.7132661311011
 30
0.0
  0
VERTEX
  5
241B9
  8
1DIM
 10
402.4026189502869
 20
-631.7214887091146
 30
0.0
  0
VERTEX
  5
241BA
  8
1DIM
 10
402.4343513555484
 20
-631.7292905505258
 30
0.0
  0
VERTEX
  5
241BB
  8
1DIM
 10
402.4661436354192
 20
-631.7366688428314
 30
0.0
  0
VERTEX
  5
241BC
  8
1DIM
 10
402.4979845878465
 20
-631.7436207735283
 30
0.0
  0
VERTEX
  5
241BD
  8
1DIM
 10
402.5298630107772
 20
-631.7501435301133
 30
0.0
  0
VERTEX
  5
241BE
  8
1DIM
 10
402.5617914316826
 20
-631.7562446603237
 30
0.0
  0
VERTEX
  5
241BF
  8
1DIM
 10
402.5937899768319
 20
-631.761932816806
 30
0.0
  0
VERTEX
  5
241C0
  8
1DIM
 10
402.6258588423688
 20
-631.7672068444207
 30
0.0
  0
VERTEX
  5
241C1
  8
1DIM
 10
402.6579982244372
 20
-631.772065588028
 30
0.0
  0
VERTEX
  5
241C2
  8
1DIM
 10
402.6902083191806
 20
-631.7765078924884
 30
0.0
  0
VERTEX
  5
241C3
  8
1DIM
 10
402.7224893227428
 20
-631.7805326026627
 30
0.0
  0
VERTEX
  5
241C4
  8
1DIM
 10
402.7548414312676
 20
-631.7841385634109
 30
0.0
  0
VERTEX
  5
241C5
  8
1DIM
 10
402.7872648408987
 20
-631.7873246195937
 30
0.0
  0
VERTEX
  5
241C6
  8
1DIM
 10
402.8197597477798
 20
-631.7900896160717
 30
0.0
  0
VERTEX
  5
241C7
  8
1DIM
 10
402.8523263480545
 20
-631.792432397705
 30
0.0
  0
VERTEX
  5
241C8
  8
1DIM
 10
402.8849648378668
 20
-631.7943518093543
 30
0.0
  0
VERTEX
  5
241C9
  8
1DIM
 10
402.9176754133603
 20
-631.7958466958801
 30
0.0
  0
VERTEX
  5
241CA
  8
1DIM
 10
402.9504582706786
 20
-631.7969159021426
 30
0.0
  0
VERTEX
  5
241CB
  8
1DIM
 10
402.9833136059656
 20
-631.7975582730024
 30
0.0
  0
VERTEX
  5
241CC
  8
1DIM
 10
403.0162416153649
 20
-631.7977726533201
 30
0.0
  0
SEQEND
  5
24503
  8
1DIM
  0
POLYLINE
  5
200A4
  8
1DIM
 66
     1
 10
0.0
 20
0.0
 30
0.0
  0
VERTEX
  5
241CD
  8
1DIM
 10
599.516241615365
 20
-629.3051040316192
 30
0.0
  0
VERTEX
  5
241CE
  8
1DIM
 10
599.5160201025492
 20
-629.3380595579819
 30
0.0
  0
VERTEX
  5
241CF
  8
1DIM
 10
599.51535674935
 20
-629.3709954096571
 30
0.0
  0
VERTEX
  5
241D0
  8
1DIM
 10
599.5142533336391
 20
-629.4039059173833
 30
0.0
  0
VERTEX
  5
241D1
  8
1DIM
 10
599.5127116332885
 20
-629.436785411899
 30
0.0
  0
VERTEX
  5
241D2
  8
1DIM
 10
599.5107334261704
 20
-629.4696282239428
 30
0.0
  0
VERTEX
  5
241D3
  8
1DIM
 10
599.5083204901564
 20
-629.5024286842531
 30
0.0
  0
VERTEX
  5
241D4
  8
1DIM
 10
599.5054746031186
 20
-629.5351811235686
 30
0.0
  0
VERTEX
  5
241D5
  8
1DIM
 10
599.5021975429291
 20
-629.5678798726279
 30
0.0
  0
VERTEX
  5
241D6
  8
1DIM
 10
599.4984910874596
 20
-629.6005192621694
 30
0.0
  0
VERTEX
  5
241D7
  8
1DIM
 10
599.4943570145821
 20
-629.6330936229317
 30
0.0
  0
VERTEX
  5
241D8
  8
1DIM
 10
599.4897971021687
 20
-629.6655972856532
 30
0.0
  0
VERTEX
  5
241D9
  8
1DIM
 10
599.4848131280912
 20
-629.6980245810728
 30
0.0
  0
VERTEX
  5
241DA
  8
1DIM
 10
599.4794068702215
 20
-629.7303698399288
 30
0.0
  0
VERTEX
  5
241DB
  8
1DIM
 10
599.4735801064318
 20
-629.7626273929598
 30
0.0
  0
VERTEX
  5
241DC
  8
1DIM
 10
599.4673346145938
 20
-629.7947915709042
 30
0.0
  0
VERTEX
  5
241DD
  8
1DIM
 10
599.4606721725794
 20
-629.8268567045008
 30
0.0
  0
VERTEX
  5
241DE
  8
1DIM
 10
599.4535945582608
 20
-629.858817124488
 30
0.0
  0
VERTEX
  5
241DF
  8
1DIM
 10
599.4461035495096
 20
-629.8906671616044
 30
0.0
  0
VERTEX
  5
241E0
  8
1DIM
 10
599.4382009241982
 20
-629.9224011465885
 30
0.0
  0
VERTEX
  5
241E1
  8
1DIM
 10
599.4298884601983
 20
-629.954013410179
 30
0.0
  0
VERTEX
  5
241E2
  8
1DIM
 10
599.4211679353818
 20
-629.9854982831141
 30
0.0
  0
VERTEX
  5
241E3
  8
1DIM
 10
599.4120411276207
 20
-630.0168500961327
 30
0.0
  0
VERTEX
  5
241E4
  8
1DIM
 10
599.402509814787
 20
-630.0480631799733
 30
0.0
  0
VERTEX
  5
241E5
  8
1DIM
 10
599.3925757747526
 20
-630.0791318653742
 30
0.0
  0
VERTEX
  5
241E6
  8
1DIM
 10
599.3822407853894
 20
-630.1100504830742
 30
0.0
  0
VERTEX
  5
241E7
  8
1DIM
 10
599.3715066245693
 20
-630.1408133638117
 30
0.0
  0
VERTEX
  5
241E8
  8
1DIM
 10
599.3603750701645
 20
-630.1714148383253
 30
0.0
  0
VERTEX
  5
241E9
  8
1DIM
 10
599.3488479000466
 20
-630.2018492373536
 30
0.0
  0
VERTEX
  5
241EA
  8
1DIM
 10
599.336926892088
 20
-630.2321108916351
 30
0.0
  0
VERTEX
  5
241EB
  8
1DIM
 10
599.3246138241601
 20
-630.2621941319084
 30
0.0
  0
VERTEX
  5
241EC
  8
1DIM
 10
599.3119011432404
 20
-630.2921199727598
 30
0.0
  0
VERTEX
  5
241ED
  8
1DIM
 10
599.2987821420447
 20
-630.321908356181
 30
0.0
  0
VERTEX
  5
241EE
  8
1DIM
 10
599.2852598670526
 20
-630.3515520040175
 30
0.0
  0
VERTEX
  5
241EF
  8
1DIM
 10
599.2713373647439
 20
-630.3810436381152
 30
0.0
  0
VERTEX
  5
241F0
  8
1DIM
 10
599.2570176815983
 20
-630.4103759803199
 30
0.0
  0
VERTEX
  5
241F1
  8
1DIM
 10
599.2423038640954
 20
-630.4395417524773
 30
0.0
  0
VERTEX
  5
241F2
  8
1DIM
 10
599.2271989587155
 20
-630.4685336764333
 30
0.0
  0
VERTEX
  5
241F3
  8
1DIM
 10
599.2117060119377
 20
-630.4973444740335
 30
0.0
  0
VERTEX
  5
241F4
  8
1DIM
 10
599.1958280702422
 20
-630.5259668671239
 30
0.0
  0
VERTEX
  5
241F5
  8
1DIM
 10
599.1795681801086
 20
-630.5543935775501
 30
0.0
  0
VERTEX
  5
241F6
  8
1DIM
 10
599.1629293880167
 20
-630.5826173271579
 30
0.0
  0
VERTEX
  5
241F7
  8
1DIM
 10
599.1459147404462
 20
-630.6106308377932
 30
0.0
  0
VERTEX
  5
241F8
  8
1DIM
 10
599.1285272838768
 20
-630.6384268313018
 30
0.0
  0
VERTEX
  5
241F9
  8
1DIM
 10
599.1107700647883
 20
-630.6659980295294
 30
0.0
  0
VERTEX
  5
241FA
  8
1DIM
 10
599.0926461296605
 20
-630.6933371543216
 30
0.0
  0
VERTEX
  5
241FB
  8
1DIM
 10
599.0741789344072
 20
-630.7204141612777
 30
0.0
  0
VERTEX
  5
241FC
  8
1DIM
 10
599.0553902515268
 20
-630.7472041679688
 30
0.0
  0
VERTEX
  5
241FD
  8
1DIM
 10
599.0362806023759
 20
-630.7737076391983
 30
0.0
  0
VERTEX
  5
241FE
  8
1DIM
 10
599.0168505083111
 20
-630.7999250397702
 30
0.0
  0
VERTEX
  5
241FF
  8
1DIM
 10
598.9971004906888
 20
-630.8258568344881
 30
0.0
  0
VERTEX
  5
24200
  8
1DIM
 10
598.9770310708655
 20
-630.8515034881557
 30
0.0
  0
VERTEX
  5
24201
  8
1DIM
 10
598.9566427701978
 20
-630.8768654655769
 30
0.0
  0
VERTEX
  5
24202
  8
1DIM
 10
598.9359361100423
 20
-630.9019432315552
 30
0.0
  0
VERTEX
  5
24203
  8
1DIM
 10
598.9149116117555
 20
-630.9267372508942
 30
0.0
  0
VERTEX
  5
24204
  8
1DIM
 10
598.893569796694
 20
-630.951247988398
 30
0.0
  0
VERTEX
  5
24205
  8
1DIM
 10
598.8719111862142
 20
-630.9754759088701
 30
0.0
  0
VERTEX
  5
24206
  8
1DIM
 10
598.8499363016726
 20
-630.9994214771142
 30
0.0
  0
VERTEX
  5
24207
  8
1DIM
 10
598.827645664426
 20
-631.0230851579341
 30
0.0
  0
VERTEX
  5
24208
  8
1DIM
 10
598.8050397958308
 20
-631.0464674161335
 30
0.0
  0
VERTEX
  5
24209
  8
1DIM
 10
598.7821192172435
 20
-631.0695687165162
 30
0.0
  0
VERTEX
  5
2420A
  8
1DIM
 10
598.7588660191605
 20
-631.0923981744282
 30
0.0
  0
VERTEX
  5
2420B
  8
1DIM
 10
598.7352692587849
 20
-631.1149585486929
 30
0.0
  0
VERTEX
  5
2420C
  8
1DIM
 10
598.7113399075341
 20
-631.13724076933
 30
0.0
  0
VERTEX
  5
2420D
  8
1DIM
 10
598.687088936825
 20
-631.1592357663585
 30
0.0
  0
VERTEX
  5
2420E
  8
1DIM
 10
598.6625273180747
 20
-631.1809344697983
 30
0.0
  0
VERTEX
  5
2420F
  8
1DIM
 10
598.6376660227002
 20
-631.2023278096688
 30
0.0
  0
VERTEX
  5
24210
  8
1DIM
 10
598.6125160221186
 20
-631.2234067159892
 30
0.0
  0
VERTEX
  5
24211
  8
1DIM
 10
598.587088287747
 20
-631.2441621187792
 30
0.0
  0
VERTEX
  5
24212
  8
1DIM
 10
598.5613937910022
 20
-631.2645849480582
 30
0.0
  0
VERTEX
  5
24213
  8
1DIM
 10
598.5354435033015
 20
-631.2846661338456
 30
0.0
  0
VERTEX
  5
24214
  8
1DIM
 10
598.5092483960619
 20
-631.304396606161
 30
0.0
  0
VERTEX
  5
24215
  8
1DIM
 10
598.4828194407005
 20
-631.3237672950238
 30
0.0
  0
VERTEX
  5
24216
  8
1DIM
 10
598.4561676086344
 20
-631.3427691304533
 30
0.0
  0
VERTEX
  5
24217
  8
1DIM
 10
598.4293038712804
 20
-631.3613930424693
 30
0.0
  0
VERTEX
  5
24218
  8
1DIM
 10
598.4022392000558
 20
-631.379629961091
 30
0.0
  0
VERTEX
  5
24219
  8
1DIM
 10
598.3749755229909
 20
-631.3974854134412
 30
0.0
  0
VERTEX
  5
2421A
  8
1DIM
 10
598.3475073806344
 20
-631.4149708406665
 30
0.0
  0
VERTEX
  5
2421B
  8
1DIM
 10
598.3198346631807
 20
-631.4320860438224
 30
0.0
  0
VERTEX
  5
2421C
  8
1DIM
 10
598.2919572608242
 20
-631.4488308239647
 30
0.0
  0
VERTEX
  5
2421D
  8
1DIM
 10
598.2638750637594
 20
-631.4652049821491
 30
0.0
  0
VERTEX
  5
2421E
  8
1DIM
 10
598.2355879621806
 20
-631.4812083194311
 30
0.0
  0
VERTEX
  5
2421F
  8
1DIM
 10
598.2070958462821
 20
-631.4968406368661
 30
0.0
  0
VERTEX
  5
24220
  8
1DIM
 10
598.1783986062585
 20
-631.5121017355099
 30
0.0
  0
VERTEX
  5
24221
  8
1DIM
 10
598.1494961323041
 20
-631.5269914164181
 30
0.0
  0
VERTEX
  5
24222
  8
1DIM
 10
598.1203883146131
 20
-631.5415094806465
 30
0.0
  0
VERTEX
  5
24223
  8
1DIM
 10
598.0910750433804
 20
-631.5556557292505
 30
0.0
  0
VERTEX
  5
24224
  8
1DIM
 10
598.0615562088
 20
-631.5694299632856
 30
0.0
  0
VERTEX
  5
24225
  8
1DIM
 10
598.0318317010664
 20
-631.5828319838076
 30
0.0
  0
VERTEX
  5
24226
  8
1DIM
 10
598.001901410374
 20
-631.5958615918722
 30
0.0
  0
VERTEX
  5
24227
  8
1DIM
 10
597.9717652269173
 20
-631.6085185885348
 30
0.0
  0
VERTEX
  5
24228
  8
1DIM
 10
597.9414307778623
 20
-631.6207938448974
 30
0.0
  0
VERTEX
  5
24229
  8
1DIM
 10
597.910913231614
 20
-631.6326764896894
 30
0.0
  0
VERTEX
  5
2422A
  8
1DIM
 10
597.8802237902257
 20
-631.6441637104075
 30
0.0
  0
VERTEX
  5
2422B
  8
1DIM
 10
597.8493736557504
 20
-631.6552526945486
 30
0.0
  0
VERTEX
  5
2422C
  8
1DIM
 10
597.818374030241
 20
-631.6659406296096
 30
0.0
  0
VERTEX
  5
2422D
  8
1DIM
 10
597.7872361157507
 20
-631.6762247030872
 30
0.0
  0
VERTEX
  5
2422E
  8
1DIM
 10
597.7559711143326
 20
-631.6861021024785
 30
0.0
  0
VERTEX
  5
2422F
  8
1DIM
 10
597.7245902280397
 20
-631.6955700152799
 30
0.0
  0
VERTEX
  5
24230
  8
1DIM
 10
597.6931046589251
 20
-631.7046256289885
 30
0.0
  0
VERTEX
  5
24231
  8
1DIM
 10
597.6615256090417
 20
-631.7132661311011
 30
0.0
  0
VERTEX
  5
24232
  8
1DIM
 10
597.6298642804429
 20
-631.7214887091146
 30
0.0
  0
VERTEX
  5
24233
  8
1DIM
 10
597.5981318751816
 20
-631.7292905505258
 30
0.0
  0
VERTEX
  5
24234
  8
1DIM
 10
597.5663395953106
 20
-631.7366688428314
 30
0.0
  0
VERTEX
  5
24235
  8
1DIM
 10
597.5344986428834
 20
-631.7436207735283
 30
0.0
  0
VERTEX
  5
24236
  8
1DIM
 10
597.5026202199526
 20
-631.7501435301133
 30
0.0
  0
VERTEX
  5
24237
  8
1DIM
 10
597.4706917990472
 20
-631.7562446603237
 30
0.0
  0
VERTEX
  5
24238
  8
1DIM
 10
597.438693253898
 20
-631.761932816806
 30
0.0
  0
VERTEX
  5
24239
  8
1DIM
 10
597.406624388361
 20
-631.7672068444207
 30
0.0
  0
VERTEX
  5
2423A
  8
1DIM
 10
597.3744850062926
 20
-631.772065588028
 30
0.0
  0
VERTEX
  5
2423B
  8
1DIM
 10
597.3422749115493
 20
-631.7765078924884
 30
0.0
  0
VERTEX
  5
2423C
  8
1DIM
 10
597.3099939079871
 20
-631.7805326026627
 30
0.0
  0
VERTEX
  5
2423D
  8
1DIM
 10
597.2776417994623
 20
-631.7841385634109
 30
0.0
  0
VERTEX
  5
2423E
  8
1DIM
 10
597.2452183898313
 20
-631.7873246195937
 30
0.0
  0
VERTEX
  5
2423F
  8
1DIM
 10
597.2127234829502
 20
-631.7900896160717
 30
0.0
  0
VERTEX
  5
24240
  8
1DIM
 10
597.1801568826754
 20
-631.792432397705
 30
0.0
  0
VERTEX
  5
24241
  8
1DIM
 10
597.1475183928632
 20
-631.7943518093543
 30
0.0
  0
VERTEX
  5
24242
  8
1DIM
 10
597.1148078173696
 20
-631.7958466958801
 30
0.0
  0
VERTEX
  5
24243
  8
1DIM
 10
597.0820249600514
 20
-631.7969159021426
 30
0.0
  0
VERTEX
  5
24244
  8
1DIM
 10
597.0491696247643
 20
-631.7975582730024
 30
0.0
  0
VERTEX
  5
24245
  8
1DIM
 10
597.016241615365
 20
-631.7977726533201
 30
0.0
  0
SEQEND
  5
24504
  8
1DIM
  0
LINE
  5
200A5
  8
1DIM
 10
403.0162416153649
 20
-631.7977726533201
 30
0.0
 11
597.016241615365
 21
-631.7977726533201
 31
0.0
  0
LINE
  5
200A6
  8
1DIM
 10
593.016241615365
 20
-623.3475921053733
 30
0.0
 11
593.016241615365
 21
-597.5054868422154
 31
0.0
  0
POLYLINE
  5
200A7
  8
1DIM
 66
     1
 10
0.0
 20
0.0
 30
0.0
  0
VERTEX
  5
24246
  8
1DIM
 10
593.016241615365
 20
-597.5054868422154
 30
0.0
  0
VERTEX
  5
24247
  8
1DIM
 10
593.0159807776207
 20
-597.4496200167242
 30
0.0
  0
VERTEX
  5
24248
  8
1DIM
 10
593.0151989941045
 20
-597.3938443789128
 30
0.0
  0
VERTEX
  5
24249
  8
1DIM
 10
593.013897359391
 20
-597.3381597273876
 30
0.0
  0
VERTEX
  5
2424A
  8
1DIM
 10
593.0120769680548
 20
-597.282565860755
 30
0.0
  0
VERTEX
  5
2424B
  8
1DIM
 10
593.0097389146706
 20
-597.2270625776214
 30
0.0
  0
VERTEX
  5
2424C
  8
1DIM
 10
593.0068842938128
 20
-597.1716496765932
 30
0.0
  0
VERTEX
  5
2424D
  8
1DIM
 10
593.0035142000564
 20
-597.1163269562772
 30
0.0
  0
VERTEX
  5
2424E
  8
1DIM
 10
592.9996297279761
 20
-597.0610942152799
 30
0.0
  0
VERTEX
  5
2424F
  8
1DIM
 10
592.9952319721461
 20
-597.0059512522074
 30
0.0
  0
VERTEX
  5
24250
  8
1DIM
 10
592.9903220271414
 20
-596.9508978656664
 30
0.0
  0
VERTEX
  5
24251
  8
1DIM
 10
592.9849009875367
 20
-596.8959338542635
 30
0.0
  0
VERTEX
  5
24252
  8
1DIM
 10
592.9789699479063
 20
-596.841059016605
 30
0.0
  0
VERTEX
  5
24253
  8
1DIM
 10
592.9725300028251
 20
-596.7862731512973
 30
0.0
  0
VERTEX
  5
24254
  8
1DIM
 10
592.9655822468678
 20
-596.7315760569471
 30
0.0
  0
VERTEX
  5
24255
  8
1DIM
 10
592.9581277746089
 20
-596.6769675321608
 30
0.0
  0
VERTEX
  5
24256
  8
1DIM
 10
592.950167680623
 20
-596.6224473755449
 30
0.0
  0
VERTEX
  5
24257
  8
1DIM
 10
592.9417030594852
 20
-596.5680153857056
 30
0.0
  0
VERTEX
  5
24258
  8
1DIM
 10
592.9327350057696
 20
-596.51367136125
 30
0.0
  0
VERTEX
  5
24259
  8
1DIM
 10
592.9232646140512
 20
-596.459415100784
 30
0.0
  0
VERTEX
  5
2425A
  8
1DIM
 10
592.9132929789042
 20
-596.4052464029143
 30
0.0
  0
VERTEX
  5
2425B
  8
1DIM
 10
592.9028211949038
 20
-596.3511650662473
 30
0.0
  0
VERTEX
  5
2425C
  8
1DIM
 10
592.891848160376
 20
-596.297171257743
 30
0.0
  0
VERTEX
  5
2425D
  8
1DIM
 10
592.8803713822265
 20
-596.2432653770747
 30
0.0
  0
VERTEX
  5
2425E
  8
1DIM
 10
592.8683898679002
 20
-596.18944757192
 30
0.0
  0
VERTEX
  5
2425F
  8
1DIM
 10
592.8559026248413
 20
-596.1357179899554
 30
0.0
  0
VERTEX
  5
24260
  8
1DIM
 10
592.8429086604945
 20
-596.0820767788584
 30
0.0
  0
VERTEX
  5
24261
  8
1DIM
 10
592.8294069823038
 20
-596.0285240863058
 30
0.0
  0
VERTEX
  5
24262
  8
1DIM
 10
592.8153965977142
 20
-595.9750600599747
 30
0.0
  0
VERTEX
  5
24263
  8
1DIM
 10
592.80087651417
 20
-595.9216848475422
 30
0.0
  0
VERTEX
  5
24264
  8
1DIM
 10
592.7858457391155
 20
-595.8683985966853
 30
0.0
  0
VERTEX
  5
24265
  8
1DIM
 10
592.7703032799952
 20
-595.8152014550813
 30
0.0
  0
VERTEX
  5
24266
  8
1DIM
 10
592.7542455208763
 20
-595.762088425996
 30
0.0
  0
VERTEX
  5
24267
  8
1DIM
 10
592.7376591480336
 20
-595.7090374833239
 30
0.0
  0
VERTEX
  5
24268
  8
1DIM
 10
592.7205492832205
 20
-595.6560658449662
 30
0.0
  0
VERTEX
  5
24269
  8
1DIM
 10
592.7029240514681
 20
-595.6031968390887
 30
0.0
  0
VERTEX
  5
2426A
  8
1DIM
 10
592.6847915778072
 20
-595.5504537938568
 30
0.0
  0
VERTEX
  5
2426B
  8
1DIM
 10
592.6661599872683
 20
-595.4978600374368
 30
0.0
  0
VERTEX
  5
2426C
  8
1DIM
 10
592.6470374048822
 20
-595.4454388979942
 30
0.0
  0
VERTEX
  5
2426D
  8
1DIM
 10
592.6274319556799
 20
-595.3932137036949
 30
0.0
  0
VERTEX
  5
2426E
  8
1DIM
 10
592.6073517646918
 20
-595.3412077827046
 30
0.0
  0
VERTEX
  5
2426F
  8
1DIM
 10
592.5868049569489
 20
-595.2894444631889
 30
0.0
  0
VERTEX
  5
24270
  8
1DIM
 10
592.5657996574818
 20
-595.2379470733141
 30
0.0
  0
VERTEX
  5
24271
  8
1DIM
 10
592.5443412001157
 20
-595.186715473053
 30
0.0
  0
VERTEX
  5
24272
  8
1DIM
 10
592.5224296451879
 20
-595.1357338591715
 30
0.0
  0
VERTEX
  5
24273
  8
1DIM
 10
592.5000652074974
 20
-595.0850020650241
 30
0.0
  0
VERTEX
  5
24274
  8
1DIM
 10
592.477248101843
 20
-595.0345199239647
 30
0.0
  0
VERTEX
  5
24275
  8
1DIM
 10
592.4539785430235
 20
-594.9842872693481
 30
0.0
  0
VERTEX
  5
24276
  8
1DIM
 10
592.4302567458378
 20
-594.9343039345282
 30
0.0
  0
VERTEX
  5
24277
  8
1DIM
 10
592.4060829250847
 20
-594.8845697528595
 30
0.0
  0
VERTEX
  5
24278
  8
1DIM
 10
592.3814572955631
 20
-594.8350845576964
 30
0.0
  0
VERTEX
  5
24279
  8
1DIM
 10
592.3563800720718
 20
-594.785848182393
 30
0.0
  0
VERTEX
  5
2427A
  8
1DIM
 10
592.3308514694098
 20
-594.7368604603039
 30
0.0
  0
VERTEX
  5
2427B
  8
1DIM
 10
592.304871702376
 20
-594.6881212247832
 30
0.0
  0
VERTEX
  5
2427C
  8
1DIM
 10
592.2784409857691
 20
-594.6396303091853
 30
0.0
  0
VERTEX
  5
2427D
  8
1DIM
 10
592.251559534388
 20
-594.5913875468647
 30
0.0
  0
VERTEX
  5
2427E
  8
1DIM
 10
592.2242275630316
 20
-594.5433927711755
 30
0.0
  0
VERTEX
  5
2427F
  8
1DIM
 10
592.1964452864987
 20
-594.4956458154718
 30
0.0
  0
VERTEX
  5
24280
  8
1DIM
 10
592.1682129195882
 20
-594.4481465131084
 30
0.0
  0
VERTEX
  5
24281
  8
1DIM
 10
592.1395306770992
 20
-594.4008946974395
 30
0.0
  0
VERTEX
  5
24282
  8
1DIM
 10
592.11039877383
 20
-594.3538902018191
 30
0.0
  0
VERTEX
  5
24283
  8
1DIM
 10
592.0808174245801
 20
-594.3071328596021
 30
0.0
  0
VERTEX
  5
24284
  8
1DIM
 10
592.0507868441479
 20
-594.2606225041422
 30
0.0
  0
VERTEX
  5
24285
  8
1DIM
 10
592.0203072473324
 20
-594.2143589687942
 30
0.0
  0
VERTEX
  5
24286
  8
1DIM
 10
591.9893588189146
 20
-594.1683272627341
 30
0.0
  0
VERTEX
  5
24287
  8
1DIM
 10
591.9579267286383
 20
-594.1225191057111
 30
0.0
  0
VERTEX
  5
24288
  8
1DIM
 10
591.9260186687468
 20
-594.0769443969378
 30
0.0
  0
VERTEX
  5
24289
  8
1DIM
 10
591.8936423314831
 20
-594.031613035627
 30
0.0
  0
VERTEX
  5
2428A
  8
1DIM
 10
591.8608054090906
 20
-593.9865349209914
 30
0.0
  0
VERTEX
  5
2428B
  8
1DIM
 10
591.8275155938124
 20
-593.9417199522437
 30
0.0
  0
VERTEX
  5
2428C
  8
1DIM
 10
591.7937805778918
 20
-593.897178028597
 30
0.0
  0
VERTEX
  5
2428D
  8
1DIM
 10
591.7596080535719
 20
-593.8529190492634
 30
0.0
  0
VERTEX
  5
2428E
  8
1DIM
 10
591.725005713096
 20
-593.8089529134563
 30
0.0
  0
VERTEX
  5
2428F
  8
1DIM
 10
591.6899812487073
 20
-593.7652895203884
 30
0.0
  0
VERTEX
  5
24290
  8
1DIM
 10
591.6545423526491
 20
-593.7219387692721
 30
0.0
  0
VERTEX
  5
24291
  8
1DIM
 10
591.6186967171643
 20
-593.6789105593206
 30
0.0
  0
VERTEX
  5
24292
  8
1DIM
 10
591.5824520344964
 20
-593.6362147897463
 30
0.0
  0
VERTEX
  5
24293
  8
1DIM
 10
591.5458159968887
 20
-593.5938613597621
 30
0.0
  0
VERTEX
  5
24294
  8
1DIM
 10
591.5087962965839
 20
-593.5518601685808
 30
0.0
  0
VERTEX
  5
24295
  8
1DIM
 10
591.4714006258258
 20
-593.5102211154152
 30
0.0
  0
VERTEX
  5
24296
  8
1DIM
 10
591.4336366768573
 20
-593.468954099478
 30
0.0
  0
VERTEX
  5
24297
  8
1DIM
 10
591.3955121419216
 20
-593.428069019982
 30
0.0
  0
VERTEX
  5
24298
  8
1DIM
 10
591.357034713262
 20
-593.3875757761398
 30
0.0
  0
VERTEX
  5
24299
  8
1DIM
 10
591.3182120831217
 20
-593.3474842671644
 30
0.0
  0
VERTEX
  5
2429A
  8
1DIM
 10
591.279051943744
 20
-593.3078043922686
 30
0.0
  0
VERTEX
  5
2429B
  8
1DIM
 10
591.2395539264692
 20
-593.2685255098462
 30
0.0
  0
VERTEX
  5
2429C
  8
1DIM
 10
591.199712282912
 20
-593.2296306183788
 30
0.0
  0
VERTEX
  5
2429D
  8
1DIM
 10
591.1595266357256
 20
-593.1911200772104
 30
0.0
  0
VERTEX
  5
2429E
  8
1DIM
 10
591.1189966075638
 20
-593.1529942456846
 30
0.0
  0
VERTEX
  5
2429F
  8
1DIM
 10
591.07812182108
 20
-593.1152534831456
 30
0.0
  0
VERTEX
  5
242A0
  8
1DIM
 10
591.0369018989277
 20
-593.0778981489373
 30
0.0
  0
VERTEX
  5
242A1
  8
1DIM
 10
590.9953364637607
 20
-593.0409286024035
 30
0.0
  0
VERTEX
  5
242A2
  8
1DIM
 10
590.9534251382324
 20
-593.0043452028881
 30
0.0
  0
VERTEX
  5
242A3
  8
1DIM
 10
590.9111675449965
 20
-592.968148309735
 30
0.0
  0
VERTEX
  5
242A4
  8
1DIM
 10
590.8685633067063
 20
-592.9323382822882
 30
0.0
  0
VERTEX
  5
242A5
  8
1DIM
 10
590.8256120460156
 20
-592.8969154798917
 30
0.0
  0
VERTEX
  5
242A6
  8
1DIM
 10
590.7823133855779
 20
-592.8618802618894
 30
0.0
  0
VERTEX
  5
242A7
  8
1DIM
 10
590.7386669480468
 20
-592.8272329876248
 30
0.0
  0
VERTEX
  5
242A8
  8
1DIM
 10
590.6946723560757
 20
-592.7929740164424
 30
0.0
  0
VERTEX
  5
242A9
  8
1DIM
 10
590.6503292323183
 20
-592.7591037076857
 30
0.0
  0
VERTEX
  5
242AA
  8
1DIM
 10
590.6056371994282
 20
-592.7256224206988
 30
0.0
  0
VERTEX
  5
242AB
  8
1DIM
 10
590.5605958800588
 20
-592.6925305148253
 30
0.0
  0
VERTEX
  5
242AC
  8
1DIM
 10
590.5152048968639
 20
-592.6598283494096
 30
0.0
  0
VERTEX
  5
242AD
  8
1DIM
 10
590.4694638724968
 20
-592.6275162837953
 30
0.0
  0
VERTEX
  5
242AE
  8
1DIM
 10
590.4233724296113
 20
-592.5955946773264
 30
0.0
  0
VERTEX
  5
242AF
  8
1DIM
 10
590.3769301908608
 20
-592.5640638893468
 30
0.0
  0
VERTEX
  5
242B0
  8
1DIM
 10
590.3301115735601
 20
-592.5329147125634
 30
0.0
  0
VERTEX
  5
242B1
  8
1DIM
 10
590.2829055786447
 20
-592.5021468610214
 30
0.0
  0
VERTEX
  5
242B2
  8
1DIM
 10
590.2353337041993
 20
-592.4717740760719
 30
0.0
  0
VERTEX
  5
242B3
  8
1DIM
 10
590.1874174483089
 20
-592.4418100990661
 30
0.0
  0
VERTEX
  5
242B4
  8
1DIM
 10
590.1391783090581
 20
-592.4122686713552
 30
0.0
  0
VERTEX
  5
242B5
  8
1DIM
 10
590.0906377845315
 20
-592.3831635342901
 30
0.0
  0
VERTEX
  5
242B6
  8
1DIM
 10
590.0418173728141
 20
-592.3545084292222
 30
0.0
  0
VERTEX
  5
242B7
  8
1DIM
 10
589.9927385719905
 20
-592.3263170975025
 30
0.0
  0
VERTEX
  5
242B8
  8
1DIM
 10
589.9434228801454
 20
-592.2986032804822
 30
0.0
  0
VERTEX
  5
242B9
  8
1DIM
 10
589.8938917953637
 20
-592.2713807195124
 30
0.0
  0
VERTEX
  5
242BA
  8
1DIM
 10
589.8441644470915
 20
-592.2446605616977
 30
0.0
  0
VERTEX
  5
242BB
  8
1DIM
 10
589.7942401897621
 20
-592.2184354877719
 30
0.0
  0
VERTEX
  5
242BC
  8
1DIM
 10
589.7441178826131
 20
-592.1927026017164
 30
0.0
  0
VERTEX
  5
242BD
  8
1DIM
 10
589.6937978722062
 20
-592.1674609911877
 30
0.0
  0
VERTEX
  5
242BE
  8
1DIM
 10
589.643280505104
 20
-592.142709743843
 30
0.0
  0
VERTEX
  5
242BF
  8
1DIM
 10
589.5925661278682
 20
-592.1184479473393
 30
0.0
  0
VERTEX
  5
242C0
  8
1DIM
 10
589.5416550870613
 20
-592.0946746893337
 30
0.0
  0
VERTEX
  5
242C1
  8
1DIM
 10
589.4905477292452
 20
-592.071389057483
 30
0.0
  0
VERTEX
  5
242C2
  8
1DIM
 10
589.4392444009823
 20
-592.0485901394445
 30
0.0
  0
VERTEX
  5
242C3
  8
1DIM
 10
589.3877454488345
 20
-592.026277022875
 30
0.0
  0
VERTEX
  5
242C4
  8
1DIM
 10
589.3360512193642
 20
-592.0044487954317
 30
0.0
  0
VERTEX
  5
242C5
  8
1DIM
 10
589.2841626616187
 20
-591.9831030417098
 30
0.0
  0
VERTEX
  5
242C6
  8
1DIM
 10
589.2320801732006
 20
-591.9622387244108
 30
0.0
  0
VERTEX
  5
242C7
  8
1DIM
 10
589.1798032735051
 20
-591.9418569983507
 30
0.0
  0
VERTEX
  5
242C8
  8
1DIM
 10
589.1273314819266
 20
-591.921959018345
 30
0.0
  0
VERTEX
  5
242C9
  8
1DIM
 10
589.0746643178605
 20
-591.9025459392097
 30
0.0
  0
VERTEX
  5
242CA
  8
1DIM
 10
589.0218013007011
 20
-591.8836189157606
 30
0.0
  0
VERTEX
  5
242CB
  8
1DIM
 10
588.9687419498438
 20
-591.8651791028137
 30
0.0
  0
VERTEX
  5
242CC
  8
1DIM
 10
588.9154857846833
 20
-591.8472276551846
 30
0.0
  0
VERTEX
  5
242CD
  8
1DIM
 10
588.8620323246145
 20
-591.8297657276894
 30
0.0
  0
VERTEX
  5
242CE
  8
1DIM
 10
588.8083810890321
 20
-591.8127944751435
 30
0.0
  0
VERTEX
  5
242CF
  8
1DIM
 10
588.7545315973313
 20
-591.7963150523631
 30
0.0
  0
VERTEX
  5
242D0
  8
1DIM
 10
588.7004833689068
 20
-591.780328614164
 30
0.0
  0
VERTEX
  5
242D1
  8
1DIM
 10
588.6462359231534
 20
-591.7648363153618
 30
0.0
  0
VERTEX
  5
242D2
  8
1DIM
 10
588.5917887794664
 20
-591.7498393107726
 30
0.0
  0
VERTEX
  5
242D3
  8
1DIM
 10
588.5371414572403
 20
-591.7353387552122
 30
0.0
  0
VERTEX
  5
242D4
  8
1DIM
 10
588.4822934758699
 20
-591.7213358034961
 30
0.0
  0
VERTEX
  5
242D5
  8
1DIM
 10
588.4272443547505
 20
-591.7078316104406
 30
0.0
  0
VERTEX
  5
242D6
  8
1DIM
 10
588.3719936132767
 20
-591.6948273308614
 30
0.0
  0
VERTEX
  5
242D7
  8
1DIM
 10
588.3165407708434
 20
-591.6823241195741
 30
0.0
  0
VERTEX
  5
242D8
  8
1DIM
 10
588.2608853468455
 20
-591.6703231313946
 30
0.0
  0
VERTEX
  5
242D9
  8
1DIM
 10
588.2050268606781
 20
-591.658825521139
 30
0.0
  0
VERTEX
  5
242DA
  8
1DIM
 10
588.149032819274
 20
-591.6478465972732
 30
0.0
  0
VERTEX
  5
242DB
  8
1DIM
 10
588.0929716452002
 20
-591.6374010476815
 30
0.0
  0
VERTEX
  5
242DC
  8
1DIM
 10
588.0368442313024
 20
-591.6274890963069
 30
0.0
  0
VERTEX
  5
242DD
  8
1DIM
 10
587.9806514704266
 20
-591.6181109670921
 30
0.0
  0
VERTEX
  5
242DE
  8
1DIM
 10
587.9243942554181
 20
-591.6092668839799
 30
0.0
  0
VERTEX
  5
242DF
  8
1DIM
 10
587.8680734791228
 20
-591.6009570709132
 30
0.0
  0
VERTEX
  5
242E0
  8
1DIM
 10
587.8116900343864
 20
-591.5931817518348
 30
0.0
  0
VERTEX
  5
242E1
  8
1DIM
 10
587.7552448140547
 20
-591.5859411506877
 30
0.0
  0
VERTEX
  5
242E2
  8
1DIM
 10
587.6987387109733
 20
-591.5792354914147
 30
0.0
  0
VERTEX
  5
242E3
  8
1DIM
 10
587.642172617988
 20
-591.5730649979586
 30
0.0
  0
VERTEX
  5
242E4
  8
1DIM
 10
587.5855474279443
 20
-591.5674298942623
 30
0.0
  0
VERTEX
  5
242E5
  8
1DIM
 10
587.5288640336884
 20
-591.5623304042686
 30
0.0
  0
VERTEX
  5
242E6
  8
1DIM
 10
587.4721233280655
 20
-591.5577667519203
 30
0.0
  0
VERTEX
  5
242E7
  8
1DIM
 10
587.4153262039217
 20
-591.5537391611604
 30
0.0
  0
VERTEX
  5
242E8
  8
1DIM
 10
587.3584735541025
 20
-591.5502478559317
 30
0.0
  0
VERTEX
  5
242E9
  8
1DIM
 10
587.3015662714537
 20
-591.547293060177
 30
0.0
  0
VERTEX
  5
242EA
  8
1DIM
 10
587.2446052488209
 20
-591.5448749978392
 30
0.0
  0
VERTEX
  5
242EB
  8
1DIM
 10
587.1875913790499
 20
-591.5429938928612
 30
0.0
  0
VERTEX
  5
242EC
  8
1DIM
 10
587.1305255549864
 20
-591.5416499691856
 30
0.0
  0
VERTEX
  5
242ED
  8
1DIM
 10
587.0734086694763
 20
-591.5408434507556
 30
0.0
  0
VERTEX
  5
242EE
  8
1DIM
 10
587.016241615365
 20
-591.5405745615138
 30
0.0
  0
SEQEND
  5
24505
  8
1DIM
  0
LINE
  5
200A8
  8
1DIM
 10
413.0162416153649
 20
-591.5405745615138
 30
0.0
 11
587.016241615365
 21
-591.5405745615138
 31
0.0
  0
POLYLINE
  5
200A9
  8
1DIM
 66
     1
 10
0.0
 20
0.0
 30
0.0
  0
VERTEX
  5
242EF
  8
1DIM
 10
407.0162416153649
 20
-597.5054868422154
 30
0.0
  0
VERTEX
  5
242F0
  8
1DIM
 10
407.0165024531091
 20
-597.4496200167242
 30
0.0
  0
VERTEX
  5
242F1
  8
1DIM
 10
407.0172842366254
 20
-597.3938443789128
 30
0.0
  0
VERTEX
  5
242F2
  8
1DIM
 10
407.0185858713389
 20
-597.3381597273876
 30
0.0
  0
VERTEX
  5
242F3
  8
1DIM
 10
407.0204062626751
 20
-597.282565860755
 30
0.0
  0
VERTEX
  5
242F4
  8
1DIM
 10
407.0227443160593
 20
-597.2270625776214
 30
0.0
  0
VERTEX
  5
242F5
  8
1DIM
 10
407.025598936917
 20
-597.1716496765932
 30
0.0
  0
VERTEX
  5
242F6
  8
1DIM
 10
407.0289690306734
 20
-597.1163269562772
 30
0.0
  0
VERTEX
  5
242F7
  8
1DIM
 10
407.0328535027538
 20
-597.0610942152799
 30
0.0
  0
VERTEX
  5
242F8
  8
1DIM
 10
407.0372512585838
 20
-597.0059512522074
 30
0.0
  0
VERTEX
  5
242F9
  8
1DIM
 10
407.0421612035885
 20
-596.9508978656664
 30
0.0
  0
VERTEX
  5
242FA
  8
1DIM
 10
407.0475822431933
 20
-596.8959338542635
 30
0.0
  0
VERTEX
  5
242FB
  8
1DIM
 10
407.0535132828236
 20
-596.841059016605
 30
0.0
  0
VERTEX
  5
242FC
  8
1DIM
 10
407.0599532279048
 20
-596.7862731512973
 30
0.0
  0
VERTEX
  5
242FD
  8
1DIM
 10
407.0669009838621
 20
-596.7315760569471
 30
0.0
  0
VERTEX
  5
242FE
  8
1DIM
 10
407.074355456121
 20
-596.6769675321608
 30
0.0
  0
VERTEX
  5
242FF
  8
1DIM
 10
407.0823155501067
 20
-596.6224473755449
 30
0.0
  0
VERTEX
  5
24300
  8
1DIM
 10
407.0907801712447
 20
-596.5680153857056
 30
0.0
  0
VERTEX
  5
24301
  8
1DIM
 10
407.0997482249603
 20
-596.51367136125
 30
0.0
  0
VERTEX
  5
24302
  8
1DIM
 10
407.1092186166788
 20
-596.459415100784
 30
0.0
  0
VERTEX
  5
24303
  8
1DIM
 10
407.1191902518256
 20
-596.4052464029143
 30
0.0
  0
VERTEX
  5
24304
  8
1DIM
 10
407.129662035826
 20
-596.3511650662473
 30
0.0
  0
VERTEX
  5
24305
  8
1DIM
 10
407.1406350703539
 20
-596.297171257743
 30
0.0
  0
VERTEX
  5
24306
  8
1DIM
 10
407.1521118485033
 20
-596.2432653770747
 30
0.0
  0
VERTEX
  5
24307
  8
1DIM
 10
407.1640933628297
 20
-596.18944757192
 30
0.0
  0
VERTEX
  5
24308
  8
1DIM
 10
407.1765806058886
 20
-596.1357179899554
 30
0.0
  0
VERTEX
  5
24309
  8
1DIM
 10
407.1895745702355
 20
-596.0820767788584
 30
0.0
  0
VERTEX
  5
2430A
  8
1DIM
 10
407.2030762484261
 20
-596.0285240863058
 30
0.0
  0
VERTEX
  5
2430B
  8
1DIM
 10
407.2170866330158
 20
-595.9750600599747
 30
0.0
  0
VERTEX
  5
2430C
  8
1DIM
 10
407.23160671656
 20
-595.9216848475422
 30
0.0
  0
VERTEX
  5
2430D
  8
1DIM
 10
407.2466374916145
 20
-595.8683985966853
 30
0.0
  0
VERTEX
  5
2430E
  8
1DIM
 10
407.2621799507347
 20
-595.8152014550813
 30
0.0
  0
VERTEX
  5
2430F
  8
1DIM
 10
407.2782377098535
 20
-595.762088425996
 30
0.0
  0
VERTEX
  5
24310
  8
1DIM
 10
407.2948240826964
 20
-595.7090374833239
 30
0.0
  0
VERTEX
  5
24311
  8
1DIM
 10
407.3119339475094
 20
-595.6560658449662
 30
0.0
  0
VERTEX
  5
24312
  8
1DIM
 10
407.3295591792617
 20
-595.6031968390887
 30
0.0
  0
VERTEX
  5
24313
  8
1DIM
 10
407.3476916529227
 20
-595.5504537938568
 30
0.0
  0
VERTEX
  5
24314
  8
1DIM
 10
407.3663232434616
 20
-595.4978600374368
 30
0.0
  0
VERTEX
  5
24315
  8
1DIM
 10
407.3854458258475
 20
-595.4454388979942
 30
0.0
  0
VERTEX
  5
24316
  8
1DIM
 10
407.40505127505
 20
-595.3932137036949
 30
0.0
  0
VERTEX
  5
24317
  8
1DIM
 10
407.425131466038
 20
-595.3412077827046
 30
0.0
  0
VERTEX
  5
24318
  8
1DIM
 10
407.4456782737809
 20
-595.2894444631889
 30
0.0
  0
VERTEX
  5
24319
  8
1DIM
 10
407.466683573248
 20
-595.2379470733141
 30
0.0
  0
VERTEX
  5
2431A
  8
1DIM
 10
407.4881420306141
 20
-595.186715473053
 30
0.0
  0
VERTEX
  5
2431B
  8
1DIM
 10
407.5100535855418
 20
-595.1357338591715
 30
0.0
  0
VERTEX
  5
2431C
  8
1DIM
 10
407.5324180232323
 20
-595.0850020650241
 30
0.0
  0
VERTEX
  5
2431D
  8
1DIM
 10
407.5552351288868
 20
-595.0345199239647
 30
0.0
  0
VERTEX
  5
2431E
  8
1DIM
 10
407.5785046877064
 20
-594.9842872693481
 30
0.0
  0
VERTEX
  5
2431F
  8
1DIM
 10
407.6022264848921
 20
-594.9343039345282
 30
0.0
  0
VERTEX
  5
24320
  8
1DIM
 10
407.6264003056452
 20
-594.8845697528595
 30
0.0
  0
VERTEX
  5
24321
  8
1DIM
 10
407.6510259351668
 20
-594.8350845576964
 30
0.0
  0
VERTEX
  5
24322
  8
1DIM
 10
407.676103158658
 20
-594.785848182393
 30
0.0
  0
VERTEX
  5
24323
  8
1DIM
 10
407.70163176132
 20
-594.7368604603039
 30
0.0
  0
VERTEX
  5
24324
  8
1DIM
 10
407.7276115283539
 20
-594.6881212247832
 30
0.0
  0
VERTEX
  5
24325
  8
1DIM
 10
407.7540422449608
 20
-594.6396303091853
 30
0.0
  0
VERTEX
  5
24326
  8
1DIM
 10
407.7809236963419
 20
-594.5913875468647
 30
0.0
  0
VERTEX
  5
24327
  8
1DIM
 10
407.8082556676982
 20
-594.5433927711755
 30
0.0
  0
VERTEX
  5
24328
  8
1DIM
 10
407.8360379442311
 20
-594.4956458154718
 30
0.0
  0
VERTEX
  5
24329
  8
1DIM
 10
407.8642703111416
 20
-594.4481465131084
 30
0.0
  0
VERTEX
  5
2432A
  8
1DIM
 10
407.8929525536308
 20
-594.4008946974395
 30
0.0
  0
VERTEX
  5
2432B
  8
1DIM
 10
407.9220844568998
 20
-594.3538902018191
 30
0.0
  0
VERTEX
  5
2432C
  8
1DIM
 10
407.9516658061498
 20
-594.3071328596021
 30
0.0
  0
VERTEX
  5
2432D
  8
1DIM
 10
407.981696386582
 20
-594.2606225041422
 30
0.0
  0
VERTEX
  5
2432E
  8
1DIM
 10
408.0121759833974
 20
-594.2143589687942
 30
0.0
  0
VERTEX
  5
2432F
  8
1DIM
 10
408.0431244118152
 20
-594.1683272627341
 30
0.0
  0
VERTEX
  5
24330
  8
1DIM
 10
408.0745565020915
 20
-594.1225191057111
 30
0.0
  0
VERTEX
  5
24331
  8
1DIM
 10
408.1064645619831
 20
-594.0769443969378
 30
0.0
  0
VERTEX
  5
24332
  8
1DIM
 10
408.1388408992468
 20
-594.031613035627
 30
0.0
  0
VERTEX
  5
24333
  8
1DIM
 10
408.1716778216393
 20
-593.9865349209914
 30
0.0
  0
VERTEX
  5
24334
  8
1DIM
 10
408.2049676369174
 20
-593.9417199522437
 30
0.0
  0
VERTEX
  5
24335
  8
1DIM
 10
408.2387026528381
 20
-593.897178028597
 30
0.0
  0
VERTEX
  5
24336
  8
1DIM
 10
408.2728751771579
 20
-593.8529190492634
 30
0.0
  0
VERTEX
  5
24337
  8
1DIM
 10
408.3074775176338
 20
-593.8089529134563
 30
0.0
  0
VERTEX
  5
24338
  8
1DIM
 10
408.3425019820225
 20
-593.7652895203884
 30
0.0
  0
VERTEX
  5
24339
  8
1DIM
 10
408.3779408780808
 20
-593.7219387692721
 30
0.0
  0
VERTEX
  5
2433A
  8
1DIM
 10
408.4137865135655
 20
-593.6789105593206
 30
0.0
  0
VERTEX
  5
2433B
  8
1DIM
 10
408.4500311962334
 20
-593.6362147897463
 30
0.0
  0
VERTEX
  5
2433C
  8
1DIM
 10
408.4866672338412
 20
-593.5938613597621
 30
0.0
  0
VERTEX
  5
2433D
  8
1DIM
 10
408.5236869341459
 20
-593.5518601685808
 30
0.0
  0
VERTEX
  5
2433E
  8
1DIM
 10
408.5610826049041
 20
-593.5102211154152
 30
0.0
  0
VERTEX
  5
2433F
  8
1DIM
 10
408.5988465538725
 20
-593.468954099478
 30
0.0
  0
VERTEX
  5
24340
  8
1DIM
 10
408.6369710888082
 20
-593.428069019982
 30
0.0
  0
VERTEX
  5
24341
  8
1DIM
 10
408.6754485174678
 20
-593.3875757761398
 30
0.0
  0
VERTEX
  5
24342
  8
1DIM
 10
408.7142711476081
 20
-593.3474842671644
 30
0.0
  0
VERTEX
  5
24343
  8
1DIM
 10
408.7534312869859
 20
-593.3078043922686
 30
0.0
  0
VERTEX
  5
24344
  8
1DIM
 10
408.7929293042606
 20
-593.2685255098462
 30
0.0
  0
VERTEX
  5
24345
  8
1DIM
 10
408.8327709478178
 20
-593.2296306183788
 30
0.0
  0
VERTEX
  5
24346
  8
1DIM
 10
408.8729565950042
 20
-593.1911200772104
 30
0.0
  0
VERTEX
  5
24347
  8
1DIM
 10
408.9134866231661
 20
-593.1529942456846
 30
0.0
  0
VERTEX
  5
24348
  8
1DIM
 10
408.9543614096499
 20
-593.1152534831456
 30
0.0
  0
VERTEX
  5
24349
  8
1DIM
 10
408.9955813318021
 20
-593.0778981489373
 30
0.0
  0
VERTEX
  5
2434A
  8
1DIM
 10
409.0371467669692
 20
-593.0409286024035
 30
0.0
  0
VERTEX
  5
2434B
  8
1DIM
 10
409.0790580924975
 20
-593.0043452028881
 30
0.0
  0
VERTEX
  5
2434C
  8
1DIM
 10
409.1213156857334
 20
-592.968148309735
 30
0.0
  0
VERTEX
  5
2434D
  8
1DIM
 10
409.1639199240236
 20
-592.9323382822882
 30
0.0
  0
VERTEX
  5
2434E
  8
1DIM
 10
409.2068711847143
 20
-592.8969154798917
 30
0.0
  0
VERTEX
  5
2434F
  8
1DIM
 10
409.250169845152
 20
-592.8618802618894
 30
0.0
  0
VERTEX
  5
24350
  8
1DIM
 10
409.2938162826831
 20
-592.8272329876248
 30
0.0
  0
VERTEX
  5
24351
  8
1DIM
 10
409.3378108746542
 20
-592.7929740164424
 30
0.0
  0
VERTEX
  5
24352
  8
1DIM
 10
409.3821539984115
 20
-592.7591037076857
 30
0.0
  0
VERTEX
  5
24353
  8
1DIM
 10
409.4268460313017
 20
-592.7256224206988
 30
0.0
  0
VERTEX
  5
24354
  8
1DIM
 10
409.471887350671
 20
-592.6925305148253
 30
0.0
  0
VERTEX
  5
24355
  8
1DIM
 10
409.517278333866
 20
-592.6598283494096
 30
0.0
  0
VERTEX
  5
24356
  8
1DIM
 10
409.5630193582331
 20
-592.6275162837953
 30
0.0
  0
VERTEX
  5
24357
  8
1DIM
 10
409.6091108011187
 20
-592.5955946773264
 30
0.0
  0
VERTEX
  5
24358
  8
1DIM
 10
409.6555530398692
 20
-592.5640638893468
 30
0.0
  0
VERTEX
  5
24359
  8
1DIM
 10
409.7023716571699
 20
-592.5329147125634
 30
0.0
  0
VERTEX
  5
2435A
  8
1DIM
 10
409.7495776520853
 20
-592.5021468610214
 30
0.0
  0
VERTEX
  5
2435B
  8
1DIM
 10
409.7971495265306
 20
-592.4717740760719
 30
0.0
  0
VERTEX
  5
2435C
  8
1DIM
 10
409.845065782421
 20
-592.4418100990661
 30
0.0
  0
VERTEX
  5
2435D
  8
1DIM
 10
409.8933049216718
 20
-592.4122686713552
 30
0.0
  0
VERTEX
  5
2435E
  8
1DIM
 10
409.9418454461983
 20
-592.3831635342901
 30
0.0
  0
VERTEX
  5
2435F
  8
1DIM
 10
409.9906658579157
 20
-592.3545084292222
 30
0.0
  0
VERTEX
  5
24360
  8
1DIM
 10
410.0397446587393
 20
-592.3263170975025
 30
0.0
  0
VERTEX
  5
24361
  8
1DIM
 10
410.0890603505844
 20
-592.2986032804822
 30
0.0
  0
VERTEX
  5
24362
  8
1DIM
 10
410.1385914353662
 20
-592.2713807195124
 30
0.0
  0
VERTEX
  5
24363
  8
1DIM
 10
410.1883187836384
 20
-592.2446605616977
 30
0.0
  0
VERTEX
  5
24364
  8
1DIM
 10
410.2382430409676
 20
-592.2184354877719
 30
0.0
  0
VERTEX
  5
24365
  8
1DIM
 10
410.2883653481167
 20
-592.1927026017164
 30
0.0
  0
VERTEX
  5
24366
  8
1DIM
 10
410.3386853585235
 20
-592.1674609911877
 30
0.0
  0
VERTEX
  5
24367
  8
1DIM
 10
410.3892027256259
 20
-592.142709743843
 30
0.0
  0
VERTEX
  5
24368
  8
1DIM
 10
410.4399171028616
 20
-592.1184479473393
 30
0.0
  0
VERTEX
  5
24369
  8
1DIM
 10
410.4908281436686
 20
-592.0946746893337
 30
0.0
  0
VERTEX
  5
2436A
  8
1DIM
 10
410.5419355014847
 20
-592.071389057483
 30
0.0
  0
VERTEX
  5
2436B
  8
1DIM
 10
410.5932388297476
 20
-592.0485901394445
 30
0.0
  0
VERTEX
  5
2436C
  8
1DIM
 10
410.6447377818953
 20
-592.026277022875
 30
0.0
  0
VERTEX
  5
2436D
  8
1DIM
 10
410.6964320113656
 20
-592.0044487954317
 30
0.0
  0
VERTEX
  5
2436E
  8
1DIM
 10
410.7483205691111
 20
-591.9831030417098
 30
0.0
  0
VERTEX
  5
2436F
  8
1DIM
 10
410.8004030575291
 20
-591.9622387244108
 30
0.0
  0
VERTEX
  5
24370
  8
1DIM
 10
410.8526799572247
 20
-591.9418569983507
 30
0.0
  0
VERTEX
  5
24371
  8
1DIM
 10
410.9051517488031
 20
-591.921959018345
 30
0.0
  0
VERTEX
  5
24372
  8
1DIM
 10
410.9578189128694
 20
-591.9025459392097
 30
0.0
  0
VERTEX
  5
24373
  8
1DIM
 10
411.0106819300287
 20
-591.8836189157606
 30
0.0
  0
VERTEX
  5
24374
  8
1DIM
 10
411.0637412808859
 20
-591.8651791028137
 30
0.0
  0
VERTEX
  5
24375
  8
1DIM
 10
411.1169974460465
 20
-591.8472276551846
 30
0.0
  0
VERTEX
  5
24376
  8
1DIM
 10
411.1704509061154
 20
-591.8297657276894
 30
0.0
  0
VERTEX
  5
24377
  8
1DIM
 10
411.2241021416977
 20
-591.8127944751435
 30
0.0
  0
VERTEX
  5
24378
  8
1DIM
 10
411.2779516333985
 20
-591.7963150523631
 30
0.0
  0
VERTEX
  5
24379
  8
1DIM
 10
411.331999861823
 20
-591.780328614164
 30
0.0
  0
VERTEX
  5
2437A
  8
1DIM
 10
411.3862473075762
 20
-591.7648363153618
 30
0.0
  0
VERTEX
  5
2437B
  8
1DIM
 10
411.4406944512634
 20
-591.7498393107726
 30
0.0
  0
VERTEX
  5
2437C
  8
1DIM
 10
411.4953417734896
 20
-591.7353387552122
 30
0.0
  0
VERTEX
  5
2437D
  8
1DIM
 10
411.5501897548598
 20
-591.7213358034961
 30
0.0
  0
VERTEX
  5
2437E
  8
1DIM
 10
411.6052388759794
 20
-591.7078316104406
 30
0.0
  0
VERTEX
  5
2437F
  8
1DIM
 10
411.6604896174532
 20
-591.6948273308614
 30
0.0
  0
VERTEX
  5
24380
  8
1DIM
 10
411.7159424598864
 20
-591.6823241195741
 30
0.0
  0
VERTEX
  5
24381
  8
1DIM
 10
411.7715978838842
 20
-591.6703231313946
 30
0.0
  0
VERTEX
  5
24382
  8
1DIM
 10
411.8274563700517
 20
-591.658825521139
 30
0.0
  0
VERTEX
  5
24383
  8
1DIM
 10
411.8834504114559
 20
-591.6478465972732
 30
0.0
  0
VERTEX
  5
24384
  8
1DIM
 10
411.9395115855297
 20
-591.6374010476815
 30
0.0
  0
VERTEX
  5
24385
  8
1DIM
 10
411.9956389994274
 20
-591.6274890963069
 30
0.0
  0
VERTEX
  5
24386
  8
1DIM
 10
412.0518317603033
 20
-591.6181109670921
 30
0.0
  0
VERTEX
  5
24387
  8
1DIM
 10
412.1080889753118
 20
-591.6092668839799
 30
0.0
  0
VERTEX
  5
24388
  8
1DIM
 10
412.1644097516071
 20
-591.6009570709132
 30
0.0
  0
VERTEX
  5
24389
  8
1DIM
 10
412.2207931963434
 20
-591.5931817518348
 30
0.0
  0
VERTEX
  5
2438A
  8
1DIM
 10
412.2772384166752
 20
-591.5859411506877
 30
0.0
  0
VERTEX
  5
2438B
  8
1DIM
 10
412.3337445197566
 20
-591.5792354914147
 30
0.0
  0
VERTEX
  5
2438C
  8
1DIM
 10
412.3903106127419
 20
-591.5730649979586
 30
0.0
  0
VERTEX
  5
2438D
  8
1DIM
 10
412.4469358027854
 20
-591.5674298942623
 30
0.0
  0
VERTEX
  5
2438E
  8
1DIM
 10
412.5036191970415
 20
-591.5623304042686
 30
0.0
  0
VERTEX
  5
2438F
  8
1DIM
 10
412.5603599026642
 20
-591.5577667519203
 30
0.0
  0
VERTEX
  5
24390
  8
1DIM
 10
412.6171570268081
 20
-591.5537391611604
 30
0.0
  0
VERTEX
  5
24391
  8
1DIM
 10
412.6740096766273
 20
-591.5502478559317
 30
0.0
  0
VERTEX
  5
24392
  8
1DIM
 10
412.7309169592762
 20
-591.547293060177
 30
0.0
  0
VERTEX
  5
24393
  8
1DIM
 10
412.7878779819089
 20
-591.5448749978392
 30
0.0
  0
VERTEX
  5
24394
  8
1DIM
 10
412.8448918516798
 20
-591.5429938928612
 30
0.0
  0
VERTEX
  5
24395
  8
1DIM
 10
412.9019576757433
 20
-591.5416499691856
 30
0.0
  0
VERTEX
  5
24396
  8
1DIM
 10
412.9590745612535
 20
-591.5408434507556
 30
0.0
  0
VERTEX
  5
24397
  8
1DIM
 10
413.0162416153648
 20
-591.5405745615138
 30
0.0
  0
SEQEND
  5
24506
  8
1DIM
  0
LINE
  5
200AA
  8
1DIM
 10
407.0162416153649
 20
-623.3475921053733
 30
0.0
 11
407.0162416153649
 21
-597.5054868422154
 31
0.0
  0
POLYLINE
  5
200AB
  8
1DIM
 66
     1
 10
0.0
 20
0.0
 30
0.0
  0
VERTEX
  5
24398
  8
1DIM
 10
411.0162416153649
 20
-627.324200292508
 30
0.0
  0
VERTEX
  5
24399
  8
1DIM
 10
410.9698006018927
 20
-627.3239345821372
 30
0.0
  0
VERTEX
  5
2439A
  8
1DIM
 10
410.9234494538153
 20
-627.323138282824
 30
0.0
  0
VERTEX
  5
2439B
  8
1DIM
 10
410.8771879599983
 20
-627.3218126422667
 30
0.0
  0
VERTEX
  5
2439C
  8
1DIM
 10
410.8310159093072
 20
-627.3199589081639
 30
0.0
  0
VERTEX
  5
2439D
  8
1DIM
 10
410.7849330906072
 20
-627.3175783282143
 30
0.0
  0
VERTEX
  5
2439E
  8
1DIM
 10
410.738939292764
 20
-627.3146721501163
 30
0.0
  0
VERTEX
  5
2439F
  8
1DIM
 10
410.6930343046429
 20
-627.3112416215683
 30
0.0
  0
VERTEX
  5
243A0
  8
1DIM
 10
410.6472179151094
 20
-627.3072879902691
 30
0.0
  0
VERTEX
  5
243A1
  8
1DIM
 10
410.6014899130289
 20
-627.302812503917
 30
0.0
  0
VERTEX
  5
243A2
  8
1DIM
 10
410.5558500872668
 20
-627.2978164102107
 30
0.0
  0
VERTEX
  5
243A3
  8
1DIM
 10
410.5102982266886
 20
-627.2923009568484
 30
0.0
  0
VERTEX
  5
243A4
  8
1DIM
 10
410.4648341201597
 20
-627.2862673915289
 30
0.0
  0
VERTEX
  5
243A5
  8
1DIM
 10
410.4194575565456
 20
-627.2797169619508
 30
0.0
  0
VERTEX
  5
243A6
  8
1DIM
 10
410.3741683247116
 20
-627.2726509158125
 30
0.0
  0
VERTEX
  5
243A7
  8
1DIM
 10
410.3289662135233
 20
-627.2650705008124
 30
0.0
  0
VERTEX
  5
243A8
  8
1DIM
 10
410.283851011846
 20
-627.2569769646492
 30
0.0
  0
VERTEX
  5
243A9
  8
1DIM
 10
410.2388225085453
 20
-627.2483715550214
 30
0.0
  0
VERTEX
  5
243AA
  8
1DIM
 10
410.1938555450888
 20
-627.2392433997418
 30
0.0
  0
VERTEX
  5
243AB
  8
1DIM
 10
410.1489332499976
 20
-627.2295828122711
 30
0.0
  0
VERTEX
  5
243AC
  8
1DIM
 10
410.1040678427171
 20
-627.2193928187801
 30
0.0
  0
VERTEX
  5
243AD
  8
1DIM
 10
410.0592715426927
 20
-627.2086764454394
 30
0.0
  0
VERTEX
  5
243AE
  8
1DIM
 10
410.0145565693696
 20
-627.1974367184198
 30
0.0
  0
VERTEX
  5
243AF
  8
1DIM
 10
409.9699351421933
 20
-627.1856766638916
 30
0.0
  0
VERTEX
  5
243B0
  8
1DIM
 10
409.9254194806091
 20
-627.1733993080258
 30
0.0
  0
VERTEX
  5
243B1
  8
1DIM
 10
409.8810218040623
 20
-627.1606076769929
 30
0.0
  0
VERTEX
  5
243B2
  8
1DIM
 10
409.8367543319985
 20
-627.1473047969635
 30
0.0
  0
VERTEX
  5
243B3
  8
1DIM
 10
409.7926292838627
 20
-627.1334936941082
 30
0.0
  0
VERTEX
  5
243B4
  8
1DIM
 10
409.7486588791006
 20
-627.1191773945978
 30
0.0
  0
VERTEX
  5
243B5
  8
1DIM
 10
409.7048553371573
 20
-627.1043589246029
 30
0.0
  0
VERTEX
  5
243B6
  8
1DIM
 10
409.6612308774784
 20
-627.0890413102942
 30
0.0
  0
VERTEX
  5
243B7
  8
1DIM
 10
409.617797719509
 20
-627.0732275778422
 30
0.0
  0
VERTEX
  5
243B8
  8
1DIM
 10
409.5745680826948
 20
-627.0569207534177
 30
0.0
  0
VERTEX
  5
243B9
  8
1DIM
 10
409.5315541864808
 20
-627.0401238631913
 30
0.0
  0
VERTEX
  5
243BA
  8
1DIM
 10
409.4887682503125
 20
-627.0228399333336
 30
0.0
  0
VERTEX
  5
243BB
  8
1DIM
 10
409.4462279300305
 20
-627.0050820768098
 30
0.0
  0
VERTEX
  5
243BC
  8
1DIM
 10
409.4039426671661
 20
-626.9868615159992
 30
0.0
  0
VERTEX
  5
243BD
  8
1DIM
 10
409.3619123597013
 20
-626.9681784411929
 30
0.0
  0
VERTEX
  5
243BE
  8
1DIM
 10
409.3201369056184
 20
-626.9490330426827
 30
0.0
  0
VERTEX
  5
243BF
  8
1DIM
 10
409.2786162028992
 20
-626.9294255107599
 30
0.0
  0
VERTEX
  5
243C0
  8
1DIM
 10
409.2373501495258
 20
-626.9093560357159
 30
0.0
  0
VERTEX
  5
243C1
  8
1DIM
 10
409.1963386434802
 20
-626.8888248078422
 30
0.0
  0
VERTEX
  5
243C2
  8
1DIM
 10
409.1555815827444
 20
-626.8678320174301
 30
0.0
  0
VERTEX
  5
243C3
  8
1DIM
 10
409.1150788653006
 20
-626.8463778547716
 30
0.0
  0
VERTEX
  5
243C4
  8
1DIM
 10
409.0748303891306
 20
-626.8244625101574
 30
0.0
  0
VERTEX
  5
243C5
  8
1DIM
 10
409.0348360522166
 20
-626.8020861738794
 30
0.0
  0
VERTEX
  5
243C6
  8
1DIM
 10
408.9950957525406
 20
-626.779249036229
 30
0.0
  0
VERTEX
  5
243C7
  8
1DIM
 10
408.9556093880846
 20
-626.7559512874974
 30
0.0
  0
VERTEX
  5
243C8
  8
1DIM
 10
408.9163768568306
 20
-626.7321931179764
 30
0.0
  0
VERTEX
  5
243C9
  8
1DIM
 10
408.8773980567606
 20
-626.7079747179572
 30
0.0
  0
VERTEX
  5
243CA
  8
1DIM
 10
408.8386728858567
 20
-626.6832962777315
 30
0.0
  0
VERTEX
  5
243CB
  8
1DIM
 10
408.8002012421009
 20
-626.6581579875904
 30
0.0
  0
VERTEX
  5
243CC
  8
1DIM
 10
408.761975954533
 20
-626.6325452941227
 30
0.0
  0
VERTEX
  5
243CD
  8
1DIM
 10
408.7239979758309
 20
-626.6064501147254
 30
0.0
  0
VERTEX
  5
243CE
  8
1DIM
 10
408.6862793894334
 20
-626.5798823459016
 30
0.0
  0
VERTEX
  5
243CF
  8
1DIM
 10
408.6488322787798
 20
-626.5528518841552
 30
0.0
  0
VERTEX
  5
243D0
  8
1DIM
 10
408.6116687273092
 20
-626.5253686259892
 30
0.0
  0
VERTEX
  5
243D1
  8
1DIM
 10
408.5748008184604
 20
-626.4974424679076
 30
0.0
  0
VERTEX
  5
243D2
  8
1DIM
 10
408.5382406356728
 20
-626.4690833064137
 30
0.0
  0
VERTEX
  5
243D3
  8
1DIM
 10
408.5020002623851
 20
-626.440301038011
 30
0.0
  0
VERTEX
  5
243D4
  8
1DIM
 10
408.4660917820368
 20
-626.4111055592028
 30
0.0
  0
VERTEX
  5
243D5
  8
1DIM
 10
408.4305272780666
 20
-626.3815067664929
 30
0.0
  0
VERTEX
  5
243D6
  8
1DIM
 10
408.3953188339137
 20
-626.3515145563847
 30
0.0
  0
VERTEX
  5
243D7
  8
1DIM
 10
408.3604785330172
 20
-626.3211388253817
 30
0.0
  0
VERTEX
  5
243D8
  8
1DIM
 10
408.3260184588161
 20
-626.2903894699874
 30
0.0
  0
VERTEX
  5
243D9
  8
1DIM
 10
408.2919506947496
 20
-626.2592763867053
 30
0.0
  0
VERTEX
  5
243DA
  8
1DIM
 10
408.2582873242565
 20
-626.2278094720389
 30
0.0
  0
VERTEX
  5
243DB
  8
1DIM
 10
408.2250404307761
 20
-626.1959986224917
 30
0.0
  0
VERTEX
  5
243DC
  8
1DIM
 10
408.1922220977475
 20
-626.1638537345672
 30
0.0
  0
VERTEX
  5
243DD
  8
1DIM
 10
408.159817456174
 20
-626.1313703514433
 30
0.0
  0
VERTEX
  5
243DE
  8
1DIM
 10
408.12780398256
 20
-626.0985370647096
 30
0.0
  0
VERTEX
  5
243DF
  8
1DIM
 10
408.096182278596
 20
-626.0653533434871
 30
0.0
  0
VERTEX
  5
243E0
  8
1DIM
 10
408.0649529459727
 20
-626.0318186568971
 30
0.0
  0
VERTEX
  5
243E1
  8
1DIM
 10
408.0341165863804
 20
-625.9979324740606
 30
0.0
  0
VERTEX
  5
243E2
  8
1DIM
 10
408.0036738015098
 20
-625.9636942640986
 30
0.0
  0
VERTEX
  5
243E3
  8
1DIM
 10
407.9736251930513
 20
-625.9291034961324
 30
0.0
  0
VERTEX
  5
243E4
  8
1DIM
 10
407.9439713626955
 20
-625.8941596392827
 30
0.0
  0
VERTEX
  5
243E5
  8
1DIM
 10
407.9147129121331
 20
-625.8588621626709
 30
0.0
  0
VERTEX
  5
243E6
  8
1DIM
 10
407.8858504430543
 20
-625.8232105354182
 30
0.0
  0
VERTEX
  5
243E7
  8
1DIM
 10
407.8573845571498
 20
-625.7872042266454
 30
0.0
  0
VERTEX
  5
243E8
  8
1DIM
 10
407.8293158561102
 20
-625.7508427054738
 30
0.0
  0
VERTEX
  5
243E9
  8
1DIM
 10
407.8016449416258
 20
-625.7141254410243
 30
0.0
  0
VERTEX
  5
243EA
  8
1DIM
 10
407.7743724153873
 20
-625.6770519024182
 30
0.0
  0
VERTEX
  5
243EB
  8
1DIM
 10
407.7474988790852
 20
-625.6396215587763
 30
0.0
  0
VERTEX
  5
243EC
  8
1DIM
 10
407.7210249344101
 20
-625.60183387922
 30
0.0
  0
VERTEX
  5
243ED
  8
1DIM
 10
407.6949511830524
 20
-625.5636883328702
 30
0.0
  0
VERTEX
  5
243EE
  8
1DIM
 10
407.6693047630408
 20
-625.5252158177
 30
0.0
  0
VERTEX
  5
243EF
  8
1DIM
 10
407.6441146652245
 20
-625.4864529101847
 30
0.0
  0
VERTEX
  5
243F0
  8
1DIM
 10
407.619384270525
 20
-625.4474075971993
 30
0.0
  0
VERTEX
  5
243F1
  8
1DIM
 10
407.5951169598638
 20
-625.408087865619
 30
0.0
  0
VERTEX
  5
243F2
  8
1DIM
 10
407.5713161141625
 20
-625.3685017023186
 30
0.0
  0
VERTEX
  5
243F3
  8
1DIM
 10
407.5479851143423
 20
-625.328657094173
 30
0.0
  0
VERTEX
  5
243F4
  8
1DIM
 10
407.5251273413249
 20
-625.2885620280573
 30
0.0
  0
VERTEX
  5
243F5
  8
1DIM
 10
407.5027461760317
 20
-625.2482244908466
 30
0.0
  0
VERTEX
  5
243F6
  8
1DIM
 10
407.4808449993841
 20
-625.2076524694157
 30
0.0
  0
VERTEX
  5
243F7
  8
1DIM
 10
407.4594271923038
 20
-625.1668539506396
 30
0.0
  0
VERTEX
  5
243F8
  8
1DIM
 10
407.438496135712
 20
-625.1258369213934
 30
0.0
  0
VERTEX
  5
243F9
  8
1DIM
 10
407.4180552105304
 20
-625.084609368552
 30
0.0
  0
VERTEX
  5
243FA
  8
1DIM
 10
407.3981077976804
 20
-625.0431792789904
 30
0.0
  0
VERTEX
  5
243FB
  8
1DIM
 10
407.3786572780835
 20
-625.0015546395834
 30
0.0
  0
VERTEX
  5
243FC
  8
1DIM
 10
407.359707032661
 20
-624.9597434372065
 30
0.0
  0
VERTEX
  5
243FD
  8
1DIM
 10
407.3412604423347
 20
-624.917753658734
 30
0.0
  0
VERTEX
  5
243FE
  8
1DIM
 10
407.3233208880258
 20
-624.8755932910415
 30
0.0
  0
VERTEX
  5
243FF
  8
1DIM
 10
407.3058756916971
 20
-624.8332359828894
 30
0.0
  0
VERTEX
  5
24400
  8
1DIM
 10
407.288911775583
 20
-624.7906534593097
 30
0.0
  0
VERTEX
  5
24401
  8
1DIM
 10
407.272431921013
 20
-624.7478508215851
 30
0.0
  0
VERTEX
  5
24402
  8
1DIM
 10
407.2564389093166
 20
-624.7048331709973
 30
0.0
  0
VERTEX
  5
24403
  8
1DIM
 10
407.240935521823
 20
-624.6616056088286
 30
0.0
  0
VERTEX
  5
24404
  8
1DIM
 10
407.2259245398619
 20
-624.6181732363611
 30
0.0
  0
VERTEX
  5
24405
  8
1DIM
 10
407.2114087447624
 20
-624.574541154877
 30
0.0
  0
VERTEX
  5
24406
  8
1DIM
 10
407.1973909178542
 20
-624.5307144656584
 30
0.0
  0
VERTEX
  5
24407
  8
1DIM
 10
407.1838738404666
 20
-624.4866982699874
 30
0.0
  0
VERTEX
  5
24408
  8
1DIM
 10
407.170860293929
 20
-624.4424976691464
 30
0.0
  0
VERTEX
  5
24409
  8
1DIM
 10
407.1583530595709
 20
-624.3981177644173
 30
0.0
  0
VERTEX
  5
2440A
  8
1DIM
 10
407.1463549187216
 20
-624.3535636570822
 30
0.0
  0
VERTEX
  5
2440B
  8
1DIM
 10
407.1348686527105
 20
-624.3088404484234
 30
0.0
  0
VERTEX
  5
2440C
  8
1DIM
 10
407.1238970428672
 20
-624.263953239723
 30
0.0
  0
VERTEX
  5
2440D
  8
1DIM
 10
407.113442870521
 20
-624.218907132263
 30
0.0
  0
VERTEX
  5
2440E
  8
1DIM
 10
407.1035089170014
 20
-624.1737072273257
 30
0.0
  0
VERTEX
  5
2440F
  8
1DIM
 10
407.0940979636377
 20
-624.1283586261934
 30
0.0
  0
VERTEX
  5
24410
  8
1DIM
 10
407.0852175754873
 20
-624.0829076635275
 30
0.0
  0
VERTEX
  5
24411
  8
1DIM
 10
407.076873616249
 20
-624.0373972575775
 30
0.0
  0
VERTEX
  5
24412
  8
1DIM
 10
407.0690663152141
 20
-623.9918273850066
 30
0.0
  0
VERTEX
  5
24413
  8
1DIM
 10
407.0617959016745
 20
-623.9461980224784
 30
0.0
  0
VERTEX
  5
24414
  8
1DIM
 10
407.0550626049215
 20
-623.9005091466563
 30
0.0
  0
VERTEX
  5
24415
  8
1DIM
 10
407.0488666542466
 20
-623.854760734204
 30
0.0
  0
VERTEX
  5
24416
  8
1DIM
 10
407.0432082789416
 20
-623.8089527617847
 30
0.0
  0
VERTEX
  5
24417
  8
1DIM
 10
407.0380877082978
 20
-623.763085206062
 30
0.0
  0
VERTEX
  5
24418
  8
1DIM
 10
407.0335051716069
 20
-623.7171580436991
 30
0.0
  0
VERTEX
  5
24419
  8
1DIM
 10
407.0294608981602
 20
-623.67117125136
 30
0.0
  0
VERTEX
  5
2441A
  8
1DIM
 10
407.0259551172495
 20
-623.6251248057075
 30
0.0
  0
VERTEX
  5
2441B
  8
1DIM
 10
407.0229880581662
 20
-623.5790186834057
 30
0.0
  0
VERTEX
  5
2441C
  8
1DIM
 10
407.0205599502019
 20
-623.5328528611176
 30
0.0
  0
VERTEX
  5
2441D
  8
1DIM
 10
407.018671022648
 20
-623.486627315507
 30
0.0
  0
VERTEX
  5
2441E
  8
1DIM
 10
407.0173215047962
 20
-623.4403420232369
 30
0.0
  0
VERTEX
  5
2441F
  8
1DIM
 10
407.0165116259381
 20
-623.3939969609712
 30
0.0
  0
VERTEX
  5
24420
  8
1DIM
 10
407.0162416153649
 20
-623.3475921053733
 30
0.0
  0
SEQEND
  5
24507
  8
1DIM
  0
LINE
  5
200AC
  8
1DIM
 10
589.016241615365
 20
-627.324200292508
 30
0.0
 11
411.0162416153649
 21
-627.324200292508
 31
0.0
  0
POLYLINE
  5
200AD
  8
1DIM
 66
     1
 10
0.0
 20
0.0
 30
0.0
  0
VERTEX
  5
24421
  8
1DIM
 10
589.016241615365
 20
-627.324200292508
 30
0.0
  0
VERTEX
  5
24422
  8
1DIM
 10
589.0626826288371
 20
-627.3239345821372
 30
0.0
  0
VERTEX
  5
24423
  8
1DIM
 10
589.1090337769145
 20
-627.323138282824
 30
0.0
  0
VERTEX
  5
24424
  8
1DIM
 10
589.1552952707316
 20
-627.3218126422667
 30
0.0
  0
VERTEX
  5
24425
  8
1DIM
 10
589.2014673214227
 20
-627.3199589081639
 30
0.0
  0
VERTEX
  5
24426
  8
1DIM
 10
589.2475501401226
 20
-627.3175783282143
 30
0.0
  0
VERTEX
  5
24427
  8
1DIM
 10
589.2935439379659
 20
-627.3146721501163
 30
0.0
  0
VERTEX
  5
24428
  8
1DIM
 10
589.3394489260869
 20
-627.3112416215683
 30
0.0
  0
VERTEX
  5
24429
  8
1DIM
 10
589.3852653156205
 20
-627.3072879902691
 30
0.0
  0
VERTEX
  5
2442A
  8
1DIM
 10
589.4309933177011
 20
-627.302812503917
 30
0.0
  0
VERTEX
  5
2442B
  8
1DIM
 10
589.4766331434631
 20
-627.2978164102107
 30
0.0
  0
VERTEX
  5
2442C
  8
1DIM
 10
589.5221850040414
 20
-627.2923009568484
 30
0.0
  0
VERTEX
  5
2442D
  8
1DIM
 10
589.5676491105703
 20
-627.2862673915289
 30
0.0
  0
VERTEX
  5
2442E
  8
1DIM
 10
589.6130256741843
 20
-627.2797169619508
 30
0.0
  0
VERTEX
  5
2442F
  8
1DIM
 10
589.6583149060183
 20
-627.2726509158125
 30
0.0
  0
VERTEX
  5
24430
  8
1DIM
 10
589.7035170172067
 20
-627.2650705008124
 30
0.0
  0
VERTEX
  5
24431
  8
1DIM
 10
589.7486322188839
 20
-627.2569769646492
 30
0.0
  0
VERTEX
  5
24432
  8
1DIM
 10
589.7936607221847
 20
-627.2483715550214
 30
0.0
  0
VERTEX
  5
24433
  8
1DIM
 10
589.8386276856412
 20
-627.2392433997418
 30
0.0
  0
VERTEX
  5
24434
  8
1DIM
 10
589.8835499807323
 20
-627.2295828122711
 30
0.0
  0
VERTEX
  5
24435
  8
1DIM
 10
589.9284153880128
 20
-627.2193928187801
 30
0.0
  0
VERTEX
  5
24436
  8
1DIM
 10
589.9732116880373
 20
-627.2086764454394
 30
0.0
  0
VERTEX
  5
24437
  8
1DIM
 10
590.0179266613603
 20
-627.1974367184198
 30
0.0
  0
VERTEX
  5
24438
  8
1DIM
 10
590.0625480885366
 20
-627.1856766638916
 30
0.0
  0
VERTEX
  5
24439
  8
1DIM
 10
590.1070637501209
 20
-627.1733993080258
 30
0.0
  0
VERTEX
  5
2443A
  8
1DIM
 10
590.1514614266675
 20
-627.1606076769929
 30
0.0
  0
VERTEX
  5
2443B
  8
1DIM
 10
590.1957288987314
 20
-627.1473047969635
 30
0.0
  0
VERTEX
  5
2443C
  8
1DIM
 10
590.2398539468671
 20
-627.1334936941082
 30
0.0
  0
VERTEX
  5
2443D
  8
1DIM
 10
590.2838243516293
 20
-627.1191773945978
 30
0.0
  0
VERTEX
  5
2443E
  8
1DIM
 10
590.3276278935725
 20
-627.1043589246029
 30
0.0
  0
VERTEX
  5
2443F
  8
1DIM
 10
590.3712523532514
 20
-627.0890413102942
 30
0.0
  0
VERTEX
  5
24440
  8
1DIM
 10
590.4146855112207
 20
-627.0732275778422
 30
0.0
  0
VERTEX
  5
24441
  8
1DIM
 10
590.4579151480351
 20
-627.0569207534177
 30
0.0
  0
VERTEX
  5
24442
  8
1DIM
 10
590.500929044249
 20
-627.0401238631913
 30
0.0
  0
VERTEX
  5
24443
  8
1DIM
 10
590.5437149804172
 20
-627.0228399333336
 30
0.0
  0
VERTEX
  5
24444
  8
1DIM
 10
590.5862553006993
 20
-627.0050820768098
 30
0.0
  0
VERTEX
  5
24445
  8
1DIM
 10
590.6285405635637
 20
-626.9868615159992
 30
0.0
  0
VERTEX
  5
24446
  8
1DIM
 10
590.6705708710284
 20
-626.9681784411929
 30
0.0
  0
VERTEX
  5
24447
  8
1DIM
 10
590.7123463251114
 20
-626.9490330426827
 30
0.0
  0
VERTEX
  5
24448
  8
1DIM
 10
590.7538670278306
 20
-626.9294255107599
 30
0.0
  0
VERTEX
  5
24449
  8
1DIM
 10
590.7951330812041
 20
-626.9093560357159
 30
0.0
  0
VERTEX
  5
2444A
  8
1DIM
 10
590.8361445872497
 20
-626.8888248078422
 30
0.0
  0
VERTEX
  5
2444B
  8
1DIM
 10
590.8769016479853
 20
-626.8678320174301
 30
0.0
  0
VERTEX
  5
2444C
  8
1DIM
 10
590.9174043654292
 20
-626.8463778547716
 30
0.0
  0
VERTEX
  5
2444D
  8
1DIM
 10
590.9576528415992
 20
-626.8244625101574
 30
0.0
  0
VERTEX
  5
2444E
  8
1DIM
 10
590.9976471785131
 20
-626.8020861738794
 30
0.0
  0
VERTEX
  5
2444F
  8
1DIM
 10
591.0373874781892
 20
-626.779249036229
 30
0.0
  0
VERTEX
  5
24450
  8
1DIM
 10
591.0768738426452
 20
-626.7559512874974
 30
0.0
  0
VERTEX
  5
24451
  8
1DIM
 10
591.1161063738992
 20
-626.7321931179764
 30
0.0
  0
VERTEX
  5
24452
  8
1DIM
 10
591.1550851739693
 20
-626.7079747179572
 30
0.0
  0
VERTEX
  5
24453
  8
1DIM
 10
591.1938103448731
 20
-626.6832962777315
 30
0.0
  0
VERTEX
  5
24454
  8
1DIM
 10
591.2322819886289
 20
-626.6581579875904
 30
0.0
  0
VERTEX
  5
24455
  8
1DIM
 10
591.2705072761968
 20
-626.6325452941227
 30
0.0
  0
VERTEX
  5
24456
  8
1DIM
 10
591.308485254899
 20
-626.6064501147254
 30
0.0
  0
VERTEX
  5
24457
  8
1DIM
 10
591.3462038412964
 20
-626.5798823459016
 30
0.0
  0
VERTEX
  5
24458
  8
1DIM
 10
591.3836509519499
 20
-626.5528518841552
 30
0.0
  0
VERTEX
  5
24459
  8
1DIM
 10
591.4208145034206
 20
-626.5253686259892
 30
0.0
  0
VERTEX
  5
2445A
  8
1DIM
 10
591.4576824122694
 20
-626.4974424679076
 30
0.0
  0
VERTEX
  5
2445B
  8
1DIM
 10
591.494242595057
 20
-626.4690833064137
 30
0.0
  0
VERTEX
  5
2445C
  8
1DIM
 10
591.5304829683446
 20
-626.440301038011
 30
0.0
  0
VERTEX
  5
2445D
  8
1DIM
 10
591.566391448693
 20
-626.4111055592028
 30
0.0
  0
VERTEX
  5
2445E
  8
1DIM
 10
591.6019559526633
 20
-626.3815067664929
 30
0.0
  0
VERTEX
  5
2445F
  8
1DIM
 10
591.637164396816
 20
-626.3515145563847
 30
0.0
  0
VERTEX
  5
24460
  8
1DIM
 10
591.6720046977126
 20
-626.3211388253817
 30
0.0
  0
VERTEX
  5
24461
  8
1DIM
 10
591.7064647719137
 20
-626.2903894699874
 30
0.0
  0
VERTEX
  5
24462
  8
1DIM
 10
591.7405325359803
 20
-626.2592763867053
 30
0.0
  0
VERTEX
  5
24463
  8
1DIM
 10
591.7741959064734
 20
-626.2278094720389
 30
0.0
  0
VERTEX
  5
24464
  8
1DIM
 10
591.8074427999537
 20
-626.1959986224917
 30
0.0
  0
VERTEX
  5
24465
  8
1DIM
 10
591.8402611329824
 20
-626.1638537345672
 30
0.0
  0
VERTEX
  5
24466
  8
1DIM
 10
591.8726657745559
 20
-626.1313703514433
 30
0.0
  0
VERTEX
  5
24467
  8
1DIM
 10
591.9046792481699
 20
-626.0985370647096
 30
0.0
  0
VERTEX
  5
24468
  8
1DIM
 10
591.9363009521339
 20
-626.0653533434871
 30
0.0
  0
VERTEX
  5
24469
  8
1DIM
 10
591.9675302847573
 20
-626.0318186568971
 30
0.0
  0
VERTEX
  5
2446A
  8
1DIM
 10
591.9983666443495
 20
-625.9979324740606
 30
0.0
  0
VERTEX
  5
2446B
  8
1DIM
 10
592.0288094292202
 20
-625.9636942640986
 30
0.0
  0
VERTEX
  5
2446C
  8
1DIM
 10
592.0588580376786
 20
-625.9291034961324
 30
0.0
  0
VERTEX
  5
2446D
  8
1DIM
 10
592.0885118680344
 20
-625.8941596392827
 30
0.0
  0
VERTEX
  5
2446E
  8
1DIM
 10
592.1177703185969
 20
-625.8588621626709
 30
0.0
  0
VERTEX
  5
2446F
  8
1DIM
 10
592.1466327876757
 20
-625.8232105354182
 30
0.0
  0
VERTEX
  5
24470
  8
1DIM
 10
592.1750986735801
 20
-625.7872042266454
 30
0.0
  0
VERTEX
  5
24471
  8
1DIM
 10
592.2031673746199
 20
-625.7508427054738
 30
0.0
  0
VERTEX
  5
24472
  8
1DIM
 10
592.2308382891042
 20
-625.7141254410243
 30
0.0
  0
VERTEX
  5
24473
  8
1DIM
 10
592.2581108153427
 20
-625.6770519024182
 30
0.0
  0
VERTEX
  5
24474
  8
1DIM
 10
592.2849843516447
 20
-625.6396215587763
 30
0.0
  0
VERTEX
  5
24475
  8
1DIM
 10
592.3114582963199
 20
-625.60183387922
 30
0.0
  0
VERTEX
  5
24476
  8
1DIM
 10
592.3375320476775
 20
-625.5636883328702
 30
0.0
  0
VERTEX
  5
24477
  8
1DIM
 10
592.3631784676892
 20
-625.5252158177
 30
0.0
  0
VERTEX
  5
24478
  8
1DIM
 10
592.3883685655055
 20
-625.4864529101847
 30
0.0
  0
VERTEX
  5
24479
  8
1DIM
 10
592.4130989602049
 20
-625.4474075971993
 30
0.0
  0
VERTEX
  5
2447A
  8
1DIM
 10
592.437366270866
 20
-625.408087865619
 30
0.0
  0
VERTEX
  5
2447B
  8
1DIM
 10
592.4611671165675
 20
-625.3685017023186
 30
0.0
  0
VERTEX
  5
2447C
  8
1DIM
 10
592.4844981163876
 20
-625.328657094173
 30
0.0
  0
VERTEX
  5
2447D
  8
1DIM
 10
592.5073558894051
 20
-625.2885620280573
 30
0.0
  0
VERTEX
  5
2447E
  8
1DIM
 10
592.5297370546982
 20
-625.2482244908466
 30
0.0
  0
VERTEX
  5
2447F
  8
1DIM
 10
592.5516382313457
 20
-625.2076524694157
 30
0.0
  0
VERTEX
  5
24480
  8
1DIM
 10
592.5730560384261
 20
-625.1668539506396
 30
0.0
  0
VERTEX
  5
24481
  8
1DIM
 10
592.5939870950177
 20
-625.1258369213934
 30
0.0
  0
VERTEX
  5
24482
  8
1DIM
 10
592.6144280201994
 20
-625.084609368552
 30
0.0
  0
VERTEX
  5
24483
  8
1DIM
 10
592.6343754330495
 20
-625.0431792789904
 30
0.0
  0
VERTEX
  5
24484
  8
1DIM
 10
592.6538259526465
 20
-625.0015546395834
 30
0.0
  0
VERTEX
  5
24485
  8
1DIM
 10
592.6727761980687
 20
-624.9597434372065
 30
0.0
  0
VERTEX
  5
24486
  8
1DIM
 10
592.6912227883951
 20
-624.917753658734
 30
0.0
  0
VERTEX
  5
24487
  8
1DIM
 10
592.709162342704
 20
-624.8755932910415
 30
0.0
  0
VERTEX
  5
24488
  8
1DIM
 10
592.7266075390327
 20
-624.8332359828894
 30
0.0
  0
VERTEX
  5
24489
  8
1DIM
 10
592.7435714551468
 20
-624.7906534593097
 30
0.0
  0
VERTEX
  5
2448A
  8
1DIM
 10
592.7600513097168
 20
-624.7478508215851
 30
0.0
  0
VERTEX
  5
2448B
  8
1DIM
 10
592.7760443214132
 20
-624.7048331709973
 30
0.0
  0
VERTEX
  5
2448C
  8
1DIM
 10
592.7915477089067
 20
-624.6616056088286
 30
0.0
  0
VERTEX
  5
2448D
  8
1DIM
 10
592.806558690868
 20
-624.6181732363611
 30
0.0
  0
VERTEX
  5
2448E
  8
1DIM
 10
592.8210744859673
 20
-624.574541154877
 30
0.0
  0
VERTEX
  5
2448F
  8
1DIM
 10
592.8350923128756
 20
-624.5307144656584
 30
0.0
  0
VERTEX
  5
24490
  8
1DIM
 10
592.8486093902632
 20
-624.4866982699874
 30
0.0
  0
VERTEX
  5
24491
  8
1DIM
 10
592.8616229368008
 20
-624.4424976691464
 30
0.0
  0
VERTEX
  5
24492
  8
1DIM
 10
592.874130171159
 20
-624.3981177644173
 30
0.0
  0
VERTEX
  5
24493
  8
1DIM
 10
592.8861283120083
 20
-624.3535636570822
 30
0.0
  0
VERTEX
  5
24494
  8
1DIM
 10
592.8976145780193
 20
-624.3088404484234
 30
0.0
  0
VERTEX
  5
24495
  8
1DIM
 10
592.9085861878626
 20
-624.263953239723
 30
0.0
  0
VERTEX
  5
24496
  8
1DIM
 10
592.9190403602088
 20
-624.218907132263
 30
0.0
  0
VERTEX
  5
24497
  8
1DIM
 10
592.9289743137284
 20
-624.1737072273257
 30
0.0
  0
VERTEX
  5
24498
  8
1DIM
 10
592.9383852670921
 20
-624.1283586261934
 30
0.0
  0
VERTEX
  5
24499
  8
1DIM
 10
592.9472656552425
 20
-624.0829076635275
 30
0.0
  0
VERTEX
  5
2449A
  8
1DIM
 10
592.955609614481
 20
-624.0373972575775
 30
0.0
  0
VERTEX
  5
2449B
  8
1DIM
 10
592.9634169155157
 20
-623.9918273850066
 30
0.0
  0
VERTEX
  5
2449C
  8
1DIM
 10
592.9706873290554
 20
-623.9461980224784
 30
0.0
  0
VERTEX
  5
2449D
  8
1DIM
 10
592.9774206258083
 20
-623.9005091466563
 30
0.0
  0
VERTEX
  5
2449E
  8
1DIM
 10
592.9836165764832
 20
-623.854760734204
 30
0.0
  0
VERTEX
  5
2449F
  8
1DIM
 10
592.9892749517883
 20
-623.8089527617847
 30
0.0
  0
VERTEX
  5
244A0
  8
1DIM
 10
592.994395522432
 20
-623.763085206062
 30
0.0
  0
VERTEX
  5
244A1
  8
1DIM
 10
592.998978059123
 20
-623.7171580436991
 30
0.0
  0
VERTEX
  5
244A2
  8
1DIM
 10
593.0030223325697
 20
-623.67117125136
 30
0.0
  0
VERTEX
  5
244A3
  8
1DIM
 10
593.0065281134804
 20
-623.6251248057075
 30
0.0
  0
VERTEX
  5
244A4
  8
1DIM
 10
593.0094951725638
 20
-623.5790186834057
 30
0.0
  0
VERTEX
  5
244A5
  8
1DIM
 10
593.0119232805281
 20
-623.5328528611176
 30
0.0
  0
VERTEX
  5
244A6
  8
1DIM
 10
593.013812208082
 20
-623.486627315507
 30
0.0
  0
VERTEX
  5
244A7
  8
1DIM
 10
593.0151617259336
 20
-623.4403420232369
 30
0.0
  0
VERTEX
  5
244A8
  8
1DIM
 10
593.0159716047918
 20
-623.3939969609712
 30
0.0
  0
VERTEX
  5
244A9
  8
1DIM
 10
593.016241615365
 20
-623.3475921053733
 30
0.0
  0
SEQEND
  5
24508
  8
1DIM
  0
LINE
  5
200AE
  8
01
  6
CONTINUOUS
 10
599.516241615365
 20
-580.2976601456666
 30
0.0
 11
400.5162416153649
 21
-580.2976601456666
 31
0.0
  0
LINE
  5
200AF
  8
1DIM
 10
413.0162416153649
 20
-591.5405745615138
 30
0.0
 11
413.0162416153649
 21
-592.2976601456666
 31
0.0
  0
ARC
  5
200B0
  8
1DIM
 10
407.2554436314153
 20
-596.1466914779143
 30
0.0
 40
1.379689257234739
 50
260.0159608379225
 51
303.4649700898209
  0
LINE
  5
200B1
  8
1DIM
 10
587.016241615365
 20
-591.5405745615138
 30
0.0
 11
587.016241615365
 21
-592.2976601456666
 31
0.0
  0
ARC
  5
200B2
  8
1DIM
 10
592.7770395993144
 20
-596.1466914779145
 30
0.0
 40
1.379689257234564
 50
236.5350299101779
 51
279.9840391620783
  0
LINE
  5
200B3
  8
01
  6
CONTINUOUS
 10
587.016241615365
 20
-592.2976601456666
 30
0.0
 11
413.0162416153649
 21
-592.2976601456666
 31
0.0
  0
ARC
  5
200B4
  8
01
  6
CONTINUOUS
 10
587.016241615365
 20
-597.2976601456666
 30
0.0
 40
5.0
 50
0.0
 51
90.0
  0
LINE
  5
200B5
  8
01
  6
CONTINUOUS
 10
592.016241615365
 20
-597.2976601456666
 30
0.0
 11
592.016241615365
 21
-623.2976601456666
 31
0.0
  0
ARC
  5
200B6
  8
1DIM
 10
592.7668649155149
 20
-618.3033298347056
 30
0.0
 40
5.050422813360462
 50
261.4527000032506
 51
272.8302669706676
  0
LINE
  5
200B7
  8
01
  6
CONTINUOUS
 10
408.0162416153649
 20
-597.2976601456664
 30
0.0
 11
408.0162416153649
 21
-623.2976601456666
 31
0.0
  0
ARC
  5
200B8
  8
01
  6
CONTINUOUS
 10
413.0162416153649
 20
-597.2976601456666
 30
0.0
 40
5.0
 50
90.0
 51
180.0
  0
ARC
  5
200B9
  8
01
  6
CONTINUOUS
 10
411.0162416153649
 20
-623.2976601456666
 30
0.0
 40
3.0
 50
180.0
 51
270.0
  0
ARC
  5
200BA
  8
1DIM
 10
407.265618315215
 20
-618.303329834704
 30
0.0
 40
5.050422813361933
 50
267.1697330293324
 51
278.5472999967493
  0
LINE
  5
200BB
  8
1DIM
 10
411.0162416153649
 20
-626.2976601456666
 30
0.0
 11
411.0162416153649
 21
-627.324200292508
 31
0.0
  0
LINE
  5
200BC
  8
1DIM
 10
589.016241615365
 20
-626.2976601456666
 30
0.0
 11
589.016241615365
 21
-627.324200292508
 31
0.0
  0
LINE
  5
200BD
  8
1DIM
 10
597.016241615365
 20
-632.2976601456666
 30
0.0
 11
597.016241615365
 21
-631.7977726533201
 31
0.0
  0
LINE
  5
200BE
  8
1DIM
 10
403.0162416153649
 20
-632.2976601456666
 30
0.0
 11
403.0162416153649
 21
-631.7977726533201
 31
0.0
  0
LINE
  5
200BF
  8
01
  6
CONTINUOUS
 10
411.0162416153649
 20
-626.2976601456666
 30
0.0
 11
589.016241615365
 21
-626.2976601456666
 31
0.0
  0
ARC
  5
200C0
  8
01
  6
CONTINUOUS
 10
589.016241615365
 20
-623.2976601456666
 30
0.0
 40
3.0
 50
270.0
 51
0.0
  0
LINE
  5
200C1
  8
01
  6
CONTINUOUS
 10
597.016241615365
 20
-632.2976601456666
 30
0.0
 11
403.0162416153649
 21
-632.2976601456666
 31
0.0
  0
LINE
  5
200F0
  8
01
  6
CONTINUOUS
 10
704.0162416027798
 20
-721.1295499069515
 30
0.0
 11
713.0162416027798
 21
-721.1295499069515
 31
0.0
  0
LINE
  5
200F6
  8
01
  6
CONTINUOUS
 10
713.0162416153648
 20
-720.636329130059
 30
0.0
 11
713.0162416153648
 21
-697.6363291300592
 31
0.0
  0
LINE
  5
200F7
  8
01
  6
CONTINUOUS
 10
661.0162416027798
 20
-707.1293291010281
 30
0.0
 11
661.0162416027798
 21
-720.1295499069515
 31
0.0
  0
LINE
  5
200F8
  8
01
  6
CONTINUOUS
 10
697.0162416027798
 20
-721.1295499069515
 30
0.0
 11
670.0162416027798
 21
-721.1295499069515
 31
0.0
  0
LINE
  5
200F9
  8
01
  6
CONTINUOUS
 10
670.0162416027798
 20
-721.1295499069515
 30
0.0
 11
666.0162416027798
 21
-721.1295499069515
 31
0.0
  0
LINE
  5
200FA
  8
01
  6
CONTINUOUS
 10
703.0162416027798
 20
-721.1295499069515
 30
0.0
 11
697.0162416027798
 21
-721.1295499069515
 31
0.0
  0
LINE
  5
200FB
  8
01
  6
CONTINUOUS
 10
703.0162416027798
 20
-721.1295499069515
 30
0.0
 11
697.0162416027798
 21
-721.1295499069515
 31
0.0
  0
LINE
  5
200FC
  8
01
  6
CONTINUOUS
 10
664.0162416027798
 20
-721.1295499069515
 30
0.0
 11
713.0162416027798
 21
-721.1295499069515
 31
0.0
  0
LINE
  5
200FD
  8
01
  6
CONTINUOUS
 10
670.0162416027798
 20
-721.1295499069515
 30
0.0
 11
666.0162416027798
 21
-721.1295499069515
 31
0.0
  0
LINE
  5
200FE
  8
01
  6
CONTINUOUS
 10
704.0162416027798
 20
-721.1295499069515
 30
0.0
 11
703.5162416027798
 21
-721.1295499069515
 31
0.0
  0
LINE
  5
200FF
  8
01
  6
CONTINUOUS
 10
704.0162416027798
 20
-721.1295499069515
 30
0.0
 11
703.5162416027798
 21
-721.1295499069515
 31
0.0
  0
LINE
  5
20100
  8
01
  6
CONTINUOUS
 10
662.0162416027798
 20
-721.1295499069515
 30
0.0
 11
664.0162416027798
 21
-721.1295499069515
 31
0.0
  0
ARC
  5
20101
  8
01
  6
CONTINUOUS
 10
662.0162416027798
 20
-720.1295499069515
 30
0.0
 40
1.0
 50
180.0
 51
270.0
  0
LINE
  5
20103
  8
01
  6
CONTINUOUS
 10
662.0162416027798
 20
-721.1295499069515
 30
0.0
 11
664.0162416027798
 21
-721.1295499069515
 31
0.0
  0
ARC
  5
20105
  8
01
  6
CONTINUOUS
 10
661.4778764928996
 20
-536.13017669273
 30
0.0
 40
170.0
 50
270.8530380105584
 51
287.6479113685527
  0
POLYLINE
  5
20106
  8
01
  6
CONTINUOUS
 66
     1
 10
0.0
 20
0.0
 30
0.0
  0
VERTEX
  5
244AA
  8
01
  6
CONTINUOUS
 10
664.008797716827
 20
-706.1113357597226
 30
0.0
  0
VERTEX
  5
244AB
  8
01
  6
CONTINUOUS
 10
663.9763835453241
 20
-706.111815155488
 30
0.0
  0
VERTEX
  5
244AC
  8
01
  6
CONTINUOUS
 10
663.9439883171473
 20
-706.1122878496979
 30
0.0
  0
VERTEX
  5
244AD
  8
01
  6
CONTINUOUS
 10
663.9116174266665
 20
-706.1127538303297
 30
0.0
  0
VERTEX
  5
244AE
  8
01
  6
CONTINUOUS
 10
663.8792762682519
 20
-706.1132130853612
 30
0.0
  0
VERTEX
  5
244AF
  8
01
  6
CONTINUOUS
 10
663.8469702362736
 20
-706.1136656027695
 30
0.0
  0
VERTEX
  5
244B0
  8
01
  6
CONTINUOUS
 10
663.8147047251016
 20
-706.1141113705324
 30
0.0
  0
VERTEX
  5
244B1
  8
01
  6
CONTINUOUS
 10
663.7824851291061
 20
-706.1145503766273
 30
0.0
  0
VERTEX
  5
244B2
  8
01
  6
CONTINUOUS
 10
663.7503168426571
 20
-706.1149826090318
 30
0.0
  0
VERTEX
  5
244B3
  8
01
  6
CONTINUOUS
 10
663.7182052601248
 20
-706.1154080557233
 30
0.0
  0
VERTEX
  5
244B4
  8
01
  6
CONTINUOUS
 10
663.6861557758792
 20
-706.1158267046793
 30
0.0
  0
VERTEX
  5
244B5
  8
01
  6
CONTINUOUS
 10
663.6541737842904
 20
-706.1162385438773
 30
0.0
  0
VERTEX
  5
244B6
  8
01
  6
CONTINUOUS
 10
663.6222646797285
 20
-706.1166435612947
 30
0.0
  0
VERTEX
  5
244B7
  8
01
  6
CONTINUOUS
 10
663.5904338565638
 20
-706.1170417449092
 30
0.0
  0
VERTEX
  5
244B8
  8
01
  6
CONTINUOUS
 10
663.558686709166
 20
-706.1174330826982
 30
0.0
  0
VERTEX
  5
244B9
  8
01
  6
CONTINUOUS
 10
663.5270286319053
 20
-706.1178175626392
 30
0.0
  0
VERTEX
  5
244BA
  8
01
  6
CONTINUOUS
 10
663.4954650191521
 20
-706.1181951727099
 30
0.0
  0
VERTEX
  5
244BB
  8
01
  6
CONTINUOUS
 10
663.4640012652761
 20
-706.1185659008873
 30
0.0
  0
VERTEX
  5
244BC
  8
01
  6
CONTINUOUS
 10
663.4326427646478
 20
-706.1189297351494
 30
0.0
  0
VERTEX
  5
244BD
  8
01
  6
CONTINUOUS
 10
663.4013949116369
 20
-706.1192866634735
 30
0.0
  0
VERTEX
  5
244BE
  8
01
  6
CONTINUOUS
 10
663.3702631006137
 20
-706.1196366738371
 30
0.0
  0
VERTEX
  5
244BF
  8
01
  6
CONTINUOUS
 10
663.3392527259482
 20
-706.1199797542178
 30
0.0
  0
VERTEX
  5
244C0
  8
01
  6
CONTINUOUS
 10
663.3083691820106
 20
-706.1203158925929
 30
0.0
  0
VERTEX
  5
244C1
  8
01
  6
CONTINUOUS
 10
663.2776178631709
 20
-706.12064507694
 30
0.0
  0
VERTEX
  5
244C2
  8
01
  6
CONTINUOUS
 10
663.2470041637991
 20
-706.1209672952367
 30
0.0
  0
VERTEX
  5
244C3
  8
01
  6
CONTINUOUS
 10
663.2165334782657
 20
-706.1212825354604
 30
0.0
  0
VERTEX
  5
244C4
  8
01
  6
CONTINUOUS
 10
663.1862112009403
 20
-706.1215907855886
 30
0.0
  0
VERTEX
  5
244C5
  8
01
  6
CONTINUOUS
 10
663.1560427261933
 20
-706.1218920335988
 30
0.0
  0
VERTEX
  5
244C6
  8
01
  6
CONTINUOUS
 10
663.1260334483948
 20
-706.1221862674685
 30
0.0
  0
VERTEX
  5
244C7
  8
01
  6
CONTINUOUS
 10
663.0961887619146
 20
-706.1224734751753
 30
0.0
  0
VERTEX
  5
244C8
  8
01
  6
CONTINUOUS
 10
663.0665140611229
 20
-706.1227536446967
 30
0.0
  0
VERTEX
  5
244C9
  8
01
  6
CONTINUOUS
 10
663.0370082841476
 20
-706.1230268508496
 30
0.0
  0
VERTEX
  5
244CA
  8
01
  6
CONTINUOUS
 10
663.0076384791763
 20
-706.1232936222783
 30
0.0
  0
VERTEX
  5
244CB
  8
01
  6
CONTINUOUS
 10
662.9784049903994
 20
-706.1235540785866
 30
0.0
  0
VERTEX
  5
244CC
  8
01
  6
CONTINUOUS
 10
662.9493147430678
 20
-706.1238082536426
 30
0.0
  0
VERTEX
  5
244CD
  8
01
  6
CONTINUOUS
 10
662.9203746624321
 20
-706.1240561813142
 30
0.0
  0
VERTEX
  5
244CE
  8
01
  6
CONTINUOUS
 10
662.8915916737434
 20
-706.1242978954699
 30
0.0
  0
VERTEX
  5
244CF
  8
01
  6
CONTINUOUS
 10
662.8629727022521
 20
-706.1245334299779
 30
0.0
  0
VERTEX
  5
244D0
  8
01
  6
CONTINUOUS
 10
662.8345246732094
 20
-706.124762818706
 30
0.0
  0
VERTEX
  5
244D1
  8
01
  6
CONTINUOUS
 10
662.806254511866
 20
-706.1249860955228
 30
0.0
  0
VERTEX
  5
244D2
  8
01
  6
CONTINUOUS
 10
662.7781691434725
 20
-706.1252032942962
 30
0.0
  0
VERTEX
  5
244D3
  8
01
  6
CONTINUOUS
 10
662.7502754932799
 20
-706.1254144488945
 30
0.0
  0
VERTEX
  5
244D4
  8
01
  6
CONTINUOUS
 10
662.7225804865391
 20
-706.1256195931858
 30
0.0
  0
VERTEX
  5
244D5
  8
01
  6
CONTINUOUS
 10
662.6950910485006
 20
-706.1258187610382
 30
0.0
  0
VERTEX
  5
244D6
  8
01
  6
CONTINUOUS
 10
662.6678141044155
 20
-706.1260119863202
 30
0.0
  0
VERTEX
  5
244D7
  8
01
  6
CONTINUOUS
 10
662.6407565795344
 20
-706.1261993028996
 30
0.0
  0
VERTEX
  5
244D8
  8
01
  6
CONTINUOUS
 10
662.6139268145093
 20
-706.1263807385295
 30
0.0
  0
VERTEX
  5
244D9
  8
01
  6
CONTINUOUS
 10
662.5873613616823
 20
-706.12655621372
 30
0.0
  0
VERTEX
  5
244DA
  8
01
  6
CONTINUOUS
 10
662.5610734526957
 20
-706.12672578618
 30
0.0
  0
VERTEX
  5
244DB
  8
01
  6
CONTINUOUS
 10
662.5350626452831
 20
-706.126889578009
 30
0.0
  0
VERTEX
  5
244DC
  8
01
  6
CONTINUOUS
 10
662.5093284971783
 20
-706.1270477113064
 30
0.0
  0
VERTEX
  5
244DD
  8
01
  6
CONTINUOUS
 10
662.4838705661149
 20
-706.1272003081717
 30
0.0
  0
VERTEX
  5
244DE
  8
01
  6
CONTINUOUS
 10
662.4586884098267
 20
-706.1273474907042
 30
0.0
  0
VERTEX
  5
244DF
  8
01
  6
CONTINUOUS
 10
662.4337815860473
 20
-706.1274893810036
 30
0.0
  0
VERTEX
  5
244E0
  8
01
  6
CONTINUOUS
 10
662.4091496525106
 20
-706.1276261011692
 30
0.0
  0
VERTEX
  5
244E1
  8
01
  6
CONTINUOUS
 10
662.3847921669501
 20
-706.1277577733007
 30
0.0
  0
VERTEX
  5
244E2
  8
01
  6
CONTINUOUS
 10
662.3607086870994
 20
-706.1278845194973
 30
0.0
  0
VERTEX
  5
244E3
  8
01
  6
CONTINUOUS
 10
662.3368987706925
 20
-706.1280064618587
 30
0.0
  0
VERTEX
  5
244E4
  8
01
  6
CONTINUOUS
 10
662.313361975463
 20
-706.1281237224842
 30
0.0
  0
VERTEX
  5
244E5
  8
01
  6
CONTINUOUS
 10
662.2900978591445
 20
-706.1282364234734
 30
0.0
  0
VERTEX
  5
244E6
  8
01
  6
CONTINUOUS
 10
662.2671059794707
 20
-706.1283446869256
 30
0.0
  0
VERTEX
  5
244E7
  8
01
  6
CONTINUOUS
 10
662.2443858941755
 20
-706.1284486349405
 30
0.0
  0
VERTEX
  5
244E8
  8
01
  6
CONTINUOUS
 10
662.2219288028576
 20
-706.1285483873809
 30
0.0
  0
VERTEX
  5
244E9
  8
01
  6
CONTINUOUS
 10
662.1997318607896
 20
-706.128644037967
 30
0.0
  0
VERTEX
  5
244EA
  8
01
  6
CONTINUOUS
 10
662.1778036981124
 20
-706.1287356695235
 30
0.0
  0
VERTEX
  5
244EB
  8
01
  6
CONTINUOUS
 10
662.1561529450207
 20
-706.1288233648751
 30
0.0
  0
VERTEX
  5
244EC
  8
01
  6
CONTINUOUS
 10
662.1347882317095
 20
-706.1289072068464
 30
0.0
  0
VERTEX
  5
244ED
  8
01
  6
CONTINUOUS
 10
662.1137181883742
 20
-706.1289872782622
 30
0.0
  0
VERTEX
  5
244EE
  8
01
  6
CONTINUOUS
 10
662.0929514452095
 20
-706.129063661947
 30
0.0
  0
VERTEX
  5
244EF
  8
01
  6
CONTINUOUS
 10
662.0724966324102
 20
-706.1291364407257
 30
0.0
  0
VERTEX
  5
244F0
  8
01
  6
CONTINUOUS
 10
662.0523623801714
 20
-706.1292056974228
 30
0.0
  0
VERTEX
  5
244F1
  8
01
  6
CONTINUOUS
 10
662.0325573186882
 20
-706.1292715148628
 30
0.0
  0
VERTEX
  5
244F2
  8
01
  6
CONTINUOUS
 10
662.0130900781556
 20
-706.1293339758708
 30
0.0
  0
SEQEND
  5
24509
  8
01
  6
CONTINUOUS
  0
ARC
  5
2015A
  8
01
  6
CONTINUOUS
 10
662.0162416028269
 20
-707.1293290554163
 30
0.0
 40
1.0
 50
90.18056935335994
 51
180.0000026133595
  0
LINE
  5
20761
  8
1PHANTOM
 10
542.6162398153045
 20
-580.2976601456666
 30
0.0
 11
457.0162398153046
 21
-580.2976601456666
 31
0.0
  0
ARC
  5
20764
  8
1PHANTOM
 10
541.6162398153045
 20
-588.7976616755642
 30
0.0
 40
1.0
 50
270.0000000002345
 51
0.0
  0
ARC
  5
20765
  8
1PHANTOM
 10
-458.0162398153046
 20
-588.7976616755642
 30
0.0
 40
1.0
 50
270.0000000002345
 51
0.0
210
0.0
220
0.0
230
-1.0
  0
LINE
  5
20767
  8
1PHANTOM
 10
458.0150946769288
 20
-589.797661019893
 30
0.0
 11
541.617384953625
 21
-589.7976610198931
 31
0.0
  0
LINE
  5
20769
  8
1PHANTOM
 10
457.0162398153046
 20
-588.7976616755642
 30
0.0
 11
457.0162398153046
 21
-580.2976601019553
 31
0.0
  0
LINE
  5
20775
  8
1PHANTOM
 10
542.6162398153045
 20
-588.7976616755642
 30
0.0
 11
542.6162398153045
 21
-580.2976601456666
 31
0.0
  0
LINE
  5
207E2
  8
1PHANTOM
 10
456.616251250069
 20
-588.4976617236465
 30
0.0
 11
456.616251250069
 21
-586.9976617236465
 31
0.0
  0
LINE
  5
207E3
  8
1PHANTOM
 10
543.0162436206746
 20
-588.4976617236465
 30
0.0
 11
543.0162436206746
 21
-586.9976617236465
 31
0.0
  0
LINE
  5
207E4
  8
1PHANTOM
 10
457.0162512619903
 20
-586.9976617411311
 30
0.0
 11
456.616251250069
 21
-586.9976617236465
 31
0.0
  0
LINE
  5
207E5
  8
1PHANTOM
 10
457.0162512619903
 20
-588.4976617411311
 30
0.0
 11
456.616251250069
 21
-588.4976617236465
 31
0.0
  0
LINE
  5
207E6
  8
1PHANTOM
 10
542.6162436087542
 20
-586.9976617411311
 30
0.0
 11
543.0162436206746
 21
-586.9976617236465
 31
0.0
  0
LINE
  5
207E7
  8
1PHANTOM
 10
542.6162436087542
 20
-588.4976617411311
 30
0.0
 11
543.0162436206746
 21
-588.4976617236465
 31
0.0
  0
LINE
  5
2081E
  8
1PHANTOM
 10
526.3162392184732
 20
-589.7976610198931
 30
0.0
 11
526.010897661805
 21
-589.7976610198931
 31
0.0
  0
ARC
  5
208DA
  8
1PHANTOM
 10
466.5162416153648
 20
-709.7363299605731
 30
0.0
 40
2.099999999999994
 50
0.0
 51
180.0
  0
LINE
  5
208DB
  8
1PHANTOM
 10
464.4162424855926
 20
-711.5363296873625
 30
0.0
 11
464.4162424855926
 21
-709.736329951113
 31
0.0
  0
ARC
  5
208DC
  8
1PHANTOM
 10
466.5162416153648
 20
-711.5363299605732
 30
0.0
 40
2.099999999999994
 50
180.0
 51
0.0
  0
LINE
  5
208DD
  8
1PHANTOM
 10
468.6162428014973
 20
-709.736329951113
 30
0.0
 11
468.6162428014973
 21
-711.5363296873625
 31
0.0
  0
LINE
  5
2095F
  8
1CENTER
 10
466.5162416153649
 20
-712.4663299604429
 30
0.0
 11
466.5162416153649
 21
-707.0063299607028
 31
0.0
  0
LINE
  5
20961
  8
1CENTER
 10
466.5162416153649
 20
-714.2663299604429
 30
0.0
 11
466.5162416153649
 21
-708.8063299607029
 31
0.0
  0
LINE
  5
20D53
  8
1CENTER
 10
500.0162416153649
 20
-721.9672780861514
 30
0.0
 11
500.0162416153649
 21
-699.73607798091
 31
0.0
  0
ARC
  5
20D54
  8
1PHANTOM
 10
533.5162416153651
 20
-709.7363299605731
 30
0.0
 40
2.099999999999994
 50
0.0
 51
180.0
  0
LINE
  5
20D55
  8
1PHANTOM
 10
535.6162407451372
 20
-711.5363296873625
 30
0.0
 11
535.6162407451372
 21
-709.736329951113
 31
0.0
  0
ARC
  5
20D56
  8
1PHANTOM
 10
533.5162416153651
 20
-711.5363299605732
 30
0.0
 40
2.099999999999994
 50
180.0
 51
0.0
  0
LINE
  5
20D57
  8
1PHANTOM
 10
531.4162404292326
 20
-709.736329951113
 30
0.0
 11
531.4162404292326
 21
-711.5363296873625
 31
0.0
  0
LINE
  5
20D59
  8
1CENTER
 10
533.516241615365
 20
-712.4663299604429
 30
0.0
 11
533.516241615365
 21
-707.0063299607028
 31
0.0
  0
LINE
  5
20D5B
  8
1CENTER
 10
533.516241615365
 20
-714.2663299604429
 30
0.0
 11
533.516241615365
 21
-708.8063299607029
 31
0.0
  0
LINE
  5
20D6B
  8
01
  6
CONTINUOUS
 10
471.0162416153649
 20
-584.4976601456665
 30
0.0
 11
462.0162416153649
 21
-584.4976601456665
 31
0.0
  0
LINE
  5
21A06
  8
01
 10
462.0162416153649
 20
-584.4976601456665
 30
0.0
 11
462.016241615365
 21
-583.6976601456665
 31
0.0
  0
LINE
  5
21A07
  8
01
 10
471.0162416153649
 20
-584.4976601456665
 30
0.0
 11
471.0162416153651
 21
-583.6976601456665
 31
0.0
  0
LINE
  5
21A0A
  8
01
  6
CONTINUOUS
 10
471.0162416153651
 20
-583.6976601456665
 30
0.0
 11
462.016241615365
 21
-583.6976601456665
 31
0.0
  0
LINE
  5
21A0C
  8
01
 10
529.016241615365
 20
-584.4976601456665
 30
0.0
 11
529.0162416153648
 21
-583.6976601456665
 31
0.0
  0
LINE
  5
21A0D
  8
01
 10
538.016241615365
 20
-584.4976601456665
 30
0.0
 11
538.0162416153648
 21
-583.6976601456665
 31
0.0
  0
LINE
  5
21A0E
  8
01
  6
CONTINUOUS
 10
529.0162416153648
 20
-583.6976601456665
 30
0.0
 11
538.0162416153648
 21
-583.6976601456665
 31
0.0
  0
LINE
  5
21A0F
  8
01
  6
CONTINUOUS
 10
529.016241615365
 20
-584.4976601456665
 30
0.0
 11
538.016241615365
 21
-584.4976601456665
 31
0.0
  0
LINE
  5
22464
  8
1PHANTOM
 10
703.5162383771922
 20
-717.6431119812125
 30
0.0
 11
703.5162388798726
 21
-706.1431119812128
 31
0.0
  0
LINE
  5
22465
  8
1PHANTOM
 10
703.5162388361614
 20
-706.1431119812128
 30
0.0
 11
703.5162388798726
 21
-705.1431119375013
 31
0.0
  0
LINE
  5
22466
  8
1PHANTOM
 10
703.51623833348
 20
-717.6431119812125
 30
0.0
 11
703.5162382897688
 21
-718.6431119375013
 31
0.0
  0
LINE
  5
2246B
  8
1PHANTOM
 10
713.0162418193178
 20
-702.6431095683411
 30
0.0
 11
713.0162413600345
 21
-720.6431087378269
 31
0.0
  0
ARC
  5
2246E
  8
1PHANTOM
 10
-704.5162387487389
 20
-703.6431092055363
 30
0.0
 40
1.0
 50
0.0000025047031979
 51
90.00000250446867
210
0.0
220
0.0
230
-1.0
  0
LINE
  5
2246F
  8
1PHANTOM
 10
704.5162387924502
 20
-702.6431092055363
 30
0.0
 11
713.0162403660588
 21
-702.6431095683411
 31
0.0
  0
LINE
  5
2247B
  8
1PHANTOM
 10
713.0162413671362
 20
-721.1363295147194
 30
0.0
 11
704.0162397935276
 21
-721.136329130059
 31
0.0
  0
LINE
  5
2247C
  8
1PHANTOM
 10
703.5162387487389
 20
-703.6431091618251
 30
0.0
 11
703.5162386831717
 21
-705.1431117408001
 31
0.0
  0
LINE
  5
2247D
  8
1PHANTOM
 10
703.5162380930678
 20
-718.6431117407999
 30
0.0
 11
703.5162380275005
 21
-720.1431083313107
 31
0.0
  0
ARC
  5
2247F
  8
1PHANTOM
 10
704.0162380275005
 20
-720.1431083531666
 30
0.0
 40
0.5
 50
179.9999974957528
 51
269.9999974955313
  0
LINE
  5
22480
  8
1CENTER
 10
705.6938923851181
 20
-710.6363273753911
 30
0.0
 11
715.7990746893744
 21
-710.6363273753911
 31
0.0
  0
LINE
  5
22494
  8
01
 10
707.8162398148978
 20
-711.1363272284955
 30
0.0
 11
708.8162398148978
 21
-710.1363275284955
 31
0.0
  0
LINE
  5
22495
  8
01
 10
707.8162398148978
 20
-714.4363273784954
 30
0.0
 11
708.8162398148978
 21
-714.4363273784954
 31
0.0
  0
LINE
  5
22496
  8
01
 10
708.8162398148978
 20
-714.4363273784954
 30
0.0
 11
708.8162398148978
 21
-706.8363273784955
 31
0.0
  0
LINE
  5
22497
  8
01
 10
707.8162398148978
 20
-714.4363273784954
 30
0.0
 11
707.8162398148978
 21
-706.8363273784955
 31
0.0
  0
LINE
  5
22498
  8
01
 10
707.8162398148978
 20
-706.8363273784955
 30
0.0
 11
708.8162398148978
 21
-706.8363273784955
 31
0.0
  0
LINE
  5
2249A
  8
01
 10
708.8162398148978
 20
-706.1363273753911
 30
0.0
 11
709.6162398148978
 21
-706.136327375391
 31
0.0
  0
LINE
  5
2249B
  8
01
 10
708.8162398148978
 20
-715.1363273753911
 30
0.0
 11
709.6162398148978
 21
-715.136327375391
 31
0.0
  0
LINE
  5
2249C
  8
01
  6
CONTINUOUS
 10
709.6162398148978
 20
-706.136327375391
 30
0.0
 11
709.6162398148978
 21
-715.136327375391
 31
0.0
  0
LINE
  5
2249D
  8
01
  6
CONTINUOUS
 10
708.8162398148978
 20
-706.1363273753911
 30
0.0
 11
708.8162398148978
 21
-715.1363273753911
 31
0.0
  0
LINE
  5
234E2
  8
1PHANTOM
 10
713.0162413885063
 20
-720.6363295147194
 30
0.0
 11
704.0162398148976
 21
-720.636329130059
 31
0.0
  0
LINE
  5
23557
  8
1CENTER
 10
463.7862416154949
 20
-710.6363299605728
 30
0.0
 11
469.246241615235
 21
-710.6363299605728
 31
0.0
  0
LINE
  5
23558
  8
1CENTER
 10
536.246241615235
 20
-710.6363299605728
 30
0.0
 11
530.7862416154949
 21
-710.6363299605728
 31
0.0
  0
TEXT
  5
2391C
  8
01
  6
CONTINUOUS
 10
719.7537571261875
 20
-666.205258328272
 30
0.0
 40
3.5
  1
PB
  0
TEXT
  5
2391D
  8
01
  6
CONTINUOUS
 10
732.8891752713527
 20
-666.205258328272
 30
0.0
 40
3.5
  1
合板9mm以上
  0
SOLID
  5
2391E
  8
1DIM
 10
691.1841592626207
 20
-715.3113205712835
 30
0.0
 11
692.3506453287046
 21
-713.6528811335158
 31
0.0
 12
691.7850848135769
 22
-715.5999950014855
 32
0.0
 13
691.7850848135769
 23
-715.5999950014855
 33
0.0
1001
ACAD
1000
DSTYLE
1002
{
1070
    45
1040
0.5
1002
}
  0
LINE
  5
2391F
  8
1DIM
 10
691.4846220380988
 20
-715.4556577863846
 30
0.0
 11
677.8424033003705
 21
-743.8542859762808
 31
0.0
1001
ACAD
1000
DSTYLE
1002
{
1070
    45
1040
0.5
1002
}
  0
LINE
  5
23920
  8
1DIM
 10
677.8424033003705
 20
-743.8542859762808
 30
0.0
 11
630.5757366337039
 21
-743.8542859762808
 31
0.0
1001
ACAD
1000
DSTYLE
1002
{
1070
    45
1040
0.5
1002
}
  0
TEXT
  5
23921
  8
1DIM
  6
CONTINUOUS
 10
630.3424033003704
 20
-737.3209526429474
 30
0.0
 40
3.5
  1
材質：亜鉛ダイキャスト
  0
TEXT
  5
23922
  8
1DIM
  6
CONTINUOUS
 10
638.2757366337038
 20
-743.1542859762808
 30
0.0
 40
3.5
  1
仕上げ：各種メッキ
  0
LINE
  5
23923
  8
1DIM
 10
744.2470347322009
 20
-710.6363273753911
 30
0.0
 11
750.409321911551
 21
-710.6363273753911
 31
0.0
1001
ACAD
1000
DSTYLE
1002
{
1070
    45
1040
0.5
1070
   271
1070
     0
1002
}
  0
LINE
  5
23924
  8
1DIM
 10
713.0162416027598
 20
-698.129549906958
 30
0.0
 11
750.409321911551
 21
-698.129549906958
 31
0.0
1001
ACAD
1000
DSTYLE
1002
{
1070
    45
1040
0.5
1070
   271
1070
     0
1002
}
  0
LINE
  5
23925
  8
1DIM
 10
749.409321911551
 20
-708.6363273753911
 30
0.0
 11
749.409321911551
 21
-700.129549906958
 31
0.0
1001
ACAD
1000
DSTYLE
1002
{
1070
    45
1040
0.5
1070
   271
1070
     0
1002
}
  0
LINE
  5
23929
  8
1DIM
 10
713.016241615365
 20
-721.1295499069515
 30
0.0
 11
758.8938258062691
 21
-721.1295499069515
 31
0.0
1001
ACAD
1000
DSTYLE
1002
{
1070
    45
1040
0.5
1002
}
  0
LINE
  5
2392A
  8
1DIM
 10
713.0162416027598
 20
-698.129549906958
 30
0.0
 11
758.8938258062691
 21
-698.129549906958
 31
0.0
1001
ACAD
1000
DSTYLE
1002
{
1070
    45
1040
0.5
1002
}
  0
LINE
  5
2392B
  8
1DIM
 10
757.8938258062691
 20
-719.1295499069515
 30
0.0
 11
757.8938258062691
 21
-700.129549906958
 31
0.0
1001
ACAD
1000
DSTYLE
1002
{
1070
    45
1040
0.5
1002
}
  0
SOLID
  5
2392F
  8
1DIM
 10
716.6708479197653
 20
-679.7504262379563
 30
0.0
 11
715.9299131930724
 21
-681.6377859921874
 31
0.0
 12
716.0186807169501
 22
-679.6121425295278
 32
0.0
 13
716.0186807169501
 23
-679.6121425295278
 33
0.0
1001
ACAD
1000
DSTYLE
1002
{
1070
    45
1040
0.5
1002
}
  0
LINE
  5
23930
  8
1DIM
 10
716.3447643183576
 20
-679.681284383742
 30
0.0
 11
719.0537571261874
 21
-666.905258328272
 31
0.0
1001
ACAD
1000
DSTYLE
1002
{
1070
    45
1040
0.5
1002
}
  0
SOLID
  5
23931
  8
1DIM
 10
729.8062660649305
 20
-679.7504262379563
 30
0.0
 11
729.0653313382376
 21
-681.6377859921874
 31
0.0
 12
729.1540988621153
 22
-679.6121425295278
 32
0.0
 13
729.1540988621153
 23
-679.6121425295278
 33
0.0
1001
ACAD
1000
DSTYLE
1002
{
1070
    45
1040
0.5
1002
}
  0
LINE
  5
23932
  8
1DIM
 10
729.4801824635229
 20
-679.681284383742
 30
0.0
 11
732.1891752713526
 21
-666.905258328272
 31
0.0
1001
ACAD
1000
DSTYLE
1002
{
1070
    45
1040
0.5
1002
}
  0
LINE
  5
23933
  8
0
 10
533.5162881512629
 20
-550.4976601458288
 30
0.0
 11
532.0162881512629
 21
-555.7976566556905
 31
0.0
  0
LINE
  5
23934
  8
0
 10
532.0162881512629
 20
-555.7976566556905
 30
0.0
 11
532.0162881512631
 21
-585.4976566555824
 31
0.0
  0
LINE
  5
23935
  8
0
 10
533.5162881512629
 20
-550.4976601458288
 30
0.0
 11
535.016288151263
 21
-555.7976636360742
 31
0.0
  0
LINE
  5
23936
  8
0
 10
530.0162416153651
 20
-585.4976520018843
 30
0.0
 11
537.016241615365
 21
-585.4976682894487
 31
0.0
  0
LINE
  5
23937
  8
0
 10
535.016288151263
 20
-555.7976636360742
 30
0.0
 11
535.0162881512631
 21
-585.4976636359671
 31
0.0
  0
LINE
  5
23938
  8
0
 10
530.0162416153651
 20
-585.4976520018843
 30
0.0
 11
530.016241615365
 21
-586.5976554920796
 31
0.0
  0
ARC
  5
23939
  8
0
 10
531.516241615365
 20
-586.5976554920796
 30
0.0
 40
1.5
 50
180.0
 51
269.9998666844662
  0
LINE
  5
2393A
  8
0
 10
537.016241615365
 20
-585.4976682894487
 30
0.0
 11
537.016241615365
 21
-586.5976647992593
 31
0.0
  0
LINE
  5
2393B
  8
0
 10
531.5162381251725
 20
-588.0976554920755
 30
0.0
 11
535.5162381251725
 21
-588.0976647992552
 31
0.0
  0
ARC
  5
2393C
  8
0
 10
535.516241615365
 20
-586.5976647992593
 30
0.0
 40
1.5
 50
269.9998666844662
 51
0.0
  0
LINE
  5
2393D
  8
1CENTER
 10
533.516241615365
 20
-549.0668652283634
 30
0.0
 11
533.516241615365
 21
-589.1679365549753
 31
0.0
  0
LINE
  5
2393E
  8
0
 10
532.4219178013699
 20
-552.5976575995066
 30
0.0
 11
534.3842528902453
 21
-551.7976621654557
 31
0.0
  0
LINE
  5
2393F
  8
0
 10
534.3842528902453
 20
-551.7976621654557
 30
0.0
 11
533.7959763152029
 21
-551.4858923092036
 31
0.0
  0
LINE
  5
23940
  8
0
 10
531.5162881512629
 20
-574.9976554922966
 30
0.0
 11
535.5162881512629
 21
-574.1976647994784
 31
0.0
  0
LINE
  5
23941
  8
0
 10
531.5162881512629
 20
-563.7976554922923
 30
0.0
 11
535.5162881512629
 21
-562.9976647994697
 31
0.0
  0
LINE
  5
23942
  8
0
 10
531.5162881512629
 20
-560.5976554922922
 30
0.0
 11
535.5162881512629
 21
-559.7976647994697
 31
0.0
  0
LINE
  5
23943
  8
0
 10
535.5162881512629
 20
-559.7976647994697
 30
0.0
 11
535.0162881512629
 21
-559.6976636360724
 31
0.0
  0
LINE
  5
23944
  8
0
 10
532.0162881512629
 20
-559.0976566556894
 30
0.0
 11
531.5162881512629
 21
-558.9976554922922
 31
0.0
  0
LINE
  5
23945
  8
0
 10
535.5162881512629
 20
-562.9976647994697
 30
0.0
 11
535.0162881512629
 21
-562.8976636360725
 31
0.0
  0
LINE
  5
23946
  8
0
 10
535.5162881512629
 20
-561.3976647994696
 30
0.0
 11
535.0162881512629
 21
-561.2976636360725
 31
0.0
  0
LINE
  5
23947
  8
0
 10
532.0162881512629
 20
-560.6976566556893
 30
0.0
 11
531.5162881512629
 21
-560.5976554922922
 31
0.0
  0
LINE
  5
23948
  8
0
 10
532.0162881512629
 20
-562.2976566556893
 30
0.0
 11
531.5162881512629
 21
-562.1976554922921
 31
0.0
  0
LINE
  5
23949
  8
0
 10
531.5162881512629
 20
-562.1976554922921
 30
0.0
 11
535.5162881512629
 21
-561.3976647994696
 31
0.0
  0
LINE
  5
2394A
  8
0
 10
534.8370669946521
 20
-553.3976632190613
 30
0.0
 11
534.2853175308488
 21
-553.2148990764333
 31
0.0
  0
LINE
  5
2394B
  8
0
 10
535.5162881512629
 20
-556.5976647994696
 30
0.0
 11
535.0162881512629
 21
-556.4976636360725
 31
0.0
  0
LINE
  5
2394C
  8
0
 10
535.5162881512629
 20
-558.1976647994696
 30
0.0
 11
535.0162881512629
 21
-558.0976636360726
 31
0.0
  0
LINE
  5
2394D
  8
0
 10
535.2898810990589
 20
-554.997664272667
 30
0.0
 11
534.7532873637878
 21
-554.8683935750371
 31
0.0
  0
LINE
  5
2394E
  8
0
 10
532.4372027484716
 20
-554.3104260582525
 30
0.0
 11
531.9691042933216
 21
-554.1976565459024
 31
0.0
  0
LINE
  5
2394F
  8
0
 10
532.0162881512629
 20
-557.4976566556893
 30
0.0
 11
531.5162881512629
 21
-557.3976554922922
 31
0.0
  0
LINE
  5
23950
  8
0
 10
532.0162881512629
 20
-555.8976566556894
 30
0.0
 11
531.5162881512629
 21
-555.7976554922923
 31
0.0
  0
LINE
  5
23951
  8
0
 10
532.879089642001
 20
-552.749093395947
 30
0.0
 11
532.4219178013699
 21
-552.5976575995066
 31
0.0
  0
LINE
  5
23952
  8
0
 10
531.9691042933216
 20
-554.1976565459024
 30
0.0
 11
534.8370669946521
 21
-553.3976632190613
 31
0.0
  0
LINE
  5
23953
  8
0
 10
531.5162881512629
 20
-557.3976554922922
 30
0.0
 11
535.5162881512629
 21
-556.5976647994696
 31
0.0
  0
LINE
  5
23954
  8
0
 10
531.5162881512629
 20
-555.7976554922923
 30
0.0
 11
535.2898810990589
 21
-554.997664272667
 31
0.0
  0
LINE
  5
23955
  8
0
 10
531.5162881512629
 20
-558.9976554922922
 30
0.0
 11
535.5162881512629
 21
-558.1976647994696
 31
0.0
  0
LINE
  5
23956
  8
0
 10
531.5162881512629
 20
-571.7976554922966
 30
0.0
 11
535.5162881512629
 21
-570.9976647994783
 31
0.0
  0
LINE
  5
23957
  8
0
 10
535.5162881512629
 20
-570.9976647994783
 30
0.0
 11
535.0162881512629
 21
-570.8976636360807
 31
0.0
  0
LINE
  5
23958
  8
0
 10
532.0162881512629
 20
-570.2976566556899
 30
0.0
 11
531.5162881512629
 21
-570.1976554922923
 31
0.0
  0
LINE
  5
23959
  8
0
 10
535.5162881512629
 20
-572.5976647994785
 30
0.0
 11
535.0162881512629
 21
-572.4976636360808
 31
0.0
  0
LINE
  5
2395A
  8
0
 10
535.5162881512629
 20
-574.1976647994784
 30
0.0
 11
535.0162881512629
 21
-574.0976636360807
 31
0.0
  0
LINE
  5
2395B
  8
0
 10
532.0162881512629
 20
-571.8976566556943
 30
0.0
 11
531.5162881512629
 21
-571.7976554922966
 31
0.0
  0
LINE
  5
2395C
  8
0
 10
532.0162881512629
 20
-573.4976566556944
 30
0.0
 11
531.5162881512629
 21
-573.3976554922967
 31
0.0
  0
LINE
  5
2395D
  8
0
 10
531.5162881512629
 20
-573.3976554922967
 30
0.0
 11
535.5162881512629
 21
-572.5976647994785
 31
0.0
  0
LINE
  5
2395E
  8
0
 10
535.5162881512629
 20
-566.197664799474
 30
0.0
 11
535.0162881512629
 21
-566.0976636360763
 31
0.0
  0
LINE
  5
2395F
  8
0
 10
535.5162881512629
 20
-564.5976647994696
 30
0.0
 11
535.0162881512629
 21
-564.4976636360725
 31
0.0
  0
LINE
  5
23960
  8
0
 10
535.5162881512629
 20
-569.397664799474
 30
0.0
 11
535.0162881512629
 21
-569.2976636360763
 31
0.0
  0
LINE
  5
23961
  8
0
 10
535.5162881512629
 20
-567.7976647994741
 30
0.0
 11
535.0162881512629
 21
-567.6976636360764
 31
0.0
  0
LINE
  5
23962
  8
0
 10
532.0162881512629
 20
-563.8976566556894
 30
0.0
 11
531.5162881512629
 21
-563.7976554922923
 31
0.0
  0
LINE
  5
23963
  8
0
 10
532.0162881512629
 20
-565.49765665569
 30
0.0
 11
531.5162881512629
 21
-565.3976554922922
 31
0.0
  0
LINE
  5
23964
  8
0
 10
532.0162881512629
 20
-568.69765665569
 30
0.0
 11
531.5162881512629
 21
-568.5976554922923
 31
0.0
  0
LINE
  5
23965
  8
0
 10
532.0162881512629
 20
-567.0976566556899
 30
0.0
 11
531.5162881512629
 21
-566.9976554922922
 31
0.0
  0
LINE
  5
23966
  8
0
 10
531.5162881512629
 20
-566.9976554922922
 30
0.0
 11
535.5162881512629
 21
-566.197664799474
 31
0.0
  0
LINE
  5
23967
  8
0
 10
531.5162881512629
 20
-565.3976554922922
 30
0.0
 11
535.5162881512629
 21
-564.5976647994696
 31
0.0
  0
LINE
  5
23968
  8
0
 10
531.5162881512629
 20
-568.5976554922923
 30
0.0
 11
535.5162881512629
 21
-567.7976647994741
 31
0.0
  0
LINE
  5
23969
  8
0
 10
531.5162881512629
 20
-570.1976554922923
 30
0.0
 11
535.5162881512629
 21
-569.397664799474
 31
0.0
  0
LINE
  5
2396A
  8
0
 10
532.0162881512629
 20
-579.8976566556985
 30
0.0
 11
531.5162881512629
 21
-579.7976554923008
 31
0.0
  0
LINE
  5
2396B
  8
0
 10
531.5162881512629
 20
-579.7976554923008
 30
0.0
 11
535.5162881512629
 21
-578.9976647994825
 31
0.0
  0
LINE
  5
2396C
  8
0
 10
535.5162881512629
 20
-578.9976647994825
 30
0.0
 11
535.0162881512629
 21
-578.8976636360849
 31
0.0
  0
LINE
  5
2396D
  8
0
 10
532.0162881512629
 20
-578.2976566556986
 30
0.0
 11
531.5162881512629
 21
-578.1976554923009
 31
0.0
  0
LINE
  5
2396E
  8
0
 10
532.0162881512629
 20
-576.6976566556987
 30
0.0
 11
531.5162881512629
 21
-576.597655492301
 31
0.0
  0
LINE
  5
2396F
  8
0
 10
531.5162881512629
 20
-576.597655492301
 30
0.0
 11
535.5162881512629
 21
-575.7976647994827
 31
0.0
  0
LINE
  5
23970
  8
0
 10
535.5162881512629
 20
-577.3976647994826
 30
0.0
 11
535.0162881512629
 21
-577.297663636085
 31
0.0
  0
LINE
  5
23971
  8
0
 10
535.5162881512629
 20
-575.7976647994827
 30
0.0
 11
535.0162881512629
 21
-575.697663636085
 31
0.0
  0
LINE
  5
23972
  8
0
 10
531.5162881512629
 20
-578.1976554923009
 30
0.0
 11
535.5162881512629
 21
-577.3976647994826
 31
0.0
  0
LINE
  5
23973
  8
0
 10
532.0162881512629
 20
-575.0976566556943
 30
0.0
 11
531.5162881512629
 21
-574.9976554922966
 31
0.0
  0
LINE
  5
23974
  8
0
 10
532.0162881512629
 20
-581.4976566556984
 30
0.0
 11
531.5162881512629
 21
-581.3976554923007
 31
0.0
  0
LINE
  5
23975
  8
0
 10
531.5162881512629
 20
-581.3976554923007
 30
0.0
 11
535.5162881512629
 21
-580.5976647994825
 31
0.0
  0
LINE
  5
23976
  8
0
 10
535.5162881512629
 20
-580.5976647994825
 30
0.0
 11
535.0162881512629
 21
-580.4976636360848
 31
0.0
  0
LINE
  5
23977
  8
0
 10
532.0162881512629
 20
-583.0976566556983
 30
0.0
 11
531.5162881512629
 21
-582.9976554923006
 31
0.0
  0
LINE
  5
23978
  8
0
 10
531.5162881512629
 20
-582.9976554923006
 30
0.0
 11
535.5162881512629
 21
-582.1976647994824
 31
0.0
  0
LINE
  5
23979
  8
0
 10
535.5162881512629
 20
-582.1976647994824
 30
0.0
 11
535.0162881512629
 21
-582.0976636360847
 31
0.0
  0
LINE
  5
2397A
  8
0
 10
532.0162881512629
 20
-584.6976566556982
 30
0.0
 11
531.5162881512629
 21
-584.5976554923005
 31
0.0
  0
LINE
  5
2397B
  8
0
 10
531.5162881512629
 20
-584.5976554923005
 30
0.0
 11
535.5162881512629
 21
-583.7976647994823
 31
0.0
  0
LINE
  5
2397C
  8
0
 10
535.5162881512629
 20
-583.7976647994823
 30
0.0
 11
535.0162881512629
 21
-583.6976636360846
 31
0.0
  0
LINE
  5
2397D
  8
0
 10
466.5162881512629
 20
-550.4976601458288
 30
0.0
 11
465.0162881512629
 21
-555.7976566556905
 31
0.0
  0
LINE
  5
2397E
  8
0
 10
465.0162881512629
 20
-555.7976566556905
 30
0.0
 11
465.0162881512631
 21
-585.4976566555824
 31
0.0
  0
LINE
  5
2397F
  8
0
 10
466.5162881512629
 20
-550.4976601458288
 30
0.0
 11
468.016288151263
 21
-555.7976636360742
 31
0.0
  0
LINE
  5
23980
  8
0
 10
463.0162416153651
 20
-585.4976520018843
 30
0.0
 11
470.0162416153649
 21
-585.4976682894487
 31
0.0
  0
LINE
  5
23981
  8
0
 10
468.016288151263
 20
-555.7976636360742
 30
0.0
 11
468.0162881512631
 21
-585.4976636359671
 31
0.0
  0
LINE
  5
23982
  8
0
 10
463.0162416153651
 20
-585.4976520018843
 30
0.0
 11
463.0162416153649
 21
-586.5976554920796
 31
0.0
  0
ARC
  5
23983
  8
0
 10
464.5162416153649
 20
-586.5976554920796
 30
0.0
 40
1.5
 50
180.0
 51
269.9998666844684
  0
LINE
  5
23984
  8
0
 10
470.0162416153649
 20
-585.4976682894487
 30
0.0
 11
470.0162416153649
 21
-586.5976647992593
 31
0.0
  0
LINE
  5
23985
  8
0
 10
464.5162381251725
 20
-588.0976554920755
 30
0.0
 11
468.5162381251725
 21
-588.0976647992552
 31
0.0
  0
ARC
  5
23986
  8
0
 10
468.5162416153649
 20
-586.5976647992593
 30
0.0
 40
1.5
 50
269.9998666844684
 51
0.0
  0
LINE
  5
23987
  8
1CENTER
 10
466.5162416153649
 20
-549.0668652283634
 30
0.0
 11
466.5162416153649
 21
-589.1679365549753
 31
0.0
  0
LINE
  5
23988
  8
0
 10
465.4219178013699
 20
-552.5976575995066
 30
0.0
 11
467.3842528902453
 21
-551.7976621654557
 31
0.0
  0
LINE
  5
23989
  8
0
 10
467.3842528902453
 20
-551.7976621654557
 30
0.0
 11
466.7959763152029
 21
-551.4858923092036
 31
0.0
  0
LINE
  5
2398A
  8
0
 10
464.5162881512629
 20
-574.9976554922966
 30
0.0
 11
468.5162881512629
 21
-574.1976647994784
 31
0.0
  0
LINE
  5
2398B
  8
0
 10
464.5162881512629
 20
-563.7976554922923
 30
0.0
 11
468.5162881512629
 21
-562.9976647994697
 31
0.0
  0
LINE
  5
2398C
  8
0
 10
464.5162881512629
 20
-560.5976554922922
 30
0.0
 11
468.5162881512629
 21
-559.7976647994697
 31
0.0
  0
LINE
  5
2398D
  8
0
 10
468.5162881512629
 20
-559.7976647994697
 30
0.0
 11
468.0162881512629
 21
-559.6976636360724
 31
0.0
  0
LINE
  5
2398E
  8
0
 10
465.0162881512629
 20
-559.0976566556894
 30
0.0
 11
464.5162881512629
 21
-558.9976554922922
 31
0.0
  0
LINE
  5
2398F
  8
0
 10
468.5162881512629
 20
-562.9976647994697
 30
0.0
 11
468.0162881512629
 21
-562.8976636360725
 31
0.0
  0
LINE
  5
23990
  8
0
 10
468.5162881512629
 20
-561.3976647994696
 30
0.0
 11
468.0162881512629
 21
-561.2976636360725
 31
0.0
  0
LINE
  5
23991
  8
0
 10
465.0162881512629
 20
-560.6976566556893
 30
0.0
 11
464.5162881512629
 21
-560.5976554922922
 31
0.0
  0
LINE
  5
23992
  8
0
 10
465.0162881512629
 20
-562.2976566556893
 30
0.0
 11
464.5162881512629
 21
-562.1976554922921
 31
0.0
  0
LINE
  5
23993
  8
0
 10
464.5162881512629
 20
-562.1976554922921
 30
0.0
 11
468.5162881512629
 21
-561.3976647994696
 31
0.0
  0
LINE
  5
23994
  8
0
 10
467.8370669946521
 20
-553.3976632190613
 30
0.0
 11
467.2853175308488
 21
-553.2148990764333
 31
0.0
  0
LINE
  5
23995
  8
0
 10
468.5162881512629
 20
-556.5976647994696
 30
0.0
 11
468.0162881512629
 21
-556.4976636360725
 31
0.0
  0
LINE
  5
23996
  8
0
 10
468.5162881512629
 20
-558.1976647994696
 30
0.0
 11
468.0162881512629
 21
-558.0976636360726
 31
0.0
  0
LINE
  5
23997
  8
0
 10
468.2898810990589
 20
-554.997664272667
 30
0.0
 11
467.7532873637878
 21
-554.8683935750371
 31
0.0
  0
LINE
  5
23998
  8
0
 10
465.4372027484716
 20
-554.3104260582525
 30
0.0
 11
464.9691042933216
 21
-554.1976565459024
 31
0.0
  0
LINE
  5
23999
  8
0
 10
465.0162881512629
 20
-557.4976566556893
 30
0.0
 11
464.5162881512629
 21
-557.3976554922922
 31
0.0
  0
LINE
  5
2399A
  8
0
 10
465.0162881512629
 20
-555.8976566556894
 30
0.0
 11
464.5162881512629
 21
-555.7976554922923
 31
0.0
  0
LINE
  5
2399B
  8
0
 10
465.879089642001
 20
-552.749093395947
 30
0.0
 11
465.4219178013699
 21
-552.5976575995066
 31
0.0
  0
LINE
  5
2399C
  8
0
 10
464.9691042933216
 20
-554.1976565459024
 30
0.0
 11
467.8370669946521
 21
-553.3976632190613
 31
0.0
  0
LINE
  5
2399D
  8
0
 10
464.5162881512629
 20
-557.3976554922922
 30
0.0
 11
468.5162881512629
 21
-556.5976647994696
 31
0.0
  0
LINE
  5
2399E
  8
0
 10
464.5162881512629
 20
-555.7976554922923
 30
0.0
 11
468.2898810990589
 21
-554.997664272667
 31
0.0
  0
LINE
  5
2399F
  8
0
 10
464.5162881512629
 20
-558.9976554922922
 30
0.0
 11
468.5162881512629
 21
-558.1976647994696
 31
0.0
  0
LINE
  5
239A0
  8
0
 10
464.5162881512629
 20
-571.7976554922966
 30
0.0
 11
468.5162881512629
 21
-570.9976647994783
 31
0.0
  0
LINE
  5
239A1
  8
0
 10
468.5162881512629
 20
-570.9976647994783
 30
0.0
 11
468.0162881512629
 21
-570.8976636360807
 31
0.0
  0
LINE
  5
239A2
  8
0
 10
465.0162881512629
 20
-570.2976566556899
 30
0.0
 11
464.5162881512629
 21
-570.1976554922923
 31
0.0
  0
LINE
  5
239A3
  8
0
 10
468.5162881512629
 20
-572.5976647994785
 30
0.0
 11
468.0162881512629
 21
-572.4976636360808
 31
0.0
  0
LINE
  5
239A4
  8
0
 10
468.5162881512629
 20
-574.1976647994784
 30
0.0
 11
468.0162881512629
 21
-574.0976636360807
 31
0.0
  0
LINE
  5
239A5
  8
0
 10
465.0162881512629
 20
-571.8976566556943
 30
0.0
 11
464.5162881512629
 21
-571.7976554922966
 31
0.0
  0
LINE
  5
239A6
  8
0
 10
465.0162881512629
 20
-573.4976566556944
 30
0.0
 11
464.5162881512629
 21
-573.3976554922967
 31
0.0
  0
LINE
  5
239A7
  8
0
 10
464.5162881512629
 20
-573.3976554922967
 30
0.0
 11
468.5162881512629
 21
-572.5976647994785
 31
0.0
  0
LINE
  5
239A8
  8
0
 10
468.5162881512629
 20
-566.197664799474
 30
0.0
 11
468.0162881512629
 21
-566.0976636360763
 31
0.0
  0
LINE
  5
239A9
  8
0
 10
468.5162881512629
 20
-564.5976647994696
 30
0.0
 11
468.0162881512629
 21
-564.4976636360725
 31
0.0
  0
LINE
  5
239AA
  8
0
 10
468.5162881512629
 20
-569.397664799474
 30
0.0
 11
468.0162881512629
 21
-569.2976636360763
 31
0.0
  0
LINE
  5
239AB
  8
0
 10
468.5162881512629
 20
-567.7976647994741
 30
0.0
 11
468.0162881512629
 21
-567.6976636360764
 31
0.0
  0
LINE
  5
239AC
  8
0
 10
465.0162881512629
 20
-563.8976566556894
 30
0.0
 11
464.5162881512629
 21
-563.7976554922923
 31
0.0
  0
LINE
  5
239AD
  8
0
 10
465.0162881512629
 20
-565.49765665569
 30
0.0
 11
464.5162881512629
 21
-565.3976554922922
 31
0.0
  0
LINE
  5
239AE
  8
0
 10
465.0162881512629
 20
-568.69765665569
 30
0.0
 11
464.5162881512629
 21
-568.5976554922923
 31
0.0
  0
LINE
  5
239AF
  8
0
 10
465.0162881512629
 20
-567.0976566556899
 30
0.0
 11
464.5162881512629
 21
-566.9976554922922
 31
0.0
  0
LINE
  5
239B0
  8
0
 10
464.5162881512629
 20
-566.9976554922922
 30
0.0
 11
468.5162881512629
 21
-566.197664799474
 31
0.0
  0
LINE
  5
239B1
  8
0
 10
464.5162881512629
 20
-565.3976554922922
 30
0.0
 11
468.5162881512629
 21
-564.5976647994696
 31
0.0
  0
LINE
  5
239B2
  8
0
 10
464.5162881512629
 20
-568.5976554922923
 30
0.0
 11
468.5162881512629
 21
-567.7976647994741
 31
0.0
  0
LINE
  5
239B3
  8
0
 10
464.5162881512629
 20
-570.1976554922923
 30
0.0
 11
468.5162881512629
 21
-569.397664799474
 31
0.0
  0
LINE
  5
239B4
  8
0
 10
465.0162881512629
 20
-579.8976566556985
 30
0.0
 11
464.5162881512629
 21
-579.7976554923008
 31
0.0
  0
LINE
  5
239B5
  8
0
 10
464.5162881512629
 20
-579.7976554923008
 30
0.0
 11
468.5162881512629
 21
-578.9976647994825
 31
0.0
  0
LINE
  5
239B6
  8
0
 10
468.5162881512629
 20
-578.9976647994825
 30
0.0
 11
468.0162881512629
 21
-578.8976636360849
 31
0.0
  0
LINE
  5
239B7
  8
0
 10
465.0162881512629
 20
-578.2976566556986
 30
0.0
 11
464.5162881512629
 21
-578.1976554923009
 31
0.0
  0
LINE
  5
239B8
  8
0
 10
465.0162881512629
 20
-576.6976566556987
 30
0.0
 11
464.5162881512629
 21
-576.597655492301
 31
0.0
  0
LINE
  5
239B9
  8
0
 10
464.5162881512629
 20
-576.597655492301
 30
0.0
 11
468.5162881512629
 21
-575.7976647994827
 31
0.0
  0
LINE
  5
239BA
  8
0
 10
468.5162881512629
 20
-577.3976647994826
 30
0.0
 11
468.0162881512629
 21
-577.297663636085
 31
0.0
  0
LINE
  5
239BB
  8
0
 10
468.5162881512629
 20
-575.7976647994827
 30
0.0
 11
468.0162881512629
 21
-575.697663636085
 31
0.0
  0
LINE
  5
239BC
  8
0
 10
464.5162881512629
 20
-578.1976554923009
 30
0.0
 11
468.5162881512629
 21
-577.3976647994826
 31
0.0
  0
LINE
  5
239BD
  8
0
 10
465.0162881512629
 20
-575.0976566556943
 30
0.0
 11
464.5162881512629
 21
-574.9976554922966
 31
0.0
  0
LINE
  5
239BE
  8
0
 10
465.0162881512629
 20
-581.4976566556984
 30
0.0
 11
464.5162881512629
 21
-581.3976554923007
 31
0.0
  0
LINE
  5
239BF
  8
0
 10
464.5162881512629
 20
-581.3976554923007
 30
0.0
 11
468.5162881512629
 21
-580.5976647994825
 31
0.0
  0
LINE
  5
239C0
  8
0
 10
468.5162881512629
 20
-580.5976647994825
 30
0.0
 11
468.0162881512629
 21
-580.4976636360848
 31
0.0
  0
LINE
  5
239C1
  8
0
 10
465.0162881512629
 20
-583.0976566556983
 30
0.0
 11
464.5162881512629
 21
-582.9976554923006
 31
0.0
  0
LINE
  5
239C2
  8
0
 10
464.5162881512629
 20
-582.9976554923006
 30
0.0
 11
468.5162881512629
 21
-582.1976647994824
 31
0.0
  0
LINE
  5
239C3
  8
0
 10
468.5162881512629
 20
-582.1976647994824
 30
0.0
 11
468.0162881512629
 21
-582.0976636360847
 31
0.0
  0
LINE
  5
239C4
  8
0
 10
465.0162881512629
 20
-584.6976566556982
 30
0.0
 11
464.5162881512629
 21
-584.5976554923005
 31
0.0
  0
LINE
  5
239C5
  8
0
 10
464.5162881512629
 20
-584.5976554923005
 30
0.0
 11
468.5162881512629
 21
-583.7976647994823
 31
0.0
  0
LINE
  5
239C6
  8
0
 10
468.5162881512629
 20
-583.7976647994823
 30
0.0
 11
468.0162881512629
 21
-583.6976636360846
 31
0.0
  0
LINE
  5
239C7
  8
1DIM
 10
466.5162416153649
 20
-714.2663299604429
 30
0.0
 11
466.5162416153649
 21
-740.1341914725654
 31
0.0
1001
ACAD
1000
DSTYLE
1002
{
1070
    45
1040
0.5
1002
}
  0
LINE
  5
239C8
  8
1DIM
 10
533.516241615365
 20
-714.2663299604429
 30
0.0
 11
533.516241615365
 21
-740.1341914725654
 31
0.0
1001
ACAD
1000
DSTYLE
1002
{
1070
    45
1040
0.5
1002
}
  0
LINE
  5
239C9
  8
1DIM
 10
468.5162416153649
 20
-739.1341914725654
 30
0.0
 11
531.516241615365
 21
-739.1341914725654
 31
0.0
1001
ACAD
1000
DSTYLE
1002
{
1070
    45
1040
0.5
1002
}
  0
LINE
  5
239CD
  8
1DIM
 10
400.0162416153649
 20
-710.636327375391
 30
0.0
 11
400.0162416153649
 21
-683.4486954534264
 31
0.0
1001
ACAD
1000
DSTYLE
1002
{
1070
    45
1040
0.5
1002
}
  0
LINE
  5
239CE
  8
1DIM
 10
600.016241615365
 20
-710.6363273753911
 30
0.0
 11
600.016241615365
 21
-683.4486954534264
 31
0.0
1001
ACAD
1000
DSTYLE
1002
{
1070
    45
1040
0.5
1002
}
  0
LINE
  5
239CF
  8
1DIM
 10
402.0162416153649
 20
-684.4486954534264
 30
0.0
 11
598.016241615365
 21
-684.4486954534264
 31
0.0
1001
ACAD
1000
DSTYLE
1002
{
1070
    45
1040
0.5
1002
}
  0
LINE
  5
239D3
  8
1DIM
 10
407.0162416153649
 20
-705.9181223857472
 30
0.0
 11
407.211331937381
 21
-705.9373131373202
 31
0.0
  0
LINE
  5
239D4
  8
1DIM
 10
407.211331937381
 20
-705.9373131373202
 30
0.0
 11
407.3173810327675
 21
-705.964484359441
 31
0.0
  0
LINE
  5
239D5
  8
1DIM
 10
593.016241615365
 20
-705.9181223857472
 30
0.0
 11
592.8211512933489
 21
-705.9373131373202
 31
0.0
  0
LINE
  5
239D6
  8
1DIM
 10
592.8211512933489
 20
-705.9373131373202
 30
0.0
 11
592.7123948045308
 21
-705.965342509646
 31
0.0
  0
LINE
  5
239D7
  8
0
 10
742.8162398147355
 20
-710.6363739112891
 30
0.0
 11
737.5162433048738
 21
-709.1363739112891
 31
0.0
  0
LINE
  5
239D8
  8
0
 10
737.5162433048738
 20
-709.1363739112891
 30
0.0
 11
707.8162433049819
 21
-709.1363739112893
 31
0.0
  0
LINE
  5
239D9
  8
0
 10
742.8162398147355
 20
-710.6363739112891
 30
0.0
 11
737.5162363244901
 21
-712.1363739112892
 31
0.0
  0
LINE
  5
239DA
  8
0
 10
707.81624795868
 20
-707.1363273753913
 30
0.0
 11
707.8162316711156
 21
-714.1363273753911
 31
0.0
  0
LINE
  5
239DB
  8
0
 10
737.5162363244901
 20
-712.1363739112892
 30
0.0
 11
707.8162363245972
 21
-712.1363739112893
 31
0.0
  0
LINE
  5
239DC
  8
0
 10
707.81624795868
 20
-707.1363273753913
 30
0.0
 11
706.7162444684847
 21
-707.1363273753911
 31
0.0
  0
ARC
  5
239DD
  8
0
 10
706.7162444684847
 20
-708.6363273753911
 30
0.0
 40
1.5
 50
90.0
 51
179.9998666844663
  0
LINE
  5
239DE
  8
0
 10
707.8162316711156
 20
-714.1363273753911
 30
0.0
 11
706.716235161305
 21
-714.1363273753911
 31
0.0
  0
LINE
  5
239DF
  8
0
 10
705.2162444684888
 20
-708.6363238851987
 30
0.0
 11
705.2162351613091
 21
-712.6363238851987
 31
0.0
  0
ARC
  5
239E0
  8
0
 10
706.716235161305
 20
-712.6363273753911
 30
0.0
 40
1.5
 50
179.9998666844663
 51
270.0
  0
LINE
  5
239E1
  8
1CENTER
 10
744.2470347322009
 20
-710.6363273753911
 30
0.0
 11
704.145963405589
 21
-710.6363273753911
 31
0.0
  0
LINE
  5
239E2
  8
0
 10
740.7162423610577
 20
-709.5420035613961
 30
0.0
 11
741.5162377951086
 21
-711.5043386502715
 31
0.0
  0
LINE
  5
239E3
  8
0
 10
741.5162377951086
 20
-711.5043386502715
 30
0.0
 11
741.8280076513607
 21
-710.9160620752291
 31
0.0
  0
LINE
  5
239E4
  8
0
 10
718.3162444682677
 20
-708.6363739112891
 30
0.0
 11
719.1162351610859
 21
-712.6363739112891
 31
0.0
  0
LINE
  5
239E5
  8
0
 10
729.516244468272
 20
-708.6363739112891
 30
0.0
 11
730.3162351610946
 21
-712.6363739112891
 31
0.0
  0
LINE
  5
239E6
  8
0
 10
732.7162444682721
 20
-708.6363739112891
 30
0.0
 11
733.5162351610946
 21
-712.6363739112891
 31
0.0
  0
LINE
  5
239E7
  8
0
 10
733.5162351610946
 20
-712.6363739112891
 30
0.0
 11
733.6162363244919
 21
-712.1363739112891
 31
0.0
  0
LINE
  5
239E8
  8
0
 10
734.2162433048749
 20
-709.1363739112891
 30
0.0
 11
734.3162444682721
 21
-708.6363739112891
 31
0.0
  0
LINE
  5
239E9
  8
0
 10
730.3162351610946
 20
-712.6363739112891
 30
0.0
 11
730.4162363244918
 21
-712.1363739112891
 31
0.0
  0
LINE
  5
239EA
  8
0
 10
731.9162351610947
 20
-712.6363739112891
 30
0.0
 11
732.0162363244918
 21
-712.1363739112891
 31
0.0
  0
LINE
  5
239EB
  8
0
 10
732.616243304875
 20
-709.1363739112891
 30
0.0
 11
732.7162444682721
 21
-708.6363739112891
 31
0.0
  0
LINE
  5
239EC
  8
0
 10
731.016243304875
 20
-709.1363739112891
 30
0.0
 11
731.1162444682722
 21
-708.6363739112891
 31
0.0
  0
LINE
  5
239ED
  8
0
 10
731.1162444682722
 20
-708.6363739112891
 30
0.0
 11
731.9162351610947
 21
-712.6363739112891
 31
0.0
  0
LINE
  5
239EE
  8
0
 10
739.916236741503
 20
-711.9571527546783
 30
0.0
 11
740.099000884131
 21
-711.405403290875
 31
0.0
  0
LINE
  5
239EF
  8
0
 10
736.7162351610947
 20
-712.6363739112891
 30
0.0
 11
736.8162363244918
 21
-712.1363739112891
 31
0.0
  0
LINE
  5
239F0
  8
0
 10
735.1162351610947
 20
-712.6363739112891
 30
0.0
 11
735.2162363244917
 21
-712.1363739112891
 31
0.0
  0
LINE
  5
239F1
  8
0
 10
738.3162356878973
 20
-712.4099668590851
 30
0.0
 11
738.4455063855272
 21
-711.873373123814
 31
0.0
  0
LINE
  5
239F2
  8
0
 10
739.0034739023118
 20
-709.5572885084978
 30
0.0
 11
739.1162434146619
 21
-709.0891900533478
 31
0.0
  0
LINE
  5
239F3
  8
0
 10
735.816243304875
 20
-709.1363739112891
 30
0.0
 11
735.9162444682721
 21
-708.6363739112891
 31
0.0
  0
LINE
  5
239F4
  8
0
 10
737.4162433048749
 20
-709.1363739112891
 30
0.0
 11
737.516244468272
 21
-708.6363739112891
 31
0.0
  0
LINE
  5
239F5
  8
0
 10
740.5648065646172
 20
-709.9991754020272
 30
0.0
 11
740.7162423610577
 21
-709.5420035613961
 31
0.0
  0
LINE
  5
239F6
  8
0
 10
739.1162434146619
 20
-709.0891900533478
 30
0.0
 11
739.916236741503
 21
-711.9571527546783
 31
0.0
  0
LINE
  5
239F7
  8
0
 10
735.9162444682721
 20
-708.6363739112891
 30
0.0
 11
736.7162351610947
 21
-712.6363739112891
 31
0.0
  0
LINE
  5
239F8
  8
0
 10
737.516244468272
 20
-708.6363739112891
 30
0.0
 11
738.3162356878973
 21
-712.4099668590851
 31
0.0
  0
LINE
  5
239F9
  8
0
 10
734.3162444682721
 20
-708.6363739112891
 30
0.0
 11
735.1162351610947
 21
-712.6363739112891
 31
0.0
  0
LINE
  5
239FA
  8
0
 10
721.5162444682677
 20
-708.6363739112891
 30
0.0
 11
722.316235161086
 21
-712.6363739112891
 31
0.0
  0
LINE
  5
239FB
  8
0
 10
722.316235161086
 20
-712.6363739112891
 30
0.0
 11
722.4162363244836
 21
-712.1363739112891
 31
0.0
  0
LINE
  5
239FC
  8
0
 10
723.0162433048744
 20
-709.1363739112891
 30
0.0
 11
723.116244468272
 21
-708.6363739112891
 31
0.0
  0
LINE
  5
239FD
  8
0
 10
720.7162351610858
 20
-712.6363739112891
 30
0.0
 11
720.8162363244835
 21
-712.1363739112891
 31
0.0
  0
LINE
  5
239FE
  8
0
 10
719.1162351610859
 20
-712.6363739112891
 30
0.0
 11
719.2162363244836
 21
-712.1363739112891
 31
0.0
  0
LINE
  5
239FF
  8
0
 10
721.41624330487
 20
-709.1363739112891
 30
0.0
 11
721.5162444682677
 21
-708.6363739112891
 31
0.0
  0
LINE
  5
23A00
  8
0
 10
719.8162433048699
 20
-709.1363739112891
 30
0.0
 11
719.9162444682676
 21
-708.6363739112891
 31
0.0
  0
LINE
  5
23A01
  8
0
 10
719.9162444682676
 20
-708.6363739112891
 30
0.0
 11
720.7162351610858
 21
-712.6363739112891
 31
0.0
  0
LINE
  5
23A02
  8
0
 10
727.1162351610903
 20
-712.6363739112891
 30
0.0
 11
727.216236324488
 21
-712.1363739112891
 31
0.0
  0
LINE
  5
23A03
  8
0
 10
728.7162351610947
 20
-712.6363739112891
 30
0.0
 11
728.8162363244918
 21
-712.1363739112891
 31
0.0
  0
LINE
  5
23A04
  8
0
 10
723.9162351610903
 20
-712.6363739112891
 30
0.0
 11
724.016236324488
 21
-712.1363739112891
 31
0.0
  0
LINE
  5
23A05
  8
0
 10
725.5162351610902
 20
-712.6363739112891
 30
0.0
 11
725.6162363244879
 21
-712.1363739112891
 31
0.0
  0
LINE
  5
23A06
  8
0
 10
729.4162433048749
 20
-709.1363739112891
 30
0.0
 11
729.516244468272
 21
-708.6363739112891
 31
0.0
  0
LINE
  5
23A07
  8
0
 10
727.8162433048743
 20
-709.1363739112891
 30
0.0
 11
727.9162444682721
 21
-708.6363739112891
 31
0.0
  0
LINE
  5
23A08
  8
0
 10
724.6162433048743
 20
-709.1363739112891
 30
0.0
 11
724.716244468272
 21
-708.6363739112891
 31
0.0
  0
LINE
  5
23A09
  8
0
 10
726.2162433048744
 20
-709.1363739112891
 30
0.0
 11
726.3162444682721
 21
-708.6363739112891
 31
0.0
  0
LINE
  5
23A0A
  8
0
 10
726.3162444682721
 20
-708.6363739112891
 30
0.0
 11
727.1162351610903
 21
-712.6363739112891
 31
0.0
  0
LINE
  5
23A0B
  8
0
 10
727.9162444682721
 20
-708.6363739112891
 30
0.0
 11
728.7162351610947
 21
-712.6363739112891
 31
0.0
  0
LINE
  5
23A0C
  8
0
 10
724.716244468272
 20
-708.6363739112891
 30
0.0
 11
725.5162351610902
 21
-712.6363739112891
 31
0.0
  0
LINE
  5
23A0D
  8
0
 10
723.116244468272
 20
-708.6363739112891
 30
0.0
 11
723.9162351610903
 21
-712.6363739112891
 31
0.0
  0
LINE
  5
23A0E
  8
0
 10
713.4162433048658
 20
-709.1363739112891
 30
0.0
 11
713.5162444682635
 21
-708.6363739112891
 31
0.0
  0
LINE
  5
23A0F
  8
0
 10
713.5162444682635
 20
-708.6363739112891
 30
0.0
 11
714.3162351610817
 21
-712.6363739112891
 31
0.0
  0
LINE
  5
23A10
  8
0
 10
714.3162351610817
 20
-712.6363739112891
 30
0.0
 11
714.4162363244794
 21
-712.1363739112891
 31
0.0
  0
LINE
  5
23A11
  8
0
 10
715.0162433048657
 20
-709.1363739112891
 30
0.0
 11
715.1162444682634
 21
-708.6363739112891
 31
0.0
  0
LINE
  5
23A12
  8
0
 10
716.6162433048656
 20
-709.1363739112891
 30
0.0
 11
716.7162444682633
 21
-708.6363739112891
 31
0.0
  0
LINE
  5
23A13
  8
0
 10
716.7162444682633
 20
-708.6363739112891
 30
0.0
 11
717.5162351610816
 21
-712.6363739112891
 31
0.0
  0
LINE
  5
23A14
  8
0
 10
715.9162351610817
 20
-712.6363739112891
 30
0.0
 11
716.0162363244793
 21
-712.1363739112891
 31
0.0
  0
LINE
  5
23A15
  8
0
 10
717.5162351610816
 20
-712.6363739112891
 30
0.0
 11
717.6162363244792
 21
-712.1363739112891
 31
0.0
  0
LINE
  5
23A16
  8
0
 10
715.1162444682634
 20
-708.6363739112891
 30
0.0
 11
715.9162351610817
 21
-712.6363739112891
 31
0.0
  0
LINE
  5
23A17
  8
0
 10
718.21624330487
 20
-709.1363739112891
 30
0.0
 11
718.3162444682677
 21
-708.6363739112891
 31
0.0
  0
LINE
  5
23A18
  8
0
 10
711.8162433048659
 20
-709.1363739112891
 30
0.0
 11
711.9162444682636
 21
-708.6363739112891
 31
0.0
  0
LINE
  5
23A19
  8
0
 10
711.9162444682636
 20
-708.6363739112891
 30
0.0
 11
712.7162351610818
 21
-712.6363739112891
 31
0.0
  0
LINE
  5
23A1A
  8
0
 10
712.7162351610818
 20
-712.6363739112891
 30
0.0
 11
712.8162363244795
 21
-712.1363739112891
 31
0.0
  0
LINE
  5
23A1B
  8
0
 10
710.216243304866
 20
-709.1363739112891
 30
0.0
 11
710.3162444682637
 21
-708.6363739112891
 31
0.0
  0
LINE
  5
23A1C
  8
0
 10
710.3162444682637
 20
-708.6363739112891
 30
0.0
 11
711.1162351610819
 21
-712.6363739112891
 31
0.0
  0
LINE
  5
23A1D
  8
0
 10
711.1162351610819
 20
-712.6363739112891
 30
0.0
 11
711.2162363244796
 21
-712.1363739112891
 31
0.0
  0
LINE
  5
23A1E
  8
0
 10
708.6162433048661
 20
-709.1363739112891
 30
0.0
 11
708.7162444682638
 21
-708.6363739112891
 31
0.0
  0
LINE
  5
23A1F
  8
0
 10
708.7162444682638
 20
-708.6363739112891
 30
0.0
 11
709.516235161082
 21
-712.6363739112891
 31
0.0
  0
LINE
  5
23A20
  8
0
 10
709.516235161082
 20
-712.6363739112891
 30
0.0
 11
709.6162363244797
 21
-712.1363739112891
 31
0.0
  0
SOLID
  5
23A21
  8
1DIM
 10
706.3899759555075
 20
-719.1737759487655
 30
0.0
 11
707.5581761562139
 21
-717.5165434960961
 31
0.0
 12
706.9906027077627
 22
-719.4630715569584
 32
0.0
 13
706.9906027077627
 23
-719.4630715569584
 33
0.0
1001
ACAD
1000
DSTYLE
1002
{
1070
    45
1040
0.5
1002
}
  0
LINE
  5
23A22
  8
1DIM
 10
706.6902893316351
 20
-719.3184237528619
 30
0.0
 11
687.372549051697
 21
-759.4253292040937
 31
0.0
1001
ACAD
1000
DSTYLE
1002
{
1070
    45
1040
0.5
1002
}
  0
LINE
  5
23A23
  8
1DIM
 10
687.372549051697
 20
-759.4253292040937
 30
0.0
 11
646.1725490516969
 21
-759.4253292040937
 31
0.0
1001
ACAD
1000
DSTYLE
1002
{
1070
    45
1040
0.5
1002
}
  0
TEXT
  5
23A24
  8
1DIM
  6
CONTINUOUS
 10
653.8725490516969
 20
-752.8919958707603
 30
0.0
 40
3.5
  1
材質：POM樹脂
  0
TEXT
  5
23A25
  8
1DIM
  6
CONTINUOUS
 10
646.0558823850303
 20
-758.7253292040937
 30
0.0
 40
3.5
  1
仕上げ：黒（艶消し）
  0
LINE
  5
23A26
  8
1DIM
 10
408.0162416153617
 20
-623.2976601456669
 30
0.0
 11
408.0162416153617
 21
-642.8854166533029
 31
0.0
  0
LINE
  5
23A27
  8
1DIM
 10
592.0157171747211
 20
-623.353752648066
 30
0.0
 11
592.0157171747211
 21
-642.8854166533029
 31
0.0
  0
LINE
  5
23A28
  8
1DIM
 10
410.0162416153617
 20
-641.8854166533029
 30
0.0
 11
590.0157171747211
 21
-641.8854166533029
 31
0.0
  0
LINE
  5
23A2C
  8
1DIM
 10
587.016241615365
 20
-592.2976601456666
 30
0.0
 11
615.8790583372997
 21
-592.2976601456666
 31
0.0
  0
LINE
  5
23A2D
  8
1DIM
 10
600.016241615365
 20
-580.2976601456666
 30
0.0
 11
615.8790583372997
 21
-580.2976601456666
 31
0.0
  0
LINE
  5
23A2E
  8
1DIM
 10
614.8790583372997
 20
-590.2976601456666
 30
0.0
 11
614.8790583372997
 21
-582.2976601456666
 31
0.0
  0
LINE
  5
23A32
  8
1DIM
 10
587.016241615365
 20
-592.2976601456666
 30
0.0
 11
615.8790583372997
 21
-592.2976601456666
 31
0.0
  0
LINE
  5
23A33
  8
1DIM
 10
589.016241615365
 20
-626.2976601456666
 30
0.0
 11
615.8790583372997
 21
-626.2976601456666
 31
0.0
  0
LINE
  5
23A34
  8
1DIM
 10
614.8790583372997
 20
-594.2976601456666
 30
0.0
 11
614.8790583372997
 21
-624.2976601456666
 31
0.0
  0
LINE
  5
23A38
  8
1DIM
 10
597.016241615365
 20
-632.2976601456666
 30
0.0
 11
627.7524873273901
 21
-632.2976601456666
 31
0.0
  0
LINE
  5
23A39
  8
1DIM
 10
599.516241615365
 20
-580.2976601456666
 30
0.0
 11
627.7524873273901
 21
-580.2976601456666
 31
0.0
  0
LINE
  5
23A3A
  8
1DIM
 10
626.7524873273901
 20
-630.2976601456666
 30
0.0
 11
626.7524873273901
 21
-582.2976601456666
 31
0.0
  0
LINE
  5
23A3E
  8
0
  6
BYBLOCK
 10
749.9452202915511
 20
-708.6363273753911
 30
0.0
 11
749.409321911551
 21
-710.6363273753911
 31
0.0
  0
LINE
  5
23A3F
  8
0
  6
BYBLOCK
 10
749.409321911551
 20
-710.6363273753911
 30
0.0
 11
748.873423531551
 21
-708.6363273753911
 31
0.0
  0
LINE
  5
23A40
  8
0
  6
BYBLOCK
 10
749.409321911551
 20
-710.6363273753911
 30
0.0
 11
749.409321911551
 21
-708.6363273753911
 31
0.0
  0
LINE
  5
23A41
  8
0
  6
BYBLOCK
 10
748.873423531551
 20
-700.129549906958
 30
0.0
 11
749.409321911551
 21
-698.129549906958
 31
0.0
  0
LINE
  5
23A42
  8
0
  6
BYBLOCK
 10
749.409321911551
 20
-698.129549906958
 30
0.0
 11
749.9452202915511
 21
-700.129549906958
 31
0.0
  0
LINE
  5
23A43
  8
0
  6
BYBLOCK
 10
749.409321911551
 20
-698.129549906958
 30
0.0
 11
749.409321911551
 21
-700.129549906958
 31
0.0
  0
TEXT
  5
23A44
  8
1DIM
  6
CONTINUOUS
 10
748.7093219115511
 20
-706.2230511976153
 30
0.0
 40
3.5
  1
13
 50
90.0
1001
ACAD
1000
DSTYLE
1002
{
1070
    45
1040
0.5
1070
   271
1070
     0
1002
}
  0
LINE
  5
23A45
  8
0
  6
BYBLOCK
 10
758.4297241862691
 20
-719.1295499069515
 30
0.0
 11
757.8938258062691
 21
-721.1295499069515
 31
0.0
  0
LINE
  5
23A46
  8
0
  6
BYBLOCK
 10
757.8938258062691
 20
-721.1295499069515
 30
0.0
 11
757.357927426269
 21
-719.1295499069515
 31
0.0
  0
LINE
  5
23A47
  8
0
  6
BYBLOCK
 10
757.8938258062691
 20
-721.1295499069515
 30
0.0
 11
757.8938258062691
 21
-719.1295499069515
 31
0.0
  0
LINE
  5
23A48
  8
0
  6
BYBLOCK
 10
757.357927426269
 20
-700.129549906958
 30
0.0
 11
757.8938258062691
 21
-698.129549906958
 31
0.0
  0
LINE
  5
23A49
  8
0
  6
BYBLOCK
 10
757.8938258062691
 20
-698.129549906958
 30
0.0
 11
758.4297241862691
 21
-700.129549906958
 31
0.0
  0
LINE
  5
23A4A
  8
0
  6
BYBLOCK
 10
757.8938258062691
 20
-698.129549906958
 30
0.0
 11
757.8938258062691
 21
-700.129549906958
 31
0.0
  0
TEXT
  5
23A4B
  8
1DIM
  6
CONTINUOUS
 10
757.1938258062692
 20
-712.5462165736213
 30
0.0
 40
3.5
  1
23
 50
90.0
1001
ACAD
1000
DSTYLE
1002
{
1070
    45
1040
0.5
1002
}
  0
LINE
  5
23A4C
  8
0
  6
BYBLOCK
 10
468.5162416153649
 20
-739.6700898525654
 30
0.0
 11
466.5162416153649
 21
-739.1341914725654
 31
0.0
  0
LINE
  5
23A4D
  8
0
  6
BYBLOCK
 10
466.5162416153649
 20
-739.1341914725654
 30
0.0
 11
468.5162416153649
 21
-738.5982930925653
 31
0.0
  0
LINE
  5
23A4E
  8
0
  6
BYBLOCK
 10
466.5162416153649
 20
-739.1341914725654
 30
0.0
 11
468.5162416153649
 21
-739.1341914725654
 31
0.0
  0
LINE
  5
23A4F
  8
0
  6
BYBLOCK
 10
531.516241615365
 20
-738.5982930925653
 30
0.0
 11
533.516241615365
 21
-739.1341914725654
 31
0.0
  0
LINE
  5
23A50
  8
0
  6
BYBLOCK
 10
533.516241615365
 20
-739.1341914725654
 30
0.0
 11
531.516241615365
 21
-739.6700898525654
 31
0.0
  0
LINE
  5
23A51
  8
0
  6
BYBLOCK
 10
533.516241615365
 20
-739.1341914725654
 30
0.0
 11
531.516241615365
 21
-739.1341914725654
 31
0.0
  0
TEXT
  5
23A52
  8
1DIM
  6
CONTINUOUS
 10
495.3374221709205
 20
-738.4341914725653
 30
0.0
 40
3.5
  1
P67
1001
ACAD
1000
DSTYLE
1002
{
1070
    45
1040
0.5
1002
}
  0
LINE
  5
23A53
  8
0
  6
BYBLOCK
 10
402.0162416153649
 20
-684.9845938334264
 30
0.0
 11
400.0162416153649
 21
-684.4486954534264
 31
0.0
  0
LINE
  5
23A54
  8
0
  6
BYBLOCK
 10
400.0162416153649
 20
-684.4486954534264
 30
0.0
 11
402.0162416153649
 21
-683.9127970734263
 31
0.0
  0
LINE
  5
23A55
  8
0
  6
BYBLOCK
 10
400.0162416153649
 20
-684.4486954534264
 30
0.0
 11
402.0162416153649
 21
-684.4486954534264
 31
0.0
  0
LINE
  5
23A56
  8
0
  6
BYBLOCK
 10
598.016241615365
 20
-683.9127970734263
 30
0.0
 11
600.016241615365
 21
-684.4486954534264
 31
0.0
  0
LINE
  5
23A57
  8
0
  6
BYBLOCK
 10
600.016241615365
 20
-684.4486954534264
 30
0.0
 11
598.016241615365
 21
-684.9845938334264
 31
0.0
  0
LINE
  5
23A58
  8
0
  6
BYBLOCK
 10
600.016241615365
 20
-684.4486954534264
 30
0.0
 11
598.016241615365
 21
-684.4486954534264
 31
0.0
  0
TEXT
  5
23A59
  8
1DIM
  6
CONTINUOUS
 10
495.8599916153649
 20
-683.7486954534263
 30
0.0
 40
3.5
  1
200
1001
ACAD
1000
DSTYLE
1002
{
1070
    45
1040
0.5
1002
}
  0
LINE
  5
23A5A
  8
0
  6
BYBLOCK
 10
410.0162416153617
 20
-642.4213150333029
 30
0.0
 11
408.0162416153617
 21
-641.8854166533029
 31
0.0
  0
LINE
  5
23A5B
  8
0
  6
BYBLOCK
 10
408.0162416153617
 20
-641.8854166533029
 30
0.0
 11
410.0162416153617
 21
-641.3495182733028
 31
0.0
  0
LINE
  5
23A5C
  8
0
  6
BYBLOCK
 10
408.0162416153617
 20
-641.8854166533029
 30
0.0
 11
410.0162416153617
 21
-641.8854166533029
 31
0.0
  0
LINE
  5
23A5D
  8
0
  6
BYBLOCK
 10
590.0157171747211
 20
-641.3495182733028
 30
0.0
 11
592.0157171747211
 21
-641.8854166533029
 31
0.0
  0
LINE
  5
23A5E
  8
0
  6
BYBLOCK
 10
592.0157171747211
 20
-641.8854166533029
 30
0.0
 11
590.0157171747211
 21
-642.4213150333029
 31
0.0
  0
LINE
  5
23A5F
  8
0
  6
BYBLOCK
 10
592.0157171747211
 20
-641.8854166533029
 30
0.0
 11
590.0157171747211
 21
-641.8854166533029
 31
0.0
  0
TEXT
  5
23A60
  8
1DIM
  6
CONTINUOUS
 10
495.9326460617081
 20
-641.1854166533028
 30
0.0
 40
3.5
  1
184
  0
LINE
  5
23A61
  8
0
  6
BYBLOCK
 10
615.4149567172998
 20
-590.2976601456666
 30
0.0
 11
614.8790583372997
 21
-592.2976601456666
 31
0.0
  0
LINE
  5
23A62
  8
0
  6
BYBLOCK
 10
614.8790583372997
 20
-592.2976601456666
 30
0.0
 11
614.3431599572997
 21
-590.2976601456666
 31
0.0
  0
LINE
  5
23A63
  8
0
  6
BYBLOCK
 10
614.8790583372997
 20
-592.2976601456666
 30
0.0
 11
614.8790583372997
 21
-590.2976601456666
 31
0.0
  0
LINE
  5
23A64
  8
0
  6
BYBLOCK
 10
614.3431599572997
 20
-582.2976601456666
 30
0.0
 11
614.8790583372997
 21
-580.2976601456666
 31
0.0
  0
LINE
  5
23A65
  8
0
  6
BYBLOCK
 10
614.8790583372997
 20
-580.2976601456666
 30
0.0
 11
615.4149567172998
 21
-582.2976601456666
 31
0.0
  0
LINE
  5
23A66
  8
0
  6
BYBLOCK
 10
614.8790583372997
 20
-580.2976601456666
 30
0.0
 11
614.8790583372997
 21
-582.2976601456666
 31
0.0
  0
TEXT
  5
23A67
  8
1DIM
  6
CONTINUOUS
 10
614.1790583372997
 20
-588.6309934789998
 30
0.0
 40
3.5
  1
12
 50
90.0
  0
LINE
  5
23A68
  8
0
  6
BYBLOCK
 10
614.3431599572997
 20
-594.2976601456666
 30
0.0
 11
614.8790583372997
 21
-592.2976601456666
 31
0.0
  0
LINE
  5
23A69
  8
0
  6
BYBLOCK
 10
614.8790583372997
 20
-592.2976601456666
 30
0.0
 11
615.4149567172998
 21
-594.2976601456666
 31
0.0
  0
LINE
  5
23A6A
  8
0
  6
BYBLOCK
 10
614.8790583372997
 20
-592.2976601456666
 30
0.0
 11
614.8790583372997
 21
-594.2976601456666
 31
0.0
  0
LINE
  5
23A6B
  8
0
  6
BYBLOCK
 10
615.4149567172998
 20
-624.2976601456666
 30
0.0
 11
614.8790583372997
 21
-626.2976601456666
 31
0.0
  0
LINE
  5
23A6C
  8
0
  6
BYBLOCK
 10
614.8790583372997
 20
-626.2976601456666
 30
0.0
 11
614.3431599572997
 21
-624.2976601456666
 31
0.0
  0
LINE
  5
23A6D
  8
0
  6
BYBLOCK
 10
614.8790583372997
 20
-626.2976601456666
 30
0.0
 11
614.8790583372997
 21
-624.2976601456666
 31
0.0
  0
TEXT
  5
23A6E
  8
1DIM
  6
CONTINUOUS
 10
614.1790583372997
 20
-612.2143268123331
 30
0.0
 40
3.5
  1
34
 50
90.0
  0
LINE
  5
23A6F
  8
0
  6
BYBLOCK
 10
627.2883857073901
 20
-630.2976601456666
 30
0.0
 11
626.7524873273901
 21
-632.2976601456666
 31
0.0
  0
LINE
  5
23A70
  8
0
  6
BYBLOCK
 10
626.7524873273901
 20
-632.2976601456666
 30
0.0
 11
626.21658894739
 21
-630.2976601456666
 31
0.0
  0
LINE
  5
23A71
  8
0
  6
BYBLOCK
 10
626.7524873273901
 20
-632.2976601456666
 30
0.0
 11
626.7524873273901
 21
-630.2976601456666
 31
0.0
  0
LINE
  5
23A72
  8
0
  6
BYBLOCK
 10
626.21658894739
 20
-582.2976601456666
 30
0.0
 11
626.7524873273901
 21
-580.2976601456666
 31
0.0
  0
LINE
  5
23A73
  8
0
  6
BYBLOCK
 10
626.7524873273901
 20
-580.2976601456666
 30
0.0
 11
627.2883857073901
 21
-582.2976601456666
 31
0.0
  0
LINE
  5
23A74
  8
0
  6
BYBLOCK
 10
626.7524873273901
 20
-580.2976601456666
 30
0.0
 11
626.7524873273901
 21
-582.2976601456666
 31
0.0
  0
TEXT
  5
23A75
  8
1DIM
  6
CONTINUOUS
 10
626.0500567718346
 20
-609.2264795901111
 30
0.0
 40
3.5
  1
52
 50
90.0
  0
VIEWPORT
  5
57
 67
     1
  8
0
 10
0.0
 20
0.0
 30
0.0
 40
629.0235849056603
 41
297.0
 68
     1
 69
     1
1001
ACAD
1000
MVIEW
1002
{
1070
    16
1010
0.0
1020
0.0
1030
0.0
1010
0.0
1020
0.0
1030
1.0
1040
0.0
1040
297.0
1040
-4.272048862584541
1040
18.33904653606845
1040
50.0
1040
0.0
1040
0.0
1070
    16
1070
   100
1070
     0
1070
     1
1070
     0
1070
     0
1070
     0
1070
     0
1040
0.0
1040
0.0
1040
0.0
1040
10.0
1040
10.0
1040
10.0
1040
10.0
1070
     0
1002
{
1002
}
1002
}
  0
ENDSEC
  0
EOF
