  0
SECTION
  2
HEADER
  9
$ACADVER
  1
AC1012
  9
$DWGCODEPAGE
  3
ansi_932
  9
$INSBASE
 10
0.0
 20
0.0
 30
0.0
  9
$EXTMIN
 10
-14.98375838463588
 20
-932.312556060879
 30
0.0
  9
$EXTMAX
 10
1022.791796230719
 20
-468.0254414921759
 30
0.0
  9
$LIMMIN
 10
0.0
 20
0.0
  9
$LIMMAX
 10
420.0
 20
297.0
  9
$ORTHOMODE
 70
     0
  9
$REGENMODE
 70
     1
  9
$FILLMODE
 70
     1
  9
$QTEXTMODE
 70
     0
  9
$MIRRTEXT
 70
     0
  9
$DRAGMODE
 70
     2
  9
$LTSCALE
 40
0.5
  9
$OSMODE
 70
  2175
  9
$ATTMODE
 70
     1
  9
$TEXTSIZE
 40
4.0
  9
$TRACEWID
 40
1.0
  9
$TEXTSTYLE
  7
STANDARD
  9
$CLAYER
  8
1TEXT
  9
$CELTYPE
  6
BYLAYER
  9
$CECOLOR
 62
   256
  9
$CELTSCALE
 40
1.0
  9
$DELOBJ
 70
     1
  9
$DISPSILH
 70
     0
  9
$DIMSCALE
 40
1.0
  9
$DIMASZ
 40
2.0
  9
$DIMEXO
 40
0.0
  9
$DIMDLI
 40
7.0
  9
$DIMRND
 40
0.0
  9
$DIMDLE
 40
0.0
  9
$DIMEXE
 40
1.0
  9
$DIMTP
 40
0.0
  9
$DIMTM
 40
0.0
  9
$DIMTXT
 40
3.5
  9
$DIMCEN
 40
0.0
  9
$DIMTSZ
 40
0.0
  9
$DIMTOL
 70
     0
  9
$DIMLIM
 70
     0
  9
$DIMTIH
 70
     0
  9
$DIMTOH
 70
     0
  9
$DIMSE1
 70
     0
  9
$DIMSE2
 70
     0
  9
$DIMTAD
 70
     1
  9
$DIMZIN
 70
     8
  9
$DIMBLK
  1

  9
$DIMASO
 70
     1
  9
$DIMSHO
 70
     1
  9
$DIMPOST
  1
 
  9
$DIMAPOST
  1

  9
$DIMALT
 70
     0
  9
$DIMALTD
 70
     2
  9
$DIMALTF
 40
25.4
  9
$DIMLFAC
 40
1.0
  9
$DIMTOFL
 70
     1
  9
$DIMTVP
 40
0.0
  9
$DIMTIX
 70
     0
  9
$DIMSOXD
 70
     0
  9
$DIMSAH
 70
     1
  9
$DIMBLK1
  1
OPEN30
  9
$DIMBLK2
  1
OPEN30
  9
$DIMSTYLE
  2
NEWX10
  9
$DIMCLRD
 70
   256
  9
$DIMCLRE
 70
   256
  9
$DIMCLRT
 70
   201
  9
$DIMTFAC
 40
0.7
  9
$DIMGAP
 40
0.7
  9
$DIMJUST
 70
     0
  9
$DIMSD1
 70
     0
  9
$DIMSD2
 70
     0
  9
$DIMTOLJ
 70
     1
  9
$DIMTZIN
 70
     8
  9
$DIMALTZ
 70
     0
  9
$DIMALTTZ
 70
     0
  9
$DIMFIT
 70
     3
  9
$DIMUPT
 70
     0
  9
$DIMUNIT
 70
     2
  9
$DIMDEC
 70
     2
  9
$DIMTDEC
 70
     4
  9
$DIMALTU
 70
     2
  9
$DIMALTTD
 70
     2
  9
$DIMTXSTY
  7
STANDARD
  9
$DIMAUNIT
 70
     0
  9
$LUNITS
 70
     2
  9
$LUPREC
 70
     4
  9
$SKETCHINC
 40
1.0
  9
$FILLETRAD
 40
0.0
  9
$AUNITS
 70
     0
  9
$AUPREC
 70
     2
  9
$MENU
  1
acad
  9
$ELEVATION
 40
0.0
  9
$PELEVATION
 40
0.0
  9
$THICKNESS
 40
0.0
  9
$LIMCHECK
 70
     0
  9
$CHAMFERA
 40
1.0
  9
$CHAMFERB
 40
1.0
  9
$CHAMFERC
 40
20.0
  9
$CHAMFERD
 40
0.0
  9
$SKPOLY
 70
     0
  9
$TDCREATE
 40
2453033.732663484
  9
$TDUPDATE
 40
2458597.612601632
  9
$TDINDWG
 40
2.9506044329
  9
$TDUSRTIMER
 40
2.9506044329
  9
$USRTIMER
 70
     1
  9
$ANGBASE
 50
0.0
  9
$ANGDIR
 70
     0
  9
$PDMODE
 70
     0
  9
$PDSIZE
 40
0.0
  9
$PLINEWID
 40
0.0
  9
$COORDS
 70
     2
  9
$SPLFRAME
 70
     0
  9
$SPLINETYPE
 70
     6
  9
$SPLINESEGS
 70
     8
  9
$ATTDIA
 70
     0
  9
$ATTREQ
 70
     1
  9
$HANDLING
 70
     1
  9
$HANDSEED
  5
245A9
  9
$SURFTAB1
 70
     6
  9
$SURFTAB2
 70
     6
  9
$SURFTYPE
 70
     6
  9
$SURFU
 70
     6
  9
$SURFV
 70
     6
  9
$UCSNAME
  2

  9
$UCSORG
 10
0.0
 20
0.0
 30
0.0
  9
$UCSXDIR
 10
1.0
 20
0.0
 30
0.0
  9
$UCSYDIR
 10
0.0
 20
1.0
 30
0.0
  9
$PUCSNAME
  2

  9
$PUCSORG
 10
0.0
 20
0.0
 30
0.0
  9
$PUCSXDIR
 10
1.0
 20
0.0
 30
0.0
  9
$PUCSYDIR
 10
0.0
 20
1.0
 30
0.0
  9
$USERI1
 70
     0
  9
$USERI2
 70
     0
  9
$USERI3
 70
     0
  9
$USERI4
 70
     0
  9
$USERI5
 70
     0
  9
$USERR1
 40
0.0
  9
$USERR2
 40
0.0
  9
$USERR3
 40
0.0
  9
$USERR4
 40
0.0
  9
$USERR5
 40
0.0
  9
$WORLDVIEW
 70
     1
  9
$SHADEDGE
 70
     3
  9
$SHADEDIF
 70
    70
  9
$TILEMODE
 70
     1
  9
$MAXACTVP
 70
    48
  9
$PINSBASE
 10
0.0
 20
0.0
 30
0.0
  9
$PLIMCHECK
 70
     0
  9
$PEXTMIN
 10
1.000000000000000E+20
 20
1.000000000000000E+20
 30
1.000000000000000E+20
  9
$PEXTMAX
 10
-1.000000000000000E+20
 20
-1.000000000000000E+20
 30
-1.000000000000000E+20
  9
$PLIMMIN
 10
0.0
 20
0.0
  9
$PLIMMAX
 10
420.0
 20
297.0
  9
$UNITMODE
 70
     0
  9
$VISRETAIN
 70
     1
  9
$PLINEGEN
 70
     0
  9
$PSLTSCALE
 70
     1
  9
$TREEDEPTH
 70
  3020
  9
$PICKSTYLE
 70
     1
  9
$CMLSTYLE
  2
STANDARD
  9
$CMLJUST
 70
     0
  9
$CMLSCALE
 40
20.0
  9
$SAVEIMAGES
 70
     1
  0
ENDSEC
  0
SECTION
  2
CLASSES
  0
CLASS
  1
DICTIONARYVAR
  2
AcDbDictionaryVar
  3
ObjectDBX Classes
 90
        0
280
     0
281
     0
  0
CLASS
  1
IDBUFFER
  2
AcDbIdBuffer
  3
ObjectDBX Classes
 90
    32768
280
     0
281
     0
  0
CLASS
  1
LWPOLYLINE
  2
AcDbPolyline
  3
ObjectDBX Classes
 90
    32768
280
     0
281
     1
  0
CLASS
  1
ACDBDICTIONARYWDFLT
  2
AcDbDictionaryWithDefault
  3
ObjectDBX Classes
 90
    32768
280
     0
281
     0
  0
CLASS
  1
ACDBPLACEHOLDER
  2
AcDbPlaceHolder
  3
ObjectDBX Classes
 90
        0
280
     0
281
     0
  0
CLASS
  1
LAYOUT
  2
AcDbLayout
  3
ObjectDBX Classes
 90
        0
280
     0
281
     0
  0
CLASS
  1
TABLESTYLE
  2
AcDbTableStyle
  3
ObjectDBX Classes
 90
     4095
280
     0
281
     0
  0
CLASS
  1
SORTENTSTABLE
  2
AcDbSortentsTable
  3
ObjectDBX Classes
 90
    32768
280
     0
281
     0
  0
CLASS
  1
DIMASSOC
  2
AcDbDimAssoc
  3
"AcDbDimAssoc|Product Desc:     AcDim ARX App For Dimension|Company:          Autodesk, Inc.|WEB Address:      www.autodesk.com"
 90
        0
280
     0
281
     0
  0
CLASS
  1
MATERIAL
  2
AcDbMaterial
  3
ObjectDBX Classes
 90
     1153
280
     0
281
     0
  0
CLASS
  1
VISUALSTYLE
  2
AcDbVisualStyle
  3
ObjectDBX Classes
 90
     4095
280
     0
281
     0
  0
CLASS
  1
SCALE
  2
AcDbScale
  3
ObjectDBX Classes
 90
     1153
280
     0
281
     0
  0
CLASS
  1
MLEADERSTYLE
  2
AcDbMLeaderStyle
  3
ACDB_MLEADERSTYLE_CLASS
 90
     4095
280
     0
281
     0
  0
CLASS
  1
CELLSTYLEMAP
  2
AcDbCellStyleMap
  3
ObjectDBX Classes
 90
     1152
280
     0
281
     0
  0
CLASS
  1
EXACXREFPANELOBJECT
  2
ExAcXREFPanelObject
  3
EXAC_ESW
 90
   -31743
280
     1
281
     0
  0
CLASS
  1
NPOCOLLECTION
  2
AcDbImpNonPersistentObjectsCollection
  3
ObjectDBX Classes
 90
   -31615
280
     1
281
     0
  0
CLASS
  1
SUN
  2
AcDbSun
  3
SCENEOE
 90
     1153
280
     0
281
     0
  0
CLASS
  1
XRECORD
  2
AcDbXrecord
  3
ObjectDBX Classes
 90
    32768
280
     0
281
     0
  0
CLASS
  1
HATCH
  2
AcDbHatch
  3
ObjectDBX Classes
 90
    32768
280
     0
281
     1
  0
ENDSEC
  0
SECTION
  2
TABLES
  0
TABLE
  2
VPORT
  5
8
330
0
100
AcDbSymbolTable
 70
     1
  0
VPORT
  5
19DC2
330
8
100
AcDbSymbolTableRecord
100
AcDbViewportTableRecord
  2
*ACTIVE
 70
     0
 10
0.0
 20
0.0
 11
1.0
 21
1.0
 12
503.9040189230418
 22
-700.1689987765275
 13
0.0
 23
0.0
 14
10.0
 24
10.0
 15
10.0
 25
10.0
 16
0.0
 26
0.0
 36
1.0
 17
0.0
 27
0.0
 37
0.0
 40
617.9713908093339
 41
1.803066037735849
 42
50.0
 43
0.0
 44
0.0
 50
0.0
 51
0.0
 71
    16
 72
   100
 73
     1
 74
     1
 75
     0
 76
     0
 77
     0
 78
     0
1001
ACAD_NAV_VCDISPLAY
1070
     3
  0
ENDTAB
  0
TABLE
  2
LTYPE
  5
5
330
0
100
AcDbSymbolTable
 70
     3
  0
LTYPE
  5
12
330
5
100
AcDbSymbolTableRecord
100
AcDbLinetypeTableRecord
  2
BYBLOCK
 70
     0
  3

 72
    65
 73
     0
 40
0.0
  0
LTYPE
  5
13
330
5
100
AcDbSymbolTableRecord
100
AcDbLinetypeTableRecord
  2
BYLAYER
 70
     0
  3

 72
    65
 73
     0
 40
0.0
  0
LTYPE
  5
14
330
5
100
AcDbSymbolTableRecord
100
AcDbLinetypeTableRecord
  2
CONTINUOUS
 70
     0
  3
Solid line
 72
    65
 73
     0
 40
0.0
  0
LTYPE
  5
100
330
5
100
AcDbSymbolTableRecord
100
AcDbLinetypeTableRecord
  2
PHANTOM2
 70
     0
  3
Phantom (0.5x) ___ _ _ ___ _ _ ___ _ _ ___ _ _
 72
    65
 73
     6
 40
31.75
 49
15.875
 74
     0
 49
-3.175
 74
     0
 49
3.175
 74
     0
 49
-3.175
 74
     0
 49
3.175
 74
     0
 49
-3.175
 74
     0
  0
LTYPE
  5
240A8
330
5
100
AcDbSymbolTableRecord
100
AcDbLinetypeTableRecord
  2
CENTER2
 70
     0
  3
Center (.5x) ___ _ ___ _ ___ _ ___ _ ___ _ ___
 72
    65
 73
     4
 40
28.575
 49
19.05
 74
     0
 49
-3.175
 74
     0
 49
3.175
 74
     0
 49
-3.175
 74
     0
  0
ENDTAB
  0
TABLE
  2
LAYER
  5
2
102
{ACAD_XDICTIONARY
360
18FE8
102
}
330
0
100
AcDbSymbolTable
 70
     8
  0
LAYER
  5
E
102
{ACAD_XDICTIONARY
360
1A20A
102
}
330
2
100
AcDbSymbolTableRecord
100
AcDbLayerTableRecord
  2
0
 70
     0
 62
     7
  6
CONTINUOUS
  0
LAYER
  5
29
102
{ACAD_XDICTIONARY
360
1A20C
102
}
330
2
100
AcDbSymbolTableRecord
100
AcDbLayerTableRecord
  2
1CENTER
 70
     0
 62
     7
  6
CENTER2
  0
LAYER
  5
31
102
{ACAD_XDICTIONARY
360
1A20E
102
}
330
2
100
AcDbSymbolTableRecord
100
AcDbLayerTableRecord
  2
1TEXT
 70
     0
 62
     7
  6
CONTINUOUS
  0
LAYER
  5
101
102
{ACAD_XDICTIONARY
360
1A218
102
}
330
2
100
AcDbSymbolTableRecord
100
AcDbLayerTableRecord
  2
1DIM
 70
     0
 62
     7
  6
CONTINUOUS
  0
LAYER
  5
103
102
{ACAD_XDICTIONARY
360
1A21C
102
}
330
2
100
AcDbSymbolTableRecord
100
AcDbLayerTableRecord
  2
1PHANTOM
 70
     0
 62
     7
  6
PHANTOM2
  0
LAYER
  5
25F
102
{ACAD_XDICTIONARY
360
1A220
102
}
330
2
100
AcDbSymbolTableRecord
100
AcDbLayerTableRecord
  2
01
 70
     0
 62
     1
  6
CONTINUOUS
  0
LAYER
  5
26A
102
{ACAD_XDICTIONARY
360
1A236
102
}
330
2
100
AcDbSymbolTableRecord
100
AcDbLayerTableRecord
  2
1DIM1
 70
     0
 62
     7
  6
CONTINUOUS
  0
LAYER
  5
26D
102
{ACAD_XDICTIONARY
360
1A23C
102
}
330
2
100
AcDbSymbolTableRecord
100
AcDbLayerTableRecord
  2
1HATCH
 70
     0
 62
     7
  6
CONTINUOUS
  0
ENDTAB
  0
TABLE
  2
STYLE
  5
3
330
0
100
AcDbSymbolTable
 70
     1
  0
STYLE
  5
F
330
3
100
AcDbSymbolTableRecord
100
AcDbTextStyleTableRecord
  2
STANDARD
 70
     0
 40
0.0
 41
1.0
 50
0.0
 71
     0
 42
4.0
  3
txt.shx
  4
extfont.shx
  0
ENDTAB
  0
TABLE
  2
VIEW
  5
6
330
0
100
AcDbSymbolTable
 70
     0
  0
ENDTAB
  0
TABLE
  2
UCS
  5
7
330
0
100
AcDbSymbolTable
 70
     5
  0
UCS
  5
22611
330
7
100
AcDbSymbolTableRecord
100
AcDbUCSTableRecord
  2
U
 70
     0
 10
0.0
 20
0.0
 30
0.0
 11
1.0
 21
0.0
 31
0.0
 12
0.0
 22
2.220446049250313E-16
 32
1.0
 79
     0
146
0.0
  0
UCS
  5
22612
330
7
100
AcDbSymbolTableRecord
100
AcDbUCSTableRecord
  2
L
 70
     0
 10
0.0
 20
0.0
 30
0.0
 11
-2.220446049250313E-16
 21
-1.0
 31
2.220446049250313E-16
 12
0.0
 22
2.220446049250313E-16
 32
1.0
 79
     0
146
0.0
  0
UCS
  5
22613
330
7
100
AcDbSymbolTableRecord
100
AcDbUCSTableRecord
  2
R
 70
     0
 10
0.0
 20
0.0
 30
0.0
 11
3.445092848397667E-16
 21
1.0
 31
-2.220446049250313E-16
 12
0.0
 22
2.220446049250313E-16
 32
1.0
 79
     0
146
0.0
  0
UCS
  5
22614
330
7
100
AcDbSymbolTableRecord
100
AcDbUCSTableRecord
  2
ISOME
 70
     0
 10
0.0
 20
0.0
 30
0.0
 11
0.7071450863198265
 21
-0.7070684729403536
 31
-3.830824619466267E-5
 12
0.4082704059428734
 22
0.4082704077401151
 32
0.8164744636514736
 79
     0
146
0.0
  0
UCS
  5
22615
330
7
100
AcDbSymbolTableRecord
100
AcDbUCSTableRecord
  2
PERSPECTIVE
 70
     0
 10
0.0
 20
0.0
 30
0.0
 11
0.8191477691768964
 21
-0.5735823260466403
 31
-0.0004974931557765462
 12
0.1584844715982971
 22
0.225502028986108
 32
0.961265575782966
 79
     0
146
0.0
  0
ENDTAB
  0
TABLE
  2
APPID
  5
9
330
0
100
AcDbSymbolTable
 70
    22
  0
APPID
  5
10
330
9
100
AcDbSymbolTableRecord
100
AcDbRegAppTableRecord
  2
ACAD
 70
     0
  0
APPID
  5
21
330
9
100
AcDbSymbolTableRecord
100
AcDbRegAppTableRecord
  2
DRAWINGVARIABLESXDATA
 70
     0
  0
APPID
  5
64
330
9
100
AcDbSymbolTableRecord
100
AcDbRegAppTableRecord
  2
CONTENTTABDATA
 70
     0
  0
APPID
  5
65
330
9
100
AcDbSymbolTableRecord
100
AcDbRegAppTableRecord
  2
CONTENTCURRENTTAB
 70
     0
  0
APPID
  5
66
330
9
100
AcDbSymbolTableRecord
100
AcDbRegAppTableRecord
  2
CONTENTBLOCKDESCRIPTION
 70
     0
  0
APPID
  5
67
330
9
100
AcDbSymbolTableRecord
100
AcDbRegAppTableRecord
  2
CONTENTBLOCKICON
 70
     0
  0
APPID
  5
68
330
9
100
AcDbSymbolTableRecord
100
AcDbRegAppTableRecord
  2
CONTENTLONGBLOCKNAME
 70
     0
  0
APPID
  5
5A9
330
9
100
AcDbSymbolTableRecord
100
AcDbRegAppTableRecord
  2
ACAD_PSEXT
 70
     0
  0
APPID
  5
18AC
330
9
100
AcDbSymbolTableRecord
100
AcDbRegAppTableRecord
  2
ACAD_DSTYLE_DIMTEXT_FILL
 70
     0
  0
APPID
  5
19E1A
330
9
100
AcDbSymbolTableRecord
100
AcDbRegAppTableRecord
  2
ACAD_MLEADERVER
 70
     0
  0
APPID
  5
1A2FA
330
9
100
AcDbSymbolTableRecord
100
AcDbRegAppTableRecord
  2
ACAD_DSTYLE_DIMRADIAL_EXTE
 70
     0
  0
APPID
  5
1DBC1
330
9
100
AcDbSymbolTableRecord
100
AcDbRegAppTableRecord
  2
ACADANNOTATIVE
 70
     0
  0
APPID
  5
1E991
330
9
100
AcDbSymbolTableRecord
100
AcDbRegAppTableRecord
  2
ACAD_EXEMPT_FROM_CAD_STAND
 70
     0
  0
APPID
  5
202C7
330
9
100
AcDbSymbolTableRecord
100
AcDbRegAppTableRecord
  2
ACDBBLOCKREPETAG
 70
     0
  0
APPID
  5
20AA7
330
9
100
AcDbSymbolTableRecord
100
AcDbRegAppTableRecord
  2
ACAD_OBJECT_CHANGE_GUID
 70
     0
  0
APPID
  5
20B32
330
9
100
AcDbSymbolTableRecord
100
AcDbRegAppTableRecord
  2
ACAD_NAV_VCDISPLAY
 70
     0
  0
APPID
  5
20CCE
330
9
100
AcDbSymbolTableRecord
100
AcDbRegAppTableRecord
  2
GRADIENTCOLOR1ACI
 70
     0
  0
APPID
  5
20CCF
330
9
100
AcDbSymbolTableRecord
100
AcDbRegAppTableRecord
  2
GRADIENTCOLOR2ACI
 70
     0
  0
APPID
  5
23283
330
9
100
AcDbSymbolTableRecord
100
AcDbRegAppTableRecord
  2
ACAECLAYERSTANDARD
 70
     0
  0
APPID
  5
2344C
330
9
100
AcDbSymbolTableRecord
100
AcDbRegAppTableRecord
  2
ACAD_DIMASSOC_CALC_DIMLFAC
 70
     0
  0
APPID
  5
2344D
330
9
100
AcDbSymbolTableRecord
100
AcDbRegAppTableRecord
  2
ACAD_DIMASSOC_DIMLFAC
 70
     0
  0
APPID
  5
2344E
330
9
100
AcDbSymbolTableRecord
100
AcDbRegAppTableRecord
  2
ACAD_DIMASSOC_OVERRIDDEN_D
 70
     0
  0
ENDTAB
  0
TABLE
  2
DIMSTYLE
  5
A
330
0
100
AcDbSymbolTable
 70
     1
  0
DIMSTYLE
105
48
102
{ACAD_REACTORS
102
}
330
A
100
AcDbSymbolTableRecord
100
AcDbDimStyleTableRecord
  2
NEWX10
 70
     0
  3
 
  4

  5

  6
OPEN30
  7
OPEN30
 40
1.0
 41
2.0
 42
0.0
 43
7.0
 44
1.0
 45
0.0
 46
0.0
 47
0.0
 48
0.0
140
3.5
141
0.0
142
0.0
143
25.4
144
1.0
145
0.0
146
0.7
147
0.7
 71
     0
 72
     0
 73
     0
 74
     0
 75
     0
 76
     0
 77
     1
 78
     8
170
     0
171
     2
172
     1
173
     1
174
     0
175
     0
176
   256
177
   256
178
   201
179
     1
270
     2
271
     2
272
     4
273
     2
274
     2
340
F
275
     0
280
     0
281
     0
282
     0
283
     1
284
     8
285
     0
286
     0
287
     3
288
     0
  0
ENDTAB
  0
TABLE
  2
BLOCK_RECORD
  5
1
330
0
100
AcDbSymbolTable
 70
     8
  0
BLOCK_RECORD
  5
18
102
{ACAD_XDICTIONARY
360
6E9
102
}
330
1
100
AcDbSymbolTableRecord
100
AcDbBlockTableRecord
  2
*MODEL_SPACE
  0
BLOCK_RECORD
  5
15
102
{ACAD_XDICTIONARY
360
59B
102
}
330
1
100
AcDbSymbolTableRecord
100
AcDbBlockTableRecord
  2
*PAPER_SPACE
  0
BLOCK_RECORD
  5
42
330
1
100
AcDbSymbolTableRecord
100
AcDbBlockTableRecord
  2
_OPEN30
  0
BLOCK_RECORD
  5
20316
330
1
100
AcDbSymbolTableRecord
100
AcDbBlockTableRecord
  2
A3WAKUKAWAJUN2017_HYOUDAI_
  0
BLOCK_RECORD
  5
24409
330
1
100
AcDbSymbolTableRecord
100
AcDbBlockTableRecord
  2
*X20
  0
BLOCK_RECORD
  5
24457
330
1
100
AcDbSymbolTableRecord
100
AcDbBlockTableRecord
  2
*X21
  0
BLOCK_RECORD
  5
244A9
330
1
100
AcDbSymbolTableRecord
100
AcDbBlockTableRecord
  2
*X22
  0
BLOCK_RECORD
  5
244FA
330
1
100
AcDbSymbolTableRecord
100
AcDbBlockTableRecord
  2
*X23
  0
BLOCK_RECORD
  5
24537
330
1
100
AcDbSymbolTableRecord
100
AcDbBlockTableRecord
  2
*X24
  0
BLOCK_RECORD
  5
24577
330
1
100
AcDbSymbolTableRecord
100
AcDbBlockTableRecord
  2
*X25
  0
ENDTAB
  0
ENDSEC
  0
SECTION
  2
BLOCKS
  0
BLOCK
  5
19
330
18
100
AcDbEntity
  8
0
100
AcDbBlockBegin
  2
*MODEL_SPACE
 70
     0
 10
0.0
 20
0.0
 30
0.0
  3
*MODEL_SPACE
  1

  0
ENDBLK
  5
1A
330
18
100
AcDbEntity
  8
0
100
AcDbBlockEnd
  0
BLOCK
  5
16
330
15
100
AcDbEntity
 67
     1
  8
0
100
AcDbBlockBegin
  2
*PAPER_SPACE
 70
     0
 10
0.0
 20
0.0
 30
0.0
  3
*PAPER_SPACE
  1

  0
ENDBLK
  5
17
330
15
100
AcDbEntity
 67
     1
  8
0
100
AcDbBlockEnd
  0
BLOCK
  5
43
330
42
100
AcDbEntity
  8
0
100
AcDbBlockBegin
  2
_OPEN30
 70
     0
 10
0.0
 20
0.0
 30
0.0
  3
_OPEN30
  1

  0
LINE
  5
44
330
42
100
AcDbEntity
  8
0
  6
BYBLOCK
 62
     0
100
AcDbLine
 10
-1.0
 20
0.26794919
 30
0.0
 11
0.0
 21
0.0
 31
0.0
  0
LINE
  5
45
330
42
100
AcDbEntity
  8
0
  6
BYBLOCK
 62
     0
100
AcDbLine
 10
0.0
 20
0.0
 30
0.0
 11
-1.0
 21
-0.26794919
 31
0.0
  0
LINE
  5
46
330
42
100
AcDbEntity
  8
0
  6
BYBLOCK
 62
     0
100
AcDbLine
 10
0.0
 20
0.0
 30
0.0
 11
-1.0
 21
0.0
 31
0.0
  0
ENDBLK
  5
47
330
42
100
AcDbEntity
  8
0
100
AcDbBlockEnd
  0
BLOCK
  5
20A15
330
20316
100
AcDbEntity
  8
0
100
AcDbBlockBegin
  2
A3WAKUKAWAJUN2017_HYOUDAI_
 70
     0
 10
0.0
 20
0.0
 30
0.0
  3
A3WAKUKAWAJUN2017_HYOUDAI_
  1

  0
LINE
  5
20318
330
20316
100
AcDbEntity
  8
0
100
AcDbLine
 10
13.26299999998673
 20
-0.0001000000000317
 30
0.0
 11
9.236999999990758
 21
8.999899999990987
 31
0.0
1001
ACAD
1000
ASC_BOUNDS
1002
{
1070
    19
1005
20359
1002
}
  0
LINE
  5
20319
330
20316
100
AcDbEntity
  8
0
100
AcDbLine
 10
5.657999999994331
 20
0.9999999999989768
 30
0.0
 11
9.236999999990758
 21
8.999999999991019
 31
0.0
1001
ACAD
1000
ASC_BOUNDS
1002
{
1070
    19
1005
20359
1002
}
  0
LINE
  5
2031A
330
20316
100
AcDbEntity
  8
0
100
AcDbLine
 10
18.59199999998134
 20
-0.2368999999997641
 30
0.0
 11
16.46099999998353
 21
5.432899999994561
 31
0.0
1001
ACAD
1000
ASC_BOUNDS
1002
{
1070
    19
1005
2035A
1002
}
  0
LINE
  5
2031B
330
20316
100
AcDbEntity
  8
0
100
AcDbLine
 10
18.59199999998134
 20
-0.2368999999997641
 30
0.0
 11
22.38199999997767
 21
8.763099999991255
 31
0.0
1001
ACAD
1000
ASC_BOUNDS
1002
{
1070
    19
1005
2035A
1002
}
  0
LINE
  5
2031C
330
20316
100
AcDbEntity
  8
0
100
AcDbLine
 10
14.32899999998563
 20
-0.2368999999997641
 30
0.0
 11
16.46099999998353
 21
5.432899999994561
 31
0.0
1001
ACAD
1000
ASC_BOUNDS
1002
{
1070
    19
1005
2035A
1002
}
  0
LINE
  5
2031D
330
20316
100
AcDbEntity
  8
0
100
AcDbLine
 10
14.32899999998563
 20
-0.2368999999997641
 30
0.0
 11
10.53899999998941
 21
8.763099999991255
 31
0.0
1001
ACAD
1000
ASC_BOUNDS
1002
{
1070
    19
1005
2035A
1002
}
  0
LINE
  5
2031E
330
20316
100
AcDbEntity
  8
0
100
AcDbLine
 10
19.53899999998043
 20
-0.0001000000000317
 30
0.0
 11
23.56599999997638
 21
8.999899999990987
 31
0.0
1001
ACAD
1000
ASC_BOUNDS
1002
{
1070
    19
1005
2035B
1002
}
  0
LINE
  5
2031F
330
20316
100
AcDbEntity
  8
0
100
AcDbLine
 10
26.97358892824991
 20
1.383099999991202
 30
0.0
 11
23.56599999997638
 21
8.999899999990987
 31
0.0
1001
ACAD
1000
ASC_BOUNDS
1002
{
1070
    19
1005
2035B
1002
}
  0
LINE
  5
20320
330
20316
100
AcDbEntity
  8
0
100
AcDbLine
 10
5.657999999994331
 20
0.9999999999989768
 30
0.0
 11
3.181999999996833
 21
4.668599999995308
 31
0.0
1001
ACAD
1000
ASC_BOUNDS
1002
{
1070
    19
1005
20359
1002
}
  0
LINE
  5
20321
330
20316
100
AcDbEntity
  8
0
100
AcDbLine
 10
4.617999999995391
 20
-0.0001000000000317
 30
0.0
 11
1.420999999998571
 21
4.736799999995242
 31
0.0
1001
ACAD
1000
ASC_BOUNDS
1002
{
1070
    19
1005
20359
1002
}
  0
LINE
  5
20322
330
20316
100
AcDbEntity
  8
0
100
AcDbLine
 10
1.420999999998571
 20
8.763099999991255
 30
0.0
 11
1.420999999998571
 21
0.0
 31
0.0
1001
ACAD
1000
ASC_BOUNDS
1002
{
1070
    19
1005
2035E
1002
}
  0
LINE
  5
20323
330
20316
100
AcDbEntity
  8
0
100
AcDbLine
 10
0.0
 20
8.763099999991255
 30
0.0
 11
0.0
 21
0.0
 31
0.0
1001
ACAD
1000
ASC_BOUNDS
1002
{
1070
    19
1005
2035E
1002
}
  0
LINE
  5
20324
330
20316
100
AcDbEntity
  8
0
100
AcDbLine
 10
6.766999999993232
 20
-0.0001000000000317
 30
0.0
 11
7.826999999992154
 21
2.368399999997621
 31
0.0
1001
ACAD
1000
ASC_BOUNDS
1002
{
1070
    19
1005
20359
1002
}
  0
LINE
  5
20325
330
20316
100
AcDbEntity
  8
0
100
AcDbLine
 10
0.0
 20
0.0
 30
0.0
 11
1.420999999998571
 21
0.0
 31
0.0
1001
ACAD
1000
ASC_BOUNDS
1002
{
1070
    19
1005
2035E
1002
}
  0
LINE
  5
20326
330
20316
100
AcDbEntity
  8
0
100
AcDbLine
 10
4.617999999995391
 20
0.0
 30
0.0
 11
6.766999999993232
 21
0.0
 31
0.0
1001
ACAD
1000
ASC_BOUNDS
1002
{
1070
    19
1005
20359
1002
}
  0
LINE
  5
20327
330
20316
100
AcDbEntity
  8
0
100
AcDbLine
 10
11.70599999998831
 20
-0.0001000000000317
 30
0.0
 11
10.64699999998936
 21
2.368399999997621
 31
0.0
1001
ACAD
1000
ASC_BOUNDS
1002
{
1070
    19
1005
20359
1002
}
  0
LINE
  5
20328
330
20316
100
AcDbEntity
  8
0
100
AcDbLine
 10
7.826999999992154
 20
2.368399999997621
 30
0.0
 11
10.64699999998936
 21
2.368399999997621
 31
0.0
1001
ACAD
1000
ASC_BOUNDS
1002
{
1070
    19
1005
20359
1002
}
  0
LINE
  5
20329
330
20316
100
AcDbEntity
  8
0
100
AcDbLine
 10
11.70599999998831
 20
0.0
 30
0.0
 11
13.26299999998673
 21
0.0
 31
0.0
1001
ACAD
1000
ASC_BOUNDS
1002
{
1070
    19
1005
20359
1002
}
  0
LINE
  5
2032A
330
20316
100
AcDbEntity
  8
0
100
AcDbLine
 10
22.15599999997789
 20
2.368399999997621
 30
0.0
 11
24.97599999997499
 21
2.368399999997621
 31
0.0
1001
ACAD
1000
ASC_BOUNDS
1002
{
1070
    19
1005
2035B
1002
}
  0
LINE
  5
2032B
330
20316
100
AcDbEntity
  8
0
100
AcDbLine
 10
19.53899999998043
 20
0.0
 30
0.0
 11
21.09599999997886
 21
0.0
 31
0.0
1001
ACAD
1000
ASC_BOUNDS
1002
{
1070
    19
1005
2035B
1002
}
  0
LINE
  5
2032C
330
20316
100
AcDbEntity
  8
0
100
AcDbLine
 10
21.09599999997886
 20
-0.0001000000000317
 30
0.0
 11
22.15599999997789
 21
2.368399999997621
 31
0.0
1001
ACAD
1000
ASC_BOUNDS
1002
{
1070
    19
1005
2035B
1002
}
  0
LINE
  5
2032D
330
20316
100
AcDbEntity
  8
0
100
AcDbLine
 10
26.02015566812236
 20
0.0330999999912365
 30
0.0
 11
24.97599999997499
 21
2.368399999997621
 31
0.0
1001
ACAD
1000
ASC_BOUNDS
1002
{
1070
    19
1005
2035B
1002
}
  0
LINE
  5
2032E
330
20316
100
AcDbEntity
  8
0
100
AcDbLine
 10
14.32399999998563
 20
3.315799999996671
 30
0.0
 11
16.46099999998353
 21
8.999899999990987
 31
0.0
1001
ACAD
1000
ASC_BOUNDS
1002
{
1070
    19
1005
2035A
1002
}
  0
LINE
  5
2032F
330
20316
100
AcDbEntity
  8
0
100
AcDbLine
 10
6.432999999993513
 20
8.763099999991255
 30
0.0
 11
3.181999999996833
 21
4.668599999995308
 31
0.0
1001
ACAD
1000
ASC_BOUNDS
1002
{
1070
    19
1005
20359
1002
}
  0
LINE
  5
20330
330
20316
100
AcDbEntity
  8
0
100
AcDbLine
 10
4.617999999995391
 20
8.763099999991255
 30
0.0
 11
1.420999999998571
 21
4.736799999995242
 31
0.0
1001
ACAD
1000
ASC_BOUNDS
1002
{
1070
    19
1005
20359
1002
}
  0
LINE
  5
20331
330
20316
100
AcDbEntity
  8
0
100
AcDbLine
 10
0.0
 20
8.763099999991255
 30
0.0
 11
1.420999999998571
 21
8.763099999991255
 31
0.0
1001
ACAD
1000
ASC_BOUNDS
1002
{
1070
    19
1005
2035E
1002
}
  0
LINE
  5
20332
330
20316
100
AcDbEntity
  8
0
100
AcDbLine
 10
4.617999999995391
 20
8.763099999991255
 30
0.0
 11
6.432999999993513
 21
8.763099999991255
 31
0.0
1001
ACAD
1000
ASC_BOUNDS
1002
{
1070
    19
1005
20359
1002
}
  0
LINE
  5
20333
330
20316
100
AcDbEntity
  8
0
100
AcDbLine
 10
14.32399999998563
 20
3.315799999996671
 30
0.0
 11
12.02999999998792
 21
8.763099999991255
 31
0.0
1001
ACAD
1000
ASC_BOUNDS
1002
{
1070
    19
1005
2035A
1002
}
  0
LINE
  5
20334
330
20316
100
AcDbEntity
  8
0
100
AcDbLine
 10
10.06399999998996
 20
3.670999999996297
 30
0.0
 11
9.236999999990758
 21
5.5200999999945
 31
0.0
1001
ACAD
1000
ASC_BOUNDS
1002
{
1070
    19
1005
20359
1002
}
  0
LINE
  5
20335
330
20316
100
AcDbEntity
  8
0
100
AcDbLine
 10
8.409999999991555
 20
3.670999999996297
 30
0.0
 11
9.236999999990758
 21
5.5200999999945
 31
0.0
1001
ACAD
1000
ASC_BOUNDS
1002
{
1070
    19
1005
20359
1002
}
  0
LINE
  5
20336
330
20316
100
AcDbEntity
  8
0
100
AcDbLine
 10
8.409999999991555
 20
3.670999999996297
 30
0.0
 11
10.06399999998996
 21
3.670999999996297
 31
0.0
1001
ACAD
1000
ASC_BOUNDS
1002
{
1070
    19
1005
20359
1002
}
  0
LINE
  5
20337
330
20316
100
AcDbEntity
  8
0
100
AcDbLine
 10
10.53899999998941
 20
8.763099999991255
 30
0.0
 11
12.02999999998792
 21
8.763099999991255
 31
0.0
1001
ACAD
1000
ASC_BOUNDS
1002
{
1070
    19
1005
2035A
1002
}
  0
LINE
  5
20338
330
20316
100
AcDbEntity
  8
0
100
AcDbLine
 10
22.7389999999773
 20
3.670999999996297
 30
0.0
 11
23.56599999997638
 21
5.5200999999945
 31
0.0
1001
ACAD
1000
ASC_BOUNDS
1002
{
1070
    19
1005
2035B
1002
}
  0
LINE
  5
20339
330
20316
100
AcDbEntity
  8
0
100
AcDbLine
 10
22.7389999999773
 20
3.670999999996297
 30
0.0
 11
24.39299999997559
 21
3.670999999996297
 31
0.0
1001
ACAD
1000
ASC_BOUNDS
1002
{
1070
    19
1005
2035B
1002
}
  0
LINE
  5
2033A
330
20316
100
AcDbEntity
  8
0
100
AcDbLine
 10
18.59799999998143
 20
3.315799999996671
 30
0.0
 11
20.89099999997916
 21
8.763099999991255
 31
0.0
1001
ACAD
1000
ASC_BOUNDS
1002
{
1070
    19
1005
2035A
1002
}
  0
LINE
  5
2033B
330
20316
100
AcDbEntity
  8
0
100
AcDbLine
 10
18.59799999998143
 20
3.315799999996671
 30
0.0
 11
16.46099999998353
 21
8.999899999990987
 31
0.0
1001
ACAD
1000
ASC_BOUNDS
1002
{
1070
    19
1005
2035A
1002
}
  0
LINE
  5
2033C
330
20316
100
AcDbEntity
  8
0
100
AcDbLine
 10
20.89099999997916
 20
8.763099999991255
 30
0.0
 11
22.38199999997767
 21
8.763099999991255
 31
0.0
1001
ACAD
1000
ASC_BOUNDS
1002
{
1070
    19
1005
2035A
1002
}
  0
LINE
  5
2033D
330
20316
100
AcDbEntity
  8
0
100
AcDbLine
 10
24.39299999997559
 20
3.670999999996297
 30
0.0
 11
23.56599999997638
 21
5.5200999999945
 31
0.0
1001
ACAD
1000
ASC_BOUNDS
1002
{
1070
    19
1005
2035B
1002
}
  0
LINE
  5
2033E
330
20316
100
AcDbEntity
  8
0
100
AcDbLine
 10
44.99999999995498
 20
-0.2368999999997641
 30
0.0
 11
40.02599999995994
 21
5.341799999994635
 31
0.0
1001
ACAD
1000
ASC_BOUNDS
1002
{
1070
    19
1005
2035D
1002
}
  0
LINE
  5
2033F
330
20316
100
AcDbEntity
  8
0
100
AcDbLine
 10
40.02599999995994
 20
5.341799999994635
 30
0.0
 11
40.02599999995994
 21
0.0
 31
0.0
1001
ACAD
1000
ASC_BOUNDS
1002
{
1070
    19
1005
2035D
1002
}
  0
LINE
  5
20340
330
20316
100
AcDbEntity
  8
0
100
AcDbLine
 10
38.60499999996136
 20
8.999999999991019
 30
0.0
 11
38.60499999996136
 21
0.0
 31
0.0
1001
ACAD
1000
ASC_BOUNDS
1002
{
1070
    19
1005
2035D
1002
}
  0
LINE
  5
20341
330
20316
100
AcDbEntity
  8
0
100
AcDbLine
 10
44.99999999995498
 20
8.763099999991255
 30
0.0
 11
44.99999999995498
 21
-0.2368999999997641
 31
0.0
1001
ACAD
1000
ASC_BOUNDS
1002
{
1070
    19
1005
2035D
1002
}
  0
LINE
  5
20342
330
20316
100
AcDbEntity
  8
0
100
AcDbLine
 10
38.60499999996136
 20
0.0
 30
0.0
 11
40.02599999995994
 21
0.0
 31
0.0
1001
ACAD
1000
ASC_BOUNDS
1002
{
1070
    19
1005
2035D
1002
}
  0
LINE
  5
20343
330
20316
100
AcDbEntity
  8
0
100
AcDbLine
 10
43.57899999995641
 20
3.421199999996588
 30
0.0
 11
38.60499999996136
 21
8.999899999990987
 31
0.0
1001
ACAD
1000
ASC_BOUNDS
1002
{
1070
    19
1005
2035D
1002
}
  0
LINE
  5
20344
330
20316
100
AcDbEntity
  8
0
100
AcDbLine
 10
43.57899999995641
 20
8.763099999991255
 30
0.0
 11
43.57899999995641
 21
3.421199999996588
 31
0.0
1001
ACAD
1000
ASC_BOUNDS
1002
{
1070
    19
1005
2035D
1002
}
  0
LINE
  5
20345
330
20316
100
AcDbEntity
  8
0
100
AcDbLine
 10
43.57899999995641
 20
8.763099999991255
 30
0.0
 11
44.99999999995498
 21
8.763099999991255
 31
0.0
1001
ACAD
1000
ASC_BOUNDS
1002
{
1070
    19
1005
2035D
1002
}
  0
LINE
  5
20346
330
20316
100
AcDbEntity
  8
0
100
AcDbLine
 10
37.67199999996831
 20
8.763099999991255
 30
0.0
 11
36.23199999996837
 21
8.763099999991255
 31
0.0
  0
LINE
  5
20347
330
20316
100
AcDbEntity
  8
0
100
AcDbLine
 10
31.64199999996833
 20
8.763099999991255
 30
0.0
 11
31.64199999996833
 21
2.481619422925121
 31
0.0
  0
LINE
  5
20348
330
20316
100
AcDbEntity
  8
0
100
AcDbLine
 10
37.67199999996831
 20
8.763099999991255
 30
0.0
 11
37.67199999996831
 21
2.481619422925121
 31
0.0
  0
LINE
  5
20349
330
20316
100
AcDbEntity
  8
0
100
AcDbLine
 10
36.23199999996837
 20
8.763099999991255
 30
0.0
 11
36.23199999996837
 21
2.481619422925064
 31
0.0
  0
LINE
  5
2034A
330
20316
100
AcDbEntity
  8
0
100
AcDbLine
 10
33.08199999996839
 20
8.763099999991255
 30
0.0
 11
33.08199999996839
 21
2.481619422925121
 31
0.0
  0
ARC
  5
2034B
330
20316
100
AcDbEntity
  8
0
100
AcDbCircle
 10
34.65699999996832
 20
3.183099999991214
 30
0.0
 40
3.420000000000007
100
AcDbArc
 50
240.0000000000255
 51
299.9999999999766
  0
ARC
  5
2034C
330
20316
100
AcDbEntity
  8
0
100
AcDbCircle
 10
34.65699999996832
 20
3.183099999991214
 30
0.0
 40
1.97999999999999
100
AcDbArc
 50
240.000000000026
 51
299.9999999999703
  0
LINE
  5
2034D
330
20316
100
AcDbEntity
  8
0
100
AcDbLine
 10
33.08199999996828
 20
8.763099999991255
 30
0.0
 11
31.64199999996833
 21
8.763099999991255
 31
0.0
  0
ARC
  5
2034E
330
20316
100
AcDbEntity
  8
0
100
AcDbCircle
 10
35.06199999996829
 20
2.481619422925064
 30
0.0
 40
1.17
100
AcDbArc
 50
299.9999999999699
 51
0.0
  0
ARC
  5
2034F
330
20316
100
AcDbEntity
  8
0
100
AcDbCircle
 10
34.25199999996835
 20
2.481619422925121
 30
0.0
 40
1.17
100
AcDbArc
 50
180.0
 51
240.0000000000238
  0
ARC
  5
20350
330
20316
100
AcDbEntity
  8
0
100
AcDbCircle
 10
35.06199999996841
 20
2.481619422925121
 30
0.0
 40
2.61
100
AcDbArc
 50
299.9999999999756
 51
0.0
  0
ARC
  5
20351
330
20316
100
AcDbEntity
  8
0
100
AcDbCircle
 10
34.25199999996835
 20
2.481619422925121
 30
0.0
 40
2.61
100
AcDbArc
 50
180.0
 51
240.0000000000244
  0
LINE
  5
20352
330
20316
100
AcDbEntity
  8
0
100
AcDbLine
 10
29.30199999996933
 20
8.763099999991255
 30
0.0
 11
30.74199999996927
 21
8.763099999991255
 31
0.0
1001
ACAD
1000
ASC_BOUNDS
1002
{
1070
    19
1005
2035B
1002
}
  0
LINE
  5
20353
330
20316
100
AcDbEntity
  8
0
100
AcDbLine
 10
30.74199999996927
 20
8.763099999991255
 30
0.0
 11
30.74199999996927
 21
2.373099999991211
 31
0.0
1001
ACAD
1000
ASC_BOUNDS
1002
{
1070
    19
1005
2035B
1002
}
  0
LINE
  5
20354
330
20316
100
AcDbEntity
  8
0
100
AcDbLine
 10
26.02015566812236
 20
0.0330999999912365
 30
0.0
 11
28.40199999996923
 21
0.0330999999912365
 31
0.0
1001
ACAD
1000
ASC_BOUNDS
1002
{
1070
    19
1005
2035B
1002
}
  0
LINE
  5
20355
330
20316
100
AcDbEntity
  8
0
100
AcDbLine
 10
29.30199999996933
 20
8.763099999991255
 30
0.0
 11
29.30199999996933
 21
2.283099999991236
 31
0.0
1001
ACAD
1000
ASC_BOUNDS
1002
{
1070
    19
1005
2035B
1002
}
  0
LINE
  5
20356
330
20316
100
AcDbEntity
  8
0
100
AcDbLine
 10
26.97358892824991
 20
1.383099999991202
 30
0.0
 11
28.40199999996923
 21
1.383099999991202
 31
0.0
1001
ACAD
1000
ASC_BOUNDS
1002
{
1070
    19
1005
2035B
1002
}
  0
ARC
  5
20357
330
20316
100
AcDbEntity
  8
0
100
AcDbCircle
 10
28.40199999996923
 20
2.283099999991236
 30
0.0
 40
0.9
100
AcDbArc
 50
270.0
 51
0.0
1001
ACAD
1000
ASC_BOUNDS
1002
{
1070
    19
1005
2035B
1002
}
  0
ARC
  5
20358
330
20316
100
AcDbEntity
  8
0
100
AcDbCircle
 10
28.40199999996923
 20
2.373099999991211
 30
0.0
 40
2.34
100
AcDbArc
 50
270.0
 51
0.0
1001
ACAD
1000
ASC_BOUNDS
1002
{
1070
    19
1005
2035B
1002
}
  0
INSERT
  5
20359
330
20316
100
AcDbEntity
  8
0
100
AcDbBlockReference
  2
*X20
 10
0.0
 20
0.0
 30
0.0
1001
ACAD
1000
HATCH
1002
{
1070
    19
1000
ANSI37
1040
0.15
1040
0.0
1000
ASC_BOUNDS
1070
     2
1070
     2
1070
    12
1005
20318
1005
20319
1005
20320
1005
2032F
1005
20332
1005
20330
1005
20321
1005
20326
1005
20324
1005
20328
1005
20327
1005
20329
1070
     2
1070
     3
1005
20334
1005
20336
1005
20335
1000
ASC_SEEDPOINT
1011
3.614004224891801
1021
2.996669441146025
1031
0.0
1000
R14_HATCH_DATA
1000
20359
1011
1.0
1021
0.0
1031
0.0
1011
0.0
1021
1.0
1031
0.0
1011
0.0
1021
0.0
1031
1.0
1040
0.0
1010
0.0
1020
0.0
1030
1.0
1000
ANSI37
1070
     0
1070
     1
1071
        2
1071
        7
1070
     0
1070
     1
1071
       17
1040
13.26299999998673
1040
-0.0001000000000317
1040
9.236999999990758
1040
8.999899999990987
1040
9.236999999990758
1040
8.999999999991019
1040
5.657999999994331
1040
0.9999999999989768
1040
3.181999999996833
1040
4.668599999995308
1040
6.432999999993513
1040
8.763099999991255
1040
4.617999999995391
1040
8.763099999991255
1040
1.420999999998571
1040
4.736799999995242
1040
4.617999999995391
1040
-0.0001000000000317
1040
4.617999999995391
1040
0.0
1040
6.766999999993232
1040
0.0
1040
6.766999999993232
1040
-0.0001000000000317
1040
7.826999999992154
1040
2.368399999997621
1040
10.64699999998936
1040
2.368399999997621
1040
11.70599999998831
1040
-0.0001000000000317
1040
11.70599999998831
1040
0.0
1040
13.26299999998673
1040
0.0
1071
       12
1005
20318
1005
20319
1005
20320
1005
2032F
1005
20332
1005
20330
1005
20321
1005
20326
1005
20324
1005
20328
1005
20327
1005
20329
1071
       22
1070
     0
1070
     1
1071
        3
1040
9.236999999990758
1040
5.5200999999945
1040
10.06399999998996
1040
3.670999999996297
1040
8.409999999991555
1040
3.670999999996297
1071
        3
1005
20334
1005
20336
1005
20335
1070
     0
1070
     1
1040
0.0
1040
0.15
1070
     0
1070
     2
1040
0.7853981633974483
1040
49.29960901727088
1040
-10.17736998311392
1040
-0.3367596045400932
1040
0.3367596045400932
1070
     0
1040
2.356194490192345
1040
49.29960901727088
1040
-10.17736998311392
1040
-0.3367596045400932
1040
-0.3367596045400932
1070
     0
1040
0.0110235143455945
1071
        2
1040
3.614004224891801
1040
2.996669441146025
1040
0.0
1040
3.614004224891801
1040
2.996669441146025
1040
0.0
1002
}
  0
INSERT
  5
2035A
330
20316
100
AcDbEntity
  8
0
100
AcDbBlockReference
  2
*X21
 10
0.0
 20
0.0
 30
0.0
1001
ACAD
1000
HATCH
1002
{
1070
    19
1000
ANSI37
1040
0.15
1040
0.0
1000
ASC_BOUNDS
1070
     1
1070
     2
1070
    10
1005
2031A
1005
2031B
1005
2033C
1005
2033A
1005
2033B
1005
2032E
1005
20333
1005
20337
1005
2031D
1005
2031C
1000
ASC_SEEDPOINT
1011
14.73245321214324
1021
2.798246178283421
1031
0.0
1000
R14_HATCH_DATA
1000
2035A
1011
1.0
1021
0.0
1031
0.0
1011
0.0
1021
1.0
1031
0.0
1011
0.0
1021
0.0
1031
1.0
1040
0.0
1010
0.0
1020
0.0
1030
1.0
1000
ANSI37
1070
     0
1070
     1
1071
        1
1071
        7
1070
     0
1070
     1
1071
       10
1040
16.46099999998353
1040
5.432899999994561
1040
18.59199999998134
1040
-0.2368999999997641
1040
22.38199999997767
1040
8.763099999991255
1040
20.89099999997916
1040
8.763099999991255
1040
18.59799999998143
1040
3.315799999996671
1040
16.46099999998353
1040
8.999899999990987
1040
14.32399999998563
1040
3.315799999996671
1040
12.02999999998792
1040
8.763099999991255
1040
10.53899999998941
1040
8.763099999991255
1040
14.32899999998563
1040
-0.2368999999997641
1071
       10
1005
2031A
1005
2031B
1005
2033C
1005
2033A
1005
2033B
1005
2032E
1005
20333
1005
20337
1005
2031D
1005
2031C
1070
     0
1070
     1
1040
0.0
1040
0.15
1070
     0
1070
     2
1040
0.7853981633974483
1040
49.29960901727088
1040
-10.17736998311392
1040
-0.3367596045400932
1040
0.3367596045400932
1070
     0
1040
2.356194490192345
1040
49.29960901727088
1040
-10.17736998311392
1040
-0.3367596045400932
1040
-0.3367596045400932
1070
     0
1040
0.0110235143455945
1071
        1
1040
14.73245321214324
1040
2.798246178283421
1040
0.0
1002
}
  0
INSERT
  5
2035B
330
20316
100
AcDbEntity
  8
0
100
AcDbBlockReference
  2
*X22
 10
0.0
 20
0.0
 30
0.0
1001
ACAD
1000
HATCH
1002
{
1070
    19
1000
ANSI37
1040
0.15
1040
0.0
1000
ASC_BOUNDS
1070
     2
1070
     2
1070
    13
1005
2031E
1005
2032B
1005
2032C
1005
2032A
1005
2032D
1005
20354
1005
20358
1005
20353
1005
20352
1005
20355
1005
20357
1005
20356
1005
2031F
1070
     2
1070
     3
1005
20338
1005
2033D
1005
20339
1000
ASC_SEEDPOINT
1011
21.97929957367762
1021
3.294304244259308
1031
0.0
1000
R14_HATCH_DATA
1000
2035B
1011
1.0
1021
0.0
1031
0.0
1011
0.0
1021
1.0
1031
0.0
1011
0.0
1021
0.0
1031
1.0
1040
0.0
1010
0.0
1020
0.0
1030
1.0
1000
ANSI37
1070
     0
1070
     1
1071
        2
1071
        7
1070
     1
1070
     1
1071
       15
1040
23.56599999997638
1040
8.999899999990987
1040
0.0
1040
19.53899999998043
1040
-0.0001000000000317
1040
0.0
1040
19.53899999998043
1040
0.0
1040
0.0
1040
21.09599999997886
1040
0.0
1040
0.0
1040
21.09599999997886
1040
-0.0001000000000317
1040
0.0
1040
22.15599999997789
1040
2.368399999997621
1040
0.0
1040
24.97599999997499
1040
2.368399999997621
1040
0.0
1040
26.02015566812236
1040
0.0330999999912365
1040
0.0
1040
28.40199999996923
1040
0.0330999999912365
1040
0.414213562373095
1040
30.74199999996923
1040
2.373099999991211
1040
0.0
1040
30.74199999996927
1040
8.763099999991255
1040
0.0
1040
29.30199999996933
1040
8.763099999991255
1040
0.0
1040
29.30199999996933
1040
2.283099999991236
1040
-0.414213562373095
1040
28.40199999996923
1040
1.383099999991237
1040
0.0
1040
26.97358892824991
1040
1.383099999991202
1040
0.0
1071
       13
1005
2031E
1005
2032B
1005
2032C
1005
2032A
1005
2032D
1005
20354
1005
20358
1005
20353
1005
20352
1005
20355
1005
20357
1005
20356
1005
2031F
1071
       22
1070
     0
1070
     1
1071
        3
1040
22.7389999999773
1040
3.670999999996297
1040
23.56599999997638
1040
5.5200999999945
1040
24.39299999997559
1040
3.670999999996297
1071
        3
1005
20338
1005
2033D
1005
20339
1070
     0
1070
     1
1040
0.0
1040
0.15
1070
     0
1070
     2
1040
0.7853981633974483
1040
49.29960901727088
1040
-10.17736998311392
1040
-0.3367596045400932
1040
0.3367596045400932
1070
     0
1040
2.356194490192345
1040
49.29960901727088
1040
-10.17736998311392
1040
-0.3367596045400932
1040
-0.3367596045400932
1070
     0
1040
0.0110235143455945
1071
        2
1040
21.97929957367762
1040
3.294304244259308
1040
0.0
1040
21.97929957367762
1040
3.294304244259308
1040
0.0
1002
}
  0
INSERT
  5
2035C
330
20316
100
AcDbEntity
  8
0
100
AcDbBlockReference
  2
*X23
 10
0.0
 20
0.0
 30
0.0
1001
ACAD
1000
HATCH
1002
{
1070
    19
1000
ANSI37
1040
0.15
1040
0.0
1000
R14_HATCH_DATA
1000
2035C
1011
1.0
1021
0.0
1031
0.0
1011
0.0
1021
1.0
1031
0.0
1011
0.0
1021
0.0
1031
1.0
1040
0.0
1010
0.0
1020
0.0
1030
1.0
1000
ANSI37
1070
     0
1070
     1
1071
        1
1071
        7
1070
     1
1070
     1
1071
       12
1040
31.64199999996833
1040
2.481619422925121
1040
0.2679491924310942
1040
32.94699999997067
1040
0.2212931190493919
1040
0.2679491924301353
1040
36.36699999995983
1040
0.2212931190459813
1040
0.2679491924321411
1040
37.67199999996831
1040
2.481619422928361
1040
0.0
1040
37.67199999996831
1040
8.763099999991255
1040
0.0
1040
36.23199999996837
1040
8.763099999991255
1040
0.0
1040
36.23199999996837
1040
2.481619422925064
1040
-0.2679491924310291
1040
35.64699999996708
1040
1.468369700498386
1040
-0.267949192430519
1040
33.66699999997093
1040
1.468369700497703
1040
-0.267949192431809
1040
33.08199999996839
1040
2.481619422926997
1040
0.0
1040
33.08199999996839
1040
8.763099999991255
1040
0.0
1040
31.64199999996833
1040
8.763099999991255
1040
0.0
1071
        0
1070
     0
1070
     1
1040
0.0
1040
0.15
1070
     0
1070
     2
1040
0.7853981633974483
1040
49.29960901727088
1040
-10.17736998311392
1040
-0.3367596045400932
1040
0.3367596045400932
1070
     0
1040
2.356194490192345
1040
49.29960901727088
1040
-10.17736998311392
1040
-0.3367596045400932
1040
-0.3367596045400932
1070
     0
1040
0.0110235143455945
1071
        1
1040
32.30357378967278
1040
3.988785755459219
1040
0.0
1002
}
  0
INSERT
  5
2035D
330
20316
100
AcDbEntity
  8
0
100
AcDbBlockReference
  2
*X24
 10
0.0
 20
0.0
 30
0.0
1001
ACAD
1000
HATCH
1002
{
1070
    19
1000
ANSI37
1040
0.15
1040
0.0
1000
ASC_BOUNDS
1070
     1
1070
     2
1070
     8
1005
2033E
1005
20341
1005
20345
1005
20344
1005
20343
1005
20340
1005
20342
1005
2033F
1000
ASC_SEEDPOINT
1011
39.74896370716704
1021
4.484843821435049
1031
0.0
1000
R14_HATCH_DATA
1000
2035D
1011
1.0
1021
0.0
1031
0.0
1011
0.0
1021
1.0
1031
0.0
1011
0.0
1021
0.0
1031
1.0
1040
0.0
1010
0.0
1020
0.0
1030
1.0
1000
ANSI37
1070
     0
1070
     1
1071
        1
1071
        7
1070
     0
1070
     1
1071
        9
1040
40.02599999995994
1040
5.341799999994635
1040
44.99999999995498
1040
-0.2368999999997641
1040
44.99999999995498
1040
8.763099999991255
1040
43.57899999995641
1040
8.763099999991255
1040
43.57899999995641
1040
3.421199999996588
1040
38.60499999996136
1040
8.999899999990987
1040
38.60499999996136
1040
8.999999999991019
1040
38.60499999996136
1040
0.0
1040
40.02599999995994
1040
0.0
1071
        8
1005
2033E
1005
20341
1005
20345
1005
20344
1005
20343
1005
20340
1005
20342
1005
2033F
1070
     0
1070
     1
1040
0.0
1040
0.15
1070
     0
1070
     2
1040
0.7853981633974483
1040
49.29960901727088
1040
-10.17736998311392
1040
-0.3367596045400932
1040
0.3367596045400932
1070
     0
1040
2.356194490192345
1040
49.29960901727088
1040
-10.17736998311392
1040
-0.3367596045400932
1040
-0.3367596045400932
1070
     0
1040
0.0110235143455945
1071
        1
1040
39.74896370716704
1040
4.484843821435049
1040
0.0
1002
}
  0
INSERT
  5
2035E
330
20316
100
AcDbEntity
  8
0
100
AcDbBlockReference
  2
*X25
 10
0.0
 20
0.0
 30
0.0
1001
ACAD
1000
HATCH
1002
{
1070
    19
1000
ANSI37
1040
0.15
1040
0.0
1000
ASC_BOUNDS
1070
     1
1070
     2
1070
     4
1005
20322
1005
20331
1005
20323
1005
20325
1000
ASC_SEEDPOINT
1011
1.079051535452663
1021
4.148538732891836
1031
0.0
1000
R14_HATCH_DATA
1000
2035E
1011
1.0
1021
0.0
1031
0.0
1011
0.0
1021
1.0
1031
0.0
1011
0.0
1021
0.0
1031
1.0
1040
0.0
1010
0.0
1020
0.0
1030
1.0
1000
ANSI37
1070
     0
1070
     1
1071
        1
1071
        7
1070
     0
1070
     1
1071
        4
1040
1.420999999998571
1040
0.0
1040
1.420999999998571
1040
8.763099999991255
1040
0.0
1040
8.763099999991255
1040
0.0
1040
0.0
1071
        4
1005
20322
1005
20331
1005
20323
1005
20325
1070
     0
1070
     1
1040
0.0
1040
0.15
1070
     0
1070
     2
1040
0.7853981633974483
1040
49.29960901727088
1040
-10.17736998311392
1040
-0.3367596045400932
1040
0.3367596045400932
1070
     0
1040
2.356194490192345
1040
49.29960901727088
1040
-10.17736998311392
1040
-0.3367596045400932
1040
-0.3367596045400932
1070
     0
1040
0.0053004257112761
1071
        1
1040
1.079051535452663
1040
4.148538732891836
1040
0.0
1002
}
  0
ENDBLK
  5
20A16
330
20316
100
AcDbEntity
  8
0
100
AcDbBlockEnd
  0
BLOCK
  5
24597
330
24409
100
AcDbEntity
  8
0
100
AcDbBlockBegin
  2
*X20
 70
     1
 10
0.0
 20
0.0
 30
0.0
  3
*X20
  1

  0
LINE
  5
2440A
330
24409
100
AcDbEntity
  8
0
  6
CONTINUOUS
100
AcDbLine
 10
3.418023043697893
 20
7.251849696850613
 30
0.0
 11
4.929273346838536
 21
8.763099999991255
 31
0.0
  0
LINE
  5
2440B
330
24409
100
AcDbEntity
  8
0
  6
CONTINUOUS
100
AcDbLine
 10
1.483656411257782
 20
4.643963855330318
 30
0.0
 11
5.60279255591872
 21
8.763099999991255
 31
0.0
  0
LINE
  5
2440C
330
24409
100
AcDbEntity
  8
0
  6
CONTINUOUS
100
AcDbLine
 10
1.755053947328235
 20
4.241842182320584
 30
0.0
 11
6.276311764998907
 21
8.763099999991255
 31
0.0
  0
LINE
  5
2440D
330
24409
100
AcDbEntity
  8
0
  6
CONTINUOUS
100
AcDbLine
 10
2.026451483398688
 20
3.839720509310849
 30
0.0
 11
4.441040904851878
 21
6.254309930764039
 31
0.0
  0
LINE
  5
2440E
330
24409
100
AcDbEntity
  8
0
  6
CONTINUOUS
100
AcDbLine
 10
2.297849019469139
 20
3.437598836301114
 30
0.0
 11
3.321765168359338
 21
4.461514985191313
 31
0.0
  0
LINE
  5
2440F
330
24409
100
AcDbEntity
  8
0
  6
CONTINUOUS
100
AcDbLine
 10
2.569246555539591
 20
3.03547716329138
 30
0.0
 11
3.593163397972743
 21
4.059394005724531
 31
0.0
  0
LINE
  5
24410
330
24409
100
AcDbEntity
  8
0
  6
CONTINUOUS
100
AcDbLine
 10
2.840644091610043
 20
2.633355490281646
 30
0.0
 11
3.864561627586149
 21
3.657273026257751
 31
0.0
  0
LINE
  5
24411
330
24409
100
AcDbEntity
  8
0
  6
CONTINUOUS
100
AcDbLine
 10
3.112041627680496
 20
2.231233817271911
 30
0.0
 11
4.135959857199554
 21
3.25515204679097
 31
0.0
  0
LINE
  5
24412
330
24409
100
AcDbEntity
  8
0
  6
CONTINUOUS
100
AcDbLine
 10
3.383439163750948
 20
1.829112144262177
 30
0.0
 11
4.40735808681296
 21
2.853031067324189
 31
0.0
  0
LINE
  5
24413
330
24409
100
AcDbEntity
  8
0
  6
CONTINUOUS
100
AcDbLine
 10
3.654836699821399
 20
1.426990471252442
 30
0.0
 11
4.678756316426365
 21
2.450910087857407
 31
0.0
  0
LINE
  5
24414
330
24409
100
AcDbEntity
  8
0
  6
CONTINUOUS
100
AcDbLine
 10
3.926234235891853
 20
1.024868798242709
 30
0.0
 11
4.95015454603977
 21
2.048789108390626
 31
0.0
  0
LINE
  5
24415
330
24409
100
AcDbEntity
  8
0
  6
CONTINUOUS
100
AcDbLine
 10
4.197631771962304
 20
0.6227471252329737
 30
0.0
 11
5.221552775653176
 21
1.646668128923846
 31
0.0
  0
LINE
  5
24416
330
24409
100
AcDbEntity
  8
0
  6
CONTINUOUS
100
AcDbLine
 10
8.715877546767851
 20
7.835069736359266
 30
0.0
 11
9.435953450375058
 21
8.555145639966472
 31
0.0
  0
LINE
  5
24417
330
24409
100
AcDbEntity
  8
0
  6
CONTINUOUS
100
AcDbLine
 10
8.170620868422267
 20
6.616293848933497
 30
0.0
 11
9.644120833743461
 21
8.08979381425469
 31
0.0
  0
LINE
  5
24418
330
24409
100
AcDbEntity
  8
0
  6
CONTINUOUS
100
AcDbLine
 10
7.625364190076684
 20
5.397517961507727
 30
0.0
 11
9.852288217111864
 21
7.624441988542907
 31
0.0
  0
LINE
  5
24419
330
24409
100
AcDbEntity
  8
0
  6
CONTINUOUS
100
AcDbLine
 10
7.080107511731101
 20
4.178742074081957
 30
0.0
 11
10.06045560048027
 21
7.159090162831124
 31
0.0
  0
LINE
  5
2441A
330
24409
100
AcDbEntity
  8
0
  6
CONTINUOUS
100
AcDbLine
 10
6.534850833385518
 20
2.959966186656187
 30
0.0
 11
10.26862298384867
 21
6.693738337119342
 31
0.0
  0
LINE
  5
2441B
330
24409
100
AcDbEntity
  8
0
  6
CONTINUOUS
100
AcDbLine
 10
4.469029308032756
 20
0.2206254522232385
 30
0.0
 11
5.492951005266582
 21
1.244547149457064
 31
0.0
  0
LINE
  5
2441C
330
24409
100
AcDbEntity
  8
0
  6
CONTINUOUS
100
AcDbLine
 10
5.989594155039935
 20
1.741190299230417
 30
0.0
 11
8.806950407233131
 21
4.558546551423613
 31
0.0
  0
LINE
  5
2441D
330
24409
100
AcDbEntity
  8
0
  6
CONTINUOUS
100
AcDbLine
 10
9.401251593263643
 20
5.152847737454126
 30
0.0
 11
10.47679036721708
 21
6.228386511407559
 31
0.0
  0
LINE
  5
2441E
330
24409
100
AcDbEntity
  8
0
  6
CONTINUOUS
100
AcDbLine
 10
4.921837203428691
 20
-0.0000858614610131
 30
0.0
 11
8.592923064886001
 21
3.670999999996297
 31
0.0
  0
LINE
  5
2441F
330
24409
100
AcDbEntity
  8
0
  6
CONTINUOUS
100
AcDbLine
 10
9.609390446785305
 20
4.6874673818956
 30
0.0
 11
10.68495775058548
 21
5.763034685695775
 31
0.0
  0
LINE
  5
24420
330
24409
100
AcDbEntity
  8
0
  6
CONTINUOUS
100
AcDbLine
 10
5.595387755019432
 20
-0.0000545189504582
 30
0.0
 11
7.716137258923768
 21
2.120694984953879
 31
0.0
  0
LINE
  5
24421
330
24409
100
AcDbEntity
  8
0
  6
CONTINUOUS
100
AcDbLine
 10
6.268938306610172
 20
-0.000023176439905
 30
0.0
 11
7.170485805526503
 21
0.9015243224764267
 31
0.0
  0
LINE
  5
24422
330
24409
100
AcDbEntity
  8
0
  6
CONTINUOUS
100
AcDbLine
 10
7.963842273967511
 20
2.368399999997621
 30
0.0
 11
9.266442273966188
 21
3.670999999996297
 31
0.0
  0
LINE
  5
24423
330
24409
100
AcDbEntity
  8
0
  6
CONTINUOUS
100
AcDbLine
 10
8.637361483047696
 20
2.368399999997621
 30
0.0
 11
9.939961483046375
 21
3.670999999996297
 31
0.0
  0
LINE
  5
24424
330
24409
100
AcDbEntity
  8
0
  6
CONTINUOUS
100
AcDbLine
 10
9.817529300306965
 20
4.222087026337075
 30
0.0
 11
10.89312513395388
 21
5.297682859983993
 31
0.0
  0
LINE
  5
24425
330
24409
100
AcDbEntity
  8
0
  6
CONTINUOUS
100
AcDbLine
 10
10.02566815382863
 20
3.756706670778549
 30
0.0
 11
11.10129251732229
 21
4.832331034272211
 31
0.0
  0
LINE
  5
24426
330
24409
100
AcDbEntity
  8
0
  6
CONTINUOUS
100
AcDbLine
 10
9.310880692127883
 20
2.368399999997621
 30
0.0
 11
11.30945990069069
 21
4.366979208560428
 31
0.0
  0
LINE
  5
24427
330
24409
100
AcDbEntity
  8
0
  6
CONTINUOUS
100
AcDbLine
 10
9.98439990120807
 20
2.36839999999762
 30
0.0
 11
11.5176272840591
 21
3.901627382848645
 31
0.0
  0
LINE
  5
24428
330
24409
100
AcDbEntity
  8
0
  6
CONTINUOUS
100
AcDbLine
 10
10.65037369446246
 20
2.36085458417182
 30
0.0
 11
11.7257946674275
 21
3.436275557136862
 31
0.0
  0
LINE
  5
24429
330
24409
100
AcDbEntity
  8
0
  6
CONTINUOUS
100
AcDbLine
 10
10.85847197087848
 20
1.895433651507656
 30
0.0
 11
11.9339620507959
 21
2.97092373142508
 31
0.0
  0
LINE
  5
2442A
330
24409
100
AcDbEntity
  8
0
  6
CONTINUOUS
100
AcDbLine
 10
11.0665702472945
 20
1.430012718843491
 30
0.0
 11
12.14212943416431
 21
2.505571905713296
 31
0.0
  0
LINE
  5
2442B
330
24409
100
AcDbEntity
  8
0
  6
CONTINUOUS
100
AcDbLine
 10
11.27466852371052
 20
0.9645917861793256
 30
0.0
 11
12.35029681753271
 21
2.040220080001513
 31
0.0
  0
LINE
  5
2442C
330
24409
100
AcDbEntity
  8
0
  6
CONTINUOUS
100
AcDbLine
 10
11.48276680012654
 20
0.4991708535151611
 30
0.0
 11
12.55846420090111
 21
1.57486825428973
 31
0.0
  0
LINE
  5
2442D
330
24409
100
AcDbEntity
  8
0
  6
CONTINUOUS
100
AcDbLine
 10
11.69086507654257
 20
0.0337499208509957
 30
0.0
 11
12.76663158426952
 21
1.109516428577947
 31
0.0
  0
LINE
  5
2442E
330
24409
100
AcDbEntity
  8
0
  6
CONTINUOUS
100
AcDbLine
 10
12.33057447873954
 20
-0.0000598860322123
 30
0.0
 11
12.97479896763792
 21
0.6441646028661663
 31
0.0
  0
LINE
  5
2442F
330
24409
100
AcDbEntity
  8
0
  6
CONTINUOUS
100
AcDbLine
 10
13.00413694809395
 20
-0.0000166257579952
 30
0.0
 11
13.18296635100632
 21
0.1788127771543824
 31
0.0
  0
LINE
  5
24430
330
24409
100
AcDbEntity
  8
0
  6
CONTINUOUS
100
AcDbLine
 10
4.772852165289667
 20
-0.000092794222212
 30
0.0
 11
4.296495091028902
 21
0.4762642800385528
 31
0.0
  0
LINE
  5
24431
330
24409
100
AcDbEntity
  8
0
  6
CONTINUOUS
100
AcDbLine
 10
5.446340034776103
 20
-0.0000614546284616
 30
0.0
 11
2.898195908335625
 21
2.548082671812017
 31
0.0
  0
LINE
  5
24432
330
24409
100
AcDbEntity
  8
0
  6
CONTINUOUS
100
AcDbLine
 10
6.119827904262539
 20
-0.0000301150347113
 30
0.0
 11
1.499896725642348
 21
4.61990106358548
 31
0.0
  0
LINE
  5
24433
330
24409
100
AcDbEntity
  8
0
  6
CONTINUOUS
100
AcDbLine
 10
6.775136745476159
 20
0.0181802528318542
 30
0.0
 11
5.699826040202669
 21
1.093490958105344
 31
0.0
  0
LINE
  5
24434
330
24409
100
AcDbEntity
  8
0
  6
CONTINUOUS
100
AcDbLine
 10
6.983376846288489
 20
0.4834593610997118
 30
0.0
 11
5.908008617934405
 21
1.558827589453796
 31
0.0
  0
LINE
  5
24435
330
24409
100
AcDbEntity
  8
0
  6
CONTINUOUS
100
AcDbLine
 10
5.377063484962296
 20
1.416253513345719
 30
0.0
 11
1.702276957014131
 21
5.091040041293883
 31
0.0
  0
LINE
  5
24436
330
24409
100
AcDbEntity
  8
0
  6
CONTINUOUS
100
AcDbLine
 10
3.978745891735324
 20
3.488090315652877
 30
0.0
 11
2.000373521109399
 21
5.466462686278803
 31
0.0
  0
LINE
  5
24437
330
24409
100
AcDbEntity
  8
0
  6
CONTINUOUS
100
AcDbLine
 10
7.191616947100819
 20
0.948738469367568
 30
0.0
 11
6.11619119566614
 21
2.024164220802247
 31
0.0
  0
LINE
  5
24438
330
24409
100
AcDbEntity
  8
0
  6
CONTINUOUS
100
AcDbLine
 10
7.399857047913149
 20
1.414017577635424
 30
0.0
 11
6.324373773397875
 21
2.489500852150698
 31
0.0
  0
LINE
  5
24439
330
24409
100
AcDbEntity
  8
0
  6
CONTINUOUS
100
AcDbLine
 10
7.608097148725479
 20
1.879296685903281
 30
0.0
 11
6.53255635112961
 21
2.95483748349915
 31
0.0
  0
LINE
  5
2443A
330
24409
100
AcDbEntity
  8
0
  6
CONTINUOUS
100
AcDbLine
 10
7.816337249537808
 20
2.344575794171138
 30
0.0
 11
6.740738928861345
 21
3.420174114847601
 31
0.0
  0
LINE
  5
2443B
330
24409
100
AcDbEntity
  8
0
  6
CONTINUOUS
100
AcDbLine
 10
3.310241080789734
 20
4.830114335678653
 30
0.0
 11
2.298470085204666
 21
5.84188533126372
 31
0.0
  0
LINE
  5
2443C
330
24409
100
AcDbEntity
  8
0
  6
CONTINUOUS
100
AcDbLine
 10
3.60832983563551
 20
5.205544789913063
 30
0.0
 11
2.596566649299935
 21
6.217307976248638
 31
0.0
  0
LINE
  5
2443D
330
24409
100
AcDbEntity
  8
0
  6
CONTINUOUS
100
AcDbLine
 10
3.906418590481286
 20
5.580975244147473
 30
0.0
 11
2.894663213395203
 21
6.592730621233557
 31
0.0
  0
LINE
  5
2443E
330
24409
100
AcDbEntity
  8
0
  6
CONTINUOUS
100
AcDbLine
 10
4.204507345327062
 20
5.956405698381884
 30
0.0
 11
3.192759777490472
 21
6.968153266218474
 31
0.0
  0
LINE
  5
2443F
330
24409
100
AcDbEntity
  8
0
  6
CONTINUOUS
100
AcDbLine
 10
8.466032252791512
 20
2.368399999997621
 30
0.0
 11
6.948921506593081
 21
3.885510746196053
 31
0.0
  0
LINE
  5
24440
330
24409
100
AcDbEntity
  8
0
  6
CONTINUOUS
100
AcDbLine
 10
9.139551461871699
 20
2.36839999999762
 30
0.0
 11
7.157104084324816
 21
4.350847377544504
 31
0.0
  0
LINE
  5
24441
330
24409
100
AcDbEntity
  8
0
  6
CONTINUOUS
100
AcDbLine
 10
4.502596100172839
 20
6.331836152616295
 30
0.0
 11
3.49085634158574
 21
7.343575911203393
 31
0.0
  0
LINE
  5
24442
330
24409
100
AcDbEntity
  8
0
  6
CONTINUOUS
100
AcDbLine
 10
4.800684855018615
 20
6.707266606850705
 30
0.0
 11
3.788952905681008
 21
7.718998556188312
 31
0.0
  0
LINE
  5
24443
330
24409
100
AcDbEntity
  8
0
  6
CONTINUOUS
100
AcDbLine
 10
12.18154012887317
 20
-0.0000694579236642
 30
0.0
 11
11.32140332908496
 21
0.8600673418645499
 31
0.0
  0
LINE
  5
24444
330
24409
100
AcDbEntity
  8
0
  6
CONTINUOUS
100
AcDbLine
 10
12.85501608323566
 20
-0.0000262032059659
 30
0.0
 11
10.77672456435345
 21
2.078265315676246
 31
0.0
  0
LINE
  5
24445
330
24409
100
AcDbEntity
  8
0
  6
CONTINUOUS
100
AcDbLine
 10
9.813070670951886
 20
2.36839999999762
 30
0.0
 11
8.51047067095321
 21
3.670999999996297
 31
0.0
  0
LINE
  5
24446
330
24409
100
AcDbEntity
  8
0
  6
CONTINUOUS
100
AcDbLine
 10
10.48658988003207
 20
2.36839999999762
 30
0.0
 11
9.183989880033396
 21
3.670999999996297
 31
0.0
  0
LINE
  5
24447
330
24409
100
AcDbEntity
  8
0
  6
CONTINUOUS
100
AcDbLine
 10
8.441048632286794
 20
3.740422038662712
 30
0.0
 11
7.365286662056551
 21
4.816184008892956
 31
0.0
  0
LINE
  5
24448
330
24409
100
AcDbEntity
  8
0
  6
CONTINUOUS
100
AcDbLine
 10
8.649187485808454
 20
4.205802394221237
 30
0.0
 11
7.573469239788285
 21
5.281520640241407
 31
0.0
  0
LINE
  5
24449
330
24409
100
AcDbEntity
  8
0
  6
CONTINUOUS
100
AcDbLine
 10
5.098773609864391
 20
7.082697061085115
 30
0.0
 11
4.087049469776277
 21
8.09442120117323
 31
0.0
  0
LINE
  5
2444A
330
24409
100
AcDbEntity
  8
0
  6
CONTINUOUS
100
AcDbLine
 10
5.396862364710167
 20
7.458127515319526
 30
0.0
 11
4.385146033871544
 21
8.469843846158149
 31
0.0
  0
LINE
  5
2444B
330
24409
100
AcDbEntity
  8
0
  6
CONTINUOUS
100
AcDbLine
 10
13.04801363231285
 20
0.4804954567970334
 30
0.0
 11
9.85750908911358
 21
3.670999999996297
 31
0.0
  0
LINE
  5
2444C
330
24409
100
AcDbEntity
  8
0
  6
CONTINUOUS
100
AcDbLine
 10
8.857326339330116
 20
4.671182749779763
 30
0.0
 11
7.781651817520021
 21
5.746857271589858
 31
0.0
  0
LINE
  5
2444D
330
24409
100
AcDbEntity
  8
0
  6
CONTINUOUS
100
AcDbLine
 10
5.694951119555943
 20
7.833557969553937
 30
0.0
 11
4.765409089118624
 21
8.763099999991255
 31
0.0
  0
LINE
  5
2444E
330
24409
100
AcDbEntity
  8
0
  6
CONTINUOUS
100
AcDbLine
 10
12.50286117236978
 20
1.699167125820288
 30
0.0
 11
9.68611877250287
 21
4.515909525687196
 31
0.0
  0
LINE
  5
2444F
330
24409
100
AcDbEntity
  8
0
  6
CONTINUOUS
100
AcDbLine
 10
9.065465192851777
 20
5.136563105338288
 30
0.0
 11
7.989834395251757
 21
6.21219390293831
 31
0.0
  0
LINE
  5
24450
330
24409
100
AcDbEntity
  8
0
  6
CONTINUOUS
100
AcDbLine
 10
5.993039874401719
 20
8.208988423788346
 30
0.0
 11
5.43892829819881
 21
8.763099999991255
 31
0.0
  0
LINE
  5
24451
330
24409
100
AcDbEntity
  8
0
  6
CONTINUOUS
100
AcDbLine
 10
11.95770871242671
 20
2.917838794843543
 30
0.0
 11
8.19801697298349
 21
6.677530534286761
 31
0.0
  0
LINE
  5
24452
330
24409
100
AcDbEntity
  8
0
  6
CONTINUOUS
100
AcDbLine
 10
6.291128629247495
 20
8.584418878022756
 30
0.0
 11
6.112447507278997
 21
8.763099999991255
 31
0.0
  0
LINE
  5
24453
330
24409
100
AcDbEntity
  8
0
  6
CONTINUOUS
100
AcDbLine
 10
11.41255625248364
 20
4.136510463866797
 30
0.0
 11
8.406199550715227
 21
7.142867165635211
 31
0.0
  0
LINE
  5
24454
330
24409
100
AcDbEntity
  8
0
  6
CONTINUOUS
100
AcDbLine
 10
10.86740379254057
 20
5.355182132890051
 30
0.0
 11
8.614382128446962
 21
7.608203796983664
 31
0.0
  0
LINE
  5
24455
330
24409
100
AcDbEntity
  8
0
  6
CONTINUOUS
100
AcDbLine
 10
10.3222513325975
 20
6.573853801913305
 30
0.0
 11
8.822564706178696
 21
8.073540428332114
 31
0.0
  0
LINE
  5
24456
330
24409
100
AcDbEntity
  8
0
  6
CONTINUOUS
100
AcDbLine
 10
9.777098872654436
 20
7.792525470936562
 30
0.0
 11
9.030747283910433
 21
8.538877059680566
 31
0.0
  0
ENDBLK
  5
24598
330
24409
100
AcDbEntity
  8
0
100
AcDbBlockEnd
  0
BLOCK
  5
24599
330
24457
100
AcDbEntity
  8
0
100
AcDbBlockBegin
  2
*X21
 70
     1
 10
0.0
 20
0.0
 30
0.0
  3
*X21
  1

  0
LINE
  5
24458
330
24457
100
AcDbEntity
  8
0
  6
CONTINUOUS
100
AcDbLine
 10
10.67292308101235
 20
8.445076852443387
 30
0.0
 11
10.99094622856022
 21
8.763099999991255
 31
0.0
  0
LINE
  5
24459
330
24457
100
AcDbEntity
  8
0
  6
CONTINUOUS
100
AcDbLine
 10
10.87250383178748
 20
7.971138394138331
 30
0.0
 11
11.6644654376404
 21
8.763099999991255
 31
0.0
  0
LINE
  5
2445A
330
24457
100
AcDbEntity
  8
0
  6
CONTINUOUS
100
AcDbLine
 10
11.07208458256261
 20
7.497199935833273
 30
0.0
 11
12.12126590876355
 21
8.546381262034211
 31
0.0
  0
LINE
  5
2445B
330
24457
100
AcDbEntity
  8
0
  6
CONTINUOUS
100
AcDbLine
 10
11.27166533333774
 20
7.023261477528216
 30
0.0
 11
12.32085164573666
 21
8.072447789927136
 31
0.0
  0
LINE
  5
2445C
330
24457
100
AcDbEntity
  8
0
  6
CONTINUOUS
100
AcDbLine
 10
11.47124608411287
 20
6.549323019223158
 30
0.0
 11
12.52043738270977
 21
7.59851431782006
 31
0.0
  0
LINE
  5
2445D
330
24457
100
AcDbEntity
  8
0
  6
CONTINUOUS
100
AcDbLine
 10
11.670826834888
 20
6.075384560918101
 30
0.0
 11
12.72002311968288
 21
7.124580845712984
 31
0.0
  0
LINE
  5
2445E
330
24457
100
AcDbEntity
  8
0
  6
CONTINUOUS
100
AcDbLine
 10
11.87040758566313
 20
5.601446102613043
 30
0.0
 11
12.91960885665599
 21
6.650647373605907
 31
0.0
  0
LINE
  5
2445F
330
24457
100
AcDbEntity
  8
0
  6
CONTINUOUS
100
AcDbLine
 10
12.06998833643825
 20
5.127507644307986
 30
0.0
 11
13.1191945936291
 21
6.176713901498832
 31
0.0
  0
LINE
  5
24460
330
24457
100
AcDbEntity
  8
0
  6
CONTINUOUS
100
AcDbLine
 10
12.26956908721338
 20
4.65356918600293
 30
0.0
 11
13.31878033060221
 21
5.702780429391757
 31
0.0
  0
LINE
  5
24461
330
24457
100
AcDbEntity
  8
0
  6
CONTINUOUS
100
AcDbLine
 10
12.46914983798851
 20
4.179630727697873
 30
0.0
 11
13.51836606757532
 21
5.228846957284683
 31
0.0
  0
LINE
  5
24462
330
24457
100
AcDbEntity
  8
0
  6
CONTINUOUS
100
AcDbLine
 10
12.66873058876364
 20
3.705692269392816
 30
0.0
 11
13.71795180454843
 21
4.754913485177607
 31
0.0
  0
LINE
  5
24463
330
24457
100
AcDbEntity
  8
0
  6
CONTINUOUS
100
AcDbLine
 10
12.86831133953877
 20
3.231753811087759
 30
0.0
 11
13.91753754152154
 21
4.280980013070531
 31
0.0
  0
LINE
  5
24464
330
24457
100
AcDbEntity
  8
0
  6
CONTINUOUS
100
AcDbLine
 10
13.0678920903139
 20
2.757815352782702
 30
0.0
 11
14.11712327849465
 21
3.807046540963456
 31
0.0
  0
LINE
  5
24465
330
24457
100
AcDbEntity
  8
0
  6
CONTINUOUS
100
AcDbLine
 10
13.26747284108903
 20
2.283876894477644
 30
0.0
 11
14.31670901546777
 21
3.333113068856379
 31
0.0
  0
LINE
  5
24466
330
24457
100
AcDbEntity
  8
0
  6
CONTINUOUS
100
AcDbLine
 10
16.36767838827179
 20
8.751678487061342
 30
0.0
 11
16.50332410898388
 21
8.887324207773432
 31
0.0
  0
LINE
  5
24467
330
24457
100
AcDbEntity
  8
0
  6
CONTINUOUS
100
AcDbLine
 10
15.96190732182191
 20
7.67238821153127
 30
0.0
 11
16.68735328004734
 21
8.397834169756699
 31
0.0
  0
LINE
  5
24468
330
24457
100
AcDbEntity
  8
0
  6
CONTINUOUS
100
AcDbLine
 10
15.55613625537202
 20
6.593097936001196
 30
0.0
 11
16.87138245111079
 21
7.908344131739965
 31
0.0
  0
LINE
  5
24469
330
24457
100
AcDbEntity
  8
0
  6
CONTINUOUS
100
AcDbLine
 10
15.15036518892213
 20
5.513807660471122
 30
0.0
 11
17.05541162217424
 21
7.418854093723231
 31
0.0
  0
LINE
  5
2446A
330
24457
100
AcDbEntity
  8
0
  6
CONTINUOUS
100
AcDbLine
 10
14.74459412247225
 20
4.434517384941048
 30
0.0
 11
17.2394407932377
 21
6.929364055706499
 31
0.0
  0
LINE
  5
2446B
330
24457
100
AcDbEntity
  8
0
  6
CONTINUOUS
100
AcDbLine
 10
14.33882305602236
 20
3.355227109410975
 30
0.0
 11
17.42346996430115
 21
6.439874017689766
 31
0.0
  0
LINE
  5
2446C
330
24457
100
AcDbEntity
  8
0
  6
CONTINUOUS
100
AcDbLine
 10
13.46705359186416
 20
1.809938436172586
 30
0.0
 11
16.0819338255367
 21
4.424818669845129
 31
0.0
  0
LINE
  5
2446D
330
24457
100
AcDbEntity
  8
0
  6
CONTINUOUS
100
AcDbLine
 10
16.63283254238972
 20
4.975717386698149
 30
0.0
 11
17.60749913536461
 21
5.950383979673033
 31
0.0
  0
LINE
  5
2446E
330
24457
100
AcDbEntity
  8
0
  6
CONTINUOUS
100
AcDbLine
 10
13.66663434263929
 20
1.335999977867529
 30
0.0
 11
15.67604797733754
 21
3.345413612565779
 31
0.0
  0
LINE
  5
2446F
330
24457
100
AcDbEntity
  8
0
  6
CONTINUOUS
100
AcDbLine
 10
13.86621509341442
 20
0.8620615195624723
 30
0.0
 11
15.27016212913838
 21
2.26600855528643
 31
0.0
  0
LINE
  5
24470
330
24457
100
AcDbEntity
  8
0
  6
CONTINUOUS
100
AcDbLine
 10
16.81682257348267
 20
4.486188208710908
 30
0.0
 11
17.79152830642806
 21
5.460893941656299
 31
0.0
  0
LINE
  5
24471
330
24457
100
AcDbEntity
  8
0
  6
CONTINUOUS
100
AcDbLine
 10
17.00081260457561
 20
3.996659030723667
 30
0.0
 11
17.97555747749151
 21
4.971403903639565
 31
0.0
  0
LINE
  5
24472
330
24457
100
AcDbEntity
  8
0
  6
CONTINUOUS
100
AcDbLine
 10
20.74362343514722
 20
8.412989070375462
 30
0.0
 11
21.09373436476302
 21
8.763099999991256
 31
0.0
  0
LINE
  5
24473
330
24457
100
AcDbEntity
  8
0
  6
CONTINUOUS
100
AcDbLine
 10
20.25401257174777
 20
7.249858997895826
 30
0.0
 11
21.7672535738432
 21
8.763099999991255
 31
0.0
  0
LINE
  5
24474
330
24457
100
AcDbEntity
  8
0
  6
CONTINUOUS
100
AcDbLine
 10
14.06579584418955
 20
0.3881230612574149
 30
0.0
 11
14.86427628093921
 21
1.186603498007082
 31
0.0
  0
LINE
  5
24475
330
24457
100
AcDbEntity
  8
0
  6
CONTINUOUS
100
AcDbLine
 10
14.26537659496467
 20
-0.0858153970476412
 30
0.0
 11
14.45839043274005
 21
0.1071984407277329
 31
0.0
  0
LINE
  5
24476
330
24457
100
AcDbEntity
  8
0
  6
CONTINUOUS
100
AcDbLine
 10
17.18480263566856
 20
3.507129852736426
 30
0.0
 11
18.15958664855496
 21
4.481913865622833
 31
0.0
  0
LINE
  5
24477
330
24457
100
AcDbEntity
  8
0
  6
CONTINUOUS
100
AcDbLine
 10
17.3687926667615
 20
3.017600674749186
 30
0.0
 11
18.34361581961842
 21
3.9924238276061
 31
0.0
  0
LINE
  5
24478
330
24457
100
AcDbEntity
  8
0
  6
CONTINUOUS
100
AcDbLine
 10
19.76440170834832
 20
6.086728925416191
 30
0.0
 11
22.33924590259489
 21
8.661573119662755
 31
0.0
  0
LINE
  5
24479
330
24457
100
AcDbEntity
  8
0
  6
CONTINUOUS
100
AcDbLine
 10
19.27479084494887
 20
4.923598852936555
 30
0.0
 11
21.84929622842713
 21
7.498104236414807
 31
0.0
  0
LINE
  5
2447A
330
24457
100
AcDbEntity
  8
0
  6
CONTINUOUS
100
AcDbLine
 10
17.55278269785445
 20
2.528071496761945
 30
0.0
 11
18.52764499068187
 21
3.502933789589366
 31
0.0
  0
LINE
  5
2447B
330
24457
100
AcDbEntity
  8
0
  6
CONTINUOUS
100
AcDbLine
 10
18.78517998154942
 20
3.760468780456919
 30
0.0
 11
21.35934655425936
 21
6.33463535316686
 31
0.0
  0
LINE
  5
2447C
330
24457
100
AcDbEntity
  8
0
  6
CONTINUOUS
100
AcDbLine
 10
17.73677272894739
 20
2.038542318774704
 30
0.0
 11
20.8693968800916
 21
5.171166469918914
 31
0.0
  0
LINE
  5
2447D
330
24457
100
AcDbEntity
  8
0
  6
CONTINUOUS
100
AcDbLine
 10
17.92076276004034
 20
1.549013140787464
 30
0.0
 11
20.37944720592384
 21
4.007697586670968
 31
0.0
  0
LINE
  5
2447E
330
24457
100
AcDbEntity
  8
0
  6
CONTINUOUS
100
AcDbLine
 10
18.10475279113329
 20
1.059483962800223
 30
0.0
 11
19.88949753175608
 21
2.84422870342302
 31
0.0
  0
LINE
  5
2447F
330
24457
100
AcDbEntity
  8
0
  6
CONTINUOUS
100
AcDbLine
 10
18.28874282222623
 20
0.5699547848129822
 30
0.0
 11
19.39954785758832
 21
1.680759820175074
 31
0.0
  0
LINE
  5
24480
330
24457
100
AcDbEntity
  8
0
  6
CONTINUOUS
100
AcDbLine
 10
18.47273285331918
 20
0.0804256068257416
 30
0.0
 11
18.90959818342056
 21
0.517290936927127
 31
0.0
  0
LINE
  5
24481
330
24457
100
AcDbEntity
  8
0
  6
CONTINUOUS
100
AcDbLine
 10
14.3590401358224
 20
-0.1570118376323384
 30
0.0
 11
14.24903296539946
 21
-0.0470046672093929
 31
0.0
  0
LINE
  5
24482
330
24457
100
AcDbEntity
  8
0
  6
CONTINUOUS
100
AcDbLine
 10
14.54309291258661
 20
0.332454594683643
 30
0.0
 11
13.75908329123172
 21
1.116464216038529
 31
0.0
  0
LINE
  5
24483
330
24457
100
AcDbEntity
  8
0
  6
CONTINUOUS
100
AcDbLine
 10
14.72714568935081
 20
0.8219210269996244
 30
0.0
 11
13.26913361706399
 21
2.27993309928645
 31
0.0
  0
LINE
  5
24484
330
24457
100
AcDbEntity
  8
0
  6
CONTINUOUS
100
AcDbLine
 10
14.91119846611502
 20
1.311387459315606
 30
0.0
 11
12.77918394289625
 21
3.443401982534371
 31
0.0
  0
LINE
  5
24485
330
24457
100
AcDbEntity
  8
0
  6
CONTINUOUS
100
AcDbLine
 10
15.09525124287922
 20
1.800853891631587
 30
0.0
 11
12.28923426872852
 21
4.606870865782293
 31
0.0
  0
LINE
  5
24486
330
24457
100
AcDbEntity
  8
0
  6
CONTINUOUS
100
AcDbLine
 10
15.27930401964343
 20
2.290320323947569
 30
0.0
 11
11.79928459456078
 21
5.770339749030213
 31
0.0
  0
LINE
  5
24487
330
24457
100
AcDbEntity
  8
0
  6
CONTINUOUS
100
AcDbLine
 10
15.46335679640763
 20
2.77978675626355
 30
0.0
 11
14.48885470994921
 21
3.754288842721972
 31
0.0
  0
LINE
  5
24488
330
24457
100
AcDbEntity
  8
0
  6
CONTINUOUS
100
AcDbLine
 10
13.88507249233704
 20
4.358071060334137
 30
0.0
 11
11.30933492039305
 21
6.933808632278135
 31
0.0
  0
LINE
  5
24489
330
24457
100
AcDbEntity
  8
0
  6
CONTINUOUS
100
AcDbLine
 10
18.75840522805855
 20
0.1582575336928151
 30
0.0
 11
18.25383727664818
 21
0.6628254851031863
 31
0.0
  0
LINE
  5
2448A
330
24457
100
AcDbEntity
  8
0
  6
CONTINUOUS
100
AcDbLine
 10
15.64740957317184
 20
3.269253188579531
 30
0.0
 11
14.67288388101266
 21
4.243778880738705
 31
0.0
  0
LINE
  5
2448B
330
24457
100
AcDbEntity
  8
0
  6
CONTINUOUS
100
AcDbLine
 10
13.39509276772158
 20
5.521569994029786
 30
0.0
 11
10.81938524622531
 21
8.097277515526056
 31
0.0
  0
LINE
  5
2448C
330
24457
100
AcDbEntity
  8
0
  6
CONTINUOUS
100
AcDbLine
 10
18.95798597883369
 20
0.6321959919978686
 30
0.0
 11
17.84825644852853
 21
1.741925522303024
 31
0.0
  0
LINE
  5
2448D
330
24457
100
AcDbEntity
  8
0
  6
CONTINUOUS
100
AcDbLine
 10
19.15756672960882
 20
1.106134450302922
 30
0.0
 11
17.44267562040888
 21
2.821025559502861
 31
0.0
  0
LINE
  5
2448E
330
24457
100
AcDbEntity
  8
0
  6
CONTINUOUS
100
AcDbLine
 10
15.83146234993604
 20
3.758719620895513
 30
0.0
 11
14.85691305207612
 21
4.733268918755439
 31
0.0
  0
LINE
  5
2448F
330
24457
100
AcDbEntity
  8
0
  6
CONTINUOUS
100
AcDbLine
 10
16.01551512670025
 20
4.248186053211494
 30
0.0
 11
15.04094222313957
 21
5.222758956772172
 31
0.0
  0
LINE
  5
24490
330
24457
100
AcDbEntity
  8
0
  6
CONTINUOUS
100
AcDbLine
 10
12.90511304310612
 20
6.685068927725435
 30
0.0
 11
10.8270819708403
 21
8.763099999991255
 31
0.0
  0
LINE
  5
24491
330
24457
100
AcDbEntity
  8
0
  6
CONTINUOUS
100
AcDbLine
 10
12.41513331849066
 20
7.848567861421083
 30
0.0
 11
11.50060117992049
 21
8.763099999991255
 31
0.0
  0
LINE
  5
24492
330
24457
100
AcDbEntity
  8
0
  6
CONTINUOUS
100
AcDbLine
 10
19.35714748038395
 20
1.580072908607975
 30
0.0
 11
17.03709479228923
 21
3.900125596702697
 31
0.0
  0
LINE
  5
24493
330
24457
100
AcDbEntity
  8
0
  6
CONTINUOUS
100
AcDbLine
 10
19.55672823115909
 20
2.054011366913028
 30
0.0
 11
16.63151396416958
 21
4.979225633902534
 31
0.0
  0
LINE
  5
24494
330
24457
100
AcDbEntity
  8
0
  6
CONTINUOUS
100
AcDbLine
 10
16.19956790346445
 20
4.737652485527476
 30
0.0
 11
15.22497139420302
 21
5.712248994788904
 31
0.0
  0
LINE
  5
24495
330
24457
100
AcDbEntity
  8
0
  6
CONTINUOUS
100
AcDbLine
 10
16.38362068022866
 20
5.227118917843457
 30
0.0
 11
15.40900056526648
 21
6.201739032805637
 31
0.0
  0
LINE
  5
24496
330
24457
100
AcDbEntity
  8
0
  6
CONTINUOUS
100
AcDbLine
 10
19.75630898193422
 20
2.527949825218081
 30
0.0
 11
18.70774536448286
 21
3.576513442669441
 31
0.0
  0
LINE
  5
24497
330
24457
100
AcDbEntity
  8
0
  6
CONTINUOUS
100
AcDbLine
 10
19.95588973270936
 20
3.001888283523134
 30
0.0
 11
18.90726987211446
 21
4.050508144118028
 31
0.0
  0
LINE
  5
24498
330
24457
100
AcDbEntity
  8
0
  6
CONTINUOUS
100
AcDbLine
 10
20.15547048348449
 20
3.475826741828186
 30
0.0
 11
19.10679437974606
 21
4.524502845566614
 31
0.0
  0
LINE
  5
24499
330
24457
100
AcDbEntity
  8
0
  6
CONTINUOUS
100
AcDbLine
 10
20.35505123425962
 20
3.94976520013324
 30
0.0
 11
19.30631888737766
 21
4.998497547015201
 31
0.0
  0
LINE
  5
2449A
330
24457
100
AcDbEntity
  8
0
  6
CONTINUOUS
100
AcDbLine
 10
20.55463198503475
 20
4.423703658438292
 30
0.0
 11
19.50584339500926
 21
5.472492248463787
 31
0.0
  0
LINE
  5
2449B
330
24457
100
AcDbEntity
  8
0
  6
CONTINUOUS
100
AcDbLine
 10
18.37481191085755
 20
3.909446896294752
 30
0.0
 11
15.59302973632993
 21
6.691229070822371
 31
0.0
  0
LINE
  5
2449C
330
24457
100
AcDbEntity
  8
0
  6
CONTINUOUS
100
AcDbLine
 10
17.96904084440766
 20
4.988737171824825
 30
0.0
 11
15.77705890739338
 21
7.180719108839104
 31
0.0
  0
LINE
  5
2449D
330
24457
100
AcDbEntity
  8
0
  6
CONTINUOUS
100
AcDbLine
 10
17.56326977795777
 20
6.068027447354899
 30
0.0
 11
15.96108807845684
 21
7.670209146855838
 31
0.0
  0
LINE
  5
2449E
330
24457
100
AcDbEntity
  8
0
  6
CONTINUOUS
100
AcDbLine
 10
17.15749871150789
 20
7.147317722884972
 30
0.0
 11
16.14511724952029
 21
8.15969918487257
 31
0.0
  0
LINE
  5
2449F
330
24457
100
AcDbEntity
  8
0
  6
CONTINUOUS
100
AcDbLine
 10
16.751727645058
 20
8.226607998415046
 30
0.0
 11
16.32914642058374
 21
8.649189222889303
 31
0.0
  0
LINE
  5
244A0
330
24457
100
AcDbEntity
  8
0
  6
CONTINUOUS
100
AcDbLine
 10
20.75421273580989
 20
4.897642116743345
 30
0.0
 11
19.70536790264086
 21
5.946486949912374
 31
0.0
  0
LINE
  5
244A1
330
24457
100
AcDbEntity
  8
0
  6
CONTINUOUS
100
AcDbLine
 10
20.95379348658502
 20
5.371580575048398
 30
0.0
 11
19.90489241027246
 21
6.42048165136096
 31
0.0
  0
LINE
  5
244A2
330
24457
100
AcDbEntity
  8
0
  6
CONTINUOUS
100
AcDbLine
 10
21.15337423736015
 20
5.845519033353452
 30
0.0
 11
20.10441691790406
 21
6.894476352809547
 31
0.0
  0
LINE
  5
244A3
330
24457
100
AcDbEntity
  8
0
  6
CONTINUOUS
100
AcDbLine
 10
21.35295498813529
 20
6.319457491658505
 30
0.0
 11
20.30394142553566
 21
7.368471054258134
 31
0.0
  0
LINE
  5
244A4
330
24457
100
AcDbEntity
  8
0
  6
CONTINUOUS
100
AcDbLine
 10
21.55253573891042
 20
6.793395949963558
 30
0.0
 11
20.50346593316726
 21
7.842465755706721
 31
0.0
  0
LINE
  5
244A5
330
24457
100
AcDbEntity
  8
0
  6
CONTINUOUS
100
AcDbLine
 10
21.75211648968556
 20
7.267334408268612
 30
0.0
 11
20.70299044079886
 21
8.316460457155308
 31
0.0
  0
LINE
  5
244A6
330
24457
100
AcDbEntity
  8
0
  6
CONTINUOUS
100
AcDbLine
 10
21.95169724046069
 20
7.741272866573663
 30
0.0
 11
20.9298701070431
 21
8.763099999991256
 31
0.0
  0
LINE
  5
244A7
330
24457
100
AcDbEntity
  8
0
  6
CONTINUOUS
100
AcDbLine
 10
22.15127799123582
 20
8.215211324878716
 30
0.0
 11
21.60338931612328
 21
8.763099999991256
 31
0.0
  0
LINE
  5
244A8
330
24457
100
AcDbEntity
  8
0
  6
CONTINUOUS
100
AcDbLine
 10
22.35085874201096
 20
8.689149783183769
 30
0.0
 11
22.27690852520347
 21
8.763099999991255
 31
0.0
  0
ENDBLK
  5
2459A
330
24457
100
AcDbEntity
  8
0
100
AcDbBlockEnd
  0
BLOCK
  5
2459B
330
244A9
100
AcDbEntity
  8
0
100
AcDbBlockBegin
  2
*X22
 70
     1
 10
0.0
 20
0.0
 30
0.0
  3
*X22
  1

  0
LINE
  5
244AA
330
244A9
100
AcDbEntity
  8
0
  6
CONTINUOUS
100
AcDbLine
 10
23.19462913593892
 20
8.169917934846424
 30
0.0
 11
23.70775465517246
 21
8.683043454079957
 31
0.0
  0
LINE
  5
244AB
330
244A9
100
AcDbEntity
  8
0
  6
CONTINUOUS
100
AcDbLine
 10
22.64923161835078
 20
6.951001208178088
 30
0.0
 11
23.9159364069932
 21
8.217705996820516
 31
0.0
  0
LINE
  5
244AC
330
244A9
100
AcDbEntity
  8
0
  6
CONTINUOUS
100
AcDbLine
 10
22.10383410076263
 20
5.732084481509751
 30
0.0
 11
24.12411815881395
 21
7.752368539561078
 31
0.0
  0
LINE
  5
244AD
330
244A9
100
AcDbEntity
  8
0
  6
CONTINUOUS
100
AcDbLine
 10
21.55843658317447
 20
4.513167754841414
 30
0.0
 11
24.3322999106347
 21
7.287031082301639
 31
0.0
  0
LINE
  5
244AE
330
244A9
100
AcDbEntity
  8
0
  6
CONTINUOUS
100
AcDbLine
 10
21.01303906558632
 20
3.294251028173077
 30
0.0
 11
24.54048166245544
 21
6.821693625042199
 31
0.0
  0
LINE
  5
244AF
330
244A9
100
AcDbEntity
  8
0
  6
CONTINUOUS
100
AcDbLine
 10
20.46764154799817
 20
2.075334301504738
 30
0.0
 11
23.28571549467848
 21
4.89340824818505
 31
0.0
  0
LINE
  5
244B0
330
244A9
100
AcDbEntity
  8
0
  6
CONTINUOUS
100
AcDbLine
 10
19.92224403041002
 20
0.8564175748364002
 30
0.0
 11
22.74075865492779
 21
3.674932199354171
 31
0.0
  0
LINE
  5
244B1
330
244A9
100
AcDbEntity
  8
0
  6
CONTINUOUS
100
AcDbLine
 10
23.67305085490148
 20
5.280743608408048
 30
0.0
 11
24.74866341427619
 21
6.356356167782759
 31
0.0
  0
LINE
  5
244B2
330
244A9
100
AcDbEntity
  8
0
  6
CONTINUOUS
100
AcDbLine
 10
23.88118970842314
 20
4.815363252849522
 30
0.0
 11
24.95684516609694
 21
5.89101871052332
 31
0.0
  0
LINE
  5
244B3
330
244A9
100
AcDbEntity
  8
0
  6
CONTINUOUS
100
AcDbLine
 10
19.73925852647308
 20
-0.0000871381807288
 30
0.0
 11
23.4103456646501
 21
3.670999999996297
 31
0.0
  0
LINE
  5
244B4
330
244A9
100
AcDbEntity
  8
0
  6
CONTINUOUS
100
AcDbLine
 10
24.0893285619448
 20
4.349982897290997
 30
0.0
 11
25.16502691791769
 21
5.42568125326388
 31
0.0
  0
LINE
  5
244B5
330
244A9
100
AcDbEntity
  8
0
  6
CONTINUOUS
100
AcDbLine
 10
20.41282099582748
 20
-0.0000438779065108
 30
0.0
 11
21.64944178675636
 21
1.236576913022366
 31
0.0
  0
LINE
  5
244B6
330
244A9
100
AcDbEntity
  8
0
  6
CONTINUOUS
100
AcDbLine
 10
22.78126487373161
 20
2.36839999999762
 30
0.0
 11
24.08386487373029
 21
3.670999999996297
 31
0.0
  0
LINE
  5
244B7
330
244A9
100
AcDbEntity
  8
0
  6
CONTINUOUS
100
AcDbLine
 10
24.29746741546646
 20
3.884602541732471
 30
0.0
 11
25.37320866973843
 21
4.960343796004441
 31
0.0
  0
LINE
  5
244B8
330
244A9
100
AcDbEntity
  8
0
  6
CONTINUOUS
100
AcDbLine
 10
21.08638346518189
 20
-0.0000006176322938
 30
0.0
 11
21.10379033335899
 21
0.0174062505448083
 31
0.0
  0
LINE
  5
244B9
330
244A9
100
AcDbEntity
  8
0
  6
CONTINUOUS
100
AcDbLine
 10
23.4547840828118
 20
2.36839999999762
 30
0.0
 11
25.58139042155918
 21
4.495006338745002
 31
0.0
  0
LINE
  5
244BA
330
244A9
100
AcDbEntity
  8
0
  6
CONTINUOUS
100
AcDbLine
 10
29.30199999996933
 20
8.215615917155148
 30
0.0
 11
29.84948408280543
 21
8.763099999991255
 31
0.0
  0
LINE
  5
244BB
330
244A9
100
AcDbEntity
  8
0
  6
CONTINUOUS
100
AcDbLine
 10
24.12830329189199
 20
2.36839999999762
 30
0.0
 11
25.78957217337993
 21
4.029668881485562
 31
0.0
  0
LINE
  5
244BC
330
244A9
100
AcDbEntity
  8
0
  6
CONTINUOUS
100
AcDbLine
 10
29.30199999996933
 20
7.54209670807496
 30
0.0
 11
30.52300329188562
 21
8.763099999991255
 31
0.0
  0
LINE
  5
244BD
330
244A9
100
AcDbEntity
  8
0
  6
CONTINUOUS
100
AcDbLine
 10
24.80182250097217
 20
2.36839999999762
 30
0.0
 11
25.99775392520067
 21
3.564331424226122
 31
0.0
  0
LINE
  5
244BE
330
244A9
100
AcDbEntity
  8
0
  6
CONTINUOUS
100
AcDbLine
 10
29.30199999996933
 20
6.868577498994774
 30
0.0
 11
30.74199999996926
 21
8.308577498994712
 31
0.0
  0
LINE
  5
244BF
330
244A9
100
AcDbEntity
  8
0
  6
CONTINUOUS
100
AcDbLine
 10
25.13028238392013
 20
2.023340673865392
 30
0.0
 11
26.20593567702142
 21
3.098993966966683
 31
0.0
  0
LINE
  5
244C0
330
244A9
100
AcDbEntity
  8
0
  6
CONTINUOUS
100
AcDbLine
 10
25.33838066033617
 20
1.557919741201244
 30
0.0
 11
26.41411742884217
 21
2.633656509707244
 31
0.0
  0
LINE
  5
244C1
330
244A9
100
AcDbEntity
  8
0
  6
CONTINUOUS
100
AcDbLine
 10
25.54647893675221
 20
1.092498808537098
 30
0.0
 11
26.62229918066291
 21
2.168319052447804
 31
0.0
  0
LINE
  5
244C2
330
244A9
100
AcDbEntity
  8
0
  6
CONTINUOUS
100
AcDbLine
 10
25.75457721316825
 20
0.62707787587295
 30
0.0
 11
26.83048093248366
 21
1.702981595188365
 31
0.0
  0
LINE
  5
244C3
330
244A9
100
AcDbEntity
  8
0
  6
CONTINUOUS
100
AcDbLine
 10
29.30199999996933
 20
6.195058289914587
 30
0.0
 11
30.74199999996926
 21
7.635058289914522
 31
0.0
  0
LINE
  5
244C4
330
244A9
100
AcDbEntity
  8
0
  6
CONTINUOUS
100
AcDbLine
 10
29.30199999996933
 20
5.521539080834401
 30
0.0
 11
30.74199999996926
 21
6.961539080834331
 31
0.0
  0
LINE
  5
244C5
330
244A9
100
AcDbEntity
  8
0
  6
CONTINUOUS
100
AcDbLine
 10
29.30199999996933
 20
4.848019871754214
 30
0.0
 11
30.74199999996925
 21
6.288019871754143
 31
0.0
  0
LINE
  5
244C6
330
244A9
100
AcDbEntity
  8
0
  6
CONTINUOUS
100
AcDbLine
 10
29.30199999996933
 20
4.174500662674028
 30
0.0
 11
30.74199999996925
 21
5.614500662673953
 31
0.0
  0
LINE
  5
244C7
330
244A9
100
AcDbEntity
  8
0
  6
CONTINUOUS
100
AcDbLine
 10
25.96267548958429
 20
0.1616569432088024
 30
0.0
 11
27.18411854636669
 21
1.383099999991207
 31
0.0
  0
LINE
  5
244C8
330
244A9
100
AcDbEntity
  8
0
  6
CONTINUOUS
100
AcDbLine
 10
29.30199999996933
 20
3.500981453593841
 30
0.0
 11
30.74199999996925
 21
4.940981453593762
 31
0.0
  0
LINE
  5
244C9
330
244A9
100
AcDbEntity
  8
0
  6
CONTINUOUS
100
AcDbLine
 10
26.50763775544691
 20
0.0330999999912356
 30
0.0
 11
27.85763775544689
 21
1.383099999991223
 31
0.0
  0
LINE
  5
244CA
330
244A9
100
AcDbEntity
  8
0
  6
CONTINUOUS
100
AcDbLine
 10
29.30199999996933
 20
2.827462244513656
 30
0.0
 11
30.74199999996925
 21
4.267462244513574
 31
0.0
  0
LINE
  5
244CB
330
244A9
100
AcDbEntity
  8
0
  6
CONTINUOUS
100
AcDbLine
 10
27.18115696452709
 20
0.0330999999912356
 30
0.0
 11
28.55073879889363
 21
1.402681834357775
 31
0.0
  0
LINE
  5
244CC
330
244A9
100
AcDbEntity
  8
0
  6
CONTINUOUS
100
AcDbLine
 10
29.28241816560272
 20
2.134361201066866
 30
0.0
 11
30.74199999996924
 21
3.593943035433383
 31
0.0
  0
LINE
  5
244CD
330
244A9
100
AcDbEntity
  8
0
  6
CONTINUOUS
100
AcDbLine
 10
27.85467617360728
 20
0.0330999999912356
 30
0.0
 11
30.74199999996924
 21
2.920423826353195
 31
0.0
  0
LINE
  5
244CE
330
244A9
100
AcDbEntity
  8
0
  6
CONTINUOUS
100
AcDbLine
 10
28.53897559587887
 20
0.0438802131826428
 30
0.0
 11
30.73121978677781
 21
2.236124404081585
 31
0.0
  0
LINE
  5
244CF
330
244A9
100
AcDbEntity
  8
0
  6
CONTINUOUS
100
AcDbLine
 10
29.45140055588722
 20
0.2827859641107988
 30
0.0
 11
30.49231403584965
 21
1.323699444073236
 31
0.0
  0
LINE
  5
244D0
330
244A9
100
AcDbEntity
  8
0
  6
CONTINUOUS
100
AcDbLine
 10
19.59027867740337
 20
-0.0000967065718083
 30
0.0
 11
19.55485265190471
 21
0.035329318926844
 31
0.0
  0
LINE
  5
244D1
330
244A9
100
AcDbEntity
  8
0
  6
CONTINUOUS
100
AcDbLine
 10
20.26375463176586
 20
-0.0000534518541091
 30
0.0
 11
19.76305575737534
 21
0.5006454225364014
 31
0.0
  0
LINE
  5
244D2
330
244A9
100
AcDbEntity
  8
0
  6
CONTINUOUS
100
AcDbLine
 10
20.93723058612834
 20
-0.0000101971364099
 30
0.0
 11
19.97125886284597
 21
0.965961526145958
 31
0.0
  0
LINE
  5
244D3
330
244A9
100
AcDbEntity
  8
0
  6
CONTINUOUS
100
AcDbLine
 10
21.25514828313686
 20
0.355591314935257
 30
0.0
 11
20.1794619683166
 21
1.431277629755512
 31
0.0
  0
LINE
  5
244D4
330
244A9
100
AcDbEntity
  8
0
  6
CONTINUOUS
100
AcDbLine
 10
21.46338838394921
 20
0.8208704232030986
 30
0.0
 11
20.38766507378723
 21
1.896593733365069
 31
0.0
  0
LINE
  5
244D5
330
244A9
100
AcDbEntity
  8
0
  6
CONTINUOUS
100
AcDbLine
 10
21.67162848476155
 20
1.28614953147094
 30
0.0
 11
20.59586817925786
 21
2.361909836974626
 31
0.0
  0
LINE
  5
244D6
330
244A9
100
AcDbEntity
  8
0
  6
CONTINUOUS
100
AcDbLine
 10
21.8798685855739
 20
1.751428639738782
 30
0.0
 11
20.80407128472849
 21
2.827225940584183
 31
0.0
  0
LINE
  5
244D7
330
244A9
100
AcDbEntity
  8
0
  6
CONTINUOUS
100
AcDbLine
 10
22.08810868638624
 20
2.216707748006623
 30
0.0
 11
21.01227439019912
 21
3.292542044193739
 31
0.0
  0
LINE
  5
244D8
330
244A9
100
AcDbEntity
  8
0
  6
CONTINUOUS
100
AcDbLine
 10
22.60993564347543
 20
2.36839999999762
 30
0.0
 11
21.22047749566975
 21
3.757858147803296
 31
0.0
  0
LINE
  5
244D9
330
244A9
100
AcDbEntity
  8
0
  6
CONTINUOUS
100
AcDbLine
 10
23.28345485255561
 20
2.36839999999762
 30
0.0
 11
21.42868060114038
 21
4.223174251412853
 31
0.0
  0
LINE
  5
244DA
330
244A9
100
AcDbEntity
  8
0
  6
CONTINUOUS
100
AcDbLine
 10
26.29227406164219
 20
0.0330999999912356
 30
0.0
 11
25.80009199592872
 21
0.5252820657046957
 31
0.0
  0
LINE
  5
244DB
330
244A9
100
AcDbEntity
  8
0
  6
CONTINUOUS
100
AcDbLine
 10
23.9569740616358
 20
2.36839999999762
 30
0.0
 11
21.63688370661101
 21
4.688490355022409
 31
0.0
  0
LINE
  5
244DC
330
244A9
100
AcDbEntity
  8
0
  6
CONTINUOUS
100
AcDbLine
 10
26.96579327072237
 20
0.0330999999912356
 30
0.0
 11
25.2554132311971
 21
1.743480039516508
 31
0.0
  0
LINE
  5
244DD
330
244A9
100
AcDbEntity
  8
0
  6
CONTINUOUS
100
AcDbLine
 10
24.63049327071599
 20
2.36839999999762
 30
0.0
 11
23.32789327071731
 21
3.670999999996297
 31
0.0
  0
LINE
  5
244DE
330
244A9
100
AcDbEntity
  8
0
  6
CONTINUOUS
100
AcDbLine
 10
22.92098674744635
 20
4.077906523267254
 30
0.0
 11
21.84508681208164
 21
5.153806458631966
 31
0.0
  0
LINE
  5
244DF
330
244A9
100
AcDbEntity
  8
0
  6
CONTINUOUS
100
AcDbLine
 10
27.63931247980256
 20
0.0330999999912356
 30
0.0
 11
24.0014124797975
 21
3.670999999996297
 31
0.0
  0
LINE
  5
244E0
330
244A9
100
AcDbEntity
  8
0
  6
CONTINUOUS
100
AcDbLine
 10
23.129125600968
 20
4.5432868788258
 30
0.0
 11
22.05328991755227
 21
5.619122562241522
 31
0.0
  0
LINE
  5
244E1
330
244A9
100
AcDbEntity
  8
0
  6
CONTINUOUS
100
AcDbLine
 10
28.31283168888275
 20
0.0330999999912356
 30
0.0
 11
24.16488385994816
 21
4.181047828925828
 31
0.0
  0
LINE
  5
244E2
330
244A9
100
AcDbEntity
  8
0
  6
CONTINUOUS
100
AcDbLine
 10
23.33726445448964
 20
5.008667234384345
 30
0.0
 11
22.2614930230229
 21
6.084438665851079
 31
0.0
  0
LINE
  5
244E3
330
244A9
100
AcDbEntity
  8
0
  6
CONTINUOUS
100
AcDbLine
 10
28.92085740005492
 20
0.0985934978992438
 30
0.0
 11
27.63635089796295
 21
1.383099999991217
 31
0.0
  0
LINE
  5
244E4
330
244A9
100
AcDbEntity
  8
0
  6
CONTINUOUS
100
AcDbLine
 10
26.43704649509776
 20
2.582404402856405
 30
0.0
 11
23.61992702019732
 21
5.399523877756844
 31
0.0
  0
LINE
  5
244E5
330
244A9
100
AcDbEntity
  8
0
  6
CONTINUOUS
100
AcDbLine
 10
23.54540330801128
 20
5.47404758994289
 30
0.0
 11
22.46969612849353
 21
6.549754769460635
 31
0.0
  0
LINE
  5
244E6
330
244A9
100
AcDbEntity
  8
0
  6
CONTINUOUS
100
AcDbLine
 10
29.42225615078443
 20
0.2707139562499279
 30
0.0
 11
28.30987010704312
 21
1.383099999991234
 31
0.0
  0
LINE
  5
244E7
330
244A9
100
AcDbEntity
  8
0
  6
CONTINUOUS
100
AcDbLine
 10
25.89179548232307
 20
3.801174624711282
 30
0.0
 11
22.67789923396416
 21
7.015070873070191
 31
0.0
  0
LINE
  5
244E8
330
244A9
100
AcDbEntity
  8
0
  6
CONTINUOUS
100
AcDbLine
 10
29.83624534690007
 20
0.5302439692144705
 30
0.0
 11
28.85811781497101
 21
1.508371501143527
 31
0.0
  0
LINE
  5
244E9
330
244A9
100
AcDbEntity
  8
0
  6
CONTINUOUS
100
AcDbLine
 10
25.34654446954838
 20
5.01994484656616
 30
0.0
 11
22.88610233943479
 21
7.480386976679748
 31
0.0
  0
LINE
  5
244EA
330
244A9
100
AcDbEntity
  8
0
  6
CONTINUOUS
100
AcDbLine
 10
30.17865975401872
 20
0.8613487711760022
 30
0.0
 11
29.18888744090175
 21
1.851121084292977
 31
0.0
  0
LINE
  5
244EB
330
244A9
100
AcDbEntity
  8
0
  6
CONTINUOUS
100
AcDbLine
 10
24.80129345677369
 20
6.238715068421037
 30
0.0
 11
23.09430544490542
 21
7.945703080289305
 31
0.0
  0
LINE
  5
244EC
330
244A9
100
AcDbEntity
  8
0
  6
CONTINUOUS
100
AcDbLine
 10
30.45496647202376
 20
1.258561262251155
 30
0.0
 11
29.30199999996933
 21
2.411527734305588
 31
0.0
  0
LINE
  5
244ED
330
244A9
100
AcDbEntity
  8
0
  6
CONTINUOUS
100
AcDbLine
 10
24.256042443999
 20
7.457485290275915
 30
0.0
 11
23.30250855037605
 21
8.411019183898862
 31
0.0
  0
LINE
  5
244EE
330
244A9
100
AcDbEntity
  8
0
  6
CONTINUOUS
100
AcDbLine
 10
30.64868582078271
 20
1.738361122572387
 30
0.0
 11
29.30199999996933
 21
3.085046943385775
 31
0.0
  0
LINE
  5
244EF
330
244A9
100
AcDbEntity
  8
0
  6
CONTINUOUS
100
AcDbLine
 10
23.71079143122431
 20
8.676255512130794
 30
0.0
 11
23.51071165584668
 21
8.876335287508416
 31
0.0
  0
LINE
  5
244F0
330
244A9
100
AcDbEntity
  8
0
  6
CONTINUOUS
100
AcDbLine
 10
30.73802122914428
 20
2.322544923291007
 30
0.0
 11
29.30199999996933
 21
3.758566152465961
 31
0.0
  0
LINE
  5
244F1
330
244A9
100
AcDbEntity
  8
0
  6
CONTINUOUS
100
AcDbLine
 10
30.74199999996924
 20
2.992085361546236
 30
0.0
 11
29.30199999996933
 21
4.432085361546148
 31
0.0
  0
LINE
  5
244F2
330
244A9
100
AcDbEntity
  8
0
  6
CONTINUOUS
100
AcDbLine
 10
30.74199999996924
 20
3.665604570626419
 30
0.0
 11
29.30199999996933
 21
5.105604570626333
 31
0.0
  0
LINE
  5
244F3
330
244A9
100
AcDbEntity
  8
0
  6
CONTINUOUS
100
AcDbLine
 10
30.74199999996925
 20
4.339123779706602
 30
0.0
 11
29.30199999996933
 21
5.77912377970652
 31
0.0
  0
LINE
  5
244F4
330
244A9
100
AcDbEntity
  8
0
  6
CONTINUOUS
100
AcDbLine
 10
30.74199999996925
 20
5.012642988786785
 30
0.0
 11
29.30199999996933
 21
6.452642988786707
 31
0.0
  0
LINE
  5
244F5
330
244A9
100
AcDbEntity
  8
0
  6
CONTINUOUS
100
AcDbLine
 10
30.74199999996925
 20
5.68616219786697
 30
0.0
 11
29.30199999996933
 21
7.126162197866894
 31
0.0
  0
LINE
  5
244F6
330
244A9
100
AcDbEntity
  8
0
  6
CONTINUOUS
100
AcDbLine
 10
30.74199999996925
 20
6.359681406947153
 30
0.0
 11
29.30199999996933
 21
7.799681406947081
 31
0.0
  0
LINE
  5
244F7
330
244A9
100
AcDbEntity
  8
0
  6
CONTINUOUS
100
AcDbLine
 10
30.74199999996926
 20
7.033200616027337
 30
0.0
 11
29.30199999996933
 21
8.473200616027269
 31
0.0
  0
LINE
  5
244F8
330
244A9
100
AcDbEntity
  8
0
  6
CONTINUOUS
100
AcDbLine
 10
30.74199999996926
 20
7.706719825107518
 30
0.0
 11
29.68561982508552
 21
8.763099999991255
 31
0.0
  0
LINE
  5
244F9
330
244A9
100
AcDbEntity
  8
0
  6
CONTINUOUS
100
AcDbLine
 10
30.74199999996926
 20
8.380239034187703
 30
0.0
 11
30.35913903416571
 21
8.763099999991255
 31
0.0
  0
ENDBLK
  5
2459C
330
244A9
100
AcDbEntity
  8
0
100
AcDbBlockEnd
  0
BLOCK
  5
2459D
330
244FA
100
AcDbEntity
  8
0
100
AcDbBlockBegin
  2
*X23
 70
     1
 10
0.0
 20
0.0
 30
0.0
  3
*X23
  1

  0
LINE
  5
244FB
330
244FA
100
AcDbEntity
  8
0
  6
CONTINUOUS
100
AcDbLine
 10
31.64199999996833
 20
8.535058289913598
 30
0.0
 11
31.87004171004599
 21
8.763099999991255
 31
0.0
  0
LINE
  5
244FC
330
244FA
100
AcDbEntity
  8
0
  6
CONTINUOUS
100
AcDbLine
 10
31.64199999996833
 20
7.861539080833412
 30
0.0
 11
32.54356091912618
 21
8.763099999991255
 31
0.0
  0
LINE
  5
244FD
330
244FA
100
AcDbEntity
  8
0
  6
CONTINUOUS
100
AcDbLine
 10
31.64199999996833
 20
7.188019871753226
 30
0.0
 11
33.08199999996839
 21
8.628019871753281
 31
0.0
  0
LINE
  5
244FE
330
244FA
100
AcDbEntity
  8
0
  6
CONTINUOUS
100
AcDbLine
 10
31.64199999996833
 20
6.51450066267304
 30
0.0
 11
33.08199999996839
 21
7.954500662673095
 31
0.0
  0
LINE
  5
244FF
330
244FA
100
AcDbEntity
  8
0
  6
CONTINUOUS
100
AcDbLine
 10
31.64199999996833
 20
5.840981453592853
 30
0.0
 11
33.08199999996839
 21
7.280981453592908
 31
0.0
  0
LINE
  5
24500
330
244FA
100
AcDbEntity
  8
0
  6
CONTINUOUS
100
AcDbLine
 10
31.64199999996833
 20
5.167462244512667
 30
0.0
 11
33.08199999996839
 21
6.607462244512721
 31
0.0
  0
LINE
  5
24501
330
244FA
100
AcDbEntity
  8
0
  6
CONTINUOUS
100
AcDbLine
 10
31.64199999996833
 20
4.493943035432481
 30
0.0
 11
33.08199999996839
 21
5.933943035432535
 31
0.0
  0
LINE
  5
24502
330
244FA
100
AcDbEntity
  8
0
  6
CONTINUOUS
100
AcDbLine
 10
31.64199999996833
 20
3.820423826352293
 30
0.0
 11
33.08199999996839
 21
5.260423826352348
 31
0.0
  0
LINE
  5
24503
330
244FA
100
AcDbEntity
  8
0
  6
CONTINUOUS
100
AcDbLine
 10
31.64199999996833
 20
3.146904617272106
 30
0.0
 11
33.08199999996839
 21
4.586904617272161
 31
0.0
  0
LINE
  5
24504
330
244FA
100
AcDbEntity
  8
0
  6
CONTINUOUS
100
AcDbLine
 10
36.23199999996837
 20
8.410423826352325
 30
0.0
 11
36.5846761736073
 21
8.763099999991255
 31
0.0
  0
LINE
  5
24505
330
244FA
100
AcDbEntity
  8
0
  6
CONTINUOUS
100
AcDbLine
 10
36.23199999996837
 20
7.73690461727214
 30
0.0
 11
37.25819538268748
 21
8.763099999991255
 31
0.0
  0
LINE
  5
24506
330
244FA
100
AcDbEntity
  8
0
  6
CONTINUOUS
100
AcDbLine
 10
31.64257403601376
 20
2.473959444237348
 30
0.0
 11
33.08199999996839
 21
3.913385408191974
 31
0.0
  0
LINE
  5
24507
330
244FA
100
AcDbEntity
  8
0
  6
CONTINUOUS
100
AcDbLine
 10
36.23199999996837
 20
7.063385408191953
 30
0.0
 11
37.67199999996831
 21
8.503385408191894
 31
0.0
  0
LINE
  5
24508
330
244FA
100
AcDbEntity
  8
0
  6
CONTINUOUS
100
AcDbLine
 10
31.72013636841932
 20
1.87800256756272
 30
0.0
 11
33.08199999996839
 21
3.239866199111788
 31
0.0
  0
LINE
  5
24509
330
244FA
100
AcDbEntity
  8
0
  6
CONTINUOUS
100
AcDbLine
 10
36.23199999996837
 20
6.389866199111767
 30
0.0
 11
37.67199999996831
 21
7.829866199111708
 31
0.0
  0
LINE
  5
2450A
330
244FA
100
AcDbEntity
  8
0
  6
CONTINUOUS
100
AcDbLine
 10
31.89042734314753
 20
1.374774333210744
 30
0.0
 11
33.08199999996839
 21
2.566346990031601
 31
0.0
  0
LINE
  5
2450B
330
244FA
100
AcDbEntity
  8
0
  6
CONTINUOUS
100
AcDbLine
 10
36.23199999996837
 20
5.71634699003158
 30
0.0
 11
37.67199999996831
 21
7.156346990031521
 31
0.0
  0
LINE
  5
2450C
330
244FA
100
AcDbEntity
  8
0
  6
CONTINUOUS
100
AcDbLine
 10
32.14210568064475
 20
0.952933461627778
 30
0.0
 11
33.18745552475986
 21
1.998283305742888
 31
0.0
  0
LINE
  5
2450D
330
244FA
100
AcDbEntity
  8
0
  6
CONTINUOUS
100
AcDbLine
 10
36.23199999996837
 20
5.042827780951393
 30
0.0
 11
37.67199999996831
 21
6.482827780951334
 31
0.0
  0
LINE
  5
2450E
330
244FA
100
AcDbEntity
  8
0
  6
CONTINUOUS
100
AcDbLine
 10
32.45820639400955
 20
0.5955149659123915
 30
0.0
 11
33.47242681921943
 21
1.60973539112227
 31
0.0
  0
LINE
  5
2450F
330
244FA
100
AcDbEntity
  8
0
  6
CONTINUOUS
100
AcDbLine
 10
36.23199999996837
 20
4.369308571871207
 30
0.0
 11
37.67199999996831
 21
5.809308571871147
 31
0.0
  0
LINE
  5
24510
330
244FA
100
AcDbEntity
  8
0
  6
CONTINUOUS
100
AcDbLine
 10
32.83432456621412
 20
0.2981139290367771
 30
0.0
 11
33.89722476612215
 21
1.361014128944803
 31
0.0
  0
LINE
  5
24511
330
244FA
100
AcDbEntity
  8
0
  6
CONTINUOUS
100
AcDbLine
 10
36.23199999996837
 20
3.69578936279102
 30
0.0
 11
37.67199999996831
 21
5.135789362790962
 31
0.0
  0
LINE
  5
24512
330
244FA
100
AcDbEntity
  8
0
  6
CONTINUOUS
100
AcDbLine
 10
33.2711633111245
 20
0.0614334648669672
 30
0.0
 11
34.43247338014423
 21
1.222743533886696
 31
0.0
  0
LINE
  5
24513
330
244FA
100
AcDbEntity
  8
0
  6
CONTINUOUS
100
AcDbLine
 10
36.23199999996837
 20
3.022270153710834
 30
0.0
 11
37.67199999996831
 21
4.462270153710775
 31
0.0
  0
LINE
  5
24514
330
244FA
100
AcDbEntity
  8
0
  6
CONTINUOUS
100
AcDbLine
 10
33.76515245874577
 20
-0.1180965965919523
 30
0.0
 11
35.1587445516215
 21
1.27549549628378
 31
0.0
  0
LINE
  5
24515
330
244FA
100
AcDbEntity
  8
0
  6
CONTINUOUS
100
AcDbLine
 10
36.21639478609585
 20
2.333145730758136
 30
0.0
 11
37.67199999996831
 21
3.788750944630588
 31
0.0
  0
LINE
  5
24516
330
244FA
100
AcDbEntity
  8
0
  6
CONTINUOUS
100
AcDbLine
 10
34.34060583368432
 20
-0.2161624307335863
 30
0.0
 11
37.67199999996831
 21
3.115231735550401
 31
0.0
  0
LINE
  5
24517
330
244FA
100
AcDbEntity
  8
0
  6
CONTINUOUS
100
AcDbLine
 10
35.01698193613905
 20
-0.2133055373590427
 30
0.0
 11
37.66876712070525
 21
2.438479647207154
 31
0.0
  0
LINE
  5
24518
330
244FA
100
AcDbEntity
  8
0
  6
CONTINUOUS
100
AcDbLine
 10
35.90743367693304
 20
0.0036269943547609
 30
0.0
 11
37.51723902192366
 21
1.613432339345381
 31
0.0
  0
LINE
  5
24519
330
244FA
100
AcDbEntity
  8
0
  6
CONTINUOUS
100
AcDbLine
 10
32.55309425579761
 20
0.5074718966376706
 30
0.0
 11
32.27784730925847
 21
0.7827188431768102
 31
0.0
  0
LINE
  5
2451A
330
244FA
100
AcDbEntity
  8
0
  6
CONTINUOUS
100
AcDbLine
 10
33.87496468909684
 20
-0.1408793275813673
 30
0.0
 11
31.67993083278052
 21
2.054154528734943
 31
0.0
  0
LINE
  5
2451B
330
244FA
100
AcDbEntity
  8
0
  6
CONTINUOUS
100
AcDbLine
 10
34.64362813207632
 20
-0.2360235614806649
 30
0.0
 11
31.64199999996833
 21
2.765604570627322
 31
0.0
  0
LINE
  5
2451C
330
244FA
100
AcDbEntity
  8
0
  6
CONTINUOUS
100
AcDbLine
 10
35.25801106796118
 20
-0.1768872882853429
 30
0.0
 11
31.64199999996833
 21
3.439123779707508
 31
0.0
  0
LINE
  5
2451D
330
244FA
100
AcDbEntity
  8
0
  6
CONTINUOUS
100
AcDbLine
 10
35.79065650332146
 20
-0.0360135145654361
 30
0.0
 11
34.54143210838231
 21
1.213210880373721
 31
0.0
  0
LINE
  5
2451E
330
244FA
100
AcDbEntity
  8
0
  6
CONTINUOUS
100
AcDbLine
 10
33.08199999996839
 20
2.67264298878764
 30
0.0
 11
31.64199999996833
 21
4.112642988787695
 31
0.0
  0
LINE
  5
2451F
330
244FA
100
AcDbEntity
  8
0
  6
CONTINUOUS
100
AcDbLine
 10
36.25975597779143
 20
0.1684062200447833
 30
0.0
 11
35.15395110240023
 21
1.274211095435983
 31
0.0
  0
LINE
  5
24520
330
244FA
100
AcDbEntity
  8
0
  6
CONTINUOUS
100
AcDbLine
 10
33.08199999996839
 20
3.346162197867826
 30
0.0
 11
31.64199999996833
 21
4.786162197867881
 31
0.0
  0
LINE
  5
24521
330
244FA
100
AcDbEntity
  8
0
  6
CONTINUOUS
100
AcDbLine
 10
36.67226329638774
 20
0.4294181105286579
 30
0.0
 11
35.63766478748767
 21
1.464016619428737
 31
0.0
  0
LINE
  5
24522
330
244FA
100
AcDbEntity
  8
0
  6
CONTINUOUS
100
AcDbLine
 10
33.08199999996839
 20
4.019681406948012
 30
0.0
 11
31.64199999996833
 21
5.459681406948068
 31
0.0
  0
LINE
  5
24523
330
244FA
100
AcDbEntity
  8
0
  6
CONTINUOUS
100
AcDbLine
 10
37.01677749710036
 20
0.7584231188962329
 30
0.0
 11
35.99563422741351
 21
1.779566388583076
 31
0.0
  0
LINE
  5
24524
330
244FA
100
AcDbEntity
  8
0
  6
CONTINUOUS
100
AcDbLine
 10
33.08199999996839
 20
4.693200616028199
 30
0.0
 11
31.64199999996833
 21
6.133200616028255
 31
0.0
  0
LINE
  5
24525
330
244FA
100
AcDbEntity
  8
0
  6
CONTINUOUS
100
AcDbLine
 10
37.29859977568887
 20
1.1501200493879
 30
0.0
 11
36.20680593341555
 21
2.241913891661226
 31
0.0
  0
LINE
  5
24526
330
244FA
100
AcDbEntity
  8
0
  6
CONTINUOUS
100
AcDbLine
 10
33.08199999996839
 20
5.366719825108386
 30
0.0
 11
31.64199999996833
 21
6.80671982510844
 31
0.0
  0
LINE
  5
24527
330
244FA
100
AcDbEntity
  8
0
  6
CONTINUOUS
100
AcDbLine
 10
37.5148623517228
 20
1.607376682434161
 30
0.0
 11
36.23199999996837
 21
2.890239034188594
 31
0.0
  0
LINE
  5
24528
330
244FA
100
AcDbEntity
  8
0
  6
CONTINUOUS
100
AcDbLine
 10
33.08199999996839
 20
6.040239034188573
 30
0.0
 11
31.64199999996833
 21
7.480239034188627
 31
0.0
  0
LINE
  5
24529
330
244FA
100
AcDbEntity
  8
0
  6
CONTINUOUS
100
AcDbLine
 10
37.64705163358367
 20
2.148706609653477
 30
0.0
 11
36.23199999996837
 21
3.56375824326878
 31
0.0
  0
LINE
  5
2452A
330
244FA
100
AcDbEntity
  8
0
  6
CONTINUOUS
100
AcDbLine
 10
33.08199999996839
 20
6.713758243268758
 30
0.0
 11
31.64199999996833
 21
8.153758243268815
 31
0.0
  0
LINE
  5
2452B
330
244FA
100
AcDbEntity
  8
0
  6
CONTINUOUS
100
AcDbLine
 10
37.67199999996831
 20
2.797277452349026
 30
0.0
 11
36.23199999996837
 21
4.237277452348967
 31
0.0
  0
LINE
  5
2452C
330
244FA
100
AcDbEntity
  8
0
  6
CONTINUOUS
100
AcDbLine
 10
37.67199999996831
 20
3.470796661429213
 30
0.0
 11
36.23199999996837
 21
4.910796661429154
 31
0.0
  0
LINE
  5
2452D
330
244FA
100
AcDbEntity
  8
0
  6
CONTINUOUS
100
AcDbLine
 10
37.67199999996831
 20
4.144315870509399
 30
0.0
 11
36.23199999996837
 21
5.58431587050934
 31
0.0
  0
LINE
  5
2452E
330
244FA
100
AcDbEntity
  8
0
  6
CONTINUOUS
100
AcDbLine
 10
33.08199999996839
 20
7.387277452348945
 30
0.0
 11
31.70617745232608
 21
8.763099999991255
 31
0.0
  0
LINE
  5
2452F
330
244FA
100
AcDbEntity
  8
0
  6
CONTINUOUS
100
AcDbLine
 10
33.08199999996839
 20
8.060796661429132
 30
0.0
 11
32.37969666140626
 21
8.763099999991255
 31
0.0
  0
LINE
  5
24530
330
244FA
100
AcDbEntity
  8
0
  6
CONTINUOUS
100
AcDbLine
 10
33.08199999996839
 20
8.734315870509318
 30
0.0
 11
33.05321587048645
 21
8.763099999991255
 31
0.0
  0
LINE
  5
24531
330
244FA
100
AcDbEntity
  8
0
  6
CONTINUOUS
100
AcDbLine
 10
37.67199999996831
 20
4.817835079589585
 30
0.0
 11
36.23199999996837
 21
6.257835079589526
 31
0.0
  0
LINE
  5
24532
330
244FA
100
AcDbEntity
  8
0
  6
CONTINUOUS
100
AcDbLine
 10
37.67199999996831
 20
5.491354288669771
 30
0.0
 11
36.23199999996837
 21
6.931354288669713
 31
0.0
  0
LINE
  5
24533
330
244FA
100
AcDbEntity
  8
0
  6
CONTINUOUS
100
AcDbLine
 10
37.67199999996831
 20
6.164873497749958
 30
0.0
 11
36.23199999996837
 21
7.6048734977499
 31
0.0
  0
LINE
  5
24534
330
244FA
100
AcDbEntity
  8
0
  6
CONTINUOUS
100
AcDbLine
 10
37.67199999996831
 20
6.838392706830144
 30
0.0
 11
36.23199999996837
 21
8.278392706830086
 31
0.0
  0
LINE
  5
24535
330
244FA
100
AcDbEntity
  8
0
  6
CONTINUOUS
100
AcDbLine
 10
37.67199999996831
 20
7.511911915910332
 30
0.0
 11
36.42081191588738
 21
8.763099999991255
 31
0.0
  0
LINE
  5
24536
330
244FA
100
AcDbEntity
  8
0
  6
CONTINUOUS
100
AcDbLine
 10
37.67199999996831
 20
8.185431124990519
 30
0.0
 11
37.09433112496757
 21
8.763099999991255
 31
0.0
  0
ENDBLK
  5
2459E
330
244FA
100
AcDbEntity
  8
0
100
AcDbBlockEnd
  0
BLOCK
  5
2459F
330
24537
100
AcDbEntity
  8
0
100
AcDbBlockBegin
  2
*X24
 70
     1
 10
0.0
 20
0.0
 30
0.0
  3
*X24
  1

  0
LINE
  5
24538
330
24537
100
AcDbEntity
  8
0
  6
CONTINUOUS
100
AcDbLine
 10
38.60499999996136
 20
8.762866199104765
 30
0.0
 11
38.71672554182345
 21
8.874591740966855
 31
0.0
  0
LINE
  5
24539
330
24537
100
AcDbEntity
  8
0
  6
CONTINUOUS
100
AcDbLine
 10
38.60499999996136
 20
8.089346990024577
 30
0.0
 11
39.03418785440363
 21
8.518534844466847
 31
0.0
  0
LINE
  5
2453A
330
24537
100
AcDbEntity
  8
0
  6
CONTINUOUS
100
AcDbLine
 10
38.60499999996136
 20
7.41582778094439
 30
0.0
 11
39.35165016698382
 21
8.16247794796684
 31
0.0
  0
LINE
  5
2453B
330
24537
100
AcDbEntity
  8
0
  6
CONTINUOUS
100
AcDbLine
 10
38.60499999996136
 20
6.742308571864204
 30
0.0
 11
39.66911247956399
 21
7.806421051466834
 31
0.0
  0
LINE
  5
2453C
330
24537
100
AcDbEntity
  8
0
  6
CONTINUOUS
100
AcDbLine
 10
38.60499999996136
 20
6.068789362784018
 30
0.0
 11
39.98657479214418
 21
7.450364154966827
 31
0.0
  0
LINE
  5
2453D
330
24537
100
AcDbEntity
  8
0
  6
CONTINUOUS
100
AcDbLine
 10
38.60499999996136
 20
5.395270153703832
 30
0.0
 11
40.30403710472435
 21
7.09430725846682
 31
0.0
  0
LINE
  5
2453E
330
24537
100
AcDbEntity
  8
0
  6
CONTINUOUS
100
AcDbLine
 10
38.60499999996136
 20
4.721750944623645
 30
0.0
 11
40.62149941730453
 21
6.738250361966813
 31
0.0
  0
LINE
  5
2453F
330
24537
100
AcDbEntity
  8
0
  6
CONTINUOUS
100
AcDbLine
 10
38.60499999996136
 20
4.048231735543458
 30
0.0
 11
40.93896172988471
 21
6.382193465466806
 31
0.0
  0
LINE
  5
24540
330
24537
100
AcDbEntity
  8
0
  6
CONTINUOUS
100
AcDbLine
 10
38.60499999996136
 20
3.374712526463272
 30
0.0
 11
40.02599999995994
 21
4.795712526461843
 31
0.0
  0
LINE
  5
24541
330
24537
100
AcDbEntity
  8
0
  6
CONTINUOUS
100
AcDbLine
 10
38.60499999996136
 20
2.701193317383085
 30
0.0
 11
40.02599999995994
 21
4.122193317381657
 31
0.0
  0
LINE
  5
24542
330
24537
100
AcDbEntity
  8
0
  6
CONTINUOUS
100
AcDbLine
 10
40.28339754687704
 20
5.053110073378947
 30
0.0
 11
41.25642404246489
 21
6.026136568966799
 31
0.0
  0
LINE
  5
24543
330
24537
100
AcDbEntity
  8
0
  6
CONTINUOUS
100
AcDbLine
 10
40.60085985945722
 20
4.697053176878939
 30
0.0
 11
41.57388635504507
 21
5.670079672466793
 31
0.0
  0
LINE
  5
24544
330
24537
100
AcDbEntity
  8
0
  6
CONTINUOUS
100
AcDbLine
 10
43.57899999995641
 20
8.348712526458318
 30
0.0
 11
43.99338747348935
 21
8.763099999991255
 31
0.0
  0
LINE
  5
24545
330
24537
100
AcDbEntity
  8
0
  6
CONTINUOUS
100
AcDbLine
 10
43.57899999995641
 20
7.675193317378131
 30
0.0
 11
44.66690668256953
 21
8.763099999991255
 31
0.0
  0
LINE
  5
24546
330
24537
100
AcDbEntity
  8
0
  6
CONTINUOUS
100
AcDbLine
 10
38.60499999996136
 20
2.027674108302898
 30
0.0
 11
40.02599999995994
 21
3.44867410830147
 31
0.0
  0
LINE
  5
24547
330
24537
100
AcDbEntity
  8
0
  6
CONTINUOUS
100
AcDbLine
 10
38.60499999996136
 20
1.354154899222712
 30
0.0
 11
40.02599999995994
 21
2.775154899221284
 31
0.0
  0
LINE
  5
24548
330
24537
100
AcDbEntity
  8
0
  6
CONTINUOUS
100
AcDbLine
 10
38.60499999996136
 20
0.6806356901425255
 30
0.0
 11
40.02599999995994
 21
2.101635690141098
 31
0.0
  0
LINE
  5
24549
330
24537
100
AcDbEntity
  8
0
  6
CONTINUOUS
100
AcDbLine
 10
38.60499999996136
 20
0.0071164810623383
 30
0.0
 11
40.02599999995994
 21
1.428116481060911
 31
0.0
  0
LINE
  5
2454A
330
24537
100
AcDbEntity
  8
0
  6
CONTINUOUS
100
AcDbLine
 10
40.9183221720374
 20
4.340996280378933
 30
0.0
 11
41.89134866762525
 21
5.314022775966786
 31
0.0
  0
LINE
  5
2454B
330
24537
100
AcDbEntity
  8
0
  6
CONTINUOUS
100
AcDbLine
 10
41.23578448461758
 20
3.984939383878926
 30
0.0
 11
42.20881098020543
 21
4.957965879466778
 31
0.0
  0
LINE
  5
2454C
330
24537
100
AcDbEntity
  8
0
  6
CONTINUOUS
100
AcDbLine
 10
41.55324679719776
 20
3.628882487378919
 30
0.0
 11
42.52627329278561
 21
4.601908982966772
 31
0.0
  0
LINE
  5
2454D
330
24537
100
AcDbEntity
  8
0
  6
CONTINUOUS
100
AcDbLine
 10
41.87070910977793
 20
3.272825590878912
 30
0.0
 11
42.84373560536579
 21
4.245852086466765
 31
0.0
  0
LINE
  5
2454E
330
24537
100
AcDbEntity
  8
0
  6
CONTINUOUS
100
AcDbLine
 10
43.57899999995641
 20
7.001674108297943
 30
0.0
 11
44.99999999995498
 21
8.422674108296516
 31
0.0
  0
LINE
  5
2454F
330
24537
100
AcDbEntity
  8
0
  6
CONTINUOUS
100
AcDbLine
 10
43.57899999995641
 20
6.328154899217758
 30
0.0
 11
44.99999999995498
 21
7.749154899216329
 31
0.0
  0
LINE
  5
24550
330
24537
100
AcDbEntity
  8
0
  6
CONTINUOUS
100
AcDbLine
 10
43.57899999995641
 20
5.654635690137571
 30
0.0
 11
44.99999999995498
 21
7.075635690136142
 31
0.0
  0
LINE
  5
24551
330
24537
100
AcDbEntity
  8
0
  6
CONTINUOUS
100
AcDbLine
 10
43.57899999995641
 20
4.981116481057384
 30
0.0
 11
44.99999999995498
 21
6.402116481055955
 31
0.0
  0
LINE
  5
24552
330
24537
100
AcDbEntity
  8
0
  6
CONTINUOUS
100
AcDbLine
 10
39.27140272797921
 20
-0.0000000000000009
 30
0.0
 11
40.02599999995994
 21
0.7545972719807246
 31
0.0
  0
LINE
  5
24553
330
24537
100
AcDbEntity
  8
0
  6
CONTINUOUS
100
AcDbLine
 10
39.9449219370594
 20
-0.0000000000000009
 30
0.0
 11
40.02599999995994
 21
0.0810780629005379
 31
0.0
  0
LINE
  5
24554
330
24537
100
AcDbEntity
  8
0
  6
CONTINUOUS
100
AcDbLine
 10
42.18817142235812
 20
2.916768694378905
 30
0.0
 11
43.16119791794597
 21
3.889795189966758
 31
0.0
  0
LINE
  5
24555
330
24537
100
AcDbEntity
  8
0
  6
CONTINUOUS
100
AcDbLine
 10
42.50563373493829
 20
2.560711797878898
 30
0.0
 11
43.47866023052615
 21
3.533738293466751
 31
0.0
  0
LINE
  5
24556
330
24537
100
AcDbEntity
  8
0
  6
CONTINUOUS
100
AcDbLine
 10
43.57899999995641
 20
4.307597271977198
 30
0.0
 11
44.99999999995498
 21
5.728597271975769
 31
0.0
  0
LINE
  5
24557
330
24537
100
AcDbEntity
  8
0
  6
CONTINUOUS
100
AcDbLine
 10
43.57899999995641
 20
3.634078062897011
 30
0.0
 11
44.99999999995498
 21
5.055078062895582
 31
0.0
  0
LINE
  5
24558
330
24537
100
AcDbEntity
  8
0
  6
CONTINUOUS
100
AcDbLine
 10
42.82309604751848
 20
2.204654901378891
 30
0.0
 11
44.99999999995498
 21
4.381558853815395
 31
0.0
  0
LINE
  5
24559
330
24537
100
AcDbEntity
  8
0
  6
CONTINUOUS
100
AcDbLine
 10
43.14055836009865
 20
1.848598004878885
 30
0.0
 11
44.99999999995498
 21
3.70803964473521
 31
0.0
  0
LINE
  5
2455A
330
24537
100
AcDbEntity
  8
0
  6
CONTINUOUS
100
AcDbLine
 10
43.45802067267883
 20
1.492541108378878
 30
0.0
 11
44.99999999995498
 21
3.034520435655023
 31
0.0
  0
LINE
  5
2455B
330
24537
100
AcDbEntity
  8
0
  6
CONTINUOUS
100
AcDbLine
 10
43.77548298525902
 20
1.136484211878871
 30
0.0
 11
44.99999999995498
 21
2.361001226574837
 31
0.0
  0
LINE
  5
2455C
330
24537
100
AcDbEntity
  8
0
  6
CONTINUOUS
100
AcDbLine
 10
44.09294529783919
 20
0.7804273153788639
 30
0.0
 11
44.99999999995498
 21
1.687482017494649
 31
0.0
  0
LINE
  5
2455D
330
24537
100
AcDbEntity
  8
0
  6
CONTINUOUS
100
AcDbLine
 10
44.41040761041938
 20
0.4243704188788566
 30
0.0
 11
44.99999999995498
 21
1.013962808414463
 31
0.0
  0
LINE
  5
2455E
330
24537
100
AcDbEntity
  8
0
  6
CONTINUOUS
100
AcDbLine
 10
44.72786992299955
 20
0.0683135223788494
 30
0.0
 11
44.99999999995498
 21
0.340443599334276
 31
0.0
  0
LINE
  5
2455F
330
24537
100
AcDbEntity
  8
0
  6
CONTINUOUS
100
AcDbLine
 10
39.12223903415696
 20
-0.0000000000000009
 30
0.0
 11
38.60499999996136
 21
0.5172390341955961
 31
0.0
  0
LINE
  5
24560
330
24537
100
AcDbEntity
  8
0
  6
CONTINUOUS
100
AcDbLine
 10
39.79575824323715
 20
-0.0000000000000009
 30
0.0
 11
38.60499999996136
 21
1.190758243275783
 31
0.0
  0
LINE
  5
24561
330
24537
100
AcDbEntity
  8
0
  6
CONTINUOUS
100
AcDbLine
 10
40.02599999995994
 20
0.443277452357397
 30
0.0
 11
38.60499999996136
 21
1.864277452355969
 31
0.0
  0
LINE
  5
24562
330
24537
100
AcDbEntity
  8
0
  6
CONTINUOUS
100
AcDbLine
 10
40.02599999995994
 20
1.116796661437583
 30
0.0
 11
38.60499999996136
 21
2.537796661436155
 31
0.0
  0
LINE
  5
24563
330
24537
100
AcDbEntity
  8
0
  6
CONTINUOUS
100
AcDbLine
 10
40.02599999995994
 20
1.79031587051777
 30
0.0
 11
38.60499999996136
 21
3.211315870516341
 31
0.0
  0
LINE
  5
24564
330
24537
100
AcDbEntity
  8
0
  6
CONTINUOUS
100
AcDbLine
 10
40.02599999995994
 20
2.463835079597956
 30
0.0
 11
38.60499999996136
 21
3.884835079596527
 31
0.0
  0
LINE
  5
24565
330
24537
100
AcDbEntity
  8
0
  6
CONTINUOUS
100
AcDbLine
 10
40.02599999995994
 20
3.137354288678143
 30
0.0
 11
38.60499999996136
 21
4.558354288676714
 31
0.0
  0
LINE
  5
24566
330
24537
100
AcDbEntity
  8
0
  6
CONTINUOUS
100
AcDbLine
 10
40.02599999995994
 20
3.810873497758329
 30
0.0
 11
38.60499999996136
 21
5.2318734977569
 31
0.0
  0
LINE
  5
24567
330
24537
100
AcDbEntity
  8
0
  6
CONTINUOUS
100
AcDbLine
 10
40.02599999995994
 20
4.484392706838515
 30
0.0
 11
38.60499999996136
 21
5.905392706837086
 31
0.0
  0
LINE
  5
24568
330
24537
100
AcDbEntity
  8
0
  6
CONTINUOUS
100
AcDbLine
 10
44.99999999995498
 20
0.183911915923658
 30
0.0
 11
41.53858364506288
 21
3.64532827081576
 31
0.0
  0
LINE
  5
24569
330
24537
100
AcDbEntity
  8
0
  6
CONTINUOUS
100
AcDbLine
 10
40.02599999995994
 20
5.157911915918703
 30
0.0
 11
38.60499999996136
 21
6.578911915917274
 31
0.0
  0
LINE
  5
2456A
330
24537
100
AcDbEntity
  8
0
  6
CONTINUOUS
100
AcDbLine
 10
44.99999999995498
 20
0.8574311250038447
 30
0.0
 11
38.60499999996136
 21
7.25243112499746
 31
0.0
  0
LINE
  5
2456B
330
24537
100
AcDbEntity
  8
0
  6
CONTINUOUS
100
AcDbLine
 10
44.99999999995498
 20
1.530950334084031
 30
0.0
 11
38.60499999996136
 21
7.925950334077647
 31
0.0
  0
LINE
  5
2456C
330
24537
100
AcDbEntity
  8
0
  6
CONTINUOUS
100
AcDbLine
 10
44.99999999995498
 20
2.204469543164218
 30
0.0
 11
43.57899999995641
 21
3.625469543162789
 31
0.0
  0
LINE
  5
2456D
330
24537
100
AcDbEntity
  8
0
  6
CONTINUOUS
100
AcDbLine
 10
41.89876730984767
 20
5.305702233271528
 30
0.0
 11
38.60499999996136
 21
8.599469543157834
 31
0.0
  0
LINE
  5
2456E
330
24537
100
AcDbEntity
  8
0
  6
CONTINUOUS
100
AcDbLine
 10
44.99999999995498
 20
2.877988752244405
 30
0.0
 11
43.57899999995641
 21
4.298988752242975
 31
0.0
  0
LINE
  5
2456F
330
24537
100
AcDbEntity
  8
0
  6
CONTINUOUS
100
AcDbLine
 10
44.99999999995498
 20
3.551507961324591
 30
0.0
 11
43.57899999995641
 21
4.972507961323163
 31
0.0
  0
LINE
  5
24570
330
24537
100
AcDbEntity
  8
0
  6
CONTINUOUS
100
AcDbLine
 10
44.99999999995498
 20
4.225027170404777
 30
0.0
 11
43.57899999995641
 21
5.646027170403348
 31
0.0
  0
LINE
  5
24571
330
24537
100
AcDbEntity
  8
0
  6
CONTINUOUS
100
AcDbLine
 10
44.99999999995498
 20
4.898546379484964
 30
0.0
 11
43.57899999995641
 21
6.319546379483535
 31
0.0
  0
LINE
  5
24572
330
24537
100
AcDbEntity
  8
0
  6
CONTINUOUS
100
AcDbLine
 10
44.99999999995498
 20
5.572065588565151
 30
0.0
 11
43.57899999995641
 21
6.993065588563722
 31
0.0
  0
LINE
  5
24573
330
24537
100
AcDbEntity
  8
0
  6
CONTINUOUS
100
AcDbLine
 10
44.99999999995498
 20
6.245584797645336
 30
0.0
 11
43.57899999995641
 21
7.666584797643908
 31
0.0
  0
LINE
  5
24574
330
24537
100
AcDbEntity
  8
0
  6
CONTINUOUS
100
AcDbLine
 10
44.99999999995498
 20
6.919104006725522
 30
0.0
 11
43.57899999995641
 21
8.340104006724093
 31
0.0
  0
LINE
  5
24575
330
24537
100
AcDbEntity
  8
0
  6
CONTINUOUS
100
AcDbLine
 10
44.99999999995498
 20
7.592623215805709
 30
0.0
 11
43.82952321576943
 21
8.763099999991255
 31
0.0
  0
LINE
  5
24576
330
24537
100
AcDbEntity
  8
0
  6
CONTINUOUS
100
AcDbLine
 10
44.99999999995498
 20
8.266142424885896
 30
0.0
 11
44.50304242484962
 21
8.763099999991255
 31
0.0
  0
ENDBLK
  5
245A0
330
24537
100
AcDbEntity
  8
0
100
AcDbBlockEnd
  0
BLOCK
  5
245A1
330
24577
100
AcDbEntity
  8
0
100
AcDbBlockBegin
  2
*X25
 70
     1
 10
0.0
 20
0.0
 30
0.0
  3
*X25
  1

  0
LINE
  5
24578
330
24577
100
AcDbEntity
  8
0
  6
CONTINUOUS
100
AcDbLine
 10
0.0
 20
8.548461116714023
 30
0.0
 11
0.2146388832772324
 21
8.763099999991255
 31
0.0
  0
LINE
  5
24579
330
24577
100
AcDbEntity
  8
0
  6
CONTINUOUS
100
AcDbLine
 10
-0.0000000000000002
 20
7.874941907633837
 30
0.0
 11
0.8881580923574184
 21
8.763099999991255
 31
0.0
  0
LINE
  5
2457A
330
24577
100
AcDbEntity
  8
0
  6
CONTINUOUS
100
AcDbLine
 10
0.0
 20
7.20142269855365
 30
0.0
 11
1.420999999998572
 21
8.622422698552223
 31
0.0
  0
LINE
  5
2457B
330
24577
100
AcDbEntity
  8
0
  6
CONTINUOUS
100
AcDbLine
 10
-0.0000000000000001
 20
6.527903489473465
 30
0.0
 11
1.420999999998571
 21
7.948903489472036
 31
0.0
  0
LINE
  5
2457C
330
24577
100
AcDbEntity
  8
0
  6
CONTINUOUS
100
AcDbLine
 10
-0.0000000000000002
 20
5.854384280393278
 30
0.0
 11
1.420999999998571
 21
7.275384280391849
 31
0.0
  0
LINE
  5
2457D
330
24577
100
AcDbEntity
  8
0
  6
CONTINUOUS
100
AcDbLine
 10
-0.0000000000000002
 20
5.180865071313091
 30
0.0
 11
1.420999999998571
 21
6.601865071311663
 31
0.0
  0
LINE
  5
2457E
330
24577
100
AcDbEntity
  8
0
  6
CONTINUOUS
100
AcDbLine
 10
0.0
 20
4.507345862232905
 30
0.0
 11
1.420999999998571
 21
5.928345862231477
 31
0.0
  0
LINE
  5
2457F
330
24577
100
AcDbEntity
  8
0
  6
CONTINUOUS
100
AcDbLine
 10
-0.0000000000000003
 20
3.833826653152718
 30
0.0
 11
1.420999999998571
 21
5.25482665315129
 31
0.0
  0
LINE
  5
24580
330
24577
100
AcDbEntity
  8
0
  6
CONTINUOUS
100
AcDbLine
 10
-0.0000000000000002
 20
3.160307444072532
 30
0.0
 11
1.420999999998571
 21
4.581307444071103
 31
0.0
  0
LINE
  5
24581
330
24577
100
AcDbEntity
  8
0
  6
CONTINUOUS
100
AcDbLine
 10
-0.0000000000000001
 20
2.486788234992345
 30
0.0
 11
1.420999999998571
 21
3.907788234990917
 31
0.0
  0
LINE
  5
24582
330
24577
100
AcDbEntity
  8
0
  6
CONTINUOUS
100
AcDbLine
 10
-0.0000000000000006
 20
1.813269025912159
 30
0.0
 11
1.420999999998571
 21
3.234269025910731
 31
0.0
  0
LINE
  5
24583
330
24577
100
AcDbEntity
  8
0
  6
CONTINUOUS
100
AcDbLine
 10
0.0
 20
1.139749816831973
 30
0.0
 11
1.420999999998571
 21
2.560749816830544
 31
0.0
  0
LINE
  5
24584
330
24577
100
AcDbEntity
  8
0
  6
CONTINUOUS
100
AcDbLine
 10
0.0000000000000002
 20
0.466230607751787
 30
0.0
 11
1.420999999998571
 21
1.887230607750358
 31
0.0
  0
LINE
  5
24585
330
24577
100
AcDbEntity
  8
0
  6
CONTINUOUS
100
AcDbLine
 10
0.2072886013284003
 20
-0.0000000000000009
 30
0.0
 11
1.420999999998571
 21
1.213711398670171
 31
0.0
  0
LINE
  5
24586
330
24577
100
AcDbEntity
  8
0
  6
CONTINUOUS
100
AcDbLine
 10
0.8808078104085864
 20
-0.0000000000000009
 30
0.0
 11
1.420999999998571
 21
0.5401921895899839
 31
0.0
  0
LINE
  5
24587
330
24577
100
AcDbEntity
  8
0
  6
CONTINUOUS
100
AcDbLine
 10
0.0581249075061505
 20
-0.0000000000000009
 30
0.0
 11
-0.0000000000000002
 21
0.0581249075061496
 31
0.0
  0
LINE
  5
24588
330
24577
100
AcDbEntity
  8
0
  6
CONTINUOUS
100
AcDbLine
 10
0.7316441165863372
 20
-0.0000000000000009
 30
0.0
 11
-0.0000000000000002
 21
0.7316441165863363
 31
0.0
  0
LINE
  5
24589
330
24577
100
AcDbEntity
  8
0
  6
CONTINUOUS
100
AcDbLine
 10
1.405163325666523
 20
-0.0000000000000009
 30
0.0
 11
-0.0000000000000002
 21
1.405163325666523
 31
0.0
  0
LINE
  5
2458A
330
24577
100
AcDbEntity
  8
0
  6
CONTINUOUS
100
AcDbLine
 10
1.420999999998572
 20
0.6576825347481381
 30
0.0
 11
-0.0000000000000001
 21
2.07868253474671
 31
0.0
  0
LINE
  5
2458B
330
24577
100
AcDbEntity
  8
0
  6
CONTINUOUS
100
AcDbLine
 10
1.420999999998571
 20
1.331201743828324
 30
0.0
 11
-0.0000000000000001
 21
2.752201743826896
 31
0.0
  0
LINE
  5
2458C
330
24577
100
AcDbEntity
  8
0
  6
CONTINUOUS
100
AcDbLine
 10
1.420999999998571
 20
2.004720952908511
 30
0.0
 11
-0.0000000000000002
 21
3.425720952907082
 31
0.0
  0
LINE
  5
2458D
330
24577
100
AcDbEntity
  8
0
  6
CONTINUOUS
100
AcDbLine
 10
1.420999999998571
 20
2.678240161988697
 30
0.0
 11
-0.0000000000000001
 21
4.099240161987269
 31
0.0
  0
LINE
  5
2458E
330
24577
100
AcDbEntity
  8
0
  6
CONTINUOUS
100
AcDbLine
 10
1.420999999998572
 20
3.351759371068884
 30
0.0
 11
0.0
 21
4.772759371067455
 31
0.0
  0
LINE
  5
2458F
330
24577
100
AcDbEntity
  8
0
  6
CONTINUOUS
100
AcDbLine
 10
1.420999999998571
 20
4.02527858014907
 30
0.0
 11
-0.0000000000000003
 21
5.446278580147642
 31
0.0
  0
LINE
  5
24590
330
24577
100
AcDbEntity
  8
0
  6
CONTINUOUS
100
AcDbLine
 10
1.420999999998571
 20
4.698797789229257
 30
0.0
 11
0.0
 21
6.119797789227828
 31
0.0
  0
LINE
  5
24591
330
24577
100
AcDbEntity
  8
0
  6
CONTINUOUS
100
AcDbLine
 10
1.420999999998571
 20
5.372316998309444
 30
0.0
 11
-0.0000000000000001
 21
6.793316998308015
 31
0.0
  0
LINE
  5
24592
330
24577
100
AcDbEntity
  8
0
  6
CONTINUOUS
100
AcDbLine
 10
1.420999999998572
 20
6.045836207389629
 30
0.0
 11
-0.0000000000000004
 21
7.466836207388202
 31
0.0
  0
LINE
  5
24593
330
24577
100
AcDbEntity
  8
0
  6
CONTINUOUS
100
AcDbLine
 10
1.420999999998571
 20
6.719355416469816
 30
0.0
 11
0.0
 21
8.140355416468388
 31
0.0
  0
LINE
  5
24594
330
24577
100
AcDbEntity
  8
0
  6
CONTINUOUS
100
AcDbLine
 10
1.420999999998571
 20
7.392874625550003
 30
0.0
 11
0.0507746255573185
 21
8.763099999991255
 31
0.0
  0
LINE
  5
24595
330
24577
100
AcDbEntity
  8
0
  6
CONTINUOUS
100
AcDbLine
 10
1.420999999998571
 20
8.06639383463019
 30
0.0
 11
0.7242938346375052
 21
8.763099999991255
 31
0.0
  0
LINE
  5
24596
330
24577
100
AcDbEntity
  8
0
  6
CONTINUOUS
100
AcDbLine
 10
1.420999999998571
 20
8.739913043710375
 30
0.0
 11
1.397813043717691
 21
8.763099999991255
 31
0.0
  0
ENDBLK
  5
245A2
330
24577
100
AcDbEntity
  8
0
100
AcDbBlockEnd
  0
ENDSEC
  0
SECTION
  2
ENTITIES
  0
LINE
  5
22DD1
330
18
100
AcDbEntity
  8
01
  6
CONTINUOUS
100
AcDbLine
 10
638.0162416153646
 20
-751.1213303512666
 30
0.0
 11
638.0162416153646
 21
-511.6213303512666
 31
0.0
  0
LINE
  5
22DD2
330
18
100
AcDbEntity
  8
01
  6
CONTINUOUS
100
AcDbLine
 10
623.0162416153646
 20
-752.1213303512666
 30
0.0
 11
637.0162416153646
 21
-752.1213303512666
 31
0.0
  0
ARC
  5
22DD3
330
18
100
AcDbEntity
  8
01
  6
CONTINUOUS
100
AcDbCircle
 10
637.0162416153646
 20
-751.1213303512666
 30
0.0
 40
1.0
100
AcDbArc
 50
270.0
 51
0.0
  0
ARC
  5
22DD4
330
18
100
AcDbEntity
  8
01
  6
CONTINUOUS
100
AcDbCircle
 10
623.0162416153646
 20
-751.1213303512666
 30
0.0
 40
1.0
100
AcDbArc
 50
180.0
 51
270.0
  0
LINE
  5
22DD5
330
18
100
AcDbEntity
  8
01
  6
CONTINUOUS
100
AcDbLine
 10
622.0162416153646
 20
-511.6213303512666
 30
0.0
 11
622.0162416153646
 21
-751.1213303512666
 31
0.0
  0
ARC
  5
22DD6
330
18
100
AcDbEntity
  8
01
100
AcDbCircle
 10
623.0162416153646
 20
-790.7953243780628
 30
0.0
 40
1.0
100
AcDbArc
 50
180.0
 51
270.0
  0
ARC
  5
22DD7
330
18
100
AcDbEntity
  8
01
100
AcDbCircle
 10
623.0162416153646
 20
-771.7953243780628
 30
0.0
 40
1.0
100
AcDbArc
 50
90.0
 51
180.0
  0
ARC
  5
22DD8
330
18
100
AcDbEntity
  8
01
100
AcDbCircle
 10
637.0162416153646
 20
-790.7953243780628
 30
0.0
 40
1.0
100
AcDbArc
 50
270.0
 51
0.0
  0
ARC
  5
22DD9
330
18
100
AcDbEntity
  8
01
100
AcDbCircle
 10
637.0162416153646
 20
-771.7953243780628
 30
0.0
 40
1.0
100
AcDbArc
 50
0.0
 51
90.0
  0
LINE
  5
22DDE
330
18
100
AcDbEntity
  8
01
100
AcDbLine
 10
916.1619393889291
 20
-791.7953243780628
 30
0.0
 11
702.1903665136754
 21
-791.7953243780628
 31
0.0
  0
ARC
  5
22DDF
330
18
100
AcDbEntity
  8
01
100
AcDbCircle
 10
916.1619393889291
 20
-793.7953243780628
 30
0.0
 40
2.0
100
AcDbArc
 50
45.00000000000949
 51
90.0
  0
LINE
  5
22DE0
330
18
100
AcDbEntity
  8
01
100
AcDbLine
 10
700.1903665136754
 20
-789.7953243780628
 30
0.0
 11
700.1903665136754
 21
-772.7953243780628
 31
0.0
  0
ARC
  5
22DE1
330
18
100
AcDbEntity
  8
01
100
AcDbCircle
 10
702.1903665136754
 20
-789.7953243780628
 30
0.0
 40
2.0
100
AcDbArc
 50
180.0
 51
270.0
  0
ARC
  5
22DE2
330
18
100
AcDbEntity
  8
01
100
AcDbCircle
 10
702.1903665136754
 20
-772.7953243780628
 30
0.0
 40
2.0
100
AcDbArc
 50
90.0
 51
180.0
  0
LINE
  5
22DE3
330
18
100
AcDbEntity
  8
01
100
AcDbLine
 10
702.8903665136752
 20
-788.095324378063
 30
0.0
 11
702.8903665136752
 21
-774.4953243780626
 31
0.0
  0
ARC
  5
22DE4
330
18
100
AcDbEntity
  8
1PHANTOM
100
AcDbCircle
 10
704.6903665136754
 20
-775.2953243780628
 30
0.0
 40
1.0
100
AcDbArc
 50
90.0
 51
180.0
  0
LINE
  5
22DE5
330
18
100
AcDbEntity
  8
01
100
AcDbLine
 10
703.8903665136752
 20
-773.4953243780626
 30
0.0
 11
717.4903665136756
 21
-773.4953243780626
 31
0.0
  0
ARC
  5
22DE6
330
18
100
AcDbEntity
  8
01
100
AcDbCircle
 10
703.8903665136752
 20
-774.4953243780626
 30
0.0
 40
1.0
100
AcDbArc
 50
90.0
 51
180.0
  0
LINE
  5
22DE7
330
18
100
AcDbEntity
  8
01
100
AcDbLine
 10
718.4903665136756
 20
-788.095324378063
 30
0.0
 11
718.4903665136756
 21
-774.4953243780626
 31
0.0
  0
ARC
  5
22DE8
330
18
100
AcDbEntity
  8
01
100
AcDbCircle
 10
717.4903665136756
 20
-774.4953243780626
 30
0.0
 40
1.0
100
AcDbArc
 50
0.0
 51
90.0
  0
ARC
  5
22DE9
330
18
100
AcDbEntity
  8
01
100
AcDbCircle
 10
717.4903665136756
 20
-788.095324378063
 30
0.0
 40
1.0
100
AcDbArc
 50
270.0
 51
0.0
  0
LINE
  5
22DEA
330
18
100
AcDbEntity
  8
01
100
AcDbLine
 10
703.8903665136752
 20
-789.095324378063
 30
0.0
 11
717.4903665136756
 21
-789.095324378063
 31
0.0
  0
ARC
  5
22DEB
330
18
100
AcDbEntity
  8
01
100
AcDbCircle
 10
703.8903665136752
 20
-788.095324378063
 30
0.0
 40
1.0
100
AcDbArc
 50
180.0
 51
270.0
  0
LINE
  5
22DEC
330
18
100
AcDbEntity
  8
01
100
AcDbLine
 10
702.1903665136754
 20
-770.7953243780628
 30
0.0
 11
940.6903665136756
 21
-770.7953243780628
 31
0.0
  0
LINE
  5
22DED
330
18
100
AcDbEntity
  8
01
100
AcDbLine
 10
917.5761529513024
 20
-792.3811108156895
 30
0.0
 11
922.9903665136758
 21
-797.7953243780628
 31
0.0
  0
LINE
  5
22DEE
330
18
100
AcDbEntity
  8
01
100
AcDbLine
 10
925.6903665136756
 20
-797.7953243780628
 30
0.0
 11
925.6903665136756
 21
-916.7953243780628
 31
0.0
  0
LINE
  5
22DEF
330
18
100
AcDbEntity
  8
01
100
AcDbLine
 10
925.6903665136756
 20
-797.7953243780628
 30
0.0
 11
922.9903665136758
 21
-797.7953243780628
 31
0.0
  0
LINE
  5
22DF0
330
18
100
AcDbEntity
  8
01
100
AcDbLine
 10
842.8903665136754
 20
-788.095324378063
 30
0.0
 11
842.8903665136754
 21
-774.4953243780626
 31
0.0
  0
LINE
  5
22DF1
330
18
100
AcDbEntity
  8
01
100
AcDbLine
 10
857.4903665136758
 20
-789.095324378063
 30
0.0
 11
843.8903665136754
 21
-789.095324378063
 31
0.0
  0
ARC
  5
22DF2
330
18
100
AcDbEntity
  8
01
100
AcDbCircle
 10
843.8903665136754
 20
-788.095324378063
 30
0.0
 40
1.0
100
AcDbArc
 50
180.0
 51
270.0
  0
LINE
  5
22DF3
330
18
100
AcDbEntity
  8
01
100
AcDbLine
 10
925.6903665136756
 20
-916.7953243780628
 30
0.0
 11
940.6903665136756
 21
-916.7953243780628
 31
0.0
  0
LINE
  5
22DF4
330
18
100
AcDbEntity
  8
01
100
AcDbLine
 10
940.6903665136756
 20
-916.7953243780628
 30
0.0
 11
940.6903665136756
 21
-770.7953243780628
 31
0.0
  0
LINE
  5
22DF5
330
18
100
AcDbEntity
  8
01
100
AcDbLine
 10
858.4903665136758
 20
-788.095324378063
 30
0.0
 11
858.4903665136758
 21
-774.4953243780626
 31
0.0
  0
ARC
  5
22DF6
330
18
100
AcDbEntity
  8
01
100
AcDbCircle
 10
857.4903665136758
 20
-788.095324378063
 30
0.0
 40
1.0
100
AcDbArc
 50
270.0
 51
0.0
  0
ARC
  5
22DF7
330
18
100
AcDbEntity
  8
01
100
AcDbCircle
 10
857.4903665136758
 20
-774.4953243780626
 30
0.0
 40
1.0
100
AcDbArc
 50
0.0
 51
90.0
  0
LINE
  5
22DF8
330
18
100
AcDbEntity
  8
01
100
AcDbLine
 10
857.4903665136758
 20
-773.4953243780626
 30
0.0
 11
843.8903665136754
 21
-773.4953243780626
 31
0.0
  0
ARC
  5
22DF9
330
18
100
AcDbEntity
  8
01
100
AcDbCircle
 10
843.8903665136754
 20
-774.4953243780626
 30
0.0
 40
1.0
100
AcDbArc
 50
90.0
 51
180.0
  0
LINE
  5
22DFA
330
18
100
AcDbEntity
  8
1CENTER
100
AcDbLine
 10
630.0162416153646
 20
-796.7093545668971
 30
0.0
 11
630.0162416153646
 21
-919.5187726992169
 31
0.0
  0
LINE
  5
22DFB
330
18
100
AcDbEntity
  8
1CENTER
100
AcDbLine
 10
620.3983972948574
 20
-902.2953243780628
 30
0.0
 11
640.2224256721659
 21
-902.2953243780628
 31
0.0
  0
LINE
  5
22DFC
330
18
100
AcDbEntity
  8
1CENTER
100
AcDbLine
 10
620.3983972948574
 20
-872.2953243780628
 30
0.0
 11
640.2224256721659
 21
-872.2953243780628
 31
0.0
  0
LINE
  5
22DFD
330
18
100
AcDbEntity
  8
1CENTER
100
AcDbLine
 10
620.3983972948574
 20
-842.2953243780628
 30
0.0
 11
640.2224256721659
 21
-842.2953243780628
 31
0.0
  0
LINE
  5
22DFE
330
18
100
AcDbEntity
  8
1CENTER
100
AcDbLine
 10
620.3983972948574
 20
-812.2953243780628
 30
0.0
 11
640.2224256721659
 21
-812.2953243780628
 31
0.0
  0
LINE
  5
22DFF
330
18
100
AcDbEntity
  8
01
100
AcDbLine
 10
638.0162416153646
 20
-915.7953243780628
 30
0.0
 11
638.0162416153646
 21
-771.7953243780628
 31
0.0
  0
ARC
  5
22E01
330
18
100
AcDbEntity
  8
01
100
AcDbCircle
 10
637.0162416153646
 20
-915.7953243780628
 30
0.0
 40
1.0
100
AcDbArc
 50
270.0
 51
0.0
  0
LINE
  5
22E02
330
18
100
AcDbEntity
  8
01
100
AcDbLine
 10
622.0162416153646
 20
-915.7953243780628
 30
0.0
 11
622.0162416153646
 21
-771.7953243780628
 31
0.0
  0
LINE
  5
22E04
330
18
100
AcDbEntity
  8
01
100
AcDbLine
 10
637.0162416153646
 20
-791.7953243780628
 30
0.0
 11
623.0162416153646
 21
-791.7953243780628
 31
0.0
  0
LINE
  5
22E05
330
18
100
AcDbEntity
  8
01
100
AcDbLine
 10
622.0162416153637
 20
-797.7953243780628
 30
0.0
 11
638.0162416153637
 21
-797.7953243780628
 31
0.0
  0
LINE
  5
22E06
330
18
100
AcDbEntity
  8
01
100
AcDbLine
 10
637.0162416153646
 20
-770.7953243780628
 30
0.0
 11
623.0162416153646
 21
-770.7953243780628
 31
0.0
  0
LINE
  5
22E07
330
18
100
AcDbEntity
  8
01
100
AcDbLine
 10
637.0162416153646
 20
-916.7953243780628
 30
0.0
 11
623.0162416153646
 21
-916.7953243780628
 31
0.0
  0
ARC
  5
22E08
330
18
100
AcDbEntity
  8
01
100
AcDbCircle
 10
623.0162416153646
 20
-915.7953243780628
 30
0.0
 40
1.0
100
AcDbArc
 50
180.0
 51
270.0
  0
LINE
  5
22E09
330
18
100
AcDbEntity
  8
01
100
AcDbLine
 10
622.0162416153646
 20
-511.6213303512666
 30
0.0
 11
638.0162416153646
 21
-511.6213303512666
 31
0.0
  0
LINE
  5
22E0B
330
18
100
AcDbEntity
  8
1PHANTOM
100
AcDbLine
 10
856.6903665136747
 20
-774.2953243780632
 30
0.0
 11
844.6903665136747
 21
-774.2953243780632
 31
0.0
  0
LINE
  5
22E0C
330
18
100
AcDbEntity
  8
1PHANTOM
100
AcDbLine
 10
856.6903665136747
 20
-788.2953243780632
 30
0.0
 11
844.6903665136747
 21
-788.2953243780632
 31
0.0
  0
ARC
  5
22E0D
330
18
100
AcDbEntity
  8
1PHANTOM
100
AcDbCircle
 10
844.6903665136747
 20
-787.2953243780632
 30
0.0
 40
1.0
100
AcDbArc
 50
180.0
 51
270.0
  0
LINE
  5
22E0E
330
18
100
AcDbEntity
  8
1PHANTOM
100
AcDbLine
 10
843.6903665136747
 20
-775.2953243780632
 30
0.0
 11
843.6903665136747
 21
-787.2953243780632
 31
0.0
  0
ARC
  5
22E0F
330
18
100
AcDbEntity
  8
1PHANTOM
100
AcDbCircle
 10
844.6903665136747
 20
-775.2953243780632
 30
0.0
 40
1.0
100
AcDbArc
 50
90.0
 51
180.0
  0
LINE
  5
22E10
330
18
100
AcDbEntity
  8
1PHANTOM
100
AcDbLine
 10
857.6903665136747
 20
-775.2953243780632
 30
0.0
 11
857.6903665136747
 21
-787.2953243780632
 31
0.0
  0
ARC
  5
22E11
330
18
100
AcDbEntity
  8
1PHANTOM
100
AcDbCircle
 10
856.6903665136747
 20
-787.2953243780632
 30
0.0
 40
1.0
100
AcDbArc
 50
270.0
 51
0.0
  0
ARC
  5
22E12
330
18
100
AcDbEntity
  8
1PHANTOM
100
AcDbCircle
 10
856.6903665136747
 20
-775.2953243780632
 30
0.0
 40
1.0
100
AcDbArc
 50
0.0
 51
90.0
  0
LINE
  5
22E13
330
18
100
AcDbEntity
  8
1PHANTOM
100
AcDbLine
 10
704.6903665136754
 20
-774.2953243780632
 30
0.0
 11
716.6903665136754
 21
-774.2953243780632
 31
0.0
  0
LINE
  5
22E14
330
18
100
AcDbEntity
  8
1PHANTOM
100
AcDbLine
 10
704.6903665136754
 20
-788.2953243780632
 30
0.0
 11
716.6903665136754
 21
-788.2953243780632
 31
0.0
  0
ARC
  5
22E15
330
18
100
AcDbEntity
  8
1PHANTOM
100
AcDbCircle
 10
716.6903665136754
 20
-787.2953243780632
 30
0.0
 40
1.0
100
AcDbArc
 50
270.0
 51
0.0
  0
LINE
  5
22E16
330
18
100
AcDbEntity
  8
1PHANTOM
100
AcDbLine
 10
717.6903665136754
 20
-775.2953243780632
 30
0.0
 11
717.6903665136754
 21
-787.2953243780632
 31
0.0
  0
ARC
  5
22E17
330
18
100
AcDbEntity
  8
1PHANTOM
100
AcDbCircle
 10
716.6903665136754
 20
-775.2953243780632
 30
0.0
 40
1.0
100
AcDbArc
 50
0.0
 51
90.0
  0
LINE
  5
22E18
330
18
100
AcDbEntity
  8
1PHANTOM
100
AcDbLine
 10
703.6903665136754
 20
-775.2953243780632
 30
0.0
 11
703.6903665136754
 21
-787.2953243780632
 31
0.0
  0
ARC
  5
22E19
330
18
100
AcDbEntity
  8
1PHANTOM
100
AcDbCircle
 10
704.6903665136754
 20
-787.2953243780632
 30
0.0
 40
1.0
100
AcDbArc
 50
180.0
 51
270.0
  0
ARC
  5
22E4C
330
18
100
AcDbEntity
  8
01
  6
CONTINUOUS
100
AcDbCircle
 10
674.3615127155902
 20
-774.7953243780628
 30
0.0
 40
0.5000000000000221
100
AcDbArc
 50
2.606995111243481
 51
90.0
  0
ARC
  5
22E51
330
18
100
AcDbEntity
  8
01
  6
CONTINUOUS
100
AcDbCircle
 10
525.0162416153646
 20
-781.595324378063
 30
0.0
 40
150.0
100
AcDbArc
 50
357.3930048887565
 51
2.606995111243481
  0
ARC
  5
22E52
330
18
100
AcDbEntity
  8
01
  6
CONTINUOUS
100
AcDbCircle
 10
674.3615127155902
 20
-788.3953243780632
 30
0.0
 40
0.5000000000000221
100
AcDbArc
 50
270.0
 51
357.3930048887565
  0
LINE
  5
22E5E
330
18
100
AcDbEntity
  8
01
  6
CONTINUOUS
100
AcDbLine
 10
670.0162416153646
 20
-788.8953243780632
 30
0.0
 11
674.3615127155902
 21
-788.8953243780632
 31
0.0
  0
LINE
  5
22E5F
330
18
100
AcDbEntity
  8
01
  6
CONTINUOUS
100
AcDbLine
 10
674.3615127155902
 20
-774.2953243780628
 30
0.0
 11
670.0162416153646
 21
-774.2953243780628
 31
0.0
  0
ARC
  5
22E77
330
18
100
AcDbEntity
  8
01
  6
CONTINUOUS
100
AcDbCircle
 10
135.0162416153644
 20
-781.595324378063
 30
0.0
 40
150.0
100
AcDbArc
 50
177.3930048887565
 51
182.6069951112435
  0
ARC
  5
22E78
330
18
100
AcDbEntity
  8
01
  6
CONTINUOUS
100
AcDbCircle
 10
-14.32902948486162
 20
-774.7953243780628
 30
0.0
 40
0.4999999999999937
100
AcDbArc
 50
90.0
 51
177.3930048887565
  0
ARC
  5
22E79
330
18
100
AcDbEntity
  8
01
  6
CONTINUOUS
100
AcDbCircle
 10
-14.32902948486162
 20
-788.3953243780632
 30
0.0
 40
0.4999999999999937
100
AcDbArc
 50
182.6069951112435
 51
270.0
  0
LINE
  5
22E7A
330
18
100
AcDbEntity
  8
01
  6
CONTINUOUS
100
AcDbLine
 10
-9.983758384635621
 20
-788.8953243780632
 30
0.0
 11
-14.2084547321233
 21
-788.8953243780632
 31
0.0
  0
LINE
  5
22E7B
330
18
100
AcDbEntity
  8
01
  6
CONTINUOUS
100
AcDbLine
 10
-14.2084547321233
 20
-788.8953243780632
 30
0.0
 11
-14.32902948486162
 21
-788.8953243780632
 31
0.0
  0
LINE
  5
22E7C
330
18
100
AcDbEntity
  8
01
  6
CONTINUOUS
100
AcDbLine
 10
-9.983758384635621
 20
-774.2953243780628
 30
0.0
 11
-14.2084547321233
 21
-774.2953243780628
 31
0.0
  0
LINE
  5
22E7E
330
18
100
AcDbEntity
  8
01
  6
CONTINUOUS
100
AcDbLine
 10
-14.2084547321233
 20
-774.2953243780628
 30
0.0
 11
-14.32902948486162
 21
-774.2953243780628
 31
0.0
  0
LINE
  5
22E89
330
18
100
AcDbEntity
  8
01
100
AcDbLine
 10
670.0162416153646
 20
-734.0213303512667
 30
0.0
 11
670.0162416153646
 21
-748.6213303512666
 31
0.0
  0
ARC
  5
22E8A
330
18
100
AcDbEntity
  8
01
  6
CONTINUOUS
100
AcDbCircle
 10
-14.32902948486139
 20
-734.5213303512662
 30
0.0
 40
0.5000000000000221
100
AcDbArc
 50
90.0
 51
177.3930048887565
  0
ARC
  5
22E8B
330
18
100
AcDbEntity
  8
01
  6
CONTINUOUS
100
AcDbCircle
 10
135.0162416153646
 20
-741.3213303512664
 30
0.0
 40
150.0
100
AcDbArc
 50
177.3930048887565
 51
182.6069951112435
  0
ARC
  5
22E8C
330
18
100
AcDbEntity
  8
01
  6
CONTINUOUS
100
AcDbCircle
 10
-14.32902948486139
 20
-748.1213303512666
 30
0.0
 40
0.5000000000000221
100
AcDbArc
 50
182.6069951112435
 51
270.0
  0
LINE
  5
22E8D
330
18
100
AcDbEntity
  8
01
  6
CONTINUOUS
100
AcDbLine
 10
-9.983758384635394
 20
-748.6213303512666
 30
0.0
 11
-9.983758384635394
 21
-734.0213303512667
 31
0.0
  0
LINE
  5
22E8E
330
18
100
AcDbEntity
  8
01
  6
CONTINUOUS
100
AcDbLine
 10
-9.983758384635394
 20
-748.6213303512666
 30
0.0
 11
-14.32902948486139
 21
-748.6213303512666
 31
0.0
  0
LINE
  5
22E8F
330
18
100
AcDbEntity
  8
01
  6
CONTINUOUS
100
AcDbLine
 10
-14.32902948486139
 20
-734.0213303512662
 30
0.0
 11
-9.983758384635394
 21
-734.0213303512662
 31
0.0
  0
ARC
  5
22E90
330
18
100
AcDbEntity
  8
01
  6
CONTINUOUS
100
AcDbCircle
 10
525.0162416153646
 20
-741.3213303512664
 30
0.0
 40
150.0
100
AcDbArc
 50
357.3930048887565
 51
2.606995111243481
  0
ARC
  5
22E91
330
18
100
AcDbEntity
  8
01
  6
CONTINUOUS
100
AcDbCircle
 10
674.3615127155906
 20
-734.5213303512662
 30
0.0
 40
0.4999999999999937
100
AcDbArc
 50
2.606995111243481
 51
90.0
  0
ARC
  5
22E92
330
18
100
AcDbEntity
  8
01
  6
CONTINUOUS
100
AcDbCircle
 10
674.3615127155906
 20
-748.1213303512666
 30
0.0
 40
0.4999999999999937
100
AcDbArc
 50
270.0
 51
357.3930048887565
  0
LINE
  5
22E93
330
18
100
AcDbEntity
  8
01
  6
CONTINUOUS
100
AcDbLine
 10
670.0162416153646
 20
-748.6213303512666
 30
0.0
 11
674.2409379628523
 21
-748.6213303512666
 31
0.0
  0
LINE
  5
22E94
330
18
100
AcDbEntity
  8
01
  6
CONTINUOUS
100
AcDbLine
 10
674.2409379628523
 20
-748.6213303512666
 30
0.0
 11
674.3615127155906
 21
-748.6213303512666
 31
0.0
  0
LINE
  5
22E95
330
18
100
AcDbEntity
  8
01
  6
CONTINUOUS
100
AcDbLine
 10
670.0162416153646
 20
-734.0213303512662
 30
0.0
 11
674.2409379628523
 21
-734.0213303512662
 31
0.0
  0
LINE
  5
22E97
330
18
100
AcDbEntity
  8
01
  6
CONTINUOUS
100
AcDbLine
 10
674.2409379628523
 20
-734.0213303512662
 30
0.0
 11
674.3615127155906
 21
-734.0213303512662
 31
0.0
  0
ARC
  5
22E98
330
18
100
AcDbEntity
  8
01
100
AcDbCircle
 10
23.01624161536461
 20
-790.7953243780628
 30
0.0
 40
1.0
100
AcDbArc
 50
180.0
 51
270.0
  0
ARC
  5
22E99
330
18
100
AcDbEntity
  8
01
100
AcDbCircle
 10
23.01624161536461
 20
-771.7953243780628
 30
0.0
 40
1.0
100
AcDbArc
 50
90.0
 51
180.0
  0
ARC
  5
22E9A
330
18
100
AcDbEntity
  8
01
100
AcDbCircle
 10
37.01624161536461
 20
-790.7953243780628
 30
0.0
 40
1.0
100
AcDbArc
 50
270.0
 51
0.0
  0
ARC
  5
22E9B
330
18
100
AcDbEntity
  8
01
100
AcDbCircle
 10
37.01624161536461
 20
-771.7953243780628
 30
0.0
 40
1.0
100
AcDbArc
 50
0.0
 51
90.0
  0
LINE
  5
22EA0
330
18
100
AcDbEntity
  8
1CENTER
100
AcDbLine
 10
30.01624161536461
 20
-796.7093545668971
 30
0.0
 11
30.01624161536461
 21
-919.5187726992169
 31
0.0
  0
LINE
  5
22EA1
330
18
100
AcDbEntity
  8
1CENTER
100
AcDbLine
 10
20.39839729485743
 20
-902.2953243780628
 30
0.0
 11
40.22242567216585
 21
-902.2953243780628
 31
0.0
  0
LINE
  5
22EA2
330
18
100
AcDbEntity
  8
1CENTER
100
AcDbLine
 10
20.39839729485743
 20
-872.2953243780628
 30
0.0
 11
40.22242567216585
 21
-872.2953243780628
 31
0.0
  0
LINE
  5
22EA3
330
18
100
AcDbEntity
  8
1CENTER
100
AcDbLine
 10
20.39839729485743
 20
-842.2953243780628
 30
0.0
 11
40.22242567216585
 21
-842.2953243780628
 31
0.0
  0
LINE
  5
22EA4
330
18
100
AcDbEntity
  8
1CENTER
100
AcDbLine
 10
20.39839729485743
 20
-812.2953243780628
 30
0.0
 11
40.22242567216585
 21
-812.2953243780628
 31
0.0
  0
LINE
  5
22EA5
330
18
100
AcDbEntity
  8
01
100
AcDbLine
 10
38.01624161536461
 20
-915.7953243780628
 30
0.0
 11
38.01624161536461
 21
-771.7953243780628
 31
0.0
  0
ARC
  5
22EA7
330
18
100
AcDbEntity
  8
01
100
AcDbCircle
 10
37.01624161536461
 20
-915.7953243780628
 30
0.0
 40
1.0
100
AcDbArc
 50
270.0
 51
0.0
  0
LINE
  5
22EA8
330
18
100
AcDbEntity
  8
01
100
AcDbLine
 10
22.01624161536461
 20
-915.7953243780628
 30
0.0
 11
22.01624161536461
 21
-771.7953243780628
 31
0.0
  0
LINE
  5
22EAA
330
18
100
AcDbEntity
  8
01
100
AcDbLine
 10
37.01624161536461
 20
-791.7953243780628
 30
0.0
 11
23.01624161536461
 21
-791.7953243780628
 31
0.0
  0
LINE
  5
22EAB
330
18
100
AcDbEntity
  8
01
100
AcDbLine
 10
22.0162416153637
 20
-797.7953243780628
 30
0.0
 11
38.0162416153637
 21
-797.7953243780628
 31
0.0
  0
LINE
  5
22EAC
330
18
100
AcDbEntity
  8
01
100
AcDbLine
 10
37.01624161536461
 20
-770.7953243780628
 30
0.0
 11
23.01624161536461
 21
-770.7953243780628
 31
0.0
  0
LINE
  5
22EAD
330
18
100
AcDbEntity
  8
01
100
AcDbLine
 10
37.01624161536461
 20
-916.7953243780628
 30
0.0
 11
23.01624161536461
 21
-916.7953243780628
 31
0.0
  0
ARC
  5
22EAE
330
18
100
AcDbEntity
  8
01
100
AcDbCircle
 10
23.01624161536461
 20
-915.7953243780628
 30
0.0
 40
1.0
100
AcDbArc
 50
180.0
 51
270.0
  0
LINE
  5
22EB1
330
18
100
AcDbEntity
  8
01
  6
CONTINUOUS
100
AcDbLine
 10
38.0162416153637
 20
-751.1213303512666
 30
0.0
 11
38.0162416153637
 21
-511.6213303512666
 31
0.0
  0
LINE
  5
22EB2
330
18
100
AcDbEntity
  8
01
  6
CONTINUOUS
100
AcDbLine
 10
23.0162416153637
 20
-752.1213303512666
 30
0.0
 11
37.0162416153637
 21
-752.1213303512666
 31
0.0
  0
ARC
  5
22EB3
330
18
100
AcDbEntity
  8
01
  6
CONTINUOUS
100
AcDbCircle
 10
37.0162416153637
 20
-751.1213303512666
 30
0.0
 40
1.0
100
AcDbArc
 50
270.0
 51
0.0
  0
ARC
  5
22EB4
330
18
100
AcDbEntity
  8
01
  6
CONTINUOUS
100
AcDbCircle
 10
23.0162416153637
 20
-751.1213303512666
 30
0.0
 40
1.0
100
AcDbArc
 50
180.0
 51
270.0
  0
LINE
  5
22EB5
330
18
100
AcDbEntity
  8
01
  6
CONTINUOUS
100
AcDbLine
 10
22.0162416153637
 20
-511.6213303512666
 30
0.0
 11
22.0162416153637
 21
-751.1213303512666
 31
0.0
  0
LINE
  5
22EB6
330
18
100
AcDbEntity
  8
01
100
AcDbLine
 10
22.0162416153637
 20
-511.6213303512666
 30
0.0
 11
38.0162416153637
 21
-511.6213303512666
 31
0.0
  0
LINE
  5
22EBE
330
18
100
AcDbEntity
  8
01
100
AcDbLine
 10
670.0162416153646
 20
-593.0213303512667
 30
0.0
 11
670.0162416153646
 21
-607.6213303512666
 31
0.0
  0
ARC
  5
22EBF
330
18
100
AcDbEntity
  8
01
  6
CONTINUOUS
100
AcDbCircle
 10
-14.32902948486185
 20
-593.5213303512662
 30
0.0
 40
0.5000000000000221
100
AcDbArc
 50
90.0
 51
177.3930048887565
  0
ARC
  5
22EC0
330
18
100
AcDbEntity
  8
01
  6
CONTINUOUS
100
AcDbCircle
 10
135.0162416153642
 20
-600.3213303512664
 30
0.0
 40
150.0
100
AcDbArc
 50
177.3930048887565
 51
182.6069951112435
  0
ARC
  5
22EC1
330
18
100
AcDbEntity
  8
01
  6
CONTINUOUS
100
AcDbCircle
 10
-14.32902948486185
 20
-607.1213303512666
 30
0.0
 40
0.5000000000000221
100
AcDbArc
 50
182.6069951112435
 51
270.0
  0
LINE
  5
22EC2
330
18
100
AcDbEntity
  8
01
  6
CONTINUOUS
100
AcDbLine
 10
-9.983758384635848
 20
-607.6213303512666
 30
0.0
 11
-9.983758384635848
 21
-593.0213303512667
 31
0.0
  0
LINE
  5
22EC3
330
18
100
AcDbEntity
  8
01
  6
CONTINUOUS
100
AcDbLine
 10
-9.983758384635848
 20
-607.6213303512666
 30
0.0
 11
-14.32902948486185
 21
-607.6213303512666
 31
0.0
  0
LINE
  5
22EC4
330
18
100
AcDbEntity
  8
01
  6
CONTINUOUS
100
AcDbLine
 10
-14.32902948486185
 20
-593.0213303512662
 30
0.0
 11
-9.983758384635848
 21
-593.0213303512662
 31
0.0
  0
ARC
  5
22EC5
330
18
100
AcDbEntity
  8
01
  6
CONTINUOUS
100
AcDbCircle
 10
525.0162416153642
 20
-600.3213303512664
 30
0.0
 40
150.0
100
AcDbArc
 50
357.3930048887565
 51
2.606995111243481
  0
ARC
  5
22EC6
330
18
100
AcDbEntity
  8
01
  6
CONTINUOUS
100
AcDbCircle
 10
674.3615127155902
 20
-593.5213303512662
 30
0.0
 40
0.4999999999999937
100
AcDbArc
 50
2.606995111243481
 51
90.0
  0
ARC
  5
22EC7
330
18
100
AcDbEntity
  8
01
  6
CONTINUOUS
100
AcDbCircle
 10
674.3615127155902
 20
-607.1213303512666
 30
0.0
 40
0.4999999999999937
100
AcDbArc
 50
270.0
 51
357.3930048887565
  0
LINE
  5
22EC8
330
18
100
AcDbEntity
  8
01
  6
CONTINUOUS
100
AcDbLine
 10
670.0162416153646
 20
-607.6213303512666
 30
0.0
 11
674.2409379628518
 21
-607.6213303512666
 31
0.0
  0
LINE
  5
22EC9
330
18
100
AcDbEntity
  8
01
  6
CONTINUOUS
100
AcDbLine
 10
674.2409379628518
 20
-607.6213303512666
 30
0.0
 11
674.3615127155902
 21
-607.6213303512666
 31
0.0
  0
LINE
  5
22ECA
330
18
100
AcDbEntity
  8
01
  6
CONTINUOUS
100
AcDbLine
 10
670.0162416153646
 20
-593.0213303512662
 30
0.0
 11
674.2409379628518
 21
-593.0213303512662
 31
0.0
  0
LINE
  5
22ECC
330
18
100
AcDbEntity
  8
01
  6
CONTINUOUS
100
AcDbLine
 10
674.2409379628518
 20
-593.0213303512662
 30
0.0
 11
674.3615127155902
 21
-593.0213303512662
 31
0.0
  0
LINE
  5
22F3E
330
18
100
AcDbEntity
  8
01
100
AcDbLine
 10
670.0162416153646
 20
-774.2953243780628
 30
0.0
 11
670.0162416153646
 21
-788.8953243780632
 31
0.0
  0
LINE
  5
22F3F
330
18
100
AcDbEntity
  8
01
100
AcDbLine
 10
-9.983758384635621
 20
-774.2953243780628
 30
0.0
 11
-9.983758384635621
 21
-788.8953243780632
 31
0.0
  0
LINE
  5
22F40
330
18
100
AcDbEntity
  8
01
  6
CONTINUOUS
100
AcDbLine
 10
922.9903665136758
 20
-798.7953243780628
 30
0.0
 11
922.9903665136758
 21
-915.7953243780628
 31
0.0
  0
ARC
  5
22F42
330
18
100
AcDbEntity
  8
01
  6
CONTINUOUS
100
AcDbCircle
 10
923.9903665136758
 20
-798.7953243780628
 30
0.0
 40
1.0
100
AcDbArc
 50
90.0
 51
180.0
  0
LINE
  5
22F44
330
18
100
AcDbEntity
  8
01
  6
CONTINUOUS
100
AcDbLine
 10
925.6903665136756
 20
-916.7953243780628
 30
0.0
 11
923.9903665136758
 21
-916.7953243780628
 31
0.0
  0
ARC
  5
22F45
330
18
100
AcDbEntity
  8
01
  6
CONTINUOUS
100
AcDbCircle
 10
923.9903665136758
 20
-915.7953243780628
 30
0.0
 40
1.0
100
AcDbArc
 50
180.0
 51
270.0
  0
LINE
  5
22F5B
102
{ACAD_REACTORS
330
22F61
102
}
330
18
100
AcDbEntity
  8
01
100
AcDbLine
 10
936.6903665136756
 20
-902.7953242311671
 30
0.0
 11
937.6903665136756
 21
-901.7953245311671
 31
0.0
  0
LINE
  5
22F5C
102
{ACAD_REACTORS
330
22F61
102
}
330
18
100
AcDbEntity
  8
01
100
AcDbLine
 10
936.6903665136756
 20
-906.0953243811671
 30
0.0
 11
937.6903665136756
 21
-906.0953243811671
 31
0.0
  0
LINE
  5
22F5D
102
{ACAD_REACTORS
330
22F61
102
}
330
18
100
AcDbEntity
  8
01
100
AcDbLine
 10
937.6903665136756
 20
-906.0953243811671
 30
0.0
 11
937.6903665136756
 21
-898.4953243811672
 31
0.0
  0
LINE
  5
22F5E
102
{ACAD_REACTORS
330
22F61
102
}
330
18
100
AcDbEntity
  8
01
100
AcDbLine
 10
936.6903665136756
 20
-906.0953243811671
 30
0.0
 11
936.6903665136756
 21
-898.4953243811672
 31
0.0
  0
LINE
  5
22F5F
102
{ACAD_REACTORS
330
22F61
102
}
330
18
100
AcDbEntity
  8
01
100
AcDbLine
 10
936.6903665136756
 20
-898.4953243811672
 30
0.0
 11
937.6903665136756
 21
-898.4953243811672
 31
0.0
  0
LINE
  5
22F62
102
{ACAD_REACTORS
330
22F68
102
}
330
18
100
AcDbEntity
  8
01
100
AcDbLine
 10
936.6903665136756
 20
-872.7953242311671
 30
0.0
 11
937.6903665136756
 21
-871.7953245311671
 31
0.0
  0
LINE
  5
22F63
102
{ACAD_REACTORS
330
22F68
102
}
330
18
100
AcDbEntity
  8
01
100
AcDbLine
 10
936.6903665136756
 20
-876.0953243811671
 30
0.0
 11
937.6903665136756
 21
-876.0953243811671
 31
0.0
  0
LINE
  5
22F64
102
{ACAD_REACTORS
330
22F68
102
}
330
18
100
AcDbEntity
  8
01
100
AcDbLine
 10
937.6903665136756
 20
-876.0953243811671
 30
0.0
 11
937.6903665136756
 21
-868.4953243811672
 31
0.0
  0
LINE
  5
22F65
102
{ACAD_REACTORS
330
22F68
102
}
330
18
100
AcDbEntity
  8
01
100
AcDbLine
 10
936.6903665136756
 20
-876.0953243811671
 30
0.0
 11
936.6903665136756
 21
-868.4953243811672
 31
0.0
  0
LINE
  5
22F66
102
{ACAD_REACTORS
330
22F68
102
}
330
18
100
AcDbEntity
  8
01
100
AcDbLine
 10
936.6903665136756
 20
-868.4953243811672
 30
0.0
 11
937.6903665136756
 21
-868.4953243811672
 31
0.0
  0
LINE
  5
22F69
102
{ACAD_REACTORS
330
22F6F
102
}
330
18
100
AcDbEntity
  8
01
100
AcDbLine
 10
936.6903665136756
 20
-842.7953242311671
 30
0.0
 11
937.6903665136756
 21
-841.7953245311671
 31
0.0
  0
LINE
  5
22F6A
102
{ACAD_REACTORS
330
22F6F
102
}
330
18
100
AcDbEntity
  8
01
100
AcDbLine
 10
936.6903665136756
 20
-846.0953243811671
 30
0.0
 11
937.6903665136756
 21
-846.0953243811671
 31
0.0
  0
LINE
  5
22F6B
102
{ACAD_REACTORS
330
22F6F
102
}
330
18
100
AcDbEntity
  8
01
100
AcDbLine
 10
937.6903665136756
 20
-846.0953243811671
 30
0.0
 11
937.6903665136756
 21
-838.4953243811672
 31
0.0
  0
LINE
  5
22F6C
102
{ACAD_REACTORS
330
22F6F
102
}
330
18
100
AcDbEntity
  8
01
100
AcDbLine
 10
936.6903665136756
 20
-846.0953243811671
 30
0.0
 11
936.6903665136756
 21
-838.4953243811672
 31
0.0
  0
LINE
  5
22F6D
102
{ACAD_REACTORS
330
22F6F
102
}
330
18
100
AcDbEntity
  8
01
100
AcDbLine
 10
936.6903665136756
 20
-838.4953243811672
 30
0.0
 11
937.6903665136756
 21
-838.4953243811672
 31
0.0
  0
LINE
  5
22F70
102
{ACAD_REACTORS
330
22F76
102
}
330
18
100
AcDbEntity
  8
01
100
AcDbLine
 10
936.6903665136756
 20
-812.7953242311671
 30
0.0
 11
937.6903665136756
 21
-811.7953245311671
 31
0.0
  0
LINE
  5
22F71
102
{ACAD_REACTORS
330
22F76
102
}
330
18
100
AcDbEntity
  8
01
100
AcDbLine
 10
936.6903665136756
 20
-816.0953243811671
 30
0.0
 11
937.6903665136756
 21
-816.0953243811671
 31
0.0
  0
LINE
  5
22F72
102
{ACAD_REACTORS
330
22F76
102
}
330
18
100
AcDbEntity
  8
01
100
AcDbLine
 10
937.6903665136756
 20
-816.0953243811671
 30
0.0
 11
937.6903665136756
 21
-808.4953243811672
 31
0.0
  0
LINE
  5
22F73
102
{ACAD_REACTORS
330
22F76
102
}
330
18
100
AcDbEntity
  8
01
100
AcDbLine
 10
936.6903665136756
 20
-816.0953243811671
 30
0.0
 11
936.6903665136756
 21
-808.4953243811672
 31
0.0
  0
LINE
  5
22F74
102
{ACAD_REACTORS
330
22F76
102
}
330
18
100
AcDbEntity
  8
01
100
AcDbLine
 10
936.6903665136756
 20
-808.4953243811672
 30
0.0
 11
937.6903665136756
 21
-808.4953243811672
 31
0.0
  0
LINE
  5
22F77
102
{ACAD_REACTORS
330
22FC2
102
}
330
18
100
AcDbEntity
  8
01
100
AcDbLine
 10
953.1903665136756
 20
-762.7329498367288
 30
0.0
 11
953.1903665136756
 21
-919.7025594432838
 31
0.0
  0
LINE
  5
22F78
102
{ACAD_REACTORS
330
22FC2
102
}
330
18
100
AcDbEntity
  8
01
100
AcDbLine
 10
962.1903665136756
 20
-762.7329498367288
 30
0.0
 11
962.1903665136756
 21
-919.7025594432838
 31
0.0
  0
LINE
  5
22F79
102
{ACAD_REACTORS
330
22FC2
102
}
330
18
100
AcDbEntity
  8
01
100
AcDbLine
 10
940.6903665136756
 20
-762.7329498367288
 30
0.0
 11
940.6903665136756
 21
-919.7025594432838
 31
0.0
  0
LINE
  5
230B7
102
{ACAD_REACTORS
330
230BD
102
}
330
18
100
AcDbEntity
  8
01
100
AcDbLine
 10
630.5162414684689
 20
-515.6213303512666
 30
0.0
 11
629.516241768469
 21
-514.6213303512666
 31
0.0
  0
LINE
  5
230B8
102
{ACAD_REACTORS
330
230BD
102
}
330
18
100
AcDbEntity
  8
01
100
AcDbLine
 10
633.8162416184689
 20
-515.6213303512666
 30
0.0
 11
633.8162416184689
 21
-514.6213303512666
 31
0.0
  0
LINE
  5
230B9
102
{ACAD_REACTORS
330
230BD
102
}
330
18
100
AcDbEntity
  8
01
100
AcDbLine
 10
633.8162416184689
 20
-514.6213303512666
 30
0.0
 11
626.216241618469
 21
-514.6213303512666
 31
0.0
  0
LINE
  5
230BA
102
{ACAD_REACTORS
330
230BD
102
}
330
18
100
AcDbEntity
  8
01
100
AcDbLine
 10
633.8162416184689
 20
-515.6213303512666
 30
0.0
 11
626.216241618469
 21
-515.6213303512666
 31
0.0
  0
LINE
  5
230BB
102
{ACAD_REACTORS
330
230BD
102
}
330
18
100
AcDbEntity
  8
01
100
AcDbLine
 10
626.216241618469
 20
-515.6213303512666
 30
0.0
 11
626.216241618469
 21
-514.6213303512666
 31
0.0
  0
LINE
  5
230BE
102
{ACAD_REACTORS
330
230C4
102
}
330
18
100
AcDbEntity
  8
01
100
AcDbLine
 10
30.51624146846893
 20
-515.6213303512666
 30
0.0
 11
29.51624176846894
 21
-514.6213303512666
 31
0.0
  0
LINE
  5
230BF
102
{ACAD_REACTORS
330
230C4
102
}
330
18
100
AcDbEntity
  8
01
100
AcDbLine
 10
33.81624161846889
 20
-515.6213303512666
 30
0.0
 11
33.81624161846889
 21
-514.6213303512666
 31
0.0
  0
LINE
  5
230C0
102
{ACAD_REACTORS
330
230C4
102
}
330
18
100
AcDbEntity
  8
01
100
AcDbLine
 10
33.81624161846889
 20
-514.6213303512666
 30
0.0
 11
26.21624161846898
 21
-514.6213303512666
 31
0.0
  0
LINE
  5
230C1
102
{ACAD_REACTORS
330
230C4
102
}
330
18
100
AcDbEntity
  8
01
100
AcDbLine
 10
33.81624161846889
 20
-515.6213303512666
 30
0.0
 11
26.21624161846898
 21
-515.6213303512666
 31
0.0
  0
LINE
  5
230C2
102
{ACAD_REACTORS
330
230C4
102
}
330
18
100
AcDbEntity
  8
01
100
AcDbLine
 10
26.21624161846898
 20
-515.6213303512666
 30
0.0
 11
26.21624161846898
 21
-514.6213303512666
 31
0.0
  0
TEXT
  5
2370D
330
18
100
AcDbEntity
  8
1TEXT
100
AcDbText
 10
404.0526795745234
 20
-484.0254414905759
 30
0.0
 40
15.9999999984
  1
SC-97D-X
100
AcDbText
  0
LINE
  5
2370E
330
18
100
AcDbEntity
  8
1DIM
100
AcDbLine
 10
404.0526795745234
 20
-508.0254414881759
 30
0.0
 11
474.052679567523
 21
-508.0254414881759
 31
0.0
  0
LINE
  5
2370F
330
18
100
AcDbEntity
  8
1DIM
100
AcDbLine
 10
474.0526795675239
 20
-508.0254414881759
 30
0.0
 11
614.0526795535254
 21
-508.0254414881759
 31
0.0
  0
TEXT
  5
23710
330
18
100
AcDbEntity
  8
1TEXT
100
AcDbText
 10
409.584161055452
 20
-505.0254414884758
 30
0.0
 40
7.9999999992
  1
表面処理:本体
 72
     1
 11
439.0526795710236
 21
-505.0254414884758
 31
0.0
100
AcDbText
  0
LINE
  5
23711
330
18
100
AcDbEntity
  8
1DIM
100
AcDbLine
 10
404.0526795745234
 20
-494.0254414895759
 30
0.0
 11
474.0526795675239
 21
-494.0254414895759
 31
0.0
  0
LINE
  5
23712
330
18
100
AcDbEntity
  8
1DIM
100
AcDbLine
 10
474.0526795675239
 20
-494.0254414895759
 30
0.0
 11
614.0526795535254
 21
-494.0254414895761
 31
0.0
  0
TEXT
  5
23713
330
18
100
AcDbEntity
  8
1TEXT
100
AcDbText
 10
565.1193462250844
 20
-505.0254414884758
 30
0.0
 40
7.9999999992
  1
コード
 72
     1
 11
578.8526795570444
 21
-505.0254414884758
 31
0.0
100
AcDbText
  0
LINE
  5
23714
330
18
100
AcDbEntity
  8
1DIM
100
AcDbLine
 10
474.0526795675239
 20
-522.0254414867767
 30
0.0
 11
614.0526795535254
 21
-522.0254414867751
 31
0.0
  0
TEXT
  5
23715
330
18
100
AcDbEntity
  8
1TEXT
100
AcDbText
 10
420.1193462395836
 20
-518.9812315270495
 30
0.0
 40
7.9999999992
  1
クローム
 72
     1
 11
439.0526795710236
 21
-518.9812315270495
 31
0.0
100
AcDbText
  0
LINE
  5
23716
330
18
100
AcDbEntity
  8
1DIM
100
AcDbLine
 10
474.0526795675239
 20
-494.0254414895759
 30
0.0
 11
474.0526795675239
 21
-536.0254414853774
 31
0.0
  0
LINE
  5
23717
330
18
100
AcDbEntity
  8
1DIM
100
AcDbLine
 10
614.052679553525
 20
-494.0254414895759
 30
0.0
 11
614.052679553525
 21
-536.0254414853783
 31
0.0
  0
LINE
  5
23718
330
18
100
AcDbEntity
  8
1DIM
100
AcDbLine
 10
404.0526795745234
 20
-494.0254414895759
 30
0.0
 11
404.0526795745234
 21
-536.0254414853774
 31
0.0
  0
TEXT
  5
23719
330
18
100
AcDbEntity
  8
1TEXT
100
AcDbText
 10
554.5847165965101
 20
-519.454155454332
 30
0.0
 40
7.9999999992
  1
SC-97D-XC
 41
0.7
 72
     1
 11
578.8526795570463
 21
-519.454155454332
 31
0.0
100
AcDbText
  0
LINE
  5
2371A
330
18
100
AcDbEntity
  8
1DIM
100
AcDbLine
 10
404.0526795745207
 20
-522.0254414867767
 30
0.0
 11
474.0526795675221
 21
-522.0254414867776
 31
0.0
  0
TEXT
  5
2371B
330
18
100
AcDbEntity
  8
1TEXT
100
AcDbText
 10
474.6508277156125
 20
-505.0254414884758
 30
0.0
 40
7.9999999992
  1
表面処理:レール
 72
     1
 11
509.0526795640242
 21
-505.0254414884758
 31
0.0
100
AcDbText
  0
TEXT
  5
2371C
330
18
100
AcDbEntity
  8
1TEXT
100
AcDbText
 10
500.3860128982242
 20
-518.9812315270495
 30
0.0
 40
7.9999999992
  1
鏡面
 72
     1
 11
509.0526795640242
 21
-518.9812315270495
 31
0.0
100
AcDbText
  0
LINE
  5
2371D
330
18
100
AcDbEntity
  8
1DIM
100
AcDbLine
 10
544.0526795605244
 20
-494.0254414895759
 30
0.0
 11
544.0526795605244
 21
-536.0254414853783
 31
0.0
  0
LINE
  5
2371E
330
18
100
AcDbEntity
  8
1DIM
100
AcDbLine
 10
474.0526795675239
 20
-536.0254414853774
 30
0.0
 11
614.0526795535254
 21
-536.0254414853758
 31
0.0
  0
TEXT
  5
2371F
330
18
100
AcDbEntity
  8
1TEXT
100
AcDbText
 10
476.5193462339451
 20
-532.9812315256512
 30
0.0
 40
7.9999999992
  1
マットブラック
 72
     1
 11
509.0526795640251
 21
-532.9812315256512
 31
0.0
100
AcDbText
  0
TEXT
  5
23720
330
18
100
AcDbEntity
  8
1TEXT
100
AcDbText
 10
552.7180499300301
 20
-533.4541554529327
 30
0.0
 40
7.9999999992
  1
SC-97D-003
 41
0.7
 72
     1
 11
578.8526795570463
 21
-533.4541554529327
 31
0.0
100
AcDbText
  0
LINE
  5
23721
330
18
100
AcDbEntity
  8
1DIM
100
AcDbLine
 10
404.0526795745207
 20
-536.0254414853774
 30
0.0
 11
474.0526795675221
 21
-536.0254414853783
 31
0.0
  0
LINE
  5
23EDE
330
18
100
AcDbEntity
  8
01
100
AcDbLine
 10
670.0162416153646
 20
-774.5953243780632
 30
0.0
 11
638.0162416153645
 21
-774.5953243780632
 31
0.0
  0
LINE
  5
23EDF
330
18
100
AcDbEntity
  8
01
100
AcDbLine
 10
670.0162416153646
 20
-788.5953243780632
 30
0.0
 11
638.0162416153646
 21
-788.5953243780633
 31
0.0
  0
LINE
  5
23EE0
330
18
100
AcDbEntity
  8
01
100
AcDbLine
 10
-9.983758384635394
 20
-734.3213303512666
 30
0.0
 11
22.0162416153637
 21
-734.3213303512666
 31
0.0
  0
LINE
  5
23EE1
330
18
100
AcDbEntity
  8
01
100
AcDbLine
 10
-9.98375838463538
 20
-748.3213303512665
 30
0.0
 11
22.0162416153637
 21
-748.3213303512665
 31
0.0
  0
LINE
  5
23EE2
330
18
100
AcDbEntity
  8
01
100
AcDbLine
 10
-9.983758384635848
 20
-593.3213303512666
 30
0.0
 11
22.0162416153637
 21
-593.3213303512666
 31
0.0
  0
LINE
  5
23EE3
330
18
100
AcDbEntity
  8
01
100
AcDbLine
 10
-9.983758384635848
 20
-607.3213303512666
 30
0.0
 11
22.0162416153637
 21
-607.3213303512666
 31
0.0
  0
LINE
  5
23F02
330
18
100
AcDbEntity
  8
01
100
AcDbLine
 10
622.0162416153646
 20
-788.5953243780633
 30
0.0
 11
38.01624161536461
 21
-788.5953243780631
 31
0.0
  0
LINE
  5
23F03
330
18
100
AcDbEntity
  8
01
100
AcDbLine
 10
622.0162416153645
 20
-774.5953243780632
 30
0.0
 11
38.01624161536461
 21
-774.5953243780631
 31
0.0
  0
LINE
  5
23F04
330
18
100
AcDbEntity
  8
01
100
AcDbLine
 10
638.0162416153646
 20
-748.3213303512666
 30
0.0
 11
670.0162416153646
 21
-748.3213303512666
 31
0.0
  0
LINE
  5
23F05
330
18
100
AcDbEntity
  8
01
100
AcDbLine
 10
638.0162416153646
 20
-734.3213303512666
 30
0.0
 11
670.0162416153646
 21
-734.3213303512666
 31
0.0
  0
LINE
  5
23F06
330
18
100
AcDbEntity
  8
01
100
AcDbLine
 10
638.0162416153646
 20
-607.3213303512666
 30
0.0
 11
670.0162416153646
 21
-607.3213303512666
 31
0.0
  0
LINE
  5
23F07
330
18
100
AcDbEntity
  8
01
100
AcDbLine
 10
638.0162416153647
 20
-593.3213303512666
 30
0.0
 11
670.0162416153646
 21
-593.3213303512666
 31
0.0
  0
LINE
  5
23F08
330
18
100
AcDbEntity
  8
01
100
AcDbLine
 10
22.0162416153646
 20
-788.5953243780631
 30
0.0
 11
-9.983758384635625
 21
-788.5953243780631
 31
0.0
  0
LINE
  5
23F09
330
18
100
AcDbEntity
  8
01
100
AcDbLine
 10
22.0162416153646
 20
-774.5953243780631
 30
0.0
 11
-9.983758384635653
 21
-774.5953243780632
 31
0.0
  0
LINE
  5
23F0A
330
18
100
AcDbEntity
  8
01
100
AcDbLine
 10
38.0162416153637
 20
-748.3213303512665
 30
0.0
 11
622.0162416153646
 21
-748.3213303512666
 31
0.0
  0
LINE
  5
23F0B
330
18
100
AcDbEntity
  8
01
100
AcDbLine
 10
38.01624161536369
 20
-734.3213303512666
 30
0.0
 11
622.0162416153646
 21
-734.3213303512666
 31
0.0
  0
LINE
  5
23F0C
330
18
100
AcDbEntity
  8
01
100
AcDbLine
 10
38.0162416153637
 20
-607.3213303512666
 30
0.0
 11
622.0162416153646
 21
-607.3213303512666
 31
0.0
  0
LINE
  5
23F0D
330
18
100
AcDbEntity
  8
01
100
AcDbLine
 10
38.0162416153637
 20
-593.3213303512666
 30
0.0
 11
622.0162416153646
 21
-593.3213303512666
 31
0.0
  0
LINE
  5
23F0E
330
18
100
AcDbEntity
  8
1PHANTOM
100
AcDbLine
 10
622.0162416153645
 20
-773.5953243780632
 30
0.0
 11
38.01624161536461
 21
-773.5953243780631
 31
0.0
  0
LINE
  5
23F0F
330
18
100
AcDbEntity
  8
1PHANTOM
100
AcDbLine
 10
38.01624161536369
 20
-733.3213303512666
 30
0.0
 11
622.0162416153646
 21
-733.3213303512666
 31
0.0
  0
LINE
  5
23F10
330
18
100
AcDbEntity
  8
1PHANTOM
100
AcDbLine
 10
38.0162416153637
 20
-749.3213303512665
 30
0.0
 11
622.0162416153646
 21
-749.3213303512666
 31
0.0
  0
LINE
  5
23F11
330
18
100
AcDbEntity
  8
1PHANTOM
100
AcDbLine
 10
38.0162416153637
 20
-592.3213303512666
 30
0.0
 11
622.0162416153646
 21
-592.3213303512666
 31
0.0
  0
LINE
  5
23F12
330
18
100
AcDbEntity
  8
1PHANTOM
100
AcDbLine
 10
38.0162416153637
 20
-608.3213303512666
 30
0.0
 11
622.0162416153646
 21
-608.3213303512666
 31
0.0
  0
TEXT
  5
23FBE
330
18
100
AcDbEntity
  8
1TEXT
100
AcDbText
 10
406.5193462409418
 20
-532.9812315256503
 30
0.0
 40
7.9999999992
  1
マットブラック
 72
     1
 11
439.0526795710218
 21
-532.9812315256503
 31
0.0
100
AcDbText
  0
CIRCLE
  5
240A0
330
18
100
AcDbEntity
  8
1PHANTOM
100
AcDbCircle
 10
630.0162416153646
 20
-812.2953243780628
 30
0.0
 40
2.25
  0
CIRCLE
  5
240A1
330
18
100
AcDbEntity
  8
1PHANTOM
100
AcDbCircle
 10
630.0162416153646
 20
-842.2953243780628
 30
0.0
 40
2.25
  0
CIRCLE
  5
240A2
330
18
100
AcDbEntity
  8
1PHANTOM
100
AcDbCircle
 10
630.0162416153646
 20
-872.2953243780628
 30
0.0
 40
2.25
  0
CIRCLE
  5
240A3
330
18
100
AcDbEntity
  8
1PHANTOM
100
AcDbCircle
 10
630.0162416153646
 20
-902.2953243780628
 30
0.0
 40
2.25
  0
CIRCLE
  5
240A4
330
18
100
AcDbEntity
  8
1PHANTOM
100
AcDbCircle
 10
30.01624161536461
 20
-812.2953243780628
 30
0.0
 40
2.25
  0
CIRCLE
  5
240A5
330
18
100
AcDbEntity
  8
1PHANTOM
100
AcDbCircle
 10
30.01624161536461
 20
-842.2953243780628
 30
0.0
 40
2.25
  0
CIRCLE
  5
240A6
330
18
100
AcDbEntity
  8
1PHANTOM
100
AcDbCircle
 10
30.01624161536461
 20
-872.2953243780628
 30
0.0
 40
2.25
  0
CIRCLE
  5
240A7
330
18
100
AcDbEntity
  8
1PHANTOM
100
AcDbCircle
 10
30.01624161536461
 20
-902.2953243780628
 30
0.0
 40
2.25
  0
TEXT
  5
2415F
330
18
100
AcDbEntity
  8
01
  6
CONTINUOUS
100
AcDbText
 10
943.9434833529073
 20
-744.7394043330419
 30
0.0
 40
7.0
  1
PB
100
AcDbText
  0
TEXT
  5
24160
330
18
100
AcDbEntity
  8
01
  6
CONTINUOUS
100
AcDbText
 10
969.5885554899787
 20
-744.774419346252
 30
0.0
 40
7.0
  1
合板9mm以上
100
AcDbText
  0
LINE
  5
24167
330
18
100
AcDbEntity
  8
1CENTER
100
AcDbLine
 10
726.7659553471218
 20
-788.3709132115098
 30
0.0
 11
718.1174787217913
 21
-779.7224365861791
 31
0.0
  0
LINE
  5
24169
330
18
100
AcDbEntity
  8
1HATCH
100
AcDbLine
 10
724.2007741537611
 20
-789.3412659240818
 30
0.0
 11
717.1297063418956
 21
-782.2701981122162
 31
0.0
  0
LINE
  5
2416A
330
18
100
AcDbEntity
  8
1HATCH
100
AcDbLine
 10
727.7363080596939
 20
-785.0986252369626
 30
0.0
 11
723.4936673725746
 21
-789.3412659240818
 31
0.0
  0
LINE
  5
2416B
330
18
100
AcDbEntity
  8
1HATCH
100
AcDbLine
 10
727.7363080596939
 20
-785.805732018149
 30
0.0
 11
720.6652402478284
 21
-778.7346642062835
 31
0.0
  0
LINE
  5
2416C
330
18
100
AcDbEntity
  8
1HATCH
100
AcDbLine
 10
721.3723470290149
 20
-778.7346642062836
 30
0.0
 11
717.1297063418957
 21
-782.9773048934028
 31
0.0
  0
LINE
  5
2416D
330
18
100
AcDbEntity
  8
1CENTER
100
AcDbLine
 10
835.6147776802292
 20
-787.3709132115092
 30
0.0
 11
844.2632543055597
 21
-778.7224365861787
 31
0.0
  0
LINE
  5
2416F
330
18
100
AcDbEntity
  8
1HATCH
100
AcDbLine
 10
838.1799588735898
 20
-788.3412659240813
 30
0.0
 11
845.2510266854554
 21
-781.2701981122158
 31
0.0
  0
LINE
  5
24170
330
18
100
AcDbEntity
  8
1HATCH
100
AcDbLine
 10
834.6444249676571
 20
-784.0986252369621
 30
0.0
 11
838.8870656547764
 21
-788.3412659240813
 31
0.0
  0
LINE
  5
24171
330
18
100
AcDbEntity
  8
1HATCH
100
AcDbLine
 10
834.6444249676571
 20
-784.8057320181485
 30
0.0
 11
841.7154927795226
 21
-777.734664206283
 31
0.0
  0
LINE
  5
24172
330
18
100
AcDbEntity
  8
1HATCH
100
AcDbLine
 10
841.008385998336
 20
-777.7346642062831
 30
0.0
 11
845.2510266854553
 21
-781.9773048934023
 31
0.0
  0
LINE
  5
24173
330
18
100
AcDbEntity
  8
0
100
AcDbLine
 10
971.6903665135133
 20
-902.2953709139607
 30
0.0
 11
966.3903700036516
 21
-900.7953709139607
 31
0.0
  0
LINE
  5
24174
330
18
100
AcDbEntity
  8
0
100
AcDbLine
 10
966.3903700036516
 20
-900.7953709139607
 30
0.0
 11
936.6903700037597
 21
-900.7953709139609
 31
0.0
  0
LINE
  5
24175
330
18
100
AcDbEntity
  8
0
100
AcDbLine
 10
971.6903665135133
 20
-902.2953709139607
 30
0.0
 11
966.3903630232679
 21
-903.7953709139608
 31
0.0
  0
LINE
  5
24176
330
18
100
AcDbEntity
  8
0
100
AcDbLine
 10
936.6903746574578
 20
-898.7953243780629
 30
0.0
 11
936.6903583698934
 21
-905.7953243780628
 31
0.0
  0
LINE
  5
24177
330
18
100
AcDbEntity
  8
0
100
AcDbLine
 10
966.3903630232679
 20
-903.7953709139608
 30
0.0
 11
936.690363023375
 21
-903.7953709139609
 31
0.0
  0
LINE
  5
24178
330
18
100
AcDbEntity
  8
0
100
AcDbLine
 10
936.6903746574578
 20
-898.7953243780629
 30
0.0
 11
935.5903711672624
 21
-898.7953243780628
 31
0.0
  0
ARC
  5
24179
330
18
100
AcDbEntity
  8
0
100
AcDbCircle
 10
935.5903711672624
 20
-900.2953243780628
 30
0.0
 40
1.5
100
AcDbArc
 50
90.0
 51
179.9998666844663
  0
LINE
  5
2417A
330
18
100
AcDbEntity
  8
0
100
AcDbLine
 10
936.6903583698934
 20
-905.7953243780628
 30
0.0
 11
935.5903618600828
 21
-905.7953243780628
 31
0.0
  0
LINE
  5
2417B
330
18
100
AcDbEntity
  8
0
100
AcDbLine
 10
934.0903711672665
 20
-900.2953208878704
 30
0.0
 11
934.0903618600869
 21
-904.2953208878704
 31
0.0
  0
ARC
  5
2417C
330
18
100
AcDbEntity
  8
0
100
AcDbCircle
 10
935.5903618600828
 20
-904.2953243780628
 30
0.0
 40
1.5
100
AcDbArc
 50
179.9998666844663
 51
270.0
  0
LINE
  5
2417D
330
18
100
AcDbEntity
  8
1CENTER
100
AcDbLine
 10
973.1211614309786
 20
-902.2953243780628
 30
0.0
 11
933.0200901043668
 21
-902.2953243780628
 31
0.0
  0
LINE
  5
2417E
330
18
100
AcDbEntity
  8
0
100
AcDbLine
 10
969.5903690598354
 20
-901.2010005640677
 30
0.0
 11
970.3903644938864
 21
-903.1633356529431
 31
0.0
  0
LINE
  5
2417F
330
18
100
AcDbEntity
  8
0
100
AcDbLine
 10
970.3903644938864
 20
-903.1633356529431
 30
0.0
 11
970.7021343501385
 21
-902.5750590779007
 31
0.0
  0
LINE
  5
24180
330
18
100
AcDbEntity
  8
0
100
AcDbLine
 10
947.1903711670454
 20
-900.2953709139607
 30
0.0
 11
947.9903618598637
 21
-904.2953709139607
 31
0.0
  0
LINE
  5
24181
330
18
100
AcDbEntity
  8
0
100
AcDbLine
 10
958.3903711670498
 20
-900.2953709139607
 30
0.0
 11
959.1903618598724
 21
-904.2953709139607
 31
0.0
  0
LINE
  5
24182
330
18
100
AcDbEntity
  8
0
100
AcDbLine
 10
961.5903711670499
 20
-900.2953709139607
 30
0.0
 11
962.3903618598724
 21
-904.2953709139607
 31
0.0
  0
LINE
  5
24183
330
18
100
AcDbEntity
  8
0
100
AcDbLine
 10
962.3903618598724
 20
-904.2953709139607
 30
0.0
 11
962.4903630232697
 21
-903.7953709139607
 31
0.0
  0
LINE
  5
24184
330
18
100
AcDbEntity
  8
0
100
AcDbLine
 10
963.0903700036527
 20
-900.7953709139607
 30
0.0
 11
963.1903711670499
 21
-900.2953709139607
 31
0.0
  0
LINE
  5
24185
330
18
100
AcDbEntity
  8
0
100
AcDbLine
 10
959.1903618598724
 20
-904.2953709139607
 30
0.0
 11
959.2903630232696
 21
-903.7953709139607
 31
0.0
  0
LINE
  5
24186
330
18
100
AcDbEntity
  8
0
100
AcDbLine
 10
960.7903618598725
 20
-904.2953709139607
 30
0.0
 11
960.8903630232696
 21
-903.7953709139607
 31
0.0
  0
LINE
  5
24187
330
18
100
AcDbEntity
  8
0
100
AcDbLine
 10
961.4903700036527
 20
-900.7953709139607
 30
0.0
 11
961.5903711670499
 21
-900.2953709139607
 31
0.0
  0
LINE
  5
24188
330
18
100
AcDbEntity
  8
0
100
AcDbLine
 10
959.8903700036528
 20
-900.7953709139607
 30
0.0
 11
959.99037116705
 21
-900.2953709139607
 31
0.0
  0
LINE
  5
24189
330
18
100
AcDbEntity
  8
0
100
AcDbLine
 10
959.99037116705
 20
-900.2953709139607
 30
0.0
 11
960.7903618598725
 21
-904.2953709139607
 31
0.0
  0
LINE
  5
2418A
330
18
100
AcDbEntity
  8
0
100
AcDbLine
 10
968.7903634402808
 20
-903.61614975735
 30
0.0
 11
968.9731275829088
 21
-903.0644002935467
 31
0.0
  0
LINE
  5
2418B
330
18
100
AcDbEntity
  8
0
100
AcDbLine
 10
965.5903618598725
 20
-904.2953709139607
 30
0.0
 11
965.6903630232696
 21
-903.7953709139607
 31
0.0
  0
LINE
  5
2418C
330
18
100
AcDbEntity
  8
0
100
AcDbLine
 10
963.9903618598725
 20
-904.2953709139607
 30
0.0
 11
964.0903630232694
 21
-903.7953709139607
 31
0.0
  0
LINE
  5
2418D
330
18
100
AcDbEntity
  8
0
100
AcDbLine
 10
967.1903623866751
 20
-904.0689638617567
 30
0.0
 11
967.319633084305
 21
-903.5323701264856
 31
0.0
  0
LINE
  5
2418E
330
18
100
AcDbEntity
  8
0
100
AcDbLine
 10
967.8776006010896
 20
-901.2162855111694
 30
0.0
 11
967.9903701134397
 21
-900.7481870560194
 31
0.0
  0
LINE
  5
2418F
330
18
100
AcDbEntity
  8
0
100
AcDbLine
 10
964.6903700036528
 20
-900.7953709139607
 30
0.0
 11
964.7903711670499
 21
-900.2953709139607
 31
0.0
  0
LINE
  5
24190
330
18
100
AcDbEntity
  8
0
100
AcDbLine
 10
966.2903700036527
 20
-900.7953709139607
 30
0.0
 11
966.3903711670498
 21
-900.2953709139607
 31
0.0
  0
LINE
  5
24191
330
18
100
AcDbEntity
  8
0
100
AcDbLine
 10
969.438933263395
 20
-901.6581724046988
 30
0.0
 11
969.5903690598354
 21
-901.2010005640677
 31
0.0
  0
LINE
  5
24192
330
18
100
AcDbEntity
  8
0
100
AcDbLine
 10
967.9903701134397
 20
-900.7481870560194
 30
0.0
 11
968.7903634402808
 21
-903.61614975735
 31
0.0
  0
LINE
  5
24193
330
18
100
AcDbEntity
  8
0
100
AcDbLine
 10
964.7903711670499
 20
-900.2953709139607
 30
0.0
 11
965.5903618598725
 21
-904.2953709139607
 31
0.0
  0
LINE
  5
24194
330
18
100
AcDbEntity
  8
0
100
AcDbLine
 10
966.3903711670498
 20
-900.2953709139607
 30
0.0
 11
967.1903623866751
 21
-904.0689638617567
 31
0.0
  0
LINE
  5
24195
330
18
100
AcDbEntity
  8
0
100
AcDbLine
 10
963.1903711670499
 20
-900.2953709139607
 30
0.0
 11
963.9903618598725
 21
-904.2953709139607
 31
0.0
  0
LINE
  5
24196
330
18
100
AcDbEntity
  8
0
100
AcDbLine
 10
950.3903711670455
 20
-900.2953709139607
 30
0.0
 11
951.1903618598637
 21
-904.2953709139607
 31
0.0
  0
LINE
  5
24197
330
18
100
AcDbEntity
  8
0
100
AcDbLine
 10
951.1903618598637
 20
-904.2953709139607
 30
0.0
 11
951.2903630232614
 21
-903.7953709139607
 31
0.0
  0
LINE
  5
24198
330
18
100
AcDbEntity
  8
0
100
AcDbLine
 10
951.8903700036522
 20
-900.7953709139607
 30
0.0
 11
951.9903711670498
 21
-900.2953709139607
 31
0.0
  0
LINE
  5
24199
330
18
100
AcDbEntity
  8
0
100
AcDbLine
 10
949.5903618598636
 20
-904.2953709139607
 30
0.0
 11
949.6903630232613
 21
-903.7953709139607
 31
0.0
  0
LINE
  5
2419A
330
18
100
AcDbEntity
  8
0
100
AcDbLine
 10
947.9903618598637
 20
-904.2953709139607
 30
0.0
 11
948.0903630232614
 21
-903.7953709139607
 31
0.0
  0
LINE
  5
2419B
330
18
100
AcDbEntity
  8
0
100
AcDbLine
 10
950.2903700036478
 20
-900.7953709139607
 30
0.0
 11
950.3903711670455
 21
-900.2953709139607
 31
0.0
  0
LINE
  5
2419C
330
18
100
AcDbEntity
  8
0
100
AcDbLine
 10
948.6903700036477
 20
-900.7953709139607
 30
0.0
 11
948.7903711670454
 21
-900.2953709139607
 31
0.0
  0
LINE
  5
2419D
330
18
100
AcDbEntity
  8
0
100
AcDbLine
 10
948.7903711670454
 20
-900.2953709139607
 30
0.0
 11
949.5903618598636
 21
-904.2953709139607
 31
0.0
  0
LINE
  5
2419E
330
18
100
AcDbEntity
  8
0
100
AcDbLine
 10
955.9903618598681
 20
-904.2953709139607
 30
0.0
 11
956.0903630232658
 21
-903.7953709139607
 31
0.0
  0
LINE
  5
2419F
330
18
100
AcDbEntity
  8
0
100
AcDbLine
 10
957.5903618598725
 20
-904.2953709139607
 30
0.0
 11
957.6903630232696
 21
-903.7953709139607
 31
0.0
  0
LINE
  5
241A0
330
18
100
AcDbEntity
  8
0
100
AcDbLine
 10
952.7903618598681
 20
-904.2953709139607
 30
0.0
 11
952.8903630232658
 21
-903.7953709139607
 31
0.0
  0
LINE
  5
241A1
330
18
100
AcDbEntity
  8
0
100
AcDbLine
 10
954.390361859868
 20
-904.2953709139607
 30
0.0
 11
954.4903630232657
 21
-903.7953709139607
 31
0.0
  0
LINE
  5
241A2
330
18
100
AcDbEntity
  8
0
100
AcDbLine
 10
958.2903700036527
 20
-900.7953709139607
 30
0.0
 11
958.3903711670498
 21
-900.2953709139607
 31
0.0
  0
LINE
  5
241A3
330
18
100
AcDbEntity
  8
0
100
AcDbLine
 10
956.6903700036521
 20
-900.7953709139607
 30
0.0
 11
956.7903711670499
 21
-900.2953709139607
 31
0.0
  0
LINE
  5
241A4
330
18
100
AcDbEntity
  8
0
100
AcDbLine
 10
953.4903700036521
 20
-900.7953709139607
 30
0.0
 11
953.5903711670497
 21
-900.2953709139607
 31
0.0
  0
LINE
  5
241A5
330
18
100
AcDbEntity
  8
0
100
AcDbLine
 10
955.0903700036522
 20
-900.7953709139607
 30
0.0
 11
955.1903711670499
 21
-900.2953709139607
 31
0.0
  0
LINE
  5
241A6
330
18
100
AcDbEntity
  8
0
100
AcDbLine
 10
955.1903711670499
 20
-900.2953709139607
 30
0.0
 11
955.9903618598681
 21
-904.2953709139607
 31
0.0
  0
LINE
  5
241A7
330
18
100
AcDbEntity
  8
0
100
AcDbLine
 10
956.7903711670499
 20
-900.2953709139607
 30
0.0
 11
957.5903618598725
 21
-904.2953709139607
 31
0.0
  0
LINE
  5
241A8
330
18
100
AcDbEntity
  8
0
100
AcDbLine
 10
953.5903711670497
 20
-900.2953709139607
 30
0.0
 11
954.390361859868
 21
-904.2953709139607
 31
0.0
  0
LINE
  5
241A9
330
18
100
AcDbEntity
  8
0
100
AcDbLine
 10
951.9903711670498
 20
-900.2953709139607
 30
0.0
 11
952.7903618598681
 21
-904.2953709139607
 31
0.0
  0
LINE
  5
241AA
330
18
100
AcDbEntity
  8
0
100
AcDbLine
 10
942.2903700036436
 20
-900.7953709139607
 30
0.0
 11
942.3903711670413
 21
-900.2953709139607
 31
0.0
  0
LINE
  5
241AB
330
18
100
AcDbEntity
  8
0
100
AcDbLine
 10
942.3903711670413
 20
-900.2953709139607
 30
0.0
 11
943.1903618598595
 21
-904.2953709139607
 31
0.0
  0
LINE
  5
241AC
330
18
100
AcDbEntity
  8
0
100
AcDbLine
 10
943.1903618598595
 20
-904.2953709139607
 30
0.0
 11
943.2903630232572
 21
-903.7953709139607
 31
0.0
  0
LINE
  5
241AD
330
18
100
AcDbEntity
  8
0
100
AcDbLine
 10
943.8903700036435
 20
-900.7953709139607
 30
0.0
 11
943.9903711670412
 21
-900.2953709139607
 31
0.0
  0
LINE
  5
241AE
330
18
100
AcDbEntity
  8
0
100
AcDbLine
 10
945.4903700036434
 20
-900.7953709139607
 30
0.0
 11
945.5903711670411
 21
-900.2953709139607
 31
0.0
  0
LINE
  5
241AF
330
18
100
AcDbEntity
  8
0
100
AcDbLine
 10
945.5903711670411
 20
-900.2953709139607
 30
0.0
 11
946.3903618598594
 21
-904.2953709139607
 31
0.0
  0
LINE
  5
241B0
330
18
100
AcDbEntity
  8
0
100
AcDbLine
 10
944.7903618598594
 20
-904.2953709139607
 30
0.0
 11
944.8903630232571
 21
-903.7953709139607
 31
0.0
  0
LINE
  5
241B1
330
18
100
AcDbEntity
  8
0
100
AcDbLine
 10
946.3903618598594
 20
-904.2953709139607
 30
0.0
 11
946.490363023257
 21
-903.7953709139607
 31
0.0
  0
LINE
  5
241B2
330
18
100
AcDbEntity
  8
0
100
AcDbLine
 10
943.9903711670412
 20
-900.2953709139607
 30
0.0
 11
944.7903618598594
 21
-904.2953709139607
 31
0.0
  0
LINE
  5
241B3
330
18
100
AcDbEntity
  8
0
100
AcDbLine
 10
947.0903700036478
 20
-900.7953709139607
 30
0.0
 11
947.1903711670454
 21
-900.2953709139607
 31
0.0
  0
LINE
  5
241B4
330
18
100
AcDbEntity
  8
0
100
AcDbLine
 10
940.6903700036437
 20
-900.7953709139607
 30
0.0
 11
940.7903711670414
 21
-900.2953709139607
 31
0.0
  0
LINE
  5
241B5
330
18
100
AcDbEntity
  8
0
100
AcDbLine
 10
940.7903711670414
 20
-900.2953709139607
 30
0.0
 11
941.5903618598596
 21
-904.2953709139607
 31
0.0
  0
LINE
  5
241B6
330
18
100
AcDbEntity
  8
0
100
AcDbLine
 10
941.5903618598596
 20
-904.2953709139607
 30
0.0
 11
941.6903630232573
 21
-903.7953709139607
 31
0.0
  0
LINE
  5
241B7
330
18
100
AcDbEntity
  8
0
100
AcDbLine
 10
939.0903700036438
 20
-900.7953709139607
 30
0.0
 11
939.1903711670415
 21
-900.2953709139607
 31
0.0
  0
LINE
  5
241B8
330
18
100
AcDbEntity
  8
0
100
AcDbLine
 10
939.1903711670415
 20
-900.2953709139607
 30
0.0
 11
939.9903618598597
 21
-904.2953709139607
 31
0.0
  0
LINE
  5
241B9
330
18
100
AcDbEntity
  8
0
100
AcDbLine
 10
939.9903618598597
 20
-904.2953709139607
 30
0.0
 11
940.0903630232574
 21
-903.7953709139607
 31
0.0
  0
LINE
  5
241BA
330
18
100
AcDbEntity
  8
0
100
AcDbLine
 10
937.4903700036439
 20
-900.7953709139607
 30
0.0
 11
937.5903711670416
 21
-900.2953709139607
 31
0.0
  0
LINE
  5
241BB
330
18
100
AcDbEntity
  8
0
100
AcDbLine
 10
937.5903711670416
 20
-900.2953709139607
 30
0.0
 11
938.3903618598598
 21
-904.2953709139607
 31
0.0
  0
LINE
  5
241BC
330
18
100
AcDbEntity
  8
0
100
AcDbLine
 10
938.3903618598598
 20
-904.2953709139607
 30
0.0
 11
938.4903630232575
 21
-903.7953709139607
 31
0.0
  0
LINE
  5
241BD
330
18
100
AcDbEntity
  8
0
100
AcDbLine
 10
971.6903665135133
 20
-872.2953709139607
 30
0.0
 11
966.3903700036516
 21
-870.7953709139607
 31
0.0
  0
LINE
  5
241BE
330
18
100
AcDbEntity
  8
0
100
AcDbLine
 10
966.3903700036516
 20
-870.7953709139607
 30
0.0
 11
936.6903700037597
 21
-870.7953709139609
 31
0.0
  0
LINE
  5
241BF
330
18
100
AcDbEntity
  8
0
100
AcDbLine
 10
971.6903665135133
 20
-872.2953709139607
 30
0.0
 11
966.3903630232679
 21
-873.7953709139608
 31
0.0
  0
LINE
  5
241C0
330
18
100
AcDbEntity
  8
0
100
AcDbLine
 10
936.6903746574578
 20
-868.7953243780629
 30
0.0
 11
936.6903583698934
 21
-875.7953243780628
 31
0.0
  0
LINE
  5
241C1
330
18
100
AcDbEntity
  8
0
100
AcDbLine
 10
966.3903630232679
 20
-873.7953709139608
 30
0.0
 11
936.690363023375
 21
-873.7953709139609
 31
0.0
  0
LINE
  5
241C2
330
18
100
AcDbEntity
  8
0
100
AcDbLine
 10
936.6903746574578
 20
-868.7953243780629
 30
0.0
 11
935.5903711672624
 21
-868.7953243780628
 31
0.0
  0
ARC
  5
241C3
330
18
100
AcDbEntity
  8
0
100
AcDbCircle
 10
935.5903711672624
 20
-870.2953243780628
 30
0.0
 40
1.5
100
AcDbArc
 50
90.0
 51
179.9998666844663
  0
LINE
  5
241C4
330
18
100
AcDbEntity
  8
0
100
AcDbLine
 10
936.6903583698934
 20
-875.7953243780628
 30
0.0
 11
935.5903618600828
 21
-875.7953243780628
 31
0.0
  0
LINE
  5
241C5
330
18
100
AcDbEntity
  8
0
100
AcDbLine
 10
934.0903711672665
 20
-870.2953208878704
 30
0.0
 11
934.0903618600869
 21
-874.2953208878704
 31
0.0
  0
ARC
  5
241C6
330
18
100
AcDbEntity
  8
0
100
AcDbCircle
 10
935.5903618600828
 20
-874.2953243780628
 30
0.0
 40
1.5
100
AcDbArc
 50
179.9998666844663
 51
270.0
  0
LINE
  5
241C7
330
18
100
AcDbEntity
  8
1CENTER
100
AcDbLine
 10
973.1211614309786
 20
-872.2953243780628
 30
0.0
 11
933.0200901043668
 21
-872.2953243780628
 31
0.0
  0
LINE
  5
241C8
330
18
100
AcDbEntity
  8
0
100
AcDbLine
 10
969.5903690598354
 20
-871.2010005640677
 30
0.0
 11
970.3903644938864
 21
-873.1633356529431
 31
0.0
  0
LINE
  5
241C9
330
18
100
AcDbEntity
  8
0
100
AcDbLine
 10
970.3903644938864
 20
-873.1633356529431
 30
0.0
 11
970.7021343501385
 21
-872.5750590779007
 31
0.0
  0
LINE
  5
241CA
330
18
100
AcDbEntity
  8
0
100
AcDbLine
 10
947.1903711670454
 20
-870.2953709139607
 30
0.0
 11
947.9903618598637
 21
-874.2953709139607
 31
0.0
  0
LINE
  5
241CB
330
18
100
AcDbEntity
  8
0
100
AcDbLine
 10
958.3903711670498
 20
-870.2953709139607
 30
0.0
 11
959.1903618598724
 21
-874.2953709139607
 31
0.0
  0
LINE
  5
241CC
330
18
100
AcDbEntity
  8
0
100
AcDbLine
 10
961.5903711670499
 20
-870.2953709139607
 30
0.0
 11
962.3903618598724
 21
-874.2953709139607
 31
0.0
  0
LINE
  5
241CD
330
18
100
AcDbEntity
  8
0
100
AcDbLine
 10
962.3903618598724
 20
-874.2953709139607
 30
0.0
 11
962.4903630232697
 21
-873.7953709139607
 31
0.0
  0
LINE
  5
241CE
330
18
100
AcDbEntity
  8
0
100
AcDbLine
 10
963.0903700036527
 20
-870.7953709139607
 30
0.0
 11
963.1903711670499
 21
-870.2953709139607
 31
0.0
  0
LINE
  5
241CF
330
18
100
AcDbEntity
  8
0
100
AcDbLine
 10
959.1903618598724
 20
-874.2953709139607
 30
0.0
 11
959.2903630232696
 21
-873.7953709139607
 31
0.0
  0
LINE
  5
241D0
330
18
100
AcDbEntity
  8
0
100
AcDbLine
 10
960.7903618598725
 20
-874.2953709139607
 30
0.0
 11
960.8903630232696
 21
-873.7953709139607
 31
0.0
  0
LINE
  5
241D1
330
18
100
AcDbEntity
  8
0
100
AcDbLine
 10
961.4903700036527
 20
-870.7953709139607
 30
0.0
 11
961.5903711670499
 21
-870.2953709139607
 31
0.0
  0
LINE
  5
241D2
330
18
100
AcDbEntity
  8
0
100
AcDbLine
 10
959.8903700036528
 20
-870.7953709139607
 30
0.0
 11
959.99037116705
 21
-870.2953709139607
 31
0.0
  0
LINE
  5
241D3
330
18
100
AcDbEntity
  8
0
100
AcDbLine
 10
959.99037116705
 20
-870.2953709139607
 30
0.0
 11
960.7903618598725
 21
-874.2953709139607
 31
0.0
  0
LINE
  5
241D4
330
18
100
AcDbEntity
  8
0
100
AcDbLine
 10
968.7903634402808
 20
-873.61614975735
 30
0.0
 11
968.9731275829088
 21
-873.0644002935467
 31
0.0
  0
LINE
  5
241D5
330
18
100
AcDbEntity
  8
0
100
AcDbLine
 10
965.5903618598725
 20
-874.2953709139607
 30
0.0
 11
965.6903630232696
 21
-873.7953709139607
 31
0.0
  0
LINE
  5
241D6
330
18
100
AcDbEntity
  8
0
100
AcDbLine
 10
963.9903618598725
 20
-874.2953709139607
 30
0.0
 11
964.0903630232694
 21
-873.7953709139607
 31
0.0
  0
LINE
  5
241D7
330
18
100
AcDbEntity
  8
0
100
AcDbLine
 10
967.1903623866751
 20
-874.0689638617567
 30
0.0
 11
967.319633084305
 21
-873.5323701264856
 31
0.0
  0
LINE
  5
241D8
330
18
100
AcDbEntity
  8
0
100
AcDbLine
 10
967.8776006010896
 20
-871.2162855111694
 30
0.0
 11
967.9903701134397
 21
-870.7481870560194
 31
0.0
  0
LINE
  5
241D9
330
18
100
AcDbEntity
  8
0
100
AcDbLine
 10
964.6903700036528
 20
-870.7953709139607
 30
0.0
 11
964.7903711670499
 21
-870.2953709139607
 31
0.0
  0
LINE
  5
241DA
330
18
100
AcDbEntity
  8
0
100
AcDbLine
 10
966.2903700036527
 20
-870.7953709139607
 30
0.0
 11
966.3903711670498
 21
-870.2953709139607
 31
0.0
  0
LINE
  5
241DB
330
18
100
AcDbEntity
  8
0
100
AcDbLine
 10
969.438933263395
 20
-871.6581724046988
 30
0.0
 11
969.5903690598354
 21
-871.2010005640677
 31
0.0
  0
LINE
  5
241DC
330
18
100
AcDbEntity
  8
0
100
AcDbLine
 10
967.9903701134397
 20
-870.7481870560194
 30
0.0
 11
968.7903634402808
 21
-873.61614975735
 31
0.0
  0
LINE
  5
241DD
330
18
100
AcDbEntity
  8
0
100
AcDbLine
 10
964.7903711670499
 20
-870.2953709139607
 30
0.0
 11
965.5903618598725
 21
-874.2953709139607
 31
0.0
  0
LINE
  5
241DE
330
18
100
AcDbEntity
  8
0
100
AcDbLine
 10
966.3903711670498
 20
-870.2953709139607
 30
0.0
 11
967.1903623866751
 21
-874.0689638617567
 31
0.0
  0
LINE
  5
241DF
330
18
100
AcDbEntity
  8
0
100
AcDbLine
 10
963.1903711670499
 20
-870.2953709139607
 30
0.0
 11
963.9903618598725
 21
-874.2953709139607
 31
0.0
  0
LINE
  5
241E0
330
18
100
AcDbEntity
  8
0
100
AcDbLine
 10
950.3903711670455
 20
-870.2953709139607
 30
0.0
 11
951.1903618598637
 21
-874.2953709139607
 31
0.0
  0
LINE
  5
241E1
330
18
100
AcDbEntity
  8
0
100
AcDbLine
 10
951.1903618598637
 20
-874.2953709139607
 30
0.0
 11
951.2903630232614
 21
-873.7953709139607
 31
0.0
  0
LINE
  5
241E2
330
18
100
AcDbEntity
  8
0
100
AcDbLine
 10
951.8903700036522
 20
-870.7953709139607
 30
0.0
 11
951.9903711670498
 21
-870.2953709139607
 31
0.0
  0
LINE
  5
241E3
330
18
100
AcDbEntity
  8
0
100
AcDbLine
 10
949.5903618598636
 20
-874.2953709139607
 30
0.0
 11
949.6903630232613
 21
-873.7953709139607
 31
0.0
  0
LINE
  5
241E4
330
18
100
AcDbEntity
  8
0
100
AcDbLine
 10
947.9903618598637
 20
-874.2953709139607
 30
0.0
 11
948.0903630232614
 21
-873.7953709139607
 31
0.0
  0
LINE
  5
241E5
330
18
100
AcDbEntity
  8
0
100
AcDbLine
 10
950.2903700036478
 20
-870.7953709139607
 30
0.0
 11
950.3903711670455
 21
-870.2953709139607
 31
0.0
  0
LINE
  5
241E6
330
18
100
AcDbEntity
  8
0
100
AcDbLine
 10
948.6903700036477
 20
-870.7953709139607
 30
0.0
 11
948.7903711670454
 21
-870.2953709139607
 31
0.0
  0
LINE
  5
241E7
330
18
100
AcDbEntity
  8
0
100
AcDbLine
 10
948.7903711670454
 20
-870.2953709139607
 30
0.0
 11
949.5903618598636
 21
-874.2953709139607
 31
0.0
  0
LINE
  5
241E8
330
18
100
AcDbEntity
  8
0
100
AcDbLine
 10
955.9903618598681
 20
-874.2953709139607
 30
0.0
 11
956.0903630232658
 21
-873.7953709139607
 31
0.0
  0
LINE
  5
241E9
330
18
100
AcDbEntity
  8
0
100
AcDbLine
 10
957.5903618598725
 20
-874.2953709139607
 30
0.0
 11
957.6903630232696
 21
-873.7953709139607
 31
0.0
  0
LINE
  5
241EA
330
18
100
AcDbEntity
  8
0
100
AcDbLine
 10
952.7903618598681
 20
-874.2953709139607
 30
0.0
 11
952.8903630232658
 21
-873.7953709139607
 31
0.0
  0
LINE
  5
241EB
330
18
100
AcDbEntity
  8
0
100
AcDbLine
 10
954.390361859868
 20
-874.2953709139607
 30
0.0
 11
954.4903630232657
 21
-873.7953709139607
 31
0.0
  0
LINE
  5
241EC
330
18
100
AcDbEntity
  8
0
100
AcDbLine
 10
958.2903700036527
 20
-870.7953709139607
 30
0.0
 11
958.3903711670498
 21
-870.2953709139607
 31
0.0
  0
LINE
  5
241ED
330
18
100
AcDbEntity
  8
0
100
AcDbLine
 10
956.6903700036521
 20
-870.7953709139607
 30
0.0
 11
956.7903711670499
 21
-870.2953709139607
 31
0.0
  0
LINE
  5
241EE
330
18
100
AcDbEntity
  8
0
100
AcDbLine
 10
953.4903700036521
 20
-870.7953709139607
 30
0.0
 11
953.5903711670497
 21
-870.2953709139607
 31
0.0
  0
LINE
  5
241EF
330
18
100
AcDbEntity
  8
0
100
AcDbLine
 10
955.0903700036522
 20
-870.7953709139607
 30
0.0
 11
955.1903711670499
 21
-870.2953709139607
 31
0.0
  0
LINE
  5
241F0
330
18
100
AcDbEntity
  8
0
100
AcDbLine
 10
955.1903711670499
 20
-870.2953709139607
 30
0.0
 11
955.9903618598681
 21
-874.2953709139607
 31
0.0
  0
LINE
  5
241F1
330
18
100
AcDbEntity
  8
0
100
AcDbLine
 10
956.7903711670499
 20
-870.2953709139607
 30
0.0
 11
957.5903618598725
 21
-874.2953709139607
 31
0.0
  0
LINE
  5
241F2
330
18
100
AcDbEntity
  8
0
100
AcDbLine
 10
953.5903711670497
 20
-870.2953709139607
 30
0.0
 11
954.390361859868
 21
-874.2953709139607
 31
0.0
  0
LINE
  5
241F3
330
18
100
AcDbEntity
  8
0
100
AcDbLine
 10
951.9903711670498
 20
-870.2953709139607
 30
0.0
 11
952.7903618598681
 21
-874.2953709139607
 31
0.0
  0
LINE
  5
241F4
330
18
100
AcDbEntity
  8
0
100
AcDbLine
 10
942.2903700036436
 20
-870.7953709139607
 30
0.0
 11
942.3903711670413
 21
-870.2953709139607
 31
0.0
  0
LINE
  5
241F5
330
18
100
AcDbEntity
  8
0
100
AcDbLine
 10
942.3903711670413
 20
-870.2953709139607
 30
0.0
 11
943.1903618598595
 21
-874.2953709139607
 31
0.0
  0
LINE
  5
241F6
330
18
100
AcDbEntity
  8
0
100
AcDbLine
 10
943.1903618598595
 20
-874.2953709139607
 30
0.0
 11
943.2903630232572
 21
-873.7953709139607
 31
0.0
  0
LINE
  5
241F7
330
18
100
AcDbEntity
  8
0
100
AcDbLine
 10
943.8903700036435
 20
-870.7953709139607
 30
0.0
 11
943.9903711670412
 21
-870.2953709139607
 31
0.0
  0
LINE
  5
241F8
330
18
100
AcDbEntity
  8
0
100
AcDbLine
 10
945.4903700036434
 20
-870.7953709139607
 30
0.0
 11
945.5903711670411
 21
-870.2953709139607
 31
0.0
  0
LINE
  5
241F9
330
18
100
AcDbEntity
  8
0
100
AcDbLine
 10
945.5903711670411
 20
-870.2953709139607
 30
0.0
 11
946.3903618598594
 21
-874.2953709139607
 31
0.0
  0
LINE
  5
241FA
330
18
100
AcDbEntity
  8
0
100
AcDbLine
 10
944.7903618598594
 20
-874.2953709139607
 30
0.0
 11
944.8903630232571
 21
-873.7953709139607
 31
0.0
  0
LINE
  5
241FB
330
18
100
AcDbEntity
  8
0
100
AcDbLine
 10
946.3903618598594
 20
-874.2953709139607
 30
0.0
 11
946.490363023257
 21
-873.7953709139607
 31
0.0
  0
LINE
  5
241FC
330
18
100
AcDbEntity
  8
0
100
AcDbLine
 10
943.9903711670412
 20
-870.2953709139607
 30
0.0
 11
944.7903618598594
 21
-874.2953709139607
 31
0.0
  0
LINE
  5
241FD
330
18
100
AcDbEntity
  8
0
100
AcDbLine
 10
947.0903700036478
 20
-870.7953709139607
 30
0.0
 11
947.1903711670454
 21
-870.2953709139607
 31
0.0
  0
LINE
  5
241FE
330
18
100
AcDbEntity
  8
0
100
AcDbLine
 10
940.6903700036437
 20
-870.7953709139607
 30
0.0
 11
940.7903711670414
 21
-870.2953709139607
 31
0.0
  0
LINE
  5
241FF
330
18
100
AcDbEntity
  8
0
100
AcDbLine
 10
940.7903711670414
 20
-870.2953709139607
 30
0.0
 11
941.5903618598596
 21
-874.2953709139607
 31
0.0
  0
LINE
  5
24200
330
18
100
AcDbEntity
  8
0
100
AcDbLine
 10
941.5903618598596
 20
-874.2953709139607
 30
0.0
 11
941.6903630232573
 21
-873.7953709139607
 31
0.0
  0
LINE
  5
24201
330
18
100
AcDbEntity
  8
0
100
AcDbLine
 10
939.0903700036438
 20
-870.7953709139607
 30
0.0
 11
939.1903711670415
 21
-870.2953709139607
 31
0.0
  0
LINE
  5
24202
330
18
100
AcDbEntity
  8
0
100
AcDbLine
 10
939.1903711670415
 20
-870.2953709139607
 30
0.0
 11
939.9903618598597
 21
-874.2953709139607
 31
0.0
  0
LINE
  5
24203
330
18
100
AcDbEntity
  8
0
100
AcDbLine
 10
939.9903618598597
 20
-874.2953709139607
 30
0.0
 11
940.0903630232574
 21
-873.7953709139607
 31
0.0
  0
LINE
  5
24204
330
18
100
AcDbEntity
  8
0
100
AcDbLine
 10
937.4903700036439
 20
-870.7953709139607
 30
0.0
 11
937.5903711670416
 21
-870.2953709139607
 31
0.0
  0
LINE
  5
24205
330
18
100
AcDbEntity
  8
0
100
AcDbLine
 10
937.5903711670416
 20
-870.2953709139607
 30
0.0
 11
938.3903618598598
 21
-874.2953709139607
 31
0.0
  0
LINE
  5
24206
330
18
100
AcDbEntity
  8
0
100
AcDbLine
 10
938.3903618598598
 20
-874.2953709139607
 30
0.0
 11
938.4903630232575
 21
-873.7953709139607
 31
0.0
  0
LINE
  5
24207
330
18
100
AcDbEntity
  8
0
100
AcDbLine
 10
971.6903665135133
 20
-842.2953709139607
 30
0.0
 11
966.3903700036516
 21
-840.7953709139607
 31
0.0
  0
LINE
  5
24208
330
18
100
AcDbEntity
  8
0
100
AcDbLine
 10
966.3903700036516
 20
-840.7953709139607
 30
0.0
 11
936.6903700037597
 21
-840.7953709139609
 31
0.0
  0
LINE
  5
24209
330
18
100
AcDbEntity
  8
0
100
AcDbLine
 10
971.6903665135133
 20
-842.2953709139607
 30
0.0
 11
966.3903630232679
 21
-843.7953709139608
 31
0.0
  0
LINE
  5
2420A
330
18
100
AcDbEntity
  8
0
100
AcDbLine
 10
936.6903746574578
 20
-838.7953243780629
 30
0.0
 11
936.6903583698934
 21
-845.7953243780628
 31
0.0
  0
LINE
  5
2420B
330
18
100
AcDbEntity
  8
0
100
AcDbLine
 10
966.3903630232679
 20
-843.7953709139608
 30
0.0
 11
936.690363023375
 21
-843.7953709139609
 31
0.0
  0
LINE
  5
2420C
330
18
100
AcDbEntity
  8
0
100
AcDbLine
 10
936.6903746574578
 20
-838.7953243780629
 30
0.0
 11
935.5903711672624
 21
-838.7953243780628
 31
0.0
  0
ARC
  5
2420D
330
18
100
AcDbEntity
  8
0
100
AcDbCircle
 10
935.5903711672624
 20
-840.2953243780628
 30
0.0
 40
1.5
100
AcDbArc
 50
90.0
 51
179.9998666844663
  0
LINE
  5
2420E
330
18
100
AcDbEntity
  8
0
100
AcDbLine
 10
936.6903583698934
 20
-845.7953243780628
 30
0.0
 11
935.5903618600828
 21
-845.7953243780628
 31
0.0
  0
LINE
  5
2420F
330
18
100
AcDbEntity
  8
0
100
AcDbLine
 10
934.0903711672665
 20
-840.2953208878704
 30
0.0
 11
934.0903618600869
 21
-844.2953208878704
 31
0.0
  0
ARC
  5
24210
330
18
100
AcDbEntity
  8
0
100
AcDbCircle
 10
935.5903618600828
 20
-844.2953243780628
 30
0.0
 40
1.5
100
AcDbArc
 50
179.9998666844663
 51
270.0
  0
LINE
  5
24211
330
18
100
AcDbEntity
  8
1CENTER
100
AcDbLine
 10
973.1211614309786
 20
-842.2953243780628
 30
0.0
 11
933.0200901043668
 21
-842.2953243780628
 31
0.0
  0
LINE
  5
24212
330
18
100
AcDbEntity
  8
0
100
AcDbLine
 10
969.5903690598354
 20
-841.2010005640677
 30
0.0
 11
970.3903644938864
 21
-843.1633356529431
 31
0.0
  0
LINE
  5
24213
330
18
100
AcDbEntity
  8
0
100
AcDbLine
 10
970.3903644938864
 20
-843.1633356529431
 30
0.0
 11
970.7021343501385
 21
-842.5750590779007
 31
0.0
  0
LINE
  5
24214
330
18
100
AcDbEntity
  8
0
100
AcDbLine
 10
947.1903711670454
 20
-840.2953709139607
 30
0.0
 11
947.9903618598637
 21
-844.2953709139607
 31
0.0
  0
LINE
  5
24215
330
18
100
AcDbEntity
  8
0
100
AcDbLine
 10
958.3903711670498
 20
-840.2953709139607
 30
0.0
 11
959.1903618598724
 21
-844.2953709139607
 31
0.0
  0
LINE
  5
24216
330
18
100
AcDbEntity
  8
0
100
AcDbLine
 10
961.5903711670499
 20
-840.2953709139607
 30
0.0
 11
962.3903618598724
 21
-844.2953709139607
 31
0.0
  0
LINE
  5
24217
330
18
100
AcDbEntity
  8
0
100
AcDbLine
 10
962.3903618598724
 20
-844.2953709139607
 30
0.0
 11
962.4903630232697
 21
-843.7953709139607
 31
0.0
  0
LINE
  5
24218
330
18
100
AcDbEntity
  8
0
100
AcDbLine
 10
963.0903700036527
 20
-840.7953709139607
 30
0.0
 11
963.1903711670499
 21
-840.2953709139607
 31
0.0
  0
LINE
  5
24219
330
18
100
AcDbEntity
  8
0
100
AcDbLine
 10
959.1903618598724
 20
-844.2953709139607
 30
0.0
 11
959.2903630232696
 21
-843.7953709139607
 31
0.0
  0
LINE
  5
2421A
330
18
100
AcDbEntity
  8
0
100
AcDbLine
 10
960.7903618598725
 20
-844.2953709139607
 30
0.0
 11
960.8903630232696
 21
-843.7953709139607
 31
0.0
  0
LINE
  5
2421B
330
18
100
AcDbEntity
  8
0
100
AcDbLine
 10
961.4903700036527
 20
-840.7953709139607
 30
0.0
 11
961.5903711670499
 21
-840.2953709139607
 31
0.0
  0
LINE
  5
2421C
330
18
100
AcDbEntity
  8
0
100
AcDbLine
 10
959.8903700036528
 20
-840.7953709139607
 30
0.0
 11
959.99037116705
 21
-840.2953709139607
 31
0.0
  0
LINE
  5
2421D
330
18
100
AcDbEntity
  8
0
100
AcDbLine
 10
959.99037116705
 20
-840.2953709139607
 30
0.0
 11
960.7903618598725
 21
-844.2953709139607
 31
0.0
  0
LINE
  5
2421E
330
18
100
AcDbEntity
  8
0
100
AcDbLine
 10
968.7903634402808
 20
-843.61614975735
 30
0.0
 11
968.9731275829088
 21
-843.0644002935467
 31
0.0
  0
LINE
  5
2421F
330
18
100
AcDbEntity
  8
0
100
AcDbLine
 10
965.5903618598725
 20
-844.2953709139607
 30
0.0
 11
965.6903630232696
 21
-843.7953709139607
 31
0.0
  0
LINE
  5
24220
330
18
100
AcDbEntity
  8
0
100
AcDbLine
 10
963.9903618598725
 20
-844.2953709139607
 30
0.0
 11
964.0903630232694
 21
-843.7953709139607
 31
0.0
  0
LINE
  5
24221
330
18
100
AcDbEntity
  8
0
100
AcDbLine
 10
967.1903623866751
 20
-844.0689638617567
 30
0.0
 11
967.319633084305
 21
-843.5323701264856
 31
0.0
  0
LINE
  5
24222
330
18
100
AcDbEntity
  8
0
100
AcDbLine
 10
967.8776006010896
 20
-841.2162855111694
 30
0.0
 11
967.9903701134397
 21
-840.7481870560194
 31
0.0
  0
LINE
  5
24223
330
18
100
AcDbEntity
  8
0
100
AcDbLine
 10
964.6903700036528
 20
-840.7953709139607
 30
0.0
 11
964.7903711670499
 21
-840.2953709139607
 31
0.0
  0
LINE
  5
24224
330
18
100
AcDbEntity
  8
0
100
AcDbLine
 10
966.2903700036527
 20
-840.7953709139607
 30
0.0
 11
966.3903711670498
 21
-840.2953709139607
 31
0.0
  0
LINE
  5
24225
330
18
100
AcDbEntity
  8
0
100
AcDbLine
 10
969.438933263395
 20
-841.6581724046988
 30
0.0
 11
969.5903690598354
 21
-841.2010005640677
 31
0.0
  0
LINE
  5
24226
330
18
100
AcDbEntity
  8
0
100
AcDbLine
 10
967.9903701134397
 20
-840.7481870560194
 30
0.0
 11
968.7903634402808
 21
-843.61614975735
 31
0.0
  0
LINE
  5
24227
330
18
100
AcDbEntity
  8
0
100
AcDbLine
 10
964.7903711670499
 20
-840.2953709139607
 30
0.0
 11
965.5903618598725
 21
-844.2953709139607
 31
0.0
  0
LINE
  5
24228
330
18
100
AcDbEntity
  8
0
100
AcDbLine
 10
966.3903711670498
 20
-840.2953709139607
 30
0.0
 11
967.1903623866751
 21
-844.0689638617567
 31
0.0
  0
LINE
  5
24229
330
18
100
AcDbEntity
  8
0
100
AcDbLine
 10
963.1903711670499
 20
-840.2953709139607
 30
0.0
 11
963.9903618598725
 21
-844.2953709139607
 31
0.0
  0
LINE
  5
2422A
330
18
100
AcDbEntity
  8
0
100
AcDbLine
 10
950.3903711670455
 20
-840.2953709139607
 30
0.0
 11
951.1903618598637
 21
-844.2953709139607
 31
0.0
  0
LINE
  5
2422B
330
18
100
AcDbEntity
  8
0
100
AcDbLine
 10
951.1903618598637
 20
-844.2953709139607
 30
0.0
 11
951.2903630232614
 21
-843.7953709139607
 31
0.0
  0
LINE
  5
2422C
330
18
100
AcDbEntity
  8
0
100
AcDbLine
 10
951.8903700036522
 20
-840.7953709139607
 30
0.0
 11
951.9903711670498
 21
-840.2953709139607
 31
0.0
  0
LINE
  5
2422D
330
18
100
AcDbEntity
  8
0
100
AcDbLine
 10
949.5903618598636
 20
-844.2953709139607
 30
0.0
 11
949.6903630232613
 21
-843.7953709139607
 31
0.0
  0
LINE
  5
2422E
330
18
100
AcDbEntity
  8
0
100
AcDbLine
 10
947.9903618598637
 20
-844.2953709139607
 30
0.0
 11
948.0903630232614
 21
-843.7953709139607
 31
0.0
  0
LINE
  5
2422F
330
18
100
AcDbEntity
  8
0
100
AcDbLine
 10
950.2903700036478
 20
-840.7953709139607
 30
0.0
 11
950.3903711670455
 21
-840.2953709139607
 31
0.0
  0
LINE
  5
24230
330
18
100
AcDbEntity
  8
0
100
AcDbLine
 10
948.6903700036477
 20
-840.7953709139607
 30
0.0
 11
948.7903711670454
 21
-840.2953709139607
 31
0.0
  0
LINE
  5
24231
330
18
100
AcDbEntity
  8
0
100
AcDbLine
 10
948.7903711670454
 20
-840.2953709139607
 30
0.0
 11
949.5903618598636
 21
-844.2953709139607
 31
0.0
  0
LINE
  5
24232
330
18
100
AcDbEntity
  8
0
100
AcDbLine
 10
955.9903618598681
 20
-844.2953709139607
 30
0.0
 11
956.0903630232658
 21
-843.7953709139607
 31
0.0
  0
LINE
  5
24233
330
18
100
AcDbEntity
  8
0
100
AcDbLine
 10
957.5903618598725
 20
-844.2953709139607
 30
0.0
 11
957.6903630232696
 21
-843.7953709139607
 31
0.0
  0
LINE
  5
24234
330
18
100
AcDbEntity
  8
0
100
AcDbLine
 10
952.7903618598681
 20
-844.2953709139607
 30
0.0
 11
952.8903630232658
 21
-843.7953709139607
 31
0.0
  0
LINE
  5
24235
330
18
100
AcDbEntity
  8
0
100
AcDbLine
 10
954.390361859868
 20
-844.2953709139607
 30
0.0
 11
954.4903630232657
 21
-843.7953709139607
 31
0.0
  0
LINE
  5
24236
330
18
100
AcDbEntity
  8
0
100
AcDbLine
 10
958.2903700036527
 20
-840.7953709139607
 30
0.0
 11
958.3903711670498
 21
-840.2953709139607
 31
0.0
  0
LINE
  5
24237
330
18
100
AcDbEntity
  8
0
100
AcDbLine
 10
956.6903700036521
 20
-840.7953709139607
 30
0.0
 11
956.7903711670499
 21
-840.2953709139607
 31
0.0
  0
LINE
  5
24238
330
18
100
AcDbEntity
  8
0
100
AcDbLine
 10
953.4903700036521
 20
-840.7953709139607
 30
0.0
 11
953.5903711670497
 21
-840.2953709139607
 31
0.0
  0
LINE
  5
24239
330
18
100
AcDbEntity
  8
0
100
AcDbLine
 10
955.0903700036522
 20
-840.7953709139607
 30
0.0
 11
955.1903711670499
 21
-840.2953709139607
 31
0.0
  0
LINE
  5
2423A
330
18
100
AcDbEntity
  8
0
100
AcDbLine
 10
955.1903711670499
 20
-840.2953709139607
 30
0.0
 11
955.9903618598681
 21
-844.2953709139607
 31
0.0
  0
LINE
  5
2423B
330
18
100
AcDbEntity
  8
0
100
AcDbLine
 10
956.7903711670499
 20
-840.2953709139607
 30
0.0
 11
957.5903618598725
 21
-844.2953709139607
 31
0.0
  0
LINE
  5
2423C
330
18
100
AcDbEntity
  8
0
100
AcDbLine
 10
953.5903711670497
 20
-840.2953709139607
 30
0.0
 11
954.390361859868
 21
-844.2953709139607
 31
0.0
  0
LINE
  5
2423D
330
18
100
AcDbEntity
  8
0
100
AcDbLine
 10
951.9903711670498
 20
-840.2953709139607
 30
0.0
 11
952.7903618598681
 21
-844.2953709139607
 31
0.0
  0
LINE
  5
2423E
330
18
100
AcDbEntity
  8
0
100
AcDbLine
 10
942.2903700036436
 20
-840.7953709139607
 30
0.0
 11
942.3903711670413
 21
-840.2953709139607
 31
0.0
  0
LINE
  5
2423F
330
18
100
AcDbEntity
  8
0
100
AcDbLine
 10
942.3903711670413
 20
-840.2953709139607
 30
0.0
 11
943.1903618598595
 21
-844.2953709139607
 31
0.0
  0
LINE
  5
24240
330
18
100
AcDbEntity
  8
0
100
AcDbLine
 10
943.1903618598595
 20
-844.2953709139607
 30
0.0
 11
943.2903630232572
 21
-843.7953709139607
 31
0.0
  0
LINE
  5
24241
330
18
100
AcDbEntity
  8
0
100
AcDbLine
 10
943.8903700036435
 20
-840.7953709139607
 30
0.0
 11
943.9903711670412
 21
-840.2953709139607
 31
0.0
  0
LINE
  5
24242
330
18
100
AcDbEntity
  8
0
100
AcDbLine
 10
945.4903700036434
 20
-840.7953709139607
 30
0.0
 11
945.5903711670411
 21
-840.2953709139607
 31
0.0
  0
LINE
  5
24243
330
18
100
AcDbEntity
  8
0
100
AcDbLine
 10
945.5903711670411
 20
-840.2953709139607
 30
0.0
 11
946.3903618598594
 21
-844.2953709139607
 31
0.0
  0
LINE
  5
24244
330
18
100
AcDbEntity
  8
0
100
AcDbLine
 10
944.7903618598594
 20
-844.2953709139607
 30
0.0
 11
944.8903630232571
 21
-843.7953709139607
 31
0.0
  0
LINE
  5
24245
330
18
100
AcDbEntity
  8
0
100
AcDbLine
 10
946.3903618598594
 20
-844.2953709139607
 30
0.0
 11
946.490363023257
 21
-843.7953709139607
 31
0.0
  0
LINE
  5
24246
330
18
100
AcDbEntity
  8
0
100
AcDbLine
 10
943.9903711670412
 20
-840.2953709139607
 30
0.0
 11
944.7903618598594
 21
-844.2953709139607
 31
0.0
  0
LINE
  5
24247
330
18
100
AcDbEntity
  8
0
100
AcDbLine
 10
947.0903700036478
 20
-840.7953709139607
 30
0.0
 11
947.1903711670454
 21
-840.2953709139607
 31
0.0
  0
LINE
  5
24248
330
18
100
AcDbEntity
  8
0
100
AcDbLine
 10
940.6903700036437
 20
-840.7953709139607
 30
0.0
 11
940.7903711670414
 21
-840.2953709139607
 31
0.0
  0
LINE
  5
24249
330
18
100
AcDbEntity
  8
0
100
AcDbLine
 10
940.7903711670414
 20
-840.2953709139607
 30
0.0
 11
941.5903618598596
 21
-844.2953709139607
 31
0.0
  0
LINE
  5
2424A
330
18
100
AcDbEntity
  8
0
100
AcDbLine
 10
941.5903618598596
 20
-844.2953709139607
 30
0.0
 11
941.6903630232573
 21
-843.7953709139607
 31
0.0
  0
LINE
  5
2424B
330
18
100
AcDbEntity
  8
0
100
AcDbLine
 10
939.0903700036438
 20
-840.7953709139607
 30
0.0
 11
939.1903711670415
 21
-840.2953709139607
 31
0.0
  0
LINE
  5
2424C
330
18
100
AcDbEntity
  8
0
100
AcDbLine
 10
939.1903711670415
 20
-840.2953709139607
 30
0.0
 11
939.9903618598597
 21
-844.2953709139607
 31
0.0
  0
LINE
  5
2424D
330
18
100
AcDbEntity
  8
0
100
AcDbLine
 10
939.9903618598597
 20
-844.2953709139607
 30
0.0
 11
940.0903630232574
 21
-843.7953709139607
 31
0.0
  0
LINE
  5
2424E
330
18
100
AcDbEntity
  8
0
100
AcDbLine
 10
937.4903700036439
 20
-840.7953709139607
 30
0.0
 11
937.5903711670416
 21
-840.2953709139607
 31
0.0
  0
LINE
  5
2424F
330
18
100
AcDbEntity
  8
0
100
AcDbLine
 10
937.5903711670416
 20
-840.2953709139607
 30
0.0
 11
938.3903618598598
 21
-844.2953709139607
 31
0.0
  0
LINE
  5
24250
330
18
100
AcDbEntity
  8
0
100
AcDbLine
 10
938.3903618598598
 20
-844.2953709139607
 30
0.0
 11
938.4903630232575
 21
-843.7953709139607
 31
0.0
  0
LINE
  5
24251
330
18
100
AcDbEntity
  8
0
100
AcDbLine
 10
971.6903665135133
 20
-812.2953709139607
 30
0.0
 11
966.3903700036516
 21
-810.7953709139607
 31
0.0
  0
LINE
  5
24252
330
18
100
AcDbEntity
  8
0
100
AcDbLine
 10
966.3903700036516
 20
-810.7953709139607
 30
0.0
 11
936.6903700037597
 21
-810.7953709139609
 31
0.0
  0
LINE
  5
24253
330
18
100
AcDbEntity
  8
0
100
AcDbLine
 10
971.6903665135133
 20
-812.2953709139607
 30
0.0
 11
966.3903630232679
 21
-813.7953709139608
 31
0.0
  0
LINE
  5
24254
330
18
100
AcDbEntity
  8
0
100
AcDbLine
 10
936.6903746574578
 20
-808.7953243780629
 30
0.0
 11
936.6903583698934
 21
-815.7953243780628
 31
0.0
  0
LINE
  5
24255
330
18
100
AcDbEntity
  8
0
100
AcDbLine
 10
966.3903630232679
 20
-813.7953709139608
 30
0.0
 11
936.690363023375
 21
-813.7953709139609
 31
0.0
  0
LINE
  5
24256
330
18
100
AcDbEntity
  8
0
100
AcDbLine
 10
936.6903746574578
 20
-808.7953243780629
 30
0.0
 11
935.5903711672624
 21
-808.7953243780628
 31
0.0
  0
ARC
  5
24257
330
18
100
AcDbEntity
  8
0
100
AcDbCircle
 10
935.5903711672624
 20
-810.2953243780628
 30
0.0
 40
1.5
100
AcDbArc
 50
90.0
 51
179.9998666844663
  0
LINE
  5
24258
330
18
100
AcDbEntity
  8
0
100
AcDbLine
 10
936.6903583698934
 20
-815.7953243780628
 30
0.0
 11
935.5903618600828
 21
-815.7953243780628
 31
0.0
  0
LINE
  5
24259
330
18
100
AcDbEntity
  8
0
100
AcDbLine
 10
934.0903711672665
 20
-810.2953208878704
 30
0.0
 11
934.0903618600869
 21
-814.2953208878704
 31
0.0
  0
ARC
  5
2425A
330
18
100
AcDbEntity
  8
0
100
AcDbCircle
 10
935.5903618600828
 20
-814.2953243780628
 30
0.0
 40
1.5
100
AcDbArc
 50
179.9998666844663
 51
270.0
  0
LINE
  5
2425B
330
18
100
AcDbEntity
  8
1CENTER
100
AcDbLine
 10
973.1211614309786
 20
-812.2953243780628
 30
0.0
 11
933.0200901043668
 21
-812.2953243780628
 31
0.0
  0
LINE
  5
2425C
330
18
100
AcDbEntity
  8
0
100
AcDbLine
 10
969.5903690598354
 20
-811.2010005640677
 30
0.0
 11
970.3903644938864
 21
-813.1633356529431
 31
0.0
  0
LINE
  5
2425D
330
18
100
AcDbEntity
  8
0
100
AcDbLine
 10
970.3903644938864
 20
-813.1633356529431
 30
0.0
 11
970.7021343501385
 21
-812.5750590779007
 31
0.0
  0
LINE
  5
2425E
330
18
100
AcDbEntity
  8
0
100
AcDbLine
 10
947.1903711670454
 20
-810.2953709139607
 30
0.0
 11
947.9903618598637
 21
-814.2953709139607
 31
0.0
  0
LINE
  5
2425F
330
18
100
AcDbEntity
  8
0
100
AcDbLine
 10
958.3903711670498
 20
-810.2953709139607
 30
0.0
 11
959.1903618598724
 21
-814.2953709139607
 31
0.0
  0
LINE
  5
24260
330
18
100
AcDbEntity
  8
0
100
AcDbLine
 10
961.5903711670499
 20
-810.2953709139607
 30
0.0
 11
962.3903618598724
 21
-814.2953709139607
 31
0.0
  0
LINE
  5
24261
330
18
100
AcDbEntity
  8
0
100
AcDbLine
 10
962.3903618598724
 20
-814.2953709139607
 30
0.0
 11
962.4903630232697
 21
-813.7953709139607
 31
0.0
  0
LINE
  5
24262
330
18
100
AcDbEntity
  8
0
100
AcDbLine
 10
963.0903700036527
 20
-810.7953709139607
 30
0.0
 11
963.1903711670499
 21
-810.2953709139607
 31
0.0
  0
LINE
  5
24263
330
18
100
AcDbEntity
  8
0
100
AcDbLine
 10
959.1903618598724
 20
-814.2953709139607
 30
0.0
 11
959.2903630232696
 21
-813.7953709139607
 31
0.0
  0
LINE
  5
24264
330
18
100
AcDbEntity
  8
0
100
AcDbLine
 10
960.7903618598725
 20
-814.2953709139607
 30
0.0
 11
960.8903630232696
 21
-813.7953709139607
 31
0.0
  0
LINE
  5
24265
330
18
100
AcDbEntity
  8
0
100
AcDbLine
 10
961.4903700036527
 20
-810.7953709139607
 30
0.0
 11
961.5903711670499
 21
-810.2953709139607
 31
0.0
  0
LINE
  5
24266
330
18
100
AcDbEntity
  8
0
100
AcDbLine
 10
959.8903700036528
 20
-810.7953709139607
 30
0.0
 11
959.99037116705
 21
-810.2953709139607
 31
0.0
  0
LINE
  5
24267
330
18
100
AcDbEntity
  8
0
100
AcDbLine
 10
959.99037116705
 20
-810.2953709139607
 30
0.0
 11
960.7903618598725
 21
-814.2953709139607
 31
0.0
  0
LINE
  5
24268
330
18
100
AcDbEntity
  8
0
100
AcDbLine
 10
968.7903634402808
 20
-813.61614975735
 30
0.0
 11
968.9731275829088
 21
-813.0644002935467
 31
0.0
  0
LINE
  5
24269
330
18
100
AcDbEntity
  8
0
100
AcDbLine
 10
965.5903618598725
 20
-814.2953709139607
 30
0.0
 11
965.6903630232696
 21
-813.7953709139607
 31
0.0
  0
LINE
  5
2426A
330
18
100
AcDbEntity
  8
0
100
AcDbLine
 10
963.9903618598725
 20
-814.2953709139607
 30
0.0
 11
964.0903630232694
 21
-813.7953709139607
 31
0.0
  0
LINE
  5
2426B
330
18
100
AcDbEntity
  8
0
100
AcDbLine
 10
967.1903623866751
 20
-814.0689638617567
 30
0.0
 11
967.319633084305
 21
-813.5323701264856
 31
0.0
  0
LINE
  5
2426C
330
18
100
AcDbEntity
  8
0
100
AcDbLine
 10
967.8776006010896
 20
-811.2162855111694
 30
0.0
 11
967.9903701134397
 21
-810.7481870560194
 31
0.0
  0
LINE
  5
2426D
330
18
100
AcDbEntity
  8
0
100
AcDbLine
 10
964.6903700036528
 20
-810.7953709139607
 30
0.0
 11
964.7903711670499
 21
-810.2953709139607
 31
0.0
  0
LINE
  5
2426E
330
18
100
AcDbEntity
  8
0
100
AcDbLine
 10
966.2903700036527
 20
-810.7953709139607
 30
0.0
 11
966.3903711670498
 21
-810.2953709139607
 31
0.0
  0
LINE
  5
2426F
330
18
100
AcDbEntity
  8
0
100
AcDbLine
 10
969.438933263395
 20
-811.6581724046988
 30
0.0
 11
969.5903690598354
 21
-811.2010005640677
 31
0.0
  0
LINE
  5
24270
330
18
100
AcDbEntity
  8
0
100
AcDbLine
 10
967.9903701134397
 20
-810.7481870560194
 30
0.0
 11
968.7903634402808
 21
-813.61614975735
 31
0.0
  0
LINE
  5
24271
330
18
100
AcDbEntity
  8
0
100
AcDbLine
 10
964.7903711670499
 20
-810.2953709139607
 30
0.0
 11
965.5903618598725
 21
-814.2953709139607
 31
0.0
  0
LINE
  5
24272
330
18
100
AcDbEntity
  8
0
100
AcDbLine
 10
966.3903711670498
 20
-810.2953709139607
 30
0.0
 11
967.1903623866751
 21
-814.0689638617567
 31
0.0
  0
LINE
  5
24273
330
18
100
AcDbEntity
  8
0
100
AcDbLine
 10
963.1903711670499
 20
-810.2953709139607
 30
0.0
 11
963.9903618598725
 21
-814.2953709139607
 31
0.0
  0
LINE
  5
24274
330
18
100
AcDbEntity
  8
0
100
AcDbLine
 10
950.3903711670455
 20
-810.2953709139607
 30
0.0
 11
951.1903618598637
 21
-814.2953709139607
 31
0.0
  0
LINE
  5
24275
330
18
100
AcDbEntity
  8
0
100
AcDbLine
 10
951.1903618598637
 20
-814.2953709139607
 30
0.0
 11
951.2903630232614
 21
-813.7953709139607
 31
0.0
  0
LINE
  5
24276
330
18
100
AcDbEntity
  8
0
100
AcDbLine
 10
951.8903700036522
 20
-810.7953709139607
 30
0.0
 11
951.9903711670498
 21
-810.2953709139607
 31
0.0
  0
LINE
  5
24277
330
18
100
AcDbEntity
  8
0
100
AcDbLine
 10
949.5903618598636
 20
-814.2953709139607
 30
0.0
 11
949.6903630232613
 21
-813.7953709139607
 31
0.0
  0
LINE
  5
24278
330
18
100
AcDbEntity
  8
0
100
AcDbLine
 10
947.9903618598637
 20
-814.2953709139607
 30
0.0
 11
948.0903630232614
 21
-813.7953709139607
 31
0.0
  0
LINE
  5
24279
330
18
100
AcDbEntity
  8
0
100
AcDbLine
 10
950.2903700036478
 20
-810.7953709139607
 30
0.0
 11
950.3903711670455
 21
-810.2953709139607
 31
0.0
  0
LINE
  5
2427A
330
18
100
AcDbEntity
  8
0
100
AcDbLine
 10
948.6903700036477
 20
-810.7953709139607
 30
0.0
 11
948.7903711670454
 21
-810.2953709139607
 31
0.0
  0
LINE
  5
2427B
330
18
100
AcDbEntity
  8
0
100
AcDbLine
 10
948.7903711670454
 20
-810.2953709139607
 30
0.0
 11
949.5903618598636
 21
-814.2953709139607
 31
0.0
  0
LINE
  5
2427C
330
18
100
AcDbEntity
  8
0
100
AcDbLine
 10
955.9903618598681
 20
-814.2953709139607
 30
0.0
 11
956.0903630232658
 21
-813.7953709139607
 31
0.0
  0
LINE
  5
2427D
330
18
100
AcDbEntity
  8
0
100
AcDbLine
 10
957.5903618598725
 20
-814.2953709139607
 30
0.0
 11
957.6903630232696
 21
-813.7953709139607
 31
0.0
  0
LINE
  5
2427E
330
18
100
AcDbEntity
  8
0
100
AcDbLine
 10
952.7903618598681
 20
-814.2953709139607
 30
0.0
 11
952.8903630232658
 21
-813.7953709139607
 31
0.0
  0
LINE
  5
2427F
330
18
100
AcDbEntity
  8
0
100
AcDbLine
 10
954.390361859868
 20
-814.2953709139607
 30
0.0
 11
954.4903630232657
 21
-813.7953709139607
 31
0.0
  0
LINE
  5
24280
330
18
100
AcDbEntity
  8
0
100
AcDbLine
 10
958.2903700036527
 20
-810.7953709139607
 30
0.0
 11
958.3903711670498
 21
-810.2953709139607
 31
0.0
  0
LINE
  5
24281
330
18
100
AcDbEntity
  8
0
100
AcDbLine
 10
956.6903700036521
 20
-810.7953709139607
 30
0.0
 11
956.7903711670499
 21
-810.2953709139607
 31
0.0
  0
LINE
  5
24282
330
18
100
AcDbEntity
  8
0
100
AcDbLine
 10
953.4903700036521
 20
-810.7953709139607
 30
0.0
 11
953.5903711670497
 21
-810.2953709139607
 31
0.0
  0
LINE
  5
24283
330
18
100
AcDbEntity
  8
0
100
AcDbLine
 10
955.0903700036522
 20
-810.7953709139607
 30
0.0
 11
955.1903711670499
 21
-810.2953709139607
 31
0.0
  0
LINE
  5
24284
330
18
100
AcDbEntity
  8
0
100
AcDbLine
 10
955.1903711670499
 20
-810.2953709139607
 30
0.0
 11
955.9903618598681
 21
-814.2953709139607
 31
0.0
  0
LINE
  5
24285
330
18
100
AcDbEntity
  8
0
100
AcDbLine
 10
956.7903711670499
 20
-810.2953709139607
 30
0.0
 11
957.5903618598725
 21
-814.2953709139607
 31
0.0
  0
LINE
  5
24286
330
18
100
AcDbEntity
  8
0
100
AcDbLine
 10
953.5903711670497
 20
-810.2953709139607
 30
0.0
 11
954.390361859868
 21
-814.2953709139607
 31
0.0
  0
LINE
  5
24287
330
18
100
AcDbEntity
  8
0
100
AcDbLine
 10
951.9903711670498
 20
-810.2953709139607
 30
0.0
 11
952.7903618598681
 21
-814.2953709139607
 31
0.0
  0
LINE
  5
24288
330
18
100
AcDbEntity
  8
0
100
AcDbLine
 10
942.2903700036436
 20
-810.7953709139607
 30
0.0
 11
942.3903711670413
 21
-810.2953709139607
 31
0.0
  0
LINE
  5
24289
330
18
100
AcDbEntity
  8
0
100
AcDbLine
 10
942.3903711670413
 20
-810.2953709139607
 30
0.0
 11
943.1903618598595
 21
-814.2953709139607
 31
0.0
  0
LINE
  5
2428A
330
18
100
AcDbEntity
  8
0
100
AcDbLine
 10
943.1903618598595
 20
-814.2953709139607
 30
0.0
 11
943.2903630232572
 21
-813.7953709139607
 31
0.0
  0
LINE
  5
2428B
330
18
100
AcDbEntity
  8
0
100
AcDbLine
 10
943.8903700036435
 20
-810.7953709139607
 30
0.0
 11
943.9903711670412
 21
-810.2953709139607
 31
0.0
  0
LINE
  5
2428C
330
18
100
AcDbEntity
  8
0
100
AcDbLine
 10
945.4903700036434
 20
-810.7953709139607
 30
0.0
 11
945.5903711670411
 21
-810.2953709139607
 31
0.0
  0
LINE
  5
2428D
330
18
100
AcDbEntity
  8
0
100
AcDbLine
 10
945.5903711670411
 20
-810.2953709139607
 30
0.0
 11
946.3903618598594
 21
-814.2953709139607
 31
0.0
  0
LINE
  5
2428E
330
18
100
AcDbEntity
  8
0
100
AcDbLine
 10
944.7903618598594
 20
-814.2953709139607
 30
0.0
 11
944.8903630232571
 21
-813.7953709139607
 31
0.0
  0
LINE
  5
2428F
330
18
100
AcDbEntity
  8
0
100
AcDbLine
 10
946.3903618598594
 20
-814.2953709139607
 30
0.0
 11
946.490363023257
 21
-813.7953709139607
 31
0.0
  0
LINE
  5
24290
330
18
100
AcDbEntity
  8
0
100
AcDbLine
 10
943.9903711670412
 20
-810.2953709139607
 30
0.0
 11
944.7903618598594
 21
-814.2953709139607
 31
0.0
  0
LINE
  5
24291
330
18
100
AcDbEntity
  8
0
100
AcDbLine
 10
947.0903700036478
 20
-810.7953709139607
 30
0.0
 11
947.1903711670454
 21
-810.2953709139607
 31
0.0
  0
LINE
  5
24292
330
18
100
AcDbEntity
  8
0
100
AcDbLine
 10
940.6903700036437
 20
-810.7953709139607
 30
0.0
 11
940.7903711670414
 21
-810.2953709139607
 31
0.0
  0
LINE
  5
24293
330
18
100
AcDbEntity
  8
0
100
AcDbLine
 10
940.7903711670414
 20
-810.2953709139607
 30
0.0
 11
941.5903618598596
 21
-814.2953709139607
 31
0.0
  0
LINE
  5
24294
330
18
100
AcDbEntity
  8
0
100
AcDbLine
 10
941.5903618598596
 20
-814.2953709139607
 30
0.0
 11
941.6903630232573
 21
-813.7953709139607
 31
0.0
  0
LINE
  5
24295
330
18
100
AcDbEntity
  8
0
100
AcDbLine
 10
939.0903700036438
 20
-810.7953709139607
 30
0.0
 11
939.1903711670415
 21
-810.2953709139607
 31
0.0
  0
LINE
  5
24296
330
18
100
AcDbEntity
  8
0
100
AcDbLine
 10
939.1903711670415
 20
-810.2953709139607
 30
0.0
 11
939.9903618598597
 21
-814.2953709139607
 31
0.0
  0
LINE
  5
24297
330
18
100
AcDbEntity
  8
0
100
AcDbLine
 10
939.9903618598597
 20
-814.2953709139607
 30
0.0
 11
940.0903630232574
 21
-813.7953709139607
 31
0.0
  0
LINE
  5
24298
330
18
100
AcDbEntity
  8
0
100
AcDbLine
 10
937.4903700036439
 20
-810.7953709139607
 30
0.0
 11
937.5903711670416
 21
-810.2953709139607
 31
0.0
  0
LINE
  5
24299
330
18
100
AcDbEntity
  8
0
100
AcDbLine
 10
937.5903711670416
 20
-810.2953709139607
 30
0.0
 11
938.3903618598598
 21
-814.2953709139607
 31
0.0
  0
LINE
  5
2429A
330
18
100
AcDbEntity
  8
0
100
AcDbLine
 10
938.3903618598598
 20
-814.2953709139607
 30
0.0
 11
938.4903630232575
 21
-813.7953709139607
 31
0.0
  0
LINE
  5
2429B
330
18
100
AcDbEntity
  8
1DIM
100
AcDbLine
 10
973.1211614309786
 20
-812.2953243780628
 30
0.0
 11
994.1903665136756
 21
-812.2953243780628
 31
0.0
1001
ACAD
1000
DSTYLE
1002
{
1070
    40
1040
2.0
1070
    45
1040
0.5
1070
   271
1070
     0
1002
}
  0
LINE
  5
2429C
330
18
100
AcDbEntity
  8
1DIM
100
AcDbLine
 10
940.6903665136756
 20
-770.7953243780628
 30
0.0
 11
994.1903665136756
 21
-770.7953243780628
 31
0.0
1001
ACAD
1000
DSTYLE
1002
{
1070
    40
1040
2.0
1070
    45
1040
0.5
1070
   271
1070
     0
1002
}
  0
LINE
  5
2429D
330
18
100
AcDbEntity
  8
1DIM
100
AcDbLine
 10
992.1903665136756
 20
-808.2953243780628
 30
0.0
 11
992.1903665136756
 21
-774.7953243780628
 31
0.0
1001
ACAD
1000
DSTYLE
1002
{
1070
    40
1040
2.0
1070
    45
1040
0.5
1070
   271
1070
     0
1002
}
  0
LINE
  5
242A1
330
18
100
AcDbEntity
  8
1DIM
100
AcDbLine
 10
940.6903665136756
 20
-916.7953243780628
 30
0.0
 11
1011.63565961243
 21
-916.7953243780628
 31
0.0
1001
ACAD
1000
DSTYLE
1002
{
1070
    40
1040
2.0
1070
    45
1040
0.5
1002
}
  0
LINE
  5
242A2
330
18
100
AcDbEntity
  8
1DIM
100
AcDbLine
 10
940.6903665136756
 20
-770.7953243780628
 30
0.0
 11
1011.63565961243
 21
-770.7953243780628
 31
0.0
1001
ACAD
1000
DSTYLE
1002
{
1070
    40
1040
2.0
1070
    45
1040
0.5
1002
}
  0
LINE
  5
242A3
330
18
100
AcDbEntity
  8
1DIM
100
AcDbLine
 10
1009.63565961243
 20
-912.7953243780628
 30
0.0
 11
1009.63565961243
 21
-774.7953243780628
 31
0.0
1001
ACAD
1000
DSTYLE
1002
{
1070
    40
1040
2.0
1070
    45
1040
0.5
1002
}
  0
LINE
  5
242A8
330
18
100
AcDbEntity
  8
1DIM
100
AcDbLine
 10
943.406009801194
 20
-763.5403280960821
 30
0.0
 11
942.5434833529073
 21
-746.1394043330419
 31
0.0
1001
ACAD
1000
DSTYLE
1002
{
1070
    40
1040
2.0
1070
    45
1040
0.5
1002
}
  0
LINE
  5
242AA
330
18
100
AcDbEntity
  8
1DIM
100
AcDbLine
 10
958.6290733768105
 20
-764.0098952756528
 30
0.0
 11
968.1885554899787
 21
-746.174419346252
 31
0.0
1001
ACAD
1000
DSTYLE
1002
{
1070
    40
1040
2.0
1070
    45
1040
0.5
1002
}
  0
LINE
  5
242AB
330
18
100
AcDbEntity
  8
1DIM
100
AcDbLine
 10
973.1211614309786
 20
-872.2953243780628
 30
0.0
 11
994.1903665136756
 21
-872.2953243780628
 31
0.0
1001
ACAD
1000
DSTYLE
1002
{
1070
    40
1040
2.0
1070
    45
1040
0.5
1002
}
  0
LINE
  5
242AC
330
18
100
AcDbEntity
  8
1DIM
100
AcDbLine
 10
973.1211614309786
 20
-842.2953243780628
 30
0.0
 11
994.1903665136756
 21
-842.2953243780628
 31
0.0
1001
ACAD
1000
DSTYLE
1002
{
1070
    40
1040
2.0
1070
    45
1040
0.5
1002
}
  0
LINE
  5
242AD
330
18
100
AcDbEntity
  8
1DIM
100
AcDbLine
 10
992.1903665136756
 20
-868.2953243780628
 30
0.0
 11
992.1903665136756
 21
-846.2953243780628
 31
0.0
1001
ACAD
1000
DSTYLE
1002
{
1070
    40
1040
2.0
1070
    45
1040
0.5
1002
}
  0
LINE
  5
242B2
330
18
100
AcDbEntity
  8
1DIM
100
AcDbLine
 10
920.8325806587252
 20
-829.7950476387997
 30
0.0
 11
899.6321450499457
 21
-862.986497027698
 31
0.0
1001
ACAD
1000
DSTYLE
1002
{
1070
    40
1040
2.0
1070
    45
1040
0.5
1002
}
  0
LINE
  5
242B3
330
18
100
AcDbEntity
  8
1DIM
100
AcDbLine
 10
899.6321450499457
 20
-862.986497027698
 30
0.0
 11
820.2654783832791
 21
-862.986497027698
 31
0.0
1001
ACAD
1000
DSTYLE
1002
{
1070
    40
1040
2.0
1070
    45
1040
0.5
1002
}
  0
TEXT
  5
242B4
330
18
100
AcDbEntity
  8
1DIM
  6
CONTINUOUS
100
AcDbText
 10
832.6321450499457
 20
-849.9198303610314
 30
0.0
 40
7.0
  1
材質：ABS樹脂
100
AcDbText
  0
TEXT
  5
242B5
330
18
100
AcDbEntity
  8
1DIM
  6
CONTINUOUS
100
AcDbText
 10
820.0321450499457
 20
-861.586497027698
 30
0.0
 40
7.0
  1
仕上げ：各種仕上げ
100
AcDbText
  0
LINE
  5
242B6
330
18
100
AcDbEntity
  8
1DIM
100
AcDbLine
 10
973.1211614309786
 20
-842.2953243780628
 30
0.0
 11
994.1903665136756
 21
-842.2953243780628
 31
0.0
1001
ACAD
1000
DSTYLE
1002
{
1070
    40
1040
2.0
1070
    45
1040
0.5
1002
}
  0
LINE
  5
242B7
330
18
100
AcDbEntity
  8
1DIM
100
AcDbLine
 10
973.1211614309786
 20
-812.2953243780628
 30
0.0
 11
994.1903665136756
 21
-812.2953243780628
 31
0.0
1001
ACAD
1000
DSTYLE
1002
{
1070
    40
1040
2.0
1070
    45
1040
0.5
1002
}
  0
LINE
  5
242B8
330
18
100
AcDbEntity
  8
1DIM
100
AcDbLine
 10
992.1903665136756
 20
-838.2953243780628
 30
0.0
 11
992.1903665136756
 21
-816.2953243780628
 31
0.0
1001
ACAD
1000
DSTYLE
1002
{
1070
    40
1040
2.0
1070
    45
1040
0.5
1002
}
  0
LINE
  5
242BC
330
18
100
AcDbEntity
  8
1DIM
100
AcDbLine
 10
973.1211614309786
 20
-902.2953243780628
 30
0.0
 11
994.1903665136756
 21
-902.2953243780628
 31
0.0
1001
ACAD
1000
DSTYLE
1002
{
1070
    40
1040
2.0
1070
    45
1040
0.5
1002
}
  0
LINE
  5
242BD
330
18
100
AcDbEntity
  8
1DIM
100
AcDbLine
 10
973.1211614309786
 20
-872.2953243780628
 30
0.0
 11
994.1903665136756
 21
-872.2953243780628
 31
0.0
1001
ACAD
1000
DSTYLE
1002
{
1070
    40
1040
2.0
1070
    45
1040
0.5
1002
}
  0
LINE
  5
242BE
330
18
100
AcDbEntity
  8
1DIM
100
AcDbLine
 10
992.1903665136756
 20
-898.2953243780628
 30
0.0
 11
992.1903665136756
 21
-876.2953243780628
 31
0.0
1001
ACAD
1000
DSTYLE
1002
{
1070
    40
1040
2.0
1070
    45
1040
0.5
1002
}
  0
LINE
  5
242C2
330
18
100
AcDbEntity
  8
1DIM
100
AcDbLine
 10
700.1903665136754
 20
-789.7953243780628
 30
0.0
 11
700.1903665136754
 21
-932.312556060879
 31
0.0
1001
ACAD
1000
DSTYLE
1002
{
1070
    40
1040
2.0
1070
    45
1040
0.5
1002
}
  0
LINE
  5
242C3
330
18
100
AcDbEntity
  8
1DIM
100
AcDbLine
 10
940.6903665136756
 20
-919.7025594432838
 30
0.0
 11
940.6903665136756
 21
-932.312556060879
 31
0.0
1001
ACAD
1000
DSTYLE
1002
{
1070
    40
1040
2.0
1070
    45
1040
0.5
1002
}
  0
LINE
  5
242C4
330
18
100
AcDbEntity
  8
1DIM
100
AcDbLine
 10
704.1903665136754
 20
-930.312556060879
 30
0.0
 11
936.6903665136756
 21
-930.312556060879
 31
0.0
1001
ACAD
1000
DSTYLE
1002
{
1070
    40
1040
2.0
1070
    45
1040
0.5
1002
}
  0
LINE
  5
242C8
330
18
100
AcDbEntity
  8
1DIM1
100
AcDbLine
 10
30.01624161536483
 20
-519.291606760575
 30
0.0
 11
30.01624161536483
 21
-500.956494276531
 31
0.0
1001
ACAD
1000
DSTYLE
1002
{
1070
    40
1040
3.0
1070
    45
1040
0.5
1002
}
  0
LINE
  5
242C9
330
18
100
AcDbEntity
  8
1DIM1
100
AcDbLine
 10
630.0162416153646
 20
-519.2916067605754
 30
0.0
 11
630.0162416153646
 21
-500.956494276531
 31
0.0
1001
ACAD
1000
DSTYLE
1002
{
1070
    40
1040
3.0
1070
    45
1040
0.5
1002
}
  0
LINE
  5
242CA
330
18
100
AcDbEntity
  8
1DIM1
100
AcDbLine
 10
36.01624161536483
 20
-503.956494276531
 30
0.0
 11
624.0162416153646
 21
-503.956494276531
 31
0.0
1001
ACAD
1000
DSTYLE
1002
{
1070
    40
1040
3.0
1070
    45
1040
0.5
1002
}
  0
LINE
  5
242CE
330
18
100
AcDbEntity
  8
1DIM1
100
AcDbLine
 10
-14.98375838463542
 20
-741.3213303512664
 30
0.0
 11
-14.98375838463542
 21
-769.3259792483979
 31
0.0
1001
ACAD
1000
DSTYLE
1002
{
1070
    40
1040
3.0
1070
    45
1040
0.5
1002
}
  0
LINE
  5
242CF
330
18
100
AcDbEntity
  8
1DIM1
100
AcDbLine
 10
675.0162416153646
 20
-741.3213303512664
 30
0.0
 11
675.0162416153646
 21
-769.3259792483979
 31
0.0
1001
ACAD
1000
DSTYLE
1002
{
1070
    40
1040
3.0
1070
    45
1040
0.5
1002
}
  0
LINE
  5
242D0
330
18
100
AcDbEntity
  8
1DIM1
100
AcDbLine
 10
-8.983758384635424
 20
-766.3259792483979
 30
0.0
 11
669.0162416153646
 21
-766.3259792483979
 31
0.0
1001
ACAD
1000
DSTYLE
1002
{
1070
    40
1040
3.0
1070
    45
1040
0.5
1002
}
  0
LINE
  5
242D4
330
18
100
AcDbEntity
  8
1DIM
100
AcDbLine
 10
670.0162416153646
 20
-788.5953243780632
 30
0.0
 11
650.4612490734092
 21
-788.5953243780632
 31
0.0
1001
ACAD
1000
DSTYLE
1002
{
1070
    40
1040
2.0
1070
    45
1040
0.5
1002
}
  0
LINE
  5
242D5
330
18
100
AcDbEntity
  8
1DIM
100
AcDbLine
 10
670.0162416153646
 20
-774.5953243780632
 30
0.0
 11
650.4612490734092
 21
-774.5953243780632
 31
0.0
1001
ACAD
1000
DSTYLE
1002
{
1070
    40
1040
2.0
1070
    45
1040
0.5
1002
}
  0
LINE
  5
242D6
330
18
100
AcDbEntity
  8
1DIM
100
AcDbLine
 10
652.4612490734092
 20
-788.5953243780632
 30
0.0
 11
652.4612490734092
 21
-815.4162797822644
 31
0.0
1001
ACAD
1000
DSTYLE
1002
{
1070
    40
1040
2.0
1070
    45
1040
0.5
1002
}
  0
LINE
  5
242D7
330
18
100
AcDbEntity
  8
1DIM
100
AcDbLine
 10
652.4612490734092
 20
-784.5953243780632
 30
0.0
 11
652.4612490734092
 21
-778.5953243780632
 31
0.0
1001
ACAD
1000
DSTYLE
1002
{
1070
    40
1040
2.0
1070
    45
1040
0.5
1002
}
  0
LINE
  5
242DC
330
18
100
AcDbEntity
  8
1DIM
100
AcDbLine
 10
663.0174885568459
 20
-772.2993450802607
 30
0.0
 11
696.7873689252124
 21
-752.3047180706142
 31
0.0
1001
ACAD
1000
DSTYLE
1002
{
1070
    40
1040
2.0
1070
    45
1040
0.5
1002
}
  0
LINE
  5
242DD
330
18
100
AcDbEntity
  8
1DIM
100
AcDbLine
 10
696.7873689252124
 20
-752.3047180706142
 30
0.0
 11
776.154035591879
 21
-752.3047180706142
 31
0.0
1001
ACAD
1000
DSTYLE
1002
{
1070
    40
1040
2.0
1070
    45
1040
0.5
1002
}
  0
TEXT
  5
242DE
330
18
100
AcDbEntity
  8
1DIM
  6
CONTINUOUS
100
AcDbText
 10
698.4499109609801
 20
-738.3035826756203
 30
0.0
 40
7.0
  1
材質：ステンレス
100
AcDbText
  0
TEXT
  5
242DF
330
18
100
AcDbEntity
  8
1DIM
  6
CONTINUOUS
100
AcDbText
 10
698.6832442943135
 20
-749.9702493422869
 30
0.0
 40
7.0
  1
仕上げ：各種仕上げ
100
AcDbText
  0
LINE
  5
242E1
330
18
100
AcDbEntity
  8
1DIM
100
AcDbLine
 10
672.905027236232
 20
-730.2095666294985
 30
0.0
 11
676.2041109307389
 21
-714.9244169484699
 31
0.0
1001
ACAD
1000
DSTYLE
1002
{
1070
    40
1040
2.0
1070
    45
1040
0.5
1002
}
  0
LINE
  5
242E2
330
18
100
AcDbEntity
  8
1DIM
100
AcDbLine
 10
676.2041109307389
 20
-714.9244169484699
 30
0.0
 11
755.5707775974056
 21
-714.9244169484699
 31
0.0
1001
ACAD
1000
DSTYLE
1002
{
1070
    40
1040
2.0
1070
    45
1040
0.5
1002
}
  0
TEXT
  5
242E3
330
18
100
AcDbEntity
  8
1DIM
  6
CONTINUOUS
100
AcDbText
 10
681.1374442640722
 20
-701.8577502818033
 30
0.0
 40
7.0
  1
材質：ABS樹脂
100
AcDbText
  0
TEXT
  5
242E4
330
18
100
AcDbEntity
  8
1DIM
  6
CONTINUOUS
100
AcDbText
 10
681.3707775974055
 20
-713.5244169484699
 30
0.0
 40
7.0
  1
仕上げ：各種仕上げ
100
AcDbText
  0
LINE
  5
242E6
330
18
100
AcDbEntity
  8
1DIM
100
AcDbLine
 10
879.5442950690123
 20
-766.7905561611808
 30
0.0
 11
888.7269253973933
 21
-729.7041187294386
 31
0.0
1001
ACAD
1000
DSTYLE
1002
{
1070
    40
1040
2.0
1070
    45
1040
0.5
1002
}
  0
LINE
  5
242E7
330
18
100
AcDbEntity
  8
1DIM
100
AcDbLine
 10
888.7269253973933
 20
-729.7041187294386
 30
0.0
 11
983.2602587307267
 21
-729.7041187294386
 31
0.0
1001
ACAD
1000
DSTYLE
1002
{
1070
    40
1040
2.0
1070
    45
1040
0.5
1002
}
  0
TEXT
  5
242E8
330
18
100
AcDbEntity
  8
1DIM
  6
CONTINUOUS
100
AcDbText
 10
895.0602587307266
 20
-716.637452062772
 30
0.0
 40
7.0
  1
材質：亜鉛ダイキャスト
100
AcDbText
  0
TEXT
  5
242E9
330
18
100
AcDbEntity
  8
1DIM
  6
CONTINUOUS
100
AcDbText
 10
910.4602587307265
 20
-728.3041187294386
 30
0.0
 40
7.0
  1
仕上げ：各種仕上げ
100
AcDbText
  0
LINE
  5
242EA
330
18
100
AcDbEntity
  8
0
100
AcDbLine
 10
630.0162881512625
 20
-480.6213303514289
 30
0.0
 11
628.5162881512625
 21
-485.9213268612906
 31
0.0
  0
LINE
  5
242EB
330
18
100
AcDbEntity
  8
0
100
AcDbLine
 10
628.5162881512625
 20
-485.9213268612906
 30
0.0
 11
628.5162881512628
 21
-515.6213268611825
 31
0.0
  0
LINE
  5
242EC
330
18
100
AcDbEntity
  8
0
100
AcDbLine
 10
630.0162881512625
 20
-480.6213303514289
 30
0.0
 11
631.5162881512626
 21
-485.9213338416743
 31
0.0
  0
LINE
  5
242ED
330
18
100
AcDbEntity
  8
0
100
AcDbLine
 10
626.5162416153647
 20
-515.6213222074844
 30
0.0
 11
633.5162416153646
 21
-515.6213384950488
 31
0.0
  0
LINE
  5
242EE
330
18
100
AcDbEntity
  8
0
100
AcDbLine
 10
631.5162881512626
 20
-485.9213338416743
 30
0.0
 11
631.5162881512628
 21
-515.6213338415672
 31
0.0
  0
LINE
  5
242EF
330
18
100
AcDbEntity
  8
0
100
AcDbLine
 10
626.5162416153647
 20
-515.6213222074844
 30
0.0
 11
626.5162416153646
 21
-516.7213256976797
 31
0.0
  0
ARC
  5
242F0
330
18
100
AcDbEntity
  8
0
100
AcDbCircle
 10
628.0162416153646
 20
-516.7213256976797
 30
0.0
 40
1.5
100
AcDbArc
 50
180.0
 51
269.9998666844662
  0
LINE
  5
242F1
330
18
100
AcDbEntity
  8
0
100
AcDbLine
 10
633.5162416153646
 20
-515.6213384950488
 30
0.0
 11
633.5162416153646
 21
-516.7213350048594
 31
0.0
  0
LINE
  5
242F2
330
18
100
AcDbEntity
  8
0
100
AcDbLine
 10
628.0162381251722
 20
-518.2213256976756
 30
0.0
 11
632.0162381251722
 21
-518.2213350048553
 31
0.0
  0
ARC
  5
242F3
330
18
100
AcDbEntity
  8
0
100
AcDbCircle
 10
632.0162416153646
 20
-516.7213350048594
 30
0.0
 40
1.5
100
AcDbArc
 50
269.9998666844662
 51
0.0
  0
LINE
  5
242F4
330
18
100
AcDbEntity
  8
1CENTER
100
AcDbLine
 10
630.0162416153646
 20
-479.1905354339635
 30
0.0
 11
630.0162416153646
 21
-519.2916067605754
 31
0.0
  0
LINE
  5
242F5
330
18
100
AcDbEntity
  8
0
100
AcDbLine
 10
628.9219178013695
 20
-482.7213278051067
 30
0.0
 11
630.884252890245
 21
-481.9213323710558
 31
0.0
  0
LINE
  5
242F6
330
18
100
AcDbEntity
  8
0
100
AcDbLine
 10
630.884252890245
 20
-481.9213323710558
 30
0.0
 11
630.2959763152026
 21
-481.6095625148037
 31
0.0
  0
LINE
  5
242F7
330
18
100
AcDbEntity
  8
0
100
AcDbLine
 10
628.0162881512625
 20
-505.1213256978967
 30
0.0
 11
632.0162881512625
 21
-504.3213350050785
 31
0.0
  0
LINE
  5
242F8
330
18
100
AcDbEntity
  8
0
100
AcDbLine
 10
628.0162881512625
 20
-493.9213256978924
 30
0.0
 11
632.0162881512625
 21
-493.1213350050698
 31
0.0
  0
LINE
  5
242F9
330
18
100
AcDbEntity
  8
0
100
AcDbLine
 10
628.0162881512625
 20
-490.7213256978923
 30
0.0
 11
632.0162881512625
 21
-489.9213350050697
 31
0.0
  0
LINE
  5
242FA
330
18
100
AcDbEntity
  8
0
100
AcDbLine
 10
632.0162881512625
 20
-489.9213350050697
 30
0.0
 11
631.5162881512625
 21
-489.8213338416725
 31
0.0
  0
LINE
  5
242FB
330
18
100
AcDbEntity
  8
0
100
AcDbLine
 10
628.5162881512625
 20
-489.2213268612895
 30
0.0
 11
628.0162881512625
 21
-489.1213256978923
 31
0.0
  0
LINE
  5
242FC
330
18
100
AcDbEntity
  8
0
100
AcDbLine
 10
632.0162881512625
 20
-493.1213350050698
 30
0.0
 11
631.5162881512625
 21
-493.0213338416726
 31
0.0
  0
LINE
  5
242FD
330
18
100
AcDbEntity
  8
0
100
AcDbLine
 10
632.0162881512625
 20
-491.5213350050697
 30
0.0
 11
631.5162881512625
 21
-491.4213338416725
 31
0.0
  0
LINE
  5
242FE
330
18
100
AcDbEntity
  8
0
100
AcDbLine
 10
628.5162881512625
 20
-490.8213268612894
 30
0.0
 11
628.0162881512625
 21
-490.7213256978923
 31
0.0
  0
LINE
  5
242FF
330
18
100
AcDbEntity
  8
0
100
AcDbLine
 10
628.5162881512625
 20
-492.4213268612893
 30
0.0
 11
628.0162881512625
 21
-492.3213256978922
 31
0.0
  0
LINE
  5
24300
330
18
100
AcDbEntity
  8
0
100
AcDbLine
 10
628.0162881512625
 20
-492.3213256978922
 30
0.0
 11
632.0162881512625
 21
-491.5213350050697
 31
0.0
  0
LINE
  5
24301
330
18
100
AcDbEntity
  8
0
100
AcDbLine
 10
631.3370669946518
 20
-483.5213334246614
 30
0.0
 11
630.7853175308485
 21
-483.3385692820334
 31
0.0
  0
LINE
  5
24302
330
18
100
AcDbEntity
  8
0
100
AcDbLine
 10
632.0162881512625
 20
-486.7213350050697
 30
0.0
 11
631.5162881512625
 21
-486.6213338416726
 31
0.0
  0
LINE
  5
24303
330
18
100
AcDbEntity
  8
0
100
AcDbLine
 10
632.0162881512625
 20
-488.3213350050697
 30
0.0
 11
631.5162881512625
 21
-488.2213338416727
 31
0.0
  0
LINE
  5
24304
330
18
100
AcDbEntity
  8
0
100
AcDbLine
 10
631.7898810990586
 20
-485.121334478267
 30
0.0
 11
631.2532873637874
 21
-484.9920637806372
 31
0.0
  0
LINE
  5
24305
330
18
100
AcDbEntity
  8
0
100
AcDbLine
 10
628.9372027484712
 20
-484.4340962638526
 30
0.0
 11
628.4691042933213
 21
-484.3213267515025
 31
0.0
  0
LINE
  5
24306
330
18
100
AcDbEntity
  8
0
100
AcDbLine
 10
628.5162881512625
 20
-487.6213268612894
 30
0.0
 11
628.0162881512625
 21
-487.5213256978923
 31
0.0
  0
LINE
  5
24307
330
18
100
AcDbEntity
  8
0
100
AcDbLine
 10
628.5162881512625
 20
-486.0213268612895
 30
0.0
 11
628.0162881512625
 21
-485.9213256978924
 31
0.0
  0
LINE
  5
24308
330
18
100
AcDbEntity
  8
0
100
AcDbLine
 10
629.3790896420006
 20
-482.8727636015471
 30
0.0
 11
628.9219178013695
 21
-482.7213278051067
 31
0.0
  0
LINE
  5
24309
330
18
100
AcDbEntity
  8
0
100
AcDbLine
 10
628.4691042933213
 20
-484.3213267515025
 30
0.0
 11
631.3370669946518
 21
-483.5213334246614
 31
0.0
  0
LINE
  5
2430A
330
18
100
AcDbEntity
  8
0
100
AcDbLine
 10
628.0162881512625
 20
-487.5213256978923
 30
0.0
 11
632.0162881512625
 21
-486.7213350050697
 31
0.0
  0
LINE
  5
2430B
330
18
100
AcDbEntity
  8
0
100
AcDbLine
 10
628.0162881512625
 20
-485.9213256978924
 30
0.0
 11
631.7898810990586
 21
-485.121334478267
 31
0.0
  0
LINE
  5
2430C
330
18
100
AcDbEntity
  8
0
100
AcDbLine
 10
628.0162881512625
 20
-489.1213256978923
 30
0.0
 11
632.0162881512625
 21
-488.3213350050697
 31
0.0
  0
LINE
  5
2430D
330
18
100
AcDbEntity
  8
0
100
AcDbLine
 10
628.0162881512625
 20
-501.9213256978967
 30
0.0
 11
632.0162881512625
 21
-501.1213350050784
 31
0.0
  0
LINE
  5
2430E
330
18
100
AcDbEntity
  8
0
100
AcDbLine
 10
632.0162881512625
 20
-501.1213350050784
 30
0.0
 11
631.5162881512625
 21
-501.0213338416808
 31
0.0
  0
LINE
  5
2430F
330
18
100
AcDbEntity
  8
0
100
AcDbLine
 10
628.5162881512625
 20
-500.42132686129
 30
0.0
 11
628.0162881512625
 21
-500.3213256978923
 31
0.0
  0
LINE
  5
24310
330
18
100
AcDbEntity
  8
0
100
AcDbLine
 10
632.0162881512625
 20
-502.7213350050786
 30
0.0
 11
631.5162881512625
 21
-502.6213338416809
 31
0.0
  0
LINE
  5
24311
330
18
100
AcDbEntity
  8
0
100
AcDbLine
 10
632.0162881512625
 20
-504.3213350050785
 30
0.0
 11
631.5162881512625
 21
-504.2213338416808
 31
0.0
  0
LINE
  5
24312
330
18
100
AcDbEntity
  8
0
100
AcDbLine
 10
628.5162881512625
 20
-502.0213268612944
 30
0.0
 11
628.0162881512625
 21
-501.9213256978967
 31
0.0
  0
LINE
  5
24313
330
18
100
AcDbEntity
  8
0
100
AcDbLine
 10
628.5162881512625
 20
-503.6213268612945
 30
0.0
 11
628.0162881512625
 21
-503.5213256978968
 31
0.0
  0
LINE
  5
24314
330
18
100
AcDbEntity
  8
0
100
AcDbLine
 10
628.0162881512625
 20
-503.5213256978968
 30
0.0
 11
632.0162881512625
 21
-502.7213350050786
 31
0.0
  0
LINE
  5
24315
330
18
100
AcDbEntity
  8
0
100
AcDbLine
 10
632.0162881512625
 20
-496.321335005074
 30
0.0
 11
631.5162881512625
 21
-496.2213338416764
 31
0.0
  0
LINE
  5
24316
330
18
100
AcDbEntity
  8
0
100
AcDbLine
 10
632.0162881512625
 20
-494.7213350050697
 30
0.0
 11
631.5162881512625
 21
-494.6213338416726
 31
0.0
  0
LINE
  5
24317
330
18
100
AcDbEntity
  8
0
100
AcDbLine
 10
632.0162881512625
 20
-499.5213350050741
 30
0.0
 11
631.5162881512625
 21
-499.4213338416764
 31
0.0
  0
LINE
  5
24318
330
18
100
AcDbEntity
  8
0
100
AcDbLine
 10
632.0162881512625
 20
-497.9213350050742
 30
0.0
 11
631.5162881512625
 21
-497.8213338416765
 31
0.0
  0
LINE
  5
24319
330
18
100
AcDbEntity
  8
0
100
AcDbLine
 10
628.5162881512625
 20
-494.0213268612895
 30
0.0
 11
628.0162881512625
 21
-493.9213256978924
 31
0.0
  0
LINE
  5
2431A
330
18
100
AcDbEntity
  8
0
100
AcDbLine
 10
628.5162881512625
 20
-495.6213268612901
 30
0.0
 11
628.0162881512625
 21
-495.5213256978923
 31
0.0
  0
LINE
  5
2431B
330
18
100
AcDbEntity
  8
0
100
AcDbLine
 10
628.5162881512625
 20
-498.8213268612901
 30
0.0
 11
628.0162881512625
 21
-498.7213256978924
 31
0.0
  0
LINE
  5
2431C
330
18
100
AcDbEntity
  8
0
100
AcDbLine
 10
628.5162881512625
 20
-497.22132686129
 30
0.0
 11
628.0162881512625
 21
-497.1213256978923
 31
0.0
  0
LINE
  5
2431D
330
18
100
AcDbEntity
  8
0
100
AcDbLine
 10
628.0162881512625
 20
-497.1213256978923
 30
0.0
 11
632.0162881512625
 21
-496.321335005074
 31
0.0
  0
LINE
  5
2431E
330
18
100
AcDbEntity
  8
0
100
AcDbLine
 10
628.0162881512625
 20
-495.5213256978923
 30
0.0
 11
632.0162881512625
 21
-494.7213350050697
 31
0.0
  0
LINE
  5
2431F
330
18
100
AcDbEntity
  8
0
100
AcDbLine
 10
628.0162881512625
 20
-498.7213256978924
 30
0.0
 11
632.0162881512625
 21
-497.9213350050742
 31
0.0
  0
LINE
  5
24320
330
18
100
AcDbEntity
  8
0
100
AcDbLine
 10
628.0162881512625
 20
-500.3213256978923
 30
0.0
 11
632.0162881512625
 21
-499.5213350050741
 31
0.0
  0
LINE
  5
24321
330
18
100
AcDbEntity
  8
0
100
AcDbLine
 10
628.5162881512625
 20
-510.0213268612986
 30
0.0
 11
628.0162881512625
 21
-509.9213256979009
 31
0.0
  0
LINE
  5
24322
330
18
100
AcDbEntity
  8
0
100
AcDbLine
 10
628.0162881512625
 20
-509.9213256979009
 30
0.0
 11
632.0162881512625
 21
-509.1213350050826
 31
0.0
  0
LINE
  5
24323
330
18
100
AcDbEntity
  8
0
100
AcDbLine
 10
632.0162881512625
 20
-509.1213350050826
 30
0.0
 11
631.5162881512625
 21
-509.021333841685
 31
0.0
  0
LINE
  5
24324
330
18
100
AcDbEntity
  8
0
100
AcDbLine
 10
628.5162881512625
 20
-508.4213268612987
 30
0.0
 11
628.0162881512625
 21
-508.321325697901
 31
0.0
  0
LINE
  5
24325
330
18
100
AcDbEntity
  8
0
100
AcDbLine
 10
628.5162881512625
 20
-506.8213268612988
 30
0.0
 11
628.0162881512625
 21
-506.7213256979011
 31
0.0
  0
LINE
  5
24326
330
18
100
AcDbEntity
  8
0
100
AcDbLine
 10
628.0162881512625
 20
-506.7213256979011
 30
0.0
 11
632.0162881512625
 21
-505.9213350050828
 31
0.0
  0
LINE
  5
24327
330
18
100
AcDbEntity
  8
0
100
AcDbLine
 10
632.0162881512625
 20
-507.5213350050827
 30
0.0
 11
631.5162881512625
 21
-507.4213338416851
 31
0.0
  0
LINE
  5
24328
330
18
100
AcDbEntity
  8
0
100
AcDbLine
 10
632.0162881512625
 20
-505.9213350050828
 30
0.0
 11
631.5162881512625
 21
-505.8213338416851
 31
0.0
  0
LINE
  5
24329
330
18
100
AcDbEntity
  8
0
100
AcDbLine
 10
628.0162881512625
 20
-508.321325697901
 30
0.0
 11
632.0162881512625
 21
-507.5213350050827
 31
0.0
  0
LINE
  5
2432A
330
18
100
AcDbEntity
  8
0
100
AcDbLine
 10
628.5162881512625
 20
-505.2213268612944
 30
0.0
 11
628.0162881512625
 21
-505.1213256978967
 31
0.0
  0
LINE
  5
2432B
330
18
100
AcDbEntity
  8
0
100
AcDbLine
 10
628.5162881512625
 20
-511.6213268612985
 30
0.0
 11
628.0162881512625
 21
-511.5213256979008
 31
0.0
  0
LINE
  5
2432C
330
18
100
AcDbEntity
  8
0
100
AcDbLine
 10
628.0162881512625
 20
-511.5213256979008
 30
0.0
 11
632.0162881512625
 21
-510.7213350050826
 31
0.0
  0
LINE
  5
2432D
330
18
100
AcDbEntity
  8
0
100
AcDbLine
 10
632.0162881512625
 20
-510.7213350050826
 30
0.0
 11
631.5162881512625
 21
-510.6213338416849
 31
0.0
  0
LINE
  5
2432E
330
18
100
AcDbEntity
  8
0
100
AcDbLine
 10
628.5162881512625
 20
-513.2213268612984
 30
0.0
 11
628.0162881512625
 21
-513.1213256979007
 31
0.0
  0
LINE
  5
2432F
330
18
100
AcDbEntity
  8
0
100
AcDbLine
 10
628.0162881512625
 20
-513.1213256979007
 30
0.0
 11
632.0162881512625
 21
-512.3213350050825
 31
0.0
  0
LINE
  5
24330
330
18
100
AcDbEntity
  8
0
100
AcDbLine
 10
632.0162881512625
 20
-512.3213350050825
 30
0.0
 11
631.5162881512625
 21
-512.2213338416848
 31
0.0
  0
LINE
  5
24331
330
18
100
AcDbEntity
  8
0
100
AcDbLine
 10
628.5162881512625
 20
-514.8213268612983
 30
0.0
 11
628.0162881512625
 21
-514.7213256979006
 31
0.0
  0
LINE
  5
24332
330
18
100
AcDbEntity
  8
0
100
AcDbLine
 10
628.0162881512625
 20
-514.7213256979006
 30
0.0
 11
632.0162881512625
 21
-513.9213350050824
 31
0.0
  0
LINE
  5
24333
330
18
100
AcDbEntity
  8
0
100
AcDbLine
 10
632.0162881512625
 20
-513.9213350050824
 30
0.0
 11
631.5162881512625
 21
-513.8213338416847
 31
0.0
  0
LINE
  5
24334
330
18
100
AcDbEntity
  8
0
100
AcDbLine
 10
30.01628815126254
 20
-480.6213303514289
 30
0.0
 11
28.51628815126254
 21
-485.9213268612906
 31
0.0
  0
LINE
  5
24335
330
18
100
AcDbEntity
  8
0
100
AcDbLine
 10
28.51628815126254
 20
-485.9213268612906
 30
0.0
 11
28.51628815126276
 21
-515.6213268611825
 31
0.0
  0
LINE
  5
24336
330
18
100
AcDbEntity
  8
0
100
AcDbLine
 10
30.01628815126254
 20
-480.6213303514289
 30
0.0
 11
31.51628815126265
 21
-485.9213338416743
 31
0.0
  0
LINE
  5
24337
330
18
100
AcDbEntity
  8
0
100
AcDbLine
 10
26.51624161536472
 20
-515.6213222074844
 30
0.0
 11
33.51624161536461
 21
-515.6213384950488
 31
0.0
  0
LINE
  5
24338
330
18
100
AcDbEntity
  8
0
100
AcDbLine
 10
31.51628815126265
 20
-485.9213338416743
 30
0.0
 11
31.51628815126276
 21
-515.6213338415672
 31
0.0
  0
LINE
  5
24339
330
18
100
AcDbEntity
  8
0
100
AcDbLine
 10
26.51624161536472
 20
-515.6213222074844
 30
0.0
 11
26.51624161536461
 21
-516.7213256976797
 31
0.0
  0
ARC
  5
2433A
330
18
100
AcDbEntity
  8
0
100
AcDbCircle
 10
28.01624161536461
 20
-516.7213256976797
 30
0.0
 40
1.5
100
AcDbArc
 50
180.0
 51
269.9998666844684
  0
LINE
  5
2433B
330
18
100
AcDbEntity
  8
0
100
AcDbLine
 10
33.51624161536461
 20
-515.6213384950488
 30
0.0
 11
33.51624161536461
 21
-516.7213350048594
 31
0.0
  0
LINE
  5
2433C
330
18
100
AcDbEntity
  8
0
100
AcDbLine
 10
28.01623812517221
 20
-518.2213256976756
 30
0.0
 11
32.01623812517221
 21
-518.2213350048553
 31
0.0
  0
ARC
  5
2433D
330
18
100
AcDbEntity
  8
0
100
AcDbCircle
 10
32.01624161536461
 20
-516.7213350048594
 30
0.0
 40
1.5
100
AcDbArc
 50
269.9998666844684
 51
0.0
  0
LINE
  5
2433E
330
18
100
AcDbEntity
  8
1CENTER
100
AcDbLine
 10
30.01624161536461
 20
-479.1905354339635
 30
0.0
 11
30.01624161536461
 21
-519.2916067605754
 31
0.0
  0
LINE
  5
2433F
330
18
100
AcDbEntity
  8
0
100
AcDbLine
 10
28.92191780136955
 20
-482.7213278051067
 30
0.0
 11
30.88425289024497
 21
-481.9213323710558
 31
0.0
  0
LINE
  5
24340
330
18
100
AcDbEntity
  8
0
100
AcDbLine
 10
30.88425289024497
 20
-481.9213323710558
 30
0.0
 11
30.29597631520256
 21
-481.6095625148037
 31
0.0
  0
LINE
  5
24341
330
18
100
AcDbEntity
  8
0
100
AcDbLine
 10
28.01628815126253
 20
-505.1213256978967
 30
0.0
 11
32.01628815126253
 21
-504.3213350050785
 31
0.0
  0
LINE
  5
24342
330
18
100
AcDbEntity
  8
0
100
AcDbLine
 10
28.01628815126253
 20
-493.9213256978924
 30
0.0
 11
32.01628815126254
 21
-493.1213350050698
 31
0.0
  0
LINE
  5
24343
330
18
100
AcDbEntity
  8
0
100
AcDbLine
 10
28.01628815126253
 20
-490.7213256978923
 30
0.0
 11
32.01628815126254
 21
-489.9213350050697
 31
0.0
  0
LINE
  5
24344
330
18
100
AcDbEntity
  8
0
100
AcDbLine
 10
32.01628815126254
 20
-489.9213350050697
 30
0.0
 11
31.51628815126253
 21
-489.8213338416725
 31
0.0
  0
LINE
  5
24345
330
18
100
AcDbEntity
  8
0
100
AcDbLine
 10
28.51628815126253
 20
-489.2213268612895
 30
0.0
 11
28.01628815126253
 21
-489.1213256978923
 31
0.0
  0
LINE
  5
24346
330
18
100
AcDbEntity
  8
0
100
AcDbLine
 10
32.01628815126254
 20
-493.1213350050698
 30
0.0
 11
31.51628815126253
 21
-493.0213338416726
 31
0.0
  0
LINE
  5
24347
330
18
100
AcDbEntity
  8
0
100
AcDbLine
 10
32.01628815126254
 20
-491.5213350050697
 30
0.0
 11
31.51628815126253
 21
-491.4213338416725
 31
0.0
  0
LINE
  5
24348
330
18
100
AcDbEntity
  8
0
100
AcDbLine
 10
28.51628815126253
 20
-490.8213268612894
 30
0.0
 11
28.01628815126253
 21
-490.7213256978923
 31
0.0
  0
LINE
  5
24349
330
18
100
AcDbEntity
  8
0
100
AcDbLine
 10
28.51628815126253
 20
-492.4213268612893
 30
0.0
 11
28.01628815126253
 21
-492.3213256978922
 31
0.0
  0
LINE
  5
2434A
330
18
100
AcDbEntity
  8
0
100
AcDbLine
 10
28.01628815126253
 20
-492.3213256978922
 30
0.0
 11
32.01628815126254
 21
-491.5213350050697
 31
0.0
  0
LINE
  5
2434B
330
18
100
AcDbEntity
  8
0
100
AcDbLine
 10
31.33706699465177
 20
-483.5213334246614
 30
0.0
 11
30.78531753084849
 21
-483.3385692820334
 31
0.0
  0
LINE
  5
2434C
330
18
100
AcDbEntity
  8
0
100
AcDbLine
 10
32.01628815126254
 20
-486.7213350050697
 30
0.0
 11
31.51628815126254
 21
-486.6213338416726
 31
0.0
  0
LINE
  5
2434D
330
18
100
AcDbEntity
  8
0
100
AcDbLine
 10
32.01628815126254
 20
-488.3213350050697
 30
0.0
 11
31.51628815126253
 21
-488.2213338416727
 31
0.0
  0
LINE
  5
2434E
330
18
100
AcDbEntity
  8
0
100
AcDbLine
 10
31.78988109905857
 20
-485.121334478267
 30
0.0
 11
31.25328736378743
 21
-484.9920637806372
 31
0.0
  0
LINE
  5
2434F
330
18
100
AcDbEntity
  8
0
100
AcDbLine
 10
28.93720274847124
 20
-484.4340962638526
 30
0.0
 11
28.46910429332127
 21
-484.3213267515025
 31
0.0
  0
LINE
  5
24350
330
18
100
AcDbEntity
  8
0
100
AcDbLine
 10
28.51628815126253
 20
-487.6213268612894
 30
0.0
 11
28.01628815126253
 21
-487.5213256978923
 31
0.0
  0
LINE
  5
24351
330
18
100
AcDbEntity
  8
0
100
AcDbLine
 10
28.51628815126254
 20
-486.0213268612895
 30
0.0
 11
28.01628815126254
 21
-485.9213256978924
 31
0.0
  0
LINE
  5
24352
330
18
100
AcDbEntity
  8
0
100
AcDbLine
 10
29.37908964200063
 20
-482.8727636015471
 30
0.0
 11
28.92191780136955
 21
-482.7213278051067
 31
0.0
  0
LINE
  5
24353
330
18
100
AcDbEntity
  8
0
100
AcDbLine
 10
28.46910429332127
 20
-484.3213267515025
 30
0.0
 11
31.33706699465177
 21
-483.5213334246614
 31
0.0
  0
LINE
  5
24354
330
18
100
AcDbEntity
  8
0
100
AcDbLine
 10
28.01628815126253
 20
-487.5213256978923
 30
0.0
 11
32.01628815126254
 21
-486.7213350050697
 31
0.0
  0
LINE
  5
24355
330
18
100
AcDbEntity
  8
0
100
AcDbLine
 10
28.01628815126254
 20
-485.9213256978924
 30
0.0
 11
31.78988109905857
 21
-485.121334478267
 31
0.0
  0
LINE
  5
24356
330
18
100
AcDbEntity
  8
0
100
AcDbLine
 10
28.01628815126253
 20
-489.1213256978923
 30
0.0
 11
32.01628815126254
 21
-488.3213350050697
 31
0.0
  0
LINE
  5
24357
330
18
100
AcDbEntity
  8
0
100
AcDbLine
 10
28.01628815126253
 20
-501.9213256978967
 30
0.0
 11
32.01628815126253
 21
-501.1213350050784
 31
0.0
  0
LINE
  5
24358
330
18
100
AcDbEntity
  8
0
100
AcDbLine
 10
32.01628815126253
 20
-501.1213350050784
 30
0.0
 11
31.51628815126253
 21
-501.0213338416808
 31
0.0
  0
LINE
  5
24359
330
18
100
AcDbEntity
  8
0
100
AcDbLine
 10
28.51628815126253
 20
-500.42132686129
 30
0.0
 11
28.01628815126253
 21
-500.3213256978923
 31
0.0
  0
LINE
  5
2435A
330
18
100
AcDbEntity
  8
0
100
AcDbLine
 10
32.01628815126253
 20
-502.7213350050786
 30
0.0
 11
31.51628815126253
 21
-502.6213338416809
 31
0.0
  0
LINE
  5
2435B
330
18
100
AcDbEntity
  8
0
100
AcDbLine
 10
32.01628815126253
 20
-504.3213350050785
 30
0.0
 11
31.51628815126253
 21
-504.2213338416808
 31
0.0
  0
LINE
  5
2435C
330
18
100
AcDbEntity
  8
0
100
AcDbLine
 10
28.51628815126253
 20
-502.0213268612944
 30
0.0
 11
28.01628815126253
 21
-501.9213256978967
 31
0.0
  0
LINE
  5
2435D
330
18
100
AcDbEntity
  8
0
100
AcDbLine
 10
28.51628815126253
 20
-503.6213268612945
 30
0.0
 11
28.01628815126253
 21
-503.5213256978968
 31
0.0
  0
LINE
  5
2435E
330
18
100
AcDbEntity
  8
0
100
AcDbLine
 10
28.01628815126253
 20
-503.5213256978968
 30
0.0
 11
32.01628815126253
 21
-502.7213350050786
 31
0.0
  0
LINE
  5
2435F
330
18
100
AcDbEntity
  8
0
100
AcDbLine
 10
32.01628815126253
 20
-496.321335005074
 30
0.0
 11
31.51628815126253
 21
-496.2213338416764
 31
0.0
  0
LINE
  5
24360
330
18
100
AcDbEntity
  8
0
100
AcDbLine
 10
32.01628815126254
 20
-494.7213350050697
 30
0.0
 11
31.51628815126253
 21
-494.6213338416726
 31
0.0
  0
LINE
  5
24361
330
18
100
AcDbEntity
  8
0
100
AcDbLine
 10
32.01628815126253
 20
-499.5213350050741
 30
0.0
 11
31.51628815126253
 21
-499.4213338416764
 31
0.0
  0
LINE
  5
24362
330
18
100
AcDbEntity
  8
0
100
AcDbLine
 10
32.01628815126253
 20
-497.9213350050742
 30
0.0
 11
31.51628815126253
 21
-497.8213338416765
 31
0.0
  0
LINE
  5
24363
330
18
100
AcDbEntity
  8
0
100
AcDbLine
 10
28.51628815126253
 20
-494.0213268612895
 30
0.0
 11
28.01628815126253
 21
-493.9213256978924
 31
0.0
  0
LINE
  5
24364
330
18
100
AcDbEntity
  8
0
100
AcDbLine
 10
28.51628815126253
 20
-495.6213268612901
 30
0.0
 11
28.01628815126253
 21
-495.5213256978923
 31
0.0
  0
LINE
  5
24365
330
18
100
AcDbEntity
  8
0
100
AcDbLine
 10
28.51628815126253
 20
-498.8213268612901
 30
0.0
 11
28.01628815126253
 21
-498.7213256978924
 31
0.0
  0
LINE
  5
24366
330
18
100
AcDbEntity
  8
0
100
AcDbLine
 10
28.51628815126253
 20
-497.22132686129
 30
0.0
 11
28.01628815126253
 21
-497.1213256978923
 31
0.0
  0
LINE
  5
24367
330
18
100
AcDbEntity
  8
0
100
AcDbLine
 10
28.01628815126253
 20
-497.1213256978923
 30
0.0
 11
32.01628815126253
 21
-496.321335005074
 31
0.0
  0
LINE
  5
24368
330
18
100
AcDbEntity
  8
0
100
AcDbLine
 10
28.01628815126253
 20
-495.5213256978923
 30
0.0
 11
32.01628815126254
 21
-494.7213350050697
 31
0.0
  0
LINE
  5
24369
330
18
100
AcDbEntity
  8
0
100
AcDbLine
 10
28.01628815126253
 20
-498.7213256978924
 30
0.0
 11
32.01628815126253
 21
-497.9213350050742
 31
0.0
  0
LINE
  5
2436A
330
18
100
AcDbEntity
  8
0
100
AcDbLine
 10
28.01628815126253
 20
-500.3213256978923
 30
0.0
 11
32.01628815126253
 21
-499.5213350050741
 31
0.0
  0
LINE
  5
2436B
330
18
100
AcDbEntity
  8
0
100
AcDbLine
 10
28.51628815126253
 20
-510.0213268612986
 30
0.0
 11
28.01628815126253
 21
-509.9213256979009
 31
0.0
  0
LINE
  5
2436C
330
18
100
AcDbEntity
  8
0
100
AcDbLine
 10
28.01628815126253
 20
-509.9213256979009
 30
0.0
 11
32.01628815126253
 21
-509.1213350050826
 31
0.0
  0
LINE
  5
2436D
330
18
100
AcDbEntity
  8
0
100
AcDbLine
 10
32.01628815126253
 20
-509.1213350050826
 30
0.0
 11
31.51628815126253
 21
-509.021333841685
 31
0.0
  0
LINE
  5
2436E
330
18
100
AcDbEntity
  8
0
100
AcDbLine
 10
28.51628815126253
 20
-508.4213268612987
 30
0.0
 11
28.01628815126253
 21
-508.321325697901
 31
0.0
  0
LINE
  5
2436F
330
18
100
AcDbEntity
  8
0
100
AcDbLine
 10
28.51628815126253
 20
-506.8213268612988
 30
0.0
 11
28.01628815126253
 21
-506.7213256979011
 31
0.0
  0
LINE
  5
24370
330
18
100
AcDbEntity
  8
0
100
AcDbLine
 10
28.01628815126253
 20
-506.7213256979011
 30
0.0
 11
32.01628815126253
 21
-505.9213350050828
 31
0.0
  0
LINE
  5
24371
330
18
100
AcDbEntity
  8
0
100
AcDbLine
 10
32.01628815126253
 20
-507.5213350050827
 30
0.0
 11
31.51628815126253
 21
-507.4213338416851
 31
0.0
  0
LINE
  5
24372
330
18
100
AcDbEntity
  8
0
100
AcDbLine
 10
32.01628815126253
 20
-505.9213350050828
 30
0.0
 11
31.51628815126253
 21
-505.8213338416851
 31
0.0
  0
LINE
  5
24373
330
18
100
AcDbEntity
  8
0
100
AcDbLine
 10
28.01628815126253
 20
-508.321325697901
 30
0.0
 11
32.01628815126253
 21
-507.5213350050827
 31
0.0
  0
LINE
  5
24374
330
18
100
AcDbEntity
  8
0
100
AcDbLine
 10
28.51628815126253
 20
-505.2213268612944
 30
0.0
 11
28.01628815126253
 21
-505.1213256978967
 31
0.0
  0
LINE
  5
24375
330
18
100
AcDbEntity
  8
0
100
AcDbLine
 10
28.51628815126253
 20
-511.6213268612985
 30
0.0
 11
28.01628815126253
 21
-511.5213256979008
 31
0.0
  0
LINE
  5
24376
330
18
100
AcDbEntity
  8
0
100
AcDbLine
 10
28.01628815126253
 20
-511.5213256979008
 30
0.0
 11
32.01628815126253
 21
-510.7213350050826
 31
0.0
  0
LINE
  5
24377
330
18
100
AcDbEntity
  8
0
100
AcDbLine
 10
32.01628815126253
 20
-510.7213350050826
 30
0.0
 11
31.51628815126253
 21
-510.6213338416849
 31
0.0
  0
LINE
  5
24378
330
18
100
AcDbEntity
  8
0
100
AcDbLine
 10
28.51628815126253
 20
-513.2213268612984
 30
0.0
 11
28.01628815126253
 21
-513.1213256979007
 31
0.0
  0
LINE
  5
24379
330
18
100
AcDbEntity
  8
0
100
AcDbLine
 10
28.01628815126253
 20
-513.1213256979007
 30
0.0
 11
32.01628815126253
 21
-512.3213350050825
 31
0.0
  0
LINE
  5
2437A
330
18
100
AcDbEntity
  8
0
100
AcDbLine
 10
32.01628815126253
 20
-512.3213350050825
 30
0.0
 11
31.51628815126253
 21
-512.2213338416848
 31
0.0
  0
LINE
  5
2437B
330
18
100
AcDbEntity
  8
0
100
AcDbLine
 10
28.51628815126253
 20
-514.8213268612983
 30
0.0
 11
28.01628815126253
 21
-514.7213256979006
 31
0.0
  0
LINE
  5
2437C
330
18
100
AcDbEntity
  8
0
100
AcDbLine
 10
28.01628815126253
 20
-514.7213256979006
 30
0.0
 11
32.01628815126253
 21
-513.9213350050824
 31
0.0
  0
LINE
  5
2437D
330
18
100
AcDbEntity
  8
0
100
AcDbLine
 10
32.01628815126253
 20
-513.9213350050824
 30
0.0
 11
31.51628815126253
 21
-513.8213338416847
 31
0.0
  0
LINE
  5
2437E
330
18
100
AcDbEntity
  8
1DIM
100
AcDbLine
 10
638.0162416153646
 20
-511.6213303512666
 30
0.0
 11
638.0162416153646
 21
-566.1415723043983
 31
0.0
1001
ACAD
1000
DSTYLE
1002
{
1070
    45
1040
0.5
1070
    40
1040
2.0
1002
}
  0
LINE
  5
2437F
330
18
100
AcDbEntity
  8
1DIM
100
AcDbLine
 10
622.0162416153646
 20
-511.6213303512666
 30
0.0
 11
622.0162416153646
 21
-566.1415723043983
 31
0.0
1001
ACAD
1000
DSTYLE
1002
{
1070
    45
1040
0.5
1070
    40
1040
2.0
1002
}
  0
LINE
  5
24380
330
18
100
AcDbEntity
  8
1DIM
100
AcDbLine
 10
622.0162416153646
 20
-564.1415723043983
 30
0.0
 11
604.8829082820313
 21
-564.1415723043983
 31
0.0
1001
ACAD
1000
DSTYLE
1002
{
1070
    45
1040
0.5
1070
    40
1040
2.0
1002
}
  0
LINE
  5
24381
330
18
100
AcDbEntity
  8
1DIM
100
AcDbLine
 10
634.0162416153646
 20
-564.1415723043983
 30
0.0
 11
626.0162416153646
 21
-564.1415723043983
 31
0.0
1001
ACAD
1000
DSTYLE
1002
{
1070
    45
1040
0.5
1070
    40
1040
2.0
1002
}
  0
LINE
  5
24386
330
18
100
AcDbEntity
  8
1DIM
100
AcDbLine
 10
599.1232109699245
 20
-729.0442958450382
 30
0.0
 11
595.2397369890323
 21
-694.8551527790905
 31
0.0
1001
ACAD
1000
DSTYLE
1002
{
1070
    40
1040
2.0
1070
    45
1040
0.5
1002
}
  0
LINE
  5
24387
330
18
100
AcDbEntity
  8
1DIM
100
AcDbLine
 10
595.2397369890323
 20
-694.8551527790905
 30
0.0
 11
467.8064036556989
 21
-694.8551527790905
 31
0.0
1001
ACAD
1000
DSTYLE
1002
{
1070
    40
1040
2.0
1070
    45
1040
0.5
1002
}
  0
TEXT
  5
24388
330
18
100
AcDbEntity
  8
1DIM
  6
CONTINUOUS
100
AcDbText
 10
458.8683131359189
 20
-656.3474903956571
 30
0.0
 40
7.0
  1
保護カバー
100
AcDbText
  0
TEXT
  5
24389
330
18
100
AcDbEntity
  8
1DIM
  6
CONTINUOUS
100
AcDbText
 10
453.2683131359189
 20
-668.0141570623238
 30
0.0
 40
7.0
  1
（マットブラック仕上げのみ付属）
100
AcDbText
  0
TEXT
  5
2438A
330
18
100
AcDbEntity
  8
1DIM
  6
CONTINUOUS
100
AcDbText
 10
458.4016464692523
 20
-679.6808237289904
 30
0.0
 40
7.0
  1
材質：PVC
100
AcDbText
  0
TEXT
  5
2438B
330
18
100
AcDbEntity
  8
1DIM
  6
CONTINUOUS
100
AcDbText
 10
458.6349798025856
 20
-691.347490395657
 30
0.0
 40
7.0
  1
仕上げ：樹脂色（黒）
100
AcDbText
  0
LINE
  5
2438C
330
18
100
AcDbEntity
  8
1DIM
100
AcDbLine
 10
652.8783254510454
 20
-748.3213303512666
 30
0.0
 11
650.4612490734092
 21
-748.3213303512666
 31
0.0
1001
ACAD
1000
DSTYLE
1002
{
1070
    45
1040
0.5
1070
    40
1040
2.0
1002
}
  0
LINE
  5
2438D
330
18
100
AcDbEntity
  8
1DIM
100
AcDbLine
 10
654.0162416153646
 20
-734.3213303512666
 30
0.0
 11
650.4612490734092
 21
-734.3213303512666
 31
0.0
1001
ACAD
1000
DSTYLE
1002
{
1070
    45
1040
0.5
1070
    40
1040
2.0
1002
}
  0
LINE
  5
2438E
330
18
100
AcDbEntity
  8
1DIM
100
AcDbLine
 10
652.4612490734092
 20
-734.3213303512666
 30
0.0
 11
652.4612490734092
 21
-712.1879970179334
 31
0.0
1001
ACAD
1000
DSTYLE
1002
{
1070
    45
1040
0.5
1070
    40
1040
2.0
1002
}
  0
LINE
  5
2438F
330
18
100
AcDbEntity
  8
1DIM
100
AcDbLine
 10
652.4612490734092
 20
-744.3213303512666
 30
0.0
 11
652.4612490734092
 21
-738.3213303512666
 31
0.0
1001
ACAD
1000
DSTYLE
1002
{
1070
    45
1040
0.5
1070
    40
1040
2.0
1002
}
  0
LINE
  5
24393
330
18
100
AcDbEntity
  8
0
100
AcDbLine
 10
727.7363080596939
 20
-785.805732018149
 30
0.0
 11
727.7363080596939
 21
-785.0986252369626
 31
0.0
  0
LINE
  5
24394
330
18
100
AcDbEntity
  8
0
100
AcDbLine
 10
727.7363080596939
 20
-785.0986252369626
 30
0.0
 11
721.3723470290149
 21
-778.7346642062835
 31
0.0
  0
LINE
  5
24395
330
18
100
AcDbEntity
  8
0
100
AcDbLine
 10
721.3723470290149
 20
-778.7346642062835
 30
0.0
 11
720.6652402478285
 21
-778.7346642062835
 31
0.0
  0
LINE
  5
24396
330
18
100
AcDbEntity
  8
0
100
AcDbLine
 10
720.6652402478285
 20
-778.7346642062835
 30
0.0
 11
717.1297063418956
 21
-782.2701981122163
 31
0.0
  0
LINE
  5
24397
330
18
100
AcDbEntity
  8
0
100
AcDbLine
 10
717.1297063418956
 20
-782.2701981122163
 30
0.0
 11
717.1297063418956
 21
-782.9773048934028
 31
0.0
  0
LINE
  5
24398
330
18
100
AcDbEntity
  8
0
100
AcDbLine
 10
717.1297063418956
 20
-782.9773048934028
 30
0.0
 11
723.4936673725746
 21
-789.3412659240818
 31
0.0
  0
LINE
  5
24399
330
18
100
AcDbEntity
  8
0
100
AcDbLine
 10
723.4936673725746
 20
-789.3412659240818
 30
0.0
 11
724.2007741537611
 21
-789.3412659240818
 31
0.0
  0
LINE
  5
2439A
330
18
100
AcDbEntity
  8
0
100
AcDbLine
 10
724.2007741537611
 20
-789.3412659240818
 30
0.0
 11
727.7363080596939
 21
-785.805732018149
 31
0.0
  0
LINE
  5
2439B
330
18
100
AcDbEntity
  8
0
100
AcDbLine
 10
834.6444249676571
 20
-784.0986252369621
 30
0.0
 11
834.6444249676571
 21
-784.8057320181485
 31
0.0
  0
LINE
  5
2439C
330
18
100
AcDbEntity
  8
0
100
AcDbLine
 10
834.6444249676571
 20
-784.8057320181485
 30
0.0
 11
838.1799588735898
 21
-788.3412659240813
 31
0.0
  0
LINE
  5
2439D
330
18
100
AcDbEntity
  8
0
100
AcDbLine
 10
838.1799588735898
 20
-788.3412659240813
 30
0.0
 11
838.8870656547764
 21
-788.3412659240813
 31
0.0
  0
LINE
  5
2439E
330
18
100
AcDbEntity
  8
0
100
AcDbLine
 10
838.8870656547764
 20
-788.3412659240813
 30
0.0
 11
845.2510266854554
 21
-781.9773048934023
 31
0.0
  0
LINE
  5
2439F
330
18
100
AcDbEntity
  8
0
100
AcDbLine
 10
845.2510266854554
 20
-781.9773048934023
 30
0.0
 11
845.2510266854554
 21
-781.2701981122159
 31
0.0
  0
LINE
  5
243A0
330
18
100
AcDbEntity
  8
0
100
AcDbLine
 10
845.2510266854554
 20
-781.2701981122159
 30
0.0
 11
841.7154927795225
 21
-777.734664206283
 31
0.0
  0
LINE
  5
243A1
330
18
100
AcDbEntity
  8
0
100
AcDbLine
 10
841.7154927795225
 20
-777.734664206283
 30
0.0
 11
841.008385998336
 21
-777.734664206283
 31
0.0
  0
LINE
  5
243A2
330
18
100
AcDbEntity
  8
0
100
AcDbLine
 10
841.008385998336
 20
-777.734664206283
 30
0.0
 11
834.6444249676571
 21
-784.0986252369621
 31
0.0
  0
LINE
  5
243A3
330
18
100
AcDbEntity
  8
0
  6
BYBLOCK
100
AcDbLine
 10
993.2621632736756
 20
-808.2953243780628
 30
0.0
 11
992.1903665136756
 21
-812.2953243780628
 31
0.0
  0
LINE
  5
243A4
330
18
100
AcDbEntity
  8
0
  6
BYBLOCK
100
AcDbLine
 10
992.1903665136756
 20
-812.2953243780628
 30
0.0
 11
991.1185697536756
 21
-808.2953243780628
 31
0.0
  0
LINE
  5
243A5
330
18
100
AcDbEntity
  8
0
  6
BYBLOCK
100
AcDbLine
 10
992.1903665136756
 20
-812.2953243780628
 30
0.0
 11
992.1903665136756
 21
-808.2953243780628
 31
0.0
  0
LINE
  5
243A6
330
18
100
AcDbEntity
  8
0
  6
BYBLOCK
100
AcDbLine
 10
991.1185697536756
 20
-774.7953243780628
 30
0.0
 11
992.1903665136756
 21
-770.7953243780628
 31
0.0
  0
LINE
  5
243A7
330
18
100
AcDbEntity
  8
0
  6
BYBLOCK
100
AcDbLine
 10
992.1903665136756
 20
-770.7953243780628
 30
0.0
 11
993.2621632736756
 21
-774.7953243780628
 31
0.0
  0
LINE
  5
243A8
330
18
100
AcDbEntity
  8
0
  6
BYBLOCK
100
AcDbLine
 10
992.1903665136756
 20
-770.7953243780628
 30
0.0
 11
992.1903665136756
 21
-774.7953243780628
 31
0.0
  0
TEXT
  5
243A9
330
18
100
AcDbEntity
  8
1DIM
  6
CONTINUOUS
100
AcDbText
 10
990.7903665136758
 20
-797.378657711396
 30
0.0
 40
7.0
  1
42
 50
90.0
100
AcDbText
1001
ACAD
1000
DSTYLE
1002
{
1070
    40
1040
2.0
1070
    45
1040
0.5
1070
   271
1070
     0
1002
}
  0
LINE
  5
243AA
330
18
100
AcDbEntity
  8
0
  6
BYBLOCK
100
AcDbLine
 10
1010.70745637243
 20
-912.7953243780628
 30
0.0
 11
1009.63565961243
 21
-916.7953243780628
 31
0.0
  0
LINE
  5
243AB
330
18
100
AcDbEntity
  8
0
  6
BYBLOCK
100
AcDbLine
 10
1009.63565961243
 20
-916.7953243780628
 30
0.0
 11
1008.56386285243
 21
-912.7953243780628
 31
0.0
  0
LINE
  5
243AC
330
18
100
AcDbEntity
  8
0
  6
BYBLOCK
100
AcDbLine
 10
1009.63565961243
 20
-916.7953243780628
 30
0.0
 11
1009.63565961243
 21
-912.7953243780628
 31
0.0
  0
LINE
  5
243AD
330
18
100
AcDbEntity
  8
0
  6
BYBLOCK
100
AcDbLine
 10
1008.56386285243
 20
-774.7953243780628
 30
0.0
 11
1009.63565961243
 21
-770.7953243780628
 31
0.0
  0
LINE
  5
243AE
330
18
100
AcDbEntity
  8
0
  6
BYBLOCK
100
AcDbLine
 10
1009.63565961243
 20
-770.7953243780628
 30
0.0
 11
1010.70745637243
 21
-774.7953243780628
 31
0.0
  0
LINE
  5
243AF
330
18
100
AcDbEntity
  8
0
  6
BYBLOCK
100
AcDbLine
 10
1009.63565961243
 20
-770.7953243780628
 30
0.0
 11
1009.63565961243
 21
-774.7953243780628
 31
0.0
  0
TEXT
  5
243B0
330
18
100
AcDbEntity
  8
1DIM
  6
CONTINUOUS
100
AcDbText
 10
1008.23565961243
 20
-851.9619910447293
 30
0.0
 40
7.0
  1
146
 50
90.0
100
AcDbText
1001
ACAD
1000
DSTYLE
1002
{
1070
    40
1040
2.0
1070
    45
1040
0.5
1002
}
  0
LINE
  5
243B1
330
18
100
AcDbEntity
  8
0
  6
BYBLOCK
100
AcDbLine
 10
944.4764922951409
 20
-763.487266576129
 30
0.0
 11
943.604038091383
 21
-767.5354231883528
 31
0.0
  0
LINE
  5
243B2
330
18
100
AcDbEntity
  8
0
  6
BYBLOCK
100
AcDbLine
 10
943.604038091383
 20
-767.5354231883528
 30
0.0
 11
942.3355273072472
 21
-763.5933896160353
 31
0.0
  0
LINE
  5
243B3
330
18
100
AcDbEntity
  8
0
  6
BYBLOCK
100
AcDbLine
 10
943.604038091383
 20
-767.5354231883528
 30
0.0
 11
943.406009801194
 21
-763.5403280960821
 31
0.0
  0
LINE
  5
243B4
330
18
100
AcDbEntity
  8
0
  6
BYBLOCK
100
AcDbLine
 10
959.5737357253408
 20
-764.5162166577961
 30
0.0
 11
956.7394562365482
 21
-767.5354231883528
 31
0.0
  0
LINE
  5
243B5
330
18
100
AcDbEntity
  8
0
  6
BYBLOCK
100
AcDbLine
 10
956.7394562365482
 20
-767.5354231883528
 30
0.0
 11
957.6844110282801
 21
-763.5035738935094
 31
0.0
  0
LINE
  5
243B6
330
18
100
AcDbEntity
  8
0
  6
BYBLOCK
100
AcDbLine
 10
956.7394562365482
 20
-767.5354231883528
 30
0.0
 11
958.6290733768105
 21
-764.0098952756528
 31
0.0
  0
LINE
  5
243B7
330
18
100
AcDbEntity
  8
0
  6
BYBLOCK
100
AcDbLine
 10
993.2621632736756
 20
-868.2953243780628
 30
0.0
 11
992.1903665136756
 21
-872.2953243780628
 31
0.0
  0
LINE
  5
243B8
330
18
100
AcDbEntity
  8
0
  6
BYBLOCK
100
AcDbLine
 10
992.1903665136756
 20
-872.2953243780628
 30
0.0
 11
991.1185697536756
 21
-868.2953243780628
 31
0.0
  0
LINE
  5
243B9
330
18
100
AcDbEntity
  8
0
  6
BYBLOCK
100
AcDbLine
 10
992.1903665136756
 20
-872.2953243780628
 30
0.0
 11
992.1903665136756
 21
-868.2953243780628
 31
0.0
  0
LINE
  5
243BA
330
18
100
AcDbEntity
  8
0
  6
BYBLOCK
100
AcDbLine
 10
991.1185697536756
 20
-846.2953243780628
 30
0.0
 11
992.1903665136756
 21
-842.2953243780628
 31
0.0
  0
LINE
  5
243BB
330
18
100
AcDbEntity
  8
0
  6
BYBLOCK
100
AcDbLine
 10
992.1903665136756
 20
-842.2953243780628
 30
0.0
 11
993.2621632736756
 21
-846.2953243780628
 31
0.0
  0
LINE
  5
243BC
330
18
100
AcDbEntity
  8
0
  6
BYBLOCK
100
AcDbLine
 10
992.1903665136756
 20
-842.2953243780628
 30
0.0
 11
992.1903665136756
 21
-846.2953243780628
 31
0.0
  0
TEXT
  5
243BD
330
18
100
AcDbEntity
  8
1DIM
  6
CONTINUOUS
100
AcDbText
 10
990.7903665136758
 20
-866.191157711396
 30
0.0
 40
7.0
  1
P30
 50
90.0
100
AcDbText
1001
ACAD
1000
DSTYLE
1002
{
1070
    40
1040
2.0
1070
    45
1040
0.5
1002
}
  0
LINE
  5
243BE
330
18
100
AcDbEntity
  8
0
  6
BYBLOCK
100
AcDbLine
 10
919.9293171841448
 20
-829.2181044958164
 30
0.0
 11
922.9857618009535
 21
-826.424022428459
 31
0.0
  0
LINE
  5
243BF
330
18
100
AcDbEntity
  8
0
  6
BYBLOCK
100
AcDbLine
 10
922.9857618009535
 20
-826.424022428459
 30
0.0
 11
921.7358441333056
 21
-830.3719907817831
 31
0.0
  0
LINE
  5
243C0
330
18
100
AcDbEntity
  8
0
  6
BYBLOCK
100
AcDbLine
 10
922.9857618009535
 20
-826.424022428459
 30
0.0
 11
920.8325806587252
 21
-829.7950476387997
 31
0.0
  0
LINE
  5
243C1
330
18
100
AcDbEntity
  8
0
  6
BYBLOCK
100
AcDbLine
 10
993.2621632736756
 20
-838.2953243780628
 30
0.0
 11
992.1903665136756
 21
-842.2953243780628
 31
0.0
  0
LINE
  5
243C2
330
18
100
AcDbEntity
  8
0
  6
BYBLOCK
100
AcDbLine
 10
992.1903665136756
 20
-842.2953243780628
 30
0.0
 11
991.1185697536756
 21
-838.2953243780628
 31
0.0
  0
LINE
  5
243C3
330
18
100
AcDbEntity
  8
0
  6
BYBLOCK
100
AcDbLine
 10
992.1903665136756
 20
-842.2953243780628
 30
0.0
 11
992.1903665136756
 21
-838.2953243780628
 31
0.0
  0
LINE
  5
243C4
330
18
100
AcDbEntity
  8
0
  6
BYBLOCK
100
AcDbLine
 10
991.1185697536756
 20
-816.2953243780628
 30
0.0
 11
992.1903665136756
 21
-812.2953243780628
 31
0.0
  0
LINE
  5
243C5
330
18
100
AcDbEntity
  8
0
  6
BYBLOCK
100
AcDbLine
 10
992.1903665136756
 20
-812.2953243780628
 30
0.0
 11
993.2621632736756
 21
-816.2953243780628
 31
0.0
  0
LINE
  5
243C6
330
18
100
AcDbEntity
  8
0
  6
BYBLOCK
100
AcDbLine
 10
992.1903665136756
 20
-812.2953243780628
 30
0.0
 11
992.1903665136756
 21
-816.2953243780628
 31
0.0
  0
TEXT
  5
243C7
330
18
100
AcDbEntity
  8
1DIM
  6
CONTINUOUS
100
AcDbText
 10
990.7903665136758
 20
-836.191157711396
 30
0.0
 40
7.0
  1
P30
 50
90.0
100
AcDbText
1001
ACAD
1000
DSTYLE
1002
{
1070
    40
1040
2.0
1070
    45
1040
0.5
1002
}
  0
LINE
  5
243C8
330
18
100
AcDbEntity
  8
0
  6
BYBLOCK
100
AcDbLine
 10
993.2621632736756
 20
-898.2953243780628
 30
0.0
 11
992.1903665136756
 21
-902.2953243780628
 31
0.0
  0
LINE
  5
243C9
330
18
100
AcDbEntity
  8
0
  6
BYBLOCK
100
AcDbLine
 10
992.1903665136756
 20
-902.2953243780628
 30
0.0
 11
991.1185697536756
 21
-898.2953243780628
 31
0.0
  0
LINE
  5
243CA
330
18
100
AcDbEntity
  8
0
  6
BYBLOCK
100
AcDbLine
 10
992.1903665136756
 20
-902.2953243780628
 30
0.0
 11
992.1903665136756
 21
-898.2953243780628
 31
0.0
  0
LINE
  5
243CB
330
18
100
AcDbEntity
  8
0
  6
BYBLOCK
100
AcDbLine
 10
991.1185697536756
 20
-876.2953243780628
 30
0.0
 11
992.1903665136756
 21
-872.2953243780628
 31
0.0
  0
LINE
  5
243CC
330
18
100
AcDbEntity
  8
0
  6
BYBLOCK
100
AcDbLine
 10
992.1903665136756
 20
-872.2953243780628
 30
0.0
 11
993.2621632736756
 21
-876.2953243780628
 31
0.0
  0
LINE
  5
243CD
330
18
100
AcDbEntity
  8
0
  6
BYBLOCK
100
AcDbLine
 10
992.1903665136756
 20
-872.2953243780628
 30
0.0
 11
992.1903665136756
 21
-876.2953243780628
 31
0.0
  0
TEXT
  5
243CE
330
18
100
AcDbEntity
  8
1DIM
  6
CONTINUOUS
100
AcDbText
 10
990.7903665136758
 20
-896.191157711396
 30
0.0
 40
7.0
  1
P30
 50
90.0
100
AcDbText
1001
ACAD
1000
DSTYLE
1002
{
1070
    40
1040
2.0
1070
    45
1040
0.5
1002
}
  0
LINE
  5
243CF
330
18
100
AcDbEntity
  8
0
  6
BYBLOCK
100
AcDbLine
 10
704.1903665136754
 20
-931.384352820879
 30
0.0
 11
700.1903665136754
 21
-930.312556060879
 31
0.0
  0
LINE
  5
243D0
330
18
100
AcDbEntity
  8
0
  6
BYBLOCK
100
AcDbLine
 10
700.1903665136754
 20
-930.312556060879
 30
0.0
 11
704.1903665136754
 21
-929.2407593008791
 31
0.0
  0
LINE
  5
243D1
330
18
100
AcDbEntity
  8
0
  6
BYBLOCK
100
AcDbLine
 10
700.1903665136754
 20
-930.312556060879
 30
0.0
 11
704.1903665136754
 21
-930.312556060879
 31
0.0
  0
LINE
  5
243D2
330
18
100
AcDbEntity
  8
0
  6
BYBLOCK
100
AcDbLine
 10
936.6903665136756
 20
-929.2407593008791
 30
0.0
 11
940.6903665136756
 21
-930.312556060879
 31
0.0
  0
LINE
  5
243D3
330
18
100
AcDbEntity
  8
0
  6
BYBLOCK
100
AcDbLine
 10
940.6903665136756
 20
-930.312556060879
 30
0.0
 11
936.6903665136756
 21
-931.384352820879
 31
0.0
  0
LINE
  5
243D4
330
18
100
AcDbEntity
  8
0
  6
BYBLOCK
100
AcDbLine
 10
940.6903665136756
 20
-930.312556060879
 30
0.0
 11
936.6903665136756
 21
-930.312556060879
 31
0.0
  0
TEXT
  5
243D5
330
18
100
AcDbEntity
  8
1DIM
  6
CONTINUOUS
100
AcDbText
 10
807.0236998470089
 20
-928.912556060879
 30
0.0
 40
7.0
  1
240.5
100
AcDbText
1001
ACAD
1000
DSTYLE
1002
{
1070
    40
1040
2.0
1070
    45
1040
0.5
1002
}
  0
LINE
  5
243D6
330
18
100
AcDbEntity
  8
0
  6
BYBLOCK
100
AcDbLine
 10
36.01624161536483
 20
-505.564189416531
 30
0.0
 11
30.01624161536483
 21
-503.956494276531
 31
0.0
  0
LINE
  5
243D7
330
18
100
AcDbEntity
  8
0
  6
BYBLOCK
100
AcDbLine
 10
30.01624161536483
 20
-503.956494276531
 30
0.0
 11
36.01624161536483
 21
-502.348799136531
 31
0.0
  0
LINE
  5
243D8
330
18
100
AcDbEntity
  8
0
  6
BYBLOCK
100
AcDbLine
 10
30.01624161536483
 20
-503.956494276531
 30
0.0
 11
36.01624161536483
 21
-503.956494276531
 31
0.0
  0
LINE
  5
243D9
330
18
100
AcDbEntity
  8
0
  6
BYBLOCK
100
AcDbLine
 10
624.0162416153646
 20
-502.348799136531
 30
0.0
 11
630.0162416153646
 21
-503.956494276531
 31
0.0
  0
LINE
  5
243DA
330
18
100
AcDbEntity
  8
0
  6
BYBLOCK
100
AcDbLine
 10
630.0162416153646
 20
-503.956494276531
 30
0.0
 11
624.0162416153646
 21
-505.564189416531
 31
0.0
  0
LINE
  5
243DB
330
18
100
AcDbEntity
  8
0
  6
BYBLOCK
100
AcDbLine
 10
630.0162416153646
 20
-503.956494276531
 30
0.0
 11
624.0162416153646
 21
-503.956494276531
 31
0.0
  0
TEXT
  5
243DC
330
18
100
AcDbEntity
  8
1DIM1
  6
CONTINUOUS
100
AcDbText
 10
315.1748946871382
 20
-501.856494276531
 30
0.0
 40
10.5
  1
P600
100
AcDbText
1001
ACAD
1000
DSTYLE
1002
{
1070
    40
1040
3.0
1070
    45
1040
0.5
1002
}
  0
LINE
  5
243DD
330
18
100
AcDbEntity
  8
0
  6
BYBLOCK
100
AcDbLine
 10
-8.983758384635424
 20
-767.9336743883979
 30
0.0
 11
-14.98375838463542
 21
-766.3259792483979
 31
0.0
  0
LINE
  5
243DE
330
18
100
AcDbEntity
  8
0
  6
BYBLOCK
100
AcDbLine
 10
-14.98375838463542
 20
-766.3259792483979
 30
0.0
 11
-8.983758384635424
 21
-764.7182841083978
 31
0.0
  0
LINE
  5
243DF
330
18
100
AcDbEntity
  8
0
  6
BYBLOCK
100
AcDbLine
 10
-14.98375838463542
 20
-766.3259792483979
 30
0.0
 11
-8.983758384635424
 21
-766.3259792483979
 31
0.0
  0
LINE
  5
243E0
330
18
100
AcDbEntity
  8
0
  6
BYBLOCK
100
AcDbLine
 10
669.0162416153646
 20
-764.7182841083978
 30
0.0
 11
675.0162416153646
 21
-766.3259792483979
 31
0.0
  0
LINE
  5
243E1
330
18
100
AcDbEntity
  8
0
  6
BYBLOCK
100
AcDbLine
 10
675.0162416153646
 20
-766.3259792483979
 30
0.0
 11
669.0162416153646
 21
-767.9336743883979
 31
0.0
  0
LINE
  5
243E2
330
18
100
AcDbEntity
  8
0
  6
BYBLOCK
100
AcDbLine
 10
675.0162416153646
 20
-766.3259792483979
 30
0.0
 11
669.0162416153646
 21
-766.3259792483979
 31
0.0
  0
TEXT
  5
243E3
330
18
100
AcDbEntity
  8
1DIM1
  6
CONTINUOUS
100
AcDbText
 10
316.6336027264757
 20
-764.2259792483978
 30
0.0
 40
10.5
  1
690
100
AcDbText
1001
ACAD
1000
DSTYLE
1002
{
1070
    40
1040
3.0
1070
    45
1040
0.5
1002
}
  0
LINE
  5
243E4
330
18
100
AcDbEntity
  8
0
  6
BYBLOCK
100
AcDbLine
 10
653.5330458334092
 20
-784.5953243780632
 30
0.0
 11
652.4612490734092
 21
-788.5953243780632
 31
0.0
  0
LINE
  5
243E5
330
18
100
AcDbEntity
  8
0
  6
BYBLOCK
100
AcDbLine
 10
652.4612490734092
 20
-788.5953243780632
 30
0.0
 11
651.3894523134093
 21
-784.5953243780632
 31
0.0
  0
LINE
  5
243E6
330
18
100
AcDbEntity
  8
0
  6
BYBLOCK
100
AcDbLine
 10
652.4612490734092
 20
-788.5953243780632
 30
0.0
 11
652.4612490734092
 21
-784.5953243780632
 31
0.0
  0
LINE
  5
243E7
330
18
100
AcDbEntity
  8
0
  6
BYBLOCK
100
AcDbLine
 10
651.3894523134093
 20
-778.5953243780632
 30
0.0
 11
652.4612490734092
 21
-774.5953243780632
 31
0.0
  0
LINE
  5
243E8
330
18
100
AcDbEntity
  8
0
  6
BYBLOCK
100
AcDbLine
 10
652.4612490734092
 20
-774.5953243780632
 30
0.0
 11
653.5330458334092
 21
-778.5953243780632
 31
0.0
  0
LINE
  5
243E9
330
18
100
AcDbEntity
  8
0
  6
BYBLOCK
100
AcDbLine
 10
652.4612490734092
 20
-774.5953243780632
 30
0.0
 11
652.4612490734092
 21
-778.5953243780632
 31
0.0
  0
TEXT
  5
243EA
330
18
100
AcDbEntity
  8
1DIM
  6
CONTINUOUS
100
AcDbText
 10
651.0612490734093
 20
-813.3496131155977
 30
0.0
 40
7.0
  1
14
 50
90.0
100
AcDbText
1001
ACAD
1000
DSTYLE
1002
{
1070
    40
1040
2.0
1070
    45
1040
0.5
1002
}
  0
LINE
  5
243EB
330
18
100
AcDbEntity
  8
0
  6
BYBLOCK
100
AcDbLine
 10
663.5635463469215
 20
-773.2216081580451
 30
0.0
 11
659.575555861381
 21
-774.3372605151817
 31
0.0
  0
LINE
  5
243EC
330
18
100
AcDbEntity
  8
0
  6
BYBLOCK
100
AcDbLine
 10
659.575555861381
 20
-774.3372605151817
 30
0.0
 11
662.4714307667704
 21
-771.3770820024763
 31
0.0
  0
LINE
  5
243ED
330
18
100
AcDbEntity
  8
0
  6
BYBLOCK
100
AcDbLine
 10
659.575555861381
 20
-774.3372605151817
 30
0.0
 11
663.0174885568459
 21
-772.2993450802607
 31
0.0
  0
LINE
  5
243EE
330
18
100
AcDbEntity
  8
0
  6
BYBLOCK
100
AcDbLine
 10
673.9526988106009
 20
-730.4356917431105
 30
0.0
 11
672.0611168157079
 21
-734.119530210164
 31
0.0
  0
LINE
  5
243EF
330
18
100
AcDbEntity
  8
0
  6
BYBLOCK
100
AcDbLine
 10
672.0611168157079
 20
-734.119530210164
 30
0.0
 11
671.8573556618632
 21
-729.9834415158865
 31
0.0
  0
LINE
  5
243F0
330
18
100
AcDbEntity
  8
0
  6
BYBLOCK
100
AcDbLine
 10
672.0611168157079
 20
-734.119530210164
 30
0.0
 11
672.905027236232
 21
-730.2095666294985
 31
0.0
  0
LINE
  5
243F1
330
18
100
AcDbEntity
  8
0
  6
BYBLOCK
100
AcDbLine
 10
880.5846753247059
 20
-767.0481551097604
 30
0.0
 11
878.5829226962142
 21
-770.6733081698494
 31
0.0
  0
LINE
  5
243F2
330
18
100
AcDbEntity
  8
0
  6
BYBLOCK
100
AcDbLine
 10
878.5829226962142
 20
-770.6733081698494
 30
0.0
 11
878.5039148133186
 21
-766.5329572126011
 31
0.0
  0
LINE
  5
243F3
330
18
100
AcDbEntity
  8
0
  6
BYBLOCK
100
AcDbLine
 10
878.5829226962142
 20
-770.6733081698494
 30
0.0
 11
879.5442950690123
 21
-766.7905561611808
 31
0.0
  0
LINE
  5
243F4
330
18
100
AcDbEntity
  8
0
  6
BYBLOCK
100
AcDbLine
 10
634.0162416153646
 20
-563.0697755443983
 30
0.0
 11
638.0162416153646
 21
-564.1415723043983
 31
0.0
  0
LINE
  5
243F5
330
18
100
AcDbEntity
  8
0
  6
BYBLOCK
100
AcDbLine
 10
638.0162416153646
 20
-564.1415723043983
 30
0.0
 11
634.0162416153646
 21
-565.2133690643983
 31
0.0
  0
LINE
  5
243F6
330
18
100
AcDbEntity
  8
0
  6
BYBLOCK
100
AcDbLine
 10
638.0162416153646
 20
-564.1415723043983
 30
0.0
 11
634.0162416153646
 21
-564.1415723043983
 31
0.0
  0
LINE
  5
243F7
330
18
100
AcDbEntity
  8
0
  6
BYBLOCK
100
AcDbLine
 10
626.0162416153646
 20
-565.2133690643983
 30
0.0
 11
622.0162416153646
 21
-564.1415723043983
 31
0.0
  0
LINE
  5
243F8
330
18
100
AcDbEntity
  8
0
  6
BYBLOCK
100
AcDbLine
 10
622.0162416153646
 20
-564.1415723043983
 30
0.0
 11
626.0162416153646
 21
-563.0697755443983
 31
0.0
  0
LINE
  5
243F9
330
18
100
AcDbEntity
  8
0
  6
BYBLOCK
100
AcDbLine
 10
622.0162416153646
 20
-564.1415723043983
 30
0.0
 11
626.0162416153646
 21
-564.1415723043983
 31
0.0
  0
TEXT
  5
243FA
330
18
100
AcDbEntity
  8
1DIM
  6
CONTINUOUS
100
AcDbText
 10
606.7829082820313
 20
-562.7415723043983
 30
0.0
 40
7.0
  1
16
100
AcDbText
1001
ACAD
1000
DSTYLE
1002
{
1070
    45
1040
0.5
1070
    40
1040
2.0
1002
}
  0
LINE
  5
243FB
330
18
100
AcDbEntity
  8
0
  6
BYBLOCK
100
AcDbLine
 10
600.1881596481043
 20
-728.9233305293905
 30
0.0
 11
599.5746596779713
 21
-733.0187384555186
 31
0.0
  0
LINE
  5
243FC
330
18
100
AcDbEntity
  8
0
  6
BYBLOCK
100
AcDbLine
 10
599.5746596779713
 20
-733.0187384555186
 30
0.0
 11
598.0582622917448
 21
-729.1652611606858
 31
0.0
  0
LINE
  5
243FD
330
18
100
AcDbEntity
  8
0
  6
BYBLOCK
100
AcDbLine
 10
599.5746596779713
 20
-733.0187384555186
 30
0.0
 11
599.1232109699245
 21
-729.0442958450382
 31
0.0
  0
LINE
  5
243FE
330
18
100
AcDbEntity
  8
0
  6
BYBLOCK
100
AcDbLine
 10
653.5330458334092
 20
-744.3213303512666
 30
0.0
 11
652.4612490734092
 21
-748.3213303512666
 31
0.0
  0
LINE
  5
243FF
330
18
100
AcDbEntity
  8
0
  6
BYBLOCK
100
AcDbLine
 10
652.4612490734092
 20
-748.3213303512666
 30
0.0
 11
651.3894523134093
 21
-744.3213303512666
 31
0.0
  0
LINE
  5
24400
330
18
100
AcDbEntity
  8
0
  6
BYBLOCK
100
AcDbLine
 10
652.4612490734092
 20
-748.3213303512666
 30
0.0
 11
652.4612490734092
 21
-744.3213303512666
 31
0.0
  0
LINE
  5
24401
330
18
100
AcDbEntity
  8
0
  6
BYBLOCK
100
AcDbLine
 10
651.3894523134093
 20
-738.3213303512666
 30
0.0
 11
652.4612490734092
 21
-734.3213303512666
 31
0.0
  0
LINE
  5
24402
330
18
100
AcDbEntity
  8
0
  6
BYBLOCK
100
AcDbLine
 10
652.4612490734092
 20
-734.3213303512666
 30
0.0
 11
653.5330458334092
 21
-738.3213303512666
 31
0.0
  0
LINE
  5
24403
330
18
100
AcDbEntity
  8
0
  6
BYBLOCK
100
AcDbLine
 10
652.4612490734092
 20
-734.3213303512666
 30
0.0
 11
652.4612490734092
 21
-738.3213303512666
 31
0.0
  0
TEXT
  5
24404
330
18
100
AcDbEntity
  8
1DIM
  6
CONTINUOUS
100
AcDbText
 10
651.0612490734093
 20
-722.9213303512666
 30
0.0
 40
7.0
  1
14
 50
90.0
100
AcDbText
1001
ACAD
1000
DSTYLE
1002
{
1070
    45
1040
0.5
1070
    40
1040
2.0
1002
}
  0
VIEWPORT
  5
57
330
15
100
AcDbEntity
 67
     1
  8
0
100
AcDbViewport
 68
     1
 10
0.0
 20
0.0
 30
0.0
 40
535.5106132075472
 41
297.0
 68
     1
 69
     1
1001
ACAD
1000
MVIEW
1002
{
1070
    16
1010
0.0
1020
0.0
1030
0.0
1010
0.0
1020
0.0
1030
1.0
1040
0.0
1040
297.0
1040
-4.171999999925333
1040
12.83903210976956
1040
50.0
1040
0.0
1040
0.0
1070
    16
1070
  1000
1070
     0
1070
     1
1070
     0
1070
     0
1070
     0
1070
     0
1040
0.0
1040
0.0
1040
0.0
1040
10.0
1040
10.0
1040
10.0
1040
10.0
1070
     0
1002
{
1002
}
1002
}
  0
ENDSEC
  0
SECTION
  2
OBJECTS
  0
DICTIONARY
  5
C
330
0
100
AcDbDictionary
  3
ACAD_CIP_PREVIOUS_PRODUCT_INFO
350
20B28
  3
ACAD_COLOR
350
2D0
  3
ACAD_GROUP
350
D
  3
ACAD_LAYOUT
350
2D1
  3
ACAD_MATERIAL
350
2CF
  3
ACAD_MLEADERSTYLE
350
19E18
  3
ACAD_MLINESTYLE
350
1B
  3
ACAD_PLOTSETTINGS
350
2D2
  3
ACAD_SCALELIST
350
19DF6
  3
ACAD_VISUALSTYLE
350
19DE5
  3
ACDBHEADERROUNDTRIPXREC
350
24405
  3
ACDBVARIABLEDICTIONARY
350
37
  3
CONTENTDICTIONARY
350
D8
  3
DRAWINGVARIABLESDICT
350
20
  3
DWGPROPS
350
24408
1001
ACAD
1000
TREAT_AS_HARD
1070
     0
  0
DICTIONARY
  5
18FE8
330
2
100
AcDbDictionary
  3
ACAD_LAYERSTATES
360
18FE9
1001
ACAD
1000
TREAT_AS_HARD
1070
     1
  0
DICTIONARY
  5
1A20A
330
E
100
AcDbDictionary
  3
ADSK_XREC_LAYER_RECONCILED
360
1A20B
1001
ACAD
1000
TREAT_AS_HARD
1070
     1
  0
DICTIONARY
  5
1A20C
330
29
100
AcDbDictionary
  3
ADSK_XREC_LAYER_RECONCILED
360
1A20D
1001
ACAD
1000
TREAT_AS_HARD
1070
     1
  0
DICTIONARY
  5
1A20E
330
31
100
AcDbDictionary
  3
ADSK_XREC_LAYER_RECONCILED
360
1A20F
1001
ACAD
1000
TREAT_AS_HARD
1070
     1
  0
DICTIONARY
  5
1A218
330
101
100
AcDbDictionary
  3
ADSK_XREC_LAYER_RECONCILED
360
1A219
1001
ACAD
1000
TREAT_AS_HARD
1070
     1
  0
DICTIONARY
  5
1A21C
330
103
100
AcDbDictionary
  3
ADSK_XREC_LAYER_RECONCILED
360
1A21D
1001
ACAD
1000
TREAT_AS_HARD
1070
     1
  0
DICTIONARY
  5
1A220
330
25F
100
AcDbDictionary
  3
ADSK_XREC_LAYER_RECONCILED
360
1A221
1001
ACAD
1000
TREAT_AS_HARD
1070
     1
  0
DICTIONARY
  5
1A236
330
26A
100
AcDbDictionary
  3
ADSK_XREC_LAYER_RECONCILED
360
1A237
1001
ACAD
1000
TREAT_AS_HARD
1070
     1
  0
DICTIONARY
  5
1A23C
330
26D
100
AcDbDictionary
  3
ADSK_XREC_LAYER_RECONCILED
360
1A23D
1001
ACAD
1000
TREAT_AS_HARD
1070
     1
  0
DICTIONARY
  5
6E9
330
18
100
AcDbDictionary
  3
ACAD_SORTENTS
360
6EA
1001
ACAD
1000
TREAT_AS_HARD
1070
     1
  0
DICTIONARY
  5
59B
330
15
100
AcDbDictionary
  3
ACAD_SORTENTS
360
59C
1001
ACAD
1000
TREAT_AS_HARD
1070
     1
  0
XRECORD
  5
20B28
102
{ACAD_REACTORS
330
C
102
}
330
C
100
AcDbXrecord
300
ACDLT
300
2012
300
ACDLT_F_S
  0
DICTIONARY
  5
2D0
102
{ACAD_REACTORS
330
C
102
}
330
C
100
AcDbDictionary
1001
ACAD
1000
TREAT_AS_HARD
1070
     0
  0
DICTIONARY
  5
D
102
{ACAD_REACTORS
330
C
102
}
330
C
100
AcDbDictionary
  3
*A1
350
22F68
  3
*A2
350
22F6F
  3
*A3
350
22F76
  3
*A4
350
22FC2
  3
*A5
350
230BD
  3
*A6
350
230C4
  3
*A7
350
22F61
1001
ACAD
1000
TREAT_AS_HARD
1070
     0
  0
DICTIONARY
  5
2D1
102
{ACAD_REACTORS
330
C
102
}
330
C
100
AcDbDictionary
1001
ACAD
1000
TREAT_AS_HARD
1070
     0
  0
DICTIONARY
  5
2CF
102
{ACAD_REACTORS
330
C
102
}
330
C
100
AcDbDictionary
  3
BYBLOCK
350
19DD5
  3
BYLAYER
350
19DCD
  3
GLOBAL
350
19DDD
1001
ACAD
1000
TREAT_AS_HARD
1070
     0
  0
DICTIONARY
  5
19E18
102
{ACAD_REACTORS
330
C
102
}
330
C
100
AcDbDictionary
  3
STANDARD
350
19E19
1001
ACAD
1000
TREAT_AS_HARD
1070
     0
  0
DICTIONARY
  5
1B
102
{ACAD_REACTORS
330
C
102
}
330
C
100
AcDbDictionary
  3
STANDARD
350
1C
1001
ACAD
1000
TREAT_AS_HARD
1070
     0
  0
DICTIONARY
  5
2D2
102
{ACAD_REACTORS
330
C
102
}
330
C
100
AcDbDictionary
1001
ACAD
1000
TREAT_AS_HARD
1070
     0
  0
DICTIONARY
  5
19DF6
102
{ACAD_REACTORS
330
C
102
}
330
C
100
AcDbDictionary
  3
A0
350
19DF7
  3
A1
350
19DF8
  3
A2
350
19DF9
  3
A3
350
19DFA
  3
A4
350
19DFB
  3
A5
350
19DFC
  3
A6
350
19DFD
  3
A7
350
19DFE
  3
A8
350
19DFF
  3
A9
350
19E00
  3
B0
350
19E01
  3
B1
350
19E02
  3
B2
350
19E03
  3
B3
350
19E04
  3
B4
350
19E05
  3
B5
350
19E06
  3
B6
350
19E07
  3
B7
350
19E08
  3
B8
350
19E09
  3
B9
350
19E0A
  3
C0
350
19E0B
  3
C1
350
19E0C
  3
C2
350
19E0D
  3
C3
350
19E0E
  3
C4
350
19E0F
  3
C5
350
19E10
  3
C6
350
19E11
  3
C7
350
19E12
  3
C8
350
19E13
  3
C9
350
19E14
  3
D0
350
19E15
  3
D1
350
19E16
  3
D2
350
19E17
1001
ACAD
1000
TREAT_AS_HARD
1070
     0
  0
DICTIONARY
  5
19DE5
102
{ACAD_REACTORS
330
C
102
}
330
C
100
AcDbDictionary
  3
2DWIREFRAME
350
19DEB
  3
3D_HIDDEN
350
19DED
  3
3DWIREFRAME
350
19DEC
  3
BASIC
350
19DEA
  3
BRIGHTEN
350
19DF1
  3
COLORCHANGE
350
19DF5
  3
CONCEPTUAL
350
19DEE
  3
DIM
350
19DF0
  3
EDGECOLOROFF
350
1E02A
  3
FACEPATTERN
350
19DF4
  3
FLAT
350
19DE6
  3
FLATWITHEDGES
350
19DE7
  3
GOURAUD
350
19DE8
  3
GOURAUDWITHEDGES
350
19DE9
  3
HIDDEN
350
1F381
  3
JITTEROFF
350
1E028
  3
LINEPATTERN
350
19DF3
  3
MODELING
350
240C7
  3
OVERHANGOFF
350
1E029
  3
REALISTIC
350
19DEF
  3
SHADED
350
1F386
  3
SHADED_WITH_EDGES
350
1F385
  3
SHADES_OF_GRAY
350
1F382
  3
SKETCHY
350
1F383
  3
THICKEN
350
19DF2
  3
WIREFRAME
350
1F380
  3
X-RAY
350
1F384
1001
ACAD
1000
TREAT_AS_HARD
1070
     0
  0
DICTIONARY
  5
24405
102
{ACAD_REACTORS
330
C
102
}
330
C
100
AcDbDictionary
  3
COLORDICT
350
24406
  3
MATERIALDICT
350
24407
1001
ACAD
1000
TREAT_AS_HARD
1070
     0
  0
DICTIONARY
  5
37
102
{ACAD_REACTORS
330
C
102
}
330
C
100
AcDbDictionary
  3
CANNOSCALE
350
240E0
  3
CMLEADERSTYLE
350
1AC19
  3
CTABLESTYLE
350
4F1
  3
DIMADEC
350
38
  3
DIMASSOC
350
408
  3
HIDETEXT
350
1891
  3
INDEXCTL
350
1AC1C
  3
INTERSECTIONCOLOR
350
1895
  3
INTERSECTIONDISPLAY
350
1894
  3
LAYEREVAL
350
23AD1
  3
LAYERNOTIFY
350
23AD2
  3
MSLTSCALE
350
20A9B
  3
OBSCOLOR
350
1892
  3
OBSLTYPE
350
1893
  3
PROJECTNAME
350
409
  3
SORTENTS
350
1AC1B
  3
XCLIPFRAME
350
240C6
1001
ACAD
1000
TREAT_AS_HARD
1070
     0
  0
DICTIONARY
  5
D8
102
{ACAD_REACTORS
330
C
102
}
330
C
100
AcDbDictionary
1001
CONTENTTABDATA
1070
    11
1000
Child
1000
D:\ACLT\TABset\CHILDREN.dwg
1070
     0
1070
     0
1070
     1
1000
PK
1000
D:\ACLT\TABset\PK.dwg
1070
     0
1070
     0
1070
     1
1000
Lev1
1000
D:\ACLT\TABset\Lever01.dwg
1070
     0
1070
     0
1070
     1
1000
Lev2
1000
D:\ACLT\TABset\Lever02.dwg
1070
     0
1070
     0
1070
     1
1000
L3
1000
D:\Aclt\TABset\Lever03.dwg
1070
     0
1070
     0
1070
     1
1000
Form
1000
D:\ACLT\FORMAT
1070
     1
1070
     0
1070
     1
1000
Jnt
1000
D:\ACLT\TABset\JOINTPARTS.dwg
1070
     0
1070
     0
1070
     1
1000
ISO
1000
D:\ACLT\TABset\Isome01.dwg
1070
     0
1070
     0
1070
     1
1000
R
1000
D:\ACLT\TABset\REGION.dwg
1070
     0
1070
     0
1070
     1
1000
std
1000
D:\ACLT\TABset\std_sym_all.dwg
1070
     0
1070
     0
1070
     1
1000
丸
1000
D:\Aclt\TABset\MARU.dwg
1070
     0
1070
     0
1070
     1
1001
CONTENTCURRENTTAB
1070
     0
1001
ACAD
1000
TREAT_AS_HARD
1070
     0
  0
DICTIONARY
  5
20
102
{ACAD_REACTORS
330
C
102
}
330
C
100
AcDbDictionary
1001
DRAWINGVARIABLESXDATA
1000
POLARANG
1000
0.261799387799149410000000
1000
POLARMODE
1000
1
1000
POLARSTYLE
1000
1
1001
ACAD
1000
TREAT_AS_HARD
1070
     0
  0
XRECORD
  5
24408
102
{ACAD_REACTORS
330
C
102
}
330
C
100
AcDbXrecord
  1
DWGPROPS COOKIE
  2

  3

  4

  6

  7

  8
3684
  9

300
=
301
=
302
=
303
=
304
=
305
=
306
=
307
=
308
=
309
=
 40
0.0
 41
2453033.357663484
 42
2458597.237601632
  1

 90
        0
  0
DICTIONARY
  5
18FE9
102
{ACAD_REACTORS
330
18FE8
102
}
330
18FE8
100
AcDbDictionary
1001
ACAD
1000
TREAT_AS_HARD
1070
     0
  0
ACAD_PROXY_OBJECT
  5
1A20B
102
{ACAD_REACTORS
330
1A20A
102
}
330
1A20A
100
AcDbZombieObject
 90
      499
 91
      517
 93
       34
310
40C8804040
  0
ACAD_PROXY_OBJECT
  5
1A20D
102
{ACAD_REACTORS
330
1A20C
102
}
330
1A20C
100
AcDbZombieObject
 90
      499
 91
      517
 93
       34
310
40C8804040
  0
ACAD_PROXY_OBJECT
  5
1A20F
102
{ACAD_REACTORS
330
1A20E
102
}
330
1A20E
100
AcDbZombieObject
 90
      499
 91
      517
 93
       34
310
40C8804040
  0
ACAD_PROXY_OBJECT
  5
1A219
102
{ACAD_REACTORS
330
1A218
102
}
330
1A218
100
AcDbZombieObject
 90
      499
 91
      517
 93
       34
310
40C8804040
  0
ACAD_PROXY_OBJECT
  5
1A21D
102
{ACAD_REACTORS
330
1A21C
102
}
330
1A21C
100
AcDbZombieObject
 90
      499
 91
      517
 93
       34
310
40C8804040
  0
ACAD_PROXY_OBJECT
  5
1A221
102
{ACAD_REACTORS
330
1A220
102
}
330
1A220
100
AcDbZombieObject
 90
      499
 91
      517
 93
       34
310
40C8804040
  0
ACAD_PROXY_OBJECT
  5
1A237
102
{ACAD_REACTORS
330
1A236
102
}
330
1A236
100
AcDbZombieObject
 90
      499
 91
      517
 93
       34
310
40C8804040
  0
ACAD_PROXY_OBJECT
  5
1A23D
102
{ACAD_REACTORS
330
1A23C
102
}
330
1A23C
100
AcDbZombieObject
 90
      499
 91
      517
 93
       34
310
40C8804040
  0
SORTENTSTABLE
  5
6EA
102
{ACAD_REACTORS
330
6E9
102
}
330
6E9
100
AcDbSortentsTable
330
18
331
22DF5
  5
22DF6
331
22DF6
  5
22DF7
331
22DF7
  5
22DF8
331
22DF8
  5
22DF9
331
22DF9
  5
22DFA
331
22DFA
  5
22DFB
331
22DFB
  5
22DFC
331
22DFC
  5
22DFD
331
22DFD
  5
22DFE
331
22DFE
  5
22DFF
331
22DFF
  5
22E01
331
22E01
  5
22E02
331
22E02
  5
22E04
331
22E04
  5
22E05
331
22E05
  5
22E06
331
22E06
  5
22E07
331
22E07
  5
22E08
331
22E08
  5
22E09
331
22E09
  5
22E0A
331
0
  5
22E0B
331
22E0B
  5
22E1A
331
22E0C
  5
22E51
331
22E0D
  5
22E7A
331
22E0E
  5
22E7E
331
22E0F
  5
22E82
331
22E10
  5
22E83
331
22E11
  5
22E84
331
22E12
  5
22E85
331
22E13
  5
22E87
331
22E14
  5
22E89
331
22E15
  5
22E8B
331
22E16
  5
22E8C
331
22E17
  5
22E8E
331
22E18
  5
22E91
331
22E19
  5
22E97
331
0
  5
22E26
331
22E4C
  5
22EB8
331
22E51
  5
22EB9
331
22E52
  5
22EBA
331
22E5E
  5
22EBB
331
22E5F
  5
22EBC
331
22E77
  5
22EBE
331
22E78
  5
22EBF
331
22E79
  5
22EC0
331
22E7A
  5
22EC1
331
22E7B
  5
22EC2
331
22E7C
  5
22EC4
331
22E7E
  5
22EC5
331
22E89
  5
22F62
331
22E8A
  5
22F63
331
22E8B
  5
22F64
331
22E8C
  5
22F65
331
22E8D
  5
22F66
331
22E8E
  5
22F67
331
22E8F
  5
22F69
331
22E90
  5
22F6A
331
22E91
  5
22F6B
331
22E92
  5
22F6C
331
22E93
  5
22F6D
331
22E94
  5
22F6E
331
22E95
  5
22F70
331
22E97
  5
22F71
331
22E98
  5
22F72
331
22E99
  5
22F73
331
22E9A
  5
22F74
331
22E9B
  5
22F75
331
22EA0
  5
22F77
331
22EA1
  5
22F78
331
22EA2
  5
22F79
331
22EA3
  5
22F7A
331
22EA4
  5
22F7B
331
22EA5
  5
22F7C
331
22EA7
  5
22F7D
331
22EA8
  5
22F7E
331
22EAA
  5
22F7F
331
22EAB
  5
22F80
331
22EAC
  5
22F81
331
22EAD
  5
22F82
331
22EAE
  5
22FDE
331
22EB1
  5
23021
331
22EB2
  5
23037
331
22EB3
  5
23056
331
22EB4
  5
23057
331
22EB5
  5
23082
331
22EB6
  5
23083
331
22EBE
  5
230B9
331
22EBF
  5
230BA
331
22EC0
  5
230BC
331
22EC1
  5
230BE
331
22EC2
  5
230BF
331
22EC3
  5
230C0
331
22EC4
  5
230C1
331
22EC5
  5
230C3
331
22EC6
  5
230D7
331
22EC7
  5
2370D
331
22EC8
  5
2370E
331
22EC9
  5
2370F
331
22ECA
  5
23711
331
22ECC
  5
23712
331
22F3E
  5
23713
331
22F3F
  5
23718
331
22F40
  5
2371B
331
22F42
  5
23ECE
331
22F44
  5
23ECF
331
22F45
  5
23ED0
331
22F5B
  5
23ED1
331
22F5C
  5
23ED2
331
22F5D
  5
23ED4
331
22F5E
  5
23ED5
331
22F5F
  5
23ED6
331
0
  5
230B3
331
22F62
  5
24191
331
22F63
  5
24192
331
22F64
  5
24193
331
22F65
  5
24194
331
22F66
  5
24195
331
0
  5
230BB
331
22F69
  5
241E0
331
22F6A
  5
241E1
331
22F6B
  5
241E2
331
22F6C
  5
241E3
331
22F6D
  5
241E4
331
0
  5
230C2
331
22F70
  5
2422F
331
22F71
  5
24230
331
22F72
  5
24231
331
22F73
  5
24232
331
22F74
  5
24233
331
0
  5
23710
331
22F77
  5
2428A
331
22F78
  5
2428B
331
22F79
  5
2428C
331
0
  5
23714
331
0
  5
23715
331
0
  5
23716
331
0
  5
23717
331
0
  5
2371A
331
0
  5
23719
331
0
  5
2371C
331
0
  5
2371D
331
0
  5
2371E
331
0
  5
2371F
331
0
  5
23720
331
0
  5
23721
331
0
  5
23722
331
0
  5
23EC6
331
0
  5
23EC7
331
0
  5
23EC8
331
0
  5
23EC9
331
0
  5
23ECA
331
0
  5
23ECB
331
0
  5
23ECC
331
0
  5
23ECD
331
230B7
  5
24323
331
230B8
  5
24324
331
230B9
  5
24325
331
230BA
  5
24326
331
230BB
  5
24327
331
0
  5
23ED3
331
230BE
  5
24375
331
230BF
  5
24376
331
230C0
  5
24377
331
230C1
  5
24378
331
230C2
  5
24379
331
0
  5
23ED9
331
0
  5
23EDA
331
2370D
  5
243D3
331
2370E
  5
243D4
331
2370F
  5
243D5
331
23710
  5
243D6
331
23711
  5
243D7
331
23712
  5
243D8
331
23713
  5
243D9
331
23714
  5
243DA
331
23715
  5
243DB
331
23716
  5
243DC
331
23717
  5
243DD
331
23718
  5
243DE
331
23719
  5
243DF
331
2371A
  5
243E0
331
2371B
  5
243E1
331
2371C
  5
243E2
331
2371D
  5
243E3
331
2371E
  5
243E4
331
2371F
  5
243E5
331
23720
  5
243E6
331
23721
  5
243E7
331
23EDE
  5
22EB1
331
23EDF
  5
22EB5
331
23EE0
  5
22EC7
331
23EE1
  5
22F40
331
23EE2
  5
2309B
331
23EE3
  5
230B1
331
23F02
  5
22EB6
331
23F03
  5
22EB2
331
23F04
  5
22F60
331
23F05
  5
22F3E
331
23F06
  5
230B8
331
23F07
  5
230B0
331
23F08
  5
22EB7
331
23F09
  5
22EB4
331
23F0A
  5
22F42
331
23F0B
  5
22EC9
331
23F0C
  5
230B4
331
23F0D
  5
2309C
331
23F0E
  5
22EB3
331
23F0F
  5
22ECA
331
23F10
  5
22F5C
331
23F11
  5
2309D
331
23F12
  5
230B7
331
0
  5
23FBE
331
0
  5
2400C
331
23FBE
  5
243F1
331
0
  5
240A1
331
240A0
  5
243FD
331
240A1
  5
243FE
331
240A2
  5
243FF
331
240A3
  5
24400
331
240A4
  5
24401
331
240A5
  5
24402
331
240A6
  5
24403
331
240A7
  5
24404
331
2415F
  5
242B9
331
24160
  5
242BF
331
24167
  5
22E0C
331
0
  5
22E0D
331
24169
  5
22E16
331
2416A
  5
22E17
331
2416B
  5
22E18
331
2416C
  5
22E19
331
2416D
  5
22EA0
331
0
  5
22E86
331
2416F
  5
22EAB
331
24170
  5
22EAC
331
24171
  5
22EAD
331
24172
  5
22EAE
331
24173
  5
23ED7
331
24174
  5
23ED8
331
24175
  5
23EDB
331
24176
  5
23EDC
331
24177
  5
23EDD
331
24178
  5
23EDE
331
24179
  5
23EDF
331
2417A
  5
23EE0
331
2417B
  5
23EE1
331
2417C
  5
23EE2
331
2417D
  5
23EE3
331
2417E
  5
23F02
331
2417F
  5
23F03
331
24180
  5
23F04
331
24181
  5
23F05
331
24182
  5
23F06
331
24183
  5
23F07
331
24184
  5
23F08
331
24185
  5
23F09
331
24186
  5
23F0A
331
24187
  5
23F0B
331
24188
  5
23F56
331
24189
  5
23F57
331
2418A
  5
240A0
331
2418B
  5
240A2
331
2418C
  5
240A3
331
2418D
  5
240A4
331
2418E
  5
240A5
331
2418F
  5
240A6
331
24190
  5
240A7
331
24191
  5
2415F
331
24192
  5
24160
331
24193
  5
24167
331
24194
  5
24168
331
24195
  5
24169
331
24196
  5
2416A
331
24197
  5
2416B
331
24198
  5
2416C
331
24199
  5
2416D
331
2419A
  5
2416E
331
2419B
  5
2416F
331
2419C
  5
24170
331
2419D
  5
24171
331
2419E
  5
24172
331
2419F
  5
24173
331
241A0
  5
24174
331
241A1
  5
24175
331
241A2
  5
24176
331
241A3
  5
24177
331
241A4
  5
24178
331
241A5
  5
24179
331
241A6
  5
2417A
331
241A7
  5
2417B
331
241A8
  5
2417C
331
241A9
  5
2417D
331
241AA
  5
2417E
331
241AB
  5
2417F
331
241AC
  5
24180
331
241AD
  5
24181
331
241AE
  5
24182
331
241AF
  5
24183
331
241B0
  5
24184
331
241B1
  5
24185
331
241B2
  5
24186
331
241B3
  5
24187
331
241B4
  5
24188
331
241B5
  5
24189
331
241B6
  5
2418A
331
241B7
  5
2418B
331
241B8
  5
2418C
331
241B9
  5
2418D
331
241BA
  5
2418E
331
241BB
  5
2418F
331
241BC
  5
24190
331
241BD
  5
24196
331
241BE
  5
24197
331
241BF
  5
24198
331
241C0
  5
24199
331
241C1
  5
2419A
331
241C2
  5
2419B
331
241C3
  5
2419C
331
241C4
  5
2419D
331
241C5
  5
2419E
331
241C6
  5
2419F
331
241C7
  5
241A0
331
241C8
  5
241A1
331
241C9
  5
241A2
331
241CA
  5
241A3
331
241CB
  5
241A4
331
241CC
  5
241A5
331
241CD
  5
241A6
331
241CE
  5
241A7
331
241CF
  5
241A8
331
241D0
  5
241A9
331
241D1
  5
241AA
331
241D2
  5
241AB
331
241D3
  5
241AC
331
241D4
  5
241AD
331
241D5
  5
241AE
331
241D6
  5
241AF
331
241D7
  5
241B0
331
241D8
  5
241B1
331
241D9
  5
241B2
331
241DA
  5
241B3
331
241DB
  5
241B4
331
241DC
  5
241B5
331
241DD
  5
241B6
331
241DE
  5
241B7
331
241DF
  5
241B8
331
241E0
  5
241B9
331
241E1
  5
241BA
331
241E2
  5
241BB
331
241E3
  5
241BC
331
241E4
  5
241BD
331
241E5
  5
241BE
331
241E6
  5
241BF
331
241E7
  5
241C0
331
241E8
  5
241C1
331
241E9
  5
241C2
331
241EA
  5
241C3
331
241EB
  5
241C4
331
241EC
  5
241C5
331
241ED
  5
241C6
331
241EE
  5
241C7
331
241EF
  5
241C8
331
241F0
  5
241C9
331
241F1
  5
241CA
331
241F2
  5
241CB
331
241F3
  5
241CC
331
241F4
  5
241CD
331
241F5
  5
241CE
331
241F6
  5
241CF
331
241F7
  5
241D0
331
241F8
  5
241D1
331
241F9
  5
241D2
331
241FA
  5
241D3
331
241FB
  5
241D4
331
241FC
  5
241D5
331
241FD
  5
241D6
331
241FE
  5
241D7
331
241FF
  5
241D8
331
24200
  5
241D9
331
24201
  5
241DA
331
24202
  5
241DB
331
24203
  5
241DC
331
24204
  5
241DD
331
24205
  5
241DE
331
24206
  5
241DF
331
24207
  5
241E5
331
24208
  5
241E6
331
24209
  5
241E7
331
2420A
  5
241E8
331
2420B
  5
241E9
331
2420C
  5
241EA
331
2420D
  5
241EB
331
2420E
  5
241EC
331
2420F
  5
241ED
331
24210
  5
241EE
331
24211
  5
241EF
331
24212
  5
241F0
331
24213
  5
241F1
331
24214
  5
241F2
331
24215
  5
241F3
331
24216
  5
241F4
331
24217
  5
241F5
331
24218
  5
241F6
331
24219
  5
241F7
331
2421A
  5
241F8
331
2421B
  5
241F9
331
2421C
  5
241FA
331
2421D
  5
241FB
331
2421E
  5
241FC
331
2421F
  5
241FD
331
24220
  5
241FE
331
24221
  5
241FF
331
24222
  5
24200
331
24223
  5
24201
331
24224
  5
24202
331
24225
  5
24203
331
24226
  5
24204
331
24227
  5
24205
331
24228
  5
24206
331
24229
  5
24207
331
2422A
  5
24208
331
2422B
  5
24209
331
2422C
  5
2420A
331
2422D
  5
2420B
331
2422E
  5
2420C
331
2422F
  5
2420D
331
24230
  5
2420E
331
24231
  5
2420F
331
24232
  5
24210
331
24233
  5
24211
331
24234
  5
24212
331
24235
  5
24213
331
24236
  5
24214
331
24237
  5
24215
331
24238
  5
24216
331
24239
  5
24217
331
2423A
  5
24218
331
2423B
  5
24219
331
2423C
  5
2421A
331
2423D
  5
2421B
331
2423E
  5
2421C
331
2423F
  5
2421D
331
24240
  5
2421E
331
24241
  5
2421F
331
24242
  5
24220
331
24243
  5
24221
331
24244
  5
24222
331
24245
  5
24223
331
24246
  5
24224
331
24247
  5
24225
331
24248
  5
24226
331
24249
  5
24227
331
2424A
  5
24228
331
2424B
  5
24229
331
2424C
  5
2422A
331
2424D
  5
2422B
331
2424E
  5
2422C
331
2424F
  5
2422D
331
24250
  5
2422E
331
24251
  5
24234
331
24252
  5
24235
331
24253
  5
24236
331
24254
  5
24237
331
24255
  5
24238
331
24256
  5
24239
331
24257
  5
2423A
331
24258
  5
2423B
331
24259
  5
2423C
331
2425A
  5
2423D
331
2425B
  5
2423E
331
2425C
  5
2423F
331
2425D
  5
24240
331
2425E
  5
24241
331
2425F
  5
24242
331
24260
  5
24243
331
24261
  5
24244
331
24262
  5
24245
331
24263
  5
24246
331
24264
  5
24247
331
24265
  5
24248
331
24266
  5
24249
331
24267
  5
2424A
331
24268
  5
2424B
331
24269
  5
2424C
331
2426A
  5
2424D
331
2426B
  5
2424E
331
2426C
  5
2424F
331
2426D
  5
24250
331
2426E
  5
24251
331
2426F
  5
24252
331
24270
  5
24253
331
24271
  5
24254
331
24272
  5
24255
331
24273
  5
24256
331
24274
  5
24257
331
24275
  5
24258
331
24276
  5
24259
331
24277
  5
2425A
331
24278
  5
2425B
331
24279
  5
2425C
331
2427A
  5
2425D
331
2427B
  5
2425E
331
2427C
  5
2425F
331
2427D
  5
24260
331
2427E
  5
24261
331
2427F
  5
24262
331
24280
  5
24263
331
24281
  5
24264
331
24282
  5
24265
331
24283
  5
24266
331
24284
  5
24267
331
24285
  5
24268
331
24286
  5
24269
331
24287
  5
2426A
331
24288
  5
2426B
331
24289
  5
2426C
331
2428A
  5
2426D
331
2428B
  5
2426E
331
2428C
  5
2426F
331
2428D
  5
24270
331
2428E
  5
24271
331
2428F
  5
24272
331
24290
  5
24273
331
24291
  5
24277
331
24292
  5
24278
331
24293
  5
24279
331
24294
  5
2427E
331
24295
  5
2427F
331
24296
  5
24281
331
24297
  5
24282
331
24298
  5
24283
331
24299
  5
24284
331
2429A
  5
24285
331
2429B
  5
2428D
331
2429C
  5
2428E
331
2429D
  5
2428F
331
0
  5
24274
331
0
  5
24275
331
0
  5
24276
331
242A1
  5
242A0
331
242A2
  5
242A1
331
242A3
  5
242A2
331
0
  5
2427A
331
0
  5
2427B
331
0
  5
2427C
331
0
  5
2427D
331
242A8
  5
242B7
331
0
  5
24280
331
242AA
  5
242BE
331
242AB
  5
242C0
331
242AC
  5
242C1
331
242AD
  5
242C2
331
0
  5
24286
331
0
  5
24287
331
0
  5
24288
331
0
  5
24289
331
242B2
  5
242CD
331
242B3
  5
242CE
331
242B4
  5
242CF
331
242B5
  5
242D0
331
242B6
  5
242D1
331
242B7
  5
242D2
331
242B8
  5
242D3
331
0
  5
24291
331
0
  5
24292
331
0
  5
24293
331
242BC
  5
242DB
331
242BD
  5
242DC
331
242BE
  5
242DD
331
0
  5
24297
331
0
  5
24298
331
0
  5
24299
331
242C2
  5
242E5
331
242C3
  5
242E6
331
242C4
  5
242E7
331
0
  5
2429D
331
0
  5
2429E
331
0
  5
2429F
331
242C8
  5
242EF
331
242C9
  5
242F0
331
242CA
  5
242F1
331
0
  5
242A3
331
0
  5
242A4
331
0
  5
242A5
331
242CE
  5
242F9
331
242CF
  5
242FA
331
242D0
  5
242FB
331
0
  5
242A9
331
0
  5
242AA
331
0
  5
242AB
331
242D4
  5
24303
331
242D5
  5
24304
331
242D6
  5
24305
331
242D7
  5
24306
331
0
  5
242B0
331
0
  5
242B1
331
0
  5
242B2
331
0
  5
242B3
331
242DC
  5
24311
331
242DD
  5
24312
331
242DE
  5
24313
331
242DF
  5
24314
331
0
  5
242B8
331
242E1
  5
24318
331
242E2
  5
24319
331
242E3
  5
2431A
331
242E4
  5
2431B
331
0
  5
242BD
331
242E6
  5
2431F
331
242E7
  5
24320
331
242E8
  5
24321
331
242E9
  5
24322
331
242EA
  5
24328
331
242EB
  5
24329
331
242EC
  5
2432A
331
242ED
  5
2432B
331
242EE
  5
2432C
331
242EF
  5
2432D
331
242F0
  5
2432E
331
242F1
  5
2432F
331
242F2
  5
24330
331
242F3
  5
24331
331
242F4
  5
24332
331
242F5
  5
24333
331
242F6
  5
24334
331
242F7
  5
24335
331
242F8
  5
24336
331
242F9
  5
24337
331
242FA
  5
24338
331
242FB
  5
24339
331
242FC
  5
2433A
331
242FD
  5
2433B
331
242FE
  5
2433C
331
242FF
  5
2433D
331
24300
  5
2433E
331
24301
  5
2433F
331
24302
  5
24340
331
24303
  5
24341
331
24304
  5
24342
331
24305
  5
24343
331
24306
  5
24344
331
24307
  5
24345
331
24308
  5
24346
331
24309
  5
24347
331
2430A
  5
24348
331
2430B
  5
24349
331
2430C
  5
2434A
331
2430D
  5
2434B
331
2430E
  5
2434C
331
2430F
  5
2434D
331
24310
  5
2434E
331
24311
  5
2434F
331
24312
  5
24350
331
24313
  5
24351
331
24314
  5
24352
331
24315
  5
24353
331
24316
  5
24354
331
24317
  5
24355
331
24318
  5
24356
331
24319
  5
24357
331
2431A
  5
24358
331
2431B
  5
24359
331
2431C
  5
2435A
331
2431D
  5
2435B
331
2431E
  5
2435C
331
2431F
  5
2435D
331
24320
  5
2435E
331
24321
  5
2435F
331
24322
  5
24360
331
24323
  5
24361
331
24324
  5
24362
331
24325
  5
24363
331
24326
  5
24367
331
24327
  5
24368
331
24328
  5
24369
331
24329
  5
2436A
331
2432A
  5
2436B
331
2432B
  5
2436C
331
2432C
  5
2436D
331
2432D
  5
2436E
331
2432E
  5
2436F
331
2432F
  5
24370
331
24330
  5
24371
331
24331
  5
24372
331
24332
  5
24373
331
24333
  5
24374
331
24334
  5
2437A
331
24335
  5
2437B
331
24336
  5
2437D
331
24337
  5
2437E
331
24338
  5
2437F
331
24339
  5
24380
331
2433A
  5
24381
331
2433B
  5
24382
331
2433C
  5
24383
331
2433D
  5
24384
331
2433E
  5
24385
331
2433F
  5
24386
331
24340
  5
24387
331
24341
  5
2438B
331
24342
  5
2438C
331
24343
  5
2438D
331
24344
  5
2438E
331
24345
  5
2438F
331
24346
  5
24390
331
24347
  5
24391
331
24348
  5
24392
331
24349
  5
24393
331
2434A
  5
24394
331
2434B
  5
24395
331
2434C
  5
24396
331
2434D
  5
24397
331
2434E
  5
24398
331
2434F
  5
24399
331
24350
  5
2439A
331
24351
  5
2439B
331
24352
  5
2439C
331
24353
  5
2439D
331
24354
  5
2439E
331
24355
  5
2439F
331
24356
  5
243A0
331
24357
  5
243A1
331
24358
  5
243A2
331
24359
  5
243A3
331
2435A
  5
243A4
331
2435B
  5
243A5
331
2435C
  5
243A6
331
2435D
  5
243A7
331
2435E
  5
243A8
331
2435F
  5
243A9
331
24360
  5
243AA
331
24361
  5
243AB
331
24362
  5
243AC
331
24363
  5
243AD
331
24364
  5
243AE
331
24365
  5
243AF
331
24366
  5
243B0
331
24367
  5
243B1
331
24368
  5
243B2
331
24369
  5
243B3
331
2436A
  5
243B4
331
2436B
  5
243B5
331
2436C
  5
243B6
331
2436D
  5
243B7
331
2436E
  5
243B8
331
2436F
  5
243B9
331
24370
  5
243BA
331
24371
  5
243BB
331
24372
  5
243BC
331
24373
  5
243BD
331
24374
  5
243BE
331
24375
  5
243BF
331
24376
  5
243C0
331
24377
  5
243C1
331
24378
  5
243C2
331
24379
  5
243C3
331
2437A
  5
243C4
331
2437B
  5
243C5
331
2437C
  5
243C6
331
2437D
  5
243C7
331
2437E
  5
243C8
331
2437F
  5
243C9
331
24380
  5
243CA
331
24381
  5
243CB
331
0
  5
24364
331
0
  5
24365
331
0
  5
24366
331
0
  5
2437C
331
24386
  5
243EB
331
24387
  5
243EC
331
24388
  5
243ED
331
24389
  5
243EE
331
2438A
  5
243EF
331
2438B
  5
243F0
331
2438C
  5
243F2
331
2438D
  5
243F3
331
2438E
  5
243F4
331
2438F
  5
243F5
331
0
  5
24388
331
0
  5
24389
331
0
  5
2438A
331
24393
  5
22E0E
331
24394
  5
22E0F
331
24395
  5
22E10
331
24396
  5
22E11
331
24397
  5
22E12
331
24398
  5
22E13
331
24399
  5
22E14
331
2439A
  5
22E15
331
2439B
  5
22EA1
331
2439C
  5
22EA2
331
2439D
  5
22EA3
331
2439E
  5
22EA4
331
2439F
  5
22EA5
331
243A0
  5
22EA7
331
243A1
  5
22EA8
331
243A2
  5
22EAA
331
243A3
  5
24290
331
243A4
  5
24294
331
243A5
  5
24295
331
243A6
  5
24296
331
243A7
  5
2429A
331
243A8
  5
2429B
331
243A9
  5
2429C
331
243AA
  5
242A6
331
243AB
  5
242A7
331
243AC
  5
242A8
331
243AD
  5
242AC
331
243AE
  5
242AD
331
243AF
  5
242AE
331
243B0
  5
242AF
331
243B1
  5
242B4
331
243B2
  5
242B5
331
243B3
  5
242B6
331
243B4
  5
242BA
331
243B5
  5
242BB
331
243B6
  5
242BC
331
243B7
  5
242C3
331
243B8
  5
242C4
331
243B9
  5
242C5
331
243BA
  5
242C6
331
243BB
  5
242C7
331
243BC
  5
242C8
331
243BD
  5
242C9
331
243BE
  5
242CA
331
243BF
  5
242CB
331
243C0
  5
242CC
331
243C1
  5
242D4
331
243C2
  5
242D5
331
243C3
  5
242D6
331
243C4
  5
242D7
331
243C5
  5
242D8
331
243C6
  5
242D9
331
243C7
  5
242DA
331
243C8
  5
242DE
331
243C9
  5
242DF
331
243CA
  5
242E0
331
243CB
  5
242E1
331
243CC
  5
242E2
331
243CD
  5
242E3
331
243CE
  5
242E4
331
243CF
  5
242E8
331
243D0
  5
242E9
331
243D1
  5
242EA
331
243D2
  5
242EB
331
243D3
  5
242EC
331
243D4
  5
242ED
331
243D5
  5
242EE
331
243D6
  5
242F2
331
243D7
  5
242F3
331
243D8
  5
242F4
331
243D9
  5
242F5
331
243DA
  5
242F6
331
243DB
  5
242F7
331
243DC
  5
242F8
331
243DD
  5
242FC
331
243DE
  5
242FD
331
243DF
  5
242FE
331
243E0
  5
242FF
331
243E1
  5
24300
331
243E2
  5
24301
331
243E3
  5
24302
331
243E4
  5
24307
331
243E5
  5
24308
331
243E6
  5
24309
331
243E7
  5
2430A
331
243E8
  5
2430B
331
243E9
  5
2430C
331
243EA
  5
2430D
331
243EB
  5
2430E
331
243EC
  5
2430F
331
243ED
  5
24310
331
243EE
  5
24315
331
243EF
  5
24316
331
243F0
  5
24317
331
243F1
  5
2431C
331
243F2
  5
2431D
331
243F3
  5
2431E
331
243F4
  5
243CC
331
243F5
  5
243CD
331
243F6
  5
243CE
331
243F7
  5
243CF
331
243F8
  5
243D0
331
243F9
  5
243D1
331
243FA
  5
243D2
331
243FB
  5
243E8
331
243FC
  5
243E9
331
243FD
  5
243EA
331
243FE
  5
243F6
331
243FF
  5
243F7
331
24400
  5
243F8
331
24401
  5
243F9
331
24402
  5
243FA
331
24403
  5
243FB
331
24404
  5
243FC
  0
SORTENTSTABLE
  5
59C
102
{ACAD_REACTORS
330
59B
102
}
330
59B
100
AcDbSortentsTable
330
15
331
57
  5
57
331
0
  5
70
  0
GROUP
  5
22F68
102
{ACAD_REACTORS
330
D
102
}
330
D
100
AcDbGroup
300

 70
     1
 71
     1
340
22F66
340
22F65
340
22F64
340
22F63
340
22F62
  0
GROUP
  5
22F6F
102
{ACAD_REACTORS
330
D
102
}
330
D
100
AcDbGroup
300

 70
     1
 71
     1
340
22F6D
340
22F6C
340
22F6B
340
22F6A
340
22F69
  0
GROUP
  5
22F76
102
{ACAD_REACTORS
330
D
102
}
330
D
100
AcDbGroup
300

 70
     1
 71
     1
340
22F74
340
22F73
340
22F72
340
22F71
340
22F70
  0
GROUP
  5
22FC2
102
{ACAD_REACTORS
330
D
102
}
330
D
100
AcDbGroup
300

 70
     1
 71
     1
340
22F79
340
22F78
340
22F77
  0
GROUP
  5
230BD
102
{ACAD_REACTORS
330
D
102
}
330
D
100
AcDbGroup
300

 70
     1
 71
     1
340
230BB
340
230BA
340
230B9
340
230B8
340
230B7
  0
GROUP
  5
230C4
102
{ACAD_REACTORS
330
D
102
}
330
D
100
AcDbGroup
300

 70
     1
 71
     1
340
230C2
340
230C1
340
230C0
340
230BF
340
230BE
  0
GROUP
  5
22F61
102
{ACAD_REACTORS
330
D
102
}
330
D
100
AcDbGroup
300

 70
     1
 71
     1
340
22F5F
340
22F5E
340
22F5D
340
22F5C
340
22F5B
  0
MATERIAL
  5
19DD5
102
{ACAD_REACTORS
330
2CF
102
}
102
{ACAD_XDICTIONARY
360
245A3
102
}
330
2CF
100
AcDbMaterial
  1
BYBLOCK
 72
     0
 73
     2
 43
0.0208333333333333
 43
0.0
 43
0.0
 43
0.0
 43
0.0
 43
0.0208333333333333
 43
0.0
 43
0.0
 43
0.0
 43
0.0
 43
1.0
 43
0.0
 43
0.0
 43
0.0
 43
0.0
 43
1.0
 77
     0
 78
     2
 47
0.0208333333333333
 47
0.0
 47
0.0
 47
0.0
 47
0.0
 47
0.0208333333333333
 47
0.0
 47
0.0
 47
0.0
 47
0.0
 47
1.0
 47
0.0
 47
0.0
 47
0.0
 47
0.0
 47
1.0
171
     0
172
     2
 49
0.0208333333333333
 49
0.0
 49
0.0
 49
0.0
 49
0.0
 49
0.0208333333333333
 49
0.0
 49
0.0
 49
0.0
 49
0.0
 49
1.0
 49
0.0
 49
0.0
 49
0.0
 49
0.0
 49
1.0
175
     0
176
     2
142
0.0208333333333333
142
0.0
142
0.0
142
0.0
142
0.0
142
0.0208333333333333
142
0.0
142
0.0
142
0.0
142
0.0
142
1.0
142
0.0
142
0.0
142
0.0
142
0.0
142
1.0
179
     0
270
     2
144
0.0208333333333333
144
0.0
144
0.0
144
0.0
144
0.0
144
0.0208333333333333
144
0.0
144
0.0
144
0.0
144
0.0
144
1.0
144
0.0
144
0.0
144
0.0
144
0.0
144
1.0
274
     2
147
0.0208333333333333
147
0.0
147
0.0
147
0.0
147
0.0
147
0.0208333333333333
147
0.0
147
0.0
147
0.0
147
0.0
147
1.0
147
0.0
147
0.0
147
0.0
147
0.0
147
1.0
  0
MATERIAL
  5
19DCD
102
{ACAD_REACTORS
330
2CF
102
}
102
{ACAD_XDICTIONARY
360
245A5
102
}
330
2CF
100
AcDbMaterial
  1
BYLAYER
 72
     0
 73
     2
 43
0.0208333333333333
 43
0.0
 43
0.0
 43
0.0
 43
0.0
 43
0.0208333333333333
 43
0.0
 43
0.0
 43
0.0
 43
0.0
 43
1.0
 43
0.0
 43
0.0
 43
0.0
 43
0.0
 43
1.0
 77
     0
 78
     2
 47
0.0208333333333333
 47
0.0
 47
0.0
 47
0.0
 47
0.0
 47
0.0208333333333333
 47
0.0
 47
0.0
 47
0.0
 47
0.0
 47
1.0
 47
0.0
 47
0.0
 47
0.0
 47
0.0
 47
1.0
171
     0
172
     2
 49
0.0208333333333333
 49
0.0
 49
0.0
 49
0.0
 49
0.0
 49
0.0208333333333333
 49
0.0
 49
0.0
 49
0.0
 49
0.0
 49
1.0
 49
0.0
 49
0.0
 49
0.0
 49
0.0
 49
1.0
175
     0
176
     2
142
0.0208333333333333
142
0.0
142
0.0
142
0.0
142
0.0
142
0.0208333333333333
142
0.0
142
0.0
142
0.0
142
0.0
142
1.0
142
0.0
142
0.0
142
0.0
142
0.0
142
1.0
179
     0
270
     2
144
0.0208333333333333
144
0.0
144
0.0
144
0.0
144
0.0
144
0.0208333333333333
144
0.0
144
0.0
144
0.0
144
0.0
144
1.0
144
0.0
144
0.0
144
0.0
144
0.0
144
1.0
274
     2
147
0.0208333333333333
147
0.0
147
0.0
147
0.0
147
0.0
147
0.0208333333333333
147
0.0
147
0.0
147
0.0
147
0.0
147
1.0
147
0.0
147
0.0
147
0.0
147
0.0
147
1.0
  0
MATERIAL
  5
19DDD
102
{ACAD_REACTORS
330
2CF
102
}
102
{ACAD_XDICTIONARY
360
245A7
102
}
330
2CF
100
AcDbMaterial
  1
GLOBAL
 72
     0
 73
     2
 43
0.0208333333333333
 43
0.0
 43
0.0
 43
0.0
 43
0.0
 43
0.0208333333333333
 43
0.0
 43
0.0
 43
0.0
 43
0.0
 43
1.0
 43
0.0
 43
0.0
 43
0.0
 43
0.0
 43
1.0
 77
     0
 78
     2
 47
0.0208333333333333
 47
0.0
 47
0.0
 47
0.0
 47
0.0
 47
0.0208333333333333
 47
0.0
 47
0.0
 47
0.0
 47
0.0
 47
1.0
 47
0.0
 47
0.0
 47
0.0
 47
0.0
 47
1.0
171
     0
172
     2
 49
0.0208333333333333
 49
0.0
 49
0.0
 49
0.0
 49
0.0
 49
0.0208333333333333
 49
0.0
 49
0.0
 49
0.0
 49
0.0
 49
1.0
 49
0.0
 49
0.0
 49
0.0
 49
0.0
 49
1.0
175
     0
176
     2
142
0.0208333333333333
142
0.0
142
0.0
142
0.0
142
0.0
142
0.0208333333333333
142
0.0
142
0.0
142
0.0
142
0.0
142
1.0
142
0.0
142
0.0
142
0.0
142
0.0
142
1.0
179
     0
270
     2
144
0.0208333333333333
144
0.0
144
0.0
144
0.0
144
0.0
144
0.0208333333333333
144
0.0
144
0.0
144
0.0
144
0.0
144
1.0
144
0.0
144
0.0
144
0.0
144
0.0
144
1.0
274
     2
147
0.0208333333333333
147
0.0
147
0.0
147
0.0
147
0.0
147
0.0208333333333333
147
0.0
147
0.0
147
0.0
147
0.0
147
1.0
147
0.0
147
0.0
147
0.0
147
0.0
147
1.0
  0
ACAD_PROXY_OBJECT
  5
19E19
102
{ACAD_REACTORS
330
19E18
102
}
330
19E18
100
AcDbZombieObject
 90
      499
 91
      512
 93
      610
310
40901902A4063FBFFFFFE000000000000002040AD7A3703D0AD73F4214DD185B99185C990000000000000104090141901A00000000000004100000000000000041025764000000000000300FC0
340
12
340
0
340
F
340
0
 94
        0
1001
ACAD_MLEADERVER
1070
     2
  0
MLINESTYLE
  5
1C
102
{ACAD_REACTORS
330
1B
102
}
330
1B
100
AcDbMlineStyle
  2
STANDARD
 70
     0
  3

 62
   256
 51
90.0
 52
90.0
 71
     2
 49
0.5
 62
   256
  6
BYLAYER
 49
-0.5
 62
   256
  6
BYLAYER
  0
ACAD_PROXY_OBJECT
  5
19DF7
102
{ACAD_REACTORS
330
19DF6
102
}
330
19DF6
100
AcDbZombieObject
 90
      499
 91
      511
 93
       41
310
903313A31580
  0
ACAD_PROXY_OBJECT
  5
19DF8
102
{ACAD_REACTORS
330
19DF6
102
}
330
19DF6
100
AcDbZombieObject
 90
      499
 91
      511
 93
      105
310
903313A324000000000000004000
  0
ACAD_PROXY_OBJECT
  5
19DF9
102
{ACAD_REACTORS
330
19DF6
102
}
330
19DF6
100
AcDbZombieObject
 90
      499
 91
      511
 93
      105
310
903313A344000000000000104000
  0
ACAD_PROXY_OBJECT
  5
19DFA
102
{ACAD_REACTORS
330
19DF6
102
}
330
19DF6
100
AcDbZombieObject
 90
      499
 91
      511
 93
      105
310
903313A354000000000000144000
  0
ACAD_PROXY_OBJECT
  5
19DFB
102
{ACAD_REACTORS
330
19DF6
102
}
330
19DF6
100
AcDbZombieObject
 90
      499
 91
      511
 93
      105
310
903313A384000000000000204000
  0
ACAD_PROXY_OBJECT
  5
19DFC
102
{ACAD_REACTORS
330
19DF6
102
}
330
19DF6
100
AcDbZombieObject
 90
      499
 91
      511
 93
      113
310
904313A31304000000000000244000
  0
ACAD_PROXY_OBJECT
  5
19DFD
102
{ACAD_REACTORS
330
19DF6
102
}
330
19DF6
100
AcDbZombieObject
 90
      499
 91
      511
 93
      113
310
904313A31364000000000000304000
  0
ACAD_PROXY_OBJECT
  5
19DFE
102
{ACAD_REACTORS
330
19DF6
102
}
330
19DF6
100
AcDbZombieObject
 90
      499
 91
      511
 93
      113
310
904313A32304000000000000344000
  0
ACAD_PROXY_OBJECT
  5
19DFF
102
{ACAD_REACTORS
330
19DF6
102
}
330
19DF6
100
AcDbZombieObject
 90
      499
 91
      511
 93
      113
310
904313A333040000000000003E4000
  0
ACAD_PROXY_OBJECT
  5
19E00
102
{ACAD_REACTORS
330
19DF6
102
}
330
19DF6
100
AcDbZombieObject
 90
      499
 91
      511
 93
      113
310
904313A34304000000000000444000
  0
ACAD_PROXY_OBJECT
  5
19E01
102
{ACAD_REACTORS
330
19DF6
102
}
330
19DF6
100
AcDbZombieObject
 90
      499
 91
      511
 93
      113
310
904313A35304000000000000494000
  0
ACAD_PROXY_OBJECT
  5
19E02
102
{ACAD_REACTORS
330
19DF6
102
}
330
19DF6
100
AcDbZombieObject
 90
      499
 91
      511
 93
      121
310
905313A3130304000000000000594000
  0
ACAD_PROXY_OBJECT
  5
19E03
102
{ACAD_REACTORS
330
19DF6
102
}
330
19DF6
100
AcDbZombieObject
 90
      499
 91
      511
 93
      105
310
903323A310000000000000010100
  0
ACAD_PROXY_OBJECT
  5
19E04
102
{ACAD_REACTORS
330
19DF6
102
}
330
19DF6
100
AcDbZombieObject
 90
      499
 91
      511
 93
      105
310
903343A310000000000000410100
  0
ACAD_PROXY_OBJECT
  5
19E05
102
{ACAD_REACTORS
330
19DF6
102
}
330
19DF6
100
AcDbZombieObject
 90
      499
 91
      511
 93
      105
310
903383A310000000000000810100
  0
ACAD_PROXY_OBJECT
  5
19E06
102
{ACAD_REACTORS
330
19DF6
102
}
330
19DF6
100
AcDbZombieObject
 90
      499
 91
      511
 93
      113
310
90431303A310000000000000910100
  0
ACAD_PROXY_OBJECT
  5
19E07
102
{ACAD_REACTORS
330
19DF6
102
}
330
19DF6
100
AcDbZombieObject
 90
      499
 91
      511
 93
      121
310
9053130303A310000000000001650100
  0
ACAD_PROXY_OBJECT
  5
19E08
102
{ACAD_REACTORS
330
19DF6
102
}
330
19DF6
100
AcDbZombieObject
 90
      499
 91
      511
 93
      257
310
90E312F31323822203D2031272D3022000000000000200FC000000000000284000
  0
ACAD_PROXY_OBJECT
  5
19E09
102
{ACAD_REACTORS
330
19DF6
102
}
330
19DF6
100
AcDbZombieObject
 90
      499
 91
      511
 93
      249
310
90D312F363422203D2031272D3022000000000000240FC000000000000284000
  0
ACAD_PROXY_OBJECT
  5
19E0A
102
{ACAD_REACTORS
330
19DF6
102
}
330
19DF6
100
AcDbZombieObject
 90
      499
 91
      511
 93
      249
310
90D312F333222203D2031272D3022000000000000280FC000000000000284000
  0
ACAD_PROXY_OBJECT
  5
19E0B
102
{ACAD_REACTORS
330
19DF6
102
}
330
19DF6
100
AcDbZombieObject
 90
      499
 91
      511
 93
      249
310
90D312F313622203D2031272D30220000000000002C0FC000000000000284000
  0
ACAD_PROXY_OBJECT
  5
19E0C
102
{ACAD_REACTORS
330
19DF6
102
}
330
19DF6
100
AcDbZombieObject
 90
      499
 91
      511
 93
      249
310
90D332F333222203D2031272D30220000000000002E0FC000000000000284000
  0
ACAD_PROXY_OBJECT
  5
19E0D
102
{ACAD_REACTORS
330
19DF6
102
}
330
19DF6
100
AcDbZombieObject
 90
      499
 91
      511
 93
      241
310
90C312F3822203D2031272D3022000000000000300FC000000000000284000
  0
ACAD_PROXY_OBJECT
  5
19E0E
102
{ACAD_REACTORS
330
19DF6
102
}
330
19DF6
100
AcDbZombieObject
 90
      499
 91
      511
 93
      249
310
90D332F313622203D2031272D3022000000000000320FC000000000000284000
  0
ACAD_PROXY_OBJECT
  5
19E0F
102
{ACAD_REACTORS
330
19DF6
102
}
330
19DF6
100
AcDbZombieObject
 90
      499
 91
      511
 93
      241
310
90C312F3422203D2031272D3022000000000000340FC000000000000284000
  0
ACAD_PROXY_OBJECT
  5
19E10
102
{ACAD_REACTORS
330
19DF6
102
}
330
19DF6
100
AcDbZombieObject
 90
      499
 91
      511
 93
      241
310
90C332F3822203D2031272D3022000000000000360FC000000000000284000
  0
ACAD_PROXY_OBJECT
  5
19E11
102
{ACAD_REACTORS
330
19DF6
102
}
330
19DF6
100
AcDbZombieObject
 90
      499
 91
      511
 93
      241
310
90C312F3222203D2031272D3022000000000000380FC000000000000284000
  0
ACAD_PROXY_OBJECT
  5
19E12
102
{ACAD_REACTORS
330
19DF6
102
}
330
19DF6
100
AcDbZombieObject
 90
      499
 91
      511
 93
      241
310
90C332F3422203D2031272D30220000000000003A0FC000000000000284000
  0
ACAD_PROXY_OBJECT
  5
19E13
102
{ACAD_REACTORS
330
19DF6
102
}
330
19DF6
100
AcDbZombieObject
 90
      499
 91
      511
 93
      161
310
90A3122203D2031272D30224000000000000284000
  0
ACAD_PROXY_OBJECT
  5
19E14
102
{ACAD_REACTORS
330
19DF6
102
}
330
19DF6
100
AcDbZombieObject
 90
      499
 91
      511
 93
      257
310
90E312D312F3222203D2031272D30220000000000003E0FC000000000000284000
  0
ACAD_PROXY_OBJECT
  5
19E15
102
{ACAD_REACTORS
330
19DF6
102
}
330
19DF6
100
AcDbZombieObject
 90
      499
 91
      511
 93
      225
310
90A3322203D2031272D302200000000000002100000000000000284000
  0
ACAD_PROXY_OBJECT
  5
19E16
102
{ACAD_REACTORS
330
19DF6
102
}
330
19DF6
100
AcDbZombieObject
 90
      499
 91
      511
 93
      225
310
90A3622203D2031272D302200000000000006100000000000000284000
  0
ACAD_PROXY_OBJECT
  5
19E17
102
{ACAD_REACTORS
330
19DF6
102
}
330
19DF6
100
AcDbZombieObject
 90
      499
 91
      511
 93
      249
310
90D31272D3022203D2031272D30220000000000000A100000000000000284000
  0
ACAD_PROXY_OBJECT
  5
19DEB
102
{ACAD_REACTORS
330
19DE5
102
}
330
19DE5
100
AcDbZombieObject
 90
      499
 91
      510
 93
      436
310
42CC9915DA5C99599C985B595049028333333333333E3BF0000000000000FB0107901411070040501600405405064090741402480A0340
1001
ACAD
1000
AcDbSavedByObjectVersion
1070
     0
  0
ACAD_PROXY_OBJECT
  5
19DED
102
{ACAD_REACTORS
330
19DE5
102
}
330
19DE5
100
AcDbZombieObject
 90
      499
 91
      510
 93
      500
310
424CD108121A5919195B90640502408333333333333E3BF0000000000000FB01079024090700405020000000000001110200405405064090740C02480A0340
1001
ACAD
1000
AcDbSavedByObjectVersion
1070
     0
  0
ACAD_PROXY_OBJECT
  5
19DEC
102
{ACAD_REACTORS
330
19DE5
102
}
330
19DE5
100
AcDbZombieObject
 90
      499
 91
      510
 93
      436
310
42CCD915DA5C99599C985B595059028333333333333E3BF0000000000000FB0107901411070040501600405405064090741402480A0340
1001
ACAD
1000
AcDbSavedByObjectVersion
1070
     0
  0
ACAD_PROXY_OBJECT
  5
19DEA
102
{ACAD_REACTORS
330
19DE5
102
}
330
19DE5
100
AcDbZombieObject
 90
      499
 91
      510
 93
      388
310
4150985CDA58D07406404333333333333E3BF0000000000000FB0107A41107004050150841D405064090741402480A0350
1001
ACAD
1000
AcDbSavedByObjectVersion
1070
     0
  0
ACAD_PROXY_OBJECT
  5
19DF1
102
{ACAD_REACTORS
330
19DE5
102
}
330
19DE5
100
AcDbZombieObject
 90
      499
 91
      510
 93
      428
310
42109C9A59DA1D195B90C409028333333333333E3BF0000000000000FB010790141107004050150841D405064090741402480A029950
1001
ACAD
1000
AcDbSavedByObjectVersion
1070
     0
  0
ACAD_PROXY_OBJECT
  5
19DF5
102
{ACAD_REACTORS
330
19DE5
102
}
330
19DE5
100
AcDbZombieObject
 90
      499
 91
      510
 93
      452
310
42D0DBDB1BDC90DA185B99D95104090240C333333333333E3BF0000000000000FB0108901411070040501508421405064090741402480A0350
1001
ACAD
1000
AcDbSavedByObjectVersion
1070
     0
  0
ACAD_PROXY_OBJECT
  5
19DEE
102
{ACAD_REACTORS
330
19DE5
102
}
330
19DE5
100
AcDbZombieObject
 90
      499
 91
      510
 93
      500
310
4290DBDB98D95C1D1D585B10940D028333333333333E3BF0000000000000FB0107902409070040501000000000000111010841D405064090740C02480A0340
1001
ACAD
1000
AcDbSavedByObjectVersion
1070
     0
  0
ACAD_PROXY_OBJECT
  5
19DF0
102
{ACAD_REACTORS
330
19DE5
102
}
330
19DE5
100
AcDbZombieObject
 90
      499
 91
      510
 93
      412
310
40D11A5B50B409028333333333333E3BF0000000000000FB010790141107004050150841D405064090741402480A02677FFFFFD0
1001
ACAD
1000
AcDbSavedByObjectVersion
1070
     0
  0
ACAD_PROXY_OBJECT
  5
1E02A
102
{ACAD_REACTORS
330
19DE5
102
}
330
19DE5
100
AcDbZombieObject
 90
      499
 91
      510
 93
      452
310
43115919D950DBDB1BDC93D999916409028333333333333E3BF0000000000000FB010790141107004050150841D405064090741402480A0350
1001
ACAD
1000
AcDbSavedByObjectVersion
1070
     0
  0
ACAD_PROXY_OBJECT
  5
19DF4
102
{ACAD_REACTORS
330
19DE5
102
}
330
19DE5
100
AcDbZombieObject
 90
      499
 91
      510
 93
      444
310
42D19858D95C185D1D195C9B90F409028333333333333E3BF0000000000000FB010790141107004050150841D405064090741402480A0350
1001
ACAD
1000
AcDbSavedByObjectVersion
1070
     0
  0
ACAD_PROXY_OBJECT
  5
19DE6
102
{ACAD_REACTORS
330
19DE5
102
}
330
19DE5
100
AcDbZombieObject
 90
      499
 91
      510
 93
      388
310
41119B185D240901404333333333333E3BF0000000000000F9010740A41107004050150841D405064090741402480A1B50
1001
ACAD
1000
AcDbSavedByObjectVersion
1070
     0
  0
ACAD_PROXY_OBJECT
  5
19DE7
102
{ACAD_REACTORS
330
19DE5
102
}
330
19DE5
100
AcDbZombieObject
 90
      499
 91
      510
 93
      476
310
43519B185D15DA5D1A115919D95CD0140901404333333333333E3BF0000000000000F9010740901411070040501600405405064090741402480A1B50
1001
ACAD
1000
AcDbSavedByObjectVersion
1070
     0
  0
ACAD_PROXY_OBJECT
  5
19DE8
102
{ACAD_REACTORS
330
19DE5
102
}
330
19DE5
100
AcDbZombieObject
 90
      499
 91
      510
 93
      412
310
41D1DBDD5C985D5910240902404333333333333E3BF0000000000000F9010740A411070040501641D405064090741402480A1B50
1001
ACAD
1000
AcDbSavedByObjectVersion
1070
     0
  0
ACAD_PROXY_OBJECT
  5
19DE9
102
{ACAD_REACTORS
330
19DE5
102
}
330
19DE5
100
AcDbZombieObject
 90
      499
 91
      510
 93
      500
310
4411DBDD5C985D5915DA5D1A115919D95CD0340902404333333333333E3BF0000000000000F9010740901411070040501600405405064090741402480A1B50
1001
ACAD
1000
AcDbSavedByObjectVersion
1070
     0
  0
ACAD_PROXY_OBJECT
  5
1F381
102
{ACAD_REACTORS
330
19DE5
102
}
330
19DE5
100
AcDbZombieObject
 90
      499
 91
      510
 93
      476
310
41921A5919195B90640502408333333333333E3BF0000000000000FB01079024090700405020000000000001110200405405064090740C02480A0340
1001
ACAD
1000
AcDbSavedByObjectVersion
1070
     0
  0
ACAD_PROXY_OBJECT
  5
1E028
102
{ACAD_REACTORS
330
19DE5
102
}
330
19DE5
100
AcDbZombieObject
 90
      499
 91
      510
 93
      428
310
42529A5D1D195C93D999914409028333333333333E3BF0000000000000FB010790141107004050150A41D405064090741402480A0350
1001
ACAD
1000
AcDbSavedByObjectVersion
1070
     0
  0
ACAD_PROXY_OBJECT
  5
19DF3
102
{ACAD_REACTORS
330
19DE5
102
}
330
19DE5
100
AcDbZombieObject
 90
      499
 91
      510
 93
      444
310
42D31A5B995C185D1D195C9B90E409028333333333333E3BF0000000000000FB010790141107004050750841D405064090741402483A0350
1001
ACAD
1000
AcDbSavedByObjectVersion
1070
     0
  0
ACAD_PROXY_OBJECT
  5
240C7
102
{ACAD_REACTORS
330
19DE5
102
}
330
19DE5
100
AcDbZombieObject
 90
      499
 91
      510
 93
      484
310
42135BD9195B1A5B99D0A409038333333333333E33F0000000000000F901074090290700405010000000000201990108421405064090741402480A1B40
1001
ACAD
1000
AcDbSavedByObjectVersion
1070
     0
  0
ACAD_PROXY_OBJECT
  5
1E029
102
{ACAD_REACTORS
330
19DE5
102
}
330
19DE5
100
AcDbZombieObject
 90
      499
 91
      510
 93
      444
310
42D3DD995C9A185B99D3D999915409028333333333333E3BF0000000000000FB010790141107004050150941D405064090741402480A0350
1001
ACAD
1000
AcDbSavedByObjectVersion
1070
     0
  0
ACAD_PROXY_OBJECT
  5
19DEF
102
{ACAD_REACTORS
330
19DE5
102
}
330
19DE5
100
AcDbZombieObject
 90
      499
 91
      510
 93
      420
310
425499585B1A5CDD1A58D08409028333333333333E3BF0000000000000FB01079019070040501508421405064090741402480A1B40
1001
ACAD
1000
AcDbSavedByObjectVersion
1070
     0
  0
ACAD_PROXY_OBJECT
  5
1F386
102
{ACAD_REACTORS
330
19DE5
102
}
330
19DE5
100
AcDbZombieObject
 90
      499
 91
      510
 93
      420
310
4194DA1859195911B40902404333333333333E3BF0000000000000F9010740A41107004050150800405405064090840C02480A0B40
1001
ACAD
1000
AcDbSavedByObjectVersion
1070
     0
  0
ACAD_PROXY_OBJECT
  5
1F385
102
{ACAD_REACTORS
330
19DE5
102
}
330
19DE5
100
AcDbZombieObject
 90
      499
 91
      510
 93
      516
310
4454DA18591959081DDA5D1A08195919D95CD1A40902404333333333333E3BF0000000000000F901074090142907004050250800405405064090740C02480A0B40
1001
ACAD
1000
AcDbSavedByObjectVersion
1070
     0
  0
ACAD_PROXY_OBJECT
  5
1F382
102
{ACAD_REACTORS
330
19DE5
102
}
330
19DE5
100
AcDbZombieObject
 90
      499
 91
      510
 93
      532
310
4394DA1859195CC81BD98811DC985E5174090240C333333333333E3BF0000000000000FB01079024090741D01000000000000111010841D405064090740C02480A0340
1001
ACAD
1000
AcDbSavedByObjectVersion
1070
     0
  0
ACAD_PROXY_OBJECT
  5
1F383
102
{ACAD_REACTORS
330
19DE5
102
}
330
19DE5
100
AcDbZombieObject
 90
      499
 91
      510
 93
      476
310
41D4DAD95D18DA1E51840502408333333333333E3BF0000000000000FB01079024090741D01000000000000111010B41D405064090741802480A0340
1001
ACAD
1000
AcDbSavedByObjectVersion
1070
     0
  0
ACAD_PROXY_OBJECT
  5
19DF2
102
{ACAD_REACTORS
330
19DE5
102
}
330
19DE5
100
AcDbZombieObject
 90
      499
 91
      510
 93
      412
310
41D51A1A58DAD95B90D409028333333333333E3BF0000000000000FB010790141107004050150C41D405064090741402480A0350
1001
ACAD
1000
AcDbSavedByObjectVersion
1070
     0
  0
ACAD_PROXY_OBJECT
  5
1F380
102
{ACAD_REACTORS
330
19DE5
102
}
330
19DE5
100
AcDbZombieObject
 90
      499
 91
      510
 93
      420
310
4255DA5C99599C985B595059028333333333333E3BF0000000000000FB0107901411070040501600405405064090740C02480A0340
1001
ACAD
1000
AcDbSavedByObjectVersion
1070
     0
  0
ACAD_PROXY_OBJECT
  5
1F384
102
{ACAD_REACTORS
330
19DE5
102
}
330
19DE5
100
AcDbZombieObject
 90
      499
 91
      510
 93
      404
310
41560B54985E51940902404000000000000E03F0000000000000FB010740501907004050150841D405064090740C02480A1B40
1001
ACAD
1000
AcDbSavedByObjectVersion
1070
     0
  0
XRECORD
  5
24406
102
{ACAD_REACTORS
330
24405
102
}
330
24405
100
AcDbXrecord
340
2D0
  0
XRECORD
  5
24407
102
{ACAD_REACTORS
330
24405
102
}
330
24405
100
AcDbXrecord
340
2CF
  0
DICTIONARYVAR
  5
240E0
102
{ACAD_REACTORS
330
37
102
}
330
37
100
DictionaryVariables
280
     0
  1
1:1
  0
DICTIONARYVAR
  5
1AC19
102
{ACAD_REACTORS
330
37
102
}
330
37
100
DictionaryVariables
280
     0
  1
Standard
  0
DICTIONARYVAR
  5
4F1
102
{ACAD_REACTORS
330
37
102
}
330
37
100
DictionaryVariables
280
     0
  1
Standard
  0
DICTIONARYVAR
  5
38
102
{ACAD_REACTORS
330
37
102
}
330
37
100
DictionaryVariables
280
     0
  1
-1
  0
DICTIONARYVAR
  5
408
102
{ACAD_REACTORS
330
37
102
}
330
37
100
DictionaryVariables
280
     0
  1
2
  0
DICTIONARYVAR
  5
1891
102
{ACAD_REACTORS
330
37
102
}
330
37
100
DictionaryVariables
280
     0
  1
1
  0
DICTIONARYVAR
  5
1AC1C
102
{ACAD_REACTORS
330
37
102
}
330
37
100
DictionaryVariables
280
     0
  1
0
  0
DICTIONARYVAR
  5
1895
102
{ACAD_REACTORS
330
37
102
}
330
37
100
DictionaryVariables
280
     0
  1
8
  0
DICTIONARYVAR
  5
1894
102
{ACAD_REACTORS
330
37
102
}
330
37
100
DictionaryVariables
280
     0
  1
1
  0
DICTIONARYVAR
  5
23AD1
102
{ACAD_REACTORS
330
37
102
}
330
37
100
DictionaryVariables
280
     0
  1
0
  0
DICTIONARYVAR
  5
23AD2
102
{ACAD_REACTORS
330
37
102
}
330
37
100
DictionaryVariables
280
     0
  1
0
  0
DICTIONARYVAR
  5
20A9B
102
{ACAD_REACTORS
330
37
102
}
330
37
100
DictionaryVariables
280
     0
  1
0
  0
DICTIONARYVAR
  5
1892
102
{ACAD_REACTORS
330
37
102
}
330
37
100
DictionaryVariables
280
     0
  1
120
  0
DICTIONARYVAR
  5
1893
102
{ACAD_REACTORS
330
37
102
}
330
37
100
DictionaryVariables
280
     0
  1
0
  0
DICTIONARYVAR
  5
409
102
{ACAD_REACTORS
330
37
102
}
330
37
100
DictionaryVariables
280
     0
  1

  0
DICTIONARYVAR
  5
1AC1B
102
{ACAD_REACTORS
330
37
102
}
330
37
100
DictionaryVariables
280
     0
  1
127
  0
DICTIONARYVAR
  5
240C6
102
{ACAD_REACTORS
330
37
102
}
330
37
100
DictionaryVariables
280
     0
  1
2
  0
DICTIONARY
  5
245A3
330
19DD5
100
AcDbDictionary
  3
ACAD_XREC_ROUNDTRIP
360
245A4
1001
ACAD
1000
TREAT_AS_HARD
1070
     1
  0
DICTIONARY
  5
245A5
330
19DCD
100
AcDbDictionary
  3
ACAD_XREC_ROUNDTRIP
360
245A6
1001
ACAD
1000
TREAT_AS_HARD
1070
     1
  0
DICTIONARY
  5
245A7
330
19DDD
100
AcDbDictionary
  3
ACAD_XREC_ROUNDTRIP
360
245A8
1001
ACAD
1000
TREAT_AS_HARD
1070
     1
  0
XRECORD
  5
245A4
102
{ACAD_REACTORS
330
245A3
102
}
330
245A3
100
AcDbXrecord
102
MATERIAL
148
0.0
149
0.0
149
0.0
 93
        0
 94
      127
282
     0
 72
     0
 77
     0
171
     0
175
     0
179
     0
273
     0
  0
XRECORD
  5
245A6
102
{ACAD_REACTORS
330
245A5
102
}
330
245A5
100
AcDbXrecord
102
MATERIAL
148
0.0
149
0.0
149
0.0
 93
        0
 94
      127
282
     0
 72
     0
 77
     0
171
     0
175
     0
179
     0
273
     0
  0
XRECORD
  5
245A8
102
{ACAD_REACTORS
330
245A7
102
}
330
245A7
100
AcDbXrecord
102
MATERIAL
148
0.0
149
0.0
149
0.0
 93
        0
 94
      127
282
     0
 72
     0
 77
     0
171
     0
175
     0
179
     0
273
     0
  0
ENDSEC
  0
EOF
