  0
SECTION
  2
HEADER
  9
$ACADVER
  1
AC1012
  9
$DWGCODEPAGE
  3
ansi_932
  9
$INSBASE
 10
0.0
 20
0.0
 30
0.0
  9
$EXTMIN
 10
395.5162416153549
 20
-745.8558643249049
 30
0.0
  9
$EXTMAX
 10
765.516241615365
 20
-523.3905319438793
 30
372.3691988491535
  9
$LIMMIN
 10
0.0
 20
0.0
  9
$LIMMAX
 10
420.0
 20
297.0
  9
$ORTHOMODE
 70
     0
  9
$REGENMODE
 70
     1
  9
$FILLMODE
 70
     1
  9
$QTEXTMODE
 70
     0
  9
$MIRRTEXT
 70
     0
  9
$DRAGMODE
 70
     2
  9
$LTSCALE
 40
0.5
  9
$OSMODE
 70
  2175
  9
$ATTMODE
 70
     1
  9
$TEXTSIZE
 40
4.0
  9
$TRACEWID
 40
1.0
  9
$TEXTSTYLE
  7
STANDARD
  9
$CLAYER
  8
1TEXT
  9
$CELTYPE
  6
BYLAYER
  9
$CECOLOR
 62
   256
  9
$CELTSCALE
 40
1.0
  9
$DELOBJ
 70
     1
  9
$DISPSILH
 70
     0
  9
$DIMSCALE
 40
1.0
  9
$DIMASZ
 40
2.0
  9
$DIMEXO
 40
0.0
  9
$DIMDLI
 40
7.0
  9
$DIMRND
 40
0.0
  9
$DIMDLE
 40
0.0
  9
$DIMEXE
 40
1.0
  9
$DIMTP
 40
0.0
  9
$DIMTM
 40
0.0
  9
$DIMTXT
 40
3.5
  9
$DIMCEN
 40
0.0
  9
$DIMTSZ
 40
0.0
  9
$DIMTOL
 70
     0
  9
$DIMLIM
 70
     0
  9
$DIMTIH
 70
     0
  9
$DIMTOH
 70
     0
  9
$DIMSE1
 70
     0
  9
$DIMSE2
 70
     0
  9
$DIMTAD
 70
     1
  9
$DIMZIN
 70
     8
  9
$DIMBLK
  1

  9
$DIMASO
 70
     1
  9
$DIMSHO
 70
     1
  9
$DIMPOST
  1
 
  9
$DIMAPOST
  1

  9
$DIMALT
 70
     0
  9
$DIMALTD
 70
     2
  9
$DIMALTF
 40
25.4
  9
$DIMLFAC
 40
1.0
  9
$DIMTOFL
 70
     1
  9
$DIMTVP
 40
0.0
  9
$DIMTIX
 70
     0
  9
$DIMSOXD
 70
     0
  9
$DIMSAH
 70
     1
  9
$DIMBLK1
  1
OPEN30
  9
$DIMBLK2
  1
OPEN30
  9
$DIMSTYLE
  2
NEWX10
  9
$DIMCLRD
 70
   256
  9
$DIMCLRE
 70
   256
  9
$DIMCLRT
 70
   201
  9
$DIMTFAC
 40
0.7
  9
$DIMGAP
 40
0.7
  9
$DIMJUST
 70
     0
  9
$DIMSD1
 70
     0
  9
$DIMSD2
 70
     0
  9
$DIMTOLJ
 70
     1
  9
$DIMTZIN
 70
     8
  9
$DIMALTZ
 70
     0
  9
$DIMALTTZ
 70
     0
  9
$DIMFIT
 70
     2
  9
$DIMUPT
 70
     0
  9
$DIMUNIT
 70
     2
  9
$DIMDEC
 70
     2
  9
$DIMTDEC
 70
     4
  9
$DIMALTU
 70
     2
  9
$DIMALTTD
 70
     2
  9
$DIMTXSTY
  7
STANDARD
  9
$DIMAUNIT
 70
     0
  9
$LUNITS
 70
     2
  9
$LUPREC
 70
     4
  9
$SKETCHINC
 40
1.0
  9
$FILLETRAD
 40
0.0
  9
$AUNITS
 70
     0
  9
$AUPREC
 70
     2
  9
$MENU
  1
acad
  9
$ELEVATION
 40
0.0
  9
$PELEVATION
 40
0.0
  9
$THICKNESS
 40
0.0
  9
$LIMCHECK
 70
     0
  9
$CHAMFERA
 40
1.0
  9
$CHAMFERB
 40
1.0
  9
$CHAMFERC
 40
20.0
  9
$CHAMFERD
 40
0.0
  9
$SKPOLY
 70
     0
  9
$TDCREATE
 40
2453033.732663484
  9
$TDUPDATE
 40
2459121.374053403
  9
$TDINDWG
 40
2.7454061227
  9
$TDUSRTIMER
 40
2.7454061227
  9
$USRTIMER
 70
     1
  9
$ANGBASE
 50
0.0
  9
$ANGDIR
 70
     0
  9
$PDMODE
 70
     0
  9
$PDSIZE
 40
0.0
  9
$PLINEWID
 40
0.0
  9
$COORDS
 70
     2
  9
$SPLFRAME
 70
     0
  9
$SPLINETYPE
 70
     6
  9
$SPLINESEGS
 70
     8
  9
$ATTDIA
 70
     0
  9
$ATTREQ
 70
     1
  9
$HANDLING
 70
     1
  9
$HANDSEED
  5
21CD2
  9
$SURFTAB1
 70
     6
  9
$SURFTAB2
 70
     6
  9
$SURFTYPE
 70
     6
  9
$SURFU
 70
     6
  9
$SURFV
 70
     6
  9
$UCSNAME
  2

  9
$UCSORG
 10
0.0
 20
0.0
 30
0.0
  9
$UCSXDIR
 10
1.0
 20
0.0
 30
0.0
  9
$UCSYDIR
 10
0.0
 20
1.0
 30
0.0
  9
$PUCSNAME
  2

  9
$PUCSORG
 10
0.0
 20
0.0
 30
0.0
  9
$PUCSXDIR
 10
1.0
 20
0.0
 30
0.0
  9
$PUCSYDIR
 10
0.0
 20
1.0
 30
0.0
  9
$USERI1
 70
     0
  9
$USERI2
 70
     0
  9
$USERI3
 70
     0
  9
$USERI4
 70
     0
  9
$USERI5
 70
     0
  9
$USERR1
 40
0.0
  9
$USERR2
 40
0.0
  9
$USERR3
 40
0.0
  9
$USERR4
 40
0.0
  9
$USERR5
 40
0.0
  9
$WORLDVIEW
 70
     1
  9
$SHADEDGE
 70
     3
  9
$SHADEDIF
 70
    70
  9
$TILEMODE
 70
     1
  9
$MAXACTVP
 70
    48
  9
$PINSBASE
 10
0.0
 20
0.0
 30
0.0
  9
$PLIMCHECK
 70
     0
  9
$PEXTMIN
 10
1.000000000000000E+20
 20
1.000000000000000E+20
 30
1.000000000000000E+20
  9
$PEXTMAX
 10
-1.000000000000000E+20
 20
-1.000000000000000E+20
 30
-1.000000000000000E+20
  9
$PLIMMIN
 10
0.0
 20
0.0
  9
$PLIMMAX
 10
420.0
 20
297.0
  9
$UNITMODE
 70
     0
  9
$VISRETAIN
 70
     1
  9
$PLINEGEN
 70
     0
  9
$PSLTSCALE
 70
     1
  9
$TREEDEPTH
 70
  3020
  9
$PICKSTYLE
 70
     1
  9
$CMLSTYLE
  2
STANDARD
  9
$CMLJUST
 70
     0
  9
$CMLSCALE
 40
20.0
  9
$SAVEIMAGES
 70
     1
  0
ENDSEC
  0
SECTION
  2
CLASSES
  0
CLASS
  1
DICTIONARYVAR
  2
AcDbDictionaryVar
  3
ObjectDBX Classes
 90
        0
280
     0
281
     0
  0
CLASS
  1
IDBUFFER
  2
AcDbIdBuffer
  3
ObjectDBX Classes
 90
    32768
280
     0
281
     0
  0
CLASS
  1
LWPOLYLINE
  2
AcDbPolyline
  3
ObjectDBX Classes
 90
    32768
280
     0
281
     1
  0
CLASS
  1
ACDBDICTIONARYWDFLT
  2
AcDbDictionaryWithDefault
  3
ObjectDBX Classes
 90
    32768
280
     0
281
     0
  0
CLASS
  1
ACDBPLACEHOLDER
  2
AcDbPlaceHolder
  3
ObjectDBX Classes
 90
        0
280
     0
281
     0
  0
CLASS
  1
LAYOUT
  2
AcDbLayout
  3
ObjectDBX Classes
 90
        0
280
     0
281
     0
  0
CLASS
  1
TABLESTYLE
  2
AcDbTableStyle
  3
ObjectDBX Classes
 90
     4095
280
     0
281
     0
  0
CLASS
  1
SORTENTSTABLE
  2
AcDbSortentsTable
  3
ObjectDBX Classes
 90
    32768
280
     0
281
     0
  0
CLASS
  1
DIMASSOC
  2
AcDbDimAssoc
  3
"AcDbDimAssoc|Product Desc:     AcDim ARX App For Dimension|Company:          Autodesk, Inc.|WEB Address:      www.autodesk.com"
 90
        0
280
     0
281
     0
  0
CLASS
  1
MATERIAL
  2
AcDbMaterial
  3
ObjectDBX Classes
 90
     1153
280
     0
281
     0
  0
CLASS
  1
VISUALSTYLE
  2
AcDbVisualStyle
  3
ObjectDBX Classes
 90
     4095
280
     0
281
     0
  0
CLASS
  1
SCALE
  2
AcDbScale
  3
ObjectDBX Classes
 90
     1153
280
     0
281
     0
  0
CLASS
  1
MLEADERSTYLE
  2
AcDbMLeaderStyle
  3
ACDB_MLEADERSTYLE_CLASS
 90
     4095
280
     0
281
     0
  0
CLASS
  1
CELLSTYLEMAP
  2
AcDbCellStyleMap
  3
ObjectDBX Classes
 90
     1152
280
     0
281
     0
  0
CLASS
  1
EXACXREFPANELOBJECT
  2
ExAcXREFPanelObject
  3
EXAC_ESW
 90
     1025
280
     1
281
     0
  0
CLASS
  1
NPOCOLLECTION
  2
AcDbImpNonPersistentObjectsCollection
  3
ObjectDBX Classes
 90
     1153
280
     1
281
     0
  0
CLASS
  1
SUN
  2
AcDbSun
  3
SCENEOE
 90
     1153
280
     0
281
     0
  0
CLASS
  1
MULTILEADER
  2
AcDbMLeader
  3
ACDB_MLEADER_CLASS
 90
     1025
280
     0
281
     1
  0
CLASS
  1
ACDB_MLEADEROBJECTCONTEXTDATA_CLASS
  2
AcDbMLeaderObjectContextData
  3
ObjectDBX Classes
 90
     1153
280
     0
281
     0
  0
CLASS
  1
XRECORD
  2
AcDbXrecord
  3
ObjectDBX Classes
 90
    32768
280
     0
281
     0
  0
CLASS
  1
HATCH
  2
AcDbHatch
  3
ObjectDBX Classes
 90
    32768
280
     0
281
     1
  0
ENDSEC
  0
SECTION
  2
TABLES
  0
TABLE
  2
VPORT
  5
8
330
0
100
AcDbSymbolTable
 70
     1
  0
VPORT
  5
19DC2
330
8
100
AcDbSymbolTableRecord
100
AcDbViewportTableRecord
  2
*ACTIVE
 70
     0
 10
0.0
 20
0.0
 11
1.0
 21
1.0
 12
580.51624161536
 22
-634.6231981343922
 13
0.0
 23
0.0
 14
10.0
 24
10.0
 15
10.0
 25
10.0
 16
0.0
 26
0.0
 36
1.0
 17
0.0
 27
0.0
 37
0.0
 40
238.857514766996
 41
1.807328605200946
 42
50.0
 43
0.0
 44
0.0
 50
0.0
 51
0.0
 71
    16
 72
   100
 73
     1
 74
     1
 75
     0
 76
     0
 77
     0
 78
     0
  0
ENDTAB
  0
TABLE
  2
LTYPE
  5
5
330
0
100
AcDbSymbolTable
 70
     3
  0
LTYPE
  5
12
330
5
100
AcDbSymbolTableRecord
100
AcDbLinetypeTableRecord
  2
BYBLOCK
 70
     0
  3

 72
    65
 73
     0
 40
0.0
  0
LTYPE
  5
13
330
5
100
AcDbSymbolTableRecord
100
AcDbLinetypeTableRecord
  2
BYLAYER
 70
     0
  3

 72
    65
 73
     0
 40
0.0
  0
LTYPE
  5
14
330
5
100
AcDbSymbolTableRecord
100
AcDbLinetypeTableRecord
  2
CONTINUOUS
 70
     0
  3
Solid line
 72
    65
 73
     0
 40
0.0
  0
LTYPE
  5
26
330
5
100
AcDbSymbolTableRecord
100
AcDbLinetypeTableRecord
  2
CENTER2
 70
     0
  3
Center (.5x) ___ _ ___ _ ___ _ ___ _ ___ _ ___
 72
    65
 73
     4
 40
28.575
 49
19.05
 74
     0
 49
-3.175
 74
     0
 49
3.175
 74
     0
 49
-3.175
 74
     0
  0
LTYPE
  5
100
330
5
100
AcDbSymbolTableRecord
100
AcDbLinetypeTableRecord
  2
PHANTOM2
 70
     0
  3
Phantom (0.5x) ___ _ _ ___ _ _ ___ _ _ ___ _ _
 72
    65
 73
     6
 40
31.75
 49
15.875
 74
     0
 49
-3.175
 74
     0
 49
3.175
 74
     0
 49
-3.175
 74
     0
 49
3.175
 74
     0
 49
-3.175
 74
     0
  0
ENDTAB
  0
TABLE
  2
LAYER
  5
2
102
{ACAD_XDICTIONARY
360
18FE8
102
}
330
0
100
AcDbSymbolTable
 70
     7
  0
LAYER
  5
E
102
{ACAD_XDICTIONARY
360
1A20A
102
}
330
2
100
AcDbSymbolTableRecord
100
AcDbLayerTableRecord
  2
0
 70
     0
 62
     7
  6
CONTINUOUS
  0
LAYER
  5
29
102
{ACAD_XDICTIONARY
360
1A20C
102
}
330
2
100
AcDbSymbolTableRecord
100
AcDbLayerTableRecord
  2
1CENTER
 70
     0
 62
     7
  6
CENTER2
  0
LAYER
  5
31
102
{ACAD_XDICTIONARY
360
1A20E
102
}
330
2
100
AcDbSymbolTableRecord
100
AcDbLayerTableRecord
  2
1TEXT
 70
     0
 62
     7
  6
CONTINUOUS
  0
LAYER
  5
101
102
{ACAD_XDICTIONARY
360
1A218
102
}
330
2
100
AcDbSymbolTableRecord
100
AcDbLayerTableRecord
  2
1DIM
 70
     0
 62
     7
  6
CONTINUOUS
  0
LAYER
  5
103
102
{ACAD_XDICTIONARY
360
1A21C
102
}
330
2
100
AcDbSymbolTableRecord
100
AcDbLayerTableRecord
  2
1PHANTOM
 70
     0
 62
     7
  6
PHANTOM2
  0
LAYER
  5
25F
102
{ACAD_XDICTIONARY
360
1A220
102
}
330
2
100
AcDbSymbolTableRecord
100
AcDbLayerTableRecord
  2
01
 70
     0
 62
     1
  6
CONTINUOUS
  0
LAYER
  5
26D
102
{ACAD_XDICTIONARY
360
1A23C
102
}
330
2
100
AcDbSymbolTableRecord
100
AcDbLayerTableRecord
  2
1HATCH
 70
     0
 62
     7
  6
CONTINUOUS
  0
ENDTAB
  0
TABLE
  2
STYLE
  5
3
330
0
100
AcDbSymbolTable
 70
     1
  0
STYLE
  5
F
330
3
100
AcDbSymbolTableRecord
100
AcDbTextStyleTableRecord
  2
STANDARD
 70
     0
 40
0.0
 41
1.0
 50
0.0
 71
     0
 42
4.0
  3
txt.shx
  4
extfont.shx
  0
ENDTAB
  0
TABLE
  2
VIEW
  5
6
330
0
100
AcDbSymbolTable
 70
     0
  0
ENDTAB
  0
TABLE
  2
UCS
  5
7
330
0
100
AcDbSymbolTable
 70
     0
  0
ENDTAB
  0
TABLE
  2
APPID
  5
9
330
0
100
AcDbSymbolTable
 70
    17
  0
APPID
  5
10
330
9
100
AcDbSymbolTableRecord
100
AcDbRegAppTableRecord
  2
ACAD
 70
     0
  0
APPID
  5
21
330
9
100
AcDbSymbolTableRecord
100
AcDbRegAppTableRecord
  2
DRAWINGVARIABLESXDATA
 70
     0
  0
APPID
  5
64
330
9
100
AcDbSymbolTableRecord
100
AcDbRegAppTableRecord
  2
CONTENTTABDATA
 70
     0
  0
APPID
  5
65
330
9
100
AcDbSymbolTableRecord
100
AcDbRegAppTableRecord
  2
CONTENTCURRENTTAB
 70
     0
  0
APPID
  5
66
330
9
100
AcDbSymbolTableRecord
100
AcDbRegAppTableRecord
  2
CONTENTBLOCKDESCRIPTION
 70
     0
  0
APPID
  5
67
330
9
100
AcDbSymbolTableRecord
100
AcDbRegAppTableRecord
  2
CONTENTBLOCKICON
 70
     0
  0
APPID
  5
68
330
9
100
AcDbSymbolTableRecord
100
AcDbRegAppTableRecord
  2
CONTENTLONGBLOCKNAME
 70
     0
  0
APPID
  5
5A9
330
9
100
AcDbSymbolTableRecord
100
AcDbRegAppTableRecord
  2
ACAD_PSEXT
 70
     0
  0
APPID
  5
18AC
330
9
100
AcDbSymbolTableRecord
100
AcDbRegAppTableRecord
  2
ACAD_DSTYLE_DIMTEXT_FILL
 70
     0
  0
APPID
  5
19E1A
330
9
100
AcDbSymbolTableRecord
100
AcDbRegAppTableRecord
  2
ACAD_MLEADERVER
 70
     0
  0
APPID
  5
1A2FA
330
9
100
AcDbSymbolTableRecord
100
AcDbRegAppTableRecord
  2
ACAD_DSTYLE_DIMRADIAL_EXTE
 70
     0
  0
APPID
  5
1DBC1
330
9
100
AcDbSymbolTableRecord
100
AcDbRegAppTableRecord
  2
ACADANNOTATIVE
 70
     0
  0
APPID
  5
1E991
330
9
100
AcDbSymbolTableRecord
100
AcDbRegAppTableRecord
  2
ACAD_EXEMPT_FROM_CAD_STAND
 70
     0
  0
APPID
  5
1FE7A
330
9
100
AcDbSymbolTableRecord
100
AcDbRegAppTableRecord
  2
ACDBBLOCKREPETAG
 70
     0
  0
APPID
  5
20672
330
9
100
AcDbSymbolTableRecord
100
AcDbRegAppTableRecord
  2
ACAD_OBJECT_CHANGE_GUID
 70
     0
  0
APPID
  5
206F2
330
9
100
AcDbSymbolTableRecord
100
AcDbRegAppTableRecord
  2
ACLAYERTOOLS
 70
     0
  0
APPID
  5
206F3
330
9
100
AcDbSymbolTableRecord
100
AcDbRegAppTableRecord
  2
ACAD_NAV_VCDISPLAY
 70
     0
  0
ENDTAB
  0
TABLE
  2
DIMSTYLE
  5
A
330
0
100
AcDbSymbolTable
 70
     1
  0
DIMSTYLE
105
48
330
A
100
AcDbSymbolTableRecord
100
AcDbDimStyleTableRecord
  2
NEWX10
 70
     0
  3
 
  4

  5

  6
OPEN30
  7
OPEN30
 40
1.0
 41
2.0
 42
0.0
 43
7.0
 44
1.0
 45
0.0
 46
0.0
 47
0.0
 48
0.0
140
3.5
141
0.0
142
0.0
143
25.4
144
1.0
145
0.0
146
0.7
147
0.7
 71
     0
 72
     0
 73
     0
 74
     0
 75
     0
 76
     0
 77
     1
 78
     8
170
     0
171
     2
172
     1
173
     1
174
     0
175
     0
176
   256
177
   256
178
   201
179
     2
270
     2
271
     2
272
     4
273
     2
274
     2
340
F
275
     0
280
     0
281
     0
282
     0
283
     1
284
     8
285
     0
286
     0
287
     2
288
     0
  0
ENDTAB
  0
TABLE
  2
BLOCK_RECORD
  5
1
330
0
100
AcDbSymbolTable
 70
     9
  0
BLOCK_RECORD
  5
18
102
{ACAD_XDICTIONARY
360
6E9
102
}
330
1
100
AcDbSymbolTableRecord
100
AcDbBlockTableRecord
  2
*MODEL_SPACE
  0
BLOCK_RECORD
  5
15
102
{ACAD_XDICTIONARY
360
59B
102
}
330
1
100
AcDbSymbolTableRecord
100
AcDbBlockTableRecord
  2
*PAPER_SPACE
  0
BLOCK_RECORD
  5
42
330
1
100
AcDbSymbolTableRecord
100
AcDbBlockTableRecord
  2
_OPEN30
  0
BLOCK_RECORD
  5
1FEC9
330
1
100
AcDbSymbolTableRecord
100
AcDbBlockTableRecord
  2
A3WAKUKAWAJUN2017_HYOUDAI_
  0
BLOCK_RECORD
  5
206F9
102
{ACAD_XDICTIONARY
360
206FA
102
}
330
1
100
AcDbSymbolTableRecord
100
AcDbBlockTableRecord
  2
NOCIRCLE
1001
ACADANNOTATIVE
1000
AnnotativeData
1002
{
1070
     1
1070
     0
1002
}
  0
BLOCK_RECORD
  5
21B32
330
1
100
AcDbSymbolTableRecord
100
AcDbBlockTableRecord
  2
*X51
  0
BLOCK_RECORD
  5
21B80
330
1
100
AcDbSymbolTableRecord
100
AcDbBlockTableRecord
  2
*X52
  0
BLOCK_RECORD
  5
21BD2
330
1
100
AcDbSymbolTableRecord
100
AcDbBlockTableRecord
  2
*X53
  0
BLOCK_RECORD
  5
21C23
330
1
100
AcDbSymbolTableRecord
100
AcDbBlockTableRecord
  2
*X54
  0
BLOCK_RECORD
  5
21C60
330
1
100
AcDbSymbolTableRecord
100
AcDbBlockTableRecord
  2
*X55
  0
BLOCK_RECORD
  5
21CA0
330
1
100
AcDbSymbolTableRecord
100
AcDbBlockTableRecord
  2
*X56
  0
ENDTAB
  0
ENDSEC
  0
SECTION
  2
BLOCKS
  0
BLOCK
  5
19
330
18
100
AcDbEntity
  8
0
100
AcDbBlockBegin
  2
*MODEL_SPACE
 70
     0
 10
0.0
 20
0.0
 30
0.0
  3
*MODEL_SPACE
  1

  0
ENDBLK
  5
1A
330
18
100
AcDbEntity
  8
0
100
AcDbBlockEnd
  0
BLOCK
  5
16
330
15
100
AcDbEntity
 67
     1
  8
0
100
AcDbBlockBegin
  2
*PAPER_SPACE
 70
     0
 10
0.0
 20
0.0
 30
0.0
  3
*PAPER_SPACE
  1

  0
ENDBLK
  5
17
330
15
100
AcDbEntity
 67
     1
  8
0
100
AcDbBlockEnd
  0
BLOCK
  5
43
330
42
100
AcDbEntity
  8
0
100
AcDbBlockBegin
  2
_OPEN30
 70
     0
 10
0.0
 20
0.0
 30
0.0
  3
_OPEN30
  1

  0
LINE
  5
44
330
42
100
AcDbEntity
  8
0
  6
BYBLOCK
 62
     0
100
AcDbLine
 10
-1.0
 20
0.26794919
 30
0.0
 11
0.0
 21
0.0
 31
0.0
  0
LINE
  5
45
330
42
100
AcDbEntity
  8
0
  6
BYBLOCK
 62
     0
100
AcDbLine
 10
0.0
 20
0.0
 30
0.0
 11
-1.0
 21
-0.26794919
 31
0.0
  0
LINE
  5
46
330
42
100
AcDbEntity
  8
0
  6
BYBLOCK
 62
     0
100
AcDbLine
 10
0.0
 20
0.0
 30
0.0
 11
-1.0
 21
0.0
 31
0.0
  0
ENDBLK
  5
47
330
42
100
AcDbEntity
  8
0
100
AcDbBlockEnd
  0
BLOCK
  5
205D5
330
1FEC9
100
AcDbEntity
  8
0
100
AcDbBlockBegin
  2
A3WAKUKAWAJUN2017_HYOUDAI_
 70
     0
 10
0.0
 20
0.0
 30
0.0
  3
A3WAKUKAWAJUN2017_HYOUDAI_
  1

  0
LINE
  5
1FECB
330
1FEC9
100
AcDbEntity
  8
0
100
AcDbLine
 10
13.26299999998673
 20
-0.0001000000000317
 30
0.0
 11
9.236999999990758
 21
8.999899999990987
 31
0.0
1001
ACAD
1000
ASC_BOUNDS
1002
{
1070
    19
1005
1FF0C
1002
}
  0
LINE
  5
1FECC
330
1FEC9
100
AcDbEntity
  8
0
100
AcDbLine
 10
5.657999999994331
 20
0.9999999999989768
 30
0.0
 11
9.236999999990758
 21
8.999999999991019
 31
0.0
1001
ACAD
1000
ASC_BOUNDS
1002
{
1070
    19
1005
1FF0C
1002
}
  0
LINE
  5
1FECD
330
1FEC9
100
AcDbEntity
  8
0
100
AcDbLine
 10
18.59199999998134
 20
-0.2368999999997641
 30
0.0
 11
16.46099999998353
 21
5.432899999994561
 31
0.0
1001
ACAD
1000
ASC_BOUNDS
1002
{
1070
    19
1005
1FF0D
1002
}
  0
LINE
  5
1FECE
330
1FEC9
100
AcDbEntity
  8
0
100
AcDbLine
 10
18.59199999998134
 20
-0.2368999999997641
 30
0.0
 11
22.38199999997767
 21
8.763099999991255
 31
0.0
1001
ACAD
1000
ASC_BOUNDS
1002
{
1070
    19
1005
1FF0D
1002
}
  0
LINE
  5
1FECF
330
1FEC9
100
AcDbEntity
  8
0
100
AcDbLine
 10
14.32899999998563
 20
-0.2368999999997641
 30
0.0
 11
16.46099999998353
 21
5.432899999994561
 31
0.0
1001
ACAD
1000
ASC_BOUNDS
1002
{
1070
    19
1005
1FF0D
1002
}
  0
LINE
  5
1FED0
330
1FEC9
100
AcDbEntity
  8
0
100
AcDbLine
 10
14.32899999998563
 20
-0.2368999999997641
 30
0.0
 11
10.53899999998941
 21
8.763099999991255
 31
0.0
1001
ACAD
1000
ASC_BOUNDS
1002
{
1070
    19
1005
1FF0D
1002
}
  0
LINE
  5
1FED1
330
1FEC9
100
AcDbEntity
  8
0
100
AcDbLine
 10
19.53899999998043
 20
-0.0001000000000317
 30
0.0
 11
23.56599999997638
 21
8.999899999990987
 31
0.0
1001
ACAD
1000
ASC_BOUNDS
1002
{
1070
    19
1005
1FF0E
1002
}
  0
LINE
  5
1FED2
330
1FEC9
100
AcDbEntity
  8
0
100
AcDbLine
 10
26.97358892824991
 20
1.383099999991202
 30
0.0
 11
23.56599999997638
 21
8.999899999990987
 31
0.0
1001
ACAD
1000
ASC_BOUNDS
1002
{
1070
    19
1005
1FF0E
1002
}
  0
LINE
  5
1FED3
330
1FEC9
100
AcDbEntity
  8
0
100
AcDbLine
 10
5.657999999994331
 20
0.9999999999989768
 30
0.0
 11
3.181999999996833
 21
4.668599999995308
 31
0.0
1001
ACAD
1000
ASC_BOUNDS
1002
{
1070
    19
1005
1FF0C
1002
}
  0
LINE
  5
1FED4
330
1FEC9
100
AcDbEntity
  8
0
100
AcDbLine
 10
4.617999999995391
 20
-0.0001000000000317
 30
0.0
 11
1.420999999998571
 21
4.736799999995242
 31
0.0
1001
ACAD
1000
ASC_BOUNDS
1002
{
1070
    19
1005
1FF0C
1002
}
  0
LINE
  5
1FED5
330
1FEC9
100
AcDbEntity
  8
0
100
AcDbLine
 10
1.420999999998571
 20
8.763099999991255
 30
0.0
 11
1.420999999998571
 21
0.0
 31
0.0
1001
ACAD
1000
ASC_BOUNDS
1002
{
1070
    19
1005
1FF11
1002
}
  0
LINE
  5
1FED6
330
1FEC9
100
AcDbEntity
  8
0
100
AcDbLine
 10
0.0
 20
8.763099999991255
 30
0.0
 11
0.0
 21
0.0
 31
0.0
1001
ACAD
1000
ASC_BOUNDS
1002
{
1070
    19
1005
1FF11
1002
}
  0
LINE
  5
1FED7
330
1FEC9
100
AcDbEntity
  8
0
100
AcDbLine
 10
6.766999999993232
 20
-0.0001000000000317
 30
0.0
 11
7.826999999992154
 21
2.368399999997621
 31
0.0
1001
ACAD
1000
ASC_BOUNDS
1002
{
1070
    19
1005
1FF0C
1002
}
  0
LINE
  5
1FED8
330
1FEC9
100
AcDbEntity
  8
0
100
AcDbLine
 10
0.0
 20
0.0
 30
0.0
 11
1.420999999998571
 21
0.0
 31
0.0
1001
ACAD
1000
ASC_BOUNDS
1002
{
1070
    19
1005
1FF11
1002
}
  0
LINE
  5
1FED9
330
1FEC9
100
AcDbEntity
  8
0
100
AcDbLine
 10
4.617999999995391
 20
0.0
 30
0.0
 11
6.766999999993232
 21
0.0
 31
0.0
1001
ACAD
1000
ASC_BOUNDS
1002
{
1070
    19
1005
1FF0C
1002
}
  0
LINE
  5
1FEDA
330
1FEC9
100
AcDbEntity
  8
0
100
AcDbLine
 10
11.70599999998831
 20
-0.0001000000000317
 30
0.0
 11
10.64699999998936
 21
2.368399999997621
 31
0.0
1001
ACAD
1000
ASC_BOUNDS
1002
{
1070
    19
1005
1FF0C
1002
}
  0
LINE
  5
1FEDB
330
1FEC9
100
AcDbEntity
  8
0
100
AcDbLine
 10
7.826999999992154
 20
2.368399999997621
 30
0.0
 11
10.64699999998936
 21
2.368399999997621
 31
0.0
1001
ACAD
1000
ASC_BOUNDS
1002
{
1070
    19
1005
1FF0C
1002
}
  0
LINE
  5
1FEDC
330
1FEC9
100
AcDbEntity
  8
0
100
AcDbLine
 10
11.70599999998831
 20
0.0
 30
0.0
 11
13.26299999998673
 21
0.0
 31
0.0
1001
ACAD
1000
ASC_BOUNDS
1002
{
1070
    19
1005
1FF0C
1002
}
  0
LINE
  5
1FEDD
330
1FEC9
100
AcDbEntity
  8
0
100
AcDbLine
 10
22.15599999997789
 20
2.368399999997621
 30
0.0
 11
24.97599999997499
 21
2.368399999997621
 31
0.0
1001
ACAD
1000
ASC_BOUNDS
1002
{
1070
    19
1005
1FF0E
1002
}
  0
LINE
  5
1FEDE
330
1FEC9
100
AcDbEntity
  8
0
100
AcDbLine
 10
19.53899999998043
 20
0.0
 30
0.0
 11
21.09599999997886
 21
0.0
 31
0.0
1001
ACAD
1000
ASC_BOUNDS
1002
{
1070
    19
1005
1FF0E
1002
}
  0
LINE
  5
1FEDF
330
1FEC9
100
AcDbEntity
  8
0
100
AcDbLine
 10
21.09599999997886
 20
-0.0001000000000317
 30
0.0
 11
22.15599999997789
 21
2.368399999997621
 31
0.0
1001
ACAD
1000
ASC_BOUNDS
1002
{
1070
    19
1005
1FF0E
1002
}
  0
LINE
  5
1FEE0
330
1FEC9
100
AcDbEntity
  8
0
100
AcDbLine
 10
26.02015566812236
 20
0.0330999999912365
 30
0.0
 11
24.97599999997499
 21
2.368399999997621
 31
0.0
1001
ACAD
1000
ASC_BOUNDS
1002
{
1070
    19
1005
1FF0E
1002
}
  0
LINE
  5
1FEE1
330
1FEC9
100
AcDbEntity
  8
0
100
AcDbLine
 10
14.32399999998563
 20
3.315799999996671
 30
0.0
 11
16.46099999998353
 21
8.999899999990987
 31
0.0
1001
ACAD
1000
ASC_BOUNDS
1002
{
1070
    19
1005
1FF0D
1002
}
  0
LINE
  5
1FEE2
330
1FEC9
100
AcDbEntity
  8
0
100
AcDbLine
 10
6.432999999993513
 20
8.763099999991255
 30
0.0
 11
3.181999999996833
 21
4.668599999995308
 31
0.0
1001
ACAD
1000
ASC_BOUNDS
1002
{
1070
    19
1005
1FF0C
1002
}
  0
LINE
  5
1FEE3
330
1FEC9
100
AcDbEntity
  8
0
100
AcDbLine
 10
4.617999999995391
 20
8.763099999991255
 30
0.0
 11
1.420999999998571
 21
4.736799999995242
 31
0.0
1001
ACAD
1000
ASC_BOUNDS
1002
{
1070
    19
1005
1FF0C
1002
}
  0
LINE
  5
1FEE4
330
1FEC9
100
AcDbEntity
  8
0
100
AcDbLine
 10
0.0
 20
8.763099999991255
 30
0.0
 11
1.420999999998571
 21
8.763099999991255
 31
0.0
1001
ACAD
1000
ASC_BOUNDS
1002
{
1070
    19
1005
1FF11
1002
}
  0
LINE
  5
1FEE5
330
1FEC9
100
AcDbEntity
  8
0
100
AcDbLine
 10
4.617999999995391
 20
8.763099999991255
 30
0.0
 11
6.432999999993513
 21
8.763099999991255
 31
0.0
1001
ACAD
1000
ASC_BOUNDS
1002
{
1070
    19
1005
1FF0C
1002
}
  0
LINE
  5
1FEE6
330
1FEC9
100
AcDbEntity
  8
0
100
AcDbLine
 10
14.32399999998563
 20
3.315799999996671
 30
0.0
 11
12.02999999998792
 21
8.763099999991255
 31
0.0
1001
ACAD
1000
ASC_BOUNDS
1002
{
1070
    19
1005
1FF0D
1002
}
  0
LINE
  5
1FEE7
330
1FEC9
100
AcDbEntity
  8
0
100
AcDbLine
 10
10.06399999998996
 20
3.670999999996297
 30
0.0
 11
9.236999999990758
 21
5.5200999999945
 31
0.0
1001
ACAD
1000
ASC_BOUNDS
1002
{
1070
    19
1005
1FF0C
1002
}
  0
LINE
  5
1FEE8
330
1FEC9
100
AcDbEntity
  8
0
100
AcDbLine
 10
8.409999999991555
 20
3.670999999996297
 30
0.0
 11
9.236999999990758
 21
5.5200999999945
 31
0.0
1001
ACAD
1000
ASC_BOUNDS
1002
{
1070
    19
1005
1FF0C
1002
}
  0
LINE
  5
1FEE9
330
1FEC9
100
AcDbEntity
  8
0
100
AcDbLine
 10
8.409999999991555
 20
3.670999999996297
 30
0.0
 11
10.06399999998996
 21
3.670999999996297
 31
0.0
1001
ACAD
1000
ASC_BOUNDS
1002
{
1070
    19
1005
1FF0C
1002
}
  0
LINE
  5
1FEEA
330
1FEC9
100
AcDbEntity
  8
0
100
AcDbLine
 10
10.53899999998941
 20
8.763099999991255
 30
0.0
 11
12.02999999998792
 21
8.763099999991255
 31
0.0
1001
ACAD
1000
ASC_BOUNDS
1002
{
1070
    19
1005
1FF0D
1002
}
  0
LINE
  5
1FEEB
330
1FEC9
100
AcDbEntity
  8
0
100
AcDbLine
 10
22.7389999999773
 20
3.670999999996297
 30
0.0
 11
23.56599999997638
 21
5.5200999999945
 31
0.0
1001
ACAD
1000
ASC_BOUNDS
1002
{
1070
    19
1005
1FF0E
1002
}
  0
LINE
  5
1FEEC
330
1FEC9
100
AcDbEntity
  8
0
100
AcDbLine
 10
22.7389999999773
 20
3.670999999996297
 30
0.0
 11
24.39299999997559
 21
3.670999999996297
 31
0.0
1001
ACAD
1000
ASC_BOUNDS
1002
{
1070
    19
1005
1FF0E
1002
}
  0
LINE
  5
1FEED
330
1FEC9
100
AcDbEntity
  8
0
100
AcDbLine
 10
18.59799999998143
 20
3.315799999996671
 30
0.0
 11
20.89099999997916
 21
8.763099999991255
 31
0.0
1001
ACAD
1000
ASC_BOUNDS
1002
{
1070
    19
1005
1FF0D
1002
}
  0
LINE
  5
1FEEE
330
1FEC9
100
AcDbEntity
  8
0
100
AcDbLine
 10
18.59799999998143
 20
3.315799999996671
 30
0.0
 11
16.46099999998353
 21
8.999899999990987
 31
0.0
1001
ACAD
1000
ASC_BOUNDS
1002
{
1070
    19
1005
1FF0D
1002
}
  0
LINE
  5
1FEEF
330
1FEC9
100
AcDbEntity
  8
0
100
AcDbLine
 10
20.89099999997916
 20
8.763099999991255
 30
0.0
 11
22.38199999997767
 21
8.763099999991255
 31
0.0
1001
ACAD
1000
ASC_BOUNDS
1002
{
1070
    19
1005
1FF0D
1002
}
  0
LINE
  5
1FEF0
330
1FEC9
100
AcDbEntity
  8
0
100
AcDbLine
 10
24.39299999997559
 20
3.670999999996297
 30
0.0
 11
23.56599999997638
 21
5.5200999999945
 31
0.0
1001
ACAD
1000
ASC_BOUNDS
1002
{
1070
    19
1005
1FF0E
1002
}
  0
LINE
  5
1FEF1
330
1FEC9
100
AcDbEntity
  8
0
100
AcDbLine
 10
44.99999999995498
 20
-0.2368999999997641
 30
0.0
 11
40.02599999995994
 21
5.341799999994635
 31
0.0
1001
ACAD
1000
ASC_BOUNDS
1002
{
1070
    19
1005
1FF10
1002
}
  0
LINE
  5
1FEF2
330
1FEC9
100
AcDbEntity
  8
0
100
AcDbLine
 10
40.02599999995994
 20
5.341799999994635
 30
0.0
 11
40.02599999995994
 21
0.0
 31
0.0
1001
ACAD
1000
ASC_BOUNDS
1002
{
1070
    19
1005
1FF10
1002
}
  0
LINE
  5
1FEF3
330
1FEC9
100
AcDbEntity
  8
0
100
AcDbLine
 10
38.60499999996136
 20
8.999999999991019
 30
0.0
 11
38.60499999996136
 21
0.0
 31
0.0
1001
ACAD
1000
ASC_BOUNDS
1002
{
1070
    19
1005
1FF10
1002
}
  0
LINE
  5
1FEF4
330
1FEC9
100
AcDbEntity
  8
0
100
AcDbLine
 10
44.99999999995498
 20
8.763099999991255
 30
0.0
 11
44.99999999995498
 21
-0.2368999999997641
 31
0.0
1001
ACAD
1000
ASC_BOUNDS
1002
{
1070
    19
1005
1FF10
1002
}
  0
LINE
  5
1FEF5
330
1FEC9
100
AcDbEntity
  8
0
100
AcDbLine
 10
38.60499999996136
 20
0.0
 30
0.0
 11
40.02599999995994
 21
0.0
 31
0.0
1001
ACAD
1000
ASC_BOUNDS
1002
{
1070
    19
1005
1FF10
1002
}
  0
LINE
  5
1FEF6
330
1FEC9
100
AcDbEntity
  8
0
100
AcDbLine
 10
43.57899999995641
 20
3.421199999996588
 30
0.0
 11
38.60499999996136
 21
8.999899999990987
 31
0.0
1001
ACAD
1000
ASC_BOUNDS
1002
{
1070
    19
1005
1FF10
1002
}
  0
LINE
  5
1FEF7
330
1FEC9
100
AcDbEntity
  8
0
100
AcDbLine
 10
43.57899999995641
 20
8.763099999991255
 30
0.0
 11
43.57899999995641
 21
3.421199999996588
 31
0.0
1001
ACAD
1000
ASC_BOUNDS
1002
{
1070
    19
1005
1FF10
1002
}
  0
LINE
  5
1FEF8
330
1FEC9
100
AcDbEntity
  8
0
100
AcDbLine
 10
43.57899999995641
 20
8.763099999991255
 30
0.0
 11
44.99999999995498
 21
8.763099999991255
 31
0.0
1001
ACAD
1000
ASC_BOUNDS
1002
{
1070
    19
1005
1FF10
1002
}
  0
LINE
  5
1FEF9
330
1FEC9
100
AcDbEntity
  8
0
100
AcDbLine
 10
37.67199999996831
 20
8.763099999991255
 30
0.0
 11
36.23199999996837
 21
8.763099999991255
 31
0.0
  0
LINE
  5
1FEFA
330
1FEC9
100
AcDbEntity
  8
0
100
AcDbLine
 10
31.64199999996833
 20
8.763099999991255
 30
0.0
 11
31.64199999996833
 21
2.481619422925121
 31
0.0
  0
LINE
  5
1FEFB
330
1FEC9
100
AcDbEntity
  8
0
100
AcDbLine
 10
37.67199999996831
 20
8.763099999991255
 30
0.0
 11
37.67199999996831
 21
2.481619422925121
 31
0.0
  0
LINE
  5
1FEFC
330
1FEC9
100
AcDbEntity
  8
0
100
AcDbLine
 10
36.23199999996837
 20
8.763099999991255
 30
0.0
 11
36.23199999996837
 21
2.481619422925064
 31
0.0
  0
LINE
  5
1FEFD
330
1FEC9
100
AcDbEntity
  8
0
100
AcDbLine
 10
33.08199999996839
 20
8.763099999991255
 30
0.0
 11
33.08199999996839
 21
2.481619422925121
 31
0.0
  0
ARC
  5
1FEFE
330
1FEC9
100
AcDbEntity
  8
0
100
AcDbCircle
 10
34.65699999996832
 20
3.183099999991214
 30
0.0
 40
3.420000000000007
100
AcDbArc
 50
240.0000000000255
 51
299.9999999999766
  0
ARC
  5
1FEFF
330
1FEC9
100
AcDbEntity
  8
0
100
AcDbCircle
 10
34.65699999996832
 20
3.183099999991214
 30
0.0
 40
1.97999999999999
100
AcDbArc
 50
240.000000000026
 51
299.9999999999703
  0
LINE
  5
1FF00
330
1FEC9
100
AcDbEntity
  8
0
100
AcDbLine
 10
33.08199999996828
 20
8.763099999991255
 30
0.0
 11
31.64199999996833
 21
8.763099999991255
 31
0.0
  0
ARC
  5
1FF01
330
1FEC9
100
AcDbEntity
  8
0
100
AcDbCircle
 10
35.06199999996829
 20
2.481619422925064
 30
0.0
 40
1.17
100
AcDbArc
 50
299.9999999999699
 51
0.0
  0
ARC
  5
1FF02
330
1FEC9
100
AcDbEntity
  8
0
100
AcDbCircle
 10
34.25199999996835
 20
2.481619422925121
 30
0.0
 40
1.17
100
AcDbArc
 50
180.0
 51
240.0000000000238
  0
ARC
  5
1FF03
330
1FEC9
100
AcDbEntity
  8
0
100
AcDbCircle
 10
35.06199999996841
 20
2.481619422925121
 30
0.0
 40
2.61
100
AcDbArc
 50
299.9999999999756
 51
0.0
  0
ARC
  5
1FF04
330
1FEC9
100
AcDbEntity
  8
0
100
AcDbCircle
 10
34.25199999996835
 20
2.481619422925121
 30
0.0
 40
2.61
100
AcDbArc
 50
180.0
 51
240.0000000000244
  0
LINE
  5
1FF05
330
1FEC9
100
AcDbEntity
  8
0
100
AcDbLine
 10
29.30199999996933
 20
8.763099999991255
 30
0.0
 11
30.74199999996927
 21
8.763099999991255
 31
0.0
1001
ACAD
1000
ASC_BOUNDS
1002
{
1070
    19
1005
1FF0E
1002
}
  0
LINE
  5
1FF06
330
1FEC9
100
AcDbEntity
  8
0
100
AcDbLine
 10
30.74199999996927
 20
8.763099999991255
 30
0.0
 11
30.74199999996927
 21
2.373099999991211
 31
0.0
1001
ACAD
1000
ASC_BOUNDS
1002
{
1070
    19
1005
1FF0E
1002
}
  0
LINE
  5
1FF07
330
1FEC9
100
AcDbEntity
  8
0
100
AcDbLine
 10
26.02015566812236
 20
0.0330999999912365
 30
0.0
 11
28.40199999996923
 21
0.0330999999912365
 31
0.0
1001
ACAD
1000
ASC_BOUNDS
1002
{
1070
    19
1005
1FF0E
1002
}
  0
LINE
  5
1FF08
330
1FEC9
100
AcDbEntity
  8
0
100
AcDbLine
 10
29.30199999996933
 20
8.763099999991255
 30
0.0
 11
29.30199999996933
 21
2.283099999991236
 31
0.0
1001
ACAD
1000
ASC_BOUNDS
1002
{
1070
    19
1005
1FF0E
1002
}
  0
LINE
  5
1FF09
330
1FEC9
100
AcDbEntity
  8
0
100
AcDbLine
 10
26.97358892824991
 20
1.383099999991202
 30
0.0
 11
28.40199999996923
 21
1.383099999991202
 31
0.0
1001
ACAD
1000
ASC_BOUNDS
1002
{
1070
    19
1005
1FF0E
1002
}
  0
ARC
  5
1FF0A
330
1FEC9
100
AcDbEntity
  8
0
100
AcDbCircle
 10
28.40199999996923
 20
2.283099999991236
 30
0.0
 40
0.9
100
AcDbArc
 50
270.0
 51
0.0
1001
ACAD
1000
ASC_BOUNDS
1002
{
1070
    19
1005
1FF0E
1002
}
  0
ARC
  5
1FF0B
330
1FEC9
100
AcDbEntity
  8
0
100
AcDbCircle
 10
28.40199999996923
 20
2.373099999991211
 30
0.0
 40
2.34
100
AcDbArc
 50
270.0
 51
0.0
1001
ACAD
1000
ASC_BOUNDS
1002
{
1070
    19
1005
1FF0E
1002
}
  0
INSERT
  5
1FF0C
330
1FEC9
100
AcDbEntity
  8
0
100
AcDbBlockReference
  2
*X51
 10
0.0
 20
0.0
 30
0.0
1001
ACAD
1000
HATCH
1002
{
1070
    19
1000
ANSI37
1040
0.15
1040
0.0
1000
ASC_BOUNDS
1070
     2
1070
     2
1070
    12
1005
1FECB
1005
1FECC
1005
1FED3
1005
1FEE2
1005
1FEE5
1005
1FEE3
1005
1FED4
1005
1FED9
1005
1FED7
1005
1FEDB
1005
1FEDA
1005
1FEDC
1070
     2
1070
     3
1005
1FEE7
1005
1FEE9
1005
1FEE8
1000
ASC_SEEDPOINT
1011
3.614004224891801
1021
2.996669441146025
1031
0.0
1000
R14_HATCH_DATA
1000
1FF0C
1011
1.0
1021
0.0
1031
0.0
1011
0.0
1021
1.0
1031
0.0
1011
0.0
1021
0.0
1031
1.0
1040
0.0
1010
0.0
1020
0.0
1030
1.0
1000
ANSI37
1070
     0
1070
     1
1071
        2
1071
        7
1070
     0
1070
     1
1071
       17
1040
13.26299999998673
1040
-0.0001000000000317
1040
9.236999999990758
1040
8.999899999990987
1040
9.236999999990758
1040
8.999999999991019
1040
5.657999999994331
1040
0.9999999999989768
1040
3.181999999996833
1040
4.668599999995308
1040
6.432999999993513
1040
8.763099999991255
1040
4.617999999995391
1040
8.763099999991255
1040
1.420999999998571
1040
4.736799999995242
1040
4.617999999995391
1040
-0.0001000000000317
1040
4.617999999995391
1040
0.0
1040
6.766999999993232
1040
0.0
1040
6.766999999993232
1040
-0.0001000000000317
1040
7.826999999992154
1040
2.368399999997621
1040
10.64699999998936
1040
2.368399999997621
1040
11.70599999998831
1040
-0.0001000000000317
1040
11.70599999998831
1040
0.0
1040
13.26299999998673
1040
0.0
1071
       12
1005
1FECB
1005
1FECC
1005
1FED3
1005
1FEE2
1005
1FEE5
1005
1FEE3
1005
1FED4
1005
1FED9
1005
1FED7
1005
1FEDB
1005
1FEDA
1005
1FEDC
1071
       22
1070
     0
1070
     1
1071
        3
1040
9.236999999990758
1040
5.5200999999945
1040
10.06399999998996
1040
3.670999999996297
1040
8.409999999991555
1040
3.670999999996297
1071
        3
1005
1FEE7
1005
1FEE9
1005
1FEE8
1070
     0
1070
     1
1040
0.0
1040
0.15
1070
     0
1070
     2
1040
0.7853981633974483
1040
49.29960901727088
1040
-10.17736998311392
1040
-0.3367596045400932
1040
0.3367596045400932
1070
     0
1040
2.356194490192345
1040
49.29960901727088
1040
-10.17736998311392
1040
-0.3367596045400932
1040
-0.3367596045400932
1070
     0
1040
0.0110235143455945
1071
        2
1040
3.614004224891801
1040
2.996669441146025
1040
0.0
1040
3.614004224891801
1040
2.996669441146025
1040
0.0
1002
}
  0
INSERT
  5
1FF0D
330
1FEC9
100
AcDbEntity
  8
0
100
AcDbBlockReference
  2
*X52
 10
0.0
 20
0.0
 30
0.0
1001
ACAD
1000
HATCH
1002
{
1070
    19
1000
ANSI37
1040
0.15
1040
0.0
1000
ASC_BOUNDS
1070
     1
1070
     2
1070
    10
1005
1FECD
1005
1FECE
1005
1FEEF
1005
1FEED
1005
1FEEE
1005
1FEE1
1005
1FEE6
1005
1FEEA
1005
1FED0
1005
1FECF
1000
ASC_SEEDPOINT
1011
14.73245321214324
1021
2.798246178283421
1031
0.0
1000
R14_HATCH_DATA
1000
1FF0D
1011
1.0
1021
0.0
1031
0.0
1011
0.0
1021
1.0
1031
0.0
1011
0.0
1021
0.0
1031
1.0
1040
0.0
1010
0.0
1020
0.0
1030
1.0
1000
ANSI37
1070
     0
1070
     1
1071
        1
1071
        7
1070
     0
1070
     1
1071
       10
1040
16.46099999998353
1040
5.432899999994561
1040
18.59199999998134
1040
-0.2368999999997641
1040
22.38199999997767
1040
8.763099999991255
1040
20.89099999997916
1040
8.763099999991255
1040
18.59799999998143
1040
3.315799999996671
1040
16.46099999998353
1040
8.999899999990987
1040
14.32399999998563
1040
3.315799999996671
1040
12.02999999998792
1040
8.763099999991255
1040
10.53899999998941
1040
8.763099999991255
1040
14.32899999998563
1040
-0.2368999999997641
1071
       10
1005
1FECD
1005
1FECE
1005
1FEEF
1005
1FEED
1005
1FEEE
1005
1FEE1
1005
1FEE6
1005
1FEEA
1005
1FED0
1005
1FECF
1070
     0
1070
     1
1040
0.0
1040
0.15
1070
     0
1070
     2
1040
0.7853981633974483
1040
49.29960901727088
1040
-10.17736998311392
1040
-0.3367596045400932
1040
0.3367596045400932
1070
     0
1040
2.356194490192345
1040
49.29960901727088
1040
-10.17736998311392
1040
-0.3367596045400932
1040
-0.3367596045400932
1070
     0
1040
0.0110235143455945
1071
        1
1040
14.73245321214324
1040
2.798246178283421
1040
0.0
1002
}
  0
INSERT
  5
1FF0E
330
1FEC9
100
AcDbEntity
  8
0
100
AcDbBlockReference
  2
*X53
 10
0.0
 20
0.0
 30
0.0
1001
ACAD
1000
HATCH
1002
{
1070
    19
1000
ANSI37
1040
0.15
1040
0.0
1000
ASC_BOUNDS
1070
     2
1070
     2
1070
    13
1005
1FED1
1005
1FEDE
1005
1FEDF
1005
1FEDD
1005
1FEE0
1005
1FF07
1005
1FF0B
1005
1FF06
1005
1FF05
1005
1FF08
1005
1FF0A
1005
1FF09
1005
1FED2
1070
     2
1070
     3
1005
1FEEB
1005
1FEF0
1005
1FEEC
1000
ASC_SEEDPOINT
1011
21.97929957367762
1021
3.294304244259308
1031
0.0
1000
R14_HATCH_DATA
1000
1FF0E
1011
1.0
1021
0.0
1031
0.0
1011
0.0
1021
1.0
1031
0.0
1011
0.0
1021
0.0
1031
1.0
1040
0.0
1010
0.0
1020
0.0
1030
1.0
1000
ANSI37
1070
     0
1070
     1
1071
        2
1071
        7
1070
     1
1070
     1
1071
       15
1040
23.56599999997638
1040
8.999899999990987
1040
0.0
1040
19.53899999998043
1040
-0.0001000000000317
1040
0.0
1040
19.53899999998043
1040
0.0
1040
0.0
1040
21.09599999997886
1040
0.0
1040
0.0
1040
21.09599999997886
1040
-0.0001000000000317
1040
0.0
1040
22.15599999997789
1040
2.368399999997621
1040
0.0
1040
24.97599999997499
1040
2.368399999997621
1040
0.0
1040
26.02015566812236
1040
0.0330999999912365
1040
0.0
1040
28.40199999996923
1040
0.0330999999912365
1040
0.414213562373095
1040
30.74199999996923
1040
2.373099999991211
1040
0.0
1040
30.74199999996927
1040
8.763099999991255
1040
0.0
1040
29.30199999996933
1040
8.763099999991255
1040
0.0
1040
29.30199999996933
1040
2.283099999991236
1040
-0.414213562373095
1040
28.40199999996923
1040
1.383099999991237
1040
0.0
1040
26.97358892824991
1040
1.383099999991202
1040
0.0
1071
       13
1005
1FED1
1005
1FEDE
1005
1FEDF
1005
1FEDD
1005
1FEE0
1005
1FF07
1005
1FF0B
1005
1FF06
1005
1FF05
1005
1FF08
1005
1FF0A
1005
1FF09
1005
1FED2
1071
       22
1070
     0
1070
     1
1071
        3
1040
22.7389999999773
1040
3.670999999996297
1040
23.56599999997638
1040
5.5200999999945
1040
24.39299999997559
1040
3.670999999996297
1071
        3
1005
1FEEB
1005
1FEF0
1005
1FEEC
1070
     0
1070
     1
1040
0.0
1040
0.15
1070
     0
1070
     2
1040
0.7853981633974483
1040
49.29960901727088
1040
-10.17736998311392
1040
-0.3367596045400932
1040
0.3367596045400932
1070
     0
1040
2.356194490192345
1040
49.29960901727088
1040
-10.17736998311392
1040
-0.3367596045400932
1040
-0.3367596045400932
1070
     0
1040
0.0110235143455945
1071
        2
1040
21.97929957367762
1040
3.294304244259308
1040
0.0
1040
21.97929957367762
1040
3.294304244259308
1040
0.0
1002
}
  0
INSERT
  5
1FF0F
330
1FEC9
100
AcDbEntity
  8
0
100
AcDbBlockReference
  2
*X54
 10
0.0
 20
0.0
 30
0.0
1001
ACAD
1000
HATCH
1002
{
1070
    19
1000
ANSI37
1040
0.15
1040
0.0
1000
R14_HATCH_DATA
1000
1FF0F
1011
1.0
1021
0.0
1031
0.0
1011
0.0
1021
1.0
1031
0.0
1011
0.0
1021
0.0
1031
1.0
1040
0.0
1010
0.0
1020
0.0
1030
1.0
1000
ANSI37
1070
     0
1070
     1
1071
        1
1071
        7
1070
     1
1070
     1
1071
       12
1040
31.64199999996833
1040
2.481619422925121
1040
0.2679491924310942
1040
32.94699999997067
1040
0.2212931190493919
1040
0.2679491924301353
1040
36.36699999995983
1040
0.2212931190459813
1040
0.2679491924321411
1040
37.67199999996831
1040
2.481619422928361
1040
0.0
1040
37.67199999996831
1040
8.763099999991255
1040
0.0
1040
36.23199999996837
1040
8.763099999991255
1040
0.0
1040
36.23199999996837
1040
2.481619422925064
1040
-0.2679491924310291
1040
35.64699999996708
1040
1.468369700498386
1040
-0.267949192430519
1040
33.66699999997093
1040
1.468369700497703
1040
-0.267949192431809
1040
33.08199999996839
1040
2.481619422926997
1040
0.0
1040
33.08199999996839
1040
8.763099999991255
1040
0.0
1040
31.64199999996833
1040
8.763099999991255
1040
0.0
1071
        0
1070
     0
1070
     1
1040
0.0
1040
0.15
1070
     0
1070
     2
1040
0.7853981633974483
1040
49.29960901727088
1040
-10.17736998311392
1040
-0.3367596045400932
1040
0.3367596045400932
1070
     0
1040
2.356194490192345
1040
49.29960901727088
1040
-10.17736998311392
1040
-0.3367596045400932
1040
-0.3367596045400932
1070
     0
1040
0.0110235143455945
1071
        1
1040
32.30357378967278
1040
3.988785755459219
1040
0.0
1002
}
  0
INSERT
  5
1FF10
330
1FEC9
100
AcDbEntity
  8
0
100
AcDbBlockReference
  2
*X55
 10
0.0
 20
0.0
 30
0.0
1001
ACAD
1000
HATCH
1002
{
1070
    19
1000
ANSI37
1040
0.15
1040
0.0
1000
ASC_BOUNDS
1070
     1
1070
     2
1070
     8
1005
1FEF1
1005
1FEF4
1005
1FEF8
1005
1FEF7
1005
1FEF6
1005
1FEF3
1005
1FEF5
1005
1FEF2
1000
ASC_SEEDPOINT
1011
39.74896370716704
1021
4.484843821435049
1031
0.0
1000
R14_HATCH_DATA
1000
1FF10
1011
1.0
1021
0.0
1031
0.0
1011
0.0
1021
1.0
1031
0.0
1011
0.0
1021
0.0
1031
1.0
1040
0.0
1010
0.0
1020
0.0
1030
1.0
1000
ANSI37
1070
     0
1070
     1
1071
        1
1071
        7
1070
     0
1070
     1
1071
        9
1040
40.02599999995994
1040
5.341799999994635
1040
44.99999999995498
1040
-0.2368999999997641
1040
44.99999999995498
1040
8.763099999991255
1040
43.57899999995641
1040
8.763099999991255
1040
43.57899999995641
1040
3.421199999996588
1040
38.60499999996136
1040
8.999899999990987
1040
38.60499999996136
1040
8.999999999991019
1040
38.60499999996136
1040
0.0
1040
40.02599999995994
1040
0.0
1071
        8
1005
1FEF1
1005
1FEF4
1005
1FEF8
1005
1FEF7
1005
1FEF6
1005
1FEF3
1005
1FEF5
1005
1FEF2
1070
     0
1070
     1
1040
0.0
1040
0.15
1070
     0
1070
     2
1040
0.7853981633974483
1040
49.29960901727088
1040
-10.17736998311392
1040
-0.3367596045400932
1040
0.3367596045400932
1070
     0
1040
2.356194490192345
1040
49.29960901727088
1040
-10.17736998311392
1040
-0.3367596045400932
1040
-0.3367596045400932
1070
     0
1040
0.0110235143455945
1071
        1
1040
39.74896370716704
1040
4.484843821435049
1040
0.0
1002
}
  0
INSERT
  5
1FF11
330
1FEC9
100
AcDbEntity
  8
0
100
AcDbBlockReference
  2
*X56
 10
0.0
 20
0.0
 30
0.0
1001
ACAD
1000
HATCH
1002
{
1070
    19
1000
ANSI37
1040
0.15
1040
0.0
1000
ASC_BOUNDS
1070
     1
1070
     2
1070
     4
1005
1FED5
1005
1FEE4
1005
1FED6
1005
1FED8
1000
ASC_SEEDPOINT
1011
1.079051535452663
1021
4.148538732891836
1031
0.0
1000
R14_HATCH_DATA
1000
1FF11
1011
1.0
1021
0.0
1031
0.0
1011
0.0
1021
1.0
1031
0.0
1011
0.0
1021
0.0
1031
1.0
1040
0.0
1010
0.0
1020
0.0
1030
1.0
1000
ANSI37
1070
     0
1070
     1
1071
        1
1071
        7
1070
     0
1070
     1
1071
        4
1040
1.420999999998571
1040
0.0
1040
1.420999999998571
1040
8.763099999991255
1040
0.0
1040
8.763099999991255
1040
0.0
1040
0.0
1071
        4
1005
1FED5
1005
1FEE4
1005
1FED6
1005
1FED8
1070
     0
1070
     1
1040
0.0
1040
0.15
1070
     0
1070
     2
1040
0.7853981633974483
1040
49.29960901727088
1040
-10.17736998311392
1040
-0.3367596045400932
1040
0.3367596045400932
1070
     0
1040
2.356194490192345
1040
49.29960901727088
1040
-10.17736998311392
1040
-0.3367596045400932
1040
-0.3367596045400932
1070
     0
1040
0.0053004257112761
1071
        1
1040
1.079051535452663
1040
4.148538732891836
1040
0.0
1002
}
  0
ENDBLK
  5
205D6
330
1FEC9
100
AcDbEntity
  8
0
100
AcDbBlockEnd
  0
BLOCK
  5
20A44
330
206F9
100
AcDbEntity
  8
0
100
AcDbBlockBegin
  2
NOCIRCLE
 70
     2
 10
0.0
 20
0.0
 30
0.0
  3
NOCIRCLE
  1

  0
CIRCLE
  5
206FD
330
206F9
100
AcDbEntity
  8
0
  6
BYBLOCK
 62
     0
100
AcDbCircle
 10
0.0
 20
0.0
 30
0.0
 40
4.2
  0
ATTDEF
  5
206FE
330
206F9
100
AcDbEntity
  8
1TEXT
100
AcDbText
 10
-1.904761904761876
 20
-2.0
 30
0.0
 40
4.0
  1
0
 72
     4
 11
0.0
 21
0.0
 31
0.0
100
AcDbAttributeDefinition
  3
NO.
  2
NO
 70
     0
  0
ENDBLK
  5
20A45
330
206F9
100
AcDbEntity
  8
0
100
AcDbBlockEnd
  0
BLOCK
  5
21CC0
330
21B32
100
AcDbEntity
  8
0
100
AcDbBlockBegin
  2
*X51
 70
     1
 10
0.0
 20
0.0
 30
0.0
  3
*X51
  1

  0
LINE
  5
21B33
330
21B32
100
AcDbEntity
  8
0
  6
CONTINUOUS
100
AcDbLine
 10
3.418023043697893
 20
7.251849696850613
 30
0.0
 11
4.929273346838536
 21
8.763099999991255
 31
0.0
  0
LINE
  5
21B34
330
21B32
100
AcDbEntity
  8
0
  6
CONTINUOUS
100
AcDbLine
 10
1.483656411257782
 20
4.643963855330318
 30
0.0
 11
5.60279255591872
 21
8.763099999991255
 31
0.0
  0
LINE
  5
21B35
330
21B32
100
AcDbEntity
  8
0
  6
CONTINUOUS
100
AcDbLine
 10
1.755053947328235
 20
4.241842182320584
 30
0.0
 11
6.276311764998907
 21
8.763099999991255
 31
0.0
  0
LINE
  5
21B36
330
21B32
100
AcDbEntity
  8
0
  6
CONTINUOUS
100
AcDbLine
 10
2.026451483398688
 20
3.839720509310849
 30
0.0
 11
4.441040904851878
 21
6.254309930764039
 31
0.0
  0
LINE
  5
21B37
330
21B32
100
AcDbEntity
  8
0
  6
CONTINUOUS
100
AcDbLine
 10
2.297849019469139
 20
3.437598836301114
 30
0.0
 11
3.321765168359338
 21
4.461514985191313
 31
0.0
  0
LINE
  5
21B38
330
21B32
100
AcDbEntity
  8
0
  6
CONTINUOUS
100
AcDbLine
 10
2.569246555539591
 20
3.03547716329138
 30
0.0
 11
3.593163397972743
 21
4.059394005724531
 31
0.0
  0
LINE
  5
21B39
330
21B32
100
AcDbEntity
  8
0
  6
CONTINUOUS
100
AcDbLine
 10
2.840644091610043
 20
2.633355490281646
 30
0.0
 11
3.864561627586149
 21
3.657273026257751
 31
0.0
  0
LINE
  5
21B3A
330
21B32
100
AcDbEntity
  8
0
  6
CONTINUOUS
100
AcDbLine
 10
3.112041627680496
 20
2.231233817271911
 30
0.0
 11
4.135959857199554
 21
3.25515204679097
 31
0.0
  0
LINE
  5
21B3B
330
21B32
100
AcDbEntity
  8
0
  6
CONTINUOUS
100
AcDbLine
 10
3.383439163750948
 20
1.829112144262177
 30
0.0
 11
4.40735808681296
 21
2.853031067324189
 31
0.0
  0
LINE
  5
21B3C
330
21B32
100
AcDbEntity
  8
0
  6
CONTINUOUS
100
AcDbLine
 10
3.654836699821399
 20
1.426990471252442
 30
0.0
 11
4.678756316426365
 21
2.450910087857407
 31
0.0
  0
LINE
  5
21B3D
330
21B32
100
AcDbEntity
  8
0
  6
CONTINUOUS
100
AcDbLine
 10
3.926234235891853
 20
1.024868798242709
 30
0.0
 11
4.95015454603977
 21
2.048789108390626
 31
0.0
  0
LINE
  5
21B3E
330
21B32
100
AcDbEntity
  8
0
  6
CONTINUOUS
100
AcDbLine
 10
4.197631771962304
 20
0.6227471252329737
 30
0.0
 11
5.221552775653176
 21
1.646668128923846
 31
0.0
  0
LINE
  5
21B3F
330
21B32
100
AcDbEntity
  8
0
  6
CONTINUOUS
100
AcDbLine
 10
8.715877546767851
 20
7.835069736359266
 30
0.0
 11
9.435953450375058
 21
8.555145639966472
 31
0.0
  0
LINE
  5
21B40
330
21B32
100
AcDbEntity
  8
0
  6
CONTINUOUS
100
AcDbLine
 10
8.170620868422267
 20
6.616293848933497
 30
0.0
 11
9.644120833743461
 21
8.08979381425469
 31
0.0
  0
LINE
  5
21B41
330
21B32
100
AcDbEntity
  8
0
  6
CONTINUOUS
100
AcDbLine
 10
7.625364190076684
 20
5.397517961507727
 30
0.0
 11
9.852288217111864
 21
7.624441988542907
 31
0.0
  0
LINE
  5
21B42
330
21B32
100
AcDbEntity
  8
0
  6
CONTINUOUS
100
AcDbLine
 10
7.080107511731101
 20
4.178742074081957
 30
0.0
 11
10.06045560048027
 21
7.159090162831124
 31
0.0
  0
LINE
  5
21B43
330
21B32
100
AcDbEntity
  8
0
  6
CONTINUOUS
100
AcDbLine
 10
6.534850833385518
 20
2.959966186656187
 30
0.0
 11
10.26862298384867
 21
6.693738337119342
 31
0.0
  0
LINE
  5
21B44
330
21B32
100
AcDbEntity
  8
0
  6
CONTINUOUS
100
AcDbLine
 10
4.469029308032756
 20
0.2206254522232385
 30
0.0
 11
5.492951005266582
 21
1.244547149457064
 31
0.0
  0
LINE
  5
21B45
330
21B32
100
AcDbEntity
  8
0
  6
CONTINUOUS
100
AcDbLine
 10
5.989594155039935
 20
1.741190299230417
 30
0.0
 11
8.806950407233131
 21
4.558546551423613
 31
0.0
  0
LINE
  5
21B46
330
21B32
100
AcDbEntity
  8
0
  6
CONTINUOUS
100
AcDbLine
 10
9.401251593263643
 20
5.152847737454126
 30
0.0
 11
10.47679036721708
 21
6.228386511407559
 31
0.0
  0
LINE
  5
21B47
330
21B32
100
AcDbEntity
  8
0
  6
CONTINUOUS
100
AcDbLine
 10
4.921837203428691
 20
-0.0000858614610131
 30
0.0
 11
8.592923064886001
 21
3.670999999996297
 31
0.0
  0
LINE
  5
21B48
330
21B32
100
AcDbEntity
  8
0
  6
CONTINUOUS
100
AcDbLine
 10
9.609390446785305
 20
4.6874673818956
 30
0.0
 11
10.68495775058548
 21
5.763034685695775
 31
0.0
  0
LINE
  5
21B49
330
21B32
100
AcDbEntity
  8
0
  6
CONTINUOUS
100
AcDbLine
 10
5.595387755019432
 20
-0.0000545189504582
 30
0.0
 11
7.716137258923768
 21
2.120694984953879
 31
0.0
  0
LINE
  5
21B4A
330
21B32
100
AcDbEntity
  8
0
  6
CONTINUOUS
100
AcDbLine
 10
6.268938306610172
 20
-0.000023176439905
 30
0.0
 11
7.170485805526503
 21
0.9015243224764267
 31
0.0
  0
LINE
  5
21B4B
330
21B32
100
AcDbEntity
  8
0
  6
CONTINUOUS
100
AcDbLine
 10
7.963842273967511
 20
2.368399999997621
 30
0.0
 11
9.266442273966188
 21
3.670999999996297
 31
0.0
  0
LINE
  5
21B4C
330
21B32
100
AcDbEntity
  8
0
  6
CONTINUOUS
100
AcDbLine
 10
8.637361483047696
 20
2.368399999997621
 30
0.0
 11
9.939961483046375
 21
3.670999999996297
 31
0.0
  0
LINE
  5
21B4D
330
21B32
100
AcDbEntity
  8
0
  6
CONTINUOUS
100
AcDbLine
 10
9.817529300306965
 20
4.222087026337075
 30
0.0
 11
10.89312513395388
 21
5.297682859983993
 31
0.0
  0
LINE
  5
21B4E
330
21B32
100
AcDbEntity
  8
0
  6
CONTINUOUS
100
AcDbLine
 10
10.02566815382863
 20
3.756706670778549
 30
0.0
 11
11.10129251732229
 21
4.832331034272211
 31
0.0
  0
LINE
  5
21B4F
330
21B32
100
AcDbEntity
  8
0
  6
CONTINUOUS
100
AcDbLine
 10
9.310880692127883
 20
2.368399999997621
 30
0.0
 11
11.30945990069069
 21
4.366979208560428
 31
0.0
  0
LINE
  5
21B50
330
21B32
100
AcDbEntity
  8
0
  6
CONTINUOUS
100
AcDbLine
 10
9.98439990120807
 20
2.36839999999762
 30
0.0
 11
11.5176272840591
 21
3.901627382848645
 31
0.0
  0
LINE
  5
21B51
330
21B32
100
AcDbEntity
  8
0
  6
CONTINUOUS
100
AcDbLine
 10
10.65037369446246
 20
2.36085458417182
 30
0.0
 11
11.7257946674275
 21
3.436275557136862
 31
0.0
  0
LINE
  5
21B52
330
21B32
100
AcDbEntity
  8
0
  6
CONTINUOUS
100
AcDbLine
 10
10.85847197087848
 20
1.895433651507656
 30
0.0
 11
11.9339620507959
 21
2.97092373142508
 31
0.0
  0
LINE
  5
21B53
330
21B32
100
AcDbEntity
  8
0
  6
CONTINUOUS
100
AcDbLine
 10
11.0665702472945
 20
1.430012718843491
 30
0.0
 11
12.14212943416431
 21
2.505571905713296
 31
0.0
  0
LINE
  5
21B54
330
21B32
100
AcDbEntity
  8
0
  6
CONTINUOUS
100
AcDbLine
 10
11.27466852371052
 20
0.9645917861793256
 30
0.0
 11
12.35029681753271
 21
2.040220080001513
 31
0.0
  0
LINE
  5
21B55
330
21B32
100
AcDbEntity
  8
0
  6
CONTINUOUS
100
AcDbLine
 10
11.48276680012654
 20
0.4991708535151611
 30
0.0
 11
12.55846420090111
 21
1.57486825428973
 31
0.0
  0
LINE
  5
21B56
330
21B32
100
AcDbEntity
  8
0
  6
CONTINUOUS
100
AcDbLine
 10
11.69086507654257
 20
0.0337499208509957
 30
0.0
 11
12.76663158426952
 21
1.109516428577947
 31
0.0
  0
LINE
  5
21B57
330
21B32
100
AcDbEntity
  8
0
  6
CONTINUOUS
100
AcDbLine
 10
12.33057447873954
 20
-0.0000598860322123
 30
0.0
 11
12.97479896763792
 21
0.6441646028661663
 31
0.0
  0
LINE
  5
21B58
330
21B32
100
AcDbEntity
  8
0
  6
CONTINUOUS
100
AcDbLine
 10
13.00413694809395
 20
-0.0000166257579952
 30
0.0
 11
13.18296635100632
 21
0.1788127771543824
 31
0.0
  0
LINE
  5
21B59
330
21B32
100
AcDbEntity
  8
0
  6
CONTINUOUS
100
AcDbLine
 10
4.772852165289667
 20
-0.000092794222212
 30
0.0
 11
4.296495091028902
 21
0.4762642800385528
 31
0.0
  0
LINE
  5
21B5A
330
21B32
100
AcDbEntity
  8
0
  6
CONTINUOUS
100
AcDbLine
 10
5.446340034776103
 20
-0.0000614546284616
 30
0.0
 11
2.898195908335625
 21
2.548082671812017
 31
0.0
  0
LINE
  5
21B5B
330
21B32
100
AcDbEntity
  8
0
  6
CONTINUOUS
100
AcDbLine
 10
6.119827904262539
 20
-0.0000301150347113
 30
0.0
 11
1.499896725642348
 21
4.61990106358548
 31
0.0
  0
LINE
  5
21B5C
330
21B32
100
AcDbEntity
  8
0
  6
CONTINUOUS
100
AcDbLine
 10
6.775136745476159
 20
0.0181802528318542
 30
0.0
 11
5.699826040202669
 21
1.093490958105344
 31
0.0
  0
LINE
  5
21B5D
330
21B32
100
AcDbEntity
  8
0
  6
CONTINUOUS
100
AcDbLine
 10
6.983376846288489
 20
0.4834593610997118
 30
0.0
 11
5.908008617934405
 21
1.558827589453796
 31
0.0
  0
LINE
  5
21B5E
330
21B32
100
AcDbEntity
  8
0
  6
CONTINUOUS
100
AcDbLine
 10
5.377063484962296
 20
1.416253513345719
 30
0.0
 11
1.702276957014131
 21
5.091040041293883
 31
0.0
  0
LINE
  5
21B5F
330
21B32
100
AcDbEntity
  8
0
  6
CONTINUOUS
100
AcDbLine
 10
3.978745891735324
 20
3.488090315652877
 30
0.0
 11
2.000373521109399
 21
5.466462686278803
 31
0.0
  0
LINE
  5
21B60
330
21B32
100
AcDbEntity
  8
0
  6
CONTINUOUS
100
AcDbLine
 10
7.191616947100819
 20
0.948738469367568
 30
0.0
 11
6.11619119566614
 21
2.024164220802247
 31
0.0
  0
LINE
  5
21B61
330
21B32
100
AcDbEntity
  8
0
  6
CONTINUOUS
100
AcDbLine
 10
7.399857047913149
 20
1.414017577635424
 30
0.0
 11
6.324373773397875
 21
2.489500852150698
 31
0.0
  0
LINE
  5
21B62
330
21B32
100
AcDbEntity
  8
0
  6
CONTINUOUS
100
AcDbLine
 10
7.608097148725479
 20
1.879296685903281
 30
0.0
 11
6.53255635112961
 21
2.95483748349915
 31
0.0
  0
LINE
  5
21B63
330
21B32
100
AcDbEntity
  8
0
  6
CONTINUOUS
100
AcDbLine
 10
7.816337249537808
 20
2.344575794171138
 30
0.0
 11
6.740738928861345
 21
3.420174114847601
 31
0.0
  0
LINE
  5
21B64
330
21B32
100
AcDbEntity
  8
0
  6
CONTINUOUS
100
AcDbLine
 10
3.310241080789734
 20
4.830114335678653
 30
0.0
 11
2.298470085204666
 21
5.84188533126372
 31
0.0
  0
LINE
  5
21B65
330
21B32
100
AcDbEntity
  8
0
  6
CONTINUOUS
100
AcDbLine
 10
3.60832983563551
 20
5.205544789913063
 30
0.0
 11
2.596566649299935
 21
6.217307976248638
 31
0.0
  0
LINE
  5
21B66
330
21B32
100
AcDbEntity
  8
0
  6
CONTINUOUS
100
AcDbLine
 10
3.906418590481286
 20
5.580975244147473
 30
0.0
 11
2.894663213395203
 21
6.592730621233557
 31
0.0
  0
LINE
  5
21B67
330
21B32
100
AcDbEntity
  8
0
  6
CONTINUOUS
100
AcDbLine
 10
4.204507345327062
 20
5.956405698381884
 30
0.0
 11
3.192759777490472
 21
6.968153266218474
 31
0.0
  0
LINE
  5
21B68
330
21B32
100
AcDbEntity
  8
0
  6
CONTINUOUS
100
AcDbLine
 10
8.466032252791512
 20
2.368399999997621
 30
0.0
 11
6.948921506593081
 21
3.885510746196053
 31
0.0
  0
LINE
  5
21B69
330
21B32
100
AcDbEntity
  8
0
  6
CONTINUOUS
100
AcDbLine
 10
9.139551461871699
 20
2.36839999999762
 30
0.0
 11
7.157104084324816
 21
4.350847377544504
 31
0.0
  0
LINE
  5
21B6A
330
21B32
100
AcDbEntity
  8
0
  6
CONTINUOUS
100
AcDbLine
 10
4.502596100172839
 20
6.331836152616295
 30
0.0
 11
3.49085634158574
 21
7.343575911203393
 31
0.0
  0
LINE
  5
21B6B
330
21B32
100
AcDbEntity
  8
0
  6
CONTINUOUS
100
AcDbLine
 10
4.800684855018615
 20
6.707266606850705
 30
0.0
 11
3.788952905681008
 21
7.718998556188312
 31
0.0
  0
LINE
  5
21B6C
330
21B32
100
AcDbEntity
  8
0
  6
CONTINUOUS
100
AcDbLine
 10
12.18154012887317
 20
-0.0000694579236642
 30
0.0
 11
11.32140332908496
 21
0.8600673418645499
 31
0.0
  0
LINE
  5
21B6D
330
21B32
100
AcDbEntity
  8
0
  6
CONTINUOUS
100
AcDbLine
 10
12.85501608323566
 20
-0.0000262032059659
 30
0.0
 11
10.77672456435345
 21
2.078265315676246
 31
0.0
  0
LINE
  5
21B6E
330
21B32
100
AcDbEntity
  8
0
  6
CONTINUOUS
100
AcDbLine
 10
9.813070670951886
 20
2.36839999999762
 30
0.0
 11
8.51047067095321
 21
3.670999999996297
 31
0.0
  0
LINE
  5
21B6F
330
21B32
100
AcDbEntity
  8
0
  6
CONTINUOUS
100
AcDbLine
 10
10.48658988003207
 20
2.36839999999762
 30
0.0
 11
9.183989880033396
 21
3.670999999996297
 31
0.0
  0
LINE
  5
21B70
330
21B32
100
AcDbEntity
  8
0
  6
CONTINUOUS
100
AcDbLine
 10
8.441048632286794
 20
3.740422038662712
 30
0.0
 11
7.365286662056551
 21
4.816184008892956
 31
0.0
  0
LINE
  5
21B71
330
21B32
100
AcDbEntity
  8
0
  6
CONTINUOUS
100
AcDbLine
 10
8.649187485808454
 20
4.205802394221237
 30
0.0
 11
7.573469239788285
 21
5.281520640241407
 31
0.0
  0
LINE
  5
21B72
330
21B32
100
AcDbEntity
  8
0
  6
CONTINUOUS
100
AcDbLine
 10
5.098773609864391
 20
7.082697061085115
 30
0.0
 11
4.087049469776277
 21
8.09442120117323
 31
0.0
  0
LINE
  5
21B73
330
21B32
100
AcDbEntity
  8
0
  6
CONTINUOUS
100
AcDbLine
 10
5.396862364710167
 20
7.458127515319526
 30
0.0
 11
4.385146033871544
 21
8.469843846158149
 31
0.0
  0
LINE
  5
21B74
330
21B32
100
AcDbEntity
  8
0
  6
CONTINUOUS
100
AcDbLine
 10
13.04801363231285
 20
0.4804954567970334
 30
0.0
 11
9.85750908911358
 21
3.670999999996297
 31
0.0
  0
LINE
  5
21B75
330
21B32
100
AcDbEntity
  8
0
  6
CONTINUOUS
100
AcDbLine
 10
8.857326339330116
 20
4.671182749779763
 30
0.0
 11
7.781651817520021
 21
5.746857271589858
 31
0.0
  0
LINE
  5
21B76
330
21B32
100
AcDbEntity
  8
0
  6
CONTINUOUS
100
AcDbLine
 10
5.694951119555943
 20
7.833557969553937
 30
0.0
 11
4.765409089118624
 21
8.763099999991255
 31
0.0
  0
LINE
  5
21B77
330
21B32
100
AcDbEntity
  8
0
  6
CONTINUOUS
100
AcDbLine
 10
12.50286117236978
 20
1.699167125820288
 30
0.0
 11
9.68611877250287
 21
4.515909525687196
 31
0.0
  0
LINE
  5
21B78
330
21B32
100
AcDbEntity
  8
0
  6
CONTINUOUS
100
AcDbLine
 10
9.065465192851777
 20
5.136563105338288
 30
0.0
 11
7.989834395251757
 21
6.21219390293831
 31
0.0
  0
LINE
  5
21B79
330
21B32
100
AcDbEntity
  8
0
  6
CONTINUOUS
100
AcDbLine
 10
5.993039874401719
 20
8.208988423788346
 30
0.0
 11
5.43892829819881
 21
8.763099999991255
 31
0.0
  0
LINE
  5
21B7A
330
21B32
100
AcDbEntity
  8
0
  6
CONTINUOUS
100
AcDbLine
 10
11.95770871242671
 20
2.917838794843543
 30
0.0
 11
8.19801697298349
 21
6.677530534286761
 31
0.0
  0
LINE
  5
21B7B
330
21B32
100
AcDbEntity
  8
0
  6
CONTINUOUS
100
AcDbLine
 10
6.291128629247495
 20
8.584418878022756
 30
0.0
 11
6.112447507278997
 21
8.763099999991255
 31
0.0
  0
LINE
  5
21B7C
330
21B32
100
AcDbEntity
  8
0
  6
CONTINUOUS
100
AcDbLine
 10
11.41255625248364
 20
4.136510463866797
 30
0.0
 11
8.406199550715227
 21
7.142867165635211
 31
0.0
  0
LINE
  5
21B7D
330
21B32
100
AcDbEntity
  8
0
  6
CONTINUOUS
100
AcDbLine
 10
10.86740379254057
 20
5.355182132890051
 30
0.0
 11
8.614382128446962
 21
7.608203796983664
 31
0.0
  0
LINE
  5
21B7E
330
21B32
100
AcDbEntity
  8
0
  6
CONTINUOUS
100
AcDbLine
 10
10.3222513325975
 20
6.573853801913305
 30
0.0
 11
8.822564706178696
 21
8.073540428332114
 31
0.0
  0
LINE
  5
21B7F
330
21B32
100
AcDbEntity
  8
0
  6
CONTINUOUS
100
AcDbLine
 10
9.777098872654436
 20
7.792525470936562
 30
0.0
 11
9.030747283910433
 21
8.538877059680566
 31
0.0
  0
ENDBLK
  5
21CC1
330
21B32
100
AcDbEntity
  8
0
100
AcDbBlockEnd
  0
BLOCK
  5
21CC2
330
21B80
100
AcDbEntity
  8
0
100
AcDbBlockBegin
  2
*X52
 70
     1
 10
0.0
 20
0.0
 30
0.0
  3
*X52
  1

  0
LINE
  5
21B81
330
21B80
100
AcDbEntity
  8
0
  6
CONTINUOUS
100
AcDbLine
 10
10.67292308101235
 20
8.445076852443387
 30
0.0
 11
10.99094622856022
 21
8.763099999991255
 31
0.0
  0
LINE
  5
21B82
330
21B80
100
AcDbEntity
  8
0
  6
CONTINUOUS
100
AcDbLine
 10
10.87250383178748
 20
7.971138394138331
 30
0.0
 11
11.6644654376404
 21
8.763099999991255
 31
0.0
  0
LINE
  5
21B83
330
21B80
100
AcDbEntity
  8
0
  6
CONTINUOUS
100
AcDbLine
 10
11.07208458256261
 20
7.497199935833273
 30
0.0
 11
12.12126590876355
 21
8.546381262034211
 31
0.0
  0
LINE
  5
21B84
330
21B80
100
AcDbEntity
  8
0
  6
CONTINUOUS
100
AcDbLine
 10
11.27166533333774
 20
7.023261477528216
 30
0.0
 11
12.32085164573666
 21
8.072447789927136
 31
0.0
  0
LINE
  5
21B85
330
21B80
100
AcDbEntity
  8
0
  6
CONTINUOUS
100
AcDbLine
 10
11.47124608411287
 20
6.549323019223158
 30
0.0
 11
12.52043738270977
 21
7.59851431782006
 31
0.0
  0
LINE
  5
21B86
330
21B80
100
AcDbEntity
  8
0
  6
CONTINUOUS
100
AcDbLine
 10
11.670826834888
 20
6.075384560918101
 30
0.0
 11
12.72002311968288
 21
7.124580845712984
 31
0.0
  0
LINE
  5
21B87
330
21B80
100
AcDbEntity
  8
0
  6
CONTINUOUS
100
AcDbLine
 10
11.87040758566313
 20
5.601446102613043
 30
0.0
 11
12.91960885665599
 21
6.650647373605907
 31
0.0
  0
LINE
  5
21B88
330
21B80
100
AcDbEntity
  8
0
  6
CONTINUOUS
100
AcDbLine
 10
12.06998833643825
 20
5.127507644307986
 30
0.0
 11
13.1191945936291
 21
6.176713901498832
 31
0.0
  0
LINE
  5
21B89
330
21B80
100
AcDbEntity
  8
0
  6
CONTINUOUS
100
AcDbLine
 10
12.26956908721338
 20
4.65356918600293
 30
0.0
 11
13.31878033060221
 21
5.702780429391757
 31
0.0
  0
LINE
  5
21B8A
330
21B80
100
AcDbEntity
  8
0
  6
CONTINUOUS
100
AcDbLine
 10
12.46914983798851
 20
4.179630727697873
 30
0.0
 11
13.51836606757532
 21
5.228846957284683
 31
0.0
  0
LINE
  5
21B8B
330
21B80
100
AcDbEntity
  8
0
  6
CONTINUOUS
100
AcDbLine
 10
12.66873058876364
 20
3.705692269392816
 30
0.0
 11
13.71795180454843
 21
4.754913485177607
 31
0.0
  0
LINE
  5
21B8C
330
21B80
100
AcDbEntity
  8
0
  6
CONTINUOUS
100
AcDbLine
 10
12.86831133953877
 20
3.231753811087759
 30
0.0
 11
13.91753754152154
 21
4.280980013070531
 31
0.0
  0
LINE
  5
21B8D
330
21B80
100
AcDbEntity
  8
0
  6
CONTINUOUS
100
AcDbLine
 10
13.0678920903139
 20
2.757815352782702
 30
0.0
 11
14.11712327849465
 21
3.807046540963456
 31
0.0
  0
LINE
  5
21B8E
330
21B80
100
AcDbEntity
  8
0
  6
CONTINUOUS
100
AcDbLine
 10
13.26747284108903
 20
2.283876894477644
 30
0.0
 11
14.31670901546777
 21
3.333113068856379
 31
0.0
  0
LINE
  5
21B8F
330
21B80
100
AcDbEntity
  8
0
  6
CONTINUOUS
100
AcDbLine
 10
16.36767838827179
 20
8.751678487061342
 30
0.0
 11
16.50332410898388
 21
8.887324207773432
 31
0.0
  0
LINE
  5
21B90
330
21B80
100
AcDbEntity
  8
0
  6
CONTINUOUS
100
AcDbLine
 10
15.96190732182191
 20
7.67238821153127
 30
0.0
 11
16.68735328004734
 21
8.397834169756699
 31
0.0
  0
LINE
  5
21B91
330
21B80
100
AcDbEntity
  8
0
  6
CONTINUOUS
100
AcDbLine
 10
15.55613625537202
 20
6.593097936001196
 30
0.0
 11
16.87138245111079
 21
7.908344131739965
 31
0.0
  0
LINE
  5
21B92
330
21B80
100
AcDbEntity
  8
0
  6
CONTINUOUS
100
AcDbLine
 10
15.15036518892213
 20
5.513807660471122
 30
0.0
 11
17.05541162217424
 21
7.418854093723231
 31
0.0
  0
LINE
  5
21B93
330
21B80
100
AcDbEntity
  8
0
  6
CONTINUOUS
100
AcDbLine
 10
14.74459412247225
 20
4.434517384941048
 30
0.0
 11
17.2394407932377
 21
6.929364055706499
 31
0.0
  0
LINE
  5
21B94
330
21B80
100
AcDbEntity
  8
0
  6
CONTINUOUS
100
AcDbLine
 10
14.33882305602236
 20
3.355227109410975
 30
0.0
 11
17.42346996430115
 21
6.439874017689766
 31
0.0
  0
LINE
  5
21B95
330
21B80
100
AcDbEntity
  8
0
  6
CONTINUOUS
100
AcDbLine
 10
13.46705359186416
 20
1.809938436172586
 30
0.0
 11
16.0819338255367
 21
4.424818669845129
 31
0.0
  0
LINE
  5
21B96
330
21B80
100
AcDbEntity
  8
0
  6
CONTINUOUS
100
AcDbLine
 10
16.63283254238972
 20
4.975717386698149
 30
0.0
 11
17.60749913536461
 21
5.950383979673033
 31
0.0
  0
LINE
  5
21B97
330
21B80
100
AcDbEntity
  8
0
  6
CONTINUOUS
100
AcDbLine
 10
13.66663434263929
 20
1.335999977867529
 30
0.0
 11
15.67604797733754
 21
3.345413612565779
 31
0.0
  0
LINE
  5
21B98
330
21B80
100
AcDbEntity
  8
0
  6
CONTINUOUS
100
AcDbLine
 10
13.86621509341442
 20
0.8620615195624723
 30
0.0
 11
15.27016212913838
 21
2.26600855528643
 31
0.0
  0
LINE
  5
21B99
330
21B80
100
AcDbEntity
  8
0
  6
CONTINUOUS
100
AcDbLine
 10
16.81682257348267
 20
4.486188208710908
 30
0.0
 11
17.79152830642806
 21
5.460893941656299
 31
0.0
  0
LINE
  5
21B9A
330
21B80
100
AcDbEntity
  8
0
  6
CONTINUOUS
100
AcDbLine
 10
17.00081260457561
 20
3.996659030723667
 30
0.0
 11
17.97555747749151
 21
4.971403903639565
 31
0.0
  0
LINE
  5
21B9B
330
21B80
100
AcDbEntity
  8
0
  6
CONTINUOUS
100
AcDbLine
 10
20.74362343514722
 20
8.412989070375462
 30
0.0
 11
21.09373436476302
 21
8.763099999991256
 31
0.0
  0
LINE
  5
21B9C
330
21B80
100
AcDbEntity
  8
0
  6
CONTINUOUS
100
AcDbLine
 10
20.25401257174777
 20
7.249858997895826
 30
0.0
 11
21.7672535738432
 21
8.763099999991255
 31
0.0
  0
LINE
  5
21B9D
330
21B80
100
AcDbEntity
  8
0
  6
CONTINUOUS
100
AcDbLine
 10
14.06579584418955
 20
0.3881230612574149
 30
0.0
 11
14.86427628093921
 21
1.186603498007082
 31
0.0
  0
LINE
  5
21B9E
330
21B80
100
AcDbEntity
  8
0
  6
CONTINUOUS
100
AcDbLine
 10
14.26537659496467
 20
-0.0858153970476412
 30
0.0
 11
14.45839043274005
 21
0.1071984407277329
 31
0.0
  0
LINE
  5
21B9F
330
21B80
100
AcDbEntity
  8
0
  6
CONTINUOUS
100
AcDbLine
 10
17.18480263566856
 20
3.507129852736426
 30
0.0
 11
18.15958664855496
 21
4.481913865622833
 31
0.0
  0
LINE
  5
21BA0
330
21B80
100
AcDbEntity
  8
0
  6
CONTINUOUS
100
AcDbLine
 10
17.3687926667615
 20
3.017600674749186
 30
0.0
 11
18.34361581961842
 21
3.9924238276061
 31
0.0
  0
LINE
  5
21BA1
330
21B80
100
AcDbEntity
  8
0
  6
CONTINUOUS
100
AcDbLine
 10
19.76440170834832
 20
6.086728925416191
 30
0.0
 11
22.33924590259489
 21
8.661573119662755
 31
0.0
  0
LINE
  5
21BA2
330
21B80
100
AcDbEntity
  8
0
  6
CONTINUOUS
100
AcDbLine
 10
19.27479084494887
 20
4.923598852936555
 30
0.0
 11
21.84929622842713
 21
7.498104236414807
 31
0.0
  0
LINE
  5
21BA3
330
21B80
100
AcDbEntity
  8
0
  6
CONTINUOUS
100
AcDbLine
 10
17.55278269785445
 20
2.528071496761945
 30
0.0
 11
18.52764499068187
 21
3.502933789589366
 31
0.0
  0
LINE
  5
21BA4
330
21B80
100
AcDbEntity
  8
0
  6
CONTINUOUS
100
AcDbLine
 10
18.78517998154942
 20
3.760468780456919
 30
0.0
 11
21.35934655425936
 21
6.33463535316686
 31
0.0
  0
LINE
  5
21BA5
330
21B80
100
AcDbEntity
  8
0
  6
CONTINUOUS
100
AcDbLine
 10
17.73677272894739
 20
2.038542318774704
 30
0.0
 11
20.8693968800916
 21
5.171166469918914
 31
0.0
  0
LINE
  5
21BA6
330
21B80
100
AcDbEntity
  8
0
  6
CONTINUOUS
100
AcDbLine
 10
17.92076276004034
 20
1.549013140787464
 30
0.0
 11
20.37944720592384
 21
4.007697586670968
 31
0.0
  0
LINE
  5
21BA7
330
21B80
100
AcDbEntity
  8
0
  6
CONTINUOUS
100
AcDbLine
 10
18.10475279113329
 20
1.059483962800223
 30
0.0
 11
19.88949753175608
 21
2.84422870342302
 31
0.0
  0
LINE
  5
21BA8
330
21B80
100
AcDbEntity
  8
0
  6
CONTINUOUS
100
AcDbLine
 10
18.28874282222623
 20
0.5699547848129822
 30
0.0
 11
19.39954785758832
 21
1.680759820175074
 31
0.0
  0
LINE
  5
21BA9
330
21B80
100
AcDbEntity
  8
0
  6
CONTINUOUS
100
AcDbLine
 10
18.47273285331918
 20
0.0804256068257416
 30
0.0
 11
18.90959818342056
 21
0.517290936927127
 31
0.0
  0
LINE
  5
21BAA
330
21B80
100
AcDbEntity
  8
0
  6
CONTINUOUS
100
AcDbLine
 10
14.3590401358224
 20
-0.1570118376323384
 30
0.0
 11
14.24903296539946
 21
-0.0470046672093929
 31
0.0
  0
LINE
  5
21BAB
330
21B80
100
AcDbEntity
  8
0
  6
CONTINUOUS
100
AcDbLine
 10
14.54309291258661
 20
0.332454594683643
 30
0.0
 11
13.75908329123172
 21
1.116464216038529
 31
0.0
  0
LINE
  5
21BAC
330
21B80
100
AcDbEntity
  8
0
  6
CONTINUOUS
100
AcDbLine
 10
14.72714568935081
 20
0.8219210269996244
 30
0.0
 11
13.26913361706399
 21
2.27993309928645
 31
0.0
  0
LINE
  5
21BAD
330
21B80
100
AcDbEntity
  8
0
  6
CONTINUOUS
100
AcDbLine
 10
14.91119846611502
 20
1.311387459315606
 30
0.0
 11
12.77918394289625
 21
3.443401982534371
 31
0.0
  0
LINE
  5
21BAE
330
21B80
100
AcDbEntity
  8
0
  6
CONTINUOUS
100
AcDbLine
 10
15.09525124287922
 20
1.800853891631587
 30
0.0
 11
12.28923426872852
 21
4.606870865782293
 31
0.0
  0
LINE
  5
21BAF
330
21B80
100
AcDbEntity
  8
0
  6
CONTINUOUS
100
AcDbLine
 10
15.27930401964343
 20
2.290320323947569
 30
0.0
 11
11.79928459456078
 21
5.770339749030213
 31
0.0
  0
LINE
  5
21BB0
330
21B80
100
AcDbEntity
  8
0
  6
CONTINUOUS
100
AcDbLine
 10
15.46335679640763
 20
2.77978675626355
 30
0.0
 11
14.48885470994921
 21
3.754288842721972
 31
0.0
  0
LINE
  5
21BB1
330
21B80
100
AcDbEntity
  8
0
  6
CONTINUOUS
100
AcDbLine
 10
13.88507249233704
 20
4.358071060334137
 30
0.0
 11
11.30933492039305
 21
6.933808632278135
 31
0.0
  0
LINE
  5
21BB2
330
21B80
100
AcDbEntity
  8
0
  6
CONTINUOUS
100
AcDbLine
 10
18.75840522805855
 20
0.1582575336928151
 30
0.0
 11
18.25383727664818
 21
0.6628254851031863
 31
0.0
  0
LINE
  5
21BB3
330
21B80
100
AcDbEntity
  8
0
  6
CONTINUOUS
100
AcDbLine
 10
15.64740957317184
 20
3.269253188579531
 30
0.0
 11
14.67288388101266
 21
4.243778880738705
 31
0.0
  0
LINE
  5
21BB4
330
21B80
100
AcDbEntity
  8
0
  6
CONTINUOUS
100
AcDbLine
 10
13.39509276772158
 20
5.521569994029786
 30
0.0
 11
10.81938524622531
 21
8.097277515526056
 31
0.0
  0
LINE
  5
21BB5
330
21B80
100
AcDbEntity
  8
0
  6
CONTINUOUS
100
AcDbLine
 10
18.95798597883369
 20
0.6321959919978686
 30
0.0
 11
17.84825644852853
 21
1.741925522303024
 31
0.0
  0
LINE
  5
21BB6
330
21B80
100
AcDbEntity
  8
0
  6
CONTINUOUS
100
AcDbLine
 10
19.15756672960882
 20
1.106134450302922
 30
0.0
 11
17.44267562040888
 21
2.821025559502861
 31
0.0
  0
LINE
  5
21BB7
330
21B80
100
AcDbEntity
  8
0
  6
CONTINUOUS
100
AcDbLine
 10
15.83146234993604
 20
3.758719620895513
 30
0.0
 11
14.85691305207612
 21
4.733268918755439
 31
0.0
  0
LINE
  5
21BB8
330
21B80
100
AcDbEntity
  8
0
  6
CONTINUOUS
100
AcDbLine
 10
16.01551512670025
 20
4.248186053211494
 30
0.0
 11
15.04094222313957
 21
5.222758956772172
 31
0.0
  0
LINE
  5
21BB9
330
21B80
100
AcDbEntity
  8
0
  6
CONTINUOUS
100
AcDbLine
 10
12.90511304310612
 20
6.685068927725435
 30
0.0
 11
10.8270819708403
 21
8.763099999991255
 31
0.0
  0
LINE
  5
21BBA
330
21B80
100
AcDbEntity
  8
0
  6
CONTINUOUS
100
AcDbLine
 10
12.41513331849066
 20
7.848567861421083
 30
0.0
 11
11.50060117992049
 21
8.763099999991255
 31
0.0
  0
LINE
  5
21BBB
330
21B80
100
AcDbEntity
  8
0
  6
CONTINUOUS
100
AcDbLine
 10
19.35714748038395
 20
1.580072908607975
 30
0.0
 11
17.03709479228923
 21
3.900125596702697
 31
0.0
  0
LINE
  5
21BBC
330
21B80
100
AcDbEntity
  8
0
  6
CONTINUOUS
100
AcDbLine
 10
19.55672823115909
 20
2.054011366913028
 30
0.0
 11
16.63151396416958
 21
4.979225633902534
 31
0.0
  0
LINE
  5
21BBD
330
21B80
100
AcDbEntity
  8
0
  6
CONTINUOUS
100
AcDbLine
 10
16.19956790346445
 20
4.737652485527476
 30
0.0
 11
15.22497139420302
 21
5.712248994788904
 31
0.0
  0
LINE
  5
21BBE
330
21B80
100
AcDbEntity
  8
0
  6
CONTINUOUS
100
AcDbLine
 10
16.38362068022866
 20
5.227118917843457
 30
0.0
 11
15.40900056526648
 21
6.201739032805637
 31
0.0
  0
LINE
  5
21BBF
330
21B80
100
AcDbEntity
  8
0
  6
CONTINUOUS
100
AcDbLine
 10
19.75630898193422
 20
2.527949825218081
 30
0.0
 11
18.70774536448286
 21
3.576513442669441
 31
0.0
  0
LINE
  5
21BC0
330
21B80
100
AcDbEntity
  8
0
  6
CONTINUOUS
100
AcDbLine
 10
19.95588973270936
 20
3.001888283523134
 30
0.0
 11
18.90726987211446
 21
4.050508144118028
 31
0.0
  0
LINE
  5
21BC1
330
21B80
100
AcDbEntity
  8
0
  6
CONTINUOUS
100
AcDbLine
 10
20.15547048348449
 20
3.475826741828186
 30
0.0
 11
19.10679437974606
 21
4.524502845566614
 31
0.0
  0
LINE
  5
21BC2
330
21B80
100
AcDbEntity
  8
0
  6
CONTINUOUS
100
AcDbLine
 10
20.35505123425962
 20
3.94976520013324
 30
0.0
 11
19.30631888737766
 21
4.998497547015201
 31
0.0
  0
LINE
  5
21BC3
330
21B80
100
AcDbEntity
  8
0
  6
CONTINUOUS
100
AcDbLine
 10
20.55463198503475
 20
4.423703658438292
 30
0.0
 11
19.50584339500926
 21
5.472492248463787
 31
0.0
  0
LINE
  5
21BC4
330
21B80
100
AcDbEntity
  8
0
  6
CONTINUOUS
100
AcDbLine
 10
18.37481191085755
 20
3.909446896294752
 30
0.0
 11
15.59302973632993
 21
6.691229070822371
 31
0.0
  0
LINE
  5
21BC5
330
21B80
100
AcDbEntity
  8
0
  6
CONTINUOUS
100
AcDbLine
 10
17.96904084440766
 20
4.988737171824825
 30
0.0
 11
15.77705890739338
 21
7.180719108839104
 31
0.0
  0
LINE
  5
21BC6
330
21B80
100
AcDbEntity
  8
0
  6
CONTINUOUS
100
AcDbLine
 10
17.56326977795777
 20
6.068027447354899
 30
0.0
 11
15.96108807845684
 21
7.670209146855838
 31
0.0
  0
LINE
  5
21BC7
330
21B80
100
AcDbEntity
  8
0
  6
CONTINUOUS
100
AcDbLine
 10
17.15749871150789
 20
7.147317722884972
 30
0.0
 11
16.14511724952029
 21
8.15969918487257
 31
0.0
  0
LINE
  5
21BC8
330
21B80
100
AcDbEntity
  8
0
  6
CONTINUOUS
100
AcDbLine
 10
16.751727645058
 20
8.226607998415046
 30
0.0
 11
16.32914642058374
 21
8.649189222889303
 31
0.0
  0
LINE
  5
21BC9
330
21B80
100
AcDbEntity
  8
0
  6
CONTINUOUS
100
AcDbLine
 10
20.75421273580989
 20
4.897642116743345
 30
0.0
 11
19.70536790264086
 21
5.946486949912374
 31
0.0
  0
LINE
  5
21BCA
330
21B80
100
AcDbEntity
  8
0
  6
CONTINUOUS
100
AcDbLine
 10
20.95379348658502
 20
5.371580575048398
 30
0.0
 11
19.90489241027246
 21
6.42048165136096
 31
0.0
  0
LINE
  5
21BCB
330
21B80
100
AcDbEntity
  8
0
  6
CONTINUOUS
100
AcDbLine
 10
21.15337423736015
 20
5.845519033353452
 30
0.0
 11
20.10441691790406
 21
6.894476352809547
 31
0.0
  0
LINE
  5
21BCC
330
21B80
100
AcDbEntity
  8
0
  6
CONTINUOUS
100
AcDbLine
 10
21.35295498813529
 20
6.319457491658505
 30
0.0
 11
20.30394142553566
 21
7.368471054258134
 31
0.0
  0
LINE
  5
21BCD
330
21B80
100
AcDbEntity
  8
0
  6
CONTINUOUS
100
AcDbLine
 10
21.55253573891042
 20
6.793395949963558
 30
0.0
 11
20.50346593316726
 21
7.842465755706721
 31
0.0
  0
LINE
  5
21BCE
330
21B80
100
AcDbEntity
  8
0
  6
CONTINUOUS
100
AcDbLine
 10
21.75211648968556
 20
7.267334408268612
 30
0.0
 11
20.70299044079886
 21
8.316460457155308
 31
0.0
  0
LINE
  5
21BCF
330
21B80
100
AcDbEntity
  8
0
  6
CONTINUOUS
100
AcDbLine
 10
21.95169724046069
 20
7.741272866573663
 30
0.0
 11
20.9298701070431
 21
8.763099999991256
 31
0.0
  0
LINE
  5
21BD0
330
21B80
100
AcDbEntity
  8
0
  6
CONTINUOUS
100
AcDbLine
 10
22.15127799123582
 20
8.215211324878716
 30
0.0
 11
21.60338931612328
 21
8.763099999991256
 31
0.0
  0
LINE
  5
21BD1
330
21B80
100
AcDbEntity
  8
0
  6
CONTINUOUS
100
AcDbLine
 10
22.35085874201096
 20
8.689149783183769
 30
0.0
 11
22.27690852520347
 21
8.763099999991255
 31
0.0
  0
ENDBLK
  5
21CC3
330
21B80
100
AcDbEntity
  8
0
100
AcDbBlockEnd
  0
BLOCK
  5
21CC4
330
21BD2
100
AcDbEntity
  8
0
100
AcDbBlockBegin
  2
*X53
 70
     1
 10
0.0
 20
0.0
 30
0.0
  3
*X53
  1

  0
LINE
  5
21BD3
330
21BD2
100
AcDbEntity
  8
0
  6
CONTINUOUS
100
AcDbLine
 10
23.19462913593892
 20
8.169917934846424
 30
0.0
 11
23.70775465517246
 21
8.683043454079957
 31
0.0
  0
LINE
  5
21BD4
330
21BD2
100
AcDbEntity
  8
0
  6
CONTINUOUS
100
AcDbLine
 10
22.64923161835078
 20
6.951001208178088
 30
0.0
 11
23.9159364069932
 21
8.217705996820516
 31
0.0
  0
LINE
  5
21BD5
330
21BD2
100
AcDbEntity
  8
0
  6
CONTINUOUS
100
AcDbLine
 10
22.10383410076263
 20
5.732084481509751
 30
0.0
 11
24.12411815881395
 21
7.752368539561078
 31
0.0
  0
LINE
  5
21BD6
330
21BD2
100
AcDbEntity
  8
0
  6
CONTINUOUS
100
AcDbLine
 10
21.55843658317447
 20
4.513167754841414
 30
0.0
 11
24.3322999106347
 21
7.287031082301639
 31
0.0
  0
LINE
  5
21BD7
330
21BD2
100
AcDbEntity
  8
0
  6
CONTINUOUS
100
AcDbLine
 10
21.01303906558632
 20
3.294251028173077
 30
0.0
 11
24.54048166245544
 21
6.821693625042199
 31
0.0
  0
LINE
  5
21BD8
330
21BD2
100
AcDbEntity
  8
0
  6
CONTINUOUS
100
AcDbLine
 10
20.46764154799817
 20
2.075334301504738
 30
0.0
 11
23.28571549467848
 21
4.89340824818505
 31
0.0
  0
LINE
  5
21BD9
330
21BD2
100
AcDbEntity
  8
0
  6
CONTINUOUS
100
AcDbLine
 10
19.92224403041002
 20
0.8564175748364002
 30
0.0
 11
22.74075865492779
 21
3.674932199354171
 31
0.0
  0
LINE
  5
21BDA
330
21BD2
100
AcDbEntity
  8
0
  6
CONTINUOUS
100
AcDbLine
 10
23.67305085490148
 20
5.280743608408048
 30
0.0
 11
24.74866341427619
 21
6.356356167782759
 31
0.0
  0
LINE
  5
21BDB
330
21BD2
100
AcDbEntity
  8
0
  6
CONTINUOUS
100
AcDbLine
 10
23.88118970842314
 20
4.815363252849522
 30
0.0
 11
24.95684516609694
 21
5.89101871052332
 31
0.0
  0
LINE
  5
21BDC
330
21BD2
100
AcDbEntity
  8
0
  6
CONTINUOUS
100
AcDbLine
 10
19.73925852647308
 20
-0.0000871381807288
 30
0.0
 11
23.4103456646501
 21
3.670999999996297
 31
0.0
  0
LINE
  5
21BDD
330
21BD2
100
AcDbEntity
  8
0
  6
CONTINUOUS
100
AcDbLine
 10
24.0893285619448
 20
4.349982897290997
 30
0.0
 11
25.16502691791769
 21
5.42568125326388
 31
0.0
  0
LINE
  5
21BDE
330
21BD2
100
AcDbEntity
  8
0
  6
CONTINUOUS
100
AcDbLine
 10
20.41282099582748
 20
-0.0000438779065108
 30
0.0
 11
21.64944178675636
 21
1.236576913022366
 31
0.0
  0
LINE
  5
21BDF
330
21BD2
100
AcDbEntity
  8
0
  6
CONTINUOUS
100
AcDbLine
 10
22.78126487373161
 20
2.36839999999762
 30
0.0
 11
24.08386487373029
 21
3.670999999996297
 31
0.0
  0
LINE
  5
21BE0
330
21BD2
100
AcDbEntity
  8
0
  6
CONTINUOUS
100
AcDbLine
 10
24.29746741546646
 20
3.884602541732471
 30
0.0
 11
25.37320866973843
 21
4.960343796004441
 31
0.0
  0
LINE
  5
21BE1
330
21BD2
100
AcDbEntity
  8
0
  6
CONTINUOUS
100
AcDbLine
 10
21.08638346518189
 20
-0.0000006176322938
 30
0.0
 11
21.10379033335899
 21
0.0174062505448083
 31
0.0
  0
LINE
  5
21BE2
330
21BD2
100
AcDbEntity
  8
0
  6
CONTINUOUS
100
AcDbLine
 10
23.4547840828118
 20
2.36839999999762
 30
0.0
 11
25.58139042155918
 21
4.495006338745002
 31
0.0
  0
LINE
  5
21BE3
330
21BD2
100
AcDbEntity
  8
0
  6
CONTINUOUS
100
AcDbLine
 10
29.30199999996933
 20
8.215615917155148
 30
0.0
 11
29.84948408280543
 21
8.763099999991255
 31
0.0
  0
LINE
  5
21BE4
330
21BD2
100
AcDbEntity
  8
0
  6
CONTINUOUS
100
AcDbLine
 10
24.12830329189199
 20
2.36839999999762
 30
0.0
 11
25.78957217337993
 21
4.029668881485562
 31
0.0
  0
LINE
  5
21BE5
330
21BD2
100
AcDbEntity
  8
0
  6
CONTINUOUS
100
AcDbLine
 10
29.30199999996933
 20
7.54209670807496
 30
0.0
 11
30.52300329188562
 21
8.763099999991255
 31
0.0
  0
LINE
  5
21BE6
330
21BD2
100
AcDbEntity
  8
0
  6
CONTINUOUS
100
AcDbLine
 10
24.80182250097217
 20
2.36839999999762
 30
0.0
 11
25.99775392520067
 21
3.564331424226122
 31
0.0
  0
LINE
  5
21BE7
330
21BD2
100
AcDbEntity
  8
0
  6
CONTINUOUS
100
AcDbLine
 10
29.30199999996933
 20
6.868577498994774
 30
0.0
 11
30.74199999996926
 21
8.308577498994712
 31
0.0
  0
LINE
  5
21BE8
330
21BD2
100
AcDbEntity
  8
0
  6
CONTINUOUS
100
AcDbLine
 10
25.13028238392013
 20
2.023340673865392
 30
0.0
 11
26.20593567702142
 21
3.098993966966683
 31
0.0
  0
LINE
  5
21BE9
330
21BD2
100
AcDbEntity
  8
0
  6
CONTINUOUS
100
AcDbLine
 10
25.33838066033617
 20
1.557919741201244
 30
0.0
 11
26.41411742884217
 21
2.633656509707244
 31
0.0
  0
LINE
  5
21BEA
330
21BD2
100
AcDbEntity
  8
0
  6
CONTINUOUS
100
AcDbLine
 10
25.54647893675221
 20
1.092498808537098
 30
0.0
 11
26.62229918066291
 21
2.168319052447804
 31
0.0
  0
LINE
  5
21BEB
330
21BD2
100
AcDbEntity
  8
0
  6
CONTINUOUS
100
AcDbLine
 10
25.75457721316825
 20
0.62707787587295
 30
0.0
 11
26.83048093248366
 21
1.702981595188365
 31
0.0
  0
LINE
  5
21BEC
330
21BD2
100
AcDbEntity
  8
0
  6
CONTINUOUS
100
AcDbLine
 10
29.30199999996933
 20
6.195058289914587
 30
0.0
 11
30.74199999996926
 21
7.635058289914522
 31
0.0
  0
LINE
  5
21BED
330
21BD2
100
AcDbEntity
  8
0
  6
CONTINUOUS
100
AcDbLine
 10
29.30199999996933
 20
5.521539080834401
 30
0.0
 11
30.74199999996926
 21
6.961539080834331
 31
0.0
  0
LINE
  5
21BEE
330
21BD2
100
AcDbEntity
  8
0
  6
CONTINUOUS
100
AcDbLine
 10
29.30199999996933
 20
4.848019871754214
 30
0.0
 11
30.74199999996925
 21
6.288019871754143
 31
0.0
  0
LINE
  5
21BEF
330
21BD2
100
AcDbEntity
  8
0
  6
CONTINUOUS
100
AcDbLine
 10
29.30199999996933
 20
4.174500662674028
 30
0.0
 11
30.74199999996925
 21
5.614500662673953
 31
0.0
  0
LINE
  5
21BF0
330
21BD2
100
AcDbEntity
  8
0
  6
CONTINUOUS
100
AcDbLine
 10
25.96267548958429
 20
0.1616569432088024
 30
0.0
 11
27.18411854636669
 21
1.383099999991207
 31
0.0
  0
LINE
  5
21BF1
330
21BD2
100
AcDbEntity
  8
0
  6
CONTINUOUS
100
AcDbLine
 10
29.30199999996933
 20
3.500981453593841
 30
0.0
 11
30.74199999996925
 21
4.940981453593762
 31
0.0
  0
LINE
  5
21BF2
330
21BD2
100
AcDbEntity
  8
0
  6
CONTINUOUS
100
AcDbLine
 10
26.50763775544691
 20
0.0330999999912356
 30
0.0
 11
27.85763775544689
 21
1.383099999991223
 31
0.0
  0
LINE
  5
21BF3
330
21BD2
100
AcDbEntity
  8
0
  6
CONTINUOUS
100
AcDbLine
 10
29.30199999996933
 20
2.827462244513656
 30
0.0
 11
30.74199999996925
 21
4.267462244513574
 31
0.0
  0
LINE
  5
21BF4
330
21BD2
100
AcDbEntity
  8
0
  6
CONTINUOUS
100
AcDbLine
 10
27.18115696452709
 20
0.0330999999912356
 30
0.0
 11
28.55073879889363
 21
1.402681834357775
 31
0.0
  0
LINE
  5
21BF5
330
21BD2
100
AcDbEntity
  8
0
  6
CONTINUOUS
100
AcDbLine
 10
29.28241816560272
 20
2.134361201066866
 30
0.0
 11
30.74199999996924
 21
3.593943035433383
 31
0.0
  0
LINE
  5
21BF6
330
21BD2
100
AcDbEntity
  8
0
  6
CONTINUOUS
100
AcDbLine
 10
27.85467617360728
 20
0.0330999999912356
 30
0.0
 11
30.74199999996924
 21
2.920423826353195
 31
0.0
  0
LINE
  5
21BF7
330
21BD2
100
AcDbEntity
  8
0
  6
CONTINUOUS
100
AcDbLine
 10
28.53897559587887
 20
0.0438802131826428
 30
0.0
 11
30.73121978677781
 21
2.236124404081585
 31
0.0
  0
LINE
  5
21BF8
330
21BD2
100
AcDbEntity
  8
0
  6
CONTINUOUS
100
AcDbLine
 10
29.45140055588722
 20
0.2827859641107988
 30
0.0
 11
30.49231403584965
 21
1.323699444073236
 31
0.0
  0
LINE
  5
21BF9
330
21BD2
100
AcDbEntity
  8
0
  6
CONTINUOUS
100
AcDbLine
 10
19.59027867740337
 20
-0.0000967065718083
 30
0.0
 11
19.55485265190471
 21
0.035329318926844
 31
0.0
  0
LINE
  5
21BFA
330
21BD2
100
AcDbEntity
  8
0
  6
CONTINUOUS
100
AcDbLine
 10
20.26375463176586
 20
-0.0000534518541091
 30
0.0
 11
19.76305575737534
 21
0.5006454225364014
 31
0.0
  0
LINE
  5
21BFB
330
21BD2
100
AcDbEntity
  8
0
  6
CONTINUOUS
100
AcDbLine
 10
20.93723058612834
 20
-0.0000101971364099
 30
0.0
 11
19.97125886284597
 21
0.965961526145958
 31
0.0
  0
LINE
  5
21BFC
330
21BD2
100
AcDbEntity
  8
0
  6
CONTINUOUS
100
AcDbLine
 10
21.25514828313686
 20
0.355591314935257
 30
0.0
 11
20.1794619683166
 21
1.431277629755512
 31
0.0
  0
LINE
  5
21BFD
330
21BD2
100
AcDbEntity
  8
0
  6
CONTINUOUS
100
AcDbLine
 10
21.46338838394921
 20
0.8208704232030986
 30
0.0
 11
20.38766507378723
 21
1.896593733365069
 31
0.0
  0
LINE
  5
21BFE
330
21BD2
100
AcDbEntity
  8
0
  6
CONTINUOUS
100
AcDbLine
 10
21.67162848476155
 20
1.28614953147094
 30
0.0
 11
20.59586817925786
 21
2.361909836974626
 31
0.0
  0
LINE
  5
21BFF
330
21BD2
100
AcDbEntity
  8
0
  6
CONTINUOUS
100
AcDbLine
 10
21.8798685855739
 20
1.751428639738782
 30
0.0
 11
20.80407128472849
 21
2.827225940584183
 31
0.0
  0
LINE
  5
21C00
330
21BD2
100
AcDbEntity
  8
0
  6
CONTINUOUS
100
AcDbLine
 10
22.08810868638624
 20
2.216707748006623
 30
0.0
 11
21.01227439019912
 21
3.292542044193739
 31
0.0
  0
LINE
  5
21C01
330
21BD2
100
AcDbEntity
  8
0
  6
CONTINUOUS
100
AcDbLine
 10
22.60993564347543
 20
2.36839999999762
 30
0.0
 11
21.22047749566975
 21
3.757858147803296
 31
0.0
  0
LINE
  5
21C02
330
21BD2
100
AcDbEntity
  8
0
  6
CONTINUOUS
100
AcDbLine
 10
23.28345485255561
 20
2.36839999999762
 30
0.0
 11
21.42868060114038
 21
4.223174251412853
 31
0.0
  0
LINE
  5
21C03
330
21BD2
100
AcDbEntity
  8
0
  6
CONTINUOUS
100
AcDbLine
 10
26.29227406164219
 20
0.0330999999912356
 30
0.0
 11
25.80009199592872
 21
0.5252820657046957
 31
0.0
  0
LINE
  5
21C04
330
21BD2
100
AcDbEntity
  8
0
  6
CONTINUOUS
100
AcDbLine
 10
23.9569740616358
 20
2.36839999999762
 30
0.0
 11
21.63688370661101
 21
4.688490355022409
 31
0.0
  0
LINE
  5
21C05
330
21BD2
100
AcDbEntity
  8
0
  6
CONTINUOUS
100
AcDbLine
 10
26.96579327072237
 20
0.0330999999912356
 30
0.0
 11
25.2554132311971
 21
1.743480039516508
 31
0.0
  0
LINE
  5
21C06
330
21BD2
100
AcDbEntity
  8
0
  6
CONTINUOUS
100
AcDbLine
 10
24.63049327071599
 20
2.36839999999762
 30
0.0
 11
23.32789327071731
 21
3.670999999996297
 31
0.0
  0
LINE
  5
21C07
330
21BD2
100
AcDbEntity
  8
0
  6
CONTINUOUS
100
AcDbLine
 10
22.92098674744635
 20
4.077906523267254
 30
0.0
 11
21.84508681208164
 21
5.153806458631966
 31
0.0
  0
LINE
  5
21C08
330
21BD2
100
AcDbEntity
  8
0
  6
CONTINUOUS
100
AcDbLine
 10
27.63931247980256
 20
0.0330999999912356
 30
0.0
 11
24.0014124797975
 21
3.670999999996297
 31
0.0
  0
LINE
  5
21C09
330
21BD2
100
AcDbEntity
  8
0
  6
CONTINUOUS
100
AcDbLine
 10
23.129125600968
 20
4.5432868788258
 30
0.0
 11
22.05328991755227
 21
5.619122562241522
 31
0.0
  0
LINE
  5
21C0A
330
21BD2
100
AcDbEntity
  8
0
  6
CONTINUOUS
100
AcDbLine
 10
28.31283168888275
 20
0.0330999999912356
 30
0.0
 11
24.16488385994816
 21
4.181047828925828
 31
0.0
  0
LINE
  5
21C0B
330
21BD2
100
AcDbEntity
  8
0
  6
CONTINUOUS
100
AcDbLine
 10
23.33726445448964
 20
5.008667234384345
 30
0.0
 11
22.2614930230229
 21
6.084438665851079
 31
0.0
  0
LINE
  5
21C0C
330
21BD2
100
AcDbEntity
  8
0
  6
CONTINUOUS
100
AcDbLine
 10
28.92085740005492
 20
0.0985934978992438
 30
0.0
 11
27.63635089796295
 21
1.383099999991217
 31
0.0
  0
LINE
  5
21C0D
330
21BD2
100
AcDbEntity
  8
0
  6
CONTINUOUS
100
AcDbLine
 10
26.43704649509776
 20
2.582404402856405
 30
0.0
 11
23.61992702019732
 21
5.399523877756844
 31
0.0
  0
LINE
  5
21C0E
330
21BD2
100
AcDbEntity
  8
0
  6
CONTINUOUS
100
AcDbLine
 10
23.54540330801128
 20
5.47404758994289
 30
0.0
 11
22.46969612849353
 21
6.549754769460635
 31
0.0
  0
LINE
  5
21C0F
330
21BD2
100
AcDbEntity
  8
0
  6
CONTINUOUS
100
AcDbLine
 10
29.42225615078443
 20
0.2707139562499279
 30
0.0
 11
28.30987010704312
 21
1.383099999991234
 31
0.0
  0
LINE
  5
21C10
330
21BD2
100
AcDbEntity
  8
0
  6
CONTINUOUS
100
AcDbLine
 10
25.89179548232307
 20
3.801174624711282
 30
0.0
 11
22.67789923396416
 21
7.015070873070191
 31
0.0
  0
LINE
  5
21C11
330
21BD2
100
AcDbEntity
  8
0
  6
CONTINUOUS
100
AcDbLine
 10
29.83624534690007
 20
0.5302439692144705
 30
0.0
 11
28.85811781497101
 21
1.508371501143527
 31
0.0
  0
LINE
  5
21C12
330
21BD2
100
AcDbEntity
  8
0
  6
CONTINUOUS
100
AcDbLine
 10
25.34654446954838
 20
5.01994484656616
 30
0.0
 11
22.88610233943479
 21
7.480386976679748
 31
0.0
  0
LINE
  5
21C13
330
21BD2
100
AcDbEntity
  8
0
  6
CONTINUOUS
100
AcDbLine
 10
30.17865975401872
 20
0.8613487711760022
 30
0.0
 11
29.18888744090175
 21
1.851121084292977
 31
0.0
  0
LINE
  5
21C14
330
21BD2
100
AcDbEntity
  8
0
  6
CONTINUOUS
100
AcDbLine
 10
24.80129345677369
 20
6.238715068421037
 30
0.0
 11
23.09430544490542
 21
7.945703080289305
 31
0.0
  0
LINE
  5
21C15
330
21BD2
100
AcDbEntity
  8
0
  6
CONTINUOUS
100
AcDbLine
 10
30.45496647202376
 20
1.258561262251155
 30
0.0
 11
29.30199999996933
 21
2.411527734305588
 31
0.0
  0
LINE
  5
21C16
330
21BD2
100
AcDbEntity
  8
0
  6
CONTINUOUS
100
AcDbLine
 10
24.256042443999
 20
7.457485290275915
 30
0.0
 11
23.30250855037605
 21
8.411019183898862
 31
0.0
  0
LINE
  5
21C17
330
21BD2
100
AcDbEntity
  8
0
  6
CONTINUOUS
100
AcDbLine
 10
30.64868582078271
 20
1.738361122572387
 30
0.0
 11
29.30199999996933
 21
3.085046943385775
 31
0.0
  0
LINE
  5
21C18
330
21BD2
100
AcDbEntity
  8
0
  6
CONTINUOUS
100
AcDbLine
 10
23.71079143122431
 20
8.676255512130794
 30
0.0
 11
23.51071165584668
 21
8.876335287508416
 31
0.0
  0
LINE
  5
21C19
330
21BD2
100
AcDbEntity
  8
0
  6
CONTINUOUS
100
AcDbLine
 10
30.73802122914428
 20
2.322544923291007
 30
0.0
 11
29.30199999996933
 21
3.758566152465961
 31
0.0
  0
LINE
  5
21C1A
330
21BD2
100
AcDbEntity
  8
0
  6
CONTINUOUS
100
AcDbLine
 10
30.74199999996924
 20
2.992085361546236
 30
0.0
 11
29.30199999996933
 21
4.432085361546148
 31
0.0
  0
LINE
  5
21C1B
330
21BD2
100
AcDbEntity
  8
0
  6
CONTINUOUS
100
AcDbLine
 10
30.74199999996924
 20
3.665604570626419
 30
0.0
 11
29.30199999996933
 21
5.105604570626333
 31
0.0
  0
LINE
  5
21C1C
330
21BD2
100
AcDbEntity
  8
0
  6
CONTINUOUS
100
AcDbLine
 10
30.74199999996925
 20
4.339123779706602
 30
0.0
 11
29.30199999996933
 21
5.77912377970652
 31
0.0
  0
LINE
  5
21C1D
330
21BD2
100
AcDbEntity
  8
0
  6
CONTINUOUS
100
AcDbLine
 10
30.74199999996925
 20
5.012642988786785
 30
0.0
 11
29.30199999996933
 21
6.452642988786707
 31
0.0
  0
LINE
  5
21C1E
330
21BD2
100
AcDbEntity
  8
0
  6
CONTINUOUS
100
AcDbLine
 10
30.74199999996925
 20
5.68616219786697
 30
0.0
 11
29.30199999996933
 21
7.126162197866894
 31
0.0
  0
LINE
  5
21C1F
330
21BD2
100
AcDbEntity
  8
0
  6
CONTINUOUS
100
AcDbLine
 10
30.74199999996925
 20
6.359681406947153
 30
0.0
 11
29.30199999996933
 21
7.799681406947081
 31
0.0
  0
LINE
  5
21C20
330
21BD2
100
AcDbEntity
  8
0
  6
CONTINUOUS
100
AcDbLine
 10
30.74199999996926
 20
7.033200616027337
 30
0.0
 11
29.30199999996933
 21
8.473200616027269
 31
0.0
  0
LINE
  5
21C21
330
21BD2
100
AcDbEntity
  8
0
  6
CONTINUOUS
100
AcDbLine
 10
30.74199999996926
 20
7.706719825107518
 30
0.0
 11
29.68561982508552
 21
8.763099999991255
 31
0.0
  0
LINE
  5
21C22
330
21BD2
100
AcDbEntity
  8
0
  6
CONTINUOUS
100
AcDbLine
 10
30.74199999996926
 20
8.380239034187703
 30
0.0
 11
30.35913903416571
 21
8.763099999991255
 31
0.0
  0
ENDBLK
  5
21CC5
330
21BD2
100
AcDbEntity
  8
0
100
AcDbBlockEnd
  0
BLOCK
  5
21CC6
330
21C23
100
AcDbEntity
  8
0
100
AcDbBlockBegin
  2
*X54
 70
     1
 10
0.0
 20
0.0
 30
0.0
  3
*X54
  1

  0
LINE
  5
21C24
330
21C23
100
AcDbEntity
  8
0
  6
CONTINUOUS
100
AcDbLine
 10
31.64199999996833
 20
8.535058289913598
 30
0.0
 11
31.87004171004599
 21
8.763099999991255
 31
0.0
  0
LINE
  5
21C25
330
21C23
100
AcDbEntity
  8
0
  6
CONTINUOUS
100
AcDbLine
 10
31.64199999996833
 20
7.861539080833412
 30
0.0
 11
32.54356091912618
 21
8.763099999991255
 31
0.0
  0
LINE
  5
21C26
330
21C23
100
AcDbEntity
  8
0
  6
CONTINUOUS
100
AcDbLine
 10
31.64199999996833
 20
7.188019871753226
 30
0.0
 11
33.08199999996839
 21
8.628019871753281
 31
0.0
  0
LINE
  5
21C27
330
21C23
100
AcDbEntity
  8
0
  6
CONTINUOUS
100
AcDbLine
 10
31.64199999996833
 20
6.51450066267304
 30
0.0
 11
33.08199999996839
 21
7.954500662673095
 31
0.0
  0
LINE
  5
21C28
330
21C23
100
AcDbEntity
  8
0
  6
CONTINUOUS
100
AcDbLine
 10
31.64199999996833
 20
5.840981453592853
 30
0.0
 11
33.08199999996839
 21
7.280981453592908
 31
0.0
  0
LINE
  5
21C29
330
21C23
100
AcDbEntity
  8
0
  6
CONTINUOUS
100
AcDbLine
 10
31.64199999996833
 20
5.167462244512667
 30
0.0
 11
33.08199999996839
 21
6.607462244512721
 31
0.0
  0
LINE
  5
21C2A
330
21C23
100
AcDbEntity
  8
0
  6
CONTINUOUS
100
AcDbLine
 10
31.64199999996833
 20
4.493943035432481
 30
0.0
 11
33.08199999996839
 21
5.933943035432535
 31
0.0
  0
LINE
  5
21C2B
330
21C23
100
AcDbEntity
  8
0
  6
CONTINUOUS
100
AcDbLine
 10
31.64199999996833
 20
3.820423826352293
 30
0.0
 11
33.08199999996839
 21
5.260423826352348
 31
0.0
  0
LINE
  5
21C2C
330
21C23
100
AcDbEntity
  8
0
  6
CONTINUOUS
100
AcDbLine
 10
31.64199999996833
 20
3.146904617272106
 30
0.0
 11
33.08199999996839
 21
4.586904617272161
 31
0.0
  0
LINE
  5
21C2D
330
21C23
100
AcDbEntity
  8
0
  6
CONTINUOUS
100
AcDbLine
 10
36.23199999996837
 20
8.410423826352325
 30
0.0
 11
36.5846761736073
 21
8.763099999991255
 31
0.0
  0
LINE
  5
21C2E
330
21C23
100
AcDbEntity
  8
0
  6
CONTINUOUS
100
AcDbLine
 10
36.23199999996837
 20
7.73690461727214
 30
0.0
 11
37.25819538268748
 21
8.763099999991255
 31
0.0
  0
LINE
  5
21C2F
330
21C23
100
AcDbEntity
  8
0
  6
CONTINUOUS
100
AcDbLine
 10
31.64257403601376
 20
2.473959444237348
 30
0.0
 11
33.08199999996839
 21
3.913385408191974
 31
0.0
  0
LINE
  5
21C30
330
21C23
100
AcDbEntity
  8
0
  6
CONTINUOUS
100
AcDbLine
 10
36.23199999996837
 20
7.063385408191953
 30
0.0
 11
37.67199999996831
 21
8.503385408191894
 31
0.0
  0
LINE
  5
21C31
330
21C23
100
AcDbEntity
  8
0
  6
CONTINUOUS
100
AcDbLine
 10
31.72013636841932
 20
1.87800256756272
 30
0.0
 11
33.08199999996839
 21
3.239866199111788
 31
0.0
  0
LINE
  5
21C32
330
21C23
100
AcDbEntity
  8
0
  6
CONTINUOUS
100
AcDbLine
 10
36.23199999996837
 20
6.389866199111767
 30
0.0
 11
37.67199999996831
 21
7.829866199111708
 31
0.0
  0
LINE
  5
21C33
330
21C23
100
AcDbEntity
  8
0
  6
CONTINUOUS
100
AcDbLine
 10
31.89042734314753
 20
1.374774333210744
 30
0.0
 11
33.08199999996839
 21
2.566346990031601
 31
0.0
  0
LINE
  5
21C34
330
21C23
100
AcDbEntity
  8
0
  6
CONTINUOUS
100
AcDbLine
 10
36.23199999996837
 20
5.71634699003158
 30
0.0
 11
37.67199999996831
 21
7.156346990031521
 31
0.0
  0
LINE
  5
21C35
330
21C23
100
AcDbEntity
  8
0
  6
CONTINUOUS
100
AcDbLine
 10
32.14210568064475
 20
0.952933461627778
 30
0.0
 11
33.18745552475986
 21
1.998283305742888
 31
0.0
  0
LINE
  5
21C36
330
21C23
100
AcDbEntity
  8
0
  6
CONTINUOUS
100
AcDbLine
 10
36.23199999996837
 20
5.042827780951393
 30
0.0
 11
37.67199999996831
 21
6.482827780951334
 31
0.0
  0
LINE
  5
21C37
330
21C23
100
AcDbEntity
  8
0
  6
CONTINUOUS
100
AcDbLine
 10
32.45820639400955
 20
0.5955149659123915
 30
0.0
 11
33.47242681921943
 21
1.60973539112227
 31
0.0
  0
LINE
  5
21C38
330
21C23
100
AcDbEntity
  8
0
  6
CONTINUOUS
100
AcDbLine
 10
36.23199999996837
 20
4.369308571871207
 30
0.0
 11
37.67199999996831
 21
5.809308571871147
 31
0.0
  0
LINE
  5
21C39
330
21C23
100
AcDbEntity
  8
0
  6
CONTINUOUS
100
AcDbLine
 10
32.83432456621412
 20
0.2981139290367771
 30
0.0
 11
33.89722476612215
 21
1.361014128944803
 31
0.0
  0
LINE
  5
21C3A
330
21C23
100
AcDbEntity
  8
0
  6
CONTINUOUS
100
AcDbLine
 10
36.23199999996837
 20
3.69578936279102
 30
0.0
 11
37.67199999996831
 21
5.135789362790962
 31
0.0
  0
LINE
  5
21C3B
330
21C23
100
AcDbEntity
  8
0
  6
CONTINUOUS
100
AcDbLine
 10
33.2711633111245
 20
0.0614334648669672
 30
0.0
 11
34.43247338014423
 21
1.222743533886696
 31
0.0
  0
LINE
  5
21C3C
330
21C23
100
AcDbEntity
  8
0
  6
CONTINUOUS
100
AcDbLine
 10
36.23199999996837
 20
3.022270153710834
 30
0.0
 11
37.67199999996831
 21
4.462270153710775
 31
0.0
  0
LINE
  5
21C3D
330
21C23
100
AcDbEntity
  8
0
  6
CONTINUOUS
100
AcDbLine
 10
33.76515245874577
 20
-0.1180965965919523
 30
0.0
 11
35.1587445516215
 21
1.27549549628378
 31
0.0
  0
LINE
  5
21C3E
330
21C23
100
AcDbEntity
  8
0
  6
CONTINUOUS
100
AcDbLine
 10
36.21639478609585
 20
2.333145730758136
 30
0.0
 11
37.67199999996831
 21
3.788750944630588
 31
0.0
  0
LINE
  5
21C3F
330
21C23
100
AcDbEntity
  8
0
  6
CONTINUOUS
100
AcDbLine
 10
34.34060583368432
 20
-0.2161624307335863
 30
0.0
 11
37.67199999996831
 21
3.115231735550401
 31
0.0
  0
LINE
  5
21C40
330
21C23
100
AcDbEntity
  8
0
  6
CONTINUOUS
100
AcDbLine
 10
35.01698193613905
 20
-0.2133055373590427
 30
0.0
 11
37.66876712070525
 21
2.438479647207154
 31
0.0
  0
LINE
  5
21C41
330
21C23
100
AcDbEntity
  8
0
  6
CONTINUOUS
100
AcDbLine
 10
35.90743367693304
 20
0.0036269943547609
 30
0.0
 11
37.51723902192366
 21
1.613432339345381
 31
0.0
  0
LINE
  5
21C42
330
21C23
100
AcDbEntity
  8
0
  6
CONTINUOUS
100
AcDbLine
 10
32.55309425579761
 20
0.5074718966376706
 30
0.0
 11
32.27784730925847
 21
0.7827188431768102
 31
0.0
  0
LINE
  5
21C43
330
21C23
100
AcDbEntity
  8
0
  6
CONTINUOUS
100
AcDbLine
 10
33.87496468909684
 20
-0.1408793275813673
 30
0.0
 11
31.67993083278052
 21
2.054154528734943
 31
0.0
  0
LINE
  5
21C44
330
21C23
100
AcDbEntity
  8
0
  6
CONTINUOUS
100
AcDbLine
 10
34.64362813207632
 20
-0.2360235614806649
 30
0.0
 11
31.64199999996833
 21
2.765604570627322
 31
0.0
  0
LINE
  5
21C45
330
21C23
100
AcDbEntity
  8
0
  6
CONTINUOUS
100
AcDbLine
 10
35.25801106796118
 20
-0.1768872882853429
 30
0.0
 11
31.64199999996833
 21
3.439123779707508
 31
0.0
  0
LINE
  5
21C46
330
21C23
100
AcDbEntity
  8
0
  6
CONTINUOUS
100
AcDbLine
 10
35.79065650332146
 20
-0.0360135145654361
 30
0.0
 11
34.54143210838231
 21
1.213210880373721
 31
0.0
  0
LINE
  5
21C47
330
21C23
100
AcDbEntity
  8
0
  6
CONTINUOUS
100
AcDbLine
 10
33.08199999996839
 20
2.67264298878764
 30
0.0
 11
31.64199999996833
 21
4.112642988787695
 31
0.0
  0
LINE
  5
21C48
330
21C23
100
AcDbEntity
  8
0
  6
CONTINUOUS
100
AcDbLine
 10
36.25975597779143
 20
0.1684062200447833
 30
0.0
 11
35.15395110240023
 21
1.274211095435983
 31
0.0
  0
LINE
  5
21C49
330
21C23
100
AcDbEntity
  8
0
  6
CONTINUOUS
100
AcDbLine
 10
33.08199999996839
 20
3.346162197867826
 30
0.0
 11
31.64199999996833
 21
4.786162197867881
 31
0.0
  0
LINE
  5
21C4A
330
21C23
100
AcDbEntity
  8
0
  6
CONTINUOUS
100
AcDbLine
 10
36.67226329638774
 20
0.4294181105286579
 30
0.0
 11
35.63766478748767
 21
1.464016619428737
 31
0.0
  0
LINE
  5
21C4B
330
21C23
100
AcDbEntity
  8
0
  6
CONTINUOUS
100
AcDbLine
 10
33.08199999996839
 20
4.019681406948012
 30
0.0
 11
31.64199999996833
 21
5.459681406948068
 31
0.0
  0
LINE
  5
21C4C
330
21C23
100
AcDbEntity
  8
0
  6
CONTINUOUS
100
AcDbLine
 10
37.01677749710036
 20
0.7584231188962329
 30
0.0
 11
35.99563422741351
 21
1.779566388583076
 31
0.0
  0
LINE
  5
21C4D
330
21C23
100
AcDbEntity
  8
0
  6
CONTINUOUS
100
AcDbLine
 10
33.08199999996839
 20
4.693200616028199
 30
0.0
 11
31.64199999996833
 21
6.133200616028255
 31
0.0
  0
LINE
  5
21C4E
330
21C23
100
AcDbEntity
  8
0
  6
CONTINUOUS
100
AcDbLine
 10
37.29859977568887
 20
1.1501200493879
 30
0.0
 11
36.20680593341555
 21
2.241913891661226
 31
0.0
  0
LINE
  5
21C4F
330
21C23
100
AcDbEntity
  8
0
  6
CONTINUOUS
100
AcDbLine
 10
33.08199999996839
 20
5.366719825108386
 30
0.0
 11
31.64199999996833
 21
6.80671982510844
 31
0.0
  0
LINE
  5
21C50
330
21C23
100
AcDbEntity
  8
0
  6
CONTINUOUS
100
AcDbLine
 10
37.5148623517228
 20
1.607376682434161
 30
0.0
 11
36.23199999996837
 21
2.890239034188594
 31
0.0
  0
LINE
  5
21C51
330
21C23
100
AcDbEntity
  8
0
  6
CONTINUOUS
100
AcDbLine
 10
33.08199999996839
 20
6.040239034188573
 30
0.0
 11
31.64199999996833
 21
7.480239034188627
 31
0.0
  0
LINE
  5
21C52
330
21C23
100
AcDbEntity
  8
0
  6
CONTINUOUS
100
AcDbLine
 10
37.64705163358367
 20
2.148706609653477
 30
0.0
 11
36.23199999996837
 21
3.56375824326878
 31
0.0
  0
LINE
  5
21C53
330
21C23
100
AcDbEntity
  8
0
  6
CONTINUOUS
100
AcDbLine
 10
33.08199999996839
 20
6.713758243268758
 30
0.0
 11
31.64199999996833
 21
8.153758243268815
 31
0.0
  0
LINE
  5
21C54
330
21C23
100
AcDbEntity
  8
0
  6
CONTINUOUS
100
AcDbLine
 10
37.67199999996831
 20
2.797277452349026
 30
0.0
 11
36.23199999996837
 21
4.237277452348967
 31
0.0
  0
LINE
  5
21C55
330
21C23
100
AcDbEntity
  8
0
  6
CONTINUOUS
100
AcDbLine
 10
37.67199999996831
 20
3.470796661429213
 30
0.0
 11
36.23199999996837
 21
4.910796661429154
 31
0.0
  0
LINE
  5
21C56
330
21C23
100
AcDbEntity
  8
0
  6
CONTINUOUS
100
AcDbLine
 10
37.67199999996831
 20
4.144315870509399
 30
0.0
 11
36.23199999996837
 21
5.58431587050934
 31
0.0
  0
LINE
  5
21C57
330
21C23
100
AcDbEntity
  8
0
  6
CONTINUOUS
100
AcDbLine
 10
33.08199999996839
 20
7.387277452348945
 30
0.0
 11
31.70617745232608
 21
8.763099999991255
 31
0.0
  0
LINE
  5
21C58
330
21C23
100
AcDbEntity
  8
0
  6
CONTINUOUS
100
AcDbLine
 10
33.08199999996839
 20
8.060796661429132
 30
0.0
 11
32.37969666140626
 21
8.763099999991255
 31
0.0
  0
LINE
  5
21C59
330
21C23
100
AcDbEntity
  8
0
  6
CONTINUOUS
100
AcDbLine
 10
33.08199999996839
 20
8.734315870509318
 30
0.0
 11
33.05321587048645
 21
8.763099999991255
 31
0.0
  0
LINE
  5
21C5A
330
21C23
100
AcDbEntity
  8
0
  6
CONTINUOUS
100
AcDbLine
 10
37.67199999996831
 20
4.817835079589585
 30
0.0
 11
36.23199999996837
 21
6.257835079589526
 31
0.0
  0
LINE
  5
21C5B
330
21C23
100
AcDbEntity
  8
0
  6
CONTINUOUS
100
AcDbLine
 10
37.67199999996831
 20
5.491354288669771
 30
0.0
 11
36.23199999996837
 21
6.931354288669713
 31
0.0
  0
LINE
  5
21C5C
330
21C23
100
AcDbEntity
  8
0
  6
CONTINUOUS
100
AcDbLine
 10
37.67199999996831
 20
6.164873497749958
 30
0.0
 11
36.23199999996837
 21
7.6048734977499
 31
0.0
  0
LINE
  5
21C5D
330
21C23
100
AcDbEntity
  8
0
  6
CONTINUOUS
100
AcDbLine
 10
37.67199999996831
 20
6.838392706830144
 30
0.0
 11
36.23199999996837
 21
8.278392706830086
 31
0.0
  0
LINE
  5
21C5E
330
21C23
100
AcDbEntity
  8
0
  6
CONTINUOUS
100
AcDbLine
 10
37.67199999996831
 20
7.511911915910332
 30
0.0
 11
36.42081191588738
 21
8.763099999991255
 31
0.0
  0
LINE
  5
21C5F
330
21C23
100
AcDbEntity
  8
0
  6
CONTINUOUS
100
AcDbLine
 10
37.67199999996831
 20
8.185431124990519
 30
0.0
 11
37.09433112496757
 21
8.763099999991255
 31
0.0
  0
ENDBLK
  5
21CC7
330
21C23
100
AcDbEntity
  8
0
100
AcDbBlockEnd
  0
BLOCK
  5
21CC8
330
21C60
100
AcDbEntity
  8
0
100
AcDbBlockBegin
  2
*X55
 70
     1
 10
0.0
 20
0.0
 30
0.0
  3
*X55
  1

  0
LINE
  5
21C61
330
21C60
100
AcDbEntity
  8
0
  6
CONTINUOUS
100
AcDbLine
 10
38.60499999996136
 20
8.762866199104765
 30
0.0
 11
38.71672554182345
 21
8.874591740966855
 31
0.0
  0
LINE
  5
21C62
330
21C60
100
AcDbEntity
  8
0
  6
CONTINUOUS
100
AcDbLine
 10
38.60499999996136
 20
8.089346990024577
 30
0.0
 11
39.03418785440363
 21
8.518534844466847
 31
0.0
  0
LINE
  5
21C63
330
21C60
100
AcDbEntity
  8
0
  6
CONTINUOUS
100
AcDbLine
 10
38.60499999996136
 20
7.41582778094439
 30
0.0
 11
39.35165016698382
 21
8.16247794796684
 31
0.0
  0
LINE
  5
21C64
330
21C60
100
AcDbEntity
  8
0
  6
CONTINUOUS
100
AcDbLine
 10
38.60499999996136
 20
6.742308571864204
 30
0.0
 11
39.66911247956399
 21
7.806421051466834
 31
0.0
  0
LINE
  5
21C65
330
21C60
100
AcDbEntity
  8
0
  6
CONTINUOUS
100
AcDbLine
 10
38.60499999996136
 20
6.068789362784018
 30
0.0
 11
39.98657479214418
 21
7.450364154966827
 31
0.0
  0
LINE
  5
21C66
330
21C60
100
AcDbEntity
  8
0
  6
CONTINUOUS
100
AcDbLine
 10
38.60499999996136
 20
5.395270153703832
 30
0.0
 11
40.30403710472435
 21
7.09430725846682
 31
0.0
  0
LINE
  5
21C67
330
21C60
100
AcDbEntity
  8
0
  6
CONTINUOUS
100
AcDbLine
 10
38.60499999996136
 20
4.721750944623645
 30
0.0
 11
40.62149941730453
 21
6.738250361966813
 31
0.0
  0
LINE
  5
21C68
330
21C60
100
AcDbEntity
  8
0
  6
CONTINUOUS
100
AcDbLine
 10
38.60499999996136
 20
4.048231735543458
 30
0.0
 11
40.93896172988471
 21
6.382193465466806
 31
0.0
  0
LINE
  5
21C69
330
21C60
100
AcDbEntity
  8
0
  6
CONTINUOUS
100
AcDbLine
 10
38.60499999996136
 20
3.374712526463272
 30
0.0
 11
40.02599999995994
 21
4.795712526461843
 31
0.0
  0
LINE
  5
21C6A
330
21C60
100
AcDbEntity
  8
0
  6
CONTINUOUS
100
AcDbLine
 10
38.60499999996136
 20
2.701193317383085
 30
0.0
 11
40.02599999995994
 21
4.122193317381657
 31
0.0
  0
LINE
  5
21C6B
330
21C60
100
AcDbEntity
  8
0
  6
CONTINUOUS
100
AcDbLine
 10
40.28339754687704
 20
5.053110073378947
 30
0.0
 11
41.25642404246489
 21
6.026136568966799
 31
0.0
  0
LINE
  5
21C6C
330
21C60
100
AcDbEntity
  8
0
  6
CONTINUOUS
100
AcDbLine
 10
40.60085985945722
 20
4.697053176878939
 30
0.0
 11
41.57388635504507
 21
5.670079672466793
 31
0.0
  0
LINE
  5
21C6D
330
21C60
100
AcDbEntity
  8
0
  6
CONTINUOUS
100
AcDbLine
 10
43.57899999995641
 20
8.348712526458318
 30
0.0
 11
43.99338747348935
 21
8.763099999991255
 31
0.0
  0
LINE
  5
21C6E
330
21C60
100
AcDbEntity
  8
0
  6
CONTINUOUS
100
AcDbLine
 10
43.57899999995641
 20
7.675193317378131
 30
0.0
 11
44.66690668256953
 21
8.763099999991255
 31
0.0
  0
LINE
  5
21C6F
330
21C60
100
AcDbEntity
  8
0
  6
CONTINUOUS
100
AcDbLine
 10
38.60499999996136
 20
2.027674108302898
 30
0.0
 11
40.02599999995994
 21
3.44867410830147
 31
0.0
  0
LINE
  5
21C70
330
21C60
100
AcDbEntity
  8
0
  6
CONTINUOUS
100
AcDbLine
 10
38.60499999996136
 20
1.354154899222712
 30
0.0
 11
40.02599999995994
 21
2.775154899221284
 31
0.0
  0
LINE
  5
21C71
330
21C60
100
AcDbEntity
  8
0
  6
CONTINUOUS
100
AcDbLine
 10
38.60499999996136
 20
0.6806356901425255
 30
0.0
 11
40.02599999995994
 21
2.101635690141098
 31
0.0
  0
LINE
  5
21C72
330
21C60
100
AcDbEntity
  8
0
  6
CONTINUOUS
100
AcDbLine
 10
38.60499999996136
 20
0.0071164810623383
 30
0.0
 11
40.02599999995994
 21
1.428116481060911
 31
0.0
  0
LINE
  5
21C73
330
21C60
100
AcDbEntity
  8
0
  6
CONTINUOUS
100
AcDbLine
 10
40.9183221720374
 20
4.340996280378933
 30
0.0
 11
41.89134866762525
 21
5.314022775966786
 31
0.0
  0
LINE
  5
21C74
330
21C60
100
AcDbEntity
  8
0
  6
CONTINUOUS
100
AcDbLine
 10
41.23578448461758
 20
3.984939383878926
 30
0.0
 11
42.20881098020543
 21
4.957965879466778
 31
0.0
  0
LINE
  5
21C75
330
21C60
100
AcDbEntity
  8
0
  6
CONTINUOUS
100
AcDbLine
 10
41.55324679719776
 20
3.628882487378919
 30
0.0
 11
42.52627329278561
 21
4.601908982966772
 31
0.0
  0
LINE
  5
21C76
330
21C60
100
AcDbEntity
  8
0
  6
CONTINUOUS
100
AcDbLine
 10
41.87070910977793
 20
3.272825590878912
 30
0.0
 11
42.84373560536579
 21
4.245852086466765
 31
0.0
  0
LINE
  5
21C77
330
21C60
100
AcDbEntity
  8
0
  6
CONTINUOUS
100
AcDbLine
 10
43.57899999995641
 20
7.001674108297943
 30
0.0
 11
44.99999999995498
 21
8.422674108296516
 31
0.0
  0
LINE
  5
21C78
330
21C60
100
AcDbEntity
  8
0
  6
CONTINUOUS
100
AcDbLine
 10
43.57899999995641
 20
6.328154899217758
 30
0.0
 11
44.99999999995498
 21
7.749154899216329
 31
0.0
  0
LINE
  5
21C79
330
21C60
100
AcDbEntity
  8
0
  6
CONTINUOUS
100
AcDbLine
 10
43.57899999995641
 20
5.654635690137571
 30
0.0
 11
44.99999999995498
 21
7.075635690136142
 31
0.0
  0
LINE
  5
21C7A
330
21C60
100
AcDbEntity
  8
0
  6
CONTINUOUS
100
AcDbLine
 10
43.57899999995641
 20
4.981116481057384
 30
0.0
 11
44.99999999995498
 21
6.402116481055955
 31
0.0
  0
LINE
  5
21C7B
330
21C60
100
AcDbEntity
  8
0
  6
CONTINUOUS
100
AcDbLine
 10
39.27140272797921
 20
-0.0000000000000009
 30
0.0
 11
40.02599999995994
 21
0.7545972719807246
 31
0.0
  0
LINE
  5
21C7C
330
21C60
100
AcDbEntity
  8
0
  6
CONTINUOUS
100
AcDbLine
 10
39.9449219370594
 20
-0.0000000000000009
 30
0.0
 11
40.02599999995994
 21
0.0810780629005379
 31
0.0
  0
LINE
  5
21C7D
330
21C60
100
AcDbEntity
  8
0
  6
CONTINUOUS
100
AcDbLine
 10
42.18817142235812
 20
2.916768694378905
 30
0.0
 11
43.16119791794597
 21
3.889795189966758
 31
0.0
  0
LINE
  5
21C7E
330
21C60
100
AcDbEntity
  8
0
  6
CONTINUOUS
100
AcDbLine
 10
42.50563373493829
 20
2.560711797878898
 30
0.0
 11
43.47866023052615
 21
3.533738293466751
 31
0.0
  0
LINE
  5
21C7F
330
21C60
100
AcDbEntity
  8
0
  6
CONTINUOUS
100
AcDbLine
 10
43.57899999995641
 20
4.307597271977198
 30
0.0
 11
44.99999999995498
 21
5.728597271975769
 31
0.0
  0
LINE
  5
21C80
330
21C60
100
AcDbEntity
  8
0
  6
CONTINUOUS
100
AcDbLine
 10
43.57899999995641
 20
3.634078062897011
 30
0.0
 11
44.99999999995498
 21
5.055078062895582
 31
0.0
  0
LINE
  5
21C81
330
21C60
100
AcDbEntity
  8
0
  6
CONTINUOUS
100
AcDbLine
 10
42.82309604751848
 20
2.204654901378891
 30
0.0
 11
44.99999999995498
 21
4.381558853815395
 31
0.0
  0
LINE
  5
21C82
330
21C60
100
AcDbEntity
  8
0
  6
CONTINUOUS
100
AcDbLine
 10
43.14055836009865
 20
1.848598004878885
 30
0.0
 11
44.99999999995498
 21
3.70803964473521
 31
0.0
  0
LINE
  5
21C83
330
21C60
100
AcDbEntity
  8
0
  6
CONTINUOUS
100
AcDbLine
 10
43.45802067267883
 20
1.492541108378878
 30
0.0
 11
44.99999999995498
 21
3.034520435655023
 31
0.0
  0
LINE
  5
21C84
330
21C60
100
AcDbEntity
  8
0
  6
CONTINUOUS
100
AcDbLine
 10
43.77548298525902
 20
1.136484211878871
 30
0.0
 11
44.99999999995498
 21
2.361001226574837
 31
0.0
  0
LINE
  5
21C85
330
21C60
100
AcDbEntity
  8
0
  6
CONTINUOUS
100
AcDbLine
 10
44.09294529783919
 20
0.7804273153788639
 30
0.0
 11
44.99999999995498
 21
1.687482017494649
 31
0.0
  0
LINE
  5
21C86
330
21C60
100
AcDbEntity
  8
0
  6
CONTINUOUS
100
AcDbLine
 10
44.41040761041938
 20
0.4243704188788566
 30
0.0
 11
44.99999999995498
 21
1.013962808414463
 31
0.0
  0
LINE
  5
21C87
330
21C60
100
AcDbEntity
  8
0
  6
CONTINUOUS
100
AcDbLine
 10
44.72786992299955
 20
0.0683135223788494
 30
0.0
 11
44.99999999995498
 21
0.340443599334276
 31
0.0
  0
LINE
  5
21C88
330
21C60
100
AcDbEntity
  8
0
  6
CONTINUOUS
100
AcDbLine
 10
39.12223903415696
 20
-0.0000000000000009
 30
0.0
 11
38.60499999996136
 21
0.5172390341955961
 31
0.0
  0
LINE
  5
21C89
330
21C60
100
AcDbEntity
  8
0
  6
CONTINUOUS
100
AcDbLine
 10
39.79575824323715
 20
-0.0000000000000009
 30
0.0
 11
38.60499999996136
 21
1.190758243275783
 31
0.0
  0
LINE
  5
21C8A
330
21C60
100
AcDbEntity
  8
0
  6
CONTINUOUS
100
AcDbLine
 10
40.02599999995994
 20
0.443277452357397
 30
0.0
 11
38.60499999996136
 21
1.864277452355969
 31
0.0
  0
LINE
  5
21C8B
330
21C60
100
AcDbEntity
  8
0
  6
CONTINUOUS
100
AcDbLine
 10
40.02599999995994
 20
1.116796661437583
 30
0.0
 11
38.60499999996136
 21
2.537796661436155
 31
0.0
  0
LINE
  5
21C8C
330
21C60
100
AcDbEntity
  8
0
  6
CONTINUOUS
100
AcDbLine
 10
40.02599999995994
 20
1.79031587051777
 30
0.0
 11
38.60499999996136
 21
3.211315870516341
 31
0.0
  0
LINE
  5
21C8D
330
21C60
100
AcDbEntity
  8
0
  6
CONTINUOUS
100
AcDbLine
 10
40.02599999995994
 20
2.463835079597956
 30
0.0
 11
38.60499999996136
 21
3.884835079596527
 31
0.0
  0
LINE
  5
21C8E
330
21C60
100
AcDbEntity
  8
0
  6
CONTINUOUS
100
AcDbLine
 10
40.02599999995994
 20
3.137354288678143
 30
0.0
 11
38.60499999996136
 21
4.558354288676714
 31
0.0
  0
LINE
  5
21C8F
330
21C60
100
AcDbEntity
  8
0
  6
CONTINUOUS
100
AcDbLine
 10
40.02599999995994
 20
3.810873497758329
 30
0.0
 11
38.60499999996136
 21
5.2318734977569
 31
0.0
  0
LINE
  5
21C90
330
21C60
100
AcDbEntity
  8
0
  6
CONTINUOUS
100
AcDbLine
 10
40.02599999995994
 20
4.484392706838515
 30
0.0
 11
38.60499999996136
 21
5.905392706837086
 31
0.0
  0
LINE
  5
21C91
330
21C60
100
AcDbEntity
  8
0
  6
CONTINUOUS
100
AcDbLine
 10
44.99999999995498
 20
0.183911915923658
 30
0.0
 11
41.53858364506288
 21
3.64532827081576
 31
0.0
  0
LINE
  5
21C92
330
21C60
100
AcDbEntity
  8
0
  6
CONTINUOUS
100
AcDbLine
 10
40.02599999995994
 20
5.157911915918703
 30
0.0
 11
38.60499999996136
 21
6.578911915917274
 31
0.0
  0
LINE
  5
21C93
330
21C60
100
AcDbEntity
  8
0
  6
CONTINUOUS
100
AcDbLine
 10
44.99999999995498
 20
0.8574311250038447
 30
0.0
 11
38.60499999996136
 21
7.25243112499746
 31
0.0
  0
LINE
  5
21C94
330
21C60
100
AcDbEntity
  8
0
  6
CONTINUOUS
100
AcDbLine
 10
44.99999999995498
 20
1.530950334084031
 30
0.0
 11
38.60499999996136
 21
7.925950334077647
 31
0.0
  0
LINE
  5
21C95
330
21C60
100
AcDbEntity
  8
0
  6
CONTINUOUS
100
AcDbLine
 10
44.99999999995498
 20
2.204469543164218
 30
0.0
 11
43.57899999995641
 21
3.625469543162789
 31
0.0
  0
LINE
  5
21C96
330
21C60
100
AcDbEntity
  8
0
  6
CONTINUOUS
100
AcDbLine
 10
41.89876730984767
 20
5.305702233271528
 30
0.0
 11
38.60499999996136
 21
8.599469543157834
 31
0.0
  0
LINE
  5
21C97
330
21C60
100
AcDbEntity
  8
0
  6
CONTINUOUS
100
AcDbLine
 10
44.99999999995498
 20
2.877988752244405
 30
0.0
 11
43.57899999995641
 21
4.298988752242975
 31
0.0
  0
LINE
  5
21C98
330
21C60
100
AcDbEntity
  8
0
  6
CONTINUOUS
100
AcDbLine
 10
44.99999999995498
 20
3.551507961324591
 30
0.0
 11
43.57899999995641
 21
4.972507961323163
 31
0.0
  0
LINE
  5
21C99
330
21C60
100
AcDbEntity
  8
0
  6
CONTINUOUS
100
AcDbLine
 10
44.99999999995498
 20
4.225027170404777
 30
0.0
 11
43.57899999995641
 21
5.646027170403348
 31
0.0
  0
LINE
  5
21C9A
330
21C60
100
AcDbEntity
  8
0
  6
CONTINUOUS
100
AcDbLine
 10
44.99999999995498
 20
4.898546379484964
 30
0.0
 11
43.57899999995641
 21
6.319546379483535
 31
0.0
  0
LINE
  5
21C9B
330
21C60
100
AcDbEntity
  8
0
  6
CONTINUOUS
100
AcDbLine
 10
44.99999999995498
 20
5.572065588565151
 30
0.0
 11
43.57899999995641
 21
6.993065588563722
 31
0.0
  0
LINE
  5
21C9C
330
21C60
100
AcDbEntity
  8
0
  6
CONTINUOUS
100
AcDbLine
 10
44.99999999995498
 20
6.245584797645336
 30
0.0
 11
43.57899999995641
 21
7.666584797643908
 31
0.0
  0
LINE
  5
21C9D
330
21C60
100
AcDbEntity
  8
0
  6
CONTINUOUS
100
AcDbLine
 10
44.99999999995498
 20
6.919104006725522
 30
0.0
 11
43.57899999995641
 21
8.340104006724093
 31
0.0
  0
LINE
  5
21C9E
330
21C60
100
AcDbEntity
  8
0
  6
CONTINUOUS
100
AcDbLine
 10
44.99999999995498
 20
7.592623215805709
 30
0.0
 11
43.82952321576943
 21
8.763099999991255
 31
0.0
  0
LINE
  5
21C9F
330
21C60
100
AcDbEntity
  8
0
  6
CONTINUOUS
100
AcDbLine
 10
44.99999999995498
 20
8.266142424885896
 30
0.0
 11
44.50304242484962
 21
8.763099999991255
 31
0.0
  0
ENDBLK
  5
21CC9
330
21C60
100
AcDbEntity
  8
0
100
AcDbBlockEnd
  0
BLOCK
  5
21CCA
330
21CA0
100
AcDbEntity
  8
0
100
AcDbBlockBegin
  2
*X56
 70
     1
 10
0.0
 20
0.0
 30
0.0
  3
*X56
  1

  0
LINE
  5
21CA1
330
21CA0
100
AcDbEntity
  8
0
  6
CONTINUOUS
100
AcDbLine
 10
0.0
 20
8.548461116714023
 30
0.0
 11
0.2146388832772324
 21
8.763099999991255
 31
0.0
  0
LINE
  5
21CA2
330
21CA0
100
AcDbEntity
  8
0
  6
CONTINUOUS
100
AcDbLine
 10
-0.0000000000000002
 20
7.874941907633837
 30
0.0
 11
0.8881580923574184
 21
8.763099999991255
 31
0.0
  0
LINE
  5
21CA3
330
21CA0
100
AcDbEntity
  8
0
  6
CONTINUOUS
100
AcDbLine
 10
0.0
 20
7.20142269855365
 30
0.0
 11
1.420999999998572
 21
8.622422698552223
 31
0.0
  0
LINE
  5
21CA4
330
21CA0
100
AcDbEntity
  8
0
  6
CONTINUOUS
100
AcDbLine
 10
-0.0000000000000001
 20
6.527903489473465
 30
0.0
 11
1.420999999998571
 21
7.948903489472036
 31
0.0
  0
LINE
  5
21CA5
330
21CA0
100
AcDbEntity
  8
0
  6
CONTINUOUS
100
AcDbLine
 10
-0.0000000000000002
 20
5.854384280393278
 30
0.0
 11
1.420999999998571
 21
7.275384280391849
 31
0.0
  0
LINE
  5
21CA6
330
21CA0
100
AcDbEntity
  8
0
  6
CONTINUOUS
100
AcDbLine
 10
-0.0000000000000002
 20
5.180865071313091
 30
0.0
 11
1.420999999998571
 21
6.601865071311663
 31
0.0
  0
LINE
  5
21CA7
330
21CA0
100
AcDbEntity
  8
0
  6
CONTINUOUS
100
AcDbLine
 10
0.0
 20
4.507345862232905
 30
0.0
 11
1.420999999998571
 21
5.928345862231477
 31
0.0
  0
LINE
  5
21CA8
330
21CA0
100
AcDbEntity
  8
0
  6
CONTINUOUS
100
AcDbLine
 10
-0.0000000000000003
 20
3.833826653152718
 30
0.0
 11
1.420999999998571
 21
5.25482665315129
 31
0.0
  0
LINE
  5
21CA9
330
21CA0
100
AcDbEntity
  8
0
  6
CONTINUOUS
100
AcDbLine
 10
-0.0000000000000002
 20
3.160307444072532
 30
0.0
 11
1.420999999998571
 21
4.581307444071103
 31
0.0
  0
LINE
  5
21CAA
330
21CA0
100
AcDbEntity
  8
0
  6
CONTINUOUS
100
AcDbLine
 10
-0.0000000000000001
 20
2.486788234992345
 30
0.0
 11
1.420999999998571
 21
3.907788234990917
 31
0.0
  0
LINE
  5
21CAB
330
21CA0
100
AcDbEntity
  8
0
  6
CONTINUOUS
100
AcDbLine
 10
-0.0000000000000006
 20
1.813269025912159
 30
0.0
 11
1.420999999998571
 21
3.234269025910731
 31
0.0
  0
LINE
  5
21CAC
330
21CA0
100
AcDbEntity
  8
0
  6
CONTINUOUS
100
AcDbLine
 10
0.0
 20
1.139749816831973
 30
0.0
 11
1.420999999998571
 21
2.560749816830544
 31
0.0
  0
LINE
  5
21CAD
330
21CA0
100
AcDbEntity
  8
0
  6
CONTINUOUS
100
AcDbLine
 10
0.0000000000000002
 20
0.466230607751787
 30
0.0
 11
1.420999999998571
 21
1.887230607750358
 31
0.0
  0
LINE
  5
21CAE
330
21CA0
100
AcDbEntity
  8
0
  6
CONTINUOUS
100
AcDbLine
 10
0.2072886013284003
 20
-0.0000000000000009
 30
0.0
 11
1.420999999998571
 21
1.213711398670171
 31
0.0
  0
LINE
  5
21CAF
330
21CA0
100
AcDbEntity
  8
0
  6
CONTINUOUS
100
AcDbLine
 10
0.8808078104085864
 20
-0.0000000000000009
 30
0.0
 11
1.420999999998571
 21
0.5401921895899839
 31
0.0
  0
LINE
  5
21CB0
330
21CA0
100
AcDbEntity
  8
0
  6
CONTINUOUS
100
AcDbLine
 10
0.0581249075061505
 20
-0.0000000000000009
 30
0.0
 11
-0.0000000000000002
 21
0.0581249075061496
 31
0.0
  0
LINE
  5
21CB1
330
21CA0
100
AcDbEntity
  8
0
  6
CONTINUOUS
100
AcDbLine
 10
0.7316441165863372
 20
-0.0000000000000009
 30
0.0
 11
-0.0000000000000002
 21
0.7316441165863363
 31
0.0
  0
LINE
  5
21CB2
330
21CA0
100
AcDbEntity
  8
0
  6
CONTINUOUS
100
AcDbLine
 10
1.405163325666523
 20
-0.0000000000000009
 30
0.0
 11
-0.0000000000000002
 21
1.405163325666523
 31
0.0
  0
LINE
  5
21CB3
330
21CA0
100
AcDbEntity
  8
0
  6
CONTINUOUS
100
AcDbLine
 10
1.420999999998572
 20
0.6576825347481381
 30
0.0
 11
-0.0000000000000001
 21
2.07868253474671
 31
0.0
  0
LINE
  5
21CB4
330
21CA0
100
AcDbEntity
  8
0
  6
CONTINUOUS
100
AcDbLine
 10
1.420999999998571
 20
1.331201743828324
 30
0.0
 11
-0.0000000000000001
 21
2.752201743826896
 31
0.0
  0
LINE
  5
21CB5
330
21CA0
100
AcDbEntity
  8
0
  6
CONTINUOUS
100
AcDbLine
 10
1.420999999998571
 20
2.004720952908511
 30
0.0
 11
-0.0000000000000002
 21
3.425720952907082
 31
0.0
  0
LINE
  5
21CB6
330
21CA0
100
AcDbEntity
  8
0
  6
CONTINUOUS
100
AcDbLine
 10
1.420999999998571
 20
2.678240161988697
 30
0.0
 11
-0.0000000000000001
 21
4.099240161987269
 31
0.0
  0
LINE
  5
21CB7
330
21CA0
100
AcDbEntity
  8
0
  6
CONTINUOUS
100
AcDbLine
 10
1.420999999998572
 20
3.351759371068884
 30
0.0
 11
0.0
 21
4.772759371067455
 31
0.0
  0
LINE
  5
21CB8
330
21CA0
100
AcDbEntity
  8
0
  6
CONTINUOUS
100
AcDbLine
 10
1.420999999998571
 20
4.02527858014907
 30
0.0
 11
-0.0000000000000003
 21
5.446278580147642
 31
0.0
  0
LINE
  5
21CB9
330
21CA0
100
AcDbEntity
  8
0
  6
CONTINUOUS
100
AcDbLine
 10
1.420999999998571
 20
4.698797789229257
 30
0.0
 11
0.0
 21
6.119797789227828
 31
0.0
  0
LINE
  5
21CBA
330
21CA0
100
AcDbEntity
  8
0
  6
CONTINUOUS
100
AcDbLine
 10
1.420999999998571
 20
5.372316998309444
 30
0.0
 11
-0.0000000000000001
 21
6.793316998308015
 31
0.0
  0
LINE
  5
21CBB
330
21CA0
100
AcDbEntity
  8
0
  6
CONTINUOUS
100
AcDbLine
 10
1.420999999998572
 20
6.045836207389629
 30
0.0
 11
-0.0000000000000004
 21
7.466836207388202
 31
0.0
  0
LINE
  5
21CBC
330
21CA0
100
AcDbEntity
  8
0
  6
CONTINUOUS
100
AcDbLine
 10
1.420999999998571
 20
6.719355416469816
 30
0.0
 11
0.0
 21
8.140355416468388
 31
0.0
  0
LINE
  5
21CBD
330
21CA0
100
AcDbEntity
  8
0
  6
CONTINUOUS
100
AcDbLine
 10
1.420999999998571
 20
7.392874625550003
 30
0.0
 11
0.0507746255573185
 21
8.763099999991255
 31
0.0
  0
LINE
  5
21CBE
330
21CA0
100
AcDbEntity
  8
0
  6
CONTINUOUS
100
AcDbLine
 10
1.420999999998571
 20
8.06639383463019
 30
0.0
 11
0.7242938346375052
 21
8.763099999991255
 31
0.0
  0
LINE
  5
21CBF
330
21CA0
100
AcDbEntity
  8
0
  6
CONTINUOUS
100
AcDbLine
 10
1.420999999998571
 20
8.739913043710375
 30
0.0
 11
1.397813043717691
 21
8.763099999991255
 31
0.0
  0
ENDBLK
  5
21CCB
330
21CA0
100
AcDbEntity
  8
0
100
AcDbBlockEnd
  0
ENDSEC
  0
SECTION
  2
ENTITIES
  0
LINE
  5
1D8CA
330
18
100
AcDbEntity
  8
01
100
AcDbLine
 10
713.016241615365
 20
-650.6713303512659
 30
0.0
 11
713.016241615365
 21
-672.8213303512673
 31
0.0
  0
LINE
  5
1D90A
330
18
100
AcDbEntity
  8
01
100
AcDbLine
 10
713.016241615365
 20
-653.1713303512665
 30
0.0
 11
713.016241615365
 21
-670.8213303512659
 31
0.0
  0
TEXT
  5
1DB93
330
18
100
AcDbEntity
  8
1TEXT
100
AcDbText
 10
691.5963792542063
 20
-564.7675479276803
 30
0.0
 40
4.0
  1
表面処理
 72
     1
 11
700.863045920873
 21
-564.7675479276803
 31
0.0
100
AcDbText
  0
LINE
  5
1DB94
330
18
100
AcDbEntity
  8
1DIM
100
AcDbLine
 10
683.4630459208729
 20
-559.2675479276803
 30
0.0
 11
753.4630459208729
 21
-559.2675479276803
 31
0.0
  0
LINE
  5
1DB95
330
18
100
AcDbEntity
  8
1DIM
100
AcDbLine
 10
683.4630459208729
 20
-573.2675479276803
 30
0.0
 11
753.4630459208729
 21
-573.2675479276803
 31
0.0
  0
LINE
  5
1DB96
330
18
100
AcDbEntity
  8
1DIM
100
AcDbLine
 10
683.4630459208729
 20
-566.2675479276803
 30
0.0
 11
753.4630459208729
 21
-566.2675479276803
 31
0.0
  0
LINE
  5
1DB97
330
18
100
AcDbEntity
  8
1DIM
100
AcDbLine
 10
718.4630459208729
 20
-559.2675479276803
 30
0.0
 11
718.463045920872
 21
-587.2675479276803
 31
0.0
  0
TEXT
  5
1DB98
330
18
100
AcDbEntity
  8
1TEXT
100
AcDbText
 10
728.9963792542063
 20
-564.7675479276803
 30
0.0
 40
4.0
  1
コード
 72
     1
 11
735.863045920873
 21
-564.7675479276803
 31
0.0
100
AcDbText
  0
LINE
  5
1DB99
330
18
100
AcDbEntity
  8
1DIM
100
AcDbLine
 10
683.4630459208729
 20
-587.2675479276803
 30
0.0
 11
683.4630459208729
 21
-559.2675479276803
 31
0.0
  0
LINE
  5
1DB9A
330
18
100
AcDbEntity
  8
1DIM
100
AcDbLine
 10
753.4630459208724
 20
-587.2675479276803
 30
0.0
 11
753.4630459208729
 21
-559.2675479276803
 31
0.0
  0
TEXT
  5
1DB9B
330
18
100
AcDbEntity
  8
1TEXT
100
AcDbText
 10
683.4630459208729
 20
-554.2675479276803
 30
0.0
 40
8.0
  1
SE-170-X
100
AcDbText
  0
TEXT
  5
1DB9C
330
18
100
AcDbEntity
  8
1TEXT
100
AcDbText
 10
691.3963792542063
 20
-571.6028365872046
 30
0.0
 40
4.0
  1
クローム
 72
     1
 11
700.863045920873
 21
-571.6028365872046
 31
0.0
100
AcDbText
  0
TEXT
  5
1DB9D
330
18
100
AcDbEntity
  8
1TEXT
100
AcDbText
 10
721.9797125875399
 20
-571.9819049113296
 30
0.0
 40
4.0
  1
SE-170-XC
 41
0.85
 72
     1
 11
735.8630459208732
 21
-571.9819049113296
 31
0.0
100
AcDbText
  0
LINE
  5
1DB9E
330
18
100
AcDbEntity
  8
1DIM
100
AcDbLine
 10
683.4630459208729
 20
-580.2675479276803
 30
0.0
 11
753.4630459208729
 21
-580.2675479276803
 31
0.0
  0
TEXT
  5
1DB9F
330
18
100
AcDbEntity
  8
1TEXT
100
AcDbText
 10
684.3297125875397
 20
-578.6028365872046
 30
0.0
 40
4.0
  1
サテンニッケル
 72
     1
 11
700.863045920873
 21
-578.6028365872046
 31
0.0
100
AcDbText
  0
LINE
  5
1DBA4
102
{ACAD_REACTORS
330
1EDFD
102
}
330
18
100
AcDbEntity
  8
01
100
AcDbLine
 10
725.516241615365
 20
-618.5931567659845
 30
0.0
 11
725.516241615365
 21
-693.0495039365483
 31
0.0
  0
LINE
  5
1DBA5
102
{ACAD_REACTORS
330
1EDFD
102
}
330
18
100
AcDbEntity
  8
01
100
AcDbLine
 10
734.516241615365
 20
-618.5931567659845
 30
0.0
 11
734.516241615365
 21
-693.0495039365483
 31
0.0
  0
LINE
  5
1DBA6
102
{ACAD_REACTORS
330
1EDFD
102
}
330
18
100
AcDbEntity
  8
01
100
AcDbLine
 10
713.016241615365
 20
-618.5931567659845
 30
0.0
 11
713.016241615365
 21
-693.0495039365483
 31
0.0
  0
LINE
  5
1E7B5
102
{ACAD_REACTORS
330
1E7BB
102
}
330
18
100
AcDbEntity
  8
1PHANTOM
100
AcDbLine
 10
511.0162030722789
 20
-559.8213303512664
 30
0.000001150846515
 11
510.0162033722789
 21
-558.8213303512664
 31
0.000001150846515
  0
LINE
  5
1E7B6
102
{ACAD_REACTORS
330
1E7BB
102
}
330
18
100
AcDbEntity
  8
1PHANTOM
100
AcDbLine
 10
514.3162032222789
 20
-559.8213303512664
 30
0.000001150846515
 11
514.3162032222789
 21
-558.8213303512664
 31
0.000001150846515
  0
LINE
  5
1E7B7
102
{ACAD_REACTORS
330
1E7BB
102
}
330
18
100
AcDbEntity
  8
1PHANTOM
100
AcDbLine
 10
514.3162032222789
 20
-558.8213303512664
 30
0.000001150846515
 11
506.716203222279
 21
-558.8213303512664
 31
0.000001150846515
  0
LINE
  5
1E7B8
102
{ACAD_REACTORS
330
1E7BB
102
}
330
18
100
AcDbEntity
  8
1PHANTOM
100
AcDbLine
 10
514.3162032222789
 20
-558.8213303512664
 30
0.000001150846515
 11
506.716203222279
 21
-558.8213303512664
 31
0.000001150846515
  0
LINE
  5
1E7B9
102
{ACAD_REACTORS
330
1E7BB
102
}
330
18
100
AcDbEntity
  8
1PHANTOM
100
AcDbLine
 10
506.716203222279
 20
-559.8213303512664
 30
0.000001150846515
 11
506.716203222279
 21
-558.8213303512664
 31
0.000001150846515
  0
LINE
  5
1E9CD
102
{ACAD_REACTORS
330
1E9D3
102
}
330
18
100
AcDbEntity
  8
01
100
AcDbLine
 10
709.016241615365
 20
-639.8213142123651
 30
0.000001150846515
 11
710.016241615365
 21
-638.8213145123651
 31
0.000001150846515
  0
LINE
  5
1E9CE
102
{ACAD_REACTORS
330
1E9D3
102
}
330
18
100
AcDbEntity
  8
01
100
AcDbLine
 10
709.016241615365
 20
-643.1213143623651
 30
0.000001150846515
 11
710.016241615365
 21
-643.1213143623651
 31
0.000001150846515
  0
LINE
  5
1E9CF
102
{ACAD_REACTORS
330
1E9D3
102
}
330
18
100
AcDbEntity
  8
01
100
AcDbLine
 10
710.016241615365
 20
-643.1213143623651
 30
0.000001150846515
 11
710.016241615365
 21
-635.5213143623652
 31
0.000001150846515
  0
LINE
  5
1E9D0
102
{ACAD_REACTORS
330
1E9D3
102
}
330
18
100
AcDbEntity
  8
01
100
AcDbLine
 10
709.016241615365
 20
-643.1213143623651
 30
0.000001150846515
 11
709.016241615365
 21
-635.5213143623652
 31
0.000001150846515
  0
LINE
  5
1E9D1
102
{ACAD_REACTORS
330
1E9D3
102
}
330
18
100
AcDbEntity
  8
01
100
AcDbLine
 10
709.016241615365
 20
-635.5213143623652
 30
0.000001150846515
 11
710.016241615365
 21
-635.5213143623652
 31
0.000001150846515
  0
LINE
  5
1E9D4
102
{ACAD_REACTORS
330
1E9DA
102
}
330
18
100
AcDbEntity
  8
1PHANTOM
100
AcDbLine
 10
490.0162880012624
 20
-559.8213268611823
 30
0.0
 11
489.0162883012624
 21
-558.8213268611823
 31
0.0
  0
LINE
  5
1E9D5
102
{ACAD_REACTORS
330
1E9DA
102
}
330
18
100
AcDbEntity
  8
1PHANTOM
100
AcDbLine
 10
493.3162881512624
 20
-559.8213268611823
 30
0.0
 11
493.3162881512624
 21
-558.8213268611823
 31
0.0
  0
LINE
  5
1E9D6
102
{ACAD_REACTORS
330
1E9DA
102
}
330
18
100
AcDbEntity
  8
1PHANTOM
100
AcDbLine
 10
493.3162881512624
 20
-558.8213268611823
 30
0.0
 11
485.7162881512625
 21
-558.8213268611823
 31
0.0
  0
LINE
  5
1E9D7
102
{ACAD_REACTORS
330
1E9DA
102
}
330
18
100
AcDbEntity
  8
1PHANTOM
100
AcDbLine
 10
493.3162881512624
 20
-558.8213268611823
 30
0.0
 11
485.7162881512625
 21
-558.8213268611823
 31
0.0
  0
LINE
  5
1E9D8
102
{ACAD_REACTORS
330
1E9DA
102
}
330
18
100
AcDbEntity
  8
1PHANTOM
100
AcDbLine
 10
485.7162881512625
 20
-559.8213268611823
 30
0.0
 11
485.7162881512625
 21
-558.8213268611823
 31
0.0
  0
LINE
  5
1EBEF
102
{ACAD_REACTORS
330
1EBF5
102
}
330
18
100
AcDbEntity
  8
01
100
AcDbLine
 10
709.016241615365
 20
-656.3212836684728
 30
0.0
 11
710.016241615365
 21
-655.3212839684728
 31
0.0
  0
LINE
  5
1EBF0
102
{ACAD_REACTORS
330
1EBF5
102
}
330
18
100
AcDbEntity
  8
01
100
AcDbLine
 10
709.016241615365
 20
-659.6212838184728
 30
0.0
 11
710.016241615365
 21
-659.6212838184728
 31
0.0
  0
LINE
  5
1EBF1
102
{ACAD_REACTORS
330
1EBF5
102
}
330
18
100
AcDbEntity
  8
01
100
AcDbLine
 10
710.016241615365
 20
-659.6212838184728
 30
0.0
 11
710.016241615365
 21
-652.0212838184729
 31
0.0
  0
LINE
  5
1EBF2
102
{ACAD_REACTORS
330
1EBF5
102
}
330
18
100
AcDbEntity
  8
01
100
AcDbLine
 10
709.016241615365
 20
-659.6212838184728
 30
0.0
 11
709.016241615365
 21
-652.0212838184729
 31
0.0
  0
LINE
  5
1EBF3
102
{ACAD_REACTORS
330
1EBF5
102
}
330
18
100
AcDbEntity
  8
01
100
AcDbLine
 10
709.016241615365
 20
-652.0212838184729
 30
0.0
 11
710.016241615365
 21
-652.0212838184729
 31
0.0
  0
TEXT
  5
1EE4F
330
18
100
AcDbEntity
  8
1TEXT
100
AcDbText
 10
721.9797125875399
 20
-578.9819049113296
 30
0.0
 40
4.0
  1
SE-170-XN
 41
0.85
 72
     1
 11
735.8630459208732
 21
-578.9819049113296
 31
0.0
100
AcDbText
  0
LINE
  5
20A4E
102
{ACAD_REACTORS
330
20D09
102
}
330
18
100
AcDbEntity
  8
01
100
AcDbLine
 10
663.5162416153654
 20
-670.355864324911
 30
0.0
 11
663.5162416153584
 21
-740.3558643249044
 31
0.0
  0
LINE
  5
20A4F
102
{ACAD_REACTORS
330
20D09
102
}
330
18
100
AcDbEntity
  8
01
100
AcDbLine
 10
674.516241615365
 20
-670.4270496351189
 30
0.0
 11
674.5162416153615
 21
-740.3558643249052
 31
0.0
  0
ARC
  5
20A55
102
{ACAD_REACTORS
330
20D09
102
}
330
18
100
AcDbEntity
  8
01
100
AcDbCircle
 10
669.0162201093532
 20
-670.246356677429
 30
0.0
 40
5.499973673860307
100
AcDbArc
 50
114.6241784963435
 51
181.1406402985047
  0
ARC
  5
20A56
102
{ACAD_REACTORS
330
20D0A
102
}
330
18
100
AcDbEntity
  8
01
100
AcDbCircle
 10
547.9093697430327
 20
-746.8098083374377
 30
0.0
 40
75.50000001830979
100
AcDbArc
 50
48.96738147643473
 51
74.56928353659691
  0
ARC
  5
20A57
102
{ACAD_REACTORS
330
20D0A
102
}
330
18
100
AcDbEntity
  8
01
100
AcDbCircle
 10
500.0185549350616
 20
-920.3116948417879
 30
0.0
 40
255.4900963111527
100
AcDbArc
 50
74.56920867850405
 51
87.6497418525755
  0
ARC
  5
20A58
102
{ACAD_REACTORS
330
20D0A
102
}
330
18
100
AcDbEntity
  8
01
100
AcDbCircle
 10
452.1231134876942
 20
-746.8098083374314
 30
0.0
 40
75.5000000183028
100
AcDbArc
 50
105.430716463402
 51
131.0326185235664
  0
ARC
  5
20A59
102
{ACAD_REACTORS
330
20D0A
102
}
330
18
100
AcDbEntity
  8
01
100
AcDbCircle
 10
416.0162416153986
 20
-705.3213303512663
 30
0.0
 40
20.50000000002223
100
AcDbArc
 50
131.0326185267928
 51
228.9673814732065
  0
ARC
  5
20A5A
102
{ACAD_REACTORS
330
20D0A
102
}
330
18
100
AcDbEntity
  8
01
100
AcDbCircle
 10
452.1231134876926
 20
-663.832852365103
 30
0.0
 40
75.50000001830055
100
AcDbArc
 50
228.9673814764334
 51
254.5692835365987
  0
ARC
  5
20A5B
102
{ACAD_REACTORS
330
20D0A
102
}
330
18
100
AcDbEntity
  8
01
100
AcDbCircle
 10
500.0162416153649
 20
-490.3213303178612
 30
0.0
 40
255.5000000322009
100
AcDbArc
 50
254.5692835417472
 51
285.4307164582526
  0
ARC
  5
20A5C
102
{ACAD_REACTORS
330
20D0A
102
}
330
18
100
AcDbEntity
  8
01
100
AcDbCircle
 10
547.9093697430363
 20
-663.8328523651018
 30
0.0
 40
75.50000001830207
100
AcDbArc
 50
285.4307164634016
 51
311.0326185235662
  0
ARC
  5
20A5D
102
{ACAD_REACTORS
330
20D0A
102
}
330
18
100
AcDbEntity
  8
01
100
AcDbCircle
 10
584.0162416153322
 20
-705.3213303512662
 30
0.0
 40
20.50000000002171
100
AcDbArc
 50
311.0326185267905
 51
48.96738147320772
  0
ARC
  5
20A5E
102
{ACAD_REACTORS
330
20D0A
102
}
330
18
100
AcDbEntity
  8
01
100
AcDbCircle
 10
510.5162392767344
 20
-664.53683353884
 30
0.0
 40
0.4999971501470534
100
AcDbArc
 50
243.6810955344978
 51
267.6483764592789
  0
ARC
  5
20A5F
102
{ACAD_REACTORS
330
20D0A
102
}
330
18
100
AcDbEntity
  8
01
100
AcDbCircle
 10
489.5165559043809
 20
-664.5372658852933
 30
0.0
 40
0.4990933784303923
100
AcDbArc
 50
272.3201613969313
 51
296.220927820643
  0
CIRCLE
  5
20A60
102
{ACAD_REACTORS
330
20D0A
102
}
330
18
100
AcDbEntity
  8
1PHANTOM
100
AcDbCircle
 10
489.5162416153654
 20
-639.3213303512664
 30
0.0
 40
2.25
  0
CIRCLE
  5
20A61
102
{ACAD_REACTORS
330
20D0A
102
}
330
18
100
AcDbEntity
  8
1PHANTOM
100
AcDbCircle
 10
510.5162416153649
 20
-639.3213303512665
 30
0.0
 40
2.25
  0
CIRCLE
  5
20A62
102
{ACAD_REACTORS
330
20D0A
102
}
330
18
100
AcDbEntity
  8
1PHANTOM
100
AcDbCircle
 10
500.0162416153649
 20
-655.8213303512663
 30
0.0
 40
2.250000000000057
  0
ARC
  5
20A63
102
{ACAD_REACTORS
330
20D0A
102
}
330
18
100
AcDbEntity
  8
01
100
AcDbCircle
 10
547.909369751915
 20
-746.8098083208946
 30
0.0
 40
64.49999999999966
100
AcDbArc
 50
48.96738147327767
 51
74.56928353975431
  0
ARC
  5
20A64
102
{ACAD_REACTORS
330
20D0A
102
}
330
18
100
AcDbEntity
  8
01
100
AcDbCircle
 10
500.0162416153649
 20
-920.3213303512721
 30
0.0
 40
244.5000000000057
100
AcDbArc
 50
74.56928353975441
 51
105.4307164602456
  0
ARC
  5
20A65
102
{ACAD_REACTORS
330
20D0A
102
}
330
18
100
AcDbEntity
  8
01
100
AcDbCircle
 10
452.1231134788135
 20
-746.809808320891
 30
0.0
 40
64.49999999999574
100
AcDbArc
 50
105.4307164602452
 51
131.0326185267232
  0
ARC
  5
20A66
102
{ACAD_REACTORS
330
20D0A
102
}
330
18
100
AcDbEntity
  8
01
100
AcDbCircle
 10
416.0162416153809
 20
-705.3213303512664
 30
0.0
 40
9.500000000010601
100
AcDbArc
 50
131.0326185267944
 51
228.9673814732054
  0
ARC
  5
20A67
102
{ACAD_REACTORS
330
20D0A
102
}
330
18
100
AcDbEntity
  8
01
100
AcDbCircle
 10
452.1231134788144
 20
-663.8328523816389
 30
0.0
 40
64.49999999999838
100
AcDbArc
 50
228.9673814732777
 51
254.5692835397546
  0
ARC
  5
20A68
102
{ACAD_REACTORS
330
20D0A
102
}
330
18
100
AcDbEntity
  8
01
100
AcDbCircle
 10
500.0162416153649
 20
-490.3213303512658
 30
0.0
 40
244.5000000000005
100
AcDbArc
 50
254.5692835397541
 51
285.4307164602459
  0
ARC
  5
20A69
102
{ACAD_REACTORS
330
20D0A
102
}
330
18
100
AcDbEntity
  8
01
100
AcDbCircle
 10
547.9093697519153
 20
-663.8328523816386
 30
0.0
 40
64.49999999999883
100
AcDbArc
 50
285.4307164602455
 51
311.0326185267225
  0
ARC
  5
20A6A
102
{ACAD_REACTORS
330
20D0A
102
}
330
18
100
AcDbEntity
  8
01
100
AcDbCircle
 10
584.016241615365
 20
-705.3213303512662
 30
0.0
 40
9.500000000000139
100
AcDbArc
 50
311.0326185267239
 51
48.96738147327417
  0
LINE
  5
20A76
102
{ACAD_REACTORS
330
20D0B
102
}
330
18
100
AcDbEntity
  8
01
100
AcDbLine
 10
481.5162416153554
 20
-594.3213303512664
 30
0.0
 11
401.0162416153552
 21
-594.3213303512664
 31
0.0
  0
LINE
  5
20A77
102
{ACAD_REACTORS
330
20D0B
102
}
330
18
100
AcDbEntity
  8
01
100
AcDbLine
 10
599.0162416153556
 20
-594.3213303512664
 30
0.0
 11
518.5162416153554
 21
-594.3213303512664
 31
0.0
  0
ARC
  5
20A78
102
{ACAD_REACTORS
330
20D0B
102
}
330
18
100
AcDbEntity
  8
01
100
AcDbCircle
 10
401.0162416153552
 20
-599.8213303512669
 30
0.0
 40
5.500000000000227
100
AcDbArc
 50
90.0
 51
270.0
  0
LINE
  5
20A79
102
{ACAD_REACTORS
330
20D0B
102
}
330
18
100
AcDbEntity
  8
01
100
AcDbLine
 10
599.0162416153554
 20
-605.3213303512664
 30
0.0
 11
518.5162416153554
 21
-605.3213303512664
 31
0.0
  0
ARC
  5
20A7A
102
{ACAD_REACTORS
330
20D0B
102
}
330
18
100
AcDbEntity
  8
01
100
AcDbCircle
 10
599.0162416153556
 20
-599.8213303512669
 30
0.0
 40
5.500000000000227
100
AcDbArc
 50
270.0
 51
90.0
  0
LINE
  5
20A86
102
{ACAD_REACTORS
330
20D0A
102
}
330
18
100
AcDbEntity
  8
1CENTER
100
AcDbLine
 10
486.1412032222789
 20
-639.3213143592608
 30
0.000001150846515
 11
492.8912032222789
 21
-639.3213143592608
 31
0.000001150846515
  0
LINE
  5
20A87
102
{ACAD_REACTORS
330
20D0A
102
}
330
18
100
AcDbEntity
  8
1CENTER
100
AcDbLine
 10
489.5162032222789
 20
-642.6963143592608
 30
0.000001150846515
 11
489.5162032222789
 21
-635.9463143592608
 31
0.000001150846515
  0
LINE
  5
20A88
102
{ACAD_REACTORS
330
20D0A
102
}
330
18
100
AcDbEntity
  8
1CENTER
100
AcDbLine
 10
507.1412032222789
 20
-639.3213143592608
 30
0.000001150846515
 11
513.8912032222789
 21
-639.3213143592608
 31
0.000001150846515
  0
LINE
  5
20A89
102
{ACAD_REACTORS
330
20D0A
102
}
330
18
100
AcDbEntity
  8
1CENTER
100
AcDbLine
 10
510.5162032222789
 20
-642.6963143592608
 30
0.000001150846515
 11
510.5162032222789
 21
-635.9463143592608
 31
0.000001150846515
  0
LINE
  5
20A8A
102
{ACAD_REACTORS
330
20D0A
102
}
330
18
100
AcDbEntity
  8
1CENTER
100
AcDbLine
 10
496.6412032222789
 20
-655.8213143592608
 30
0.000001150846515
 11
503.3912032222789
 21
-655.8213143592608
 31
0.000001150846515
  0
ARC
  5
20A8D
102
{ACAD_REACTORS
330
20D0A
102
}
330
18
100
AcDbEntity
  8
01
100
AcDbCircle
 10
500.0139282956678
 20
-920.3116948417879
 30
0.0
 40
255.4900963111526
100
AcDbArc
 50
92.35025814742453
 51
105.430791321496
  0
LINE
  5
20A8E
102
{ACAD_REACTORS
330
20D0B
102
}
330
18
100
AcDbEntity
  8
01
100
AcDbLine
 10
518.5162416153554
 20
-556.9080388558742
 30
0.0
 11
518.5162416153554
 21
-556.910170832583
 31
0.0
  0
ARC
  5
20A8F
102
{ACAD_REACTORS
330
20D0B
102
}
330
18
100
AcDbEntity
  8
01
100
AcDbCircle
 10
517.5162030292087
 20
-556.9078051715752
 30
0.0
 40
1.000038586891146
100
AcDbArc
 50
359.9977895710294
 51
89.99778926194969
  0
ARC
  5
20A90
102
{ACAD_REACTORS
330
20D0B
102
}
330
18
100
AcDbEntity
  8
01
100
AcDbCircle
 10
517.5162029917057
 20
-607.2714075593445
 30
0.0
 40
1.000038624394603
100
AcDbArc
 50
270.0022128866488
 51
0.0022113958333633
  0
LINE
  5
20A91
102
{ACAD_REACTORS
330
20D0B
102
}
330
18
100
AcDbEntity
  8
01
100
AcDbLine
 10
518.5162416153554
 20
-607.2651044259356
 30
0.0
 11
518.5162416153554
 21
-607.2710730543464
 31
0.0
  0
LINE
  5
20A92
102
{ACAD_REACTORS
330
20D0B
102
}
330
18
100
AcDbEntity
  8
01
100
AcDbLine
 10
518.5162416153559
 20
-607.2592853089469
 30
0.0
 11
518.5162416153559
 21
-607.2636650795658
 31
0.0
  0
LINE
  5
20A93
102
{ACAD_REACTORS
330
20D0B
102
}
330
18
100
AcDbEntity
  8
01
100
AcDbLine
 10
518.5162416153554
 20
-607.251608782146
 30
0.0
 11
518.5162416153554
 21
-607.257727790227
 31
0.0
  0
LINE
  5
20A94
102
{ACAD_REACTORS
330
20D0B
102
}
330
18
100
AcDbEntity
  8
01
100
AcDbLine
 10
518.5162416153554
 20
-607.2420991890823
 30
0.0
 11
518.5162416153554
 21
-607.2501399734507
 31
0.0
  0
LINE
  5
20A95
102
{ACAD_REACTORS
330
20D0B
102
}
330
18
100
AcDbEntity
  8
01
100
AcDbLine
 10
518.5162416153554
 20
-607.2176781797426
 30
0.0
 11
518.5162416153554
 21
-607.2409221113613
 31
0.0
  0
LINE
  5
20A96
102
{ACAD_REACTORS
330
20D0B
102
}
330
18
100
AcDbEntity
  8
01
100
AcDbLine
 10
481.5162416153554
 20
-556.9080388558738
 30
0.0
 11
481.5162416153554
 21
-556.9101708325826
 31
0.0
  0
ARC
  5
20A97
102
{ACAD_REACTORS
330
20D0B
102
}
330
18
100
AcDbEntity
  8
01
100
AcDbCircle
 10
482.5162802015012
 20
-556.9078051715738
 30
0.0
 40
1.000038586890028
100
AcDbArc
 50
90.00221073799821
 51
180.0022104290487
  0
ARC
  5
20A98
102
{ACAD_REACTORS
330
20D0B
102
}
330
18
100
AcDbEntity
  8
01
100
AcDbCircle
 10
482.5162802286928
 20
-607.2714075696559
 30
0.0
 40
1.000038614083131
100
AcDbArc
 50
179.9977880133672
 51
269.9977877041571
  0
LINE
  5
20A99
102
{ACAD_REACTORS
330
20D0B
102
}
330
18
100
AcDbEntity
  8
01
100
AcDbLine
 10
481.5162416153549
 20
-607.2651044259361
 30
0.0
 11
481.5162416153554
 21
-607.2710730543464
 31
0.0
  0
LINE
  5
20A9A
102
{ACAD_REACTORS
330
20D0B
102
}
330
18
100
AcDbEntity
  8
01
100
AcDbLine
 10
481.5162416153554
 20
-607.2592853089474
 30
0.0
 11
481.5162416153554
 21
-607.2636650795667
 31
0.0
  0
LINE
  5
20A9B
102
{ACAD_REACTORS
330
20D0B
102
}
330
18
100
AcDbEntity
  8
01
100
AcDbLine
 10
481.5162416153554
 20
-607.2516087821456
 30
0.0
 11
481.5162416153554
 21
-607.257727790227
 31
0.0
  0
LINE
  5
20A9C
102
{ACAD_REACTORS
330
20D0B
102
}
330
18
100
AcDbEntity
  8
01
100
AcDbLine
 10
481.5162416153554
 20
-607.2420991890828
 30
0.0
 11
481.5162416153554
 21
-607.2501399734512
 31
0.0
  0
LINE
  5
20A9D
102
{ACAD_REACTORS
330
20D0B
102
}
330
18
100
AcDbEntity
  8
01
100
AcDbLine
 10
481.5162416153554
 20
-607.2176781797426
 30
0.0
 11
481.5162416153554
 21
-607.2409221113618
 31
0.0
  0
LINE
  5
20A9E
102
{ACAD_REACTORS
330
20D0B
102
}
330
18
100
AcDbEntity
  8
01
100
AcDbLine
 10
517.5162416153554
 20
-608.2713303512675
 30
0.0
 11
482.5162416153554
 21
-608.2713303512675
 31
0.0
  0
LINE
  5
20A9F
102
{ACAD_REACTORS
330
20D0B
102
}
330
18
100
AcDbEntity
  8
01
100
AcDbLine
 10
482.5162416153554
 20
-555.907882335555
 30
0.0
 11
517.5162416153559
 21
-555.907882335555
 31
0.0
  0
LINE
  5
20AA0
102
{ACAD_REACTORS
330
20D0B
102
}
330
18
100
AcDbEntity
  8
01
100
AcDbLine
 10
518.5162416153554
 20
-556.910170832583
 30
0.0
 11
518.5162416153554
 21
-607.2176781797426
 31
0.0
  0
LINE
  5
20AA1
102
{ACAD_REACTORS
330
20D0B
102
}
330
18
100
AcDbEntity
  8
01
100
AcDbLine
 10
518.5162416153554
 20
-607.2636650795708
 30
0.0
 11
518.5162416153554
 21
-607.2651044259356
 31
0.0
  0
LINE
  5
20AA2
102
{ACAD_REACTORS
330
20D0B
102
}
330
18
100
AcDbEntity
  8
01
100
AcDbLine
 10
518.5162416153554
 20
-607.257727790227
 30
0.0
 11
518.5162416153554
 21
-607.2592853090497
 31
0.0
  0
LINE
  5
20AA3
102
{ACAD_REACTORS
330
20D0B
102
}
330
18
100
AcDbEntity
  8
01
100
AcDbLine
 10
518.5162416153554
 20
-607.2501399734507
 30
0.0
 11
518.5162416153554
 21
-607.2516087821542
 31
0.0
  0
LINE
  5
20AA4
102
{ACAD_REACTORS
330
20D0B
102
}
330
18
100
AcDbEntity
  8
01
100
AcDbLine
 10
518.5162416153554
 20
-607.2409221111762
 30
0.0
 11
518.5162416153554
 21
-607.2420991890828
 31
0.0
  0
LINE
  5
20AA5
102
{ACAD_REACTORS
330
20D0B
102
}
330
18
100
AcDbEntity
  8
01
100
AcDbLine
 10
481.5162416153554
 20
-556.9101708325835
 30
0.0
 11
481.5162416153554
 21
-607.2176781797426
 31
0.0
  0
LINE
  5
20AA6
102
{ACAD_REACTORS
330
20D0B
102
}
330
18
100
AcDbEntity
  8
01
100
AcDbLine
 10
481.5162416153554
 20
-607.2636650795708
 30
0.0
 11
481.5162416153554
 21
-607.2651044259356
 31
0.0
  0
LINE
  5
20AA7
102
{ACAD_REACTORS
330
20D0B
102
}
330
18
100
AcDbEntity
  8
01
100
AcDbLine
 10
481.5162416153554
 20
-607.2577277902275
 30
0.0
 11
481.5162416153554
 21
-607.2592853090497
 31
0.0
  0
LINE
  5
20AA8
102
{ACAD_REACTORS
330
20D0B
102
}
330
18
100
AcDbEntity
  8
01
100
AcDbLine
 10
481.5162416153554
 20
-607.2501399734512
 30
0.0
 11
481.5162416153554
 21
-607.2516087821547
 31
0.0
  0
LINE
  5
20AA9
102
{ACAD_REACTORS
330
20D0B
102
}
330
18
100
AcDbEntity
  8
01
100
AcDbLine
 10
481.5162416153559
 20
-607.2409221111762
 30
0.0
 11
481.5162416153559
 21
-607.2420991890823
 31
0.0
  0
LINE
  5
20AAB
102
{ACAD_REACTORS
330
20D0B
102
}
330
18
100
AcDbEntity
  8
01
100
AcDbLine
 10
517.5162416153554
 20
-608.1103738359485
 30
0.0
 11
517.5162416153554
 21
-608.2704024679139
 31
0.0
  0
LINE
  5
20AAD
102
{ACAD_REACTORS
330
20D0B
102
}
330
18
100
AcDbEntity
  8
01
100
AcDbLine
 10
482.5162416153554
 20
-608.1103738359485
 30
0.0
 11
482.5162416153554
 21
-608.2704024679139
 31
0.0
  0
ARC
  5
20AB3
102
{ACAD_REACTORS
330
20D09
102
}
330
18
100
AcDbEntity
  8
01
100
AcDbCircle
 10
669.0162416153654
 20
-740.3558643249049
 30
372.3691988491535
 40
5.5
100
AcDbArc
 50
179.9999999999941
 51
0.0000000000023686
  0
LINE
  5
20AB4
102
{ACAD_REACTORS
330
20D0A
102
}
330
18
100
AcDbEntity
  8
01
100
AcDbLine
 10
481.5162416153649
 20
-663.2941798961459
 30
0.0
 11
481.5162416153649
 21
-663.2844528808249
 31
0.0
  0
LINE
  5
20AB5
102
{ACAD_REACTORS
330
20D0A
102
}
330
18
100
AcDbEntity
  8
01
100
AcDbLine
 10
481.5162416153649
 20
-663.4788325859885
 30
0.0
 11
481.5162416153649
 21
-663.4480958554342
 31
0.0
  0
LINE
  5
20AB6
102
{ACAD_REACTORS
330
20D0A
102
}
330
18
100
AcDbEntity
  8
01
100
AcDbLine
 10
481.5162416153649
 20
-663.5092825422593
 30
0.0
 11
481.5162416153649
 21
-663.5065334559494
 31
0.0
  0
LINE
  5
20AB7
102
{ACAD_REACTORS
330
20D0A
102
}
330
18
100
AcDbEntity
  8
01
100
AcDbLine
 10
481.5162416153649
 20
-663.6794985811811
 30
0.0
 11
481.5162416153649
 21
-663.627296742235
 31
0.0
  0
LINE
  5
20AB8
102
{ACAD_REACTORS
330
20D0A
102
}
330
18
100
AcDbEntity
  8
01
100
AcDbLine
 10
481.5162416153649
 20
-663.8444273682497
 30
0.0
 11
481.5162416153649
 21
-663.8243899712755
 31
0.0
  0
LINE
  5
20AB9
102
{ACAD_REACTORS
330
20D0A
102
}
330
18
100
AcDbEntity
  8
01
100
AcDbLine
 10
481.5162416153649
 20
-663.9217727720755
 30
0.0
 11
481.5162416153649
 21
-663.9199422039245
 31
0.0
  0
LINE
  5
20ABA
102
{ACAD_REACTORS
330
20D0A
102
}
330
18
100
AcDbEntity
  8
01
100
AcDbLine
 10
481.5162416153649
 20
-663.9752465456628
 30
0.0
 11
481.5162416153649
 21
-663.9398478136865
 31
0.0
  0
LINE
  5
20ABB
102
{ACAD_REACTORS
330
20D0A
102
}
330
18
100
AcDbEntity
  8
01
100
AcDbLine
 10
481.5162416153649
 20
-663.9850667530305
 30
0.0
 11
481.5162416153649
 21
-663.9792332217161
 31
0.0
  0
ARC
  5
20ABC
102
{ACAD_REACTORS
330
20D0A
102
}
330
18
100
AcDbEntity
  8
01
100
AcDbCircle
 10
482.5162418110145
 20
-663.9850678074666
 30
0.0
 40
1.000000195650065
100
AcDbArc
 50
179.9999395852737
 51
269.9999887901064
  0
ARC
  5
20ABD
102
{ACAD_REACTORS
330
20D0A
102
}
330
18
100
AcDbEntity
  8
01
100
AcDbCircle
 10
482.5162418113624
 20
-634.3212636245388
 30
0.0
 40
1.000000195998028
100
AcDbArc
 50
90.00001122982577
 51
180.0000604258649
  0
LINE
  5
20ABE
102
{ACAD_REACTORS
330
20D0A
102
}
330
18
100
AcDbEntity
  8
01
100
AcDbLine
 10
481.5162416153654
 20
-634.3361031495236
 30
0.0
 11
481.5162416153649
 21
-634.3310848864779
 31
0.0
  0
LINE
  5
20ABF
102
{ACAD_REACTORS
330
20D0A
102
}
330
18
100
AcDbEntity
  8
01
100
AcDbLine
 10
481.5162416153649
 20
-634.3677563780783
 30
0.0
 11
481.5162416153649
 21
-634.3664836183435
 31
0.0
  0
LINE
  5
20AC0
102
{ACAD_REACTORS
330
20D0A
102
}
330
18
100
AcDbEntity
  8
01
100
AcDbLine
 10
481.5162416153649
 20
-634.3878523851453
 30
0.0
 11
481.5162416153649
 21
-634.3845586603808
 31
0.0
  0
LINE
  5
20AC1
102
{ACAD_REACTORS
330
20D0A
102
}
330
18
100
AcDbEntity
  8
01
100
AcDbLine
 10
518.516241615365
 20
-663.2941798961455
 30
0.0
 11
518.516241615365
 21
-663.2844528808245
 31
0.0
  0
LINE
  5
20AC2
102
{ACAD_REACTORS
330
20D0A
102
}
330
18
100
AcDbEntity
  8
01
100
AcDbLine
 10
518.5162416153659
 20
-663.4788325859882
 30
0.0
 11
518.516241615365
 21
-663.4480958554342
 31
0.0
  0
LINE
  5
20AC3
102
{ACAD_REACTORS
330
20D0A
102
}
330
18
100
AcDbEntity
  8
01
100
AcDbLine
 10
518.516241615365
 20
-663.5092825422595
 30
0.0
 11
518.516241615365
 21
-663.5065334559491
 31
0.0
  0
LINE
  5
20AC4
102
{ACAD_REACTORS
330
20D0A
102
}
330
18
100
AcDbEntity
  8
01
100
AcDbLine
 10
518.516241615365
 20
-663.6794985811815
 30
0.0
 11
518.516241615365
 21
-663.6272967422348
 31
0.0
  0
LINE
  5
20AC5
102
{ACAD_REACTORS
330
20D0A
102
}
330
18
100
AcDbEntity
  8
01
100
AcDbLine
 10
518.516241615365
 20
-663.8444273682497
 30
0.0
 11
518.516241615365
 21
-663.8243899712753
 31
0.0
  0
LINE
  5
20AC6
102
{ACAD_REACTORS
330
20D0A
102
}
330
18
100
AcDbEntity
  8
01
100
AcDbLine
 10
518.516241615365
 20
-663.921772772076
 30
0.0
 11
518.516241615365
 21
-663.9199422039245
 31
0.0
  0
LINE
  5
20AC7
102
{ACAD_REACTORS
330
20D0A
102
}
330
18
100
AcDbEntity
  8
01
100
AcDbLine
 10
518.516241615365
 20
-663.9752465456626
 30
0.0
 11
518.516241615365
 21
-663.9398478136865
 31
0.0
  0
LINE
  5
20AC8
102
{ACAD_REACTORS
330
20D0A
102
}
330
18
100
AcDbEntity
  8
01
100
AcDbLine
 10
518.516241615365
 20
-663.9848556017376
 30
0.0
 11
518.5162416153654
 21
-663.9792332217161
 31
0.0
  0
ARC
  5
20AC9
102
{ACAD_REACTORS
330
20D0A
102
}
330
18
100
AcDbEntity
  8
01
100
AcDbCircle
 10
517.5162432464068
 20
-663.9850696341558
 30
0.0
 40
0.9999983689622818
100
AcDbArc
 50
269.9999065480323
 51
0.0001650766012519
  0
ARC
  5
20ACA
102
{ACAD_REACTORS
330
20D0A
102
}
330
18
100
AcDbEntity
  8
01
100
AcDbCircle
 10
517.5162414193688
 20
-634.3212636245372
 30
0.0
 40
1.000000195996355
100
AcDbArc
 50
359.9999395740439
 51
89.9999887702524
  0
LINE
  5
20ACB
102
{ACAD_REACTORS
330
20D0A
102
}
330
18
100
AcDbEntity
  8
01
100
AcDbLine
 10
518.516241615365
 20
-634.3361031495241
 30
0.0
 11
518.516241615365
 21
-634.3310848864779
 31
0.0
  0
LINE
  5
20ACC
102
{ACAD_REACTORS
330
20D0A
102
}
330
18
100
AcDbEntity
  8
01
100
AcDbLine
 10
518.516241615365
 20
-634.3677563780785
 30
0.0
 11
518.516241615365
 21
-634.3664836183438
 31
0.0
  0
LINE
  5
20ACD
102
{ACAD_REACTORS
330
20D0A
102
}
330
18
100
AcDbEntity
  8
01
100
AcDbLine
 10
518.516241615365
 20
-634.3878523851455
 30
0.0
 11
518.516241615365
 21
-634.3845586603808
 31
0.0
  0
LINE
  5
20ACE
102
{ACAD_REACTORS
330
20D0A
102
}
330
18
100
AcDbEntity
  8
01
100
AcDbLine
 10
482.5162416153649
 20
-633.3213303512426
 30
0.0
 11
517.516241615365
 21
-633.3213303512426
 31
0.0
  0
LINE
  5
20ACF
102
{ACAD_REACTORS
330
20D0A
102
}
330
18
100
AcDbEntity
  8
01
100
AcDbLine
 10
517.516241615365
 20
-664.9850010805977
 30
0.0
 11
482.5162416153649
 21
-664.9850010805977
 31
0.0
  0
LINE
  5
20AD0
102
{ACAD_REACTORS
330
20D0A
102
}
330
18
100
AcDbEntity
  8
01
100
AcDbLine
 10
481.5162416153654
 20
-663.4480958554885
 30
0.0
 11
481.5162416153649
 21
-663.2941798914459
 31
0.0
  0
LINE
  5
20AD1
102
{ACAD_REACTORS
330
20D0A
102
}
330
18
100
AcDbEntity
  8
01
100
AcDbLine
 10
481.5162416153649
 20
-663.5065334559494
 30
0.0
 11
481.5162416153649
 21
-663.4788325859882
 31
0.0
  0
LINE
  5
20AD2
102
{ACAD_REACTORS
330
20D0A
102
}
330
18
100
AcDbEntity
  8
01
100
AcDbLine
 10
481.5162416153654
 20
-663.6272967422386
 30
0.0
 11
481.5162416152526
 21
-634.3212636245427
 31
0.0
  0
LINE
  5
20AD3
102
{ACAD_REACTORS
330
20D0A
102
}
330
18
100
AcDbEntity
  8
01
100
AcDbLine
 10
481.5162416153649
 20
-663.8243899712587
 30
0.0
 11
481.5162416153649
 21
-663.6794985814316
 31
0.0
  0
LINE
  5
20AD4
102
{ACAD_REACTORS
330
20D0A
102
}
330
18
100
AcDbEntity
  8
01
100
AcDbLine
 10
481.5162416153649
 20
-663.9199422021239
 30
0.0
 11
481.5162416153649
 21
-663.8444273682873
 31
0.0
  0
LINE
  5
20AD5
102
{ACAD_REACTORS
330
20D0A
102
}
330
18
100
AcDbEntity
  8
01
100
AcDbLine
 10
481.5162416153649
 20
-663.9398478136917
 30
0.0
 11
481.5162416153649
 21
-663.9217727720751
 31
0.0
  0
LINE
  5
20AD6
102
{ACAD_REACTORS
330
20D0A
102
}
330
18
100
AcDbEntity
  8
01
100
AcDbLine
 10
481.5162416153654
 20
-663.9792332217156
 30
0.0
 11
481.5162416153649
 21
-663.9752465456646
 31
0.0
  0
LINE
  5
20AD7
102
{ACAD_REACTORS
330
20D0A
102
}
330
18
100
AcDbEntity
  8
01
100
AcDbLine
 10
481.5162416153649
 20
-634.3310848865239
 30
0.0
 11
481.5162416153649
 21
-634.321475830562
 31
0.0
  0
LINE
  5
20AD8
102
{ACAD_REACTORS
330
20D0A
102
}
330
18
100
AcDbEntity
  8
01
100
AcDbLine
 10
481.5162416153649
 20
-634.3664836183456
 30
0.0
 11
481.5162416153654
 21
-634.3361031495521
 31
0.0
  0
LINE
  5
20AD9
102
{ACAD_REACTORS
330
20D0A
102
}
330
18
100
AcDbEntity
  8
01
100
AcDbLine
 10
481.5162416153649
 20
-634.3845586603906
 30
0.0
 11
481.5162416153649
 21
-634.3677563780783
 31
0.0
  0
LINE
  5
20ADA
102
{ACAD_REACTORS
330
20D0A
102
}
330
18
100
AcDbEntity
  8
01
100
AcDbLine
 10
518.516241615364
 20
-663.4480958554888
 30
0.0
 11
518.5162416155359
 21
-634.3212636245431
 31
0.0
  0
LINE
  5
20ADB
102
{ACAD_REACTORS
330
20D0A
102
}
330
18
100
AcDbEntity
  8
01
100
AcDbLine
 10
518.516241615365
 20
-663.5065334559489
 30
0.0
 11
518.516241615365
 21
-663.478832585988
 31
0.0
  0
LINE
  5
20ADC
102
{ACAD_REACTORS
330
20D0A
102
}
330
18
100
AcDbEntity
  8
01
100
AcDbLine
 10
518.516241615365
 20
-663.6272967422384
 30
0.0
 11
518.516241615365
 21
-663.5092825419532
 31
0.0
  0
LINE
  5
20ADD
102
{ACAD_REACTORS
330
20D0A
102
}
330
18
100
AcDbEntity
  8
01
100
AcDbLine
 10
518.516241615365
 20
-663.8243899712585
 30
0.0
 11
518.516241615365
 21
-663.6794985814319
 31
0.0
  0
LINE
  5
20ADE
102
{ACAD_REACTORS
330
20D0A
102
}
330
18
100
AcDbEntity
  8
01
100
AcDbLine
 10
518.516241615365
 20
-663.9199422021237
 30
0.0
 11
518.516241615365
 21
-663.8444273682873
 31
0.0
  0
LINE
  5
20ADF
102
{ACAD_REACTORS
330
20D0A
102
}
330
18
100
AcDbEntity
  8
01
100
AcDbLine
 10
518.516241615365
 20
-663.9398478136912
 30
0.0
 11
518.516241615365
 21
-663.9217727720751
 31
0.0
  0
LINE
  5
20AE0
102
{ACAD_REACTORS
330
20D0A
102
}
330
18
100
AcDbEntity
  8
01
100
AcDbLine
 10
518.5162416153654
 20
-663.9792332217161
 30
0.0
 11
518.516241615365
 21
-663.9752465456646
 31
0.0
  0
LINE
  5
20AE1
102
{ACAD_REACTORS
330
20D0A
102
}
330
18
100
AcDbEntity
  8
01
100
AcDbLine
 10
518.5162416153645
 20
-634.3310848865243
 30
0.0
 11
518.516241615365
 21
-634.3214758305622
 31
0.0
  0
LINE
  5
20AE2
102
{ACAD_REACTORS
330
20D0A
102
}
330
18
100
AcDbEntity
  8
01
100
AcDbLine
 10
518.516241615365
 20
-634.3664836183453
 30
0.0
 11
518.516241615365
 21
-634.3361031495521
 31
0.0
  0
LINE
  5
20AE3
102
{ACAD_REACTORS
330
20D0A
102
}
330
18
100
AcDbEntity
  8
01
100
AcDbLine
 10
518.516241615365
 20
-634.3845586603908
 30
0.0
 11
518.516241615365
 21
-634.3677563780785
 31
0.0
  0
LINE
  5
20B24
102
{ACAD_REACTORS
330
20D09
102
}
330
18
100
AcDbEntity
  8
01
100
AcDbLine
 10
713.016241615365
 20
-661.7463303512666
 30
0.0
 11
713.016241615365
 21
-635.2463303512664
 31
0.0
  0
LINE
  5
20B25
102
{ACAD_REACTORS
330
20D09
102
}
330
18
100
AcDbEntity
  8
01
100
AcDbLine
 10
712.8702236771048
 20
-635.2463303512664
 30
0.0
 11
713.016241615365
 21
-635.2463303512664
 31
0.0
  0
LINE
  5
20B29
102
{ACAD_REACTORS
330
20D09
102
}
330
18
100
AcDbEntity
  8
01
100
AcDbLine
 10
674.5162416153645
 20
-664.8181789290325
 30
0.0
 11
674.5162416153645
 21
-670.246330352028
 31
0.0
  0
ARC
  5
20B2A
102
{ACAD_REACTORS
330
20D09
102
}
330
18
100
AcDbEntity
  8
01
100
AcDbCircle
 10
675.5162420655525
 20
-664.8181792423215
 30
0.0
 40
1.000000450187824
100
AcDbArc
 50
121.5169977549106
 51
179.9999820498653
  0
LINE
  5
20B2E
102
{ACAD_REACTORS
330
20D09
102
}
330
18
100
AcDbEntity
  8
01
100
AcDbLine
 10
683.113070932257
 20
-661.7463303512665
 30
0.0
 11
713.016241615365
 21
-661.7463303512666
 31
0.0
  0
ARC
  5
20B50
102
{ACAD_REACTORS
330
20D09
102
}
330
18
100
AcDbEntity
  8
01
100
AcDbCircle
 10
711.4296896310769
 20
-634.8281657159437
 30
0.0
 40
1.5
100
AcDbArc
 50
333.2139611572346
 51
86.78603884273946
  0
ARC
  5
20B53
102
{ACAD_REACTORS
330
20D09
102
}
330
18
100
AcDbEntity
  8
01
100
AcDbCircle
 10
708.5126715055738
 20
-686.7757421159722
 30
0.0
 40
53.52941176470588
100
AcDbArc
 50
86.78603884276673
 51
153.2139611572351
  0
ARC
  5
20B54
102
{ACAD_REACTORS
330
20D09
102
}
330
18
100
AcDbEntity
  8
01
100
AcDbCircle
 10
662.066241615364
 20
-663.3281657159444
 30
0.0
 40
1.500000000000044
100
AcDbArc
 50
153.2139611572346
 51
266.7860388427744
  0
ARC
  5
20B61
102
{ACAD_REACTORS
330
20D09
102
}
330
18
100
AcDbEntity
  8
01
100
AcDbCircle
 10
666.5162418062201
 20
-664.79201539769
 30
0.0
 40
0.4999998091446526
100
AcDbArc
 50
294.6243020410865
 51
350.8385227515694
  0
ARC
  5
20BC4
102
{ACAD_REACTORS
330
20D09
102
}
330
18
100
AcDbEntity
  8
01
100
AcDbCircle
 10
664.9832597408675
 20
-611.3805893159158
 30
0.0
 40
53.52941176470588
100
AcDbArc
 50
266.7860388427662
 51
333.2139611572345
  0
LINE
  5
20BCA
102
{ACAD_REACTORS
330
20D0B
102
}
330
18
100
AcDbEntity
  8
01
100
AcDbLine
 10
516.4821238347428
 20
-555.8213303512664
 30
0.0
 11
516.4821238347428
 21
-555.907882335555
 31
0.0
  0
LINE
  5
20BCB
102
{ACAD_REACTORS
330
20D0B
102
}
330
18
100
AcDbEntity
  8
01
100
AcDbLine
 10
483.550359395968
 20
-555.8213303512664
 30
0.0
 11
483.550359395968
 21
-555.907882335555
 31
0.0
  0
LINE
  5
20BCC
102
{ACAD_REACTORS
330
20D0B
102
}
330
18
100
AcDbEntity
  8
01
100
AcDbLine
 10
516.4821238347428
 20
-555.8213303512664
 30
0.0
 11
483.550359395968
 21
-555.8213303512664
 31
0.0
  0
LINE
  5
20BCD
102
{ACAD_REACTORS
330
20D0B
102
}
330
18
100
AcDbEntity
  8
01
100
AcDbLine
 10
481.5162416153554
 20
-605.3213303512664
 30
0.0
 11
401.0162416153552
 21
-605.3213303512664
 31
0.0
  0
LINE
  5
20D19
330
18
100
AcDbEntity
  8
1DIM
100
AcDbLine
 10
683.4630459208729
 20
-587.2675479276803
 30
0.0
 11
753.4630459208729
 21
-587.2675479276803
 31
0.0
  0
TEXT
  5
20D1A
330
18
100
AcDbEntity
  8
1TEXT
100
AcDbText
 10
684.5963792542063
 20
-585.6028365872046
 30
0.0
 40
4.0
  1
マットブラック
 72
     1
 11
700.863045920873
 21
-585.6028365872046
 31
0.0
100
AcDbText
  0
TEXT
  5
20D1B
330
18
100
AcDbEntity
  8
1TEXT
100
AcDbText
 10
720.8463792542066
 20
-585.9819049113296
 30
0.0
 40
4.0
  1
SE-170-003
 41
0.85
 72
     1
 11
735.8630459208732
 21
-585.9819049113296
 31
0.0
100
AcDbText
  0
LINE
  5
2179E
330
18
100
AcDbEntity
  8
1CENTER
100
AcDbLine
 10
500.0162032222785
 20
-659.1963143592606
 30
0.000001150846515
 11
500.0162032222785
 21
-652.4463143592606
 31
0.000001150846515
  0
LINE
  5
2179F
330
18
100
AcDbEntity
  8
1PHANTOM
100
AcDbLine
 10
485.7162881512625
 20
-559.8213268611823
 30
0.0
 11
493.3162881512624
 21
-559.8213268611823
 31
0.0
  0
LINE
  5
217A0
330
18
100
AcDbEntity
  8
1PHANTOM
100
AcDbLine
 10
506.716203222279
 20
-559.8213303512664
 30
0.000001150846515
 11
514.3162032222789
 21
-559.8213303512664
 31
0.000001150846515
  0
TEXT
  5
21954
330
18
100
AcDbEntity
  8
01
  6
CONTINUOUS
100
AcDbText
 10
719.7537571261875
 20
-611.3902613041472
 30
0.0
 40
3.5
  1
PB
100
AcDbText
  0
TEXT
  5
21955
330
18
100
AcDbEntity
  8
01
  6
CONTINUOUS
100
AcDbText
 10
732.8891752713527
 20
-611.3902613041472
 30
0.0
 40
3.5
  1
合板9mm以上
100
AcDbText
  0
SOLID
  5
21956
330
18
100
AcDbEntity
  8
1DIM
100
AcDbTrace
 10
706.0578288277178
 20
-646.2559830225279
 30
0.0
 11
706.9361258108117
 21
-648.0834691430222
 31
0.0
 12
705.5126061390761
 22
-646.6396191316661
 32
0.0
 13
705.5126061390761
 23
-646.6396191316661
 33
0.0
1001
ACAD
1000
DSTYLE
1002
{
1070
    45
1040
0.5
1002
}
  0
LINE
  5
21957
330
18
100
AcDbEntity
  8
1DIM
100
AcDbLine
 10
705.785217483397
 20
-646.447801077097
 30
0.0
 11
674.2971814174944
 21
-601.6970821667671
 31
0.0
1001
ACAD
1000
DSTYLE
1002
{
1070
    45
1040
0.5
1002
}
  0
LINE
  5
21958
330
18
100
AcDbEntity
  8
1DIM
100
AcDbLine
 10
674.2971814174944
 20
-601.6970821667671
 30
0.0
 11
627.0305147508277
 21
-601.6970821667671
 31
0.0
1001
ACAD
1000
DSTYLE
1002
{
1070
    45
1040
0.5
1002
}
  0
TEXT
  5
21959
330
18
100
AcDbEntity
  8
1DIM
  6
CONTINUOUS
100
AcDbText
 10
626.7971814174942
 20
-595.1637488334337
 30
0.0
 40
3.5
  1
材質：亜鉛ダイキャスト
100
AcDbText
1001
ACADANNOTATIVE
1000
AnnotativeData
1002
{
1070
     1
1070
     0
1002
}
  0
TEXT
  5
2195A
330
18
100
AcDbEntity
  8
1DIM
  6
CONTINUOUS
100
AcDbText
 10
634.4971814174943
 20
-600.9970821667671
 30
0.0
 40
3.5
  1
仕上げ：各種仕上げ
100
AcDbText
1001
ACADANNOTATIVE
1000
AnnotativeData
1002
{
1070
     1
1070
     0
1002
}
  0
LINE
  5
2195B
330
18
100
AcDbEntity
  8
1DIM
100
AcDbLine
 10
660.566241615364
 20
-663.3281657159444
 30
0.0
 11
660.566241615364
 21
-604.8213303512663
 31
0.0
1001
ACAD
1000
DSTYLE
1002
{
1070
    45
1040
0.5
1002
}
  0
LINE
  5
2195C
330
18
100
AcDbEntity
  8
1DIM
100
AcDbLine
 10
713.016241615365
 20
-618.5931567659845
 30
0.0
 11
713.016241615365
 21
-604.8213303512663
 31
0.0
1001
ACAD
1000
DSTYLE
1002
{
1070
    45
1040
0.5
1002
}
  0
LINE
  5
2195D
330
18
100
AcDbEntity
  8
1DIM
100
AcDbLine
 10
662.566241615364
 20
-605.8213303512663
 30
0.0
 11
711.016241615365
 21
-605.8213303512663
 31
0.0
1001
ACAD
1000
DSTYLE
1002
{
1070
    45
1040
0.5
1002
}
  0
LINE
  5
21961
330
18
100
AcDbEntity
  8
1DIM
100
AcDbLine
 10
713.016241615365
 20
-693.0495039365483
 30
0.0
 11
713.016241615365
 21
-702.4213303512677
 31
0.0
1001
ACAD
1000
DSTYLE
1002
{
1070
    45
1040
0.5
1002
}
  0
LINE
  5
21962
330
18
100
AcDbEntity
  8
1DIM
100
AcDbLine
 10
679.8148541589106
 20
-663.0346870623786
 30
0.0
 11
679.8148541589106
 21
-702.4213303512677
 31
0.0
1001
ACAD
1000
DSTYLE
1002
{
1070
    45
1040
0.5
1002
}
  0
LINE
  5
21963
330
18
100
AcDbEntity
  8
1DIM
100
AcDbLine
 10
711.016241615365
 20
-701.4213303512677
 30
0.0
 11
681.8148541589106
 21
-701.4213303512677
 31
0.0
1001
ACAD
1000
DSTYLE
1002
{
1070
    45
1040
0.5
1002
}
  0
LINE
  5
21967
330
18
100
AcDbEntity
  8
1DIM
100
AcDbLine
 10
745.447036532668
 20
-639.3213143592608
 30
0.0
 11
755.516241615365
 21
-639.3213143592608
 31
0.0
1001
ACAD
1000
DSTYLE
1002
{
1070
    45
1040
0.5
1070
   271
1070
     0
1002
}
  0
LINE
  5
21968
330
18
100
AcDbEntity
  8
1DIM
100
AcDbLine
 10
708.5126715055738
 20
-633.2463303512664
 30
0.0
 11
755.516241615365
 21
-633.2463303512664
 31
0.0
1001
ACAD
1000
DSTYLE
1002
{
1070
    45
1040
0.5
1070
   271
1070
     0
1002
}
  0
LINE
  5
21969
330
18
100
AcDbEntity
  8
1DIM
100
AcDbLine
 10
754.516241615365
 20
-637.3213143592608
 30
0.0
 11
754.516241615365
 21
-635.2463303512664
 31
0.0
1001
ACAD
1000
DSTYLE
1002
{
1070
    45
1040
0.5
1070
   271
1070
     0
1002
}
  0
LINE
  5
2196D
330
18
100
AcDbEntity
  8
1DIM
100
AcDbLine
 10
713.016241615365
 20
-661.7463303512666
 30
0.0
 11
765.516241615365
 21
-661.7463303512666
 31
0.0
1001
ACAD
1000
DSTYLE
1002
{
1070
    45
1040
0.5
1002
}
  0
LINE
  5
2196E
330
18
100
AcDbEntity
  8
1DIM
100
AcDbLine
 10
708.5126715055738
 20
-633.2463303512664
 30
0.0
 11
765.516241615365
 21
-633.2463303512664
 31
0.0
1001
ACAD
1000
DSTYLE
1002
{
1070
    45
1040
0.5
1002
}
  0
LINE
  5
2196F
330
18
100
AcDbEntity
  8
1DIM
100
AcDbLine
 10
764.516241615365
 20
-659.7463303512666
 30
0.0
 11
764.516241615365
 21
-635.2463303512664
 31
0.0
1001
ACAD
1000
DSTYLE
1002
{
1070
    45
1040
0.5
1002
}
  0
LINE
  5
21973
330
18
100
AcDbEntity
  8
1DIM
100
AcDbLine
 10
516.4821238347428
 20
-555.8213303512664
 30
0.0
 11
516.4821238347428
 21
-539.8213303512664
 31
0.0
1001
ACAD
1000
DSTYLE
1002
{
1070
    45
1040
0.5
1002
}
  0
LINE
  5
21974
330
18
100
AcDbEntity
  8
1DIM
100
AcDbLine
 10
483.550359395968
 20
-555.8213303512664
 30
0.0
 11
483.550359395968
 21
-539.8213303512664
 31
0.0
1001
ACAD
1000
DSTYLE
1002
{
1070
    45
1040
0.5
1002
}
  0
LINE
  5
21975
330
18
100
AcDbEntity
  8
1DIM
100
AcDbLine
 10
483.550359395968
 20
-540.8213303512664
 30
0.0
 11
469.9495749486888
 21
-540.8213303512664
 31
0.0
1001
ACAD
1000
DSTYLE
1002
{
1070
    45
1040
0.5
1002
}
  0
LINE
  5
21976
330
18
100
AcDbEntity
  8
1DIM
100
AcDbLine
 10
514.4821238347428
 20
-540.8213303512664
 30
0.0
 11
485.550359395968
 21
-540.8213303512664
 31
0.0
1001
ACAD
1000
DSTYLE
1002
{
1070
    45
1040
0.5
1002
}
  0
SOLID
  5
2197A
330
18
100
AcDbEntity
  8
1DIM
100
AcDbTrace
 10
716.6708479197653
 20
-624.9354292138315
 30
0.0
 11
715.9299131930724
 21
-626.8227889680627
 31
0.0
 12
716.0186807169501
 22
-624.797145505403
 32
0.0
 13
716.0186807169501
 23
-624.797145505403
 33
0.0
1001
ACAD
1000
DSTYLE
1002
{
1070
    45
1040
0.5
1002
}
  0
LINE
  5
2197B
330
18
100
AcDbEntity
  8
1DIM
100
AcDbLine
 10
716.3447643183576
 20
-624.8662873596172
 30
0.0
 11
719.0537571261874
 21
-612.0902613041472
 31
0.0
1001
ACAD
1000
DSTYLE
1002
{
1070
    45
1040
0.5
1002
}
  0
SOLID
  5
2197C
330
18
100
AcDbEntity
  8
1DIM
100
AcDbTrace
 10
729.8062660649305
 20
-624.9354292138315
 30
0.0
 11
729.0653313382376
 21
-626.8227889680627
 31
0.0
 12
729.1540988621153
 22
-624.797145505403
 32
0.0
 13
729.1540988621153
 23
-624.797145505403
 33
0.0
1001
ACAD
1000
DSTYLE
1002
{
1070
    45
1040
0.5
1002
}
  0
LINE
  5
2197D
330
18
100
AcDbEntity
  8
1DIM
100
AcDbLine
 10
729.4801824635229
 20
-624.8662873596172
 30
0.0
 11
732.1891752713526
 21
-612.0902613041472
 31
0.0
1001
ACAD
1000
DSTYLE
1002
{
1070
    45
1040
0.5
1002
}
  0
LINE
  5
2197E
330
18
100
AcDbEntity
  8
0
100
AcDbLine
 10
510.5162497550725
 20
-524.8213303514287
 30
0.000001150846515
 11
509.0162497550725
 21
-530.1213268612904
 31
0.000001150846515
  0
LINE
  5
2197F
330
18
100
AcDbEntity
  8
0
100
AcDbLine
 10
509.0162497550725
 20
-530.1213268612904
 30
0.000001150846515
 11
509.0162497550727
 21
-559.8213268611823
 31
0.000001150846515
  0
LINE
  5
21980
330
18
100
AcDbEntity
  8
0
100
AcDbLine
 10
510.5162497550725
 20
-524.8213303514287
 30
0.000001150846515
 11
512.0162497550726
 21
-530.1213338416741
 31
0.000001150846515
  0
LINE
  5
21981
330
18
100
AcDbEntity
  8
0
100
AcDbLine
 10
507.0162032191747
 20
-559.8213222074842
 30
0.000001150846515
 11
514.0162032191746
 21
-559.8213384950486
 31
0.000001150846515
  0
LINE
  5
21982
330
18
100
AcDbEntity
  8
0
100
AcDbLine
 10
512.0162497550726
 20
-530.1213338416741
 30
0.000001150846515
 11
512.0162497550727
 21
-559.821333841567
 31
0.000001150846515
  0
LINE
  5
21983
330
18
100
AcDbEntity
  8
0
100
AcDbLine
 10
507.0162032191747
 20
-559.8213222074842
 30
0.000001150846515
 11
507.0162032191746
 21
-560.9213256976795
 31
0.000001150846515
  0
ARC
  5
21984
330
18
100
AcDbEntity
  8
0
100
AcDbCircle
 10
508.5162032191746
 20
-560.9213256976795
 30
0.000001150846515
 40
1.5
100
AcDbArc
 50
180.0
 51
269.9998666844684
  0
LINE
  5
21985
330
18
100
AcDbEntity
  8
0
100
AcDbLine
 10
514.0162032191746
 20
-559.8213384950486
 30
0.000001150846515
 11
514.0162032191746
 21
-560.9213350048592
 31
0.000001150846515
  0
LINE
  5
21986
330
18
100
AcDbEntity
  8
0
100
AcDbLine
 10
508.5161997289822
 20
-562.4213256976755
 30
0.000001150846515
 11
512.5161997289822
 21
-562.4213350048551
 31
0.000001150846515
  0
ARC
  5
21987
330
18
100
AcDbEntity
  8
0
100
AcDbCircle
 10
512.5162032191746
 20
-560.9213350048592
 30
0.000001150846515
 40
1.5
100
AcDbArc
 50
269.9998666844662
 51
0.0
  0
LINE
  5
21988
330
18
100
AcDbEntity
  8
1CENTER
100
AcDbLine
 10
510.5162032191746
 20
-523.3905354339634
 30
0.000001150846515
 11
510.5162032191746
 21
-563.4916067605752
 31
0.000001150846515
  0
LINE
  5
21989
330
18
100
AcDbEntity
  8
0
100
AcDbLine
 10
509.4218794051795
 20
-526.9213278051066
 30
0.000001150846515
 11
511.384214494055
 21
-526.1213323710556
 31
0.000001150846515
  0
LINE
  5
2198A
330
18
100
AcDbEntity
  8
0
100
AcDbLine
 10
511.384214494055
 20
-526.1213323710556
 30
0.000001150846515
 11
510.7959379190125
 21
-525.8095625148035
 31
0.000001150846515
  0
LINE
  5
2198B
330
18
100
AcDbEntity
  8
0
100
AcDbLine
 10
508.5162497550725
 20
-549.3213256978966
 30
0.000001150846515
 11
512.5162497550725
 21
-548.5213350050783
 31
0.000001150846515
  0
LINE
  5
2198C
330
18
100
AcDbEntity
  8
0
100
AcDbLine
 10
508.5162497550725
 20
-538.1213256978922
 30
0.000001150846515
 11
512.5162497550725
 21
-537.3213350050696
 31
0.000001150846515
  0
LINE
  5
2198D
330
18
100
AcDbEntity
  8
0
100
AcDbLine
 10
508.5162497550725
 20
-534.9213256978921
 30
0.000001150846515
 11
512.5162497550725
 21
-534.1213350050696
 31
0.000001150846515
  0
LINE
  5
2198E
330
18
100
AcDbEntity
  8
0
100
AcDbLine
 10
512.5162497550725
 20
-534.1213350050696
 30
0.000001150846515
 11
512.0162497550725
 21
-534.0213338416723
 31
0.000001150846515
  0
LINE
  5
2198F
330
18
100
AcDbEntity
  8
0
100
AcDbLine
 10
509.0162497550725
 20
-533.4213268612893
 30
0.000001150846515
 11
508.5162497550725
 21
-533.3213256978921
 31
0.000001150846515
  0
LINE
  5
21990
330
18
100
AcDbEntity
  8
0
100
AcDbLine
 10
512.5162497550725
 20
-537.3213350050696
 30
0.000001150846515
 11
512.0162497550725
 21
-537.2213338416724
 31
0.000001150846515
  0
LINE
  5
21991
330
18
100
AcDbEntity
  8
0
100
AcDbLine
 10
512.5162497550725
 20
-535.7213350050695
 30
0.000001150846515
 11
512.0162497550725
 21
-535.6213338416724
 31
0.000001150846515
  0
LINE
  5
21992
330
18
100
AcDbEntity
  8
0
100
AcDbLine
 10
509.0162497550725
 20
-535.0213268612893
 30
0.000001150846515
 11
508.5162497550725
 21
-534.9213256978921
 31
0.000001150846515
  0
LINE
  5
21993
330
18
100
AcDbEntity
  8
0
100
AcDbLine
 10
509.0162497550725
 20
-536.6213268612892
 30
0.000001150846515
 11
508.5162497550725
 21
-536.521325697892
 31
0.000001150846515
  0
LINE
  5
21994
330
18
100
AcDbEntity
  8
0
100
AcDbLine
 10
508.5162497550725
 20
-536.521325697892
 30
0.000001150846515
 11
512.5162497550725
 21
-535.7213350050695
 31
0.000001150846515
  0
LINE
  5
21995
330
18
100
AcDbEntity
  8
0
100
AcDbLine
 10
511.8370285984618
 20
-527.7213334246612
 30
0.000001150846515
 11
511.2852791346585
 21
-527.5385692820332
 31
0.000001150846515
  0
LINE
  5
21996
330
18
100
AcDbEntity
  8
0
100
AcDbLine
 10
512.5162497550725
 20
-530.9213350050695
 30
0.000001150846515
 11
512.0162497550725
 21
-530.8213338416724
 31
0.000001150846515
  0
LINE
  5
21997
330
18
100
AcDbEntity
  8
0
100
AcDbLine
 10
512.5162497550725
 20
-532.5213350050695
 30
0.000001150846515
 11
512.0162497550725
 21
-532.4213338416725
 31
0.000001150846515
  0
LINE
  5
21998
330
18
100
AcDbEntity
  8
0
100
AcDbLine
 10
512.2898427028686
 20
-529.3213344782669
 30
0.000001150846515
 11
511.7532489675974
 21
-529.192063780637
 31
0.000001150846515
  0
LINE
  5
21999
330
18
100
AcDbEntity
  8
0
100
AcDbLine
 10
509.4371643522812
 20
-528.6340962638524
 30
0.000001150846515
 11
508.9690658971313
 21
-528.5213267515023
 31
0.000001150846515
  0
LINE
  5
2199A
330
18
100
AcDbEntity
  8
0
100
AcDbLine
 10
509.0162497550725
 20
-531.8213268612892
 30
0.000001150846515
 11
508.5162497550725
 21
-531.7213256978921
 31
0.000001150846515
  0
LINE
  5
2199B
330
18
100
AcDbEntity
  8
0
100
AcDbLine
 10
509.0162497550725
 20
-530.2213268612893
 30
0.000001150846515
 11
508.5162497550725
 21
-530.1213256978922
 31
0.000001150846515
  0
LINE
  5
2199C
330
18
100
AcDbEntity
  8
0
100
AcDbLine
 10
509.8790512458106
 20
-527.072763601547
 30
0.000001150846515
 11
509.4218794051795
 21
-526.9213278051066
 31
0.000001150846515
  0
LINE
  5
2199D
330
18
100
AcDbEntity
  8
0
100
AcDbLine
 10
508.9690658971313
 20
-528.5213267515023
 30
0.000001150846515
 11
511.8370285984618
 21
-527.7213334246612
 31
0.000001150846515
  0
LINE
  5
2199E
330
18
100
AcDbEntity
  8
0
100
AcDbLine
 10
508.5162497550725
 20
-531.7213256978921
 30
0.000001150846515
 11
512.5162497550725
 21
-530.9213350050695
 31
0.000001150846515
  0
LINE
  5
2199F
330
18
100
AcDbEntity
  8
0
100
AcDbLine
 10
508.5162497550725
 20
-530.1213256978922
 30
0.000001150846515
 11
512.2898427028686
 21
-529.3213344782669
 31
0.000001150846515
  0
LINE
  5
219A0
330
18
100
AcDbEntity
  8
0
100
AcDbLine
 10
508.5162497550725
 20
-533.3213256978921
 30
0.000001150846515
 11
512.5162497550725
 21
-532.5213350050695
 31
0.000001150846515
  0
LINE
  5
219A1
330
18
100
AcDbEntity
  8
0
100
AcDbLine
 10
508.5162497550725
 20
-546.1213256978965
 30
0.000001150846515
 11
512.5162497550725
 21
-545.3213350050783
 31
0.000001150846515
  0
LINE
  5
219A2
330
18
100
AcDbEntity
  8
0
100
AcDbLine
 10
512.5162497550725
 20
-545.3213350050783
 30
0.000001150846515
 11
512.0162497550725
 21
-545.2213338416806
 31
0.000001150846515
  0
LINE
  5
219A3
330
18
100
AcDbEntity
  8
0
100
AcDbLine
 10
509.0162497550725
 20
-544.6213268612898
 30
0.000001150846515
 11
508.5162497550725
 21
-544.5213256978922
 31
0.000001150846515
  0
LINE
  5
219A4
330
18
100
AcDbEntity
  8
0
100
AcDbLine
 10
512.5162497550725
 20
-546.9213350050784
 30
0.000001150846515
 11
512.0162497550725
 21
-546.8213338416807
 31
0.000001150846515
  0
LINE
  5
219A5
330
18
100
AcDbEntity
  8
0
100
AcDbLine
 10
512.5162497550725
 20
-548.5213350050783
 30
0.000001150846515
 11
512.0162497550725
 21
-548.4213338416806
 31
0.000001150846515
  0
LINE
  5
219A6
330
18
100
AcDbEntity
  8
0
100
AcDbLine
 10
509.0162497550725
 20
-546.2213268612942
 30
0.000001150846515
 11
508.5162497550725
 21
-546.1213256978965
 31
0.000001150846515
  0
LINE
  5
219A7
330
18
100
AcDbEntity
  8
0
100
AcDbLine
 10
509.0162497550725
 20
-547.8213268612943
 30
0.000001150846515
 11
508.5162497550725
 21
-547.7213256978966
 31
0.000001150846515
  0
LINE
  5
219A8
330
18
100
AcDbEntity
  8
0
100
AcDbLine
 10
508.5162497550725
 20
-547.7213256978966
 30
0.000001150846515
 11
512.5162497550725
 21
-546.9213350050784
 31
0.000001150846515
  0
LINE
  5
219A9
330
18
100
AcDbEntity
  8
0
100
AcDbLine
 10
512.5162497550725
 20
-540.5213350050739
 30
0.000001150846515
 11
512.0162497550725
 21
-540.4213338416762
 31
0.000001150846515
  0
LINE
  5
219AA
330
18
100
AcDbEntity
  8
0
100
AcDbLine
 10
512.5162497550725
 20
-538.9213350050695
 30
0.000001150846515
 11
512.0162497550725
 21
-538.8213338416724
 31
0.000001150846515
  0
LINE
  5
219AB
330
18
100
AcDbEntity
  8
0
100
AcDbLine
 10
512.5162497550725
 20
-543.7213350050739
 30
0.000001150846515
 11
512.0162497550725
 21
-543.6213338416762
 31
0.000001150846515
  0
LINE
  5
219AC
330
18
100
AcDbEntity
  8
0
100
AcDbLine
 10
512.5162497550725
 20
-542.121335005074
 30
0.000001150846515
 11
512.0162497550725
 21
-542.0213338416763
 31
0.000001150846515
  0
LINE
  5
219AD
330
18
100
AcDbEntity
  8
0
100
AcDbLine
 10
509.0162497550725
 20
-538.2213268612893
 30
0.000001150846515
 11
508.5162497550725
 21
-538.1213256978922
 31
0.000001150846515
  0
LINE
  5
219AE
330
18
100
AcDbEntity
  8
0
100
AcDbLine
 10
509.0162497550725
 20
-539.8213268612899
 30
0.000001150846515
 11
508.5162497550725
 21
-539.7213256978921
 31
0.000001150846515
  0
LINE
  5
219AF
330
18
100
AcDbEntity
  8
0
100
AcDbLine
 10
509.0162497550725
 20
-543.0213268612899
 30
0.000001150846515
 11
508.5162497550725
 21
-542.9213256978923
 31
0.000001150846515
  0
LINE
  5
219B0
330
18
100
AcDbEntity
  8
0
100
AcDbLine
 10
509.0162497550725
 20
-541.4213268612898
 30
0.000001150846515
 11
508.5162497550725
 21
-541.3213256978921
 31
0.000001150846515
  0
LINE
  5
219B1
330
18
100
AcDbEntity
  8
0
100
AcDbLine
 10
508.5162497550725
 20
-541.3213256978921
 30
0.000001150846515
 11
512.5162497550725
 21
-540.5213350050739
 31
0.000001150846515
  0
LINE
  5
219B2
330
18
100
AcDbEntity
  8
0
100
AcDbLine
 10
508.5162497550725
 20
-539.7213256978921
 30
0.000001150846515
 11
512.5162497550725
 21
-538.9213350050695
 31
0.000001150846515
  0
LINE
  5
219B3
330
18
100
AcDbEntity
  8
0
100
AcDbLine
 10
508.5162497550725
 20
-542.9213256978923
 30
0.000001150846515
 11
512.5162497550725
 21
-542.121335005074
 31
0.000001150846515
  0
LINE
  5
219B4
330
18
100
AcDbEntity
  8
0
100
AcDbLine
 10
508.5162497550725
 20
-544.5213256978922
 30
0.000001150846515
 11
512.5162497550725
 21
-543.7213350050739
 31
0.000001150846515
  0
LINE
  5
219B5
330
18
100
AcDbEntity
  8
0
100
AcDbLine
 10
509.0162497550725
 20
-554.2213268612984
 30
0.000001150846515
 11
508.5162497550725
 21
-554.1213256979007
 31
0.000001150846515
  0
LINE
  5
219B6
330
18
100
AcDbEntity
  8
0
100
AcDbLine
 10
508.5162497550725
 20
-554.1213256979007
 30
0.000001150846515
 11
512.5162497550725
 21
-553.3213350050825
 31
0.000001150846515
  0
LINE
  5
219B7
330
18
100
AcDbEntity
  8
0
100
AcDbLine
 10
512.5162497550725
 20
-553.3213350050825
 30
0.000001150846515
 11
512.0162497550725
 21
-553.2213338416848
 31
0.000001150846515
  0
LINE
  5
219B8
330
18
100
AcDbEntity
  8
0
100
AcDbLine
 10
509.0162497550725
 20
-552.6213268612985
 30
0.000001150846515
 11
508.5162497550725
 21
-552.5213256979008
 31
0.000001150846515
  0
LINE
  5
219B9
330
18
100
AcDbEntity
  8
0
100
AcDbLine
 10
509.0162497550725
 20
-551.0213268612986
 30
0.000001150846515
 11
508.5162497550725
 21
-550.9213256979009
 31
0.000001150846515
  0
LINE
  5
219BA
330
18
100
AcDbEntity
  8
0
100
AcDbLine
 10
508.5162497550725
 20
-550.9213256979009
 30
0.000001150846515
 11
512.5162497550725
 21
-550.1213350050826
 31
0.000001150846515
  0
LINE
  5
219BB
330
18
100
AcDbEntity
  8
0
100
AcDbLine
 10
512.5162497550725
 20
-551.7213350050826
 30
0.000001150846515
 11
512.0162497550725
 21
-551.6213338416849
 31
0.000001150846515
  0
LINE
  5
219BC
330
18
100
AcDbEntity
  8
0
100
AcDbLine
 10
512.5162497550725
 20
-550.1213350050826
 30
0.000001150846515
 11
512.0162497550725
 21
-550.021333841685
 31
0.000001150846515
  0
LINE
  5
219BD
330
18
100
AcDbEntity
  8
0
100
AcDbLine
 10
508.5162497550725
 20
-552.5213256979008
 30
0.000001150846515
 11
512.5162497550725
 21
-551.7213350050826
 31
0.000001150846515
  0
LINE
  5
219BE
330
18
100
AcDbEntity
  8
0
100
AcDbLine
 10
509.0162497550725
 20
-549.4213268612942
 30
0.000001150846515
 11
508.5162497550725
 21
-549.3213256978966
 31
0.000001150846515
  0
LINE
  5
219BF
330
18
100
AcDbEntity
  8
0
100
AcDbLine
 10
509.0162497550725
 20
-555.8213268612983
 30
0.000001150846515
 11
508.5162497550725
 21
-555.7213256979006
 31
0.000001150846515
  0
LINE
  5
219C0
330
18
100
AcDbEntity
  8
0
100
AcDbLine
 10
508.5162497550725
 20
-555.7213256979006
 30
0.000001150846515
 11
512.5162497550725
 21
-554.9213350050824
 31
0.000001150846515
  0
LINE
  5
219C1
330
18
100
AcDbEntity
  8
0
100
AcDbLine
 10
512.5162497550725
 20
-554.9213350050824
 30
0.000001150846515
 11
512.0162497550725
 21
-554.8213338416847
 31
0.000001150846515
  0
LINE
  5
219C2
330
18
100
AcDbEntity
  8
0
100
AcDbLine
 10
509.0162497550725
 20
-557.4213268612982
 30
0.000001150846515
 11
508.5162497550725
 21
-557.3213256979005
 31
0.000001150846515
  0
LINE
  5
219C3
330
18
100
AcDbEntity
  8
0
100
AcDbLine
 10
508.5162497550725
 20
-557.3213256979005
 30
0.000001150846515
 11
512.5162497550725
 21
-556.5213350050823
 31
0.000001150846515
  0
LINE
  5
219C4
330
18
100
AcDbEntity
  8
0
100
AcDbLine
 10
512.5162497550725
 20
-556.5213350050823
 30
0.000001150846515
 11
512.0162497550725
 21
-556.4213338416846
 31
0.000001150846515
  0
LINE
  5
219C5
330
18
100
AcDbEntity
  8
0
100
AcDbLine
 10
509.0162497550725
 20
-559.0213268612981
 30
0.000001150846515
 11
508.5162497550725
 21
-558.9213256979004
 31
0.000001150846515
  0
LINE
  5
219C6
330
18
100
AcDbEntity
  8
0
100
AcDbLine
 10
508.5162497550725
 20
-558.9213256979004
 30
0.000001150846515
 11
512.5162497550725
 21
-558.1213350050822
 31
0.000001150846515
  0
LINE
  5
219C7
330
18
100
AcDbEntity
  8
0
100
AcDbLine
 10
512.5162497550725
 20
-558.1213350050822
 30
0.000001150846515
 11
512.0162497550725
 21
-558.0213338416845
 31
0.000001150846515
  0
LINE
  5
219C8
330
18
100
AcDbEntity
  8
0
100
AcDbLine
 10
744.0162416152026
 20
-639.3213608951587
 30
0.000001150846515
 11
738.7162451053409
 21
-637.8213608951587
 31
0.000001150846515
  0
LINE
  5
219C9
330
18
100
AcDbEntity
  8
0
100
AcDbLine
 10
738.7162451053409
 20
-637.8213608951587
 30
0.000001150846515
 11
709.016245105449
 21
-637.8213608951589
 31
0.000001150846515
  0
LINE
  5
219CA
330
18
100
AcDbEntity
  8
0
100
AcDbLine
 10
744.0162416152026
 20
-639.3213608951587
 30
0.000001150846515
 11
738.7162381249573
 21
-640.8213608951588
 31
0.000001150846515
  0
LINE
  5
219CB
330
18
100
AcDbEntity
  8
0
100
AcDbLine
 10
709.0162497591472
 20
-635.8213143592609
 30
0.000001150846515
 11
709.0162334715827
 21
-642.8213143592608
 31
0.000001150846515
  0
LINE
  5
219CC
330
18
100
AcDbEntity
  8
0
100
AcDbLine
 10
738.7162381249573
 20
-640.8213608951588
 30
0.000001150846515
 11
709.0162381250643
 21
-640.8213608951589
 31
0.000001150846515
  0
LINE
  5
219CD
330
18
100
AcDbEntity
  8
0
100
AcDbLine
 10
709.0162497591472
 20
-635.8213143592609
 30
0.000001150846515
 11
707.9162462689518
 21
-635.8213143592608
 31
0.000001150846515
  0
ARC
  5
219CE
330
18
100
AcDbEntity
  8
0
100
AcDbCircle
 10
707.9162462689518
 20
-637.3213143592608
 30
0.000001150846515
 40
1.5
100
AcDbArc
 50
90.0
 51
179.9998666844663
  0
LINE
  5
219CF
330
18
100
AcDbEntity
  8
0
100
AcDbLine
 10
709.0162334715827
 20
-642.8213143592608
 30
0.000001150846515
 11
707.9162369617721
 21
-642.8213143592608
 31
0.000001150846515
  0
LINE
  5
219D0
330
18
100
AcDbEntity
  8
0
100
AcDbLine
 10
706.4162462689559
 20
-637.3213108690684
 30
0.000001150846515
 11
706.4162369617762
 21
-641.3213108690684
 31
0.000001150846515
  0
ARC
  5
219D1
330
18
100
AcDbEntity
  8
0
100
AcDbCircle
 10
707.9162369617721
 20
-641.3213143592608
 30
0.000001150846515
 40
1.5
100
AcDbArc
 50
179.9998666844663
 51
270.0
  0
LINE
  5
219D2
330
18
100
AcDbEntity
  8
1CENTER
100
AcDbLine
 10
745.447036532668
 20
-639.3213143592608
 30
0.000001150846515
 11
705.3459652060561
 21
-639.3213143592608
 31
0.000001150846515
  0
LINE
  5
219D3
330
18
100
AcDbEntity
  8
0
100
AcDbLine
 10
741.9162441615248
 20
-638.2269905452657
 30
0.000001150846515
 11
742.7162395955758
 21
-640.1893256341411
 31
0.000001150846515
  0
LINE
  5
219D4
330
18
100
AcDbEntity
  8
0
100
AcDbLine
 10
742.7162395955758
 20
-640.1893256341411
 30
0.000001150846515
 11
743.0280094518279
 21
-639.6010490590987
 31
0.000001150846515
  0
LINE
  5
219D5
330
18
100
AcDbEntity
  8
0
100
AcDbLine
 10
719.5162462687348
 20
-637.3213608951587
 30
0.000001150846515
 11
720.316236961553
 21
-641.3213608951587
 31
0.000001150846515
  0
LINE
  5
219D6
330
18
100
AcDbEntity
  8
0
100
AcDbLine
 10
730.7162462687392
 20
-637.3213608951587
 30
0.000001150846515
 11
731.5162369615617
 21
-641.3213608951587
 31
0.000001150846515
  0
LINE
  5
219D7
330
18
100
AcDbEntity
  8
0
100
AcDbLine
 10
733.9162462687392
 20
-637.3213608951587
 30
0.000001150846515
 11
734.7162369615618
 21
-641.3213608951587
 31
0.000001150846515
  0
LINE
  5
219D8
330
18
100
AcDbEntity
  8
0
100
AcDbLine
 10
734.7162369615618
 20
-641.3213608951587
 30
0.000001150846515
 11
734.816238124959
 21
-640.8213608951587
 31
0.000001150846515
  0
LINE
  5
219D9
330
18
100
AcDbEntity
  8
0
100
AcDbLine
 10
735.416245105342
 20
-637.8213608951587
 30
0.000001150846515
 11
735.5162462687392
 21
-637.3213608951587
 31
0.000001150846515
  0
LINE
  5
219DA
330
18
100
AcDbEntity
  8
0
100
AcDbLine
 10
731.5162369615617
 20
-641.3213608951587
 30
0.000001150846515
 11
731.616238124959
 21
-640.8213608951587
 31
0.000001150846515
  0
LINE
  5
219DB
330
18
100
AcDbEntity
  8
0
100
AcDbLine
 10
733.1162369615619
 20
-641.3213608951587
 30
0.000001150846515
 11
733.216238124959
 21
-640.8213608951587
 31
0.000001150846515
  0
LINE
  5
219DC
330
18
100
AcDbEntity
  8
0
100
AcDbLine
 10
733.8162451053421
 20
-637.8213608951587
 30
0.000001150846515
 11
733.9162462687392
 21
-637.3213608951587
 31
0.000001150846515
  0
LINE
  5
219DD
330
18
100
AcDbEntity
  8
0
100
AcDbLine
 10
732.2162451053422
 20
-637.8213608951587
 30
0.000001150846515
 11
732.3162462687393
 21
-637.3213608951587
 31
0.000001150846515
  0
LINE
  5
219DE
330
18
100
AcDbEntity
  8
0
100
AcDbLine
 10
732.3162462687393
 20
-637.3213608951587
 30
0.000001150846515
 11
733.1162369615619
 21
-641.3213608951587
 31
0.000001150846515
  0
LINE
  5
219DF
330
18
100
AcDbEntity
  8
0
100
AcDbLine
 10
741.1162385419701
 20
-640.6421397385479
 30
0.000001150846515
 11
741.2990026845981
 21
-640.0903902747447
 31
0.000001150846515
  0
LINE
  5
219E0
330
18
100
AcDbEntity
  8
0
100
AcDbLine
 10
737.9162369615618
 20
-641.3213608951587
 30
0.000001150846515
 11
738.0162381249589
 21
-640.8213608951587
 31
0.000001150846515
  0
LINE
  5
219E1
330
18
100
AcDbEntity
  8
0
100
AcDbLine
 10
736.3162369615618
 20
-641.3213608951587
 30
0.000001150846515
 11
736.4162381249588
 21
-640.8213608951587
 31
0.000001150846515
  0
LINE
  5
219E2
330
18
100
AcDbEntity
  8
0
100
AcDbLine
 10
739.5162374883645
 20
-641.0949538429547
 30
0.000001150846515
 11
739.6455081859943
 21
-640.5583601076836
 31
0.000001150846515
  0
LINE
  5
219E3
330
18
100
AcDbEntity
  8
0
100
AcDbLine
 10
740.203475702779
 20
-638.2422754923674
 30
0.000001150846515
 11
740.316245215129
 21
-637.7741770372174
 31
0.000001150846515
  0
LINE
  5
219E4
330
18
100
AcDbEntity
  8
0
100
AcDbLine
 10
737.0162451053421
 20
-637.8213608951587
 30
0.000001150846515
 11
737.1162462687392
 21
-637.3213608951587
 31
0.000001150846515
  0
LINE
  5
219E5
330
18
100
AcDbEntity
  8
0
100
AcDbLine
 10
738.616245105342
 20
-637.8213608951587
 30
0.000001150846515
 11
738.7162462687392
 21
-637.3213608951587
 31
0.000001150846515
  0
LINE
  5
219E6
330
18
100
AcDbEntity
  8
0
100
AcDbLine
 10
741.7648083650844
 20
-638.6841623858968
 30
0.000001150846515
 11
741.9162441615248
 21
-638.2269905452657
 31
0.000001150846515
  0
LINE
  5
219E7
330
18
100
AcDbEntity
  8
0
100
AcDbLine
 10
740.316245215129
 20
-637.7741770372174
 30
0.000001150846515
 11
741.1162385419701
 21
-640.6421397385479
 31
0.000001150846515
  0
LINE
  5
219E8
330
18
100
AcDbEntity
  8
0
100
AcDbLine
 10
737.1162462687392
 20
-637.3213608951587
 30
0.000001150846515
 11
737.9162369615618
 21
-641.3213608951587
 31
0.000001150846515
  0
LINE
  5
219E9
330
18
100
AcDbEntity
  8
0
100
AcDbLine
 10
738.7162462687392
 20
-637.3213608951587
 30
0.000001150846515
 11
739.5162374883645
 21
-641.0949538429547
 31
0.000001150846515
  0
LINE
  5
219EA
330
18
100
AcDbEntity
  8
0
100
AcDbLine
 10
735.5162462687392
 20
-637.3213608951587
 30
0.000001150846515
 11
736.3162369615618
 21
-641.3213608951587
 31
0.000001150846515
  0
LINE
  5
219EB
330
18
100
AcDbEntity
  8
0
100
AcDbLine
 10
722.7162462687348
 20
-637.3213608951587
 30
0.000001150846515
 11
723.5162369615531
 21
-641.3213608951587
 31
0.000001150846515
  0
LINE
  5
219EC
330
18
100
AcDbEntity
  8
0
100
AcDbLine
 10
723.5162369615531
 20
-641.3213608951587
 30
0.000001150846515
 11
723.6162381249508
 21
-640.8213608951587
 31
0.000001150846515
  0
LINE
  5
219ED
330
18
100
AcDbEntity
  8
0
100
AcDbLine
 10
724.2162451053415
 20
-637.8213608951587
 30
0.000001150846515
 11
724.3162462687392
 21
-637.3213608951587
 31
0.000001150846515
  0
LINE
  5
219EE
330
18
100
AcDbEntity
  8
0
100
AcDbLine
 10
721.916236961553
 20
-641.3213608951587
 30
0.000001150846515
 11
722.0162381249506
 21
-640.8213608951587
 31
0.000001150846515
  0
LINE
  5
219EF
330
18
100
AcDbEntity
  8
0
100
AcDbLine
 10
720.316236961553
 20
-641.3213608951587
 30
0.000001150846515
 11
720.4162381249507
 21
-640.8213608951587
 31
0.000001150846515
  0
LINE
  5
219F0
330
18
100
AcDbEntity
  8
0
100
AcDbLine
 10
722.6162451053372
 20
-637.8213608951587
 30
0.000001150846515
 11
722.7162462687348
 21
-637.3213608951587
 31
0.000001150846515
  0
LINE
  5
219F1
330
18
100
AcDbEntity
  8
0
100
AcDbLine
 10
721.016245105337
 20
-637.8213608951587
 30
0.000001150846515
 11
721.1162462687347
 21
-637.3213608951587
 31
0.000001150846515
  0
LINE
  5
219F2
330
18
100
AcDbEntity
  8
0
100
AcDbLine
 10
721.1162462687347
 20
-637.3213608951587
 30
0.000001150846515
 11
721.916236961553
 21
-641.3213608951587
 31
0.000001150846515
  0
LINE
  5
219F3
330
18
100
AcDbEntity
  8
0
100
AcDbLine
 10
728.3162369615575
 20
-641.3213608951587
 30
0.000001150846515
 11
728.4162381249552
 21
-640.8213608951587
 31
0.000001150846515
  0
LINE
  5
219F4
330
18
100
AcDbEntity
  8
0
100
AcDbLine
 10
729.9162369615618
 20
-641.3213608951587
 30
0.000001150846515
 11
730.0162381249589
 21
-640.8213608951587
 31
0.000001150846515
  0
LINE
  5
219F5
330
18
100
AcDbEntity
  8
0
100
AcDbLine
 10
725.1162369615574
 20
-641.3213608951587
 30
0.000001150846515
 11
725.2162381249551
 21
-640.8213608951587
 31
0.000001150846515
  0
LINE
  5
219F6
330
18
100
AcDbEntity
  8
0
100
AcDbLine
 10
726.7162369615573
 20
-641.3213608951587
 30
0.000001150846515
 11
726.816238124955
 21
-640.8213608951587
 31
0.000001150846515
  0
LINE
  5
219F7
330
18
100
AcDbEntity
  8
0
100
AcDbLine
 10
730.616245105342
 20
-637.8213608951587
 30
0.000001150846515
 11
730.7162462687392
 21
-637.3213608951587
 31
0.000001150846515
  0
LINE
  5
219F8
330
18
100
AcDbEntity
  8
0
100
AcDbLine
 10
729.0162451053415
 20
-637.8213608951587
 30
0.000001150846515
 11
729.1162462687392
 21
-637.3213608951587
 31
0.000001150846515
  0
LINE
  5
219F9
330
18
100
AcDbEntity
  8
0
100
AcDbLine
 10
725.8162451053414
 20
-637.8213608951587
 30
0.000001150846515
 11
725.9162462687391
 21
-637.3213608951587
 31
0.000001150846515
  0
LINE
  5
219FA
330
18
100
AcDbEntity
  8
0
100
AcDbLine
 10
727.4162451053415
 20
-637.8213608951587
 30
0.000001150846515
 11
727.5162462687392
 21
-637.3213608951587
 31
0.000001150846515
  0
LINE
  5
219FB
330
18
100
AcDbEntity
  8
0
100
AcDbLine
 10
727.5162462687392
 20
-637.3213608951587
 30
0.000001150846515
 11
728.3162369615575
 21
-641.3213608951587
 31
0.000001150846515
  0
LINE
  5
219FC
330
18
100
AcDbEntity
  8
0
100
AcDbLine
 10
729.1162462687392
 20
-637.3213608951587
 30
0.000001150846515
 11
729.9162369615618
 21
-641.3213608951587
 31
0.000001150846515
  0
LINE
  5
219FD
330
18
100
AcDbEntity
  8
0
100
AcDbLine
 10
725.9162462687391
 20
-637.3213608951587
 30
0.000001150846515
 11
726.7162369615573
 21
-641.3213608951587
 31
0.000001150846515
  0
LINE
  5
219FE
330
18
100
AcDbEntity
  8
0
100
AcDbLine
 10
724.3162462687392
 20
-637.3213608951587
 30
0.000001150846515
 11
725.1162369615574
 21
-641.3213608951587
 31
0.000001150846515
  0
LINE
  5
219FF
330
18
100
AcDbEntity
  8
0
100
AcDbLine
 10
714.616245105333
 20
-637.8213608951587
 30
0.000001150846515
 11
714.7162462687306
 21
-637.3213608951587
 31
0.000001150846515
  0
LINE
  5
21A00
330
18
100
AcDbEntity
  8
0
100
AcDbLine
 10
714.7162462687306
 20
-637.3213608951587
 30
0.000001150846515
 11
715.5162369615489
 21
-641.3213608951587
 31
0.000001150846515
  0
LINE
  5
21A01
330
18
100
AcDbEntity
  8
0
100
AcDbLine
 10
715.5162369615489
 20
-641.3213608951587
 30
0.000001150846515
 11
715.6162381249466
 21
-640.8213608951587
 31
0.000001150846515
  0
LINE
  5
21A02
330
18
100
AcDbEntity
  8
0
100
AcDbLine
 10
716.2162451053329
 20
-637.8213608951587
 30
0.000001150846515
 11
716.3162462687305
 21
-637.3213608951587
 31
0.000001150846515
  0
LINE
  5
21A03
330
18
100
AcDbEntity
  8
0
100
AcDbLine
 10
717.8162451053328
 20
-637.8213608951587
 30
0.000001150846515
 11
717.9162462687304
 21
-637.3213608951587
 31
0.000001150846515
  0
LINE
  5
21A04
330
18
100
AcDbEntity
  8
0
100
AcDbLine
 10
717.9162462687304
 20
-637.3213608951587
 30
0.000001150846515
 11
718.7162369615487
 21
-641.3213608951587
 31
0.000001150846515
  0
LINE
  5
21A05
330
18
100
AcDbEntity
  8
0
100
AcDbLine
 10
717.1162369615488
 20
-641.3213608951587
 30
0.000001150846515
 11
717.2162381249465
 21
-640.8213608951587
 31
0.000001150846515
  0
LINE
  5
21A06
330
18
100
AcDbEntity
  8
0
100
AcDbLine
 10
718.7162369615487
 20
-641.3213608951587
 30
0.000001150846515
 11
718.8162381249464
 21
-640.8213608951587
 31
0.000001150846515
  0
LINE
  5
21A07
330
18
100
AcDbEntity
  8
0
100
AcDbLine
 10
716.3162462687305
 20
-637.3213608951587
 30
0.000001150846515
 11
717.1162369615488
 21
-641.3213608951587
 31
0.000001150846515
  0
LINE
  5
21A08
330
18
100
AcDbEntity
  8
0
100
AcDbLine
 10
719.4162451053371
 20
-637.8213608951587
 30
0.000001150846515
 11
719.5162462687348
 21
-637.3213608951587
 31
0.000001150846515
  0
LINE
  5
21A09
330
18
100
AcDbEntity
  8
0
100
AcDbLine
 10
713.016245105333
 20
-637.8213608951587
 30
0.000001150846515
 11
713.1162462687307
 21
-637.3213608951587
 31
0.000001150846515
  0
LINE
  5
21A0A
330
18
100
AcDbEntity
  8
0
100
AcDbLine
 10
713.1162462687307
 20
-637.3213608951587
 30
0.000001150846515
 11
713.916236961549
 21
-641.3213608951587
 31
0.000001150846515
  0
LINE
  5
21A0B
330
18
100
AcDbEntity
  8
0
100
AcDbLine
 10
713.916236961549
 20
-641.3213608951587
 30
0.000001150846515
 11
714.0162381249467
 21
-640.8213608951587
 31
0.000001150846515
  0
LINE
  5
21A0C
330
18
100
AcDbEntity
  8
0
100
AcDbLine
 10
711.4162451053331
 20
-637.8213608951587
 30
0.000001150846515
 11
711.5162462687308
 21
-637.3213608951587
 31
0.000001150846515
  0
LINE
  5
21A0D
330
18
100
AcDbEntity
  8
0
100
AcDbLine
 10
711.5162462687308
 20
-637.3213608951587
 30
0.000001150846515
 11
712.3162369615491
 21
-641.3213608951587
 31
0.000001150846515
  0
LINE
  5
21A0E
330
18
100
AcDbEntity
  8
0
100
AcDbLine
 10
712.3162369615491
 20
-641.3213608951587
 30
0.000001150846515
 11
712.4162381249467
 21
-640.8213608951587
 31
0.000001150846515
  0
LINE
  5
21A0F
330
18
100
AcDbEntity
  8
0
100
AcDbLine
 10
709.8162451053332
 20
-637.8213608951587
 30
0.000001150846515
 11
709.9162462687309
 21
-637.3213608951587
 31
0.000001150846515
  0
LINE
  5
21A10
330
18
100
AcDbEntity
  8
0
100
AcDbLine
 10
709.9162462687309
 20
-637.3213608951587
 30
0.000001150846515
 11
710.7162369615492
 21
-641.3213608951587
 31
0.000001150846515
  0
LINE
  5
21A11
330
18
100
AcDbEntity
  8
0
100
AcDbLine
 10
710.7162369615492
 20
-641.3213608951587
 30
0.000001150846515
 11
710.8162381249468
 21
-640.8213608951587
 31
0.000001150846515
  0
LINE
  5
21A12
330
18
100
AcDbEntity
  8
0
100
AcDbLine
 10
489.516334684056
 20
-524.8213268613447
 30
0.0
 11
488.016334684056
 21
-530.1213233712064
 31
0.0
  0
LINE
  5
21A13
330
18
100
AcDbEntity
  8
0
100
AcDbLine
 10
488.016334684056
 20
-530.1213233712064
 30
0.0
 11
488.0163346840562
 21
-559.8213233710983
 31
0.0
  0
LINE
  5
21A14
330
18
100
AcDbEntity
  8
0
100
AcDbLine
 10
489.516334684056
 20
-524.8213268613447
 30
0.0
 11
491.0163346840561
 21
-530.12133035159
 31
0.0
  0
LINE
  5
21A15
330
18
100
AcDbEntity
  8
0
100
AcDbLine
 10
486.0162881481582
 20
-559.8213187174001
 30
0.0
 11
493.0162881481581
 21
-559.8213350049646
 31
0.0
  0
LINE
  5
21A16
330
18
100
AcDbEntity
  8
0
100
AcDbLine
 10
491.0163346840561
 20
-530.12133035159
 30
0.0
 11
491.0163346840562
 21
-559.821330351483
 31
0.0
  0
LINE
  5
21A17
330
18
100
AcDbEntity
  8
0
100
AcDbLine
 10
486.0162881481582
 20
-559.8213187174001
 30
0.0
 11
486.0162881481581
 21
-560.9213222075955
 31
0.0
  0
ARC
  5
21A18
330
18
100
AcDbEntity
  8
0
100
AcDbCircle
 10
487.5162881481581
 20
-560.9213222075955
 30
0.0
 40
1.5
100
AcDbArc
 50
180.0
 51
269.9998666844684
  0
LINE
  5
21A19
330
18
100
AcDbEntity
  8
0
100
AcDbLine
 10
493.0162881481581
 20
-559.8213350049646
 30
0.0
 11
493.0162881481581
 21
-560.9213315147751
 31
0.0
  0
LINE
  5
21A1A
330
18
100
AcDbEntity
  8
0
100
AcDbLine
 10
487.5162846579657
 20
-562.4213222075914
 30
0.0
 11
491.5162846579657
 21
-562.421331514771
 31
0.0
  0
ARC
  5
21A1B
330
18
100
AcDbEntity
  8
0
100
AcDbCircle
 10
491.5162881481581
 20
-560.9213315147751
 30
0.0
 40
1.5
100
AcDbArc
 50
269.9998666844684
 51
0.0
  0
LINE
  5
21A1C
330
18
100
AcDbEntity
  8
1CENTER
100
AcDbLine
 10
489.5162881481581
 20
-523.3905319438793
 30
0.0
 11
489.5162881481581
 21
-563.4916032704912
 31
0.0
  0
LINE
  5
21A1D
330
18
100
AcDbEntity
  8
0
100
AcDbLine
 10
488.421964334163
 20
-526.9213243150225
 30
0.0
 11
490.3842994230384
 21
-526.1213288809715
 31
0.0
  0
LINE
  5
21A1E
330
18
100
AcDbEntity
  8
0
100
AcDbLine
 10
490.3842994230384
 20
-526.1213288809715
 30
0.0
 11
489.796022847996
 21
-525.8095590247194
 31
0.0
  0
LINE
  5
21A1F
330
18
100
AcDbEntity
  8
0
100
AcDbLine
 10
487.516334684056
 20
-549.3213222078125
 30
0.0
 11
491.516334684056
 21
-548.5213315149942
 31
0.0
  0
LINE
  5
21A20
330
18
100
AcDbEntity
  8
0
100
AcDbLine
 10
487.516334684056
 20
-538.1213222078081
 30
0.0
 11
491.516334684056
 21
-537.3213315149856
 31
0.0
  0
LINE
  5
21A21
330
18
100
AcDbEntity
  8
0
100
AcDbLine
 10
487.516334684056
 20
-534.9213222078081
 30
0.0
 11
491.516334684056
 21
-534.1213315149855
 31
0.0
  0
LINE
  5
21A22
330
18
100
AcDbEntity
  8
0
100
AcDbLine
 10
491.516334684056
 20
-534.1213315149855
 30
0.0
 11
491.016334684056
 21
-534.0213303515883
 31
0.0
  0
LINE
  5
21A23
330
18
100
AcDbEntity
  8
0
100
AcDbLine
 10
488.016334684056
 20
-533.4213233712053
 30
0.0
 11
487.516334684056
 21
-533.3213222078081
 31
0.0
  0
LINE
  5
21A24
330
18
100
AcDbEntity
  8
0
100
AcDbLine
 10
491.516334684056
 20
-537.3213315149856
 30
0.0
 11
491.016334684056
 21
-537.2213303515883
 31
0.0
  0
LINE
  5
21A25
330
18
100
AcDbEntity
  8
0
100
AcDbLine
 10
491.516334684056
 20
-535.7213315149854
 30
0.0
 11
491.016334684056
 21
-535.6213303515883
 31
0.0
  0
LINE
  5
21A26
330
18
100
AcDbEntity
  8
0
100
AcDbLine
 10
488.016334684056
 20
-535.0213233712052
 30
0.0
 11
487.516334684056
 21
-534.9213222078081
 31
0.0
  0
LINE
  5
21A27
330
18
100
AcDbEntity
  8
0
100
AcDbLine
 10
488.016334684056
 20
-536.6213233712051
 30
0.0
 11
487.516334684056
 21
-536.521322207808
 31
0.0
  0
LINE
  5
21A28
330
18
100
AcDbEntity
  8
0
100
AcDbLine
 10
487.516334684056
 20
-536.521322207808
 30
0.0
 11
491.516334684056
 21
-535.7213315149854
 31
0.0
  0
LINE
  5
21A29
330
18
100
AcDbEntity
  8
0
100
AcDbLine
 10
490.8371135274452
 20
-527.7213299345772
 30
0.0
 11
490.285364063642
 21
-527.5385657919492
 31
0.0
  0
LINE
  5
21A2A
330
18
100
AcDbEntity
  8
0
100
AcDbLine
 10
491.516334684056
 20
-530.9213315149855
 30
0.0
 11
491.016334684056
 21
-530.8213303515884
 31
0.0
  0
LINE
  5
21A2B
330
18
100
AcDbEntity
  8
0
100
AcDbLine
 10
491.516334684056
 20
-532.5213315149855
 30
0.0
 11
491.016334684056
 21
-532.4213303515885
 31
0.0
  0
LINE
  5
21A2C
330
18
100
AcDbEntity
  8
0
100
AcDbLine
 10
491.289927631852
 20
-529.3213309881828
 30
0.0
 11
490.7533338965809
 21
-529.192060290553
 31
0.0
  0
LINE
  5
21A2D
330
18
100
AcDbEntity
  8
0
100
AcDbLine
 10
488.4372492812647
 20
-528.6340927737683
 30
0.0
 11
487.9691508261147
 21
-528.5213232614183
 31
0.0
  0
LINE
  5
21A2E
330
18
100
AcDbEntity
  8
0
100
AcDbLine
 10
488.016334684056
 20
-531.8213233712052
 30
0.0
 11
487.516334684056
 21
-531.721322207808
 31
0.0
  0
LINE
  5
21A2F
330
18
100
AcDbEntity
  8
0
100
AcDbLine
 10
488.016334684056
 20
-530.2213233712052
 30
0.0
 11
487.516334684056
 21
-530.1213222078081
 31
0.0
  0
LINE
  5
21A30
330
18
100
AcDbEntity
  8
0
100
AcDbLine
 10
488.8791361747941
 20
-527.0727601114629
 30
0.0
 11
488.421964334163
 21
-526.9213243150225
 31
0.0
  0
LINE
  5
21A31
330
18
100
AcDbEntity
  8
0
100
AcDbLine
 10
487.9691508261147
 20
-528.5213232614183
 30
0.0
 11
490.8371135274452
 21
-527.7213299345772
 31
0.0
  0
LINE
  5
21A32
330
18
100
AcDbEntity
  8
0
100
AcDbLine
 10
487.516334684056
 20
-531.721322207808
 30
0.0
 11
491.516334684056
 21
-530.9213315149855
 31
0.0
  0
LINE
  5
21A33
330
18
100
AcDbEntity
  8
0
100
AcDbLine
 10
487.516334684056
 20
-530.1213222078081
 30
0.0
 11
491.289927631852
 21
-529.3213309881828
 31
0.0
  0
LINE
  5
21A34
330
18
100
AcDbEntity
  8
0
100
AcDbLine
 10
487.516334684056
 20
-533.3213222078081
 30
0.0
 11
491.516334684056
 21
-532.5213315149855
 31
0.0
  0
LINE
  5
21A35
330
18
100
AcDbEntity
  8
0
100
AcDbLine
 10
487.516334684056
 20
-546.1213222078125
 30
0.0
 11
491.516334684056
 21
-545.3213315149942
 31
0.0
  0
LINE
  5
21A36
330
18
100
AcDbEntity
  8
0
100
AcDbLine
 10
491.516334684056
 20
-545.3213315149942
 30
0.0
 11
491.016334684056
 21
-545.2213303515965
 31
0.0
  0
LINE
  5
21A37
330
18
100
AcDbEntity
  8
0
100
AcDbLine
 10
488.016334684056
 20
-544.6213233712058
 30
0.0
 11
487.516334684056
 21
-544.5213222078081
 31
0.0
  0
LINE
  5
21A38
330
18
100
AcDbEntity
  8
0
100
AcDbLine
 10
491.516334684056
 20
-546.9213315149943
 30
0.0
 11
491.016334684056
 21
-546.8213303515967
 31
0.0
  0
LINE
  5
21A39
330
18
100
AcDbEntity
  8
0
100
AcDbLine
 10
491.516334684056
 20
-548.5213315149942
 30
0.0
 11
491.016334684056
 21
-548.4213303515966
 31
0.0
  0
LINE
  5
21A3A
330
18
100
AcDbEntity
  8
0
100
AcDbLine
 10
488.016334684056
 20
-546.2213233712101
 30
0.0
 11
487.516334684056
 21
-546.1213222078125
 31
0.0
  0
LINE
  5
21A3B
330
18
100
AcDbEntity
  8
0
100
AcDbLine
 10
488.016334684056
 20
-547.8213233712103
 30
0.0
 11
487.516334684056
 21
-547.7213222078126
 31
0.0
  0
LINE
  5
21A3C
330
18
100
AcDbEntity
  8
0
100
AcDbLine
 10
487.516334684056
 20
-547.7213222078126
 30
0.0
 11
491.516334684056
 21
-546.9213315149943
 31
0.0
  0
LINE
  5
21A3D
330
18
100
AcDbEntity
  8
0
100
AcDbLine
 10
491.516334684056
 20
-540.5213315149898
 30
0.0
 11
491.016334684056
 21
-540.4213303515921
 31
0.0
  0
LINE
  5
21A3E
330
18
100
AcDbEntity
  8
0
100
AcDbLine
 10
491.516334684056
 20
-538.9213315149855
 30
0.0
 11
491.016334684056
 21
-538.8213303515884
 31
0.0
  0
LINE
  5
21A3F
330
18
100
AcDbEntity
  8
0
100
AcDbLine
 10
491.516334684056
 20
-543.7213315149899
 30
0.0
 11
491.016334684056
 21
-543.6213303515922
 31
0.0
  0
LINE
  5
21A40
330
18
100
AcDbEntity
  8
0
100
AcDbLine
 10
491.516334684056
 20
-542.12133151499
 30
0.0
 11
491.016334684056
 21
-542.0213303515923
 31
0.0
  0
LINE
  5
21A41
330
18
100
AcDbEntity
  8
0
100
AcDbLine
 10
488.016334684056
 20
-538.2213233712052
 30
0.0
 11
487.516334684056
 21
-538.1213222078081
 31
0.0
  0
LINE
  5
21A42
330
18
100
AcDbEntity
  8
0
100
AcDbLine
 10
488.016334684056
 20
-539.8213233712058
 30
0.0
 11
487.516334684056
 21
-539.721322207808
 31
0.0
  0
LINE
  5
21A43
330
18
100
AcDbEntity
  8
0
100
AcDbLine
 10
488.016334684056
 20
-543.0213233712059
 30
0.0
 11
487.516334684056
 21
-542.9213222078082
 31
0.0
  0
LINE
  5
21A44
330
18
100
AcDbEntity
  8
0
100
AcDbLine
 10
488.016334684056
 20
-541.4213233712057
 30
0.0
 11
487.516334684056
 21
-541.3213222078081
 31
0.0
  0
LINE
  5
21A45
330
18
100
AcDbEntity
  8
0
100
AcDbLine
 10
487.516334684056
 20
-541.3213222078081
 30
0.0
 11
491.516334684056
 21
-540.5213315149898
 31
0.0
  0
LINE
  5
21A46
330
18
100
AcDbEntity
  8
0
100
AcDbLine
 10
487.516334684056
 20
-539.721322207808
 30
0.0
 11
491.516334684056
 21
-538.9213315149855
 31
0.0
  0
LINE
  5
21A47
330
18
100
AcDbEntity
  8
0
100
AcDbLine
 10
487.516334684056
 20
-542.9213222078082
 30
0.0
 11
491.516334684056
 21
-542.12133151499
 31
0.0
  0
LINE
  5
21A48
330
18
100
AcDbEntity
  8
0
100
AcDbLine
 10
487.516334684056
 20
-544.5213222078081
 30
0.0
 11
491.516334684056
 21
-543.7213315149899
 31
0.0
  0
LINE
  5
21A49
330
18
100
AcDbEntity
  8
0
100
AcDbLine
 10
488.016334684056
 20
-554.2213233712143
 30
0.0
 11
487.516334684056
 21
-554.1213222078167
 31
0.0
  0
LINE
  5
21A4A
330
18
100
AcDbEntity
  8
0
100
AcDbLine
 10
487.516334684056
 20
-554.1213222078167
 30
0.0
 11
491.516334684056
 21
-553.3213315149984
 31
0.0
  0
LINE
  5
21A4B
330
18
100
AcDbEntity
  8
0
100
AcDbLine
 10
491.516334684056
 20
-553.3213315149984
 30
0.0
 11
491.016334684056
 21
-553.2213303516007
 31
0.0
  0
LINE
  5
21A4C
330
18
100
AcDbEntity
  8
0
100
AcDbLine
 10
488.016334684056
 20
-552.6213233712144
 30
0.0
 11
487.516334684056
 21
-552.5213222078168
 31
0.0
  0
LINE
  5
21A4D
330
18
100
AcDbEntity
  8
0
100
AcDbLine
 10
488.016334684056
 20
-551.0213233712145
 30
0.0
 11
487.516334684056
 21
-550.9213222078168
 31
0.0
  0
LINE
  5
21A4E
330
18
100
AcDbEntity
  8
0
100
AcDbLine
 10
487.516334684056
 20
-550.9213222078168
 30
0.0
 11
491.516334684056
 21
-550.1213315149986
 31
0.0
  0
LINE
  5
21A4F
330
18
100
AcDbEntity
  8
0
100
AcDbLine
 10
491.516334684056
 20
-551.7213315149985
 30
0.0
 11
491.016334684056
 21
-551.6213303516008
 31
0.0
  0
LINE
  5
21A50
330
18
100
AcDbEntity
  8
0
100
AcDbLine
 10
491.516334684056
 20
-550.1213315149986
 30
0.0
 11
491.016334684056
 21
-550.0213303516009
 31
0.0
  0
LINE
  5
21A51
330
18
100
AcDbEntity
  8
0
100
AcDbLine
 10
487.516334684056
 20
-552.5213222078168
 30
0.0
 11
491.516334684056
 21
-551.7213315149985
 31
0.0
  0
LINE
  5
21A52
330
18
100
AcDbEntity
  8
0
100
AcDbLine
 10
488.016334684056
 20
-549.4213233712102
 30
0.0
 11
487.516334684056
 21
-549.3213222078125
 31
0.0
  0
LINE
  5
21A53
330
18
100
AcDbEntity
  8
0
100
AcDbLine
 10
488.016334684056
 20
-555.8213233712142
 30
0.0
 11
487.516334684056
 21
-555.7213222078166
 31
0.0
  0
LINE
  5
21A54
330
18
100
AcDbEntity
  8
0
100
AcDbLine
 10
487.516334684056
 20
-555.7213222078166
 30
0.0
 11
491.516334684056
 21
-554.9213315149983
 31
0.0
  0
LINE
  5
21A55
330
18
100
AcDbEntity
  8
0
100
AcDbLine
 10
491.516334684056
 20
-554.9213315149983
 30
0.0
 11
491.016334684056
 21
-554.8213303516006
 31
0.0
  0
LINE
  5
21A56
330
18
100
AcDbEntity
  8
0
100
AcDbLine
 10
488.016334684056
 20
-557.4213233712142
 30
0.0
 11
487.516334684056
 21
-557.3213222078165
 31
0.0
  0
LINE
  5
21A57
330
18
100
AcDbEntity
  8
0
100
AcDbLine
 10
487.516334684056
 20
-557.3213222078165
 30
0.0
 11
491.516334684056
 21
-556.5213315149982
 31
0.0
  0
LINE
  5
21A58
330
18
100
AcDbEntity
  8
0
100
AcDbLine
 10
491.516334684056
 20
-556.5213315149982
 30
0.0
 11
491.016334684056
 21
-556.4213303516005
 31
0.0
  0
LINE
  5
21A59
330
18
100
AcDbEntity
  8
0
100
AcDbLine
 10
488.016334684056
 20
-559.0213233712141
 30
0.0
 11
487.516334684056
 21
-558.9213222078164
 31
0.0
  0
LINE
  5
21A5A
330
18
100
AcDbEntity
  8
0
100
AcDbLine
 10
487.516334684056
 20
-558.9213222078164
 30
0.0
 11
491.516334684056
 21
-558.1213315149981
 31
0.0
  0
LINE
  5
21A5B
330
18
100
AcDbEntity
  8
0
100
AcDbLine
 10
491.516334684056
 20
-558.1213315149981
 30
0.0
 11
491.016334684056
 21
-558.0213303516005
 31
0.0
  0
LINE
  5
21A5C
330
18
100
AcDbEntity
  8
0
100
AcDbLine
 10
744.0162416152026
 20
-655.8213303512664
 30
0.0
 11
738.7162451053409
 21
-654.3213303512664
 31
0.0
  0
LINE
  5
21A5D
330
18
100
AcDbEntity
  8
0
100
AcDbLine
 10
738.7162451053409
 20
-654.3213303512664
 30
0.0
 11
709.016245105449
 21
-654.3213303512666
 31
0.0
  0
LINE
  5
21A5E
330
18
100
AcDbEntity
  8
0
100
AcDbLine
 10
744.0162416152026
 20
-655.8213303512664
 30
0.0
 11
738.7162381249573
 21
-657.3213303512665
 31
0.0
  0
LINE
  5
21A5F
330
18
100
AcDbEntity
  8
0
100
AcDbLine
 10
709.0162497591472
 20
-652.3212838153686
 30
0.0
 11
709.0162334715827
 21
-659.3212838153685
 31
0.0
  0
LINE
  5
21A60
330
18
100
AcDbEntity
  8
0
100
AcDbLine
 10
738.7162381249573
 20
-657.3213303512665
 30
0.0
 11
709.0162381250643
 21
-657.3213303512666
 31
0.0
  0
LINE
  5
21A61
330
18
100
AcDbEntity
  8
0
100
AcDbLine
 10
709.0162497591472
 20
-652.3212838153686
 30
0.0
 11
707.9162462689518
 21
-652.3212838153685
 31
0.0
  0
ARC
  5
21A62
330
18
100
AcDbEntity
  8
0
100
AcDbCircle
 10
707.9162462689518
 20
-653.8212838153685
 30
0.0
 40
1.5
100
AcDbArc
 50
90.0
 51
179.9998666844663
  0
LINE
  5
21A63
330
18
100
AcDbEntity
  8
0
100
AcDbLine
 10
709.0162334715827
 20
-659.3212838153685
 30
0.0
 11
707.9162369617721
 21
-659.3212838153685
 31
0.0
  0
LINE
  5
21A64
330
18
100
AcDbEntity
  8
0
100
AcDbLine
 10
706.4162462689559
 20
-653.8212803251761
 30
0.0
 11
706.4162369617762
 21
-657.8212803251761
 31
0.0
  0
ARC
  5
21A65
330
18
100
AcDbEntity
  8
0
100
AcDbCircle
 10
707.9162369617721
 20
-657.8212838153685
 30
0.0
 40
1.5
100
AcDbArc
 50
179.9998666844663
 51
270.0
  0
LINE
  5
21A66
330
18
100
AcDbEntity
  8
1CENTER
100
AcDbLine
 10
745.447036532668
 20
-655.8212838153685
 30
0.0
 11
705.3459652060561
 21
-655.8212838153685
 31
0.0
  0
LINE
  5
21A67
330
18
100
AcDbEntity
  8
0
100
AcDbLine
 10
741.9162441615248
 20
-654.7269600013734
 30
0.0
 11
742.7162395955758
 21
-656.6892950902488
 31
0.0
  0
LINE
  5
21A68
330
18
100
AcDbEntity
  8
0
100
AcDbLine
 10
742.7162395955758
 20
-656.6892950902488
 30
0.0
 11
743.0280094518279
 21
-656.1010185152064
 31
0.0
  0
LINE
  5
21A69
330
18
100
AcDbEntity
  8
0
100
AcDbLine
 10
719.5162462687348
 20
-653.8213303512664
 30
0.0
 11
720.316236961553
 21
-657.8213303512664
 31
0.0
  0
LINE
  5
21A6A
330
18
100
AcDbEntity
  8
0
100
AcDbLine
 10
730.7162462687392
 20
-653.8213303512664
 30
0.0
 11
731.5162369615617
 21
-657.8213303512664
 31
0.0
  0
LINE
  5
21A6B
330
18
100
AcDbEntity
  8
0
100
AcDbLine
 10
733.9162462687392
 20
-653.8213303512664
 30
0.0
 11
734.7162369615618
 21
-657.8213303512664
 31
0.0
  0
LINE
  5
21A6C
330
18
100
AcDbEntity
  8
0
100
AcDbLine
 10
734.7162369615618
 20
-657.8213303512664
 30
0.0
 11
734.816238124959
 21
-657.3213303512664
 31
0.0
  0
LINE
  5
21A6D
330
18
100
AcDbEntity
  8
0
100
AcDbLine
 10
735.416245105342
 20
-654.3213303512664
 30
0.0
 11
735.5162462687392
 21
-653.8213303512664
 31
0.0
  0
LINE
  5
21A6E
330
18
100
AcDbEntity
  8
0
100
AcDbLine
 10
731.5162369615617
 20
-657.8213303512664
 30
0.0
 11
731.616238124959
 21
-657.3213303512664
 31
0.0
  0
LINE
  5
21A6F
330
18
100
AcDbEntity
  8
0
100
AcDbLine
 10
733.1162369615619
 20
-657.8213303512664
 30
0.0
 11
733.216238124959
 21
-657.3213303512664
 31
0.0
  0
LINE
  5
21A70
330
18
100
AcDbEntity
  8
0
100
AcDbLine
 10
733.8162451053421
 20
-654.3213303512664
 30
0.0
 11
733.9162462687392
 21
-653.8213303512664
 31
0.0
  0
LINE
  5
21A71
330
18
100
AcDbEntity
  8
0
100
AcDbLine
 10
732.2162451053422
 20
-654.3213303512664
 30
0.0
 11
732.3162462687393
 21
-653.8213303512664
 31
0.0
  0
LINE
  5
21A72
330
18
100
AcDbEntity
  8
0
100
AcDbLine
 10
732.3162462687393
 20
-653.8213303512664
 30
0.0
 11
733.1162369615619
 21
-657.8213303512664
 31
0.0
  0
LINE
  5
21A73
330
18
100
AcDbEntity
  8
0
100
AcDbLine
 10
741.1162385419701
 20
-657.1421091946556
 30
0.0
 11
741.2990026845981
 21
-656.5903597308524
 31
0.0
  0
LINE
  5
21A74
330
18
100
AcDbEntity
  8
0
100
AcDbLine
 10
737.9162369615618
 20
-657.8213303512664
 30
0.0
 11
738.0162381249589
 21
-657.3213303512664
 31
0.0
  0
LINE
  5
21A75
330
18
100
AcDbEntity
  8
0
100
AcDbLine
 10
736.3162369615618
 20
-657.8213303512664
 30
0.0
 11
736.4162381249588
 21
-657.3213303512664
 31
0.0
  0
LINE
  5
21A76
330
18
100
AcDbEntity
  8
0
100
AcDbLine
 10
739.5162374883645
 20
-657.5949232990624
 30
0.0
 11
739.6455081859943
 21
-657.0583295637913
 31
0.0
  0
LINE
  5
21A77
330
18
100
AcDbEntity
  8
0
100
AcDbLine
 10
740.203475702779
 20
-654.7422449484751
 30
0.0
 11
740.316245215129
 21
-654.2741464933251
 31
0.0
  0
LINE
  5
21A78
330
18
100
AcDbEntity
  8
0
100
AcDbLine
 10
737.0162451053421
 20
-654.3213303512664
 30
0.0
 11
737.1162462687392
 21
-653.8213303512664
 31
0.0
  0
LINE
  5
21A79
330
18
100
AcDbEntity
  8
0
100
AcDbLine
 10
738.616245105342
 20
-654.3213303512664
 30
0.0
 11
738.7162462687392
 21
-653.8213303512664
 31
0.0
  0
LINE
  5
21A7A
330
18
100
AcDbEntity
  8
0
100
AcDbLine
 10
741.7648083650844
 20
-655.1841318420045
 30
0.0
 11
741.9162441615248
 21
-654.7269600013734
 31
0.0
  0
LINE
  5
21A7B
330
18
100
AcDbEntity
  8
0
100
AcDbLine
 10
740.316245215129
 20
-654.2741464933251
 30
0.0
 11
741.1162385419701
 21
-657.1421091946556
 31
0.0
  0
LINE
  5
21A7C
330
18
100
AcDbEntity
  8
0
100
AcDbLine
 10
737.1162462687392
 20
-653.8213303512664
 30
0.0
 11
737.9162369615618
 21
-657.8213303512664
 31
0.0
  0
LINE
  5
21A7D
330
18
100
AcDbEntity
  8
0
100
AcDbLine
 10
738.7162462687392
 20
-653.8213303512664
 30
0.0
 11
739.5162374883645
 21
-657.5949232990624
 31
0.0
  0
LINE
  5
21A7E
330
18
100
AcDbEntity
  8
0
100
AcDbLine
 10
735.5162462687392
 20
-653.8213303512664
 30
0.0
 11
736.3162369615618
 21
-657.8213303512664
 31
0.0
  0
LINE
  5
21A7F
330
18
100
AcDbEntity
  8
0
100
AcDbLine
 10
722.7162462687348
 20
-653.8213303512664
 30
0.0
 11
723.5162369615531
 21
-657.8213303512664
 31
0.0
  0
LINE
  5
21A80
330
18
100
AcDbEntity
  8
0
100
AcDbLine
 10
723.5162369615531
 20
-657.8213303512664
 30
0.0
 11
723.6162381249508
 21
-657.3213303512664
 31
0.0
  0
LINE
  5
21A81
330
18
100
AcDbEntity
  8
0
100
AcDbLine
 10
724.2162451053415
 20
-654.3213303512664
 30
0.0
 11
724.3162462687392
 21
-653.8213303512664
 31
0.0
  0
LINE
  5
21A82
330
18
100
AcDbEntity
  8
0
100
AcDbLine
 10
721.916236961553
 20
-657.8213303512664
 30
0.0
 11
722.0162381249506
 21
-657.3213303512664
 31
0.0
  0
LINE
  5
21A83
330
18
100
AcDbEntity
  8
0
100
AcDbLine
 10
720.316236961553
 20
-657.8213303512664
 30
0.0
 11
720.4162381249507
 21
-657.3213303512664
 31
0.0
  0
LINE
  5
21A84
330
18
100
AcDbEntity
  8
0
100
AcDbLine
 10
722.6162451053372
 20
-654.3213303512664
 30
0.0
 11
722.7162462687348
 21
-653.8213303512664
 31
0.0
  0
LINE
  5
21A85
330
18
100
AcDbEntity
  8
0
100
AcDbLine
 10
721.016245105337
 20
-654.3213303512664
 30
0.0
 11
721.1162462687347
 21
-653.8213303512664
 31
0.0
  0
LINE
  5
21A86
330
18
100
AcDbEntity
  8
0
100
AcDbLine
 10
721.1162462687347
 20
-653.8213303512664
 30
0.0
 11
721.916236961553
 21
-657.8213303512664
 31
0.0
  0
LINE
  5
21A87
330
18
100
AcDbEntity
  8
0
100
AcDbLine
 10
728.3162369615575
 20
-657.8213303512664
 30
0.0
 11
728.4162381249552
 21
-657.3213303512664
 31
0.0
  0
LINE
  5
21A88
330
18
100
AcDbEntity
  8
0
100
AcDbLine
 10
729.9162369615618
 20
-657.8213303512664
 30
0.0
 11
730.0162381249589
 21
-657.3213303512664
 31
0.0
  0
LINE
  5
21A89
330
18
100
AcDbEntity
  8
0
100
AcDbLine
 10
725.1162369615574
 20
-657.8213303512664
 30
0.0
 11
725.2162381249551
 21
-657.3213303512664
 31
0.0
  0
LINE
  5
21A8A
330
18
100
AcDbEntity
  8
0
100
AcDbLine
 10
726.7162369615573
 20
-657.8213303512664
 30
0.0
 11
726.816238124955
 21
-657.3213303512664
 31
0.0
  0
LINE
  5
21A8B
330
18
100
AcDbEntity
  8
0
100
AcDbLine
 10
730.616245105342
 20
-654.3213303512664
 30
0.0
 11
730.7162462687392
 21
-653.8213303512664
 31
0.0
  0
LINE
  5
21A8C
330
18
100
AcDbEntity
  8
0
100
AcDbLine
 10
729.0162451053415
 20
-654.3213303512664
 30
0.0
 11
729.1162462687392
 21
-653.8213303512664
 31
0.0
  0
LINE
  5
21A8D
330
18
100
AcDbEntity
  8
0
100
AcDbLine
 10
725.8162451053414
 20
-654.3213303512664
 30
0.0
 11
725.9162462687391
 21
-653.8213303512664
 31
0.0
  0
LINE
  5
21A8E
330
18
100
AcDbEntity
  8
0
100
AcDbLine
 10
727.4162451053415
 20
-654.3213303512664
 30
0.0
 11
727.5162462687392
 21
-653.8213303512664
 31
0.0
  0
LINE
  5
21A8F
330
18
100
AcDbEntity
  8
0
100
AcDbLine
 10
727.5162462687392
 20
-653.8213303512664
 30
0.0
 11
728.3162369615575
 21
-657.8213303512664
 31
0.0
  0
LINE
  5
21A90
330
18
100
AcDbEntity
  8
0
100
AcDbLine
 10
729.1162462687392
 20
-653.8213303512664
 30
0.0
 11
729.9162369615618
 21
-657.8213303512664
 31
0.0
  0
LINE
  5
21A91
330
18
100
AcDbEntity
  8
0
100
AcDbLine
 10
725.9162462687391
 20
-653.8213303512664
 30
0.0
 11
726.7162369615573
 21
-657.8213303512664
 31
0.0
  0
LINE
  5
21A92
330
18
100
AcDbEntity
  8
0
100
AcDbLine
 10
724.3162462687392
 20
-653.8213303512664
 30
0.0
 11
725.1162369615574
 21
-657.8213303512664
 31
0.0
  0
LINE
  5
21A93
330
18
100
AcDbEntity
  8
0
100
AcDbLine
 10
714.616245105333
 20
-654.3213303512664
 30
0.0
 11
714.7162462687306
 21
-653.8213303512664
 31
0.0
  0
LINE
  5
21A94
330
18
100
AcDbEntity
  8
0
100
AcDbLine
 10
714.7162462687306
 20
-653.8213303512664
 30
0.0
 11
715.5162369615489
 21
-657.8213303512664
 31
0.0
  0
LINE
  5
21A95
330
18
100
AcDbEntity
  8
0
100
AcDbLine
 10
715.5162369615489
 20
-657.8213303512664
 30
0.0
 11
715.6162381249466
 21
-657.3213303512664
 31
0.0
  0
LINE
  5
21A96
330
18
100
AcDbEntity
  8
0
100
AcDbLine
 10
716.2162451053329
 20
-654.3213303512664
 30
0.0
 11
716.3162462687305
 21
-653.8213303512664
 31
0.0
  0
LINE
  5
21A97
330
18
100
AcDbEntity
  8
0
100
AcDbLine
 10
717.8162451053328
 20
-654.3213303512664
 30
0.0
 11
717.9162462687304
 21
-653.8213303512664
 31
0.0
  0
LINE
  5
21A98
330
18
100
AcDbEntity
  8
0
100
AcDbLine
 10
717.9162462687304
 20
-653.8213303512664
 30
0.0
 11
718.7162369615487
 21
-657.8213303512664
 31
0.0
  0
LINE
  5
21A99
330
18
100
AcDbEntity
  8
0
100
AcDbLine
 10
717.1162369615488
 20
-657.8213303512664
 30
0.0
 11
717.2162381249465
 21
-657.3213303512664
 31
0.0
  0
LINE
  5
21A9A
330
18
100
AcDbEntity
  8
0
100
AcDbLine
 10
718.7162369615487
 20
-657.8213303512664
 30
0.0
 11
718.8162381249464
 21
-657.3213303512664
 31
0.0
  0
LINE
  5
21A9B
330
18
100
AcDbEntity
  8
0
100
AcDbLine
 10
716.3162462687305
 20
-653.8213303512664
 30
0.0
 11
717.1162369615488
 21
-657.8213303512664
 31
0.0
  0
LINE
  5
21A9C
330
18
100
AcDbEntity
  8
0
100
AcDbLine
 10
719.4162451053371
 20
-654.3213303512664
 30
0.0
 11
719.5162462687348
 21
-653.8213303512664
 31
0.0
  0
LINE
  5
21A9D
330
18
100
AcDbEntity
  8
0
100
AcDbLine
 10
713.016245105333
 20
-654.3213303512664
 30
0.0
 11
713.1162462687307
 21
-653.8213303512664
 31
0.0
  0
LINE
  5
21A9E
330
18
100
AcDbEntity
  8
0
100
AcDbLine
 10
713.1162462687307
 20
-653.8213303512664
 30
0.0
 11
713.916236961549
 21
-657.8213303512664
 31
0.0
  0
LINE
  5
21A9F
330
18
100
AcDbEntity
  8
0
100
AcDbLine
 10
713.916236961549
 20
-657.8213303512664
 30
0.0
 11
714.0162381249467
 21
-657.3213303512664
 31
0.0
  0
LINE
  5
21AA0
330
18
100
AcDbEntity
  8
0
100
AcDbLine
 10
711.4162451053331
 20
-654.3213303512664
 30
0.0
 11
711.5162462687308
 21
-653.8213303512664
 31
0.0
  0
LINE
  5
21AA1
330
18
100
AcDbEntity
  8
0
100
AcDbLine
 10
711.5162462687308
 20
-653.8213303512664
 30
0.0
 11
712.3162369615491
 21
-657.8213303512664
 31
0.0
  0
LINE
  5
21AA2
330
18
100
AcDbEntity
  8
0
100
AcDbLine
 10
712.3162369615491
 20
-657.8213303512664
 30
0.0
 11
712.4162381249467
 21
-657.3213303512664
 31
0.0
  0
LINE
  5
21AA3
330
18
100
AcDbEntity
  8
0
100
AcDbLine
 10
709.8162451053332
 20
-654.3213303512664
 30
0.0
 11
709.9162462687309
 21
-653.8213303512664
 31
0.0
  0
LINE
  5
21AA4
330
18
100
AcDbEntity
  8
0
100
AcDbLine
 10
709.9162462687309
 20
-653.8213303512664
 30
0.0
 11
710.7162369615492
 21
-657.8213303512664
 31
0.0
  0
LINE
  5
21AA5
330
18
100
AcDbEntity
  8
0
100
AcDbLine
 10
710.7162369615492
 20
-657.8213303512664
 30
0.0
 11
710.8162381249468
 21
-657.3213303512664
 31
0.0
  0
LINE
  5
21AA6
330
18
100
AcDbEntity
  8
1DIM
100
AcDbLine
 10
745.447036532668
 20
-655.8212838153685
 30
0.0
 11
755.516241615365
 21
-655.8212838153685
 31
0.0
1001
ACAD
1000
DSTYLE
1002
{
1070
    45
1040
0.5
1002
}
  0
LINE
  5
21AA7
330
18
100
AcDbEntity
  8
1DIM
100
AcDbLine
 10
745.447036532668
 20
-639.3213143592608
 30
0.0
 11
755.516241615365
 21
-639.3213143592608
 31
0.0
1001
ACAD
1000
DSTYLE
1002
{
1070
    45
1040
0.5
1002
}
  0
LINE
  5
21AA8
330
18
100
AcDbEntity
  8
1DIM
100
AcDbLine
 10
754.516241615365
 20
-653.8212838153685
 30
0.0
 11
754.516241615365
 21
-641.3213143592608
 31
0.0
1001
ACAD
1000
DSTYLE
1002
{
1070
    45
1040
0.5
1002
}
  0
LINE
  5
21AAC
330
18
100
AcDbEntity
  8
1DIM
100
AcDbLine
 10
489.5162032222789
 20
-642.6963143592608
 30
0.0
 11
489.5162032222789
 21
-702.4213303512677
 31
0.0
1001
ACAD
1000
DSTYLE
1002
{
1070
    45
1040
0.5
1002
}
  0
LINE
  5
21AAD
330
18
100
AcDbEntity
  8
1DIM
100
AcDbLine
 10
510.5162032222789
 20
-642.6963143592608
 30
0.0
 11
510.5162032222789
 21
-702.4213303512677
 31
0.0
1001
ACAD
1000
DSTYLE
1002
{
1070
    45
1040
0.5
1002
}
  0
LINE
  5
21AAE
330
18
100
AcDbEntity
  8
1DIM
100
AcDbLine
 10
491.5162032222789
 20
-701.4213303512677
 30
0.0
 11
508.5162032222789
 21
-701.4213303512677
 31
0.0
1001
ACAD
1000
DSTYLE
1002
{
1070
    45
1040
0.5
1002
}
  0
LINE
  5
21AB2
330
18
100
AcDbEntity
  8
1DIM
100
AcDbLine
 10
395.5162416153764
 20
-705.3213303512663
 30
0.0
 11
395.5162416153764
 21
-614.8213303512663
 31
0.0
1001
ACAD
1000
DSTYLE
1002
{
1070
    45
1040
0.5
1002
}
  0
LINE
  5
21AB3
330
18
100
AcDbEntity
  8
1DIM
100
AcDbLine
 10
604.5162416153539
 20
-705.3213303512662
 30
0.0
 11
604.5162416153539
 21
-614.8213303512663
 31
0.0
1001
ACAD
1000
DSTYLE
1002
{
1070
    45
1040
0.5
1002
}
  0
LINE
  5
21AB4
330
18
100
AcDbEntity
  8
1DIM
100
AcDbLine
 10
397.5162416153764
 20
-615.8213303512663
 30
0.0
 11
602.5162416153539
 21
-615.8213303512663
 31
0.0
1001
ACAD
1000
DSTYLE
1002
{
1070
    45
1040
0.5
1002
}
  0
LINE
  5
21AB8
330
18
100
AcDbEntity
  8
1DIM
100
AcDbLine
 10
517.516241615365
 20
-633.3212634285409
 30
0.0
 11
632.7320673997738
 21
-633.3212634285409
 31
0.0
1001
ACAD
1000
DSTYLE
1002
{
1070
    45
1040
0.5
1002
}
  0
LINE
  5
21AB9
330
18
100
AcDbEntity
  8
1DIM
100
AcDbLine
 10
500.0162416153649
 20
-745.821330350062
 30
0.0
 11
632.7320673997738
 21
-745.821330350062
 31
0.0
1001
ACAD
1000
DSTYLE
1002
{
1070
    45
1040
0.5
1002
}
  0
LINE
  5
21ABA
330
18
100
AcDbEntity
  8
1DIM
100
AcDbLine
 10
631.7320673997738
 20
-635.3212634285409
 30
0.0
 11
631.7320673997738
 21
-743.821330350062
 31
0.0
1001
ACAD
1000
DSTYLE
1002
{
1070
    45
1040
0.5
1002
}
  0
LINE
  5
21ABE
330
18
100
AcDbEntity
  8
1DIM
100
AcDbLine
 10
500.0162416153649
 20
-664.9850010805977
 30
0.0
 11
621.2233889167438
 21
-664.9850010805977
 31
0.0
1001
ACAD
1000
DSTYLE
1002
{
1070
    45
1040
0.5
1002
}
  0
LINE
  5
21ABF
330
18
100
AcDbEntity
  8
1DIM
100
AcDbLine
 10
500.0162416153649
 20
-745.821330350062
 30
0.0
 11
621.2233889167438
 21
-745.821330350062
 31
0.0
1001
ACAD
1000
DSTYLE
1002
{
1070
    45
1040
0.5
1002
}
  0
LINE
  5
21AC0
330
18
100
AcDbEntity
  8
1DIM
100
AcDbLine
 10
620.2233889167438
 20
-666.9850010805977
 30
0.0
 11
620.2233889167438
 21
-743.821330350062
 31
0.0
1001
ACAD
1000
DSTYLE
1002
{
1070
    45
1040
0.5
1002
}
  0
LINE
  5
21AC4
330
18
100
AcDbEntity
  8
1DIM
100
AcDbLine
 10
599.0162416153556
 20
-605.3213303512671
 30
0.0
 11
620.325262102759
 21
-605.3213303512671
 31
0.0
1001
ACAD
1000
DSTYLE
1002
{
1070
     3
1000
φ<>
1070
    45
1040
0.5
1002
}
  0
LINE
  5
21AC5
330
18
100
AcDbEntity
  8
1DIM
100
AcDbLine
 10
599.0162416153556
 20
-594.3213303512666
 30
0.0
 11
620.325262102759
 21
-594.3213303512666
 31
0.0
1001
ACAD
1000
DSTYLE
1002
{
1070
     3
1000
φ<>
1070
    45
1040
0.5
1002
}
  0
LINE
  5
21AC6
330
18
100
AcDbEntity
  8
1DIM
100
AcDbLine
 10
619.325262102759
 20
-603.3213303512671
 30
0.0
 11
619.325262102759
 21
-596.3213303512666
 31
0.0
1001
ACAD
1000
DSTYLE
1002
{
1070
     3
1000
φ<>
1070
    45
1040
0.5
1002
}
  0
LINE
  5
21ACB
330
18
100
AcDbEntity
  8
1HATCH
100
AcDbLine
 10
681.4651048919853
 20
-653.0949465231187
 30
0.0
 11
681.4648968764122
 21
-658.4449582725694
 31
0.0
  0
LINE
  5
21ACC
330
18
100
AcDbEntity
  8
1HATCH
100
AcDbLine
 10
678.1651048920417
 20
-653.0949251166056
 30
0.0
 11
678.1648968767889
 21
-658.44490242939
 31
0.0
  0
LINE
  5
21ACD
330
18
100
AcDbEntity
  8
1HATCH
100
AcDbLine
 10
681.815102222456
 20
-653.4449497806213
 30
0.0
 11
677.8151022225431
 21
-653.4449218590826
 31
0.0
  0
LINE
  5
21ACE
330
18
100
AcDbEntity
  8
0
100
AcDbLine
 10
683.8148750045912
 20
-660.7949637404928
 30
0.0
 11
675.8148750047643
 21
-660.7949078974153
 31
0.0
  0
LINE
  5
21ACF
330
18
100
AcDbEntity
  8
1HATCH
100
AcDbLine
 10
681.4648968764122
 20
-658.4449582725694
 30
0.0
 11
681.8148936189069
 21
-658.794959086941
 31
0.0
  0
LINE
  5
21AD0
330
18
100
AcDbEntity
  8
1HATCH
100
AcDbLine
 10
678.1648968767889
 20
-658.44490242939
 30
0.0
 11
677.8148936192534
 21
-658.7949032437767
 31
0.0
  0
LINE
  5
21AD1
330
18
100
AcDbEntity
  8
1CENTER
100
AcDbLine
 10
679.8151231479081
 20
-651.1334506604996
 30
0.0
 11
679.8148541589106
 21
-663.0346870623786
 31
0.0
  0
SOLID
  5
21AD2
330
18
100
AcDbEntity
  8
1DIM
100
AcDbTrace
 10
677.7754052526196
 20
-644.9440856010882
 30
0.0
 11
678.9149612439379
 21
-646.621143517131
 31
0.0
 12
677.2930921982987
 22
-645.4043231072478
 32
0.0
 13
677.2930921982987
 23
-645.4043231072478
 33
0.0
1001
ACAD
1000
DSTYLE
1002
{
1070
    45
1040
0.5
1002
}
  0
LINE
  5
21AD3
330
18
100
AcDbEntity
  8
1DIM
100
AcDbLine
 10
677.5342487254592
 20
-645.1742043541681
 30
0.0
 11
654.724202265298
 21
-621.2700613189635
 31
0.0
1001
ACAD
1000
DSTYLE
1002
{
1070
    45
1040
0.5
1002
}
  0
LINE
  5
21AD4
330
18
100
AcDbEntity
  8
1DIM
100
AcDbLine
 10
654.724202265298
 20
-621.2700613189635
 30
0.0
 11
607.4575355986314
 21
-621.2700613189635
 31
0.0
1001
ACAD
1000
DSTYLE
1002
{
1070
    45
1040
0.5
1002
}
  0
TEXT
  5
21AD5
330
18
100
AcDbEntity
  8
1DIM
  6
CONTINUOUS
100
AcDbText
 10
607.2242022652979
 20
-614.7367279856301
 30
0.0
 40
3.5
  1
材質：亜鉛ダイキャスト
100
AcDbText
  0
TEXT
  5
21AD6
330
18
100
AcDbEntity
  8
1DIM
  6
CONTINUOUS
100
AcDbText
 10
615.1575355986313
 20
-620.5700613189634
 30
0.0
 40
3.5
  1
仕上げ：各種メッキ
100
AcDbText
  0
LINE
  5
21AD7
330
18
100
AcDbEntity
  8
0
  6
BYBLOCK
100
AcDbLine
 10
662.566241615364
 20
-606.3572287312663
 30
0.0
 11
660.566241615364
 21
-605.8213303512663
 31
0.0
  0
LINE
  5
21AD8
330
18
100
AcDbEntity
  8
0
  6
BYBLOCK
100
AcDbLine
 10
660.566241615364
 20
-605.8213303512663
 30
0.0
 11
662.566241615364
 21
-605.2854319712662
 31
0.0
  0
LINE
  5
21AD9
330
18
100
AcDbEntity
  8
0
  6
BYBLOCK
100
AcDbLine
 10
660.566241615364
 20
-605.8213303512663
 30
0.0
 11
662.566241615364
 21
-605.8213303512663
 31
0.0
  0
LINE
  5
21ADA
330
18
100
AcDbEntity
  8
0
  6
BYBLOCK
100
AcDbLine
 10
711.016241615365
 20
-605.2854319712662
 30
0.0
 11
713.016241615365
 21
-605.8213303512663
 31
0.0
  0
LINE
  5
21ADB
330
18
100
AcDbEntity
  8
0
  6
BYBLOCK
100
AcDbLine
 10
713.016241615365
 20
-605.8213303512663
 30
0.0
 11
711.016241615365
 21
-606.3572287312663
 31
0.0
  0
LINE
  5
21ADC
330
18
100
AcDbEntity
  8
0
  6
BYBLOCK
100
AcDbLine
 10
713.016241615365
 20
-605.8213303512663
 30
0.0
 11
711.016241615365
 21
-605.8213303512663
 31
0.0
  0
TEXT
  5
21ADD
330
18
100
AcDbEntity
  8
1DIM
  6
CONTINUOUS
100
AcDbText
 10
681.5290888375866
 20
-605.1213303512661
 30
0.0
 40
3.5
  1
52.5
100
AcDbText
1001
ACAD
1000
DSTYLE
1002
{
1070
    45
1040
0.5
1002
}
  0
LINE
  5
21ADE
330
18
100
AcDbEntity
  8
0
  6
BYBLOCK
100
AcDbLine
 10
711.016241615365
 20
-700.8854319712676
 30
0.0
 11
713.016241615365
 21
-701.4213303512677
 31
0.0
  0
LINE
  5
21ADF
330
18
100
AcDbEntity
  8
0
  6
BYBLOCK
100
AcDbLine
 10
713.016241615365
 20
-701.4213303512677
 30
0.0
 11
711.016241615365
 21
-701.9572287312677
 31
0.0
  0
LINE
  5
21AE0
330
18
100
AcDbEntity
  8
0
  6
BYBLOCK
100
AcDbLine
 10
713.016241615365
 20
-701.4213303512677
 30
0.0
 11
711.016241615365
 21
-701.4213303512677
 31
0.0
  0
LINE
  5
21AE1
330
18
100
AcDbEntity
  8
0
  6
BYBLOCK
100
AcDbLine
 10
681.8148541589106
 20
-701.9572287312677
 30
0.0
 11
679.8148541589106
 21
-701.4213303512677
 31
0.0
  0
LINE
  5
21AE2
330
18
100
AcDbEntity
  8
0
  6
BYBLOCK
100
AcDbLine
 10
679.8148541589106
 20
-701.4213303512677
 30
0.0
 11
681.8148541589106
 21
-700.8854319712676
 31
0.0
  0
LINE
  5
21AE3
330
18
100
AcDbEntity
  8
0
  6
BYBLOCK
100
AcDbLine
 10
679.8148541589106
 20
-701.4213303512677
 30
0.0
 11
681.8148541589106
 21
-701.4213303512677
 31
0.0
  0
TEXT
  5
21AE4
330
18
100
AcDbEntity
  8
1DIM
  6
CONTINUOUS
100
AcDbText
 10
693.4988812204712
 20
-700.7213303512676
 30
0.0
 40
3.5
  1
33
100
AcDbText
1001
ACAD
1000
DSTYLE
1002
{
1070
    45
1040
0.5
1002
}
  0
LINE
  5
21AE5
330
18
100
AcDbEntity
  8
0
  6
BYBLOCK
100
AcDbLine
 10
755.052139995365
 20
-637.3213143592608
 30
0.0
 11
754.516241615365
 21
-639.3213143592608
 31
0.0
  0
LINE
  5
21AE6
330
18
100
AcDbEntity
  8
0
  6
BYBLOCK
100
AcDbLine
 10
754.516241615365
 20
-639.3213143592608
 30
0.0
 11
753.9803432353649
 21
-637.3213143592608
 31
0.0
  0
LINE
  5
21AE7
330
18
100
AcDbEntity
  8
0
  6
BYBLOCK
100
AcDbLine
 10
754.516241615365
 20
-639.3213143592608
 30
0.0
 11
754.516241615365
 21
-637.3213143592608
 31
0.0
  0
LINE
  5
21AE8
330
18
100
AcDbEntity
  8
0
  6
BYBLOCK
100
AcDbLine
 10
753.9803432353649
 20
-635.2463303512664
 30
0.0
 11
754.516241615365
 21
-633.2463303512664
 31
0.0
  0
LINE
  5
21AE9
330
18
100
AcDbEntity
  8
0
  6
BYBLOCK
100
AcDbLine
 10
754.516241615365
 20
-633.2463303512664
 30
0.0
 11
755.052139995365
 21
-635.2463303512664
 31
0.0
  0
LINE
  5
21AEA
330
18
100
AcDbEntity
  8
0
  6
BYBLOCK
100
AcDbLine
 10
754.516241615365
 20
-633.2463303512664
 30
0.0
 11
754.516241615365
 21
-635.2463303512664
 31
0.0
  0
TEXT
  5
21AEB
330
18
100
AcDbEntity
  8
1DIM
  6
CONTINUOUS
100
AcDbText
 10
753.8162416153649
 20
-637.4504890219303
 30
0.0
 40
3.5
  1
6
 50
90.0
100
AcDbText
1001
ACAD
1000
DSTYLE
1002
{
1070
    45
1040
0.5
1070
   271
1070
     0
1002
}
  0
LINE
  5
21AEC
330
18
100
AcDbEntity
  8
0
  6
BYBLOCK
100
AcDbLine
 10
765.052139995365
 20
-659.7463303512666
 30
0.0
 11
764.516241615365
 21
-661.7463303512666
 31
0.0
  0
LINE
  5
21AED
330
18
100
AcDbEntity
  8
0
  6
BYBLOCK
100
AcDbLine
 10
764.516241615365
 20
-661.7463303512666
 30
0.0
 11
763.9803432353649
 21
-659.7463303512666
 31
0.0
  0
LINE
  5
21AEE
330
18
100
AcDbEntity
  8
0
  6
BYBLOCK
100
AcDbLine
 10
764.516241615365
 20
-661.7463303512666
 30
0.0
 11
764.516241615365
 21
-659.7463303512666
 31
0.0
  0
LINE
  5
21AEF
330
18
100
AcDbEntity
  8
0
  6
BYBLOCK
100
AcDbLine
 10
763.9803432353649
 20
-635.2463303512664
 30
0.0
 11
764.516241615365
 21
-633.2463303512664
 31
0.0
  0
LINE
  5
21AF0
330
18
100
AcDbEntity
  8
0
  6
BYBLOCK
100
AcDbLine
 10
764.516241615365
 20
-633.2463303512664
 30
0.0
 11
765.052139995365
 21
-635.2463303512664
 31
0.0
  0
LINE
  5
21AF1
330
18
100
AcDbEntity
  8
0
  6
BYBLOCK
100
AcDbLine
 10
764.516241615365
 20
-633.2463303512664
 30
0.0
 11
764.516241615365
 21
-635.2463303512664
 31
0.0
  0
TEXT
  5
21AF2
330
18
100
AcDbEntity
  8
1DIM
  6
CONTINUOUS
100
AcDbText
 10
763.816241615365
 20
-652.7463303512665
 30
0.0
 40
3.5
  1
28.5
 50
90.0
100
AcDbText
1001
ACAD
1000
DSTYLE
1002
{
1070
    45
1040
0.5
1002
}
  0
LINE
  5
21AF3
330
18
100
AcDbEntity
  8
0
  6
BYBLOCK
100
AcDbLine
 10
514.4821238347428
 20
-540.2854319712663
 30
0.0
 11
516.4821238347428
 21
-540.8213303512664
 31
0.0
  0
LINE
  5
21AF4
330
18
100
AcDbEntity
  8
0
  6
BYBLOCK
100
AcDbLine
 10
516.4821238347428
 20
-540.8213303512664
 30
0.0
 11
514.4821238347428
 21
-541.3572287312664
 31
0.0
  0
LINE
  5
21AF5
330
18
100
AcDbEntity
  8
0
  6
BYBLOCK
100
AcDbLine
 10
516.4821238347428
 20
-540.8213303512664
 30
0.0
 11
514.4821238347428
 21
-540.8213303512664
 31
0.0
  0
LINE
  5
21AF6
330
18
100
AcDbEntity
  8
0
  6
BYBLOCK
100
AcDbLine
 10
485.550359395968
 20
-541.3572287312664
 30
0.0
 11
483.550359395968
 21
-540.8213303512664
 31
0.0
  0
LINE
  5
21AF7
330
18
100
AcDbEntity
  8
0
  6
BYBLOCK
100
AcDbLine
 10
483.550359395968
 20
-540.8213303512664
 30
0.0
 11
485.550359395968
 21
-540.2854319712663
 31
0.0
  0
LINE
  5
21AF8
330
18
100
AcDbEntity
  8
0
  6
BYBLOCK
100
AcDbLine
 10
483.550359395968
 20
-540.8213303512664
 30
0.0
 11
485.550359395968
 21
-540.8213303512664
 31
0.0
  0
TEXT
  5
21AF9
330
18
100
AcDbEntity
  8
1DIM
  6
CONTINUOUS
100
AcDbText
 10
470.5662416153554
 20
-540.1213303512664
 30
0.0
 40
3.5
  1
33
100
AcDbText
1001
ACAD
1000
DSTYLE
1002
{
1070
    45
1040
0.5
1002
}
  0
LINE
  5
21AFA
330
18
100
AcDbEntity
  8
0
  6
BYBLOCK
100
AcDbLine
 10
755.052139995365
 20
-653.8212838153685
 30
0.0
 11
754.516241615365
 21
-655.8212838153685
 31
0.0
  0
LINE
  5
21AFB
330
18
100
AcDbEntity
  8
0
  6
BYBLOCK
100
AcDbLine
 10
754.516241615365
 20
-655.8212838153685
 30
0.0
 11
753.9803432353649
 21
-653.8212838153685
 31
0.0
  0
LINE
  5
21AFC
330
18
100
AcDbEntity
  8
0
  6
BYBLOCK
100
AcDbLine
 10
754.516241615365
 20
-655.8212838153685
 30
0.0
 11
754.516241615365
 21
-653.8212838153685
 31
0.0
  0
LINE
  5
21AFD
330
18
100
AcDbEntity
  8
0
  6
BYBLOCK
100
AcDbLine
 10
753.9803432353649
 20
-641.3213143592608
 30
0.0
 11
754.516241615365
 21
-639.3213143592608
 31
0.0
  0
LINE
  5
21AFE
330
18
100
AcDbEntity
  8
0
  6
BYBLOCK
100
AcDbLine
 10
754.516241615365
 20
-639.3213143592608
 30
0.0
 11
755.052139995365
 21
-641.3213143592608
 31
0.0
  0
LINE
  5
21AFF
330
18
100
AcDbEntity
  8
0
  6
BYBLOCK
100
AcDbLine
 10
754.516241615365
 20
-639.3213143592608
 30
0.0
 11
754.516241615365
 21
-641.3213143592608
 31
0.0
  0
TEXT
  5
21B00
330
18
100
AcDbEntity
  8
1DIM
  6
CONTINUOUS
100
AcDbText
 10
753.816241615365
 20
-654.000118531759
 30
0.0
 40
3.5
  1
P16.5
 50
90.0
100
AcDbText
1001
ACAD
1000
DSTYLE
1002
{
1070
    45
1040
0.5
1002
}
  0
LINE
  5
21B01
330
18
100
AcDbEntity
  8
0
  6
BYBLOCK
100
AcDbLine
 10
491.5162032222789
 20
-701.9572287312677
 30
0.0
 11
489.5162032222789
 21
-701.4213303512677
 31
0.0
  0
LINE
  5
21B02
330
18
100
AcDbEntity
  8
0
  6
BYBLOCK
100
AcDbLine
 10
489.5162032222789
 20
-701.4213303512677
 30
0.0
 11
491.5162032222789
 21
-700.8854319712676
 31
0.0
  0
LINE
  5
21B03
330
18
100
AcDbEntity
  8
0
  6
BYBLOCK
100
AcDbLine
 10
489.5162032222789
 20
-701.4213303512677
 30
0.0
 11
491.5162032222789
 21
-701.4213303512677
 31
0.0
  0
LINE
  5
21B04
330
18
100
AcDbEntity
  8
0
  6
BYBLOCK
100
AcDbLine
 10
508.5162032222789
 20
-700.8854319712676
 30
0.0
 11
510.5162032222789
 21
-701.4213303512677
 31
0.0
  0
LINE
  5
21B05
330
18
100
AcDbEntity
  8
0
  6
BYBLOCK
100
AcDbLine
 10
510.5162032222789
 20
-701.4213303512677
 30
0.0
 11
508.5162032222789
 21
-701.9572287312677
 31
0.0
  0
LINE
  5
21B06
330
18
100
AcDbEntity
  8
0
  6
BYBLOCK
100
AcDbLine
 10
510.5162032222789
 20
-701.4213303512677
 30
0.0
 11
508.5162032222789
 21
-701.4213303512677
 31
0.0
  0
TEXT
  5
21B07
330
18
100
AcDbEntity
  8
1DIM
  6
CONTINUOUS
100
AcDbText
 10
495.9328698889456
 20
-700.7213303512676
 30
0.0
 40
3.5
  1
P21
100
AcDbText
1001
ACAD
1000
DSTYLE
1002
{
1070
    45
1040
0.5
1002
}
  0
LINE
  5
21B08
330
18
100
AcDbEntity
  8
0
  6
BYBLOCK
100
AcDbLine
 10
397.5162416153764
 20
-616.3572287312663
 30
0.0
 11
395.5162416153764
 21
-615.8213303512663
 31
0.0
  0
LINE
  5
21B09
330
18
100
AcDbEntity
  8
0
  6
BYBLOCK
100
AcDbLine
 10
395.5162416153764
 20
-615.8213303512663
 30
0.0
 11
397.5162416153764
 21
-615.2854319712662
 31
0.0
  0
LINE
  5
21B0A
330
18
100
AcDbEntity
  8
0
  6
BYBLOCK
100
AcDbLine
 10
395.5162416153764
 20
-615.8213303512663
 30
0.0
 11
397.5162416153764
 21
-615.8213303512663
 31
0.0
  0
LINE
  5
21B0B
330
18
100
AcDbEntity
  8
0
  6
BYBLOCK
100
AcDbLine
 10
602.5162416153539
 20
-615.2854319712662
 30
0.0
 11
604.5162416153539
 21
-615.8213303512663
 31
0.0
  0
LINE
  5
21B0C
330
18
100
AcDbEntity
  8
0
  6
BYBLOCK
100
AcDbLine
 10
604.5162416153539
 20
-615.8213303512663
 30
0.0
 11
602.5162416153539
 21
-616.3572287312663
 31
0.0
  0
LINE
  5
21B0D
330
18
100
AcDbEntity
  8
0
  6
BYBLOCK
100
AcDbLine
 10
604.5162416153539
 20
-615.8213303512663
 30
0.0
 11
602.5162416153539
 21
-615.8213303512663
 31
0.0
  0
TEXT
  5
21B0E
330
18
100
AcDbEntity
  8
1DIM
  6
CONTINUOUS
100
AcDbText
 10
495.64043143018
 20
-615.1213303512662
 30
0.0
 40
3.5
  1
209
100
AcDbText
1001
ACAD
1000
DSTYLE
1002
{
1070
    45
1040
0.5
1002
}
  0
LINE
  5
21B0F
330
18
100
AcDbEntity
  8
0
  6
BYBLOCK
100
AcDbLine
 10
631.1961690197737
 20
-635.3212634285409
 30
0.0
 11
631.7320673997738
 21
-633.3212634285409
 31
0.0
  0
LINE
  5
21B10
330
18
100
AcDbEntity
  8
0
  6
BYBLOCK
100
AcDbLine
 10
631.7320673997738
 20
-633.3212634285409
 30
0.0
 11
632.2679657797738
 21
-635.3212634285409
 31
0.0
  0
LINE
  5
21B11
330
18
100
AcDbEntity
  8
0
  6
BYBLOCK
100
AcDbLine
 10
631.7320673997738
 20
-633.3212634285409
 30
0.0
 11
631.7320673997738
 21
-635.3212634285409
 31
0.0
  0
LINE
  5
21B12
330
18
100
AcDbEntity
  8
0
  6
BYBLOCK
100
AcDbLine
 10
632.2679657797738
 20
-743.821330350062
 30
0.0
 11
631.7320673997738
 21
-745.821330350062
 31
0.0
  0
LINE
  5
21B13
330
18
100
AcDbEntity
  8
0
  6
BYBLOCK
100
AcDbLine
 10
631.7320673997738
 20
-745.821330350062
 30
0.0
 11
631.1961690197737
 21
-743.821330350062
 31
0.0
  0
LINE
  5
21B14
330
18
100
AcDbEntity
  8
0
  6
BYBLOCK
100
AcDbLine
 10
631.7320673997738
 20
-745.821330350062
 30
0.0
 11
631.7320673997738
 21
-743.821330350062
 31
0.0
  0
TEXT
  5
21B15
330
18
100
AcDbEntity
  8
1DIM
  6
CONTINUOUS
100
AcDbText
 10
631.0320673997738
 20
-695.4046302226349
 30
0.0
 40
3.5
  1
112.5
 50
90.0
100
AcDbText
1001
ACAD
1000
DSTYLE
1002
{
1070
    45
1040
0.5
1002
}
  0
LINE
  5
21B16
330
18
100
AcDbEntity
  8
0
  6
BYBLOCK
100
AcDbLine
 10
619.6874905367438
 20
-666.9850010805977
 30
0.0
 11
620.2233889167438
 21
-664.9850010805977
 31
0.0
  0
LINE
  5
21B17
330
18
100
AcDbEntity
  8
0
  6
BYBLOCK
100
AcDbLine
 10
620.2233889167438
 20
-664.9850010805977
 30
0.0
 11
620.7592872967439
 21
-666.9850010805977
 31
0.0
  0
LINE
  5
21B18
330
18
100
AcDbEntity
  8
0
  6
BYBLOCK
100
AcDbLine
 10
620.2233889167438
 20
-664.9850010805977
 30
0.0
 11
620.2233889167438
 21
-666.9850010805977
 31
0.0
  0
LINE
  5
21B19
330
18
100
AcDbEntity
  8
0
  6
BYBLOCK
100
AcDbLine
 10
620.7592872967439
 20
-743.821330350062
 30
0.0
 11
620.2233889167438
 21
-745.821330350062
 31
0.0
  0
LINE
  5
21B1A
330
18
100
AcDbEntity
  8
0
  6
BYBLOCK
100
AcDbLine
 10
620.2233889167438
 20
-745.821330350062
 30
0.0
 11
619.6874905367438
 21
-743.821330350062
 31
0.0
  0
LINE
  5
21B1B
330
18
100
AcDbEntity
  8
0
  6
BYBLOCK
100
AcDbLine
 10
620.2233889167438
 20
-745.821330350062
 30
0.0
 11
620.2233889167438
 21
-743.821330350062
 31
0.0
  0
TEXT
  5
21B1C
330
18
100
AcDbEntity
  8
1DIM
  6
CONTINUOUS
100
AcDbText
 10
619.5233889167438
 20
-707.7364990486631
 30
0.0
 40
3.5
  1
81
 50
90.0
100
AcDbText
1001
ACAD
1000
DSTYLE
1002
{
1070
    45
1040
0.5
1002
}
  0
LINE
  5
21B1D
330
18
100
AcDbEntity
  8
0
  6
BYBLOCK
100
AcDbLine
 10
619.861160482759
 20
-603.3213303512671
 30
0.0
 11
619.325262102759
 21
-605.3213303512671
 31
0.0
  0
LINE
  5
21B1E
330
18
100
AcDbEntity
  8
0
  6
BYBLOCK
100
AcDbLine
 10
619.325262102759
 20
-605.3213303512671
 30
0.0
 11
618.7893637227589
 21
-603.3213303512671
 31
0.0
  0
LINE
  5
21B1F
330
18
100
AcDbEntity
  8
0
  6
BYBLOCK
100
AcDbLine
 10
619.325262102759
 20
-605.3213303512671
 30
0.0
 11
619.325262102759
 21
-603.3213303512671
 31
0.0
  0
LINE
  5
21B20
330
18
100
AcDbEntity
  8
0
  6
BYBLOCK
100
AcDbLine
 10
618.7893637227589
 20
-596.3213303512666
 30
0.0
 11
619.325262102759
 21
-594.3213303512666
 31
0.0
  0
LINE
  5
21B21
330
18
100
AcDbEntity
  8
0
  6
BYBLOCK
100
AcDbLine
 10
619.325262102759
 20
-594.3213303512666
 30
0.0
 11
619.861160482759
 21
-596.3213303512666
 31
0.0
  0
LINE
  5
21B22
330
18
100
AcDbEntity
  8
0
  6
BYBLOCK
100
AcDbLine
 10
619.325262102759
 20
-594.3213303512666
 30
0.0
 11
619.325262102759
 21
-596.3213303512666
 31
0.0
  0
TEXT
  5
21B23
330
18
100
AcDbEntity
  8
1DIM
  6
CONTINUOUS
100
AcDbText
 10
618.6252621027589
 20
-604.1379970179336
 30
0.0
 40
3.5
  1
φ11
 50
90.0
100
AcDbText
1001
ACAD
1000
DSTYLE
1002
{
1070
     3
1000
φ<>
1070
    45
1040
0.5
1002
}
  0
LINE
  5
21B24
330
18
100
AcDbEntity
  8
0
100
AcDbLine
 10
681.8148936189069
 20
-658.794959086941
 30
0.0
 11
681.815102222456
 21
-653.4449497806213
 31
0.0
  0
LINE
  5
21B25
330
18
100
AcDbEntity
  8
0
100
AcDbLine
 10
681.815102222456
 20
-653.4449497806213
 30
0.0
 11
681.4651048919787
 21
-653.0949473374969
 31
0.0
  0
LINE
  5
21B26
330
18
100
AcDbEntity
  8
0
100
AcDbLine
 10
681.4651048919787
 20
-653.0949473374969
 30
0.0
 11
678.1651048920484
 21
-653.0949243022274
 31
0.0
  0
LINE
  5
21B27
330
18
100
AcDbEntity
  8
0
100
AcDbLine
 10
678.1651048920484
 20
-653.0949243022274
 30
0.0
 11
677.8151022225431
 21
-653.4449218590826
 31
0.0
  0
LINE
  5
21B28
330
18
100
AcDbEntity
  8
0
100
AcDbLine
 10
677.8151022225431
 20
-653.4449218590826
 30
0.0
 11
677.8148936192534
 21
-658.7949032437767
 31
0.0
  0
LINE
  5
21B29
330
18
100
AcDbEntity
  8
0
100
AcDbLine
 10
677.8148936192534
 20
-658.7949032437767
 30
0.0
 11
675.8148750047643
 21
-660.7949078974153
 31
0.0
  0
LINE
  5
21B2A
330
18
100
AcDbEntity
  8
0
100
AcDbLine
 10
675.8148750047643
 20
-660.7949078974153
 30
0.0
 11
675.8148722126105
 21
-661.0949078974031
 31
0.0
  0
LINE
  5
21B2B
330
18
100
AcDbEntity
  8
0
100
AcDbLine
 10
675.8148722126105
 20
-661.0949078974031
 30
0.0
 11
683.8148722124373
 21
-661.0949637404807
 31
0.0
  0
LINE
  5
21B2C
330
18
100
AcDbEntity
  8
0
100
AcDbLine
 10
683.8148722124373
 20
-661.0949637404807
 30
0.0
 11
683.8148750045912
 21
-660.7949637404928
 31
0.0
  0
LINE
  5
21B2D
330
18
100
AcDbEntity
  8
0
100
AcDbLine
 10
683.8148750045912
 20
-660.7949637404928
 30
0.0
 11
681.8148936189069
 21
-658.794959086941
 31
0.0
  0
VIEWPORT
  5
57
330
15
100
AcDbEntity
 67
     1
  8
0
100
AcDbViewport
 68
     1
 10
0.0
 20
0.0
 30
0.0
 40
536.7765957446809
 41
297.0
 68
     1
 69
     1
1001
ACAD
1000
MVIEW
1002
{
1070
    16
1010
0.0
1020
0.0
1030
0.0
1010
0.0
1020
0.0
1030
1.0
1040
0.0
1040
297.0
1040
-4.171999999925333
1040
12.83903210976956
1040
50.0
1040
0.0
1040
0.0
1070
    16
1070
   100
1070
     0
1070
     1
1070
     0
1070
     0
1070
     0
1070
     0
1040
0.0
1040
0.0
1040
0.0
1040
10.0
1040
10.0
1040
10.0
1040
10.0
1070
     0
1002
{
1002
}
1002
}
  0
ENDSEC
  0
SECTION
  2
OBJECTS
  0
DICTIONARY
  5
C
330
0
100
AcDbDictionary
  3
ACAD_COLOR
350
2D0
  3
ACAD_GROUP
350
D
  3
ACAD_LAYOUT
350
2D1
  3
ACAD_MATERIAL
350
2CF
  3
ACAD_MLEADERSTYLE
350
19E18
  3
ACAD_MLINESTYLE
350
1B
  3
ACAD_PLOTSETTINGS
350
2D2
  3
ACAD_SCALELIST
350
19DF6
  3
ACAD_VISUALSTYLE
350
19DE5
  3
ACDBHEADERROUNDTRIPXREC
350
21B2E
  3
ACDBVARIABLEDICTIONARY
350
37
  3
CONTENTDICTIONARY
350
D8
  3
DRAWINGVARIABLESDICT
350
20
  3
DWGPROPS
350
21B31
1001
ACAD
1000
TREAT_AS_HARD
1070
     0
  0
DICTIONARY
  5
18FE8
330
2
100
AcDbDictionary
  3
ACAD_LAYERSTATES
360
18FE9
1001
ACAD
1000
TREAT_AS_HARD
1070
     1
  0
DICTIONARY
  5
1A20A
330
E
100
AcDbDictionary
  3
ADSK_XREC_LAYER_RECONCILED
360
1A20B
1001
ACAD
1000
TREAT_AS_HARD
1070
     1
  0
DICTIONARY
  5
1A20C
330
29
100
AcDbDictionary
  3
ADSK_XREC_LAYER_RECONCILED
360
1A20D
1001
ACAD
1000
TREAT_AS_HARD
1070
     1
  0
DICTIONARY
  5
1A20E
330
31
100
AcDbDictionary
  3
ADSK_XREC_LAYER_RECONCILED
360
1A20F
1001
ACAD
1000
TREAT_AS_HARD
1070
     1
  0
DICTIONARY
  5
1A218
330
101
100
AcDbDictionary
  3
ADSK_XREC_LAYER_RECONCILED
360
1A219
1001
ACAD
1000
TREAT_AS_HARD
1070
     1
  0
DICTIONARY
  5
1A21C
330
103
100
AcDbDictionary
  3
ADSK_XREC_LAYER_RECONCILED
360
1A21D
1001
ACAD
1000
TREAT_AS_HARD
1070
     1
  0
DICTIONARY
  5
1A220
330
25F
100
AcDbDictionary
  3
ADSK_XREC_LAYER_RECONCILED
360
1A221
1001
ACAD
1000
TREAT_AS_HARD
1070
     1
  0
DICTIONARY
  5
1A23C
330
26D
100
AcDbDictionary
  3
ADSK_XREC_LAYER_RECONCILED
360
1A23D
1001
ACAD
1000
TREAT_AS_HARD
1070
     1
  0
DICTIONARY
  5
6E9
330
18
100
AcDbDictionary
  3
ACAD_SORTENTS
360
6EA
1001
ACAD
1000
TREAT_AS_HARD
1070
     1
  0
DICTIONARY
  5
59B
330
15
100
AcDbDictionary
  3
ACAD_SORTENTS
360
59C
1001
ACAD
1000
TREAT_AS_HARD
1070
     1
  0
DICTIONARY
  5
206FA
330
206F9
100
AcDbDictionary
  3
ACAD_SORTENTS
360
206FB
1001
ACAD
1000
TREAT_AS_HARD
1070
     1
  0
DICTIONARY
  5
2D0
102
{ACAD_REACTORS
330
C
102
}
330
C
100
AcDbDictionary
1001
ACAD
1000
TREAT_AS_HARD
1070
     0
  0
DICTIONARY
  5
D
102
{ACAD_REACTORS
330
C
102
}
330
C
100
AcDbDictionary
  3
*A1
350
1EBF5
  3
*A2
350
1E9DA
  3
*A3
350
1EDFD
  3
*A4
350
1E7BB
  3
*A5
350
1E9D3
  3
*A6
350
20D09
  3
*A7
350
20D0A
  3
*A8
350
20D0B
1001
ACAD
1000
TREAT_AS_HARD
1070
     0
  0
DICTIONARY
  5
2D1
102
{ACAD_REACTORS
330
C
102
}
330
C
100
AcDbDictionary
1001
ACAD
1000
TREAT_AS_HARD
1070
     0
  0
DICTIONARY
  5
2CF
102
{ACAD_REACTORS
330
C
102
}
330
C
100
AcDbDictionary
  3
BYBLOCK
350
19DD5
  3
BYLAYER
350
19DCD
  3
GLOBAL
350
19DDD
1001
ACAD
1000
TREAT_AS_HARD
1070
     0
  0
DICTIONARY
  5
19E18
102
{ACAD_REACTORS
330
C
102
}
330
C
100
AcDbDictionary
  3
BALLOONA
350
206F8
  3
LEADERMULTI
350
20E53
  3
STANDARD
350
19E19
1001
ACAD
1000
TREAT_AS_HARD
1070
     0
  0
DICTIONARY
  5
1B
102
{ACAD_REACTORS
330
C
102
}
330
C
100
AcDbDictionary
  3
STANDARD
350
1C
1001
ACAD
1000
TREAT_AS_HARD
1070
     0
  0
DICTIONARY
  5
2D2
102
{ACAD_REACTORS
330
C
102
}
330
C
100
AcDbDictionary
1001
ACAD
1000
TREAT_AS_HARD
1070
     0
  0
DICTIONARY
  5
19DF6
102
{ACAD_REACTORS
330
C
102
}
330
C
100
AcDbDictionary
  3
A0
350
19DF7
  3
A1
350
19DF8
  3
A2
350
19DF9
  3
A3
350
19DFA
  3
A4
350
19DFB
  3
A5
350
19DFC
  3
A6
350
19DFD
  3
A7
350
19DFE
  3
A8
350
19DFF
  3
A9
350
19E00
  3
B0
350
19E01
  3
B1
350
19E02
  3
B2
350
19E03
  3
B3
350
19E04
  3
B4
350
19E05
  3
B5
350
19E06
  3
B6
350
19E07
  3
B7
350
19E08
  3
B8
350
19E09
  3
B9
350
19E0A
  3
C0
350
19E0B
  3
C1
350
19E0C
  3
C2
350
19E0D
  3
C3
350
19E0E
  3
C4
350
19E0F
  3
C5
350
19E10
  3
C6
350
19E11
  3
C7
350
19E12
  3
C8
350
19E13
  3
C9
350
19E14
  3
D0
350
19E15
  3
D1
350
19E16
  3
D2
350
19E17
1001
ACAD
1000
TREAT_AS_HARD
1070
     0
  0
DICTIONARY
  5
19DE5
102
{ACAD_REACTORS
330
C
102
}
330
C
100
AcDbDictionary
  3
2DWIREFRAME
350
19DEB
  3
3D_HIDDEN
350
19DED
  3
3DWIREFRAME
350
19DEC
  3
BASIC
350
19DEA
  3
BRIGHTEN
350
19DF1
  3
COLORCHANGE
350
19DF5
  3
CONCEPTUAL
350
19DEE
  3
DIM
350
19DF0
  3
EDGECOLOROFF
350
1E02A
  3
FACEPATTERN
350
19DF4
  3
FLAT
350
19DE6
  3
FLATWITHEDGES
350
19DE7
  3
GOURAUD
350
19DE8
  3
GOURAUDWITHEDGES
350
19DE9
  3
HIDDEN
350
1FE4A
  3
JITTEROFF
350
1E028
  3
LINEPATTERN
350
19DF3
  3
MODELING
350
1FE50
  3
OVERHANGOFF
350
1E029
  3
REALISTIC
350
19DEF
  3
SHADED
350
1FE4F
  3
SHADED_WITH_EDGES
350
1FE4E
  3
SHADES_OF_GRAY
350
1FE4B
  3
SKETCHY
350
1FE4C
  3
THICKEN
350
19DF2
  3
WIREFRAME
350
1FE49
  3
X-RAY
350
1FE4D
1001
ACAD
1000
TREAT_AS_HARD
1070
     0
  0
DICTIONARY
  5
21B2E
102
{ACAD_REACTORS
330
C
102
}
330
C
100
AcDbDictionary
  3
COLORDICT
350
21B2F
  3
MATERIALDICT
350
21B30
1001
ACAD
1000
TREAT_AS_HARD
1070
     0
  0
DICTIONARY
  5
37
102
{ACAD_REACTORS
330
C
102
}
330
C
100
AcDbDictionary
  3
CANNOSCALE
350
20611
  3
CMLEADERSTYLE
350
1AC19
  3
CTABLESTYLE
350
4F1
  3
DIMADEC
350
38
  3
DIMASSOC
350
408
  3
HIDETEXT
350
1891
  3
INDEXCTL
350
1AC1C
  3
INTERSECTIONCOLOR
350
1895
  3
INTERSECTIONDISPLAY
350
1894
  3
MSLTSCALE
350
20667
  3
OBSCOLOR
350
1892
  3
OBSLTYPE
350
1893
  3
PROJECTNAME
350
409
  3
SORTENTS
350
1AC1B
  3
XCLIPFRAME
350
1FE48
1001
ACAD
1000
TREAT_AS_HARD
1070
     0
  0
DICTIONARY
  5
D8
102
{ACAD_REACTORS
330
C
102
}
330
C
100
AcDbDictionary
1001
CONTENTTABDATA
1070
    11
1000
Child
1000
D:\ACLT\TABset\CHILDREN.dwg
1070
     0
1070
     0
1070
     1
1000
PK
1000
D:\ACLT\TABset\PK.dwg
1070
     0
1070
     0
1070
     1
1000
Lev1
1000
D:\ACLT\TABset\Lever01.dwg
1070
     0
1070
     0
1070
     1
1000
Lev2
1000
D:\ACLT\TABset\Lever02.dwg
1070
     0
1070
     0
1070
     1
1000
L3
1000
D:\Aclt\TABset\Lever03.dwg
1070
     0
1070
     0
1070
     1
1000
Form
1000
D:\ACLT\FORMAT
1070
     1
1070
     0
1070
     1
1000
Jnt
1000
D:\ACLT\TABset\JOINTPARTS.dwg
1070
     0
1070
     0
1070
     1
1000
ISO
1000
D:\ACLT\TABset\Isome01.dwg
1070
     0
1070
     0
1070
     1
1000
R
1000
D:\ACLT\TABset\REGION.dwg
1070
     0
1070
     0
1070
     1
1000
std
1000
D:\ACLT\TABset\std_sym_all.dwg
1070
     0
1070
     0
1070
     1
1000
丸
1000
D:\Aclt\TABset\MARU.dwg
1070
     0
1070
     0
1070
     1
1001
CONTENTCURRENTTAB
1070
     0
1001
ACAD
1000
TREAT_AS_HARD
1070
     0
  0
DICTIONARY
  5
20
102
{ACAD_REACTORS
330
C
102
}
330
C
100
AcDbDictionary
1001
DRAWINGVARIABLESXDATA
1000
POLARANG
1000
0.261799387799149410000000
1000
POLARMODE
1000
1
1000
POLARSTYLE
1000
1
1001
ACAD
1000
TREAT_AS_HARD
1070
     0
  0
XRECORD
  5
21B31
102
{ACAD_REACTORS
330
C
102
}
330
C
100
AcDbXrecord
  1
DWGPROPS COOKIE
  2

  3

  4

  6

  7

  8
3684
  9

300
=
301
=
302
=
303
=
304
=
305
=
306
=
307
=
308
=
309
=
 40
0.0
 41
2453033.357663484
 42
2459120.999053403
  1

 90
        0
  0
DICTIONARY
  5
18FE9
102
{ACAD_REACTORS
330
18FE8
102
}
330
18FE8
100
AcDbDictionary
1001
ACAD
1000
TREAT_AS_HARD
1070
     0
  0
ACAD_PROXY_OBJECT
  5
1A20B
102
{ACAD_REACTORS
330
1A20A
102
}
330
1A20A
100
AcDbZombieObject
 90
      499
 91
      519
 93
       34
310
40C8804040
  0
ACAD_PROXY_OBJECT
  5
1A20D
102
{ACAD_REACTORS
330
1A20C
102
}
330
1A20C
100
AcDbZombieObject
 90
      499
 91
      519
 93
       34
310
40C8804040
  0
ACAD_PROXY_OBJECT
  5
1A20F
102
{ACAD_REACTORS
330
1A20E
102
}
330
1A20E
100
AcDbZombieObject
 90
      499
 91
      519
 93
       34
310
40C8804040
  0
ACAD_PROXY_OBJECT
  5
1A219
102
{ACAD_REACTORS
330
1A218
102
}
330
1A218
100
AcDbZombieObject
 90
      499
 91
      519
 93
       34
310
40C8804040
  0
ACAD_PROXY_OBJECT
  5
1A21D
102
{ACAD_REACTORS
330
1A21C
102
}
330
1A21C
100
AcDbZombieObject
 90
      499
 91
      519
 93
       34
310
40C8804040
  0
ACAD_PROXY_OBJECT
  5
1A221
102
{ACAD_REACTORS
330
1A220
102
}
330
1A220
100
AcDbZombieObject
 90
      499
 91
      519
 93
       34
310
40C8804040
  0
ACAD_PROXY_OBJECT
  5
1A23D
102
{ACAD_REACTORS
330
1A23C
102
}
330
1A23C
100
AcDbZombieObject
 90
      499
 91
      519
 93
       34
310
40C8804040
  0
SORTENTSTABLE
  5
6EA
102
{ACAD_REACTORS
330
6E9
102
}
330
6E9
100
AcDbSortentsTable
330
18
331
0
  5
99AB
331
0
  5
AB53
331
0
  5
AB54
331
0
  5
ECB5
331
1D8CA
  5
1DB9A
331
1D90A
  5
1DB9B
331
0
  5
1DB93
331
1DB93
  5
1E9CE
331
1DB94
  5
1E9CF
331
1DB95
  5
1E9D0
331
1DB96
  5
1E9D1
331
1DB97
  5
1E9D2
331
1DB98
  5
1E9D5
331
1DB99
  5
1E9D6
331
1DB9A
  5
1E9D7
331
1DB9B
  5
1E9D8
331
1DB9C
  5
1E9D9
331
1DB9D
  5
1E9E5
331
1DB9E
  5
1E9E6
331
1DB9F
  5
1EBF2
331
1DBA4
  5
1EBF3
331
1DBA5
  5
1EBF4
331
1DBA6
  5
20A55
331
0
  5
1E232
331
0
  5
1E233
331
0
  5
1E235
331
0
  5
1E236
331
0
  5
1E7B5
331
0
  5
1E7B6
331
0
  5
1E7BA
331
0
  5
1E7B8
331
1E7B5
  5
20AA3
331
1E7B6
  5
20AA4
331
1E7B7
  5
20AA5
331
1E7B8
  5
20AA6
331
1E7B9
  5
20AA7
331
0
  5
1E9D4
331
1E9CD
  5
21955
331
1E9CE
  5
21956
331
1E9CF
  5
21957
331
1E9D0
  5
21958
331
1E9D1
  5
21959
331
0
  5
1E9DB
331
1E9D4
  5
219A4
331
1E9D5
  5
219A5
331
1E9D6
  5
219A6
331
1E9D7
  5
219A7
331
1E9D8
  5
219A8
331
0
  5
1EBF1
331
1EBEF
  5
219F3
331
1EBF0
  5
219F4
331
1EBF1
  5
219F5
331
1EBF2
  5
219F6
331
1EBF3
  5
219F7
331
0
  5
1EE57
331
0
  5
1F3FF
331
1EE4F
  5
21A5E
331
0
  5
1FA39
331
0
  5
1FA58
331
0
  5
1FA73
331
0
  5
20A4E
331
0
  5
20A4F
331
20A4E
  5
21A91
331
20A4F
  5
21A92
331
20A55
  5
21A93
331
20A56
  5
21A94
331
20A57
  5
21A95
331
20A58
  5
21A96
331
20A59
  5
21A97
331
20A5A
  5
21A98
331
20A5B
  5
21A99
331
20A5C
  5
21A9A
331
20A5D
  5
21A9B
331
20A5E
  5
21A9C
331
20A5F
  5
21A9D
331
20A60
  5
21A9E
331
20A61
  5
21A9F
331
20A62
  5
21AA0
331
20A63
  5
21AA1
331
20A64
  5
21AA2
331
20A65
  5
21AA3
331
20A66
  5
21AA4
331
20A67
  5
21AA5
331
20A68
  5
21AA6
331
20A69
  5
21AA7
331
20A6A
  5
21AA8
331
20A76
  5
21AA9
331
20A77
  5
21AAA
331
20A78
  5
21AAB
331
20A79
  5
21AAC
331
20A7A
  5
21AAD
331
20A86
  5
21AAE
331
20A87
  5
21AAF
331
20A88
  5
21AB0
331
20A89
  5
21AB1
331
20A8A
  5
21AB2
331
20A8D
  5
21AB3
331
20A8E
  5
21AB4
331
20A8F
  5
21AB5
331
20A90
  5
21AB6
331
20A91
  5
21AB7
331
20A92
  5
21AB8
331
20A93
  5
21AB9
331
20A94
  5
21ABA
331
20A95
  5
21ABB
331
20A96
  5
21ABC
331
20A97
  5
21ABD
331
20A98
  5
21ABE
331
20A99
  5
21ABF
331
20A9A
  5
21AC0
331
20A9B
  5
21AC1
331
20A9C
  5
21AC2
331
20A9D
  5
21AC3
331
20A9E
  5
21AC5
331
20A9F
  5
21AC6
331
20AA0
  5
21AC7
331
20AA1
  5
21AC8
331
20AA2
  5
21AC9
331
20AA3
  5
21ACA
331
20AA4
  5
21ACB
331
20AA5
  5
21ACC
331
20AA6
  5
21ACD
331
20AA7
  5
21ACE
331
20AA8
  5
21ACF
331
20AA9
  5
21AD0
331
20AAB
  5
21AD1
331
20AAD
  5
21AD2
331
20AB3
  5
21AD3
331
20AB4
  5
21AD4
331
20AB5
  5
21AD5
331
20AB6
  5
21AD6
331
20AB7
  5
21AD7
331
20AB8
  5
21AD8
331
20AB9
  5
21AD9
331
20ABA
  5
21ADA
331
20ABB
  5
21ADB
331
20ABC
  5
21ADC
331
20ABD
  5
21ADD
331
20ABE
  5
21ADE
331
20ABF
  5
21ADF
331
20AC0
  5
21AE0
331
20AC1
  5
21AE1
331
20AC2
  5
21AE2
331
20AC3
  5
21AE3
331
20AC4
  5
21AE4
331
20AC5
  5
21AE5
331
20AC6
  5
21AE6
331
20AC7
  5
21AE7
331
20AC8
  5
21AE8
331
20AC9
  5
21AE9
331
20ACA
  5
21AEA
331
20ACB
  5
21AEB
331
20ACC
  5
21AEC
331
20ACD
  5
21AED
331
20ACE
  5
21AEE
331
20ACF
  5
21AEF
331
20AD0
  5
21AF0
331
20AD1
  5
21AF1
331
20AD2
  5
21AF2
331
20AD3
  5
21AF3
331
20AD4
  5
21AF4
331
20AD5
  5
21AF5
331
20AD6
  5
21AF6
331
20AD7
  5
21AF7
331
20AD8
  5
21AF8
331
20AD9
  5
21AF9
331
20ADA
  5
21AFA
331
20ADB
  5
21AFB
331
20ADC
  5
21AFC
331
20ADD
  5
21AFD
331
20ADE
  5
21AFE
331
20ADF
  5
21AFF
331
20AE0
  5
21B00
331
20AE1
  5
21B01
331
20AE2
  5
21B02
331
20AE3
  5
21B03
331
20B24
  5
21B04
331
20B25
  5
21B05
331
20B29
  5
21B06
331
20B2A
  5
21B07
331
20B2E
  5
21B08
331
20B50
  5
21B09
331
20B53
  5
21B0A
331
20B54
  5
21B0B
331
20B61
  5
21B0C
331
20BC4
  5
21B0D
331
20BCA
  5
21B0E
331
20BCB
  5
21B0F
331
20BCC
  5
21B10
331
20BCD
  5
21B11
331
0
  5
20D18
331
0
  5
20D19
331
0
  5
20D1A
331
20D19
  5
21B28
331
20D1A
  5
21B29
331
20D1B
  5
21B2A
331
2179E
  5
21B2B
331
2179F
  5
21B2C
331
217A0
  5
21B2D
331
21954
  5
20A9F
331
21955
  5
20AA2
331
21956
  5
1D8CE
331
21957
  5
1D910
331
21958
  5
1DB97
331
21959
  5
1DB98
331
2195A
  5
1DB99
331
2195B
  5
1DB9C
331
2195C
  5
1DB9D
331
2195D
  5
1DB9E
331
0
  5
1DB9F
331
0
  5
1DBA0
331
0
  5
1DBA1
331
21961
  5
20A56
331
21962
  5
20A57
331
21963
  5
20A5B
331
0
  5
1E9E7
331
0
  5
1E9E8
331
0
  5
1EBF0
331
21967
  5
20A66
331
21968
  5
20A67
331
21969
  5
20A68
331
0
  5
1EBF6
331
0
  5
1EC3D
331
0
  5
1F400
331
2196D
  5
20A86
331
2196E
  5
20A87
331
2196F
  5
20A88
331
0
  5
20A58
331
0
  5
20A59
331
0
  5
20A5A
331
21973
  5
20A92
331
21974
  5
20A93
331
21975
  5
20A94
331
21976
  5
20A95
331
0
  5
20A5F
331
0
  5
20A60
331
0
  5
20A61
331
2197A
  5
20A9D
331
2197B
  5
20A9E
331
2197C
  5
20AA0
331
2197D
  5
20AA1
331
2197E
  5
20AA8
331
2197F
  5
20AA9
331
21980
  5
20AAB
331
21981
  5
20AAD
331
21982
  5
20AB3
331
21983
  5
20AB4
331
21984
  5
20AB5
331
21985
  5
20AB6
331
21986
  5
20AB7
331
21987
  5
20AB8
331
21988
  5
20AB9
331
21989
  5
20ABA
331
2198A
  5
20ABB
331
2198B
  5
20ABC
331
2198C
  5
20ABD
331
2198D
  5
20ABE
331
2198E
  5
20ABF
331
2198F
  5
20AC0
331
21990
  5
20AC1
331
21991
  5
20AC2
331
21992
  5
20AC3
331
21993
  5
20AC4
331
21994
  5
20AC5
331
21995
  5
20AC6
331
21996
  5
20AC7
331
21997
  5
20AC8
331
21998
  5
20AC9
331
21999
  5
20ACA
331
2199A
  5
20ACB
331
2199B
  5
20ACC
331
2199C
  5
20ACD
331
2199D
  5
20ACE
331
2199E
  5
20ACF
331
2199F
  5
20AD0
331
219A0
  5
20AD1
331
219A1
  5
20AD2
331
219A2
  5
20AD3
331
219A3
  5
20AD4
331
219A4
  5
20AD5
331
219A5
  5
20AD6
331
219A6
  5
20AD7
331
219A7
  5
20AD8
331
219A8
  5
20AD9
331
219A9
  5
20ADA
331
219AA
  5
20ADB
331
219AB
  5
20ADC
331
219AC
  5
20ADD
331
219AD
  5
20ADE
331
219AE
  5
20ADF
331
219AF
  5
20AE0
331
219B0
  5
20AE1
331
219B1
  5
20AE2
331
219B2
  5
20AE3
331
219B3
  5
20B24
331
219B4
  5
20B25
331
219B5
  5
20B29
331
219B6
  5
20B2A
331
219B7
  5
20B2E
331
219B8
  5
20B50
331
219B9
  5
20B53
331
219BA
  5
20B54
331
219BB
  5
20B61
331
219BC
  5
20BC4
331
219BD
  5
20BCA
331
219BE
  5
20BCB
331
219BF
  5
20BCC
331
219C0
  5
20BCD
331
219C1
  5
20C6E
331
219C2
  5
20D17
331
219C3
  5
20D1B
331
219C4
  5
2179E
331
219C5
  5
2179F
331
219C6
  5
217A0
331
219C7
  5
21954
331
219C8
  5
2195A
331
219C9
  5
2195B
331
219CA
  5
2195C
331
219CB
  5
2195D
331
219CC
  5
2195E
331
219CD
  5
2195F
331
219CE
  5
21960
331
219CF
  5
21961
331
219D0
  5
21962
331
219D1
  5
21963
331
219D2
  5
21964
331
219D3
  5
21965
331
219D4
  5
21966
331
219D5
  5
21967
331
219D6
  5
21968
331
219D7
  5
21969
331
219D8
  5
2196A
331
219D9
  5
2196B
331
219DA
  5
2196C
331
219DB
  5
2196D
331
219DC
  5
2196E
331
219DD
  5
2196F
331
219DE
  5
21970
331
219DF
  5
21971
331
219E0
  5
21972
331
219E1
  5
21973
331
219E2
  5
21974
331
219E3
  5
21975
331
219E4
  5
21976
331
219E5
  5
21977
331
219E6
  5
21978
331
219E7
  5
21979
331
219E8
  5
2197A
331
219E9
  5
2197B
331
219EA
  5
2197C
331
219EB
  5
2197D
331
219EC
  5
2197E
331
219ED
  5
2197F
331
219EE
  5
21980
331
219EF
  5
21981
331
219F0
  5
21982
331
219F1
  5
21983
331
219F2
  5
21984
331
219F3
  5
21985
331
219F4
  5
21986
331
219F5
  5
21987
331
219F6
  5
21988
331
219F7
  5
21989
331
219F8
  5
2198A
331
219F9
  5
2198B
331
219FA
  5
2198C
331
219FB
  5
2198D
331
219FC
  5
2198E
331
219FD
  5
2198F
331
219FE
  5
21990
331
219FF
  5
21991
331
21A00
  5
21992
331
21A01
  5
21993
331
21A02
  5
21994
331
21A03
  5
21995
331
21A04
  5
21996
331
21A05
  5
21997
331
21A06
  5
21998
331
21A07
  5
21999
331
21A08
  5
2199A
331
21A09
  5
2199B
331
21A0A
  5
2199C
331
21A0B
  5
2199D
331
21A0C
  5
2199E
331
21A0D
  5
2199F
331
21A0E
  5
219A0
331
21A0F
  5
219A1
331
21A10
  5
219A2
331
21A11
  5
219A3
331
21A12
  5
219A9
331
21A13
  5
219AA
331
21A14
  5
219AB
331
21A15
  5
219AC
331
21A16
  5
219AD
331
21A17
  5
219AE
331
21A18
  5
219AF
331
21A19
  5
219B0
331
21A1A
  5
219B1
331
21A1B
  5
219B2
331
21A1C
  5
219B3
331
21A1D
  5
219B4
331
21A1E
  5
219B5
331
21A1F
  5
219B6
331
21A20
  5
219B7
331
21A21
  5
219B8
331
21A22
  5
219B9
331
21A23
  5
219BA
331
21A24
  5
219BB
331
21A25
  5
219BC
331
21A26
  5
219BD
331
21A27
  5
219BE
331
21A28
  5
219BF
331
21A29
  5
219C0
331
21A2A
  5
219C1
331
21A2B
  5
219C2
331
21A2C
  5
219C3
331
21A2D
  5
219C4
331
21A2E
  5
219C5
331
21A2F
  5
219C6
331
21A30
  5
219C7
331
21A31
  5
219C8
331
21A32
  5
219C9
331
21A33
  5
219CA
331
21A34
  5
219CB
331
21A35
  5
219CC
331
21A36
  5
219CD
331
21A37
  5
219CE
331
21A38
  5
219CF
331
21A39
  5
219D0
331
21A3A
  5
219D1
331
21A3B
  5
219D2
331
21A3C
  5
219D3
331
21A3D
  5
219D4
331
21A3E
  5
219D5
331
21A3F
  5
219D6
331
21A40
  5
219D7
331
21A41
  5
219D8
331
21A42
  5
219D9
331
21A43
  5
219DA
331
21A44
  5
219DB
331
21A45
  5
219DC
331
21A46
  5
219DD
331
21A47
  5
219DE
331
21A48
  5
219DF
331
21A49
  5
219E0
331
21A4A
  5
219E1
331
21A4B
  5
219E2
331
21A4C
  5
219E3
331
21A4D
  5
219E4
331
21A4E
  5
219E5
331
21A4F
  5
219E6
331
21A50
  5
219E7
331
21A51
  5
219E8
331
21A52
  5
219E9
331
21A53
  5
219EA
331
21A54
  5
219EB
331
21A55
  5
219EC
331
21A56
  5
219ED
331
21A57
  5
219EE
331
21A58
  5
219EF
331
21A59
  5
219F0
331
21A5A
  5
219F1
331
21A5B
  5
219F2
331
21A5C
  5
219F8
331
21A5D
  5
219F9
331
21A5E
  5
219FA
331
21A5F
  5
219FB
331
21A60
  5
219FC
331
21A61
  5
219FD
331
21A62
  5
219FE
331
21A63
  5
219FF
331
21A64
  5
21A00
331
21A65
  5
21A01
331
21A66
  5
21A02
331
21A67
  5
21A03
331
21A68
  5
21A04
331
21A69
  5
21A05
331
21A6A
  5
21A06
331
21A6B
  5
21A07
331
21A6C
  5
21A08
331
21A6D
  5
21A09
331
21A6E
  5
21A0A
331
21A6F
  5
21A0B
331
21A70
  5
21A0C
331
21A71
  5
21A0D
331
21A72
  5
21A0E
331
21A73
  5
21A0F
331
21A74
  5
21A10
331
21A75
  5
21A11
331
21A76
  5
21A12
331
21A77
  5
21A13
331
21A78
  5
21A14
331
21A79
  5
21A15
331
21A7A
  5
21A16
331
21A7B
  5
21A17
331
21A7C
  5
21A18
331
21A7D
  5
21A19
331
21A7E
  5
21A1A
331
21A7F
  5
21A1B
331
21A80
  5
21A1C
331
21A81
  5
21A1D
331
21A82
  5
21A1E
331
21A83
  5
21A1F
331
21A84
  5
21A20
331
21A85
  5
21A21
331
21A86
  5
21A25
331
21A87
  5
21A26
331
21A88
  5
21A27
331
21A89
  5
21A28
331
21A8A
  5
21A2C
331
21A8B
  5
21A2D
331
21A8C
  5
21A2E
331
21A8D
  5
21A32
331
21A8E
  5
21A33
331
21A8F
  5
21A34
331
21A90
  5
21A38
331
21A91
  5
21A39
331
21A92
  5
21A3A
331
21A93
  5
21A3E
331
21A94
  5
21A3F
331
21A95
  5
21A40
331
21A96
  5
21A44
331
21A97
  5
21A45
331
21A98
  5
21A46
331
21A99
  5
21A47
331
21A9A
  5
21A48
331
21A9B
  5
21A49
331
21A9C
  5
21A4A
331
21A9D
  5
21A4B
331
21A9E
  5
21A4C
331
21A9F
  5
21A4D
331
21AA0
  5
21A4E
331
21AA1
  5
21A4F
331
21AA2
  5
21A50
331
21AA3
  5
21A51
331
21AA4
  5
21A52
331
21AA5
  5
21A53
331
21AA6
  5
21A54
331
21AA7
  5
21A55
331
21AA8
  5
21A56
331
0
  5
21A22
331
0
  5
21A23
331
0
  5
21A24
331
21AAC
  5
21A5F
331
21AAD
  5
21A60
331
21AAE
  5
21A61
331
0
  5
21A29
331
0
  5
21A2A
331
0
  5
21A2B
331
21AB2
  5
21A69
331
21AB3
  5
21A6A
331
21AB4
  5
21A6B
331
0
  5
21A2F
331
0
  5
21A30
331
0
  5
21A31
331
21AB8
  5
21A73
331
21AB9
  5
21A74
331
21ABA
  5
21A75
331
0
  5
21A35
331
0
  5
21A36
331
0
  5
21A37
331
21ABE
  5
21A7D
331
21ABF
  5
21A7E
331
21AC0
  5
21A7F
331
0
  5
21A3B
331
0
  5
21A3C
331
0
  5
21A3D
331
21AC4
  5
21A87
331
21AC5
  5
21A88
331
21AC6
  5
21A89
331
0
  5
21A41
331
0
  5
21A42
331
0
  5
21A43
331
0
  5
21AC4
331
21ACB
  5
21B1C
331
21ACC
  5
21B1D
331
21ACD
  5
21B1E
331
21ACE
  5
21B1F
331
21ACF
  5
21B20
331
21AD0
  5
21B21
331
21AD1
  5
21B22
331
21AD2
  5
21B23
331
21AD3
  5
21B24
331
21AD4
  5
21B25
331
21AD5
  5
21B26
331
21AD6
  5
21B27
331
21AD7
  5
1DBA2
331
21AD8
  5
1DBA6
331
21AD9
  5
1DBA8
331
21ADA
  5
1DF13
331
21ADB
  5
1DFD9
331
21ADC
  5
1E7B7
331
21ADD
  5
1E7ED
331
21ADE
  5
20A5C
331
21ADF
  5
20A5D
331
21AE0
  5
20A5E
331
21AE1
  5
20A62
331
21AE2
  5
20A63
331
21AE3
  5
20A64
331
21AE4
  5
20A65
331
21AE5
  5
20A69
331
21AE6
  5
20A6A
331
21AE7
  5
20A76
331
21AE8
  5
20A77
331
21AE9
  5
20A78
331
21AEA
  5
20A79
331
21AEB
  5
20A7A
331
21AEC
  5
20A89
331
21AED
  5
20A8A
331
21AEE
  5
20A8D
331
21AEF
  5
20A8E
331
21AF0
  5
20A8F
331
21AF1
  5
20A90
331
21AF2
  5
20A91
331
21AF3
  5
20A96
331
21AF4
  5
20A97
331
21AF5
  5
20A98
331
21AF6
  5
20A99
331
21AF7
  5
20A9A
331
21AF8
  5
20A9B
331
21AF9
  5
20A9C
331
21AFA
  5
21A57
331
21AFB
  5
21A58
331
21AFC
  5
21A59
331
21AFD
  5
21A5A
331
21AFE
  5
21A5B
331
21AFF
  5
21A5C
331
21B00
  5
21A5D
331
21B01
  5
21A62
331
21B02
  5
21A63
331
21B03
  5
21A64
331
21B04
  5
21A65
331
21B05
  5
21A66
331
21B06
  5
21A67
331
21B07
  5
21A68
331
21B08
  5
21A6C
331
21B09
  5
21A6D
331
21B0A
  5
21A6E
331
21B0B
  5
21A6F
331
21B0C
  5
21A70
331
21B0D
  5
21A71
331
21B0E
  5
21A72
331
21B0F
  5
21A76
331
21B10
  5
21A77
331
21B11
  5
21A78
331
21B12
  5
21A79
331
21B13
  5
21A7A
331
21B14
  5
21A7B
331
21B15
  5
21A7C
331
21B16
  5
21A80
331
21B17
  5
21A81
331
21B18
  5
21A82
331
21B19
  5
21A83
331
21B1A
  5
21A84
331
21B1B
  5
21A85
331
21B1C
  5
21A86
331
21B1D
  5
21A8A
331
21B1E
  5
21A8B
331
21B1F
  5
21A8C
331
21B20
  5
21A8D
331
21B21
  5
21A8E
331
21B22
  5
21A8F
331
21B23
  5
21A90
331
21B24
  5
21B12
331
21B25
  5
21B13
331
21B26
  5
21B14
331
21B27
  5
21B15
331
21B28
  5
21B16
331
21B29
  5
21B17
331
21B2A
  5
21B18
331
21B2B
  5
21B19
331
21B2C
  5
21B1A
331
21B2D
  5
21B1B
  0
SORTENTSTABLE
  5
59C
102
{ACAD_REACTORS
330
59B
102
}
330
59B
100
AcDbSortentsTable
330
15
331
57
  5
57
331
0
  5
70
  0
SORTENTSTABLE
  5
206FB
102
{ACAD_REACTORS
330
206FA
102
}
330
206FA
100
AcDbSortentsTable
330
206F9
331
206FD
  5
206FE
331
206FE
  5
206FD
  0
GROUP
  5
1EBF5
102
{ACAD_REACTORS
330
D
102
}
330
D
100
AcDbGroup
300

 70
     1
 71
     1
340
1EBF3
340
1EBF2
340
1EBF1
340
1EBF0
340
1EBEF
  0
GROUP
  5
1E9DA
102
{ACAD_REACTORS
330
D
102
}
330
D
100
AcDbGroup
300

 70
     1
 71
     1
340
1E9D8
340
1E9D7
340
1E9D6
340
1E9D5
340
1E9D4
  0
GROUP
  5
1EDFD
102
{ACAD_REACTORS
330
D
102
}
330
D
100
AcDbGroup
300

 70
     1
 71
     1
340
1DBA6
340
1DBA5
340
1DBA4
  0
GROUP
  5
1E7BB
102
{ACAD_REACTORS
330
D
102
}
330
D
100
AcDbGroup
300

 70
     1
 71
     1
340
1E7B9
340
1E7B8
340
1E7B7
340
1E7B6
340
1E7B5
  0
GROUP
  5
1E9D3
102
{ACAD_REACTORS
330
D
102
}
330
D
100
AcDbGroup
300

 70
     1
 71
     1
340
1E9D1
340
1E9D0
340
1E9CF
340
1E9CE
340
1E9CD
  0
GROUP
  5
20D09
102
{ACAD_REACTORS
330
D
102
}
330
D
100
AcDbGroup
300

 70
     1
 71
     1
340
20BC4
340
20B61
340
20B54
340
20B53
340
20B50
340
20B2E
340
20B2A
340
20B29
340
20B25
340
20B24
340
20AB3
340
20A55
340
20A4F
340
20A4E
  0
GROUP
  5
20D0A
102
{ACAD_REACTORS
330
D
102
}
330
D
100
AcDbGroup
300

 70
     1
 71
     1
340
20AE3
340
20AE2
340
20AE1
340
20AE0
340
20ADF
340
20ADE
340
20ADD
340
20ADC
340
20ADB
340
20ADA
340
20AD9
340
20AD8
340
20AD7
340
20AD6
340
20AD5
340
20AD4
340
20AD3
340
20AD2
340
20AD1
340
20AD0
340
20ACF
340
20ACE
340
20ACD
340
20ACC
340
20ACB
340
20ACA
340
20AC9
340
20AC8
340
20AC7
340
20AC6
340
20AC5
340
20AC4
340
20AC3
340
20AC2
340
20AC1
340
20AC0
340
20ABF
340
20ABE
340
20ABD
340
20ABC
340
20ABB
340
20ABA
340
20AB9
340
20AB8
340
20AB7
340
20AB6
340
20AB5
340
20AB4
340
20A8D
340
20A8A
340
20A89
340
20A88
340
20A87
340
20A86
340
20A6A
340
20A69
340
20A68
340
20A67
340
20A66
340
20A65
340
20A64
340
20A63
340
20A62
340
20A61
340
20A60
340
20A5F
340
20A5E
340
20A5D
340
20A5C
340
20A5B
340
20A5A
340
20A59
340
20A58
340
20A57
340
20A56
  0
GROUP
  5
20D0B
102
{ACAD_REACTORS
330
D
102
}
330
D
100
AcDbGroup
300

 70
     1
 71
     1
340
20BCD
340
20BCC
340
20BCB
340
20BCA
340
20AAD
340
20AAB
340
20AA9
340
20AA8
340
20AA7
340
20AA6
340
20AA5
340
20AA4
340
20AA3
340
20AA2
340
20AA1
340
20AA0
340
20A9F
340
20A9E
340
20A9D
340
20A9C
340
20A9B
340
20A9A
340
20A99
340
20A98
340
20A97
340
20A96
340
20A95
340
20A94
340
20A93
340
20A92
340
20A91
340
20A90
340
20A8F
340
20A8E
340
20A7A
340
20A79
340
20A78
340
20A77
340
20A76
  0
MATERIAL
  5
19DD5
102
{ACAD_REACTORS
330
2CF
102
}
102
{ACAD_XDICTIONARY
360
21CCC
102
}
330
2CF
100
AcDbMaterial
  1
BYBLOCK
 72
     0
 73
     2
 43
0.0208333333333333
 43
0.0
 43
0.0
 43
0.0
 43
0.0
 43
0.0208333333333333
 43
0.0
 43
0.0
 43
0.0
 43
0.0
 43
1.0
 43
0.0
 43
0.0
 43
0.0
 43
0.0
 43
1.0
 77
     0
 78
     2
 47
0.0208333333333333
 47
0.0
 47
0.0
 47
0.0
 47
0.0
 47
0.0208333333333333
 47
0.0
 47
0.0
 47
0.0
 47
0.0
 47
1.0
 47
0.0
 47
0.0
 47
0.0
 47
0.0
 47
1.0
171
     0
172
     2
 49
0.0208333333333333
 49
0.0
 49
0.0
 49
0.0
 49
0.0
 49
0.0208333333333333
 49
0.0
 49
0.0
 49
0.0
 49
0.0
 49
1.0
 49
0.0
 49
0.0
 49
0.0
 49
0.0
 49
1.0
175
     0
176
     2
142
0.0208333333333333
142
0.0
142
0.0
142
0.0
142
0.0
142
0.0208333333333333
142
0.0
142
0.0
142
0.0
142
0.0
142
1.0
142
0.0
142
0.0
142
0.0
142
0.0
142
1.0
179
     0
270
     2
144
0.0208333333333333
144
0.0
144
0.0
144
0.0
144
0.0
144
0.0208333333333333
144
0.0
144
0.0
144
0.0
144
0.0
144
1.0
144
0.0
144
0.0
144
0.0
144
0.0
144
1.0
274
     2
147
0.0208333333333333
147
0.0
147
0.0
147
0.0
147
0.0
147
0.0208333333333333
147
0.0
147
0.0
147
0.0
147
0.0
147
1.0
147
0.0
147
0.0
147
0.0
147
0.0
147
1.0
  0
MATERIAL
  5
19DCD
102
{ACAD_REACTORS
330
2CF
102
}
102
{ACAD_XDICTIONARY
360
21CCE
102
}
330
2CF
100
AcDbMaterial
  1
BYLAYER
 72
     0
 73
     2
 43
0.0208333333333333
 43
0.0
 43
0.0
 43
0.0
 43
0.0
 43
0.0208333333333333
 43
0.0
 43
0.0
 43
0.0
 43
0.0
 43
1.0
 43
0.0
 43
0.0
 43
0.0
 43
0.0
 43
1.0
 77
     0
 78
     2
 47
0.0208333333333333
 47
0.0
 47
0.0
 47
0.0
 47
0.0
 47
0.0208333333333333
 47
0.0
 47
0.0
 47
0.0
 47
0.0
 47
1.0
 47
0.0
 47
0.0
 47
0.0
 47
0.0
 47
1.0
171
     0
172
     2
 49
0.0208333333333333
 49
0.0
 49
0.0
 49
0.0
 49
0.0
 49
0.0208333333333333
 49
0.0
 49
0.0
 49
0.0
 49
0.0
 49
1.0
 49
0.0
 49
0.0
 49
0.0
 49
0.0
 49
1.0
175
     0
176
     2
142
0.0208333333333333
142
0.0
142
0.0
142
0.0
142
0.0
142
0.0208333333333333
142
0.0
142
0.0
142
0.0
142
0.0
142
1.0
142
0.0
142
0.0
142
0.0
142
0.0
142
1.0
179
     0
270
     2
144
0.0208333333333333
144
0.0
144
0.0
144
0.0
144
0.0
144
0.0208333333333333
144
0.0
144
0.0
144
0.0
144
0.0
144
1.0
144
0.0
144
0.0
144
0.0
144
0.0
144
1.0
274
     2
147
0.0208333333333333
147
0.0
147
0.0
147
0.0
147
0.0
147
0.0208333333333333
147
0.0
147
0.0
147
0.0
147
0.0
147
1.0
147
0.0
147
0.0
147
0.0
147
0.0
147
1.0
  0
MATERIAL
  5
19DDD
102
{ACAD_REACTORS
330
2CF
102
}
102
{ACAD_XDICTIONARY
360
21CD0
102
}
330
2CF
100
AcDbMaterial
  1
GLOBAL
 72
     0
 73
     2
 43
0.0208333333333333
 43
0.0
 43
0.0
 43
0.0
 43
0.0
 43
0.0208333333333333
 43
0.0
 43
0.0
 43
0.0
 43
0.0
 43
1.0
 43
0.0
 43
0.0
 43
0.0
 43
0.0
 43
1.0
 77
     0
 78
     2
 47
0.0208333333333333
 47
0.0
 47
0.0
 47
0.0
 47
0.0
 47
0.0208333333333333
 47
0.0
 47
0.0
 47
0.0
 47
0.0
 47
1.0
 47
0.0
 47
0.0
 47
0.0
 47
0.0
 47
1.0
171
     0
172
     2
 49
0.0208333333333333
 49
0.0
 49
0.0
 49
0.0
 49
0.0
 49
0.0208333333333333
 49
0.0
 49
0.0
 49
0.0
 49
0.0
 49
1.0
 49
0.0
 49
0.0
 49
0.0
 49
0.0
 49
1.0
175
     0
176
     2
142
0.0208333333333333
142
0.0
142
0.0
142
0.0
142
0.0
142
0.0208333333333333
142
0.0
142
0.0
142
0.0
142
0.0
142
1.0
142
0.0
142
0.0
142
0.0
142
0.0
142
1.0
179
     0
270
     2
144
0.0208333333333333
144
0.0
144
0.0
144
0.0
144
0.0
144
0.0208333333333333
144
0.0
144
0.0
144
0.0
144
0.0
144
1.0
144
0.0
144
0.0
144
0.0
144
0.0
144
1.0
274
     2
147
0.0208333333333333
147
0.0
147
0.0
147
0.0
147
0.0
147
0.0208333333333333
147
0.0
147
0.0
147
0.0
147
0.0
147
1.0
147
0.0
147
0.0
147
0.0
147
0.0
147
1.0
  0
ACAD_PROXY_OBJECT
  5
206F8
102
{ACAD_REACTORS
330
19E18
102
}
330
19E18
100
AcDbZombieObject
 90
      499
 91
      512
 93
      546
310
40501902A4063FBFFFFFE0000000000000020000000000000020408000000000000004090140501A0000000000000410000000000000004102575016000000000000039000
340
12
340
42
340
F
340
206F9
 94
        0
1001
ACAD_MLEADERVER
1070
     2
  0
ACAD_PROXY_OBJECT
  5
20E53
102
{ACAD_REACTORS
330
19E18
102
}
330
19E18
100
AcDbZombieObject
 90
      499
 91
      512
 93
      546
310
40901902A4063FBFFFFFE0000000000000020400000000000020C080000000000000040905415019C900000000000003100000000000000041025764000000000000039000
340
12
340
42
340
F
340
0
 94
        0
1001
ACAD_MLEADERVER
1070
     2
  0
ACAD_PROXY_OBJECT
  5
19E19
102
{ACAD_REACTORS
330
19E18
102
}
330
19E18
100
AcDbZombieObject
 90
      499
 91
      512
 93
      610
310
40901902A4063FBFFFFFE000000000000002040AD7A3703D0AD73F4214DD185B99185C990000000000000104090141901A00000000000004100000000000000041025764000000000000300FC0
340
12
340
0
340
F
340
0
 94
        0
1001
ACAD_MLEADERVER
1070
     2
  0
MLINESTYLE
  5
1C
102
{ACAD_REACTORS
330
1B
102
}
330
1B
100
AcDbMlineStyle
  2
STANDARD
 70
     0
  3

 62
   256
 51
90.0
 52
90.0
 71
     2
 49
0.5
 62
   256
  6
BYLAYER
 49
-0.5
 62
   256
  6
BYLAYER
  0
ACAD_PROXY_OBJECT
  5
19DF7
102
{ACAD_REACTORS
330
19DF6
102
}
330
19DF6
100
AcDbZombieObject
 90
      499
 91
      511
 93
       41
310
903313A31580
  0
ACAD_PROXY_OBJECT
  5
19DF8
102
{ACAD_REACTORS
330
19DF6
102
}
330
19DF6
100
AcDbZombieObject
 90
      499
 91
      511
 93
      105
310
903313A324000000000000004000
  0
ACAD_PROXY_OBJECT
  5
19DF9
102
{ACAD_REACTORS
330
19DF6
102
}
330
19DF6
100
AcDbZombieObject
 90
      499
 91
      511
 93
      105
310
903313A344000000000000104000
  0
ACAD_PROXY_OBJECT
  5
19DFA
102
{ACAD_REACTORS
330
19DF6
102
}
330
19DF6
100
AcDbZombieObject
 90
      499
 91
      511
 93
      105
310
903313A354000000000000144000
  0
ACAD_PROXY_OBJECT
  5
19DFB
102
{ACAD_REACTORS
330
19DF6
102
}
330
19DF6
100
AcDbZombieObject
 90
      499
 91
      511
 93
      105
310
903313A384000000000000204000
  0
ACAD_PROXY_OBJECT
  5
19DFC
102
{ACAD_REACTORS
330
19DF6
102
}
330
19DF6
100
AcDbZombieObject
 90
      499
 91
      511
 93
      113
310
904313A31304000000000000244000
  0
ACAD_PROXY_OBJECT
  5
19DFD
102
{ACAD_REACTORS
330
19DF6
102
}
330
19DF6
100
AcDbZombieObject
 90
      499
 91
      511
 93
      113
310
904313A31364000000000000304000
  0
ACAD_PROXY_OBJECT
  5
19DFE
102
{ACAD_REACTORS
330
19DF6
102
}
330
19DF6
100
AcDbZombieObject
 90
      499
 91
      511
 93
      113
310
904313A32304000000000000344000
  0
ACAD_PROXY_OBJECT
  5
19DFF
102
{ACAD_REACTORS
330
19DF6
102
}
330
19DF6
100
AcDbZombieObject
 90
      499
 91
      511
 93
      113
310
904313A333040000000000003E4000
  0
ACAD_PROXY_OBJECT
  5
19E00
102
{ACAD_REACTORS
330
19DF6
102
}
330
19DF6
100
AcDbZombieObject
 90
      499
 91
      511
 93
      113
310
904313A34304000000000000444000
  0
ACAD_PROXY_OBJECT
  5
19E01
102
{ACAD_REACTORS
330
19DF6
102
}
330
19DF6
100
AcDbZombieObject
 90
      499
 91
      511
 93
      113
310
904313A35304000000000000494000
  0
ACAD_PROXY_OBJECT
  5
19E02
102
{ACAD_REACTORS
330
19DF6
102
}
330
19DF6
100
AcDbZombieObject
 90
      499
 91
      511
 93
      121
310
905313A3130304000000000000594000
  0
ACAD_PROXY_OBJECT
  5
19E03
102
{ACAD_REACTORS
330
19DF6
102
}
330
19DF6
100
AcDbZombieObject
 90
      499
 91
      511
 93
      105
310
903323A310000000000000010100
  0
ACAD_PROXY_OBJECT
  5
19E04
102
{ACAD_REACTORS
330
19DF6
102
}
330
19DF6
100
AcDbZombieObject
 90
      499
 91
      511
 93
      105
310
903343A310000000000000410100
  0
ACAD_PROXY_OBJECT
  5
19E05
102
{ACAD_REACTORS
330
19DF6
102
}
330
19DF6
100
AcDbZombieObject
 90
      499
 91
      511
 93
      105
310
903383A310000000000000810100
  0
ACAD_PROXY_OBJECT
  5
19E06
102
{ACAD_REACTORS
330
19DF6
102
}
330
19DF6
100
AcDbZombieObject
 90
      499
 91
      511
 93
      113
310
90431303A310000000000000910100
  0
ACAD_PROXY_OBJECT
  5
19E07
102
{ACAD_REACTORS
330
19DF6
102
}
330
19DF6
100
AcDbZombieObject
 90
      499
 91
      511
 93
      121
310
9053130303A310000000000001650100
  0
ACAD_PROXY_OBJECT
  5
19E08
102
{ACAD_REACTORS
330
19DF6
102
}
330
19DF6
100
AcDbZombieObject
 90
      499
 91
      511
 93
      257
310
90E312F31323822203D2031272D3022000000000000200FC000000000000284000
  0
ACAD_PROXY_OBJECT
  5
19E09
102
{ACAD_REACTORS
330
19DF6
102
}
330
19DF6
100
AcDbZombieObject
 90
      499
 91
      511
 93
      249
310
90D312F363422203D2031272D3022000000000000240FC000000000000284000
  0
ACAD_PROXY_OBJECT
  5
19E0A
102
{ACAD_REACTORS
330
19DF6
102
}
330
19DF6
100
AcDbZombieObject
 90
      499
 91
      511
 93
      249
310
90D312F333222203D2031272D3022000000000000280FC000000000000284000
  0
ACAD_PROXY_OBJECT
  5
19E0B
102
{ACAD_REACTORS
330
19DF6
102
}
330
19DF6
100
AcDbZombieObject
 90
      499
 91
      511
 93
      249
310
90D312F313622203D2031272D30220000000000002C0FC000000000000284000
  0
ACAD_PROXY_OBJECT
  5
19E0C
102
{ACAD_REACTORS
330
19DF6
102
}
330
19DF6
100
AcDbZombieObject
 90
      499
 91
      511
 93
      249
310
90D332F333222203D2031272D30220000000000002E0FC000000000000284000
  0
ACAD_PROXY_OBJECT
  5
19E0D
102
{ACAD_REACTORS
330
19DF6
102
}
330
19DF6
100
AcDbZombieObject
 90
      499
 91
      511
 93
      241
310
90C312F3822203D2031272D3022000000000000300FC000000000000284000
  0
ACAD_PROXY_OBJECT
  5
19E0E
102
{ACAD_REACTORS
330
19DF6
102
}
330
19DF6
100
AcDbZombieObject
 90
      499
 91
      511
 93
      249
310
90D332F313622203D2031272D3022000000000000320FC000000000000284000
  0
ACAD_PROXY_OBJECT
  5
19E0F
102
{ACAD_REACTORS
330
19DF6
102
}
330
19DF6
100
AcDbZombieObject
 90
      499
 91
      511
 93
      241
310
90C312F3422203D2031272D3022000000000000340FC000000000000284000
  0
ACAD_PROXY_OBJECT
  5
19E10
102
{ACAD_REACTORS
330
19DF6
102
}
330
19DF6
100
AcDbZombieObject
 90
      499
 91
      511
 93
      241
310
90C332F3822203D2031272D3022000000000000360FC000000000000284000
  0
ACAD_PROXY_OBJECT
  5
19E11
102
{ACAD_REACTORS
330
19DF6
102
}
330
19DF6
100
AcDbZombieObject
 90
      499
 91
      511
 93
      241
310
90C312F3222203D2031272D3022000000000000380FC000000000000284000
  0
ACAD_PROXY_OBJECT
  5
19E12
102
{ACAD_REACTORS
330
19DF6
102
}
330
19DF6
100
AcDbZombieObject
 90
      499
 91
      511
 93
      241
310
90C332F3422203D2031272D30220000000000003A0FC000000000000284000
  0
ACAD_PROXY_OBJECT
  5
19E13
102
{ACAD_REACTORS
330
19DF6
102
}
330
19DF6
100
AcDbZombieObject
 90
      499
 91
      511
 93
      161
310
90A3122203D2031272D30224000000000000284000
  0
ACAD_PROXY_OBJECT
  5
19E14
102
{ACAD_REACTORS
330
19DF6
102
}
330
19DF6
100
AcDbZombieObject
 90
      499
 91
      511
 93
      257
310
90E312D312F3222203D2031272D30220000000000003E0FC000000000000284000
  0
ACAD_PROXY_OBJECT
  5
19E15
102
{ACAD_REACTORS
330
19DF6
102
}
330
19DF6
100
AcDbZombieObject
 90
      499
 91
      511
 93
      225
310
90A3322203D2031272D302200000000000002100000000000000284000
  0
ACAD_PROXY_OBJECT
  5
19E16
102
{ACAD_REACTORS
330
19DF6
102
}
330
19DF6
100
AcDbZombieObject
 90
      499
 91
      511
 93
      225
310
90A3622203D2031272D302200000000000006100000000000000284000
  0
ACAD_PROXY_OBJECT
  5
19E17
102
{ACAD_REACTORS
330
19DF6
102
}
330
19DF6
100
AcDbZombieObject
 90
      499
 91
      511
 93
      249
310
90D31272D3022203D2031272D30220000000000000A100000000000000284000
  0
ACAD_PROXY_OBJECT
  5
19DEB
102
{ACAD_REACTORS
330
19DE5
102
}
330
19DE5
100
AcDbZombieObject
 90
      499
 91
      510
 93
      436
310
42CC9915DA5C99599C985B595049028333333333333E3BF0000000000000FB0107901411070040501600405405064090741402480A0340
1001
ACAD
1000
AcDbSavedByObjectVersion
1070
     0
  0
ACAD_PROXY_OBJECT
  5
19DED
102
{ACAD_REACTORS
330
19DE5
102
}
330
19DE5
100
AcDbZombieObject
 90
      499
 91
      510
 93
      500
310
424CD108121A5919195B90640502408333333333333E3BF0000000000000FB01079024090700405020000000000001110200405405064090740C02480A0340
1001
ACAD
1000
AcDbSavedByObjectVersion
1070
     0
  0
ACAD_PROXY_OBJECT
  5
19DEC
102
{ACAD_REACTORS
330
19DE5
102
}
330
19DE5
100
AcDbZombieObject
 90
      499
 91
      510
 93
      436
310
42CCD915DA5C99599C985B595059028333333333333E3BF0000000000000FB0107901411070040501600405405064090741402480A0340
1001
ACAD
1000
AcDbSavedByObjectVersion
1070
     0
  0
ACAD_PROXY_OBJECT
  5
19DEA
102
{ACAD_REACTORS
330
19DE5
102
}
330
19DE5
100
AcDbZombieObject
 90
      499
 91
      510
 93
      388
310
4150985CDA58D07406404333333333333E3BF0000000000000FB0107A41107004050150841D405064090741402480A0350
1001
ACAD
1000
AcDbSavedByObjectVersion
1070
     0
  0
ACAD_PROXY_OBJECT
  5
19DF1
102
{ACAD_REACTORS
330
19DE5
102
}
330
19DE5
100
AcDbZombieObject
 90
      499
 91
      510
 93
      428
310
42109C9A59DA1D195B90C409028333333333333E3BF0000000000000FB010790141107004050150841D405064090741402480A029950
1001
ACAD
1000
AcDbSavedByObjectVersion
1070
     0
  0
ACAD_PROXY_OBJECT
  5
19DF5
102
{ACAD_REACTORS
330
19DE5
102
}
330
19DE5
100
AcDbZombieObject
 90
      499
 91
      510
 93
      452
310
42D0DBDB1BDC90DA185B99D95104090240C333333333333E3BF0000000000000FB0108901411070040501508421405064090741402480A0350
1001
ACAD
1000
AcDbSavedByObjectVersion
1070
     0
  0
ACAD_PROXY_OBJECT
  5
19DEE
102
{ACAD_REACTORS
330
19DE5
102
}
330
19DE5
100
AcDbZombieObject
 90
      499
 91
      510
 93
      500
310
4290DBDB98D95C1D1D585B10940D028333333333333E3BF0000000000000FB0107902409070040501000000000000111010841D405064090740C02480A0340
1001
ACAD
1000
AcDbSavedByObjectVersion
1070
     0
  0
ACAD_PROXY_OBJECT
  5
19DF0
102
{ACAD_REACTORS
330
19DE5
102
}
330
19DE5
100
AcDbZombieObject
 90
      499
 91
      510
 93
      412
310
40D11A5B50B409028333333333333E3BF0000000000000FB010790141107004050150841D405064090741402480A02677FFFFFD0
1001
ACAD
1000
AcDbSavedByObjectVersion
1070
     0
  0
ACAD_PROXY_OBJECT
  5
1E02A
102
{ACAD_REACTORS
330
19DE5
102
}
330
19DE5
100
AcDbZombieObject
 90
      499
 91
      510
 93
      452
310
43115919D950DBDB1BDC93D999916409028333333333333E3BF0000000000000FB010790141107004050150841D405064090741402480A0350
1001
ACAD
1000
AcDbSavedByObjectVersion
1070
     0
  0
ACAD_PROXY_OBJECT
  5
19DF4
102
{ACAD_REACTORS
330
19DE5
102
}
330
19DE5
100
AcDbZombieObject
 90
      499
 91
      510
 93
      444
310
42D19858D95C185D1D195C9B90F409028333333333333E3BF0000000000000FB010790141107004050150841D405064090741402480A0350
1001
ACAD
1000
AcDbSavedByObjectVersion
1070
     0
  0
ACAD_PROXY_OBJECT
  5
19DE6
102
{ACAD_REACTORS
330
19DE5
102
}
330
19DE5
100
AcDbZombieObject
 90
      499
 91
      510
 93
      388
310
41119B185D240901404333333333333E3BF0000000000000F9010740A41107004050150841D405064090741402480A1B50
1001
ACAD
1000
AcDbSavedByObjectVersion
1070
     0
  0
ACAD_PROXY_OBJECT
  5
19DE7
102
{ACAD_REACTORS
330
19DE5
102
}
330
19DE5
100
AcDbZombieObject
 90
      499
 91
      510
 93
      476
310
43519B185D15DA5D1A115919D95CD0140901404333333333333E3BF0000000000000F9010740901411070040501600405405064090741402480A1B50
1001
ACAD
1000
AcDbSavedByObjectVersion
1070
     0
  0
ACAD_PROXY_OBJECT
  5
19DE8
102
{ACAD_REACTORS
330
19DE5
102
}
330
19DE5
100
AcDbZombieObject
 90
      499
 91
      510
 93
      412
310
41D1DBDD5C985D5910240902404333333333333E3BF0000000000000F9010740A411070040501641D405064090741402480A1B50
1001
ACAD
1000
AcDbSavedByObjectVersion
1070
     0
  0
ACAD_PROXY_OBJECT
  5
19DE9
102
{ACAD_REACTORS
330
19DE5
102
}
330
19DE5
100
AcDbZombieObject
 90
      499
 91
      510
 93
      500
310
4411DBDD5C985D5915DA5D1A115919D95CD0340902404333333333333E3BF0000000000000F9010740901411070040501600405405064090741402480A1B50
1001
ACAD
1000
AcDbSavedByObjectVersion
1070
     0
  0
ACAD_PROXY_OBJECT
  5
1FE4A
102
{ACAD_REACTORS
330
19DE5
102
}
330
19DE5
100
AcDbZombieObject
 90
      499
 91
      510
 93
      476
310
41921A5919195B90640502408333333333333E33F0000000000000F901079024090700405020000000000001110200405405064090740C02480A0340
1001
ACAD
1000
AcDbSavedByObjectVersion
1070
     0
  0
ACAD_PROXY_OBJECT
  5
1E028
102
{ACAD_REACTORS
330
19DE5
102
}
330
19DE5
100
AcDbZombieObject
 90
      499
 91
      510
 93
      428
310
42529A5D1D195C93D999914409028333333333333E3BF0000000000000FB010790141107004050150A41D405064090741402480A0350
1001
ACAD
1000
AcDbSavedByObjectVersion
1070
     0
  0
ACAD_PROXY_OBJECT
  5
19DF3
102
{ACAD_REACTORS
330
19DE5
102
}
330
19DE5
100
AcDbZombieObject
 90
      499
 91
      510
 93
      444
310
42D31A5B995C185D1D195C9B90E409028333333333333E3BF0000000000000FB010790141107004050750841D405064090741402483A0350
1001
ACAD
1000
AcDbSavedByObjectVersion
1070
     0
  0
ACAD_PROXY_OBJECT
  5
1FE50
102
{ACAD_REACTORS
330
19DE5
102
}
330
19DE5
100
AcDbZombieObject
 90
      499
 91
      510
 93
      484
310
42135BD9195B1A5B99D0A409038333333333333E33F0000000000000F901074090290700405010000000000201990108421405064090741402480A1B40
1001
ACAD
1000
AcDbSavedByObjectVersion
1070
     0
  0
ACAD_PROXY_OBJECT
  5
1E029
102
{ACAD_REACTORS
330
19DE5
102
}
330
19DE5
100
AcDbZombieObject
 90
      499
 91
      510
 93
      444
310
42D3DD995C9A185B99D3D999915409028333333333333E3BF0000000000000FB010790141107004050150941D405064090741402480A0350
1001
ACAD
1000
AcDbSavedByObjectVersion
1070
     0
  0
ACAD_PROXY_OBJECT
  5
19DEF
102
{ACAD_REACTORS
330
19DE5
102
}
330
19DE5
100
AcDbZombieObject
 90
      499
 91
      510
 93
      420
310
425499585B1A5CDD1A58D08409028333333333333E3BF0000000000000FB01079019070040501508421405064090741402480A1B40
1001
ACAD
1000
AcDbSavedByObjectVersion
1070
     0
  0
ACAD_PROXY_OBJECT
  5
1FE4F
102
{ACAD_REACTORS
330
19DE5
102
}
330
19DE5
100
AcDbZombieObject
 90
      499
 91
      510
 93
      420
310
4194DA1859195911B40902404333333333333E33F0000000000000F9010740A41107004050150800405405064090840C02480A0B40
1001
ACAD
1000
AcDbSavedByObjectVersion
1070
     0
  0
ACAD_PROXY_OBJECT
  5
1FE4E
102
{ACAD_REACTORS
330
19DE5
102
}
330
19DE5
100
AcDbZombieObject
 90
      499
 91
      510
 93
      516
310
4454DA18591959081DDA5D1A08195919D95CD1A40902404333333333333E33F0000000000000F901074090142907004050250800405405064090740C02480A0B40
1001
ACAD
1000
AcDbSavedByObjectVersion
1070
     0
  0
ACAD_PROXY_OBJECT
  5
1FE4B
102
{ACAD_REACTORS
330
19DE5
102
}
330
19DE5
100
AcDbZombieObject
 90
      499
 91
      510
 93
      532
310
4394DA1859195CC81BD98811DC985E5174090240C333333333333E33F0000000000000F901079024090741D01000000000000111010841D405064090740C02480A0340
1001
ACAD
1000
AcDbSavedByObjectVersion
1070
     0
  0
ACAD_PROXY_OBJECT
  5
1FE4C
102
{ACAD_REACTORS
330
19DE5
102
}
330
19DE5
100
AcDbZombieObject
 90
      499
 91
      510
 93
      476
310
41D4DAD95D18DA1E51840502408333333333333E33F0000000000000F901079024090741D01000000000000111010B41D405064090741802480A0340
1001
ACAD
1000
AcDbSavedByObjectVersion
1070
     0
  0
ACAD_PROXY_OBJECT
  5
19DF2
102
{ACAD_REACTORS
330
19DE5
102
}
330
19DE5
100
AcDbZombieObject
 90
      499
 91
      510
 93
      412
310
41D51A1A58DAD95B90D409028333333333333E3BF0000000000000FB010790141107004050150C41D405064090741402480A0350
1001
ACAD
1000
AcDbSavedByObjectVersion
1070
     0
  0
ACAD_PROXY_OBJECT
  5
1FE49
102
{ACAD_REACTORS
330
19DE5
102
}
330
19DE5
100
AcDbZombieObject
 90
      499
 91
      510
 93
      420
310
4255DA5C99599C985B595059028333333333333E33F0000000000000F90107901411070040501600405405064090740C02480A0340
1001
ACAD
1000
AcDbSavedByObjectVersion
1070
     0
  0
ACAD_PROXY_OBJECT
  5
1FE4D
102
{ACAD_REACTORS
330
19DE5
102
}
330
19DE5
100
AcDbZombieObject
 90
      499
 91
      510
 93
      404
310
41560B54985E51940902404000000000000E03F0000000000000F9010740501907004050150841D405064090740C02480A1B40
1001
ACAD
1000
AcDbSavedByObjectVersion
1070
     0
  0
XRECORD
  5
21B2F
102
{ACAD_REACTORS
330
21B2E
102
}
330
21B2E
100
AcDbXrecord
340
2D0
  0
XRECORD
  5
21B30
102
{ACAD_REACTORS
330
21B2E
102
}
330
21B2E
100
AcDbXrecord
340
2CF
  0
DICTIONARYVAR
  5
20611
102
{ACAD_REACTORS
330
37
102
}
330
37
100
DictionaryVariables
280
     0
  1
1:1
  0
DICTIONARYVAR
  5
1AC19
102
{ACAD_REACTORS
330
37
102
}
330
37
100
DictionaryVariables
280
     0
  1
Standard
  0
DICTIONARYVAR
  5
4F1
102
{ACAD_REACTORS
330
37
102
}
330
37
100
DictionaryVariables
280
     0
  1
Standard
  0
DICTIONARYVAR
  5
38
102
{ACAD_REACTORS
330
37
102
}
330
37
100
DictionaryVariables
280
     0
  1
-1
  0
DICTIONARYVAR
  5
408
102
{ACAD_REACTORS
330
37
102
}
330
37
100
DictionaryVariables
280
     0
  1
2
  0
DICTIONARYVAR
  5
1891
102
{ACAD_REACTORS
330
37
102
}
330
37
100
DictionaryVariables
280
     0
  1
1
  0
DICTIONARYVAR
  5
1AC1C
102
{ACAD_REACTORS
330
37
102
}
330
37
100
DictionaryVariables
280
     0
  1
0
  0
DICTIONARYVAR
  5
1895
102
{ACAD_REACTORS
330
37
102
}
330
37
100
DictionaryVariables
280
     0
  1
8
  0
DICTIONARYVAR
  5
1894
102
{ACAD_REACTORS
330
37
102
}
330
37
100
DictionaryVariables
280
     0
  1
1
  0
DICTIONARYVAR
  5
20667
102
{ACAD_REACTORS
330
37
102
}
330
37
100
DictionaryVariables
280
     0
  1
0
  0
DICTIONARYVAR
  5
1892
102
{ACAD_REACTORS
330
37
102
}
330
37
100
DictionaryVariables
280
     0
  1
8
  0
DICTIONARYVAR
  5
1893
102
{ACAD_REACTORS
330
37
102
}
330
37
100
DictionaryVariables
280
     0
  1
2
  0
DICTIONARYVAR
  5
409
102
{ACAD_REACTORS
330
37
102
}
330
37
100
DictionaryVariables
280
     0
  1

  0
DICTIONARYVAR
  5
1AC1B
102
{ACAD_REACTORS
330
37
102
}
330
37
100
DictionaryVariables
280
     0
  1
127
  0
DICTIONARYVAR
  5
1FE48
102
{ACAD_REACTORS
330
37
102
}
330
37
100
DictionaryVariables
280
     0
  1
2
  0
DICTIONARY
  5
21CCC
330
19DD5
100
AcDbDictionary
  3
ACAD_XREC_ROUNDTRIP
360
21CCD
1001
ACAD
1000
TREAT_AS_HARD
1070
     1
  0
DICTIONARY
  5
21CCE
330
19DCD
100
AcDbDictionary
  3
ACAD_XREC_ROUNDTRIP
360
21CCF
1001
ACAD
1000
TREAT_AS_HARD
1070
     1
  0
DICTIONARY
  5
21CD0
330
19DDD
100
AcDbDictionary
  3
ACAD_XREC_ROUNDTRIP
360
21CD1
1001
ACAD
1000
TREAT_AS_HARD
1070
     1
  0
XRECORD
  5
21CCD
102
{ACAD_REACTORS
330
21CCC
102
}
330
21CCC
100
AcDbXrecord
102
MATERIAL
148
0.0
149
0.0
149
0.0
 93
        0
 94
      127
282
     0
 72
     0
 77
     0
171
     0
175
     0
179
     0
273
     0
  0
XRECORD
  5
21CCF
102
{ACAD_REACTORS
330
21CCE
102
}
330
21CCE
100
AcDbXrecord
102
MATERIAL
148
0.0
149
0.0
149
0.0
 93
        0
 94
      127
282
     0
 72
     0
 77
     0
171
     0
175
     0
179
     0
273
     0
  0
XRECORD
  5
21CD1
102
{ACAD_REACTORS
330
21CD0
102
}
330
21CD0
100
AcDbXrecord
102
MATERIAL
148
0.0
149
0.0
149
0.0
 93
        0
 94
      127
282
     0
 72
     0
 77
     0
171
     0
175
     0
179
     0
273
     0
  0
ENDSEC
  0
EOF
