  0
SECTION
  2
HEADER
  9
$ACADVER
  1
AC1012
  9
$DWGCODEPAGE
  3
ansi_932
  9
$INSBASE
 10
0.0
 20
0.0
 30
0.0
  9
$EXTMIN
 10
-84.48375211066603
 20
-734.4213303512677
 30
0.0
  9
$EXTMAX
 10
795.516241615365
 20
-454.2204305540536
 30
0.0
  9
$LIMMIN
 10
0.0
 20
0.0
  9
$LIMMAX
 10
420.0
 20
297.0
  9
$ORTHOMODE
 70
     0
  9
$REGENMODE
 70
     1
  9
$FILLMODE
 70
     1
  9
$QTEXTMODE
 70
     0
  9
$MIRRTEXT
 70
     0
  9
$DRAGMODE
 70
     2
  9
$LTSCALE
 40
0.5
  9
$OSMODE
 70
  2175
  9
$ATTMODE
 70
     1
  9
$TEXTSIZE
 40
4.0
  9
$TRACEWID
 40
1.0
  9
$TEXTSTYLE
  7
STANDARD
  9
$CLAYER
  8
1TEXT
  9
$CELTYPE
  6
BYLAYER
  9
$CECOLOR
 62
   256
  9
$CELTSCALE
 40
1.0
  9
$DELOBJ
 70
     1
  9
$DISPSILH
 70
     0
  9
$DIMSCALE
 40
1.0
  9
$DIMASZ
 40
2.0
  9
$DIMEXO
 40
0.0
  9
$DIMDLI
 40
7.0
  9
$DIMRND
 40
0.0
  9
$DIMDLE
 40
0.0
  9
$DIMEXE
 40
1.0
  9
$DIMTP
 40
0.0
  9
$DIMTM
 40
0.0
  9
$DIMTXT
 40
3.5
  9
$DIMCEN
 40
0.0
  9
$DIMTSZ
 40
0.0
  9
$DIMTOL
 70
     0
  9
$DIMLIM
 70
     0
  9
$DIMTIH
 70
     0
  9
$DIMTOH
 70
     0
  9
$DIMSE1
 70
     0
  9
$DIMSE2
 70
     0
  9
$DIMTAD
 70
     1
  9
$DIMZIN
 70
     8
  9
$DIMBLK
  1

  9
$DIMASO
 70
     1
  9
$DIMSHO
 70
     1
  9
$DIMPOST
  1
 
  9
$DIMAPOST
  1

  9
$DIMALT
 70
     0
  9
$DIMALTD
 70
     2
  9
$DIMALTF
 40
25.4
  9
$DIMLFAC
 40
1.0
  9
$DIMTOFL
 70
     1
  9
$DIMTVP
 40
0.0
  9
$DIMTIX
 70
     0
  9
$DIMSOXD
 70
     0
  9
$DIMSAH
 70
     1
  9
$DIMBLK1
  1
OPEN30
  9
$DIMBLK2
  1
OPEN30
  9
$DIMSTYLE
  2
NEWX10
  9
$DIMCLRD
 70
   256
  9
$DIMCLRE
 70
   256
  9
$DIMCLRT
 70
   201
  9
$DIMTFAC
 40
0.7
  9
$DIMGAP
 40
0.7
  9
$DIMJUST
 70
     0
  9
$DIMSD1
 70
     0
  9
$DIMSD2
 70
     0
  9
$DIMTOLJ
 70
     1
  9
$DIMTZIN
 70
     8
  9
$DIMALTZ
 70
     0
  9
$DIMALTTZ
 70
     0
  9
$DIMFIT
 70
     2
  9
$DIMUPT
 70
     0
  9
$DIMUNIT
 70
     2
  9
$DIMDEC
 70
     2
  9
$DIMTDEC
 70
     4
  9
$DIMALTU
 70
     2
  9
$DIMALTTD
 70
     2
  9
$DIMTXSTY
  7
STANDARD
  9
$DIMAUNIT
 70
     0
  9
$LUNITS
 70
     2
  9
$LUPREC
 70
     4
  9
$SKETCHINC
 40
1.0
  9
$FILLETRAD
 40
0.0
  9
$AUNITS
 70
     0
  9
$AUPREC
 70
     2
  9
$MENU
  1
acad
  9
$ELEVATION
 40
0.0
  9
$PELEVATION
 40
0.0
  9
$THICKNESS
 40
0.0
  9
$LIMCHECK
 70
     0
  9
$CHAMFERA
 40
1.0
  9
$CHAMFERB
 40
1.0
  9
$CHAMFERC
 40
20.0
  9
$CHAMFERD
 40
0.0
  9
$SKPOLY
 70
     0
  9
$TDCREATE
 40
2453033.732663484
  9
$TDUPDATE
 40
2459305.729413889
  9
$TDINDWG
 40
2.4039142824
  9
$TDUSRTIMER
 40
2.4039142824
  9
$USRTIMER
 70
     1
  9
$ANGBASE
 50
0.0
  9
$ANGDIR
 70
     0
  9
$PDMODE
 70
     0
  9
$PDSIZE
 40
0.0
  9
$PLINEWID
 40
0.0
  9
$COORDS
 70
     2
  9
$SPLFRAME
 70
     0
  9
$SPLINETYPE
 70
     6
  9
$SPLINESEGS
 70
     8
  9
$ATTDIA
 70
     0
  9
$ATTREQ
 70
     1
  9
$HANDLING
 70
     1
  9
$HANDSEED
  5
22249
  9
$SURFTAB1
 70
     6
  9
$SURFTAB2
 70
     6
  9
$SURFTYPE
 70
     6
  9
$SURFU
 70
     6
  9
$SURFV
 70
     6
  9
$UCSNAME
  2

  9
$UCSORG
 10
0.0
 20
0.0
 30
0.0
  9
$UCSXDIR
 10
1.0
 20
0.0
 30
0.0
  9
$UCSYDIR
 10
0.0
 20
1.0
 30
0.0
  9
$PUCSNAME
  2

  9
$PUCSORG
 10
0.0
 20
0.0
 30
0.0
  9
$PUCSXDIR
 10
1.0
 20
0.0
 30
0.0
  9
$PUCSYDIR
 10
0.0
 20
1.0
 30
0.0
  9
$USERI1
 70
     0
  9
$USERI2
 70
     0
  9
$USERI3
 70
     0
  9
$USERI4
 70
     0
  9
$USERI5
 70
     0
  9
$USERR1
 40
0.0
  9
$USERR2
 40
0.0
  9
$USERR3
 40
0.0
  9
$USERR4
 40
0.0
  9
$USERR5
 40
0.0
  9
$WORLDVIEW
 70
     1
  9
$SHADEDGE
 70
     3
  9
$SHADEDIF
 70
    70
  9
$TILEMODE
 70
     1
  9
$MAXACTVP
 70
    48
  9
$PINSBASE
 10
0.0
 20
0.0
 30
0.0
  9
$PLIMCHECK
 70
     0
  9
$PEXTMIN
 10
1.000000000000000E+20
 20
1.000000000000000E+20
 30
1.000000000000000E+20
  9
$PEXTMAX
 10
-1.000000000000000E+20
 20
-1.000000000000000E+20
 30
-1.000000000000000E+20
  9
$PLIMMIN
 10
0.0
 20
0.0
  9
$PLIMMAX
 10
420.0
 20
297.0
  9
$UNITMODE
 70
     0
  9
$VISRETAIN
 70
     1
  9
$PLINEGEN
 70
     0
  9
$PSLTSCALE
 70
     1
  9
$TREEDEPTH
 70
  3020
  9
$PICKSTYLE
 70
     1
  9
$CMLSTYLE
  2
STANDARD
  9
$CMLJUST
 70
     0
  9
$CMLSCALE
 40
20.0
  9
$SAVEIMAGES
 70
     1
  0
ENDSEC
  0
SECTION
  2
CLASSES
  0
CLASS
  1
DICTIONARYVAR
  2
AcDbDictionaryVar
  3
ObjectDBX Classes
 90
        0
280
     0
281
     0
  0
CLASS
  1
IDBUFFER
  2
AcDbIdBuffer
  3
ObjectDBX Classes
 90
    32768
280
     0
281
     0
  0
CLASS
  1
LWPOLYLINE
  2
AcDbPolyline
  3
ObjectDBX Classes
 90
    32768
280
     0
281
     1
  0
CLASS
  1
ACDBDICTIONARYWDFLT
  2
AcDbDictionaryWithDefault
  3
ObjectDBX Classes
 90
    32768
280
     0
281
     0
  0
CLASS
  1
ACDBPLACEHOLDER
  2
AcDbPlaceHolder
  3
ObjectDBX Classes
 90
        0
280
     0
281
     0
  0
CLASS
  1
LAYOUT
  2
AcDbLayout
  3
ObjectDBX Classes
 90
        0
280
     0
281
     0
  0
CLASS
  1
TABLESTYLE
  2
AcDbTableStyle
  3
ObjectDBX Classes
 90
     4095
280
     0
281
     0
  0
CLASS
  1
SORTENTSTABLE
  2
AcDbSortentsTable
  3
ObjectDBX Classes
 90
    32768
280
     0
281
     0
  0
CLASS
  1
DIMASSOC
  2
AcDbDimAssoc
  3
"AcDbDimAssoc|Product Desc:     AcDim ARX App For Dimension|Company:          Autodesk, Inc.|WEB Address:      www.autodesk.com"
 90
        0
280
     0
281
     0
  0
CLASS
  1
MATERIAL
  2
AcDbMaterial
  3
ObjectDBX Classes
 90
     1153
280
     0
281
     0
  0
CLASS
  1
VISUALSTYLE
  2
AcDbVisualStyle
  3
ObjectDBX Classes
 90
     4095
280
     0
281
     0
  0
CLASS
  1
SCALE
  2
AcDbScale
  3
ObjectDBX Classes
 90
     1153
280
     0
281
     0
  0
CLASS
  1
MLEADERSTYLE
  2
AcDbMLeaderStyle
  3
ACDB_MLEADERSTYLE_CLASS
 90
     4095
280
     0
281
     0
  0
CLASS
  1
CELLSTYLEMAP
  2
AcDbCellStyleMap
  3
ObjectDBX Classes
 90
     1152
280
     0
281
     0
  0
CLASS
  1
EXACXREFPANELOBJECT
  2
ExAcXREFPanelObject
  3
EXAC_ESW
 90
     1025
280
     1
281
     0
  0
CLASS
  1
NPOCOLLECTION
  2
AcDbImpNonPersistentObjectsCollection
  3
ObjectDBX Classes
 90
     1153
280
     1
281
     0
  0
CLASS
  1
SUN
  2
AcDbSun
  3
SCENEOE
 90
     1153
280
     0
281
     0
  0
CLASS
  1
MULTILEADER
  2
AcDbMLeader
  3
ACDB_MLEADER_CLASS
 90
     1025
280
     0
281
     1
  0
CLASS
  1
ACDB_MLEADEROBJECTCONTEXTDATA_CLASS
  2
AcDbMLeaderObjectContextData
  3
ObjectDBX Classes
 90
     1153
280
     0
281
     0
  0
CLASS
  1
XRECORD
  2
AcDbXrecord
  3
ObjectDBX Classes
 90
    32768
280
     0
281
     0
  0
CLASS
  1
HATCH
  2
AcDbHatch
  3
ObjectDBX Classes
 90
    32768
280
     0
281
     1
  0
ENDSEC
  0
SECTION
  2
TABLES
  0
TABLE
  2
VPORT
  5
8
330
0
100
AcDbSymbolTable
 70
     1
  0
VPORT
  5
19DC2
330
8
100
AcDbSymbolTableRecord
100
AcDbViewportTableRecord
  2
*ACTIVE
 70
     0
 10
0.0
 20
0.0
 11
1.0
 21
1.0
 12
355.5162447523495
 22
-594.3208804526606
 13
0.0
 23
0.0
 14
10.0
 24
10.0
 15
10.0
 25
10.0
 16
0.0
 26
0.0
 36
1.0
 17
0.0
 27
0.0
 37
0.0
 40
512.2298326838583
 41
1.844566712517194
 42
50.0
 43
0.0
 44
0.0
 50
0.0
 51
0.0
 71
    16
 72
   100
 73
     1
 74
     1
 75
     0
 76
     0
 77
     0
 78
     0
  0
ENDTAB
  0
TABLE
  2
LTYPE
  5
5
330
0
100
AcDbSymbolTable
 70
     3
  0
LTYPE
  5
12
330
5
100
AcDbSymbolTableRecord
100
AcDbLinetypeTableRecord
  2
BYBLOCK
 70
     0
  3

 72
    65
 73
     0
 40
0.0
  0
LTYPE
  5
13
330
5
100
AcDbSymbolTableRecord
100
AcDbLinetypeTableRecord
  2
BYLAYER
 70
     0
  3

 72
    65
 73
     0
 40
0.0
  0
LTYPE
  5
14
330
5
100
AcDbSymbolTableRecord
100
AcDbLinetypeTableRecord
  2
CONTINUOUS
 70
     0
  3
Solid line
 72
    65
 73
     0
 40
0.0
  0
LTYPE
  5
26
330
5
100
AcDbSymbolTableRecord
100
AcDbLinetypeTableRecord
  2
CENTER2
 70
     0
  3
Center (.5x) ___ _ ___ _ ___ _ ___ _ ___ _ ___
 72
    65
 73
     4
 40
28.575
 49
19.05
 74
     0
 49
-3.175
 74
     0
 49
3.175
 74
     0
 49
-3.175
 74
     0
  0
LTYPE
  5
100
330
5
100
AcDbSymbolTableRecord
100
AcDbLinetypeTableRecord
  2
PHANTOM2
 70
     0
  3
Phantom (0.5x) ___ _ _ ___ _ _ ___ _ _ ___ _ _
 72
    65
 73
     6
 40
31.75
 49
15.875
 74
     0
 49
-3.175
 74
     0
 49
3.175
 74
     0
 49
-3.175
 74
     0
 49
3.175
 74
     0
 49
-3.175
 74
     0
  0
ENDTAB
  0
TABLE
  2
LAYER
  5
2
102
{ACAD_XDICTIONARY
360
18FE8
102
}
330
0
100
AcDbSymbolTable
 70
     8
  0
LAYER
  5
E
102
{ACAD_XDICTIONARY
360
1A20A
102
}
330
2
100
AcDbSymbolTableRecord
100
AcDbLayerTableRecord
  2
0
 70
     0
 62
     7
  6
CONTINUOUS
  0
LAYER
  5
29
102
{ACAD_XDICTIONARY
360
1A20C
102
}
330
2
100
AcDbSymbolTableRecord
100
AcDbLayerTableRecord
  2
1CENTER
 70
     0
 62
     7
  6
CENTER2
  0
LAYER
  5
31
102
{ACAD_XDICTIONARY
360
1A20E
102
}
330
2
100
AcDbSymbolTableRecord
100
AcDbLayerTableRecord
  2
1TEXT
 70
     0
 62
     7
  6
CONTINUOUS
  0
LAYER
  5
101
102
{ACAD_XDICTIONARY
360
1A218
102
}
330
2
100
AcDbSymbolTableRecord
100
AcDbLayerTableRecord
  2
1DIM
 70
     0
 62
     7
  6
CONTINUOUS
  0
LAYER
  5
103
102
{ACAD_XDICTIONARY
360
1A21C
102
}
330
2
100
AcDbSymbolTableRecord
100
AcDbLayerTableRecord
  2
1PHANTOM
 70
     0
 62
     7
  6
PHANTOM2
  0
LAYER
  5
25F
102
{ACAD_XDICTIONARY
360
1A220
102
}
330
2
100
AcDbSymbolTableRecord
100
AcDbLayerTableRecord
  2
01
 70
     0
 62
     1
  6
CONTINUOUS
  0
LAYER
  5
26A
102
{ACAD_XDICTIONARY
360
1A236
102
}
330
2
100
AcDbSymbolTableRecord
100
AcDbLayerTableRecord
  2
1DIM1
 70
     0
 62
     7
  6
CONTINUOUS
  0
LAYER
  5
26D
102
{ACAD_XDICTIONARY
360
1A23C
102
}
330
2
100
AcDbSymbolTableRecord
100
AcDbLayerTableRecord
  2
1HATCH
 70
     0
 62
     7
  6
CONTINUOUS
  0
ENDTAB
  0
TABLE
  2
STYLE
  5
3
330
0
100
AcDbSymbolTable
 70
     1
  0
STYLE
  5
F
330
3
100
AcDbSymbolTableRecord
100
AcDbTextStyleTableRecord
  2
STANDARD
 70
     0
 40
0.0
 41
1.0
 50
0.0
 71
     0
 42
4.0
  3
txt.shx
  4
extfont.shx
  0
ENDTAB
  0
TABLE
  2
VIEW
  5
6
330
0
100
AcDbSymbolTable
 70
     0
  0
ENDTAB
  0
TABLE
  2
UCS
  5
7
330
0
100
AcDbSymbolTable
 70
     0
  0
ENDTAB
  0
TABLE
  2
APPID
  5
9
330
0
100
AcDbSymbolTable
 70
    17
  0
APPID
  5
10
330
9
100
AcDbSymbolTableRecord
100
AcDbRegAppTableRecord
  2
ACAD
 70
     0
  0
APPID
  5
21
330
9
100
AcDbSymbolTableRecord
100
AcDbRegAppTableRecord
  2
DRAWINGVARIABLESXDATA
 70
     0
  0
APPID
  5
64
330
9
100
AcDbSymbolTableRecord
100
AcDbRegAppTableRecord
  2
CONTENTTABDATA
 70
     0
  0
APPID
  5
65
330
9
100
AcDbSymbolTableRecord
100
AcDbRegAppTableRecord
  2
CONTENTCURRENTTAB
 70
     0
  0
APPID
  5
66
330
9
100
AcDbSymbolTableRecord
100
AcDbRegAppTableRecord
  2
CONTENTBLOCKDESCRIPTION
 70
     0
  0
APPID
  5
67
330
9
100
AcDbSymbolTableRecord
100
AcDbRegAppTableRecord
  2
CONTENTBLOCKICON
 70
     0
  0
APPID
  5
68
330
9
100
AcDbSymbolTableRecord
100
AcDbRegAppTableRecord
  2
CONTENTLONGBLOCKNAME
 70
     0
  0
APPID
  5
5A9
330
9
100
AcDbSymbolTableRecord
100
AcDbRegAppTableRecord
  2
ACAD_PSEXT
 70
     0
  0
APPID
  5
18AC
330
9
100
AcDbSymbolTableRecord
100
AcDbRegAppTableRecord
  2
ACAD_DSTYLE_DIMTEXT_FILL
 70
     0
  0
APPID
  5
19E1A
330
9
100
AcDbSymbolTableRecord
100
AcDbRegAppTableRecord
  2
ACAD_MLEADERVER
 70
     0
  0
APPID
  5
1A2FA
330
9
100
AcDbSymbolTableRecord
100
AcDbRegAppTableRecord
  2
ACAD_DSTYLE_DIMRADIAL_EXTE
 70
     0
  0
APPID
  5
1DBC1
330
9
100
AcDbSymbolTableRecord
100
AcDbRegAppTableRecord
  2
ACADANNOTATIVE
 70
     0
  0
APPID
  5
1E991
330
9
100
AcDbSymbolTableRecord
100
AcDbRegAppTableRecord
  2
ACAD_EXEMPT_FROM_CAD_STAND
 70
     0
  0
APPID
  5
202C7
330
9
100
AcDbSymbolTableRecord
100
AcDbRegAppTableRecord
  2
ACDBBLOCKREPETAG
 70
     0
  0
APPID
  5
20AA7
330
9
100
AcDbSymbolTableRecord
100
AcDbRegAppTableRecord
  2
ACAD_OBJECT_CHANGE_GUID
 70
     0
  0
APPID
  5
20B26
330
9
100
AcDbSymbolTableRecord
100
AcDbRegAppTableRecord
  2
ACLAYERTOOLS
 70
     0
  0
APPID
  5
20B27
330
9
100
AcDbSymbolTableRecord
100
AcDbRegAppTableRecord
  2
ACAD_NAV_VCDISPLAY
 70
     0
  0
ENDTAB
  0
TABLE
  2
DIMSTYLE
  5
A
330
0
100
AcDbSymbolTable
 70
     1
  0
DIMSTYLE
105
48
330
A
100
AcDbSymbolTableRecord
100
AcDbDimStyleTableRecord
  2
NEWX10
 70
     0
  3
 
  4

  5

  6
OPEN30
  7
OPEN30
 40
1.0
 41
2.0
 42
0.0
 43
7.0
 44
1.0
 45
0.0
 46
0.0
 47
0.0
 48
0.0
140
3.5
141
0.0
142
0.0
143
25.4
144
1.0
145
0.0
146
0.7
147
0.7
 71
     0
 72
     0
 73
     0
 74
     0
 75
     0
 76
     0
 77
     1
 78
     8
170
     0
171
     2
172
     1
173
     1
174
     0
175
     0
176
   256
177
   256
178
   201
179
     2
270
     2
271
     2
272
     4
273
     2
274
     2
340
F
275
     0
280
     0
281
     0
282
     0
283
     1
284
     8
285
     0
286
     0
287
     2
288
     0
  0
ENDTAB
  0
TABLE
  2
BLOCK_RECORD
  5
1
330
0
100
AcDbSymbolTable
 70
     9
  0
BLOCK_RECORD
  5
18
102
{ACAD_XDICTIONARY
360
6E9
102
}
330
1
100
AcDbSymbolTableRecord
100
AcDbBlockTableRecord
  2
*MODEL_SPACE
  0
BLOCK_RECORD
  5
15
102
{ACAD_XDICTIONARY
360
59B
102
}
330
1
100
AcDbSymbolTableRecord
100
AcDbBlockTableRecord
  2
*PAPER_SPACE
  0
BLOCK_RECORD
  5
42
330
1
100
AcDbSymbolTableRecord
100
AcDbBlockTableRecord
  2
_OPEN30
  0
BLOCK_RECORD
  5
20316
330
1
100
AcDbSymbolTableRecord
100
AcDbBlockTableRecord
  2
A3WAKUKAWAJUN2017_HYOUDAI_
  0
BLOCK_RECORD
  5
20B2D
102
{ACAD_XDICTIONARY
360
20B2E
102
}
330
1
100
AcDbSymbolTableRecord
100
AcDbBlockTableRecord
  2
NOCIRCLE
1001
ACADANNOTATIVE
1000
AnnotativeData
1002
{
1070
     1
1070
     0
1002
}
  0
BLOCK_RECORD
  5
220A9
330
1
100
AcDbSymbolTableRecord
100
AcDbBlockTableRecord
  2
*X49
  0
BLOCK_RECORD
  5
220F7
330
1
100
AcDbSymbolTableRecord
100
AcDbBlockTableRecord
  2
*X50
  0
BLOCK_RECORD
  5
22149
330
1
100
AcDbSymbolTableRecord
100
AcDbBlockTableRecord
  2
*X51
  0
BLOCK_RECORD
  5
2219A
330
1
100
AcDbSymbolTableRecord
100
AcDbBlockTableRecord
  2
*X52
  0
BLOCK_RECORD
  5
221D7
330
1
100
AcDbSymbolTableRecord
100
AcDbBlockTableRecord
  2
*X53
  0
BLOCK_RECORD
  5
22217
330
1
100
AcDbSymbolTableRecord
100
AcDbBlockTableRecord
  2
*X54
  0
ENDTAB
  0
ENDSEC
  0
SECTION
  2
BLOCKS
  0
BLOCK
  5
19
330
18
100
AcDbEntity
  8
0
100
AcDbBlockBegin
  2
*MODEL_SPACE
 70
     0
 10
0.0
 20
0.0
 30
0.0
  3
*MODEL_SPACE
  1

  0
ENDBLK
  5
1A
330
18
100
AcDbEntity
  8
0
100
AcDbBlockEnd
  0
BLOCK
  5
16
330
15
100
AcDbEntity
 67
     1
  8
0
100
AcDbBlockBegin
  2
*PAPER_SPACE
 70
     0
 10
0.0
 20
0.0
 30
0.0
  3
*PAPER_SPACE
  1

  0
ENDBLK
  5
17
330
15
100
AcDbEntity
 67
     1
  8
0
100
AcDbBlockEnd
  0
BLOCK
  5
43
330
42
100
AcDbEntity
  8
0
100
AcDbBlockBegin
  2
_OPEN30
 70
     0
 10
0.0
 20
0.0
 30
0.0
  3
_OPEN30
  1

  0
LINE
  5
44
330
42
100
AcDbEntity
  8
0
  6
BYBLOCK
 62
     0
100
AcDbLine
 10
-1.0
 20
0.26794919
 30
0.0
 11
0.0
 21
0.0
 31
0.0
  0
LINE
  5
45
330
42
100
AcDbEntity
  8
0
  6
BYBLOCK
 62
     0
100
AcDbLine
 10
0.0
 20
0.0
 30
0.0
 11
-1.0
 21
-0.26794919
 31
0.0
  0
LINE
  5
46
330
42
100
AcDbEntity
  8
0
  6
BYBLOCK
 62
     0
100
AcDbLine
 10
0.0
 20
0.0
 30
0.0
 11
-1.0
 21
0.0
 31
0.0
  0
ENDBLK
  5
47
330
42
100
AcDbEntity
  8
0
100
AcDbBlockEnd
  0
BLOCK
  5
20A15
330
20316
100
AcDbEntity
  8
0
100
AcDbBlockBegin
  2
A3WAKUKAWAJUN2017_HYOUDAI_
 70
     0
 10
0.0
 20
0.0
 30
0.0
  3
A3WAKUKAWAJUN2017_HYOUDAI_
  1

  0
LINE
  5
20318
330
20316
100
AcDbEntity
  8
0
100
AcDbLine
 10
13.26299999998673
 20
-0.0001000000000317
 30
0.0
 11
9.236999999990758
 21
8.999899999990987
 31
0.0
1001
ACAD
1000
ASC_BOUNDS
1002
{
1070
    19
1005
20359
1002
}
  0
LINE
  5
20319
330
20316
100
AcDbEntity
  8
0
100
AcDbLine
 10
5.657999999994331
 20
0.9999999999989768
 30
0.0
 11
9.236999999990758
 21
8.999999999991019
 31
0.0
1001
ACAD
1000
ASC_BOUNDS
1002
{
1070
    19
1005
20359
1002
}
  0
LINE
  5
2031A
330
20316
100
AcDbEntity
  8
0
100
AcDbLine
 10
18.59199999998134
 20
-0.2368999999997641
 30
0.0
 11
16.46099999998353
 21
5.432899999994561
 31
0.0
1001
ACAD
1000
ASC_BOUNDS
1002
{
1070
    19
1005
2035A
1002
}
  0
LINE
  5
2031B
330
20316
100
AcDbEntity
  8
0
100
AcDbLine
 10
18.59199999998134
 20
-0.2368999999997641
 30
0.0
 11
22.38199999997767
 21
8.763099999991255
 31
0.0
1001
ACAD
1000
ASC_BOUNDS
1002
{
1070
    19
1005
2035A
1002
}
  0
LINE
  5
2031C
330
20316
100
AcDbEntity
  8
0
100
AcDbLine
 10
14.32899999998563
 20
-0.2368999999997641
 30
0.0
 11
16.46099999998353
 21
5.432899999994561
 31
0.0
1001
ACAD
1000
ASC_BOUNDS
1002
{
1070
    19
1005
2035A
1002
}
  0
LINE
  5
2031D
330
20316
100
AcDbEntity
  8
0
100
AcDbLine
 10
14.32899999998563
 20
-0.2368999999997641
 30
0.0
 11
10.53899999998941
 21
8.763099999991255
 31
0.0
1001
ACAD
1000
ASC_BOUNDS
1002
{
1070
    19
1005
2035A
1002
}
  0
LINE
  5
2031E
330
20316
100
AcDbEntity
  8
0
100
AcDbLine
 10
19.53899999998043
 20
-0.0001000000000317
 30
0.0
 11
23.56599999997638
 21
8.999899999990987
 31
0.0
1001
ACAD
1000
ASC_BOUNDS
1002
{
1070
    19
1005
2035B
1002
}
  0
LINE
  5
2031F
330
20316
100
AcDbEntity
  8
0
100
AcDbLine
 10
26.97358892824991
 20
1.383099999991202
 30
0.0
 11
23.56599999997638
 21
8.999899999990987
 31
0.0
1001
ACAD
1000
ASC_BOUNDS
1002
{
1070
    19
1005
2035B
1002
}
  0
LINE
  5
20320
330
20316
100
AcDbEntity
  8
0
100
AcDbLine
 10
5.657999999994331
 20
0.9999999999989768
 30
0.0
 11
3.181999999996833
 21
4.668599999995308
 31
0.0
1001
ACAD
1000
ASC_BOUNDS
1002
{
1070
    19
1005
20359
1002
}
  0
LINE
  5
20321
330
20316
100
AcDbEntity
  8
0
100
AcDbLine
 10
4.617999999995391
 20
-0.0001000000000317
 30
0.0
 11
1.420999999998571
 21
4.736799999995242
 31
0.0
1001
ACAD
1000
ASC_BOUNDS
1002
{
1070
    19
1005
20359
1002
}
  0
LINE
  5
20322
330
20316
100
AcDbEntity
  8
0
100
AcDbLine
 10
1.420999999998571
 20
8.763099999991255
 30
0.0
 11
1.420999999998571
 21
0.0
 31
0.0
1001
ACAD
1000
ASC_BOUNDS
1002
{
1070
    19
1005
2035E
1002
}
  0
LINE
  5
20323
330
20316
100
AcDbEntity
  8
0
100
AcDbLine
 10
0.0
 20
8.763099999991255
 30
0.0
 11
0.0
 21
0.0
 31
0.0
1001
ACAD
1000
ASC_BOUNDS
1002
{
1070
    19
1005
2035E
1002
}
  0
LINE
  5
20324
330
20316
100
AcDbEntity
  8
0
100
AcDbLine
 10
6.766999999993232
 20
-0.0001000000000317
 30
0.0
 11
7.826999999992154
 21
2.368399999997621
 31
0.0
1001
ACAD
1000
ASC_BOUNDS
1002
{
1070
    19
1005
20359
1002
}
  0
LINE
  5
20325
330
20316
100
AcDbEntity
  8
0
100
AcDbLine
 10
0.0
 20
0.0
 30
0.0
 11
1.420999999998571
 21
0.0
 31
0.0
1001
ACAD
1000
ASC_BOUNDS
1002
{
1070
    19
1005
2035E
1002
}
  0
LINE
  5
20326
330
20316
100
AcDbEntity
  8
0
100
AcDbLine
 10
4.617999999995391
 20
0.0
 30
0.0
 11
6.766999999993232
 21
0.0
 31
0.0
1001
ACAD
1000
ASC_BOUNDS
1002
{
1070
    19
1005
20359
1002
}
  0
LINE
  5
20327
330
20316
100
AcDbEntity
  8
0
100
AcDbLine
 10
11.70599999998831
 20
-0.0001000000000317
 30
0.0
 11
10.64699999998936
 21
2.368399999997621
 31
0.0
1001
ACAD
1000
ASC_BOUNDS
1002
{
1070
    19
1005
20359
1002
}
  0
LINE
  5
20328
330
20316
100
AcDbEntity
  8
0
100
AcDbLine
 10
7.826999999992154
 20
2.368399999997621
 30
0.0
 11
10.64699999998936
 21
2.368399999997621
 31
0.0
1001
ACAD
1000
ASC_BOUNDS
1002
{
1070
    19
1005
20359
1002
}
  0
LINE
  5
20329
330
20316
100
AcDbEntity
  8
0
100
AcDbLine
 10
11.70599999998831
 20
0.0
 30
0.0
 11
13.26299999998673
 21
0.0
 31
0.0
1001
ACAD
1000
ASC_BOUNDS
1002
{
1070
    19
1005
20359
1002
}
  0
LINE
  5
2032A
330
20316
100
AcDbEntity
  8
0
100
AcDbLine
 10
22.15599999997789
 20
2.368399999997621
 30
0.0
 11
24.97599999997499
 21
2.368399999997621
 31
0.0
1001
ACAD
1000
ASC_BOUNDS
1002
{
1070
    19
1005
2035B
1002
}
  0
LINE
  5
2032B
330
20316
100
AcDbEntity
  8
0
100
AcDbLine
 10
19.53899999998043
 20
0.0
 30
0.0
 11
21.09599999997886
 21
0.0
 31
0.0
1001
ACAD
1000
ASC_BOUNDS
1002
{
1070
    19
1005
2035B
1002
}
  0
LINE
  5
2032C
330
20316
100
AcDbEntity
  8
0
100
AcDbLine
 10
21.09599999997886
 20
-0.0001000000000317
 30
0.0
 11
22.15599999997789
 21
2.368399999997621
 31
0.0
1001
ACAD
1000
ASC_BOUNDS
1002
{
1070
    19
1005
2035B
1002
}
  0
LINE
  5
2032D
330
20316
100
AcDbEntity
  8
0
100
AcDbLine
 10
26.02015566812236
 20
0.0330999999912365
 30
0.0
 11
24.97599999997499
 21
2.368399999997621
 31
0.0
1001
ACAD
1000
ASC_BOUNDS
1002
{
1070
    19
1005
2035B
1002
}
  0
LINE
  5
2032E
330
20316
100
AcDbEntity
  8
0
100
AcDbLine
 10
14.32399999998563
 20
3.315799999996671
 30
0.0
 11
16.46099999998353
 21
8.999899999990987
 31
0.0
1001
ACAD
1000
ASC_BOUNDS
1002
{
1070
    19
1005
2035A
1002
}
  0
LINE
  5
2032F
330
20316
100
AcDbEntity
  8
0
100
AcDbLine
 10
6.432999999993513
 20
8.763099999991255
 30
0.0
 11
3.181999999996833
 21
4.668599999995308
 31
0.0
1001
ACAD
1000
ASC_BOUNDS
1002
{
1070
    19
1005
20359
1002
}
  0
LINE
  5
20330
330
20316
100
AcDbEntity
  8
0
100
AcDbLine
 10
4.617999999995391
 20
8.763099999991255
 30
0.0
 11
1.420999999998571
 21
4.736799999995242
 31
0.0
1001
ACAD
1000
ASC_BOUNDS
1002
{
1070
    19
1005
20359
1002
}
  0
LINE
  5
20331
330
20316
100
AcDbEntity
  8
0
100
AcDbLine
 10
0.0
 20
8.763099999991255
 30
0.0
 11
1.420999999998571
 21
8.763099999991255
 31
0.0
1001
ACAD
1000
ASC_BOUNDS
1002
{
1070
    19
1005
2035E
1002
}
  0
LINE
  5
20332
330
20316
100
AcDbEntity
  8
0
100
AcDbLine
 10
4.617999999995391
 20
8.763099999991255
 30
0.0
 11
6.432999999993513
 21
8.763099999991255
 31
0.0
1001
ACAD
1000
ASC_BOUNDS
1002
{
1070
    19
1005
20359
1002
}
  0
LINE
  5
20333
330
20316
100
AcDbEntity
  8
0
100
AcDbLine
 10
14.32399999998563
 20
3.315799999996671
 30
0.0
 11
12.02999999998792
 21
8.763099999991255
 31
0.0
1001
ACAD
1000
ASC_BOUNDS
1002
{
1070
    19
1005
2035A
1002
}
  0
LINE
  5
20334
330
20316
100
AcDbEntity
  8
0
100
AcDbLine
 10
10.06399999998996
 20
3.670999999996297
 30
0.0
 11
9.236999999990758
 21
5.5200999999945
 31
0.0
1001
ACAD
1000
ASC_BOUNDS
1002
{
1070
    19
1005
20359
1002
}
  0
LINE
  5
20335
330
20316
100
AcDbEntity
  8
0
100
AcDbLine
 10
8.409999999991555
 20
3.670999999996297
 30
0.0
 11
9.236999999990758
 21
5.5200999999945
 31
0.0
1001
ACAD
1000
ASC_BOUNDS
1002
{
1070
    19
1005
20359
1002
}
  0
LINE
  5
20336
330
20316
100
AcDbEntity
  8
0
100
AcDbLine
 10
8.409999999991555
 20
3.670999999996297
 30
0.0
 11
10.06399999998996
 21
3.670999999996297
 31
0.0
1001
ACAD
1000
ASC_BOUNDS
1002
{
1070
    19
1005
20359
1002
}
  0
LINE
  5
20337
330
20316
100
AcDbEntity
  8
0
100
AcDbLine
 10
10.53899999998941
 20
8.763099999991255
 30
0.0
 11
12.02999999998792
 21
8.763099999991255
 31
0.0
1001
ACAD
1000
ASC_BOUNDS
1002
{
1070
    19
1005
2035A
1002
}
  0
LINE
  5
20338
330
20316
100
AcDbEntity
  8
0
100
AcDbLine
 10
22.7389999999773
 20
3.670999999996297
 30
0.0
 11
23.56599999997638
 21
5.5200999999945
 31
0.0
1001
ACAD
1000
ASC_BOUNDS
1002
{
1070
    19
1005
2035B
1002
}
  0
LINE
  5
20339
330
20316
100
AcDbEntity
  8
0
100
AcDbLine
 10
22.7389999999773
 20
3.670999999996297
 30
0.0
 11
24.39299999997559
 21
3.670999999996297
 31
0.0
1001
ACAD
1000
ASC_BOUNDS
1002
{
1070
    19
1005
2035B
1002
}
  0
LINE
  5
2033A
330
20316
100
AcDbEntity
  8
0
100
AcDbLine
 10
18.59799999998143
 20
3.315799999996671
 30
0.0
 11
20.89099999997916
 21
8.763099999991255
 31
0.0
1001
ACAD
1000
ASC_BOUNDS
1002
{
1070
    19
1005
2035A
1002
}
  0
LINE
  5
2033B
330
20316
100
AcDbEntity
  8
0
100
AcDbLine
 10
18.59799999998143
 20
3.315799999996671
 30
0.0
 11
16.46099999998353
 21
8.999899999990987
 31
0.0
1001
ACAD
1000
ASC_BOUNDS
1002
{
1070
    19
1005
2035A
1002
}
  0
LINE
  5
2033C
330
20316
100
AcDbEntity
  8
0
100
AcDbLine
 10
20.89099999997916
 20
8.763099999991255
 30
0.0
 11
22.38199999997767
 21
8.763099999991255
 31
0.0
1001
ACAD
1000
ASC_BOUNDS
1002
{
1070
    19
1005
2035A
1002
}
  0
LINE
  5
2033D
330
20316
100
AcDbEntity
  8
0
100
AcDbLine
 10
24.39299999997559
 20
3.670999999996297
 30
0.0
 11
23.56599999997638
 21
5.5200999999945
 31
0.0
1001
ACAD
1000
ASC_BOUNDS
1002
{
1070
    19
1005
2035B
1002
}
  0
LINE
  5
2033E
330
20316
100
AcDbEntity
  8
0
100
AcDbLine
 10
44.99999999995498
 20
-0.2368999999997641
 30
0.0
 11
40.02599999995994
 21
5.341799999994635
 31
0.0
1001
ACAD
1000
ASC_BOUNDS
1002
{
1070
    19
1005
2035D
1002
}
  0
LINE
  5
2033F
330
20316
100
AcDbEntity
  8
0
100
AcDbLine
 10
40.02599999995994
 20
5.341799999994635
 30
0.0
 11
40.02599999995994
 21
0.0
 31
0.0
1001
ACAD
1000
ASC_BOUNDS
1002
{
1070
    19
1005
2035D
1002
}
  0
LINE
  5
20340
330
20316
100
AcDbEntity
  8
0
100
AcDbLine
 10
38.60499999996136
 20
8.999999999991019
 30
0.0
 11
38.60499999996136
 21
0.0
 31
0.0
1001
ACAD
1000
ASC_BOUNDS
1002
{
1070
    19
1005
2035D
1002
}
  0
LINE
  5
20341
330
20316
100
AcDbEntity
  8
0
100
AcDbLine
 10
44.99999999995498
 20
8.763099999991255
 30
0.0
 11
44.99999999995498
 21
-0.2368999999997641
 31
0.0
1001
ACAD
1000
ASC_BOUNDS
1002
{
1070
    19
1005
2035D
1002
}
  0
LINE
  5
20342
330
20316
100
AcDbEntity
  8
0
100
AcDbLine
 10
38.60499999996136
 20
0.0
 30
0.0
 11
40.02599999995994
 21
0.0
 31
0.0
1001
ACAD
1000
ASC_BOUNDS
1002
{
1070
    19
1005
2035D
1002
}
  0
LINE
  5
20343
330
20316
100
AcDbEntity
  8
0
100
AcDbLine
 10
43.57899999995641
 20
3.421199999996588
 30
0.0
 11
38.60499999996136
 21
8.999899999990987
 31
0.0
1001
ACAD
1000
ASC_BOUNDS
1002
{
1070
    19
1005
2035D
1002
}
  0
LINE
  5
20344
330
20316
100
AcDbEntity
  8
0
100
AcDbLine
 10
43.57899999995641
 20
8.763099999991255
 30
0.0
 11
43.57899999995641
 21
3.421199999996588
 31
0.0
1001
ACAD
1000
ASC_BOUNDS
1002
{
1070
    19
1005
2035D
1002
}
  0
LINE
  5
20345
330
20316
100
AcDbEntity
  8
0
100
AcDbLine
 10
43.57899999995641
 20
8.763099999991255
 30
0.0
 11
44.99999999995498
 21
8.763099999991255
 31
0.0
1001
ACAD
1000
ASC_BOUNDS
1002
{
1070
    19
1005
2035D
1002
}
  0
LINE
  5
20346
330
20316
100
AcDbEntity
  8
0
100
AcDbLine
 10
37.67199999996831
 20
8.763099999991255
 30
0.0
 11
36.23199999996837
 21
8.763099999991255
 31
0.0
  0
LINE
  5
20347
330
20316
100
AcDbEntity
  8
0
100
AcDbLine
 10
31.64199999996833
 20
8.763099999991255
 30
0.0
 11
31.64199999996833
 21
2.481619422925121
 31
0.0
  0
LINE
  5
20348
330
20316
100
AcDbEntity
  8
0
100
AcDbLine
 10
37.67199999996831
 20
8.763099999991255
 30
0.0
 11
37.67199999996831
 21
2.481619422925121
 31
0.0
  0
LINE
  5
20349
330
20316
100
AcDbEntity
  8
0
100
AcDbLine
 10
36.23199999996837
 20
8.763099999991255
 30
0.0
 11
36.23199999996837
 21
2.481619422925064
 31
0.0
  0
LINE
  5
2034A
330
20316
100
AcDbEntity
  8
0
100
AcDbLine
 10
33.08199999996839
 20
8.763099999991255
 30
0.0
 11
33.08199999996839
 21
2.481619422925121
 31
0.0
  0
ARC
  5
2034B
330
20316
100
AcDbEntity
  8
0
100
AcDbCircle
 10
34.65699999996832
 20
3.183099999991214
 30
0.0
 40
3.420000000000007
100
AcDbArc
 50
240.0000000000255
 51
299.9999999999766
  0
ARC
  5
2034C
330
20316
100
AcDbEntity
  8
0
100
AcDbCircle
 10
34.65699999996832
 20
3.183099999991214
 30
0.0
 40
1.97999999999999
100
AcDbArc
 50
240.000000000026
 51
299.9999999999703
  0
LINE
  5
2034D
330
20316
100
AcDbEntity
  8
0
100
AcDbLine
 10
33.08199999996828
 20
8.763099999991255
 30
0.0
 11
31.64199999996833
 21
8.763099999991255
 31
0.0
  0
ARC
  5
2034E
330
20316
100
AcDbEntity
  8
0
100
AcDbCircle
 10
35.06199999996829
 20
2.481619422925064
 30
0.0
 40
1.17
100
AcDbArc
 50
299.9999999999699
 51
0.0
  0
ARC
  5
2034F
330
20316
100
AcDbEntity
  8
0
100
AcDbCircle
 10
34.25199999996835
 20
2.481619422925121
 30
0.0
 40
1.17
100
AcDbArc
 50
180.0
 51
240.0000000000238
  0
ARC
  5
20350
330
20316
100
AcDbEntity
  8
0
100
AcDbCircle
 10
35.06199999996841
 20
2.481619422925121
 30
0.0
 40
2.61
100
AcDbArc
 50
299.9999999999756
 51
0.0
  0
ARC
  5
20351
330
20316
100
AcDbEntity
  8
0
100
AcDbCircle
 10
34.25199999996835
 20
2.481619422925121
 30
0.0
 40
2.61
100
AcDbArc
 50
180.0
 51
240.0000000000244
  0
LINE
  5
20352
330
20316
100
AcDbEntity
  8
0
100
AcDbLine
 10
29.30199999996933
 20
8.763099999991255
 30
0.0
 11
30.74199999996927
 21
8.763099999991255
 31
0.0
1001
ACAD
1000
ASC_BOUNDS
1002
{
1070
    19
1005
2035B
1002
}
  0
LINE
  5
20353
330
20316
100
AcDbEntity
  8
0
100
AcDbLine
 10
30.74199999996927
 20
8.763099999991255
 30
0.0
 11
30.74199999996927
 21
2.373099999991211
 31
0.0
1001
ACAD
1000
ASC_BOUNDS
1002
{
1070
    19
1005
2035B
1002
}
  0
LINE
  5
20354
330
20316
100
AcDbEntity
  8
0
100
AcDbLine
 10
26.02015566812236
 20
0.0330999999912365
 30
0.0
 11
28.40199999996923
 21
0.0330999999912365
 31
0.0
1001
ACAD
1000
ASC_BOUNDS
1002
{
1070
    19
1005
2035B
1002
}
  0
LINE
  5
20355
330
20316
100
AcDbEntity
  8
0
100
AcDbLine
 10
29.30199999996933
 20
8.763099999991255
 30
0.0
 11
29.30199999996933
 21
2.283099999991236
 31
0.0
1001
ACAD
1000
ASC_BOUNDS
1002
{
1070
    19
1005
2035B
1002
}
  0
LINE
  5
20356
330
20316
100
AcDbEntity
  8
0
100
AcDbLine
 10
26.97358892824991
 20
1.383099999991202
 30
0.0
 11
28.40199999996923
 21
1.383099999991202
 31
0.0
1001
ACAD
1000
ASC_BOUNDS
1002
{
1070
    19
1005
2035B
1002
}
  0
ARC
  5
20357
330
20316
100
AcDbEntity
  8
0
100
AcDbCircle
 10
28.40199999996923
 20
2.283099999991236
 30
0.0
 40
0.9
100
AcDbArc
 50
270.0
 51
0.0
1001
ACAD
1000
ASC_BOUNDS
1002
{
1070
    19
1005
2035B
1002
}
  0
ARC
  5
20358
330
20316
100
AcDbEntity
  8
0
100
AcDbCircle
 10
28.40199999996923
 20
2.373099999991211
 30
0.0
 40
2.34
100
AcDbArc
 50
270.0
 51
0.0
1001
ACAD
1000
ASC_BOUNDS
1002
{
1070
    19
1005
2035B
1002
}
  0
INSERT
  5
20359
330
20316
100
AcDbEntity
  8
0
100
AcDbBlockReference
  2
*X49
 10
0.0
 20
0.0
 30
0.0
1001
ACAD
1000
HATCH
1002
{
1070
    19
1000
ANSI37
1040
0.15
1040
0.0
1000
ASC_BOUNDS
1070
     2
1070
     2
1070
    12
1005
20318
1005
20319
1005
20320
1005
2032F
1005
20332
1005
20330
1005
20321
1005
20326
1005
20324
1005
20328
1005
20327
1005
20329
1070
     2
1070
     3
1005
20334
1005
20336
1005
20335
1000
ASC_SEEDPOINT
1011
3.614004224891801
1021
2.996669441146025
1031
0.0
1000
R14_HATCH_DATA
1000
20359
1011
1.0
1021
0.0
1031
0.0
1011
0.0
1021
1.0
1031
0.0
1011
0.0
1021
0.0
1031
1.0
1040
0.0
1010
0.0
1020
0.0
1030
1.0
1000
ANSI37
1070
     0
1070
     1
1071
        2
1071
        7
1070
     0
1070
     1
1071
       17
1040
13.26299999998673
1040
-0.0001000000000317
1040
9.236999999990758
1040
8.999899999990987
1040
9.236999999990758
1040
8.999999999991019
1040
5.657999999994331
1040
0.9999999999989768
1040
3.181999999996833
1040
4.668599999995308
1040
6.432999999993513
1040
8.763099999991255
1040
4.617999999995391
1040
8.763099999991255
1040
1.420999999998571
1040
4.736799999995242
1040
4.617999999995391
1040
-0.0001000000000317
1040
4.617999999995391
1040
0.0
1040
6.766999999993232
1040
0.0
1040
6.766999999993232
1040
-0.0001000000000317
1040
7.826999999992154
1040
2.368399999997621
1040
10.64699999998936
1040
2.368399999997621
1040
11.70599999998831
1040
-0.0001000000000317
1040
11.70599999998831
1040
0.0
1040
13.26299999998673
1040
0.0
1071
       12
1005
20318
1005
20319
1005
20320
1005
2032F
1005
20332
1005
20330
1005
20321
1005
20326
1005
20324
1005
20328
1005
20327
1005
20329
1071
       22
1070
     0
1070
     1
1071
        3
1040
9.236999999990758
1040
5.5200999999945
1040
10.06399999998996
1040
3.670999999996297
1040
8.409999999991555
1040
3.670999999996297
1071
        3
1005
20334
1005
20336
1005
20335
1070
     0
1070
     1
1040
0.0
1040
0.15
1070
     0
1070
     2
1040
0.7853981633974483
1040
49.29960901727088
1040
-10.17736998311392
1040
-0.3367596045400932
1040
0.3367596045400932
1070
     0
1040
2.356194490192345
1040
49.29960901727088
1040
-10.17736998311392
1040
-0.3367596045400932
1040
-0.3367596045400932
1070
     0
1040
0.0110235143455945
1071
        2
1040
3.614004224891801
1040
2.996669441146025
1040
0.0
1040
3.614004224891801
1040
2.996669441146025
1040
0.0
1002
}
  0
INSERT
  5
2035A
330
20316
100
AcDbEntity
  8
0
100
AcDbBlockReference
  2
*X50
 10
0.0
 20
0.0
 30
0.0
1001
ACAD
1000
HATCH
1002
{
1070
    19
1000
ANSI37
1040
0.15
1040
0.0
1000
ASC_BOUNDS
1070
     1
1070
     2
1070
    10
1005
2031A
1005
2031B
1005
2033C
1005
2033A
1005
2033B
1005
2032E
1005
20333
1005
20337
1005
2031D
1005
2031C
1000
ASC_SEEDPOINT
1011
14.73245321214324
1021
2.798246178283421
1031
0.0
1000
R14_HATCH_DATA
1000
2035A
1011
1.0
1021
0.0
1031
0.0
1011
0.0
1021
1.0
1031
0.0
1011
0.0
1021
0.0
1031
1.0
1040
0.0
1010
0.0
1020
0.0
1030
1.0
1000
ANSI37
1070
     0
1070
     1
1071
        1
1071
        7
1070
     0
1070
     1
1071
       10
1040
16.46099999998353
1040
5.432899999994561
1040
18.59199999998134
1040
-0.2368999999997641
1040
22.38199999997767
1040
8.763099999991255
1040
20.89099999997916
1040
8.763099999991255
1040
18.59799999998143
1040
3.315799999996671
1040
16.46099999998353
1040
8.999899999990987
1040
14.32399999998563
1040
3.315799999996671
1040
12.02999999998792
1040
8.763099999991255
1040
10.53899999998941
1040
8.763099999991255
1040
14.32899999998563
1040
-0.2368999999997641
1071
       10
1005
2031A
1005
2031B
1005
2033C
1005
2033A
1005
2033B
1005
2032E
1005
20333
1005
20337
1005
2031D
1005
2031C
1070
     0
1070
     1
1040
0.0
1040
0.15
1070
     0
1070
     2
1040
0.7853981633974483
1040
49.29960901727088
1040
-10.17736998311392
1040
-0.3367596045400932
1040
0.3367596045400932
1070
     0
1040
2.356194490192345
1040
49.29960901727088
1040
-10.17736998311392
1040
-0.3367596045400932
1040
-0.3367596045400932
1070
     0
1040
0.0110235143455945
1071
        1
1040
14.73245321214324
1040
2.798246178283421
1040
0.0
1002
}
  0
INSERT
  5
2035B
330
20316
100
AcDbEntity
  8
0
100
AcDbBlockReference
  2
*X51
 10
0.0
 20
0.0
 30
0.0
1001
ACAD
1000
HATCH
1002
{
1070
    19
1000
ANSI37
1040
0.15
1040
0.0
1000
ASC_BOUNDS
1070
     2
1070
     2
1070
    13
1005
2031E
1005
2032B
1005
2032C
1005
2032A
1005
2032D
1005
20354
1005
20358
1005
20353
1005
20352
1005
20355
1005
20357
1005
20356
1005
2031F
1070
     2
1070
     3
1005
20338
1005
2033D
1005
20339
1000
ASC_SEEDPOINT
1011
21.97929957367762
1021
3.294304244259308
1031
0.0
1000
R14_HATCH_DATA
1000
2035B
1011
1.0
1021
0.0
1031
0.0
1011
0.0
1021
1.0
1031
0.0
1011
0.0
1021
0.0
1031
1.0
1040
0.0
1010
0.0
1020
0.0
1030
1.0
1000
ANSI37
1070
     0
1070
     1
1071
        2
1071
        7
1070
     1
1070
     1
1071
       15
1040
23.56599999997638
1040
8.999899999990987
1040
0.0
1040
19.53899999998043
1040
-0.0001000000000317
1040
0.0
1040
19.53899999998043
1040
0.0
1040
0.0
1040
21.09599999997886
1040
0.0
1040
0.0
1040
21.09599999997886
1040
-0.0001000000000317
1040
0.0
1040
22.15599999997789
1040
2.368399999997621
1040
0.0
1040
24.97599999997499
1040
2.368399999997621
1040
0.0
1040
26.02015566812236
1040
0.0330999999912365
1040
0.0
1040
28.40199999996923
1040
0.0330999999912365
1040
0.414213562373095
1040
30.74199999996923
1040
2.373099999991211
1040
0.0
1040
30.74199999996927
1040
8.763099999991255
1040
0.0
1040
29.30199999996933
1040
8.763099999991255
1040
0.0
1040
29.30199999996933
1040
2.283099999991236
1040
-0.414213562373095
1040
28.40199999996923
1040
1.383099999991237
1040
0.0
1040
26.97358892824991
1040
1.383099999991202
1040
0.0
1071
       13
1005
2031E
1005
2032B
1005
2032C
1005
2032A
1005
2032D
1005
20354
1005
20358
1005
20353
1005
20352
1005
20355
1005
20357
1005
20356
1005
2031F
1071
       22
1070
     0
1070
     1
1071
        3
1040
22.7389999999773
1040
3.670999999996297
1040
23.56599999997638
1040
5.5200999999945
1040
24.39299999997559
1040
3.670999999996297
1071
        3
1005
20338
1005
2033D
1005
20339
1070
     0
1070
     1
1040
0.0
1040
0.15
1070
     0
1070
     2
1040
0.7853981633974483
1040
49.29960901727088
1040
-10.17736998311392
1040
-0.3367596045400932
1040
0.3367596045400932
1070
     0
1040
2.356194490192345
1040
49.29960901727088
1040
-10.17736998311392
1040
-0.3367596045400932
1040
-0.3367596045400932
1070
     0
1040
0.0110235143455945
1071
        2
1040
21.97929957367762
1040
3.294304244259308
1040
0.0
1040
21.97929957367762
1040
3.294304244259308
1040
0.0
1002
}
  0
INSERT
  5
2035C
330
20316
100
AcDbEntity
  8
0
100
AcDbBlockReference
  2
*X52
 10
0.0
 20
0.0
 30
0.0
1001
ACAD
1000
HATCH
1002
{
1070
    19
1000
ANSI37
1040
0.15
1040
0.0
1000
R14_HATCH_DATA
1000
2035C
1011
1.0
1021
0.0
1031
0.0
1011
0.0
1021
1.0
1031
0.0
1011
0.0
1021
0.0
1031
1.0
1040
0.0
1010
0.0
1020
0.0
1030
1.0
1000
ANSI37
1070
     0
1070
     1
1071
        1
1071
        7
1070
     1
1070
     1
1071
       12
1040
31.64199999996833
1040
2.481619422925121
1040
0.2679491924310942
1040
32.94699999997067
1040
0.2212931190493919
1040
0.2679491924301353
1040
36.36699999995983
1040
0.2212931190459813
1040
0.2679491924321411
1040
37.67199999996831
1040
2.481619422928361
1040
0.0
1040
37.67199999996831
1040
8.763099999991255
1040
0.0
1040
36.23199999996837
1040
8.763099999991255
1040
0.0
1040
36.23199999996837
1040
2.481619422925064
1040
-0.2679491924310291
1040
35.64699999996708
1040
1.468369700498386
1040
-0.267949192430519
1040
33.66699999997093
1040
1.468369700497703
1040
-0.267949192431809
1040
33.08199999996839
1040
2.481619422926997
1040
0.0
1040
33.08199999996839
1040
8.763099999991255
1040
0.0
1040
31.64199999996833
1040
8.763099999991255
1040
0.0
1071
        0
1070
     0
1070
     1
1040
0.0
1040
0.15
1070
     0
1070
     2
1040
0.7853981633974483
1040
49.29960901727088
1040
-10.17736998311392
1040
-0.3367596045400932
1040
0.3367596045400932
1070
     0
1040
2.356194490192345
1040
49.29960901727088
1040
-10.17736998311392
1040
-0.3367596045400932
1040
-0.3367596045400932
1070
     0
1040
0.0110235143455945
1071
        1
1040
32.30357378967278
1040
3.988785755459219
1040
0.0
1002
}
  0
INSERT
  5
2035D
330
20316
100
AcDbEntity
  8
0
100
AcDbBlockReference
  2
*X53
 10
0.0
 20
0.0
 30
0.0
1001
ACAD
1000
HATCH
1002
{
1070
    19
1000
ANSI37
1040
0.15
1040
0.0
1000
ASC_BOUNDS
1070
     1
1070
     2
1070
     8
1005
2033E
1005
20341
1005
20345
1005
20344
1005
20343
1005
20340
1005
20342
1005
2033F
1000
ASC_SEEDPOINT
1011
39.74896370716704
1021
4.484843821435049
1031
0.0
1000
R14_HATCH_DATA
1000
2035D
1011
1.0
1021
0.0
1031
0.0
1011
0.0
1021
1.0
1031
0.0
1011
0.0
1021
0.0
1031
1.0
1040
0.0
1010
0.0
1020
0.0
1030
1.0
1000
ANSI37
1070
     0
1070
     1
1071
        1
1071
        7
1070
     0
1070
     1
1071
        9
1040
40.02599999995994
1040
5.341799999994635
1040
44.99999999995498
1040
-0.2368999999997641
1040
44.99999999995498
1040
8.763099999991255
1040
43.57899999995641
1040
8.763099999991255
1040
43.57899999995641
1040
3.421199999996588
1040
38.60499999996136
1040
8.999899999990987
1040
38.60499999996136
1040
8.999999999991019
1040
38.60499999996136
1040
0.0
1040
40.02599999995994
1040
0.0
1071
        8
1005
2033E
1005
20341
1005
20345
1005
20344
1005
20343
1005
20340
1005
20342
1005
2033F
1070
     0
1070
     1
1040
0.0
1040
0.15
1070
     0
1070
     2
1040
0.7853981633974483
1040
49.29960901727088
1040
-10.17736998311392
1040
-0.3367596045400932
1040
0.3367596045400932
1070
     0
1040
2.356194490192345
1040
49.29960901727088
1040
-10.17736998311392
1040
-0.3367596045400932
1040
-0.3367596045400932
1070
     0
1040
0.0110235143455945
1071
        1
1040
39.74896370716704
1040
4.484843821435049
1040
0.0
1002
}
  0
INSERT
  5
2035E
330
20316
100
AcDbEntity
  8
0
100
AcDbBlockReference
  2
*X54
 10
0.0
 20
0.0
 30
0.0
1001
ACAD
1000
HATCH
1002
{
1070
    19
1000
ANSI37
1040
0.15
1040
0.0
1000
ASC_BOUNDS
1070
     1
1070
     2
1070
     4
1005
20322
1005
20331
1005
20323
1005
20325
1000
ASC_SEEDPOINT
1011
1.079051535452663
1021
4.148538732891836
1031
0.0
1000
R14_HATCH_DATA
1000
2035E
1011
1.0
1021
0.0
1031
0.0
1011
0.0
1021
1.0
1031
0.0
1011
0.0
1021
0.0
1031
1.0
1040
0.0
1010
0.0
1020
0.0
1030
1.0
1000
ANSI37
1070
     0
1070
     1
1071
        1
1071
        7
1070
     0
1070
     1
1071
        4
1040
1.420999999998571
1040
0.0
1040
1.420999999998571
1040
8.763099999991255
1040
0.0
1040
8.763099999991255
1040
0.0
1040
0.0
1071
        4
1005
20322
1005
20331
1005
20323
1005
20325
1070
     0
1070
     1
1040
0.0
1040
0.15
1070
     0
1070
     2
1040
0.7853981633974483
1040
49.29960901727088
1040
-10.17736998311392
1040
-0.3367596045400932
1040
0.3367596045400932
1070
     0
1040
2.356194490192345
1040
49.29960901727088
1040
-10.17736998311392
1040
-0.3367596045400932
1040
-0.3367596045400932
1070
     0
1040
0.0053004257112761
1071
        1
1040
1.079051535452663
1040
4.148538732891836
1040
0.0
1002
}
  0
ENDBLK
  5
20A16
330
20316
100
AcDbEntity
  8
0
100
AcDbBlockEnd
  0
BLOCK
  5
20D6A
330
20B2D
100
AcDbEntity
  8
0
100
AcDbBlockBegin
  2
NOCIRCLE
 70
     2
 10
0.0
 20
0.0
 30
0.0
  3
NOCIRCLE
  1

  0
CIRCLE
  5
20B31
330
20B2D
100
AcDbEntity
  8
0
  6
BYBLOCK
 62
     0
100
AcDbCircle
 10
0.0
 20
0.0
 30
0.0
 40
4.2
  0
ATTDEF
  5
20B32
330
20B2D
100
AcDbEntity
  8
1TEXT
100
AcDbText
 10
-1.904761904761876
 20
-2.0
 30
0.0
 40
4.0
  1
0
 72
     4
 11
0.0
 21
0.0
 31
0.0
100
AcDbAttributeDefinition
  3
NO.
  2
NO
 70
     0
  0
ENDBLK
  5
20D6B
330
20B2D
100
AcDbEntity
  8
0
100
AcDbBlockEnd
  0
BLOCK
  5
22237
330
220A9
100
AcDbEntity
  8
0
100
AcDbBlockBegin
  2
*X49
 70
     1
 10
0.0
 20
0.0
 30
0.0
  3
*X49
  1

  0
LINE
  5
220AA
330
220A9
100
AcDbEntity
  8
0
  6
CONTINUOUS
100
AcDbLine
 10
3.418023043697893
 20
7.251849696850613
 30
0.0
 11
4.929273346838536
 21
8.763099999991255
 31
0.0
  0
LINE
  5
220AB
330
220A9
100
AcDbEntity
  8
0
  6
CONTINUOUS
100
AcDbLine
 10
1.483656411257782
 20
4.643963855330318
 30
0.0
 11
5.60279255591872
 21
8.763099999991255
 31
0.0
  0
LINE
  5
220AC
330
220A9
100
AcDbEntity
  8
0
  6
CONTINUOUS
100
AcDbLine
 10
1.755053947328235
 20
4.241842182320584
 30
0.0
 11
6.276311764998907
 21
8.763099999991255
 31
0.0
  0
LINE
  5
220AD
330
220A9
100
AcDbEntity
  8
0
  6
CONTINUOUS
100
AcDbLine
 10
2.026451483398688
 20
3.839720509310849
 30
0.0
 11
4.441040904851878
 21
6.254309930764039
 31
0.0
  0
LINE
  5
220AE
330
220A9
100
AcDbEntity
  8
0
  6
CONTINUOUS
100
AcDbLine
 10
2.297849019469139
 20
3.437598836301114
 30
0.0
 11
3.321765168359338
 21
4.461514985191313
 31
0.0
  0
LINE
  5
220AF
330
220A9
100
AcDbEntity
  8
0
  6
CONTINUOUS
100
AcDbLine
 10
2.569246555539591
 20
3.03547716329138
 30
0.0
 11
3.593163397972743
 21
4.059394005724531
 31
0.0
  0
LINE
  5
220B0
330
220A9
100
AcDbEntity
  8
0
  6
CONTINUOUS
100
AcDbLine
 10
2.840644091610043
 20
2.633355490281646
 30
0.0
 11
3.864561627586149
 21
3.657273026257751
 31
0.0
  0
LINE
  5
220B1
330
220A9
100
AcDbEntity
  8
0
  6
CONTINUOUS
100
AcDbLine
 10
3.112041627680496
 20
2.231233817271911
 30
0.0
 11
4.135959857199554
 21
3.25515204679097
 31
0.0
  0
LINE
  5
220B2
330
220A9
100
AcDbEntity
  8
0
  6
CONTINUOUS
100
AcDbLine
 10
3.383439163750948
 20
1.829112144262177
 30
0.0
 11
4.40735808681296
 21
2.853031067324189
 31
0.0
  0
LINE
  5
220B3
330
220A9
100
AcDbEntity
  8
0
  6
CONTINUOUS
100
AcDbLine
 10
3.654836699821399
 20
1.426990471252442
 30
0.0
 11
4.678756316426365
 21
2.450910087857407
 31
0.0
  0
LINE
  5
220B4
330
220A9
100
AcDbEntity
  8
0
  6
CONTINUOUS
100
AcDbLine
 10
3.926234235891853
 20
1.024868798242709
 30
0.0
 11
4.95015454603977
 21
2.048789108390626
 31
0.0
  0
LINE
  5
220B5
330
220A9
100
AcDbEntity
  8
0
  6
CONTINUOUS
100
AcDbLine
 10
4.197631771962304
 20
0.6227471252329737
 30
0.0
 11
5.221552775653176
 21
1.646668128923846
 31
0.0
  0
LINE
  5
220B6
330
220A9
100
AcDbEntity
  8
0
  6
CONTINUOUS
100
AcDbLine
 10
8.715877546767851
 20
7.835069736359266
 30
0.0
 11
9.435953450375058
 21
8.555145639966472
 31
0.0
  0
LINE
  5
220B7
330
220A9
100
AcDbEntity
  8
0
  6
CONTINUOUS
100
AcDbLine
 10
8.170620868422267
 20
6.616293848933497
 30
0.0
 11
9.644120833743461
 21
8.08979381425469
 31
0.0
  0
LINE
  5
220B8
330
220A9
100
AcDbEntity
  8
0
  6
CONTINUOUS
100
AcDbLine
 10
7.625364190076684
 20
5.397517961507727
 30
0.0
 11
9.852288217111864
 21
7.624441988542907
 31
0.0
  0
LINE
  5
220B9
330
220A9
100
AcDbEntity
  8
0
  6
CONTINUOUS
100
AcDbLine
 10
7.080107511731101
 20
4.178742074081957
 30
0.0
 11
10.06045560048027
 21
7.159090162831124
 31
0.0
  0
LINE
  5
220BA
330
220A9
100
AcDbEntity
  8
0
  6
CONTINUOUS
100
AcDbLine
 10
6.534850833385518
 20
2.959966186656187
 30
0.0
 11
10.26862298384867
 21
6.693738337119342
 31
0.0
  0
LINE
  5
220BB
330
220A9
100
AcDbEntity
  8
0
  6
CONTINUOUS
100
AcDbLine
 10
4.469029308032756
 20
0.2206254522232385
 30
0.0
 11
5.492951005266582
 21
1.244547149457064
 31
0.0
  0
LINE
  5
220BC
330
220A9
100
AcDbEntity
  8
0
  6
CONTINUOUS
100
AcDbLine
 10
5.989594155039935
 20
1.741190299230417
 30
0.0
 11
8.806950407233131
 21
4.558546551423613
 31
0.0
  0
LINE
  5
220BD
330
220A9
100
AcDbEntity
  8
0
  6
CONTINUOUS
100
AcDbLine
 10
9.401251593263643
 20
5.152847737454126
 30
0.0
 11
10.47679036721708
 21
6.228386511407559
 31
0.0
  0
LINE
  5
220BE
330
220A9
100
AcDbEntity
  8
0
  6
CONTINUOUS
100
AcDbLine
 10
4.921837203428691
 20
-0.0000858614610131
 30
0.0
 11
8.592923064886001
 21
3.670999999996297
 31
0.0
  0
LINE
  5
220BF
330
220A9
100
AcDbEntity
  8
0
  6
CONTINUOUS
100
AcDbLine
 10
9.609390446785305
 20
4.6874673818956
 30
0.0
 11
10.68495775058548
 21
5.763034685695775
 31
0.0
  0
LINE
  5
220C0
330
220A9
100
AcDbEntity
  8
0
  6
CONTINUOUS
100
AcDbLine
 10
5.595387755019432
 20
-0.0000545189504582
 30
0.0
 11
7.716137258923768
 21
2.120694984953879
 31
0.0
  0
LINE
  5
220C1
330
220A9
100
AcDbEntity
  8
0
  6
CONTINUOUS
100
AcDbLine
 10
6.268938306610172
 20
-0.000023176439905
 30
0.0
 11
7.170485805526503
 21
0.9015243224764267
 31
0.0
  0
LINE
  5
220C2
330
220A9
100
AcDbEntity
  8
0
  6
CONTINUOUS
100
AcDbLine
 10
7.963842273967511
 20
2.368399999997621
 30
0.0
 11
9.266442273966188
 21
3.670999999996297
 31
0.0
  0
LINE
  5
220C3
330
220A9
100
AcDbEntity
  8
0
  6
CONTINUOUS
100
AcDbLine
 10
8.637361483047696
 20
2.368399999997621
 30
0.0
 11
9.939961483046375
 21
3.670999999996297
 31
0.0
  0
LINE
  5
220C4
330
220A9
100
AcDbEntity
  8
0
  6
CONTINUOUS
100
AcDbLine
 10
9.817529300306965
 20
4.222087026337075
 30
0.0
 11
10.89312513395388
 21
5.297682859983993
 31
0.0
  0
LINE
  5
220C5
330
220A9
100
AcDbEntity
  8
0
  6
CONTINUOUS
100
AcDbLine
 10
10.02566815382863
 20
3.756706670778549
 30
0.0
 11
11.10129251732229
 21
4.832331034272211
 31
0.0
  0
LINE
  5
220C6
330
220A9
100
AcDbEntity
  8
0
  6
CONTINUOUS
100
AcDbLine
 10
9.310880692127883
 20
2.368399999997621
 30
0.0
 11
11.30945990069069
 21
4.366979208560428
 31
0.0
  0
LINE
  5
220C7
330
220A9
100
AcDbEntity
  8
0
  6
CONTINUOUS
100
AcDbLine
 10
9.98439990120807
 20
2.36839999999762
 30
0.0
 11
11.5176272840591
 21
3.901627382848645
 31
0.0
  0
LINE
  5
220C8
330
220A9
100
AcDbEntity
  8
0
  6
CONTINUOUS
100
AcDbLine
 10
10.65037369446246
 20
2.36085458417182
 30
0.0
 11
11.7257946674275
 21
3.436275557136862
 31
0.0
  0
LINE
  5
220C9
330
220A9
100
AcDbEntity
  8
0
  6
CONTINUOUS
100
AcDbLine
 10
10.85847197087848
 20
1.895433651507656
 30
0.0
 11
11.9339620507959
 21
2.97092373142508
 31
0.0
  0
LINE
  5
220CA
330
220A9
100
AcDbEntity
  8
0
  6
CONTINUOUS
100
AcDbLine
 10
11.0665702472945
 20
1.430012718843491
 30
0.0
 11
12.14212943416431
 21
2.505571905713296
 31
0.0
  0
LINE
  5
220CB
330
220A9
100
AcDbEntity
  8
0
  6
CONTINUOUS
100
AcDbLine
 10
11.27466852371052
 20
0.9645917861793256
 30
0.0
 11
12.35029681753271
 21
2.040220080001513
 31
0.0
  0
LINE
  5
220CC
330
220A9
100
AcDbEntity
  8
0
  6
CONTINUOUS
100
AcDbLine
 10
11.48276680012654
 20
0.4991708535151611
 30
0.0
 11
12.55846420090111
 21
1.57486825428973
 31
0.0
  0
LINE
  5
220CD
330
220A9
100
AcDbEntity
  8
0
  6
CONTINUOUS
100
AcDbLine
 10
11.69086507654257
 20
0.0337499208509957
 30
0.0
 11
12.76663158426952
 21
1.109516428577947
 31
0.0
  0
LINE
  5
220CE
330
220A9
100
AcDbEntity
  8
0
  6
CONTINUOUS
100
AcDbLine
 10
12.33057447873954
 20
-0.0000598860322123
 30
0.0
 11
12.97479896763792
 21
0.6441646028661663
 31
0.0
  0
LINE
  5
220CF
330
220A9
100
AcDbEntity
  8
0
  6
CONTINUOUS
100
AcDbLine
 10
13.00413694809395
 20
-0.0000166257579952
 30
0.0
 11
13.18296635100632
 21
0.1788127771543824
 31
0.0
  0
LINE
  5
220D0
330
220A9
100
AcDbEntity
  8
0
  6
CONTINUOUS
100
AcDbLine
 10
4.772852165289667
 20
-0.000092794222212
 30
0.0
 11
4.296495091028902
 21
0.4762642800385528
 31
0.0
  0
LINE
  5
220D1
330
220A9
100
AcDbEntity
  8
0
  6
CONTINUOUS
100
AcDbLine
 10
5.446340034776103
 20
-0.0000614546284616
 30
0.0
 11
2.898195908335625
 21
2.548082671812017
 31
0.0
  0
LINE
  5
220D2
330
220A9
100
AcDbEntity
  8
0
  6
CONTINUOUS
100
AcDbLine
 10
6.119827904262539
 20
-0.0000301150347113
 30
0.0
 11
1.499896725642348
 21
4.61990106358548
 31
0.0
  0
LINE
  5
220D3
330
220A9
100
AcDbEntity
  8
0
  6
CONTINUOUS
100
AcDbLine
 10
6.775136745476159
 20
0.0181802528318542
 30
0.0
 11
5.699826040202669
 21
1.093490958105344
 31
0.0
  0
LINE
  5
220D4
330
220A9
100
AcDbEntity
  8
0
  6
CONTINUOUS
100
AcDbLine
 10
6.983376846288489
 20
0.4834593610997118
 30
0.0
 11
5.908008617934405
 21
1.558827589453796
 31
0.0
  0
LINE
  5
220D5
330
220A9
100
AcDbEntity
  8
0
  6
CONTINUOUS
100
AcDbLine
 10
5.377063484962296
 20
1.416253513345719
 30
0.0
 11
1.702276957014131
 21
5.091040041293883
 31
0.0
  0
LINE
  5
220D6
330
220A9
100
AcDbEntity
  8
0
  6
CONTINUOUS
100
AcDbLine
 10
3.978745891735324
 20
3.488090315652877
 30
0.0
 11
2.000373521109399
 21
5.466462686278803
 31
0.0
  0
LINE
  5
220D7
330
220A9
100
AcDbEntity
  8
0
  6
CONTINUOUS
100
AcDbLine
 10
7.191616947100819
 20
0.948738469367568
 30
0.0
 11
6.11619119566614
 21
2.024164220802247
 31
0.0
  0
LINE
  5
220D8
330
220A9
100
AcDbEntity
  8
0
  6
CONTINUOUS
100
AcDbLine
 10
7.399857047913149
 20
1.414017577635424
 30
0.0
 11
6.324373773397875
 21
2.489500852150698
 31
0.0
  0
LINE
  5
220D9
330
220A9
100
AcDbEntity
  8
0
  6
CONTINUOUS
100
AcDbLine
 10
7.608097148725479
 20
1.879296685903281
 30
0.0
 11
6.53255635112961
 21
2.95483748349915
 31
0.0
  0
LINE
  5
220DA
330
220A9
100
AcDbEntity
  8
0
  6
CONTINUOUS
100
AcDbLine
 10
7.816337249537808
 20
2.344575794171138
 30
0.0
 11
6.740738928861345
 21
3.420174114847601
 31
0.0
  0
LINE
  5
220DB
330
220A9
100
AcDbEntity
  8
0
  6
CONTINUOUS
100
AcDbLine
 10
3.310241080789734
 20
4.830114335678653
 30
0.0
 11
2.298470085204666
 21
5.84188533126372
 31
0.0
  0
LINE
  5
220DC
330
220A9
100
AcDbEntity
  8
0
  6
CONTINUOUS
100
AcDbLine
 10
3.60832983563551
 20
5.205544789913063
 30
0.0
 11
2.596566649299935
 21
6.217307976248638
 31
0.0
  0
LINE
  5
220DD
330
220A9
100
AcDbEntity
  8
0
  6
CONTINUOUS
100
AcDbLine
 10
3.906418590481286
 20
5.580975244147473
 30
0.0
 11
2.894663213395203
 21
6.592730621233557
 31
0.0
  0
LINE
  5
220DE
330
220A9
100
AcDbEntity
  8
0
  6
CONTINUOUS
100
AcDbLine
 10
4.204507345327062
 20
5.956405698381884
 30
0.0
 11
3.192759777490472
 21
6.968153266218474
 31
0.0
  0
LINE
  5
220DF
330
220A9
100
AcDbEntity
  8
0
  6
CONTINUOUS
100
AcDbLine
 10
8.466032252791512
 20
2.368399999997621
 30
0.0
 11
6.948921506593081
 21
3.885510746196053
 31
0.0
  0
LINE
  5
220E0
330
220A9
100
AcDbEntity
  8
0
  6
CONTINUOUS
100
AcDbLine
 10
9.139551461871699
 20
2.36839999999762
 30
0.0
 11
7.157104084324816
 21
4.350847377544504
 31
0.0
  0
LINE
  5
220E1
330
220A9
100
AcDbEntity
  8
0
  6
CONTINUOUS
100
AcDbLine
 10
4.502596100172839
 20
6.331836152616295
 30
0.0
 11
3.49085634158574
 21
7.343575911203393
 31
0.0
  0
LINE
  5
220E2
330
220A9
100
AcDbEntity
  8
0
  6
CONTINUOUS
100
AcDbLine
 10
4.800684855018615
 20
6.707266606850705
 30
0.0
 11
3.788952905681008
 21
7.718998556188312
 31
0.0
  0
LINE
  5
220E3
330
220A9
100
AcDbEntity
  8
0
  6
CONTINUOUS
100
AcDbLine
 10
12.18154012887317
 20
-0.0000694579236642
 30
0.0
 11
11.32140332908496
 21
0.8600673418645499
 31
0.0
  0
LINE
  5
220E4
330
220A9
100
AcDbEntity
  8
0
  6
CONTINUOUS
100
AcDbLine
 10
12.85501608323566
 20
-0.0000262032059659
 30
0.0
 11
10.77672456435345
 21
2.078265315676246
 31
0.0
  0
LINE
  5
220E5
330
220A9
100
AcDbEntity
  8
0
  6
CONTINUOUS
100
AcDbLine
 10
9.813070670951886
 20
2.36839999999762
 30
0.0
 11
8.51047067095321
 21
3.670999999996297
 31
0.0
  0
LINE
  5
220E6
330
220A9
100
AcDbEntity
  8
0
  6
CONTINUOUS
100
AcDbLine
 10
10.48658988003207
 20
2.36839999999762
 30
0.0
 11
9.183989880033396
 21
3.670999999996297
 31
0.0
  0
LINE
  5
220E7
330
220A9
100
AcDbEntity
  8
0
  6
CONTINUOUS
100
AcDbLine
 10
8.441048632286794
 20
3.740422038662712
 30
0.0
 11
7.365286662056551
 21
4.816184008892956
 31
0.0
  0
LINE
  5
220E8
330
220A9
100
AcDbEntity
  8
0
  6
CONTINUOUS
100
AcDbLine
 10
8.649187485808454
 20
4.205802394221237
 30
0.0
 11
7.573469239788285
 21
5.281520640241407
 31
0.0
  0
LINE
  5
220E9
330
220A9
100
AcDbEntity
  8
0
  6
CONTINUOUS
100
AcDbLine
 10
5.098773609864391
 20
7.082697061085115
 30
0.0
 11
4.087049469776277
 21
8.09442120117323
 31
0.0
  0
LINE
  5
220EA
330
220A9
100
AcDbEntity
  8
0
  6
CONTINUOUS
100
AcDbLine
 10
5.396862364710167
 20
7.458127515319526
 30
0.0
 11
4.385146033871544
 21
8.469843846158149
 31
0.0
  0
LINE
  5
220EB
330
220A9
100
AcDbEntity
  8
0
  6
CONTINUOUS
100
AcDbLine
 10
13.04801363231285
 20
0.4804954567970334
 30
0.0
 11
9.85750908911358
 21
3.670999999996297
 31
0.0
  0
LINE
  5
220EC
330
220A9
100
AcDbEntity
  8
0
  6
CONTINUOUS
100
AcDbLine
 10
8.857326339330116
 20
4.671182749779763
 30
0.0
 11
7.781651817520021
 21
5.746857271589858
 31
0.0
  0
LINE
  5
220ED
330
220A9
100
AcDbEntity
  8
0
  6
CONTINUOUS
100
AcDbLine
 10
5.694951119555943
 20
7.833557969553937
 30
0.0
 11
4.765409089118624
 21
8.763099999991255
 31
0.0
  0
LINE
  5
220EE
330
220A9
100
AcDbEntity
  8
0
  6
CONTINUOUS
100
AcDbLine
 10
12.50286117236978
 20
1.699167125820288
 30
0.0
 11
9.68611877250287
 21
4.515909525687196
 31
0.0
  0
LINE
  5
220EF
330
220A9
100
AcDbEntity
  8
0
  6
CONTINUOUS
100
AcDbLine
 10
9.065465192851777
 20
5.136563105338288
 30
0.0
 11
7.989834395251757
 21
6.21219390293831
 31
0.0
  0
LINE
  5
220F0
330
220A9
100
AcDbEntity
  8
0
  6
CONTINUOUS
100
AcDbLine
 10
5.993039874401719
 20
8.208988423788346
 30
0.0
 11
5.43892829819881
 21
8.763099999991255
 31
0.0
  0
LINE
  5
220F1
330
220A9
100
AcDbEntity
  8
0
  6
CONTINUOUS
100
AcDbLine
 10
11.95770871242671
 20
2.917838794843543
 30
0.0
 11
8.19801697298349
 21
6.677530534286761
 31
0.0
  0
LINE
  5
220F2
330
220A9
100
AcDbEntity
  8
0
  6
CONTINUOUS
100
AcDbLine
 10
6.291128629247495
 20
8.584418878022756
 30
0.0
 11
6.112447507278997
 21
8.763099999991255
 31
0.0
  0
LINE
  5
220F3
330
220A9
100
AcDbEntity
  8
0
  6
CONTINUOUS
100
AcDbLine
 10
11.41255625248364
 20
4.136510463866797
 30
0.0
 11
8.406199550715227
 21
7.142867165635211
 31
0.0
  0
LINE
  5
220F4
330
220A9
100
AcDbEntity
  8
0
  6
CONTINUOUS
100
AcDbLine
 10
10.86740379254057
 20
5.355182132890051
 30
0.0
 11
8.614382128446962
 21
7.608203796983664
 31
0.0
  0
LINE
  5
220F5
330
220A9
100
AcDbEntity
  8
0
  6
CONTINUOUS
100
AcDbLine
 10
10.3222513325975
 20
6.573853801913305
 30
0.0
 11
8.822564706178696
 21
8.073540428332114
 31
0.0
  0
LINE
  5
220F6
330
220A9
100
AcDbEntity
  8
0
  6
CONTINUOUS
100
AcDbLine
 10
9.777098872654436
 20
7.792525470936562
 30
0.0
 11
9.030747283910433
 21
8.538877059680566
 31
0.0
  0
ENDBLK
  5
22238
330
220A9
100
AcDbEntity
  8
0
100
AcDbBlockEnd
  0
BLOCK
  5
22239
330
220F7
100
AcDbEntity
  8
0
100
AcDbBlockBegin
  2
*X50
 70
     1
 10
0.0
 20
0.0
 30
0.0
  3
*X50
  1

  0
LINE
  5
220F8
330
220F7
100
AcDbEntity
  8
0
  6
CONTINUOUS
100
AcDbLine
 10
10.67292308101235
 20
8.445076852443387
 30
0.0
 11
10.99094622856022
 21
8.763099999991255
 31
0.0
  0
LINE
  5
220F9
330
220F7
100
AcDbEntity
  8
0
  6
CONTINUOUS
100
AcDbLine
 10
10.87250383178748
 20
7.971138394138331
 30
0.0
 11
11.6644654376404
 21
8.763099999991255
 31
0.0
  0
LINE
  5
220FA
330
220F7
100
AcDbEntity
  8
0
  6
CONTINUOUS
100
AcDbLine
 10
11.07208458256261
 20
7.497199935833273
 30
0.0
 11
12.12126590876355
 21
8.546381262034211
 31
0.0
  0
LINE
  5
220FB
330
220F7
100
AcDbEntity
  8
0
  6
CONTINUOUS
100
AcDbLine
 10
11.27166533333774
 20
7.023261477528216
 30
0.0
 11
12.32085164573666
 21
8.072447789927136
 31
0.0
  0
LINE
  5
220FC
330
220F7
100
AcDbEntity
  8
0
  6
CONTINUOUS
100
AcDbLine
 10
11.47124608411287
 20
6.549323019223158
 30
0.0
 11
12.52043738270977
 21
7.59851431782006
 31
0.0
  0
LINE
  5
220FD
330
220F7
100
AcDbEntity
  8
0
  6
CONTINUOUS
100
AcDbLine
 10
11.670826834888
 20
6.075384560918101
 30
0.0
 11
12.72002311968288
 21
7.124580845712984
 31
0.0
  0
LINE
  5
220FE
330
220F7
100
AcDbEntity
  8
0
  6
CONTINUOUS
100
AcDbLine
 10
11.87040758566313
 20
5.601446102613043
 30
0.0
 11
12.91960885665599
 21
6.650647373605907
 31
0.0
  0
LINE
  5
220FF
330
220F7
100
AcDbEntity
  8
0
  6
CONTINUOUS
100
AcDbLine
 10
12.06998833643825
 20
5.127507644307986
 30
0.0
 11
13.1191945936291
 21
6.176713901498832
 31
0.0
  0
LINE
  5
22100
330
220F7
100
AcDbEntity
  8
0
  6
CONTINUOUS
100
AcDbLine
 10
12.26956908721338
 20
4.65356918600293
 30
0.0
 11
13.31878033060221
 21
5.702780429391757
 31
0.0
  0
LINE
  5
22101
330
220F7
100
AcDbEntity
  8
0
  6
CONTINUOUS
100
AcDbLine
 10
12.46914983798851
 20
4.179630727697873
 30
0.0
 11
13.51836606757532
 21
5.228846957284683
 31
0.0
  0
LINE
  5
22102
330
220F7
100
AcDbEntity
  8
0
  6
CONTINUOUS
100
AcDbLine
 10
12.66873058876364
 20
3.705692269392816
 30
0.0
 11
13.71795180454843
 21
4.754913485177607
 31
0.0
  0
LINE
  5
22103
330
220F7
100
AcDbEntity
  8
0
  6
CONTINUOUS
100
AcDbLine
 10
12.86831133953877
 20
3.231753811087759
 30
0.0
 11
13.91753754152154
 21
4.280980013070531
 31
0.0
  0
LINE
  5
22104
330
220F7
100
AcDbEntity
  8
0
  6
CONTINUOUS
100
AcDbLine
 10
13.0678920903139
 20
2.757815352782702
 30
0.0
 11
14.11712327849465
 21
3.807046540963456
 31
0.0
  0
LINE
  5
22105
330
220F7
100
AcDbEntity
  8
0
  6
CONTINUOUS
100
AcDbLine
 10
13.26747284108903
 20
2.283876894477644
 30
0.0
 11
14.31670901546777
 21
3.333113068856379
 31
0.0
  0
LINE
  5
22106
330
220F7
100
AcDbEntity
  8
0
  6
CONTINUOUS
100
AcDbLine
 10
16.36767838827179
 20
8.751678487061342
 30
0.0
 11
16.50332410898388
 21
8.887324207773432
 31
0.0
  0
LINE
  5
22107
330
220F7
100
AcDbEntity
  8
0
  6
CONTINUOUS
100
AcDbLine
 10
15.96190732182191
 20
7.67238821153127
 30
0.0
 11
16.68735328004734
 21
8.397834169756699
 31
0.0
  0
LINE
  5
22108
330
220F7
100
AcDbEntity
  8
0
  6
CONTINUOUS
100
AcDbLine
 10
15.55613625537202
 20
6.593097936001196
 30
0.0
 11
16.87138245111079
 21
7.908344131739965
 31
0.0
  0
LINE
  5
22109
330
220F7
100
AcDbEntity
  8
0
  6
CONTINUOUS
100
AcDbLine
 10
15.15036518892213
 20
5.513807660471122
 30
0.0
 11
17.05541162217424
 21
7.418854093723231
 31
0.0
  0
LINE
  5
2210A
330
220F7
100
AcDbEntity
  8
0
  6
CONTINUOUS
100
AcDbLine
 10
14.74459412247225
 20
4.434517384941048
 30
0.0
 11
17.2394407932377
 21
6.929364055706499
 31
0.0
  0
LINE
  5
2210B
330
220F7
100
AcDbEntity
  8
0
  6
CONTINUOUS
100
AcDbLine
 10
14.33882305602236
 20
3.355227109410975
 30
0.0
 11
17.42346996430115
 21
6.439874017689766
 31
0.0
  0
LINE
  5
2210C
330
220F7
100
AcDbEntity
  8
0
  6
CONTINUOUS
100
AcDbLine
 10
13.46705359186416
 20
1.809938436172586
 30
0.0
 11
16.0819338255367
 21
4.424818669845129
 31
0.0
  0
LINE
  5
2210D
330
220F7
100
AcDbEntity
  8
0
  6
CONTINUOUS
100
AcDbLine
 10
16.63283254238972
 20
4.975717386698149
 30
0.0
 11
17.60749913536461
 21
5.950383979673033
 31
0.0
  0
LINE
  5
2210E
330
220F7
100
AcDbEntity
  8
0
  6
CONTINUOUS
100
AcDbLine
 10
13.66663434263929
 20
1.335999977867529
 30
0.0
 11
15.67604797733754
 21
3.345413612565779
 31
0.0
  0
LINE
  5
2210F
330
220F7
100
AcDbEntity
  8
0
  6
CONTINUOUS
100
AcDbLine
 10
13.86621509341442
 20
0.8620615195624723
 30
0.0
 11
15.27016212913838
 21
2.26600855528643
 31
0.0
  0
LINE
  5
22110
330
220F7
100
AcDbEntity
  8
0
  6
CONTINUOUS
100
AcDbLine
 10
16.81682257348267
 20
4.486188208710908
 30
0.0
 11
17.79152830642806
 21
5.460893941656299
 31
0.0
  0
LINE
  5
22111
330
220F7
100
AcDbEntity
  8
0
  6
CONTINUOUS
100
AcDbLine
 10
17.00081260457561
 20
3.996659030723667
 30
0.0
 11
17.97555747749151
 21
4.971403903639565
 31
0.0
  0
LINE
  5
22112
330
220F7
100
AcDbEntity
  8
0
  6
CONTINUOUS
100
AcDbLine
 10
20.74362343514722
 20
8.412989070375462
 30
0.0
 11
21.09373436476302
 21
8.763099999991256
 31
0.0
  0
LINE
  5
22113
330
220F7
100
AcDbEntity
  8
0
  6
CONTINUOUS
100
AcDbLine
 10
20.25401257174777
 20
7.249858997895826
 30
0.0
 11
21.7672535738432
 21
8.763099999991255
 31
0.0
  0
LINE
  5
22114
330
220F7
100
AcDbEntity
  8
0
  6
CONTINUOUS
100
AcDbLine
 10
14.06579584418955
 20
0.3881230612574149
 30
0.0
 11
14.86427628093921
 21
1.186603498007082
 31
0.0
  0
LINE
  5
22115
330
220F7
100
AcDbEntity
  8
0
  6
CONTINUOUS
100
AcDbLine
 10
14.26537659496467
 20
-0.0858153970476412
 30
0.0
 11
14.45839043274005
 21
0.1071984407277329
 31
0.0
  0
LINE
  5
22116
330
220F7
100
AcDbEntity
  8
0
  6
CONTINUOUS
100
AcDbLine
 10
17.18480263566856
 20
3.507129852736426
 30
0.0
 11
18.15958664855496
 21
4.481913865622833
 31
0.0
  0
LINE
  5
22117
330
220F7
100
AcDbEntity
  8
0
  6
CONTINUOUS
100
AcDbLine
 10
17.3687926667615
 20
3.017600674749186
 30
0.0
 11
18.34361581961842
 21
3.9924238276061
 31
0.0
  0
LINE
  5
22118
330
220F7
100
AcDbEntity
  8
0
  6
CONTINUOUS
100
AcDbLine
 10
19.76440170834832
 20
6.086728925416191
 30
0.0
 11
22.33924590259489
 21
8.661573119662755
 31
0.0
  0
LINE
  5
22119
330
220F7
100
AcDbEntity
  8
0
  6
CONTINUOUS
100
AcDbLine
 10
19.27479084494887
 20
4.923598852936555
 30
0.0
 11
21.84929622842713
 21
7.498104236414807
 31
0.0
  0
LINE
  5
2211A
330
220F7
100
AcDbEntity
  8
0
  6
CONTINUOUS
100
AcDbLine
 10
17.55278269785445
 20
2.528071496761945
 30
0.0
 11
18.52764499068187
 21
3.502933789589366
 31
0.0
  0
LINE
  5
2211B
330
220F7
100
AcDbEntity
  8
0
  6
CONTINUOUS
100
AcDbLine
 10
18.78517998154942
 20
3.760468780456919
 30
0.0
 11
21.35934655425936
 21
6.33463535316686
 31
0.0
  0
LINE
  5
2211C
330
220F7
100
AcDbEntity
  8
0
  6
CONTINUOUS
100
AcDbLine
 10
17.73677272894739
 20
2.038542318774704
 30
0.0
 11
20.8693968800916
 21
5.171166469918914
 31
0.0
  0
LINE
  5
2211D
330
220F7
100
AcDbEntity
  8
0
  6
CONTINUOUS
100
AcDbLine
 10
17.92076276004034
 20
1.549013140787464
 30
0.0
 11
20.37944720592384
 21
4.007697586670968
 31
0.0
  0
LINE
  5
2211E
330
220F7
100
AcDbEntity
  8
0
  6
CONTINUOUS
100
AcDbLine
 10
18.10475279113329
 20
1.059483962800223
 30
0.0
 11
19.88949753175608
 21
2.84422870342302
 31
0.0
  0
LINE
  5
2211F
330
220F7
100
AcDbEntity
  8
0
  6
CONTINUOUS
100
AcDbLine
 10
18.28874282222623
 20
0.5699547848129822
 30
0.0
 11
19.39954785758832
 21
1.680759820175074
 31
0.0
  0
LINE
  5
22120
330
220F7
100
AcDbEntity
  8
0
  6
CONTINUOUS
100
AcDbLine
 10
18.47273285331918
 20
0.0804256068257416
 30
0.0
 11
18.90959818342056
 21
0.517290936927127
 31
0.0
  0
LINE
  5
22121
330
220F7
100
AcDbEntity
  8
0
  6
CONTINUOUS
100
AcDbLine
 10
14.3590401358224
 20
-0.1570118376323384
 30
0.0
 11
14.24903296539946
 21
-0.0470046672093929
 31
0.0
  0
LINE
  5
22122
330
220F7
100
AcDbEntity
  8
0
  6
CONTINUOUS
100
AcDbLine
 10
14.54309291258661
 20
0.332454594683643
 30
0.0
 11
13.75908329123172
 21
1.116464216038529
 31
0.0
  0
LINE
  5
22123
330
220F7
100
AcDbEntity
  8
0
  6
CONTINUOUS
100
AcDbLine
 10
14.72714568935081
 20
0.8219210269996244
 30
0.0
 11
13.26913361706399
 21
2.27993309928645
 31
0.0
  0
LINE
  5
22124
330
220F7
100
AcDbEntity
  8
0
  6
CONTINUOUS
100
AcDbLine
 10
14.91119846611502
 20
1.311387459315606
 30
0.0
 11
12.77918394289625
 21
3.443401982534371
 31
0.0
  0
LINE
  5
22125
330
220F7
100
AcDbEntity
  8
0
  6
CONTINUOUS
100
AcDbLine
 10
15.09525124287922
 20
1.800853891631587
 30
0.0
 11
12.28923426872852
 21
4.606870865782293
 31
0.0
  0
LINE
  5
22126
330
220F7
100
AcDbEntity
  8
0
  6
CONTINUOUS
100
AcDbLine
 10
15.27930401964343
 20
2.290320323947569
 30
0.0
 11
11.79928459456078
 21
5.770339749030213
 31
0.0
  0
LINE
  5
22127
330
220F7
100
AcDbEntity
  8
0
  6
CONTINUOUS
100
AcDbLine
 10
15.46335679640763
 20
2.77978675626355
 30
0.0
 11
14.48885470994921
 21
3.754288842721972
 31
0.0
  0
LINE
  5
22128
330
220F7
100
AcDbEntity
  8
0
  6
CONTINUOUS
100
AcDbLine
 10
13.88507249233704
 20
4.358071060334137
 30
0.0
 11
11.30933492039305
 21
6.933808632278135
 31
0.0
  0
LINE
  5
22129
330
220F7
100
AcDbEntity
  8
0
  6
CONTINUOUS
100
AcDbLine
 10
18.75840522805855
 20
0.1582575336928151
 30
0.0
 11
18.25383727664818
 21
0.6628254851031863
 31
0.0
  0
LINE
  5
2212A
330
220F7
100
AcDbEntity
  8
0
  6
CONTINUOUS
100
AcDbLine
 10
15.64740957317184
 20
3.269253188579531
 30
0.0
 11
14.67288388101266
 21
4.243778880738705
 31
0.0
  0
LINE
  5
2212B
330
220F7
100
AcDbEntity
  8
0
  6
CONTINUOUS
100
AcDbLine
 10
13.39509276772158
 20
5.521569994029786
 30
0.0
 11
10.81938524622531
 21
8.097277515526056
 31
0.0
  0
LINE
  5
2212C
330
220F7
100
AcDbEntity
  8
0
  6
CONTINUOUS
100
AcDbLine
 10
18.95798597883369
 20
0.6321959919978686
 30
0.0
 11
17.84825644852853
 21
1.741925522303024
 31
0.0
  0
LINE
  5
2212D
330
220F7
100
AcDbEntity
  8
0
  6
CONTINUOUS
100
AcDbLine
 10
19.15756672960882
 20
1.106134450302922
 30
0.0
 11
17.44267562040888
 21
2.821025559502861
 31
0.0
  0
LINE
  5
2212E
330
220F7
100
AcDbEntity
  8
0
  6
CONTINUOUS
100
AcDbLine
 10
15.83146234993604
 20
3.758719620895513
 30
0.0
 11
14.85691305207612
 21
4.733268918755439
 31
0.0
  0
LINE
  5
2212F
330
220F7
100
AcDbEntity
  8
0
  6
CONTINUOUS
100
AcDbLine
 10
16.01551512670025
 20
4.248186053211494
 30
0.0
 11
15.04094222313957
 21
5.222758956772172
 31
0.0
  0
LINE
  5
22130
330
220F7
100
AcDbEntity
  8
0
  6
CONTINUOUS
100
AcDbLine
 10
12.90511304310612
 20
6.685068927725435
 30
0.0
 11
10.8270819708403
 21
8.763099999991255
 31
0.0
  0
LINE
  5
22131
330
220F7
100
AcDbEntity
  8
0
  6
CONTINUOUS
100
AcDbLine
 10
12.41513331849066
 20
7.848567861421083
 30
0.0
 11
11.50060117992049
 21
8.763099999991255
 31
0.0
  0
LINE
  5
22132
330
220F7
100
AcDbEntity
  8
0
  6
CONTINUOUS
100
AcDbLine
 10
19.35714748038395
 20
1.580072908607975
 30
0.0
 11
17.03709479228923
 21
3.900125596702697
 31
0.0
  0
LINE
  5
22133
330
220F7
100
AcDbEntity
  8
0
  6
CONTINUOUS
100
AcDbLine
 10
19.55672823115909
 20
2.054011366913028
 30
0.0
 11
16.63151396416958
 21
4.979225633902534
 31
0.0
  0
LINE
  5
22134
330
220F7
100
AcDbEntity
  8
0
  6
CONTINUOUS
100
AcDbLine
 10
16.19956790346445
 20
4.737652485527476
 30
0.0
 11
15.22497139420302
 21
5.712248994788904
 31
0.0
  0
LINE
  5
22135
330
220F7
100
AcDbEntity
  8
0
  6
CONTINUOUS
100
AcDbLine
 10
16.38362068022866
 20
5.227118917843457
 30
0.0
 11
15.40900056526648
 21
6.201739032805637
 31
0.0
  0
LINE
  5
22136
330
220F7
100
AcDbEntity
  8
0
  6
CONTINUOUS
100
AcDbLine
 10
19.75630898193422
 20
2.527949825218081
 30
0.0
 11
18.70774536448286
 21
3.576513442669441
 31
0.0
  0
LINE
  5
22137
330
220F7
100
AcDbEntity
  8
0
  6
CONTINUOUS
100
AcDbLine
 10
19.95588973270936
 20
3.001888283523134
 30
0.0
 11
18.90726987211446
 21
4.050508144118028
 31
0.0
  0
LINE
  5
22138
330
220F7
100
AcDbEntity
  8
0
  6
CONTINUOUS
100
AcDbLine
 10
20.15547048348449
 20
3.475826741828186
 30
0.0
 11
19.10679437974606
 21
4.524502845566614
 31
0.0
  0
LINE
  5
22139
330
220F7
100
AcDbEntity
  8
0
  6
CONTINUOUS
100
AcDbLine
 10
20.35505123425962
 20
3.94976520013324
 30
0.0
 11
19.30631888737766
 21
4.998497547015201
 31
0.0
  0
LINE
  5
2213A
330
220F7
100
AcDbEntity
  8
0
  6
CONTINUOUS
100
AcDbLine
 10
20.55463198503475
 20
4.423703658438292
 30
0.0
 11
19.50584339500926
 21
5.472492248463787
 31
0.0
  0
LINE
  5
2213B
330
220F7
100
AcDbEntity
  8
0
  6
CONTINUOUS
100
AcDbLine
 10
18.37481191085755
 20
3.909446896294752
 30
0.0
 11
15.59302973632993
 21
6.691229070822371
 31
0.0
  0
LINE
  5
2213C
330
220F7
100
AcDbEntity
  8
0
  6
CONTINUOUS
100
AcDbLine
 10
17.96904084440766
 20
4.988737171824825
 30
0.0
 11
15.77705890739338
 21
7.180719108839104
 31
0.0
  0
LINE
  5
2213D
330
220F7
100
AcDbEntity
  8
0
  6
CONTINUOUS
100
AcDbLine
 10
17.56326977795777
 20
6.068027447354899
 30
0.0
 11
15.96108807845684
 21
7.670209146855838
 31
0.0
  0
LINE
  5
2213E
330
220F7
100
AcDbEntity
  8
0
  6
CONTINUOUS
100
AcDbLine
 10
17.15749871150789
 20
7.147317722884972
 30
0.0
 11
16.14511724952029
 21
8.15969918487257
 31
0.0
  0
LINE
  5
2213F
330
220F7
100
AcDbEntity
  8
0
  6
CONTINUOUS
100
AcDbLine
 10
16.751727645058
 20
8.226607998415046
 30
0.0
 11
16.32914642058374
 21
8.649189222889303
 31
0.0
  0
LINE
  5
22140
330
220F7
100
AcDbEntity
  8
0
  6
CONTINUOUS
100
AcDbLine
 10
20.75421273580989
 20
4.897642116743345
 30
0.0
 11
19.70536790264086
 21
5.946486949912374
 31
0.0
  0
LINE
  5
22141
330
220F7
100
AcDbEntity
  8
0
  6
CONTINUOUS
100
AcDbLine
 10
20.95379348658502
 20
5.371580575048398
 30
0.0
 11
19.90489241027246
 21
6.42048165136096
 31
0.0
  0
LINE
  5
22142
330
220F7
100
AcDbEntity
  8
0
  6
CONTINUOUS
100
AcDbLine
 10
21.15337423736015
 20
5.845519033353452
 30
0.0
 11
20.10441691790406
 21
6.894476352809547
 31
0.0
  0
LINE
  5
22143
330
220F7
100
AcDbEntity
  8
0
  6
CONTINUOUS
100
AcDbLine
 10
21.35295498813529
 20
6.319457491658505
 30
0.0
 11
20.30394142553566
 21
7.368471054258134
 31
0.0
  0
LINE
  5
22144
330
220F7
100
AcDbEntity
  8
0
  6
CONTINUOUS
100
AcDbLine
 10
21.55253573891042
 20
6.793395949963558
 30
0.0
 11
20.50346593316726
 21
7.842465755706721
 31
0.0
  0
LINE
  5
22145
330
220F7
100
AcDbEntity
  8
0
  6
CONTINUOUS
100
AcDbLine
 10
21.75211648968556
 20
7.267334408268612
 30
0.0
 11
20.70299044079886
 21
8.316460457155308
 31
0.0
  0
LINE
  5
22146
330
220F7
100
AcDbEntity
  8
0
  6
CONTINUOUS
100
AcDbLine
 10
21.95169724046069
 20
7.741272866573663
 30
0.0
 11
20.9298701070431
 21
8.763099999991256
 31
0.0
  0
LINE
  5
22147
330
220F7
100
AcDbEntity
  8
0
  6
CONTINUOUS
100
AcDbLine
 10
22.15127799123582
 20
8.215211324878716
 30
0.0
 11
21.60338931612328
 21
8.763099999991256
 31
0.0
  0
LINE
  5
22148
330
220F7
100
AcDbEntity
  8
0
  6
CONTINUOUS
100
AcDbLine
 10
22.35085874201096
 20
8.689149783183769
 30
0.0
 11
22.27690852520347
 21
8.763099999991255
 31
0.0
  0
ENDBLK
  5
2223A
330
220F7
100
AcDbEntity
  8
0
100
AcDbBlockEnd
  0
BLOCK
  5
2223B
330
22149
100
AcDbEntity
  8
0
100
AcDbBlockBegin
  2
*X51
 70
     1
 10
0.0
 20
0.0
 30
0.0
  3
*X51
  1

  0
LINE
  5
2214A
330
22149
100
AcDbEntity
  8
0
  6
CONTINUOUS
100
AcDbLine
 10
23.19462913593892
 20
8.169917934846424
 30
0.0
 11
23.70775465517246
 21
8.683043454079957
 31
0.0
  0
LINE
  5
2214B
330
22149
100
AcDbEntity
  8
0
  6
CONTINUOUS
100
AcDbLine
 10
22.64923161835078
 20
6.951001208178088
 30
0.0
 11
23.9159364069932
 21
8.217705996820516
 31
0.0
  0
LINE
  5
2214C
330
22149
100
AcDbEntity
  8
0
  6
CONTINUOUS
100
AcDbLine
 10
22.10383410076263
 20
5.732084481509751
 30
0.0
 11
24.12411815881395
 21
7.752368539561078
 31
0.0
  0
LINE
  5
2214D
330
22149
100
AcDbEntity
  8
0
  6
CONTINUOUS
100
AcDbLine
 10
21.55843658317447
 20
4.513167754841414
 30
0.0
 11
24.3322999106347
 21
7.287031082301639
 31
0.0
  0
LINE
  5
2214E
330
22149
100
AcDbEntity
  8
0
  6
CONTINUOUS
100
AcDbLine
 10
21.01303906558632
 20
3.294251028173077
 30
0.0
 11
24.54048166245544
 21
6.821693625042199
 31
0.0
  0
LINE
  5
2214F
330
22149
100
AcDbEntity
  8
0
  6
CONTINUOUS
100
AcDbLine
 10
20.46764154799817
 20
2.075334301504738
 30
0.0
 11
23.28571549467848
 21
4.89340824818505
 31
0.0
  0
LINE
  5
22150
330
22149
100
AcDbEntity
  8
0
  6
CONTINUOUS
100
AcDbLine
 10
19.92224403041002
 20
0.8564175748364002
 30
0.0
 11
22.74075865492779
 21
3.674932199354171
 31
0.0
  0
LINE
  5
22151
330
22149
100
AcDbEntity
  8
0
  6
CONTINUOUS
100
AcDbLine
 10
23.67305085490148
 20
5.280743608408048
 30
0.0
 11
24.74866341427619
 21
6.356356167782759
 31
0.0
  0
LINE
  5
22152
330
22149
100
AcDbEntity
  8
0
  6
CONTINUOUS
100
AcDbLine
 10
23.88118970842314
 20
4.815363252849522
 30
0.0
 11
24.95684516609694
 21
5.89101871052332
 31
0.0
  0
LINE
  5
22153
330
22149
100
AcDbEntity
  8
0
  6
CONTINUOUS
100
AcDbLine
 10
19.73925852647308
 20
-0.0000871381807288
 30
0.0
 11
23.4103456646501
 21
3.670999999996297
 31
0.0
  0
LINE
  5
22154
330
22149
100
AcDbEntity
  8
0
  6
CONTINUOUS
100
AcDbLine
 10
24.0893285619448
 20
4.349982897290997
 30
0.0
 11
25.16502691791769
 21
5.42568125326388
 31
0.0
  0
LINE
  5
22155
330
22149
100
AcDbEntity
  8
0
  6
CONTINUOUS
100
AcDbLine
 10
20.41282099582748
 20
-0.0000438779065108
 30
0.0
 11
21.64944178675636
 21
1.236576913022366
 31
0.0
  0
LINE
  5
22156
330
22149
100
AcDbEntity
  8
0
  6
CONTINUOUS
100
AcDbLine
 10
22.78126487373161
 20
2.36839999999762
 30
0.0
 11
24.08386487373029
 21
3.670999999996297
 31
0.0
  0
LINE
  5
22157
330
22149
100
AcDbEntity
  8
0
  6
CONTINUOUS
100
AcDbLine
 10
24.29746741546646
 20
3.884602541732471
 30
0.0
 11
25.37320866973843
 21
4.960343796004441
 31
0.0
  0
LINE
  5
22158
330
22149
100
AcDbEntity
  8
0
  6
CONTINUOUS
100
AcDbLine
 10
21.08638346518189
 20
-0.0000006176322938
 30
0.0
 11
21.10379033335899
 21
0.0174062505448083
 31
0.0
  0
LINE
  5
22159
330
22149
100
AcDbEntity
  8
0
  6
CONTINUOUS
100
AcDbLine
 10
23.4547840828118
 20
2.36839999999762
 30
0.0
 11
25.58139042155918
 21
4.495006338745002
 31
0.0
  0
LINE
  5
2215A
330
22149
100
AcDbEntity
  8
0
  6
CONTINUOUS
100
AcDbLine
 10
29.30199999996933
 20
8.215615917155148
 30
0.0
 11
29.84948408280543
 21
8.763099999991255
 31
0.0
  0
LINE
  5
2215B
330
22149
100
AcDbEntity
  8
0
  6
CONTINUOUS
100
AcDbLine
 10
24.12830329189199
 20
2.36839999999762
 30
0.0
 11
25.78957217337993
 21
4.029668881485562
 31
0.0
  0
LINE
  5
2215C
330
22149
100
AcDbEntity
  8
0
  6
CONTINUOUS
100
AcDbLine
 10
29.30199999996933
 20
7.54209670807496
 30
0.0
 11
30.52300329188562
 21
8.763099999991255
 31
0.0
  0
LINE
  5
2215D
330
22149
100
AcDbEntity
  8
0
  6
CONTINUOUS
100
AcDbLine
 10
24.80182250097217
 20
2.36839999999762
 30
0.0
 11
25.99775392520067
 21
3.564331424226122
 31
0.0
  0
LINE
  5
2215E
330
22149
100
AcDbEntity
  8
0
  6
CONTINUOUS
100
AcDbLine
 10
29.30199999996933
 20
6.868577498994774
 30
0.0
 11
30.74199999996926
 21
8.308577498994712
 31
0.0
  0
LINE
  5
2215F
330
22149
100
AcDbEntity
  8
0
  6
CONTINUOUS
100
AcDbLine
 10
25.13028238392013
 20
2.023340673865392
 30
0.0
 11
26.20593567702142
 21
3.098993966966683
 31
0.0
  0
LINE
  5
22160
330
22149
100
AcDbEntity
  8
0
  6
CONTINUOUS
100
AcDbLine
 10
25.33838066033617
 20
1.557919741201244
 30
0.0
 11
26.41411742884217
 21
2.633656509707244
 31
0.0
  0
LINE
  5
22161
330
22149
100
AcDbEntity
  8
0
  6
CONTINUOUS
100
AcDbLine
 10
25.54647893675221
 20
1.092498808537098
 30
0.0
 11
26.62229918066291
 21
2.168319052447804
 31
0.0
  0
LINE
  5
22162
330
22149
100
AcDbEntity
  8
0
  6
CONTINUOUS
100
AcDbLine
 10
25.75457721316825
 20
0.62707787587295
 30
0.0
 11
26.83048093248366
 21
1.702981595188365
 31
0.0
  0
LINE
  5
22163
330
22149
100
AcDbEntity
  8
0
  6
CONTINUOUS
100
AcDbLine
 10
29.30199999996933
 20
6.195058289914587
 30
0.0
 11
30.74199999996926
 21
7.635058289914522
 31
0.0
  0
LINE
  5
22164
330
22149
100
AcDbEntity
  8
0
  6
CONTINUOUS
100
AcDbLine
 10
29.30199999996933
 20
5.521539080834401
 30
0.0
 11
30.74199999996926
 21
6.961539080834331
 31
0.0
  0
LINE
  5
22165
330
22149
100
AcDbEntity
  8
0
  6
CONTINUOUS
100
AcDbLine
 10
29.30199999996933
 20
4.848019871754214
 30
0.0
 11
30.74199999996925
 21
6.288019871754143
 31
0.0
  0
LINE
  5
22166
330
22149
100
AcDbEntity
  8
0
  6
CONTINUOUS
100
AcDbLine
 10
29.30199999996933
 20
4.174500662674028
 30
0.0
 11
30.74199999996925
 21
5.614500662673953
 31
0.0
  0
LINE
  5
22167
330
22149
100
AcDbEntity
  8
0
  6
CONTINUOUS
100
AcDbLine
 10
25.96267548958429
 20
0.1616569432088024
 30
0.0
 11
27.18411854636669
 21
1.383099999991207
 31
0.0
  0
LINE
  5
22168
330
22149
100
AcDbEntity
  8
0
  6
CONTINUOUS
100
AcDbLine
 10
29.30199999996933
 20
3.500981453593841
 30
0.0
 11
30.74199999996925
 21
4.940981453593762
 31
0.0
  0
LINE
  5
22169
330
22149
100
AcDbEntity
  8
0
  6
CONTINUOUS
100
AcDbLine
 10
26.50763775544691
 20
0.0330999999912356
 30
0.0
 11
27.85763775544689
 21
1.383099999991223
 31
0.0
  0
LINE
  5
2216A
330
22149
100
AcDbEntity
  8
0
  6
CONTINUOUS
100
AcDbLine
 10
29.30199999996933
 20
2.827462244513656
 30
0.0
 11
30.74199999996925
 21
4.267462244513574
 31
0.0
  0
LINE
  5
2216B
330
22149
100
AcDbEntity
  8
0
  6
CONTINUOUS
100
AcDbLine
 10
27.18115696452709
 20
0.0330999999912356
 30
0.0
 11
28.6224847300034
 21
1.474427765467545
 31
0.0
  0
LINE
  5
2216C
330
22149
100
AcDbEntity
  8
0
  6
CONTINUOUS
100
AcDbLine
 10
29.21067223449293
 20
2.062615269957069
 30
0.0
 11
30.74199999996924
 21
3.593943035433383
 31
0.0
  0
LINE
  5
2216D
330
22149
100
AcDbEntity
  8
0
  6
CONTINUOUS
100
AcDbLine
 10
27.85467617360728
 20
0.0330999999912356
 30
0.0
 11
30.74199999996924
 21
2.920423826353195
 31
0.0
  0
LINE
  5
2216E
330
22149
100
AcDbEntity
  8
0
  6
CONTINUOUS
100
AcDbLine
 10
28.57438609860264
 20
0.0792907159064073
 30
0.0
 11
30.69580928405405
 21
2.200713901357819
 31
0.0
  0
LINE
  5
2216F
330
22149
100
AcDbEntity
  8
0
  6
CONTINUOUS
100
AcDbLine
 10
29.49443044814297
 20
0.3258158563665496
 30
0.0
 11
30.44928414359389
 21
1.280669551817477
 31
0.0
  0
LINE
  5
22170
330
22149
100
AcDbEntity
  8
0
  6
CONTINUOUS
100
AcDbLine
 10
19.59027867740337
 20
-0.0000967065718083
 30
0.0
 11
19.55485265190471
 21
0.035329318926844
 31
0.0
  0
LINE
  5
22171
330
22149
100
AcDbEntity
  8
0
  6
CONTINUOUS
100
AcDbLine
 10
20.26375463176586
 20
-0.0000534518541091
 30
0.0
 11
19.76305575737534
 21
0.5006454225364014
 31
0.0
  0
LINE
  5
22172
330
22149
100
AcDbEntity
  8
0
  6
CONTINUOUS
100
AcDbLine
 10
20.93723058612834
 20
-0.0000101971364099
 30
0.0
 11
19.97125886284597
 21
0.965961526145958
 31
0.0
  0
LINE
  5
22173
330
22149
100
AcDbEntity
  8
0
  6
CONTINUOUS
100
AcDbLine
 10
21.25514828313686
 20
0.355591314935257
 30
0.0
 11
20.1794619683166
 21
1.431277629755512
 31
0.0
  0
LINE
  5
22174
330
22149
100
AcDbEntity
  8
0
  6
CONTINUOUS
100
AcDbLine
 10
21.46338838394921
 20
0.8208704232030986
 30
0.0
 11
20.38766507378723
 21
1.896593733365069
 31
0.0
  0
LINE
  5
22175
330
22149
100
AcDbEntity
  8
0
  6
CONTINUOUS
100
AcDbLine
 10
21.67162848476155
 20
1.28614953147094
 30
0.0
 11
20.59586817925786
 21
2.361909836974626
 31
0.0
  0
LINE
  5
22176
330
22149
100
AcDbEntity
  8
0
  6
CONTINUOUS
100
AcDbLine
 10
21.8798685855739
 20
1.751428639738782
 30
0.0
 11
20.80407128472849
 21
2.827225940584183
 31
0.0
  0
LINE
  5
22177
330
22149
100
AcDbEntity
  8
0
  6
CONTINUOUS
100
AcDbLine
 10
22.08810868638624
 20
2.216707748006623
 30
0.0
 11
21.01227439019912
 21
3.292542044193739
 31
0.0
  0
LINE
  5
22178
330
22149
100
AcDbEntity
  8
0
  6
CONTINUOUS
100
AcDbLine
 10
22.60993564347543
 20
2.36839999999762
 30
0.0
 11
21.22047749566975
 21
3.757858147803296
 31
0.0
  0
LINE
  5
22179
330
22149
100
AcDbEntity
  8
0
  6
CONTINUOUS
100
AcDbLine
 10
23.28345485255561
 20
2.36839999999762
 30
0.0
 11
21.42868060114038
 21
4.223174251412853
 31
0.0
  0
LINE
  5
2217A
330
22149
100
AcDbEntity
  8
0
  6
CONTINUOUS
100
AcDbLine
 10
26.29227406164219
 20
0.0330999999912356
 30
0.0
 11
25.80009199592872
 21
0.5252820657046957
 31
0.0
  0
LINE
  5
2217B
330
22149
100
AcDbEntity
  8
0
  6
CONTINUOUS
100
AcDbLine
 10
23.9569740616358
 20
2.36839999999762
 30
0.0
 11
21.63688370661101
 21
4.688490355022409
 31
0.0
  0
LINE
  5
2217C
330
22149
100
AcDbEntity
  8
0
  6
CONTINUOUS
100
AcDbLine
 10
26.96579327072237
 20
0.0330999999912356
 30
0.0
 11
25.2554132311971
 21
1.743480039516508
 31
0.0
  0
LINE
  5
2217D
330
22149
100
AcDbEntity
  8
0
  6
CONTINUOUS
100
AcDbLine
 10
24.63049327071599
 20
2.36839999999762
 30
0.0
 11
23.32789327071731
 21
3.670999999996297
 31
0.0
  0
LINE
  5
2217E
330
22149
100
AcDbEntity
  8
0
  6
CONTINUOUS
100
AcDbLine
 10
22.92098674744635
 20
4.077906523267254
 30
0.0
 11
21.84508681208164
 21
5.153806458631966
 31
0.0
  0
LINE
  5
2217F
330
22149
100
AcDbEntity
  8
0
  6
CONTINUOUS
100
AcDbLine
 10
27.63931247980256
 20
0.0330999999912356
 30
0.0
 11
24.0014124797975
 21
3.670999999996297
 31
0.0
  0
LINE
  5
22180
330
22149
100
AcDbEntity
  8
0
  6
CONTINUOUS
100
AcDbLine
 10
23.129125600968
 20
4.5432868788258
 30
0.0
 11
22.05328991755227
 21
5.619122562241522
 31
0.0
  0
LINE
  5
22181
330
22149
100
AcDbEntity
  8
0
  6
CONTINUOUS
100
AcDbLine
 10
28.31283168888275
 20
0.0330999999912356
 30
0.0
 11
24.16488385994816
 21
4.181047828925828
 31
0.0
  0
LINE
  5
22182
330
22149
100
AcDbEntity
  8
0
  6
CONTINUOUS
100
AcDbLine
 10
23.33726445448964
 20
5.008667234384345
 30
0.0
 11
22.2614930230229
 21
6.084438665851079
 31
0.0
  0
LINE
  5
22183
330
22149
100
AcDbEntity
  8
0
  6
CONTINUOUS
100
AcDbLine
 10
28.86286302309502
 20
0.1565878748591523
 30
0.0
 11
27.63635089796295
 21
1.383099999991217
 31
0.0
  0
LINE
  5
22184
330
22149
100
AcDbEntity
  8
0
  6
CONTINUOUS
100
AcDbLine
 10
26.43704649509776
 20
2.582404402856405
 30
0.0
 11
23.61992702019732
 21
5.399523877756844
 31
0.0
  0
LINE
  5
22185
330
22149
100
AcDbEntity
  8
0
  6
CONTINUOUS
100
AcDbLine
 10
23.54540330801128
 20
5.47404758994289
 30
0.0
 11
22.46969612849353
 21
6.549754769460635
 31
0.0
  0
LINE
  5
22186
330
22149
100
AcDbEntity
  8
0
  6
CONTINUOUS
100
AcDbLine
 10
29.39405087596853
 20
0.2989192310658284
 30
0.0
 11
28.30987010704312
 21
1.383099999991234
 31
0.0
  0
LINE
  5
22187
330
22149
100
AcDbEntity
  8
0
  6
CONTINUOUS
100
AcDbLine
 10
25.89179548232307
 20
3.801174624711282
 30
0.0
 11
22.67789923396416
 21
7.015070873070191
 31
0.0
  0
LINE
  5
22188
330
22149
100
AcDbEntity
  8
0
  6
CONTINUOUS
100
AcDbLine
 10
29.79594438047407
 20
0.570544935640473
 30
0.0
 11
28.81310432793121
 21
1.553384988183336
 31
0.0
  0
LINE
  5
22189
330
22149
100
AcDbEntity
  8
0
  6
CONTINUOUS
100
AcDbLine
 10
25.34654446954838
 20
5.01994484656616
 30
0.0
 11
22.88610233943479
 21
7.480386976679748
 31
0.0
  0
LINE
  5
2218A
330
22149
100
AcDbEntity
  8
0
  6
CONTINUOUS
100
AcDbLine
 10
30.13270398501416
 20
0.9073045401805646
 30
0.0
 11
29.14234640337737
 21
1.897662121817355
 31
0.0
  0
LINE
  5
2218B
330
22149
100
AcDbEntity
  8
0
  6
CONTINUOUS
100
AcDbLine
 10
24.80129345677369
 20
6.238715068421037
 30
0.0
 11
23.09430544490542
 21
7.945703080289305
 31
0.0
  0
LINE
  5
2218C
330
22149
100
AcDbEntity
  8
0
  6
CONTINUOUS
100
AcDbLine
 10
30.44581292956759
 20
1.26771480470732
 30
0.0
 11
29.30199999996933
 21
2.411527734305588
 31
0.0
  0
LINE
  5
2218D
330
22149
100
AcDbEntity
  8
0
  6
CONTINUOUS
100
AcDbLine
 10
30.58814428577427
 20
1.798902657580827
 30
0.0
 11
29.30199999996933
 21
3.085046943385775
 31
0.0
  0
LINE
  5
2218E
330
22149
100
AcDbEntity
  8
0
  6
CONTINUOUS
100
AcDbLine
 10
24.256042443999
 20
7.457485290275915
 30
0.0
 11
23.30250855037605
 21
8.411019183898862
 31
0.0
  0
LINE
  5
2218F
330
22149
100
AcDbEntity
  8
0
  6
CONTINUOUS
100
AcDbLine
 10
23.71079143122431
 20
8.676255512130794
 30
0.0
 11
23.51071165584668
 21
8.876335287508418
 31
0.0
  0
LINE
  5
22190
330
22149
100
AcDbEntity
  8
0
  6
CONTINUOUS
100
AcDbLine
 10
30.73047564198095
 20
2.330090510454333
 30
0.0
 11
29.30199999996933
 21
3.758566152465961
 31
0.0
  0
LINE
  5
22191
330
22149
100
AcDbEntity
  8
0
  6
CONTINUOUS
100
AcDbLine
 10
30.74199999996924
 20
2.992085361546236
 30
0.0
 11
29.30199999996933
 21
4.432085361546148
 31
0.0
  0
LINE
  5
22192
330
22149
100
AcDbEntity
  8
0
  6
CONTINUOUS
100
AcDbLine
 10
30.74199999996924
 20
3.665604570626419
 30
0.0
 11
29.30199999996933
 21
5.105604570626333
 31
0.0
  0
LINE
  5
22193
330
22149
100
AcDbEntity
  8
0
  6
CONTINUOUS
100
AcDbLine
 10
30.74199999996925
 20
4.339123779706602
 30
0.0
 11
29.30199999996933
 21
5.77912377970652
 31
0.0
  0
LINE
  5
22194
330
22149
100
AcDbEntity
  8
0
  6
CONTINUOUS
100
AcDbLine
 10
30.74199999996925
 20
5.012642988786785
 30
0.0
 11
29.30199999996933
 21
6.452642988786707
 31
0.0
  0
LINE
  5
22195
330
22149
100
AcDbEntity
  8
0
  6
CONTINUOUS
100
AcDbLine
 10
30.74199999996925
 20
5.68616219786697
 30
0.0
 11
29.30199999996933
 21
7.126162197866894
 31
0.0
  0
LINE
  5
22196
330
22149
100
AcDbEntity
  8
0
  6
CONTINUOUS
100
AcDbLine
 10
30.74199999996925
 20
6.359681406947153
 30
0.0
 11
29.30199999996933
 21
7.799681406947081
 31
0.0
  0
LINE
  5
22197
330
22149
100
AcDbEntity
  8
0
  6
CONTINUOUS
100
AcDbLine
 10
30.74199999996926
 20
7.033200616027337
 30
0.0
 11
29.30199999996933
 21
8.473200616027269
 31
0.0
  0
LINE
  5
22198
330
22149
100
AcDbEntity
  8
0
  6
CONTINUOUS
100
AcDbLine
 10
30.74199999996926
 20
7.706719825107518
 30
0.0
 11
29.68561982508552
 21
8.763099999991255
 31
0.0
  0
LINE
  5
22199
330
22149
100
AcDbEntity
  8
0
  6
CONTINUOUS
100
AcDbLine
 10
30.74199999996926
 20
8.380239034187703
 30
0.0
 11
30.35913903416571
 21
8.763099999991255
 31
0.0
  0
ENDBLK
  5
2223C
330
22149
100
AcDbEntity
  8
0
100
AcDbBlockEnd
  0
BLOCK
  5
2223D
330
2219A
100
AcDbEntity
  8
0
100
AcDbBlockBegin
  2
*X52
 70
     1
 10
0.0
 20
0.0
 30
0.0
  3
*X52
  1

  0
LINE
  5
2219B
330
2219A
100
AcDbEntity
  8
0
  6
CONTINUOUS
100
AcDbLine
 10
31.64199999996833
 20
8.5350582899136
 30
0.0
 11
31.87004171004599
 21
8.763099999991255
 31
0.0
  0
LINE
  5
2219C
330
2219A
100
AcDbEntity
  8
0
  6
CONTINUOUS
100
AcDbLine
 10
31.64199999996833
 20
7.861539080833413
 30
0.0
 11
32.54356091912618
 21
8.763099999991255
 31
0.0
  0
LINE
  5
2219D
330
2219A
100
AcDbEntity
  8
0
  6
CONTINUOUS
100
AcDbLine
 10
31.64199999996833
 20
7.188019871753227
 30
0.0
 11
33.08199999996839
 21
8.628019871753281
 31
0.0
  0
LINE
  5
2219E
330
2219A
100
AcDbEntity
  8
0
  6
CONTINUOUS
100
AcDbLine
 10
31.64199999996833
 20
6.514500662673041
 30
0.0
 11
33.08199999996839
 21
7.954500662673095
 31
0.0
  0
LINE
  5
2219F
330
2219A
100
AcDbEntity
  8
0
  6
CONTINUOUS
100
AcDbLine
 10
31.64199999996833
 20
5.840981453592855
 30
0.0
 11
33.08199999996839
 21
7.28098145359291
 31
0.0
  0
LINE
  5
221A0
330
2219A
100
AcDbEntity
  8
0
  6
CONTINUOUS
100
AcDbLine
 10
31.64199999996833
 20
5.167462244512668
 30
0.0
 11
33.08199999996839
 21
6.607462244512723
 31
0.0
  0
LINE
  5
221A1
330
2219A
100
AcDbEntity
  8
0
  6
CONTINUOUS
100
AcDbLine
 10
31.64199999996833
 20
4.493943035432482
 30
0.0
 11
33.08199999996839
 21
5.933943035432536
 31
0.0
  0
LINE
  5
221A2
330
2219A
100
AcDbEntity
  8
0
  6
CONTINUOUS
100
AcDbLine
 10
31.64199999996833
 20
3.820423826352294
 30
0.0
 11
33.08199999996839
 21
5.260423826352349
 31
0.0
  0
LINE
  5
221A3
330
2219A
100
AcDbEntity
  8
0
  6
CONTINUOUS
100
AcDbLine
 10
31.64199999996833
 20
3.146904617272108
 30
0.0
 11
33.08199999996839
 21
4.586904617272163
 31
0.0
  0
LINE
  5
221A4
330
2219A
100
AcDbEntity
  8
0
  6
CONTINUOUS
100
AcDbLine
 10
36.23199999996837
 20
8.410423826352327
 30
0.0
 11
36.58467617360729
 21
8.763099999991255
 31
0.0
  0
LINE
  5
221A5
330
2219A
100
AcDbEntity
  8
0
  6
CONTINUOUS
100
AcDbLine
 10
36.23199999996837
 20
7.73690461727214
 30
0.0
 11
37.25819538268748
 21
8.763099999991255
 31
0.0
  0
LINE
  5
221A6
330
2219A
100
AcDbEntity
  8
0
  6
CONTINUOUS
100
AcDbLine
 10
31.64323424774199
 20
2.474619655965573
 30
0.0
 11
33.08199999996839
 21
3.913385408191976
 31
0.0
  0
LINE
  5
221A7
330
2219A
100
AcDbEntity
  8
0
  6
CONTINUOUS
100
AcDbLine
 10
31.74419223861915
 20
1.902058437762552
 30
0.0
 11
33.08199999996839
 21
3.239866199111789
 31
0.0
  0
LINE
  5
221A8
330
2219A
100
AcDbEntity
  8
0
  6
CONTINUOUS
100
AcDbLine
 10
36.23199999996837
 20
7.063385408191953
 30
0.0
 11
37.67199999996831
 21
8.503385408191894
 31
0.0
  0
LINE
  5
221A9
330
2219A
100
AcDbEntity
  8
0
  6
CONTINUOUS
100
AcDbLine
 10
36.23199999996837
 20
6.389866199111767
 30
0.0
 11
37.67199999996831
 21
7.829866199111708
 31
0.0
  0
LINE
  5
221AA
330
2219A
100
AcDbEntity
  8
0
  6
CONTINUOUS
100
AcDbLine
 10
31.91111233414976
 20
1.39545932421297
 30
0.0
 11
33.08199999996839
 21
2.566346990031603
 31
0.0
  0
LINE
  5
221AB
330
2219A
100
AcDbEntity
  8
0
  6
CONTINUOUS
100
AcDbLine
 10
36.23199999996837
 20
5.71634699003158
 30
0.0
 11
37.67199999996831
 21
7.156346990031522
 31
0.0
  0
LINE
  5
221AC
330
2219A
100
AcDbEntity
  8
0
  6
CONTINUOUS
100
AcDbLine
 10
32.1576374746103
 20
0.9684652555933289
 30
0.0
 11
33.20642631446081
 21
2.017254095443838
 31
0.0
  0
LINE
  5
221AD
330
2219A
100
AcDbEntity
  8
0
  6
CONTINUOUS
100
AcDbLine
 10
36.23199999996837
 20
5.042827780951393
 30
0.0
 11
37.67199999996831
 21
6.482827780951334
 31
0.0
  0
LINE
  5
221AE
330
2219A
100
AcDbEntity
  8
0
  6
CONTINUOUS
100
AcDbLine
 10
32.47774023927325
 20
0.6150488111760914
 30
0.0
 11
33.49903056428258
 21
1.636339136185419
 31
0.0
  0
LINE
  5
221AF
330
2219A
100
AcDbEntity
  8
0
  6
CONTINUOUS
100
AcDbLine
 10
36.23199999996837
 20
4.369308571871207
 30
0.0
 11
37.67199999996831
 21
5.809308571871148
 31
0.0
  0
LINE
  5
221B0
330
2219A
100
AcDbEntity
  8
0
  6
CONTINUOUS
100
AcDbLine
 10
32.84396249154443
 20
0.3077518543670883
 30
0.0
 11
33.93324121824649
 21
1.397030581069146
 31
0.0
  0
LINE
  5
221B1
330
2219A
100
AcDbEntity
  8
0
  6
CONTINUOUS
100
AcDbLine
 10
36.23199999996837
 20
3.695789362791021
 30
0.0
 11
37.67199999996831
 21
5.135789362790963
 31
0.0
  0
LINE
  5
221B2
330
2219A
100
AcDbEntity
  8
0
  6
CONTINUOUS
100
AcDbLine
 10
33.30186329036846
 20
0.0921334441109263
 30
0.0
 11
34.46442907112041
 21
1.254699224862875
 31
0.0
  0
LINE
  5
221B3
330
2219A
100
AcDbEntity
  8
0
  6
CONTINUOUS
100
AcDbLine
 10
36.23199999996837
 20
3.022270153710834
 30
0.0
 11
37.67199999996831
 21
4.462270153710776
 31
0.0
  0
LINE
  5
221B4
330
2219A
100
AcDbEntity
  8
0
  6
CONTINUOUS
100
AcDbLine
 10
33.79565647746294
 20
-0.0875925778747773
 30
0.0
 11
35.24350171668284
 21
1.360252661345124
 31
0.0
  0
LINE
  5
221B5
330
2219A
100
AcDbEntity
  8
0
  6
CONTINUOUS
100
AcDbLine
 10
36.18336676155003
 20
2.300117706212308
 30
0.0
 11
37.67199999996831
 21
3.788750944630589
 31
0.0
  0
LINE
  5
221B6
330
2219A
100
AcDbEntity
  8
0
  6
CONTINUOUS
100
AcDbLine
 10
34.37182574910968
 20
-0.184942515308224
 30
0.0
 11
37.67199999996831
 21
3.115231735550402
 31
0.0
  0
LINE
  5
221B7
330
2219A
100
AcDbEntity
  8
0
  6
CONTINUOUS
100
AcDbLine
 10
35.0453449581892
 20
-0.1849425153088955
 30
0.0
 11
37.66345697088136
 21
2.433169497383271
 31
0.0
  0
LINE
  5
221B8
330
2219A
100
AcDbEntity
  8
0
  6
CONTINUOUS
100
AcDbLine
 10
35.98667157609191
 20
0.0828648935136398
 30
0.0
 11
37.51927401744566
 21
1.615467334867382
 31
0.0
  0
LINE
  5
221B9
330
2219A
100
AcDbEntity
  8
0
  6
CONTINUOUS
100
AcDbLine
 10
32.27747408544484
 20
0.7830920669904482
 30
0.0
 11
32.24716210471949
 21
0.8134040477157893
 31
0.0
  0
LINE
  5
221BA
330
2219A
100
AcDbEntity
  8
0
  6
CONTINUOUS
100
AcDbLine
 10
33.83656881101902
 20
-0.1024834495035494
 30
0.0
 11
31.72538911593758
 21
2.008696245577891
 31
0.0
  0
LINE
  5
221BB
330
2219A
100
AcDbEntity
  8
0
  6
CONTINUOUS
100
AcDbLine
 10
34.5925470859041
 20
-0.1849425153084434
 30
0.0
 11
31.64199999996833
 21
2.765604570627322
 31
0.0
  0
LINE
  5
221BC
330
2219A
100
AcDbEntity
  8
0
  6
CONTINUOUS
100
AcDbLine
 10
35.26201302775981
 20
-0.1808892480839752
 30
0.0
 11
31.64199999996833
 21
3.439123779707508
 31
0.0
  0
LINE
  5
221BD
330
2219A
100
AcDbEntity
  8
0
  6
CONTINUOUS
100
AcDbLine
 10
35.75580621485512
 20
-0.0011632260990879
 30
0.0
 11
34.51294304365551
 21
1.241699945100514
 31
0.0
  0
LINE
  5
221BE
330
2219A
100
AcDbEntity
  8
0
  6
CONTINUOUS
100
AcDbLine
 10
33.08199999996839
 20
2.672642988787641
 30
0.0
 11
31.64199999996833
 21
4.112642988787695
 31
0.0
  0
LINE
  5
221BF
330
2219A
100
AcDbEntity
  8
0
  6
CONTINUOUS
100
AcDbLine
 10
36.24959940195042
 20
0.1785627958857976
 30
0.0
 11
35.10501653033629
 21
1.323145667499924
 31
0.0
  0
LINE
  5
221C0
330
2219A
100
AcDbEntity
  8
0
  6
CONTINUOUS
100
AcDbLine
 10
33.08199999996839
 20
3.346162197867827
 30
0.0
 11
31.64199999996833
 21
4.786162197867881
 31
0.0
  0
LINE
  5
221C1
330
2219A
100
AcDbEntity
  8
0
  6
CONTINUOUS
100
AcDbLine
 10
36.64615197150552
 20
0.4555294354108876
 30
0.0
 11
35.6362043832099
 21
1.465477023706505
 31
0.0
  0
LINE
  5
221C2
330
2219A
100
AcDbEntity
  8
0
  6
CONTINUOUS
100
AcDbLine
 10
33.08199999996839
 20
4.019681406948013
 30
0.0
 11
31.64199999996833
 21
5.459681406948068
 31
0.0
  0
LINE
  5
221C3
330
2219A
100
AcDbEntity
  8
0
  6
CONTINUOUS
100
AcDbLine
 10
37.0123742237774
 20
0.7628263922191891
 30
0.0
 11
35.97691545773309
 21
1.798285158263504
 31
0.0
  0
LINE
  5
221C4
330
2219A
100
AcDbEntity
  8
0
  6
CONTINUOUS
100
AcDbLine
 10
33.08199999996839
 20
4.6932006160282
 30
0.0
 11
31.64199999996833
 21
6.133200616028255
 31
0.0
  0
LINE
  5
221C5
330
2219A
100
AcDbEntity
  8
0
  6
CONTINUOUS
100
AcDbLine
 10
37.27491524157143
 20
1.173804583505349
 30
0.0
 11
36.17602012811361
 21
2.272699696963169
 31
0.0
  0
LINE
  5
221C6
330
2219A
100
AcDbEntity
  8
0
  6
CONTINUOUS
100
AcDbLine
 10
33.08199999996839
 20
5.366719825108387
 30
0.0
 11
31.64199999996833
 21
6.806719825108441
 31
0.0
  0
LINE
  5
221C7
330
2219A
100
AcDbEntity
  8
0
  6
CONTINUOUS
100
AcDbLine
 10
37.51739996707661
 20
1.604839067080355
 30
0.0
 11
36.23199999996837
 21
2.890239034188595
 31
0.0
  0
LINE
  5
221C8
330
2219A
100
AcDbEntity
  8
0
  6
CONTINUOUS
100
AcDbLine
 10
37.6183579579535
 20
2.177400285283649
 30
0.0
 11
36.23199999996837
 21
3.563758243268782
 31
0.0
  0
LINE
  5
221C9
330
2219A
100
AcDbEntity
  8
0
  6
CONTINUOUS
100
AcDbLine
 10
33.08199999996839
 20
6.040239034188573
 30
0.0
 11
31.64199999996833
 21
7.480239034188628
 31
0.0
  0
LINE
  5
221CA
330
2219A
100
AcDbEntity
  8
0
  6
CONTINUOUS
100
AcDbLine
 10
33.08199999996839
 20
6.713758243268759
 30
0.0
 11
31.64199999996833
 21
8.153758243268815
 31
0.0
  0
LINE
  5
221CB
330
2219A
100
AcDbEntity
  8
0
  6
CONTINUOUS
100
AcDbLine
 10
37.67199999996831
 20
2.797277452349027
 30
0.0
 11
36.23199999996837
 21
4.237277452348969
 31
0.0
  0
LINE
  5
221CC
330
2219A
100
AcDbEntity
  8
0
  6
CONTINUOUS
100
AcDbLine
 10
37.67199999996831
 20
3.470796661429214
 30
0.0
 11
36.23199999996837
 21
4.910796661429155
 31
0.0
  0
LINE
  5
221CD
330
2219A
100
AcDbEntity
  8
0
  6
CONTINUOUS
100
AcDbLine
 10
37.67199999996831
 20
4.1443158705094
 30
0.0
 11
36.23199999996837
 21
5.584315870509341
 31
0.0
  0
LINE
  5
221CE
330
2219A
100
AcDbEntity
  8
0
  6
CONTINUOUS
100
AcDbLine
 10
33.08199999996839
 20
7.387277452348946
 30
0.0
 11
31.70617745232608
 21
8.763099999991255
 31
0.0
  0
LINE
  5
221CF
330
2219A
100
AcDbEntity
  8
0
  6
CONTINUOUS
100
AcDbLine
 10
33.08199999996839
 20
8.060796661429134
 30
0.0
 11
32.37969666140626
 21
8.763099999991255
 31
0.0
  0
LINE
  5
221D0
330
2219A
100
AcDbEntity
  8
0
  6
CONTINUOUS
100
AcDbLine
 10
33.08199999996839
 20
8.734315870509318
 30
0.0
 11
33.05321587048645
 21
8.763099999991255
 31
0.0
  0
LINE
  5
221D1
330
2219A
100
AcDbEntity
  8
0
  6
CONTINUOUS
100
AcDbLine
 10
37.67199999996831
 20
4.817835079589586
 30
0.0
 11
36.23199999996837
 21
6.257835079589528
 31
0.0
  0
LINE
  5
221D2
330
2219A
100
AcDbEntity
  8
0
  6
CONTINUOUS
100
AcDbLine
 10
37.67199999996831
 20
5.491354288669772
 30
0.0
 11
36.23199999996837
 21
6.931354288669715
 31
0.0
  0
LINE
  5
221D3
330
2219A
100
AcDbEntity
  8
0
  6
CONTINUOUS
100
AcDbLine
 10
37.67199999996831
 20
6.164873497749959
 30
0.0
 11
36.23199999996837
 21
7.6048734977499
 31
0.0
  0
LINE
  5
221D4
330
2219A
100
AcDbEntity
  8
0
  6
CONTINUOUS
100
AcDbLine
 10
37.67199999996831
 20
6.838392706830145
 30
0.0
 11
36.23199999996837
 21
8.278392706830086
 31
0.0
  0
LINE
  5
221D5
330
2219A
100
AcDbEntity
  8
0
  6
CONTINUOUS
100
AcDbLine
 10
37.67199999996831
 20
7.511911915910333
 30
0.0
 11
36.42081191588738
 21
8.763099999991255
 31
0.0
  0
LINE
  5
221D6
330
2219A
100
AcDbEntity
  8
0
  6
CONTINUOUS
100
AcDbLine
 10
37.67199999996831
 20
8.185431124990519
 30
0.0
 11
37.09433112496757
 21
8.763099999991255
 31
0.0
  0
ENDBLK
  5
2223E
330
2219A
100
AcDbEntity
  8
0
100
AcDbBlockEnd
  0
BLOCK
  5
2223F
330
221D7
100
AcDbEntity
  8
0
100
AcDbBlockBegin
  2
*X53
 70
     1
 10
0.0
 20
0.0
 30
0.0
  3
*X53
  1

  0
LINE
  5
221D8
330
221D7
100
AcDbEntity
  8
0
  6
CONTINUOUS
100
AcDbLine
 10
38.60499999996136
 20
8.762866199104765
 30
0.0
 11
38.71672554182345
 21
8.874591740966855
 31
0.0
  0
LINE
  5
221D9
330
221D7
100
AcDbEntity
  8
0
  6
CONTINUOUS
100
AcDbLine
 10
38.60499999996136
 20
8.089346990024577
 30
0.0
 11
39.03418785440363
 21
8.518534844466847
 31
0.0
  0
LINE
  5
221DA
330
221D7
100
AcDbEntity
  8
0
  6
CONTINUOUS
100
AcDbLine
 10
38.60499999996136
 20
7.41582778094439
 30
0.0
 11
39.35165016698382
 21
8.16247794796684
 31
0.0
  0
LINE
  5
221DB
330
221D7
100
AcDbEntity
  8
0
  6
CONTINUOUS
100
AcDbLine
 10
38.60499999996136
 20
6.742308571864204
 30
0.0
 11
39.66911247956399
 21
7.806421051466834
 31
0.0
  0
LINE
  5
221DC
330
221D7
100
AcDbEntity
  8
0
  6
CONTINUOUS
100
AcDbLine
 10
38.60499999996136
 20
6.068789362784018
 30
0.0
 11
39.98657479214418
 21
7.450364154966827
 31
0.0
  0
LINE
  5
221DD
330
221D7
100
AcDbEntity
  8
0
  6
CONTINUOUS
100
AcDbLine
 10
38.60499999996136
 20
5.395270153703832
 30
0.0
 11
40.30403710472435
 21
7.09430725846682
 31
0.0
  0
LINE
  5
221DE
330
221D7
100
AcDbEntity
  8
0
  6
CONTINUOUS
100
AcDbLine
 10
38.60499999996136
 20
4.721750944623645
 30
0.0
 11
40.62149941730453
 21
6.738250361966813
 31
0.0
  0
LINE
  5
221DF
330
221D7
100
AcDbEntity
  8
0
  6
CONTINUOUS
100
AcDbLine
 10
38.60499999996136
 20
4.048231735543458
 30
0.0
 11
40.93896172988471
 21
6.382193465466806
 31
0.0
  0
LINE
  5
221E0
330
221D7
100
AcDbEntity
  8
0
  6
CONTINUOUS
100
AcDbLine
 10
38.60499999996136
 20
3.374712526463272
 30
0.0
 11
40.02599999995994
 21
4.795712526461843
 31
0.0
  0
LINE
  5
221E1
330
221D7
100
AcDbEntity
  8
0
  6
CONTINUOUS
100
AcDbLine
 10
38.60499999996136
 20
2.701193317383085
 30
0.0
 11
40.02599999995994
 21
4.122193317381657
 31
0.0
  0
LINE
  5
221E2
330
221D7
100
AcDbEntity
  8
0
  6
CONTINUOUS
100
AcDbLine
 10
40.28339754687704
 20
5.053110073378947
 30
0.0
 11
41.25642404246489
 21
6.026136568966799
 31
0.0
  0
LINE
  5
221E3
330
221D7
100
AcDbEntity
  8
0
  6
CONTINUOUS
100
AcDbLine
 10
40.60085985945722
 20
4.697053176878939
 30
0.0
 11
41.57388635504507
 21
5.670079672466793
 31
0.0
  0
LINE
  5
221E4
330
221D7
100
AcDbEntity
  8
0
  6
CONTINUOUS
100
AcDbLine
 10
43.57899999995641
 20
8.348712526458318
 30
0.0
 11
43.99338747348935
 21
8.763099999991255
 31
0.0
  0
LINE
  5
221E5
330
221D7
100
AcDbEntity
  8
0
  6
CONTINUOUS
100
AcDbLine
 10
43.57899999995641
 20
7.675193317378131
 30
0.0
 11
44.66690668256953
 21
8.763099999991255
 31
0.0
  0
LINE
  5
221E6
330
221D7
100
AcDbEntity
  8
0
  6
CONTINUOUS
100
AcDbLine
 10
38.60499999996136
 20
2.027674108302898
 30
0.0
 11
40.02599999995994
 21
3.44867410830147
 31
0.0
  0
LINE
  5
221E7
330
221D7
100
AcDbEntity
  8
0
  6
CONTINUOUS
100
AcDbLine
 10
38.60499999996136
 20
1.354154899222712
 30
0.0
 11
40.02599999995994
 21
2.775154899221284
 31
0.0
  0
LINE
  5
221E8
330
221D7
100
AcDbEntity
  8
0
  6
CONTINUOUS
100
AcDbLine
 10
38.60499999996136
 20
0.6806356901425255
 30
0.0
 11
40.02599999995994
 21
2.101635690141098
 31
0.0
  0
LINE
  5
221E9
330
221D7
100
AcDbEntity
  8
0
  6
CONTINUOUS
100
AcDbLine
 10
38.60499999996136
 20
0.0071164810623383
 30
0.0
 11
40.02599999995994
 21
1.428116481060911
 31
0.0
  0
LINE
  5
221EA
330
221D7
100
AcDbEntity
  8
0
  6
CONTINUOUS
100
AcDbLine
 10
40.9183221720374
 20
4.340996280378933
 30
0.0
 11
41.89134866762525
 21
5.314022775966786
 31
0.0
  0
LINE
  5
221EB
330
221D7
100
AcDbEntity
  8
0
  6
CONTINUOUS
100
AcDbLine
 10
41.23578448461758
 20
3.984939383878926
 30
0.0
 11
42.20881098020543
 21
4.957965879466778
 31
0.0
  0
LINE
  5
221EC
330
221D7
100
AcDbEntity
  8
0
  6
CONTINUOUS
100
AcDbLine
 10
41.55324679719776
 20
3.628882487378919
 30
0.0
 11
42.52627329278561
 21
4.601908982966772
 31
0.0
  0
LINE
  5
221ED
330
221D7
100
AcDbEntity
  8
0
  6
CONTINUOUS
100
AcDbLine
 10
41.87070910977793
 20
3.272825590878912
 30
0.0
 11
42.84373560536579
 21
4.245852086466765
 31
0.0
  0
LINE
  5
221EE
330
221D7
100
AcDbEntity
  8
0
  6
CONTINUOUS
100
AcDbLine
 10
43.57899999995641
 20
7.001674108297943
 30
0.0
 11
44.99999999995498
 21
8.422674108296516
 31
0.0
  0
LINE
  5
221EF
330
221D7
100
AcDbEntity
  8
0
  6
CONTINUOUS
100
AcDbLine
 10
43.57899999995641
 20
6.328154899217758
 30
0.0
 11
44.99999999995498
 21
7.749154899216329
 31
0.0
  0
LINE
  5
221F0
330
221D7
100
AcDbEntity
  8
0
  6
CONTINUOUS
100
AcDbLine
 10
43.57899999995641
 20
5.654635690137571
 30
0.0
 11
44.99999999995498
 21
7.075635690136142
 31
0.0
  0
LINE
  5
221F1
330
221D7
100
AcDbEntity
  8
0
  6
CONTINUOUS
100
AcDbLine
 10
43.57899999995641
 20
4.981116481057384
 30
0.0
 11
44.99999999995498
 21
6.402116481055955
 31
0.0
  0
LINE
  5
221F2
330
221D7
100
AcDbEntity
  8
0
  6
CONTINUOUS
100
AcDbLine
 10
39.27140272797921
 20
-0.0000000000000009
 30
0.0
 11
40.02599999995994
 21
0.7545972719807246
 31
0.0
  0
LINE
  5
221F3
330
221D7
100
AcDbEntity
  8
0
  6
CONTINUOUS
100
AcDbLine
 10
39.9449219370594
 20
-0.0000000000000009
 30
0.0
 11
40.02599999995994
 21
0.0810780629005379
 31
0.0
  0
LINE
  5
221F4
330
221D7
100
AcDbEntity
  8
0
  6
CONTINUOUS
100
AcDbLine
 10
42.18817142235812
 20
2.916768694378905
 30
0.0
 11
43.16119791794597
 21
3.889795189966758
 31
0.0
  0
LINE
  5
221F5
330
221D7
100
AcDbEntity
  8
0
  6
CONTINUOUS
100
AcDbLine
 10
42.50563373493829
 20
2.560711797878898
 30
0.0
 11
43.47866023052615
 21
3.533738293466751
 31
0.0
  0
LINE
  5
221F6
330
221D7
100
AcDbEntity
  8
0
  6
CONTINUOUS
100
AcDbLine
 10
43.57899999995641
 20
4.307597271977198
 30
0.0
 11
44.99999999995498
 21
5.728597271975769
 31
0.0
  0
LINE
  5
221F7
330
221D7
100
AcDbEntity
  8
0
  6
CONTINUOUS
100
AcDbLine
 10
43.57899999995641
 20
3.634078062897011
 30
0.0
 11
44.99999999995498
 21
5.055078062895582
 31
0.0
  0
LINE
  5
221F8
330
221D7
100
AcDbEntity
  8
0
  6
CONTINUOUS
100
AcDbLine
 10
42.82309604751848
 20
2.204654901378891
 30
0.0
 11
44.99999999995498
 21
4.381558853815395
 31
0.0
  0
LINE
  5
221F9
330
221D7
100
AcDbEntity
  8
0
  6
CONTINUOUS
100
AcDbLine
 10
43.14055836009865
 20
1.848598004878885
 30
0.0
 11
44.99999999995498
 21
3.70803964473521
 31
0.0
  0
LINE
  5
221FA
330
221D7
100
AcDbEntity
  8
0
  6
CONTINUOUS
100
AcDbLine
 10
43.45802067267883
 20
1.492541108378878
 30
0.0
 11
44.99999999995498
 21
3.034520435655023
 31
0.0
  0
LINE
  5
221FB
330
221D7
100
AcDbEntity
  8
0
  6
CONTINUOUS
100
AcDbLine
 10
43.77548298525902
 20
1.136484211878871
 30
0.0
 11
44.99999999995498
 21
2.361001226574837
 31
0.0
  0
LINE
  5
221FC
330
221D7
100
AcDbEntity
  8
0
  6
CONTINUOUS
100
AcDbLine
 10
44.09294529783919
 20
0.7804273153788639
 30
0.0
 11
44.99999999995498
 21
1.687482017494649
 31
0.0
  0
LINE
  5
221FD
330
221D7
100
AcDbEntity
  8
0
  6
CONTINUOUS
100
AcDbLine
 10
44.41040761041938
 20
0.4243704188788566
 30
0.0
 11
44.99999999995498
 21
1.013962808414463
 31
0.0
  0
LINE
  5
221FE
330
221D7
100
AcDbEntity
  8
0
  6
CONTINUOUS
100
AcDbLine
 10
44.72786992299955
 20
0.0683135223788494
 30
0.0
 11
44.99999999995498
 21
0.340443599334276
 31
0.0
  0
LINE
  5
221FF
330
221D7
100
AcDbEntity
  8
0
  6
CONTINUOUS
100
AcDbLine
 10
39.12223903415696
 20
-0.0000000000000009
 30
0.0
 11
38.60499999996136
 21
0.5172390341955961
 31
0.0
  0
LINE
  5
22200
330
221D7
100
AcDbEntity
  8
0
  6
CONTINUOUS
100
AcDbLine
 10
39.79575824323715
 20
-0.0000000000000009
 30
0.0
 11
38.60499999996136
 21
1.190758243275783
 31
0.0
  0
LINE
  5
22201
330
221D7
100
AcDbEntity
  8
0
  6
CONTINUOUS
100
AcDbLine
 10
40.02599999995994
 20
0.443277452357397
 30
0.0
 11
38.60499999996136
 21
1.864277452355969
 31
0.0
  0
LINE
  5
22202
330
221D7
100
AcDbEntity
  8
0
  6
CONTINUOUS
100
AcDbLine
 10
40.02599999995994
 20
1.116796661437583
 30
0.0
 11
38.60499999996136
 21
2.537796661436155
 31
0.0
  0
LINE
  5
22203
330
221D7
100
AcDbEntity
  8
0
  6
CONTINUOUS
100
AcDbLine
 10
40.02599999995994
 20
1.79031587051777
 30
0.0
 11
38.60499999996136
 21
3.211315870516341
 31
0.0
  0
LINE
  5
22204
330
221D7
100
AcDbEntity
  8
0
  6
CONTINUOUS
100
AcDbLine
 10
40.02599999995994
 20
2.463835079597956
 30
0.0
 11
38.60499999996136
 21
3.884835079596527
 31
0.0
  0
LINE
  5
22205
330
221D7
100
AcDbEntity
  8
0
  6
CONTINUOUS
100
AcDbLine
 10
40.02599999995994
 20
3.137354288678143
 30
0.0
 11
38.60499999996136
 21
4.558354288676714
 31
0.0
  0
LINE
  5
22206
330
221D7
100
AcDbEntity
  8
0
  6
CONTINUOUS
100
AcDbLine
 10
40.02599999995994
 20
3.810873497758329
 30
0.0
 11
38.60499999996136
 21
5.2318734977569
 31
0.0
  0
LINE
  5
22207
330
221D7
100
AcDbEntity
  8
0
  6
CONTINUOUS
100
AcDbLine
 10
40.02599999995994
 20
4.484392706838515
 30
0.0
 11
38.60499999996136
 21
5.905392706837086
 31
0.0
  0
LINE
  5
22208
330
221D7
100
AcDbEntity
  8
0
  6
CONTINUOUS
100
AcDbLine
 10
44.99999999995498
 20
0.183911915923658
 30
0.0
 11
41.53858364506288
 21
3.64532827081576
 31
0.0
  0
LINE
  5
22209
330
221D7
100
AcDbEntity
  8
0
  6
CONTINUOUS
100
AcDbLine
 10
40.02599999995994
 20
5.157911915918703
 30
0.0
 11
38.60499999996136
 21
6.578911915917274
 31
0.0
  0
LINE
  5
2220A
330
221D7
100
AcDbEntity
  8
0
  6
CONTINUOUS
100
AcDbLine
 10
44.99999999995498
 20
0.8574311250038447
 30
0.0
 11
38.60499999996136
 21
7.25243112499746
 31
0.0
  0
LINE
  5
2220B
330
221D7
100
AcDbEntity
  8
0
  6
CONTINUOUS
100
AcDbLine
 10
44.99999999995498
 20
1.530950334084031
 30
0.0
 11
38.60499999996136
 21
7.925950334077647
 31
0.0
  0
LINE
  5
2220C
330
221D7
100
AcDbEntity
  8
0
  6
CONTINUOUS
100
AcDbLine
 10
44.99999999995498
 20
2.204469543164218
 30
0.0
 11
43.57899999995641
 21
3.625469543162789
 31
0.0
  0
LINE
  5
2220D
330
221D7
100
AcDbEntity
  8
0
  6
CONTINUOUS
100
AcDbLine
 10
41.89876730984767
 20
5.305702233271528
 30
0.0
 11
38.60499999996136
 21
8.599469543157834
 31
0.0
  0
LINE
  5
2220E
330
221D7
100
AcDbEntity
  8
0
  6
CONTINUOUS
100
AcDbLine
 10
44.99999999995498
 20
2.877988752244405
 30
0.0
 11
43.57899999995641
 21
4.298988752242975
 31
0.0
  0
LINE
  5
2220F
330
221D7
100
AcDbEntity
  8
0
  6
CONTINUOUS
100
AcDbLine
 10
44.99999999995498
 20
3.551507961324591
 30
0.0
 11
43.57899999995641
 21
4.972507961323163
 31
0.0
  0
LINE
  5
22210
330
221D7
100
AcDbEntity
  8
0
  6
CONTINUOUS
100
AcDbLine
 10
44.99999999995498
 20
4.225027170404777
 30
0.0
 11
43.57899999995641
 21
5.646027170403348
 31
0.0
  0
LINE
  5
22211
330
221D7
100
AcDbEntity
  8
0
  6
CONTINUOUS
100
AcDbLine
 10
44.99999999995498
 20
4.898546379484964
 30
0.0
 11
43.57899999995641
 21
6.319546379483535
 31
0.0
  0
LINE
  5
22212
330
221D7
100
AcDbEntity
  8
0
  6
CONTINUOUS
100
AcDbLine
 10
44.99999999995498
 20
5.572065588565151
 30
0.0
 11
43.57899999995641
 21
6.993065588563722
 31
0.0
  0
LINE
  5
22213
330
221D7
100
AcDbEntity
  8
0
  6
CONTINUOUS
100
AcDbLine
 10
44.99999999995498
 20
6.245584797645336
 30
0.0
 11
43.57899999995641
 21
7.666584797643908
 31
0.0
  0
LINE
  5
22214
330
221D7
100
AcDbEntity
  8
0
  6
CONTINUOUS
100
AcDbLine
 10
44.99999999995498
 20
6.919104006725522
 30
0.0
 11
43.57899999995641
 21
8.340104006724093
 31
0.0
  0
LINE
  5
22215
330
221D7
100
AcDbEntity
  8
0
  6
CONTINUOUS
100
AcDbLine
 10
44.99999999995498
 20
7.592623215805709
 30
0.0
 11
43.82952321576943
 21
8.763099999991255
 31
0.0
  0
LINE
  5
22216
330
221D7
100
AcDbEntity
  8
0
  6
CONTINUOUS
100
AcDbLine
 10
44.99999999995498
 20
8.266142424885896
 30
0.0
 11
44.50304242484962
 21
8.763099999991255
 31
0.0
  0
ENDBLK
  5
22240
330
221D7
100
AcDbEntity
  8
0
100
AcDbBlockEnd
  0
BLOCK
  5
22241
330
22217
100
AcDbEntity
  8
0
100
AcDbBlockBegin
  2
*X54
 70
     1
 10
0.0
 20
0.0
 30
0.0
  3
*X54
  1

  0
LINE
  5
22218
330
22217
100
AcDbEntity
  8
0
  6
CONTINUOUS
100
AcDbLine
 10
0.0
 20
8.548461116714023
 30
0.0
 11
0.2146388832772324
 21
8.763099999991255
 31
0.0
  0
LINE
  5
22219
330
22217
100
AcDbEntity
  8
0
  6
CONTINUOUS
100
AcDbLine
 10
-0.0000000000000002
 20
7.874941907633837
 30
0.0
 11
0.8881580923574184
 21
8.763099999991255
 31
0.0
  0
LINE
  5
2221A
330
22217
100
AcDbEntity
  8
0
  6
CONTINUOUS
100
AcDbLine
 10
0.0
 20
7.20142269855365
 30
0.0
 11
1.420999999998572
 21
8.622422698552223
 31
0.0
  0
LINE
  5
2221B
330
22217
100
AcDbEntity
  8
0
  6
CONTINUOUS
100
AcDbLine
 10
-0.0000000000000001
 20
6.527903489473465
 30
0.0
 11
1.420999999998571
 21
7.948903489472036
 31
0.0
  0
LINE
  5
2221C
330
22217
100
AcDbEntity
  8
0
  6
CONTINUOUS
100
AcDbLine
 10
-0.0000000000000002
 20
5.854384280393278
 30
0.0
 11
1.420999999998571
 21
7.275384280391849
 31
0.0
  0
LINE
  5
2221D
330
22217
100
AcDbEntity
  8
0
  6
CONTINUOUS
100
AcDbLine
 10
-0.0000000000000002
 20
5.180865071313091
 30
0.0
 11
1.420999999998571
 21
6.601865071311663
 31
0.0
  0
LINE
  5
2221E
330
22217
100
AcDbEntity
  8
0
  6
CONTINUOUS
100
AcDbLine
 10
0.0
 20
4.507345862232905
 30
0.0
 11
1.420999999998571
 21
5.928345862231477
 31
0.0
  0
LINE
  5
2221F
330
22217
100
AcDbEntity
  8
0
  6
CONTINUOUS
100
AcDbLine
 10
-0.0000000000000003
 20
3.833826653152718
 30
0.0
 11
1.420999999998571
 21
5.25482665315129
 31
0.0
  0
LINE
  5
22220
330
22217
100
AcDbEntity
  8
0
  6
CONTINUOUS
100
AcDbLine
 10
-0.0000000000000002
 20
3.160307444072532
 30
0.0
 11
1.420999999998571
 21
4.581307444071103
 31
0.0
  0
LINE
  5
22221
330
22217
100
AcDbEntity
  8
0
  6
CONTINUOUS
100
AcDbLine
 10
-0.0000000000000001
 20
2.486788234992345
 30
0.0
 11
1.420999999998571
 21
3.907788234990917
 31
0.0
  0
LINE
  5
22222
330
22217
100
AcDbEntity
  8
0
  6
CONTINUOUS
100
AcDbLine
 10
-0.0000000000000006
 20
1.813269025912159
 30
0.0
 11
1.420999999998571
 21
3.234269025910731
 31
0.0
  0
LINE
  5
22223
330
22217
100
AcDbEntity
  8
0
  6
CONTINUOUS
100
AcDbLine
 10
0.0
 20
1.139749816831973
 30
0.0
 11
1.420999999998571
 21
2.560749816830544
 31
0.0
  0
LINE
  5
22224
330
22217
100
AcDbEntity
  8
0
  6
CONTINUOUS
100
AcDbLine
 10
0.0000000000000002
 20
0.466230607751787
 30
0.0
 11
1.420999999998571
 21
1.887230607750358
 31
0.0
  0
LINE
  5
22225
330
22217
100
AcDbEntity
  8
0
  6
CONTINUOUS
100
AcDbLine
 10
0.2072886013284003
 20
-0.0000000000000009
 30
0.0
 11
1.420999999998571
 21
1.213711398670171
 31
0.0
  0
LINE
  5
22226
330
22217
100
AcDbEntity
  8
0
  6
CONTINUOUS
100
AcDbLine
 10
0.8808078104085864
 20
-0.0000000000000009
 30
0.0
 11
1.420999999998571
 21
0.5401921895899839
 31
0.0
  0
LINE
  5
22227
330
22217
100
AcDbEntity
  8
0
  6
CONTINUOUS
100
AcDbLine
 10
0.0581249075061505
 20
-0.0000000000000009
 30
0.0
 11
-0.0000000000000002
 21
0.0581249075061496
 31
0.0
  0
LINE
  5
22228
330
22217
100
AcDbEntity
  8
0
  6
CONTINUOUS
100
AcDbLine
 10
0.7316441165863372
 20
-0.0000000000000009
 30
0.0
 11
-0.0000000000000002
 21
0.7316441165863363
 31
0.0
  0
LINE
  5
22229
330
22217
100
AcDbEntity
  8
0
  6
CONTINUOUS
100
AcDbLine
 10
1.405163325666523
 20
-0.0000000000000009
 30
0.0
 11
-0.0000000000000002
 21
1.405163325666523
 31
0.0
  0
LINE
  5
2222A
330
22217
100
AcDbEntity
  8
0
  6
CONTINUOUS
100
AcDbLine
 10
1.420999999998572
 20
0.6576825347481381
 30
0.0
 11
-0.0000000000000001
 21
2.07868253474671
 31
0.0
  0
LINE
  5
2222B
330
22217
100
AcDbEntity
  8
0
  6
CONTINUOUS
100
AcDbLine
 10
1.420999999998571
 20
1.331201743828324
 30
0.0
 11
-0.0000000000000001
 21
2.752201743826896
 31
0.0
  0
LINE
  5
2222C
330
22217
100
AcDbEntity
  8
0
  6
CONTINUOUS
100
AcDbLine
 10
1.420999999998571
 20
2.004720952908511
 30
0.0
 11
-0.0000000000000002
 21
3.425720952907082
 31
0.0
  0
LINE
  5
2222D
330
22217
100
AcDbEntity
  8
0
  6
CONTINUOUS
100
AcDbLine
 10
1.420999999998571
 20
2.678240161988697
 30
0.0
 11
-0.0000000000000001
 21
4.099240161987269
 31
0.0
  0
LINE
  5
2222E
330
22217
100
AcDbEntity
  8
0
  6
CONTINUOUS
100
AcDbLine
 10
1.420999999998572
 20
3.351759371068884
 30
0.0
 11
0.0
 21
4.772759371067455
 31
0.0
  0
LINE
  5
2222F
330
22217
100
AcDbEntity
  8
0
  6
CONTINUOUS
100
AcDbLine
 10
1.420999999998571
 20
4.02527858014907
 30
0.0
 11
-0.0000000000000003
 21
5.446278580147642
 31
0.0
  0
LINE
  5
22230
330
22217
100
AcDbEntity
  8
0
  6
CONTINUOUS
100
AcDbLine
 10
1.420999999998571
 20
4.698797789229257
 30
0.0
 11
0.0
 21
6.119797789227828
 31
0.0
  0
LINE
  5
22231
330
22217
100
AcDbEntity
  8
0
  6
CONTINUOUS
100
AcDbLine
 10
1.420999999998571
 20
5.372316998309444
 30
0.0
 11
-0.0000000000000001
 21
6.793316998308015
 31
0.0
  0
LINE
  5
22232
330
22217
100
AcDbEntity
  8
0
  6
CONTINUOUS
100
AcDbLine
 10
1.420999999998572
 20
6.045836207389629
 30
0.0
 11
-0.0000000000000004
 21
7.466836207388202
 31
0.0
  0
LINE
  5
22233
330
22217
100
AcDbEntity
  8
0
  6
CONTINUOUS
100
AcDbLine
 10
1.420999999998571
 20
6.719355416469816
 30
0.0
 11
0.0
 21
8.140355416468388
 31
0.0
  0
LINE
  5
22234
330
22217
100
AcDbEntity
  8
0
  6
CONTINUOUS
100
AcDbLine
 10
1.420999999998571
 20
7.392874625550003
 30
0.0
 11
0.0507746255573185
 21
8.763099999991255
 31
0.0
  0
LINE
  5
22235
330
22217
100
AcDbEntity
  8
0
  6
CONTINUOUS
100
AcDbLine
 10
1.420999999998571
 20
8.06639383463019
 30
0.0
 11
0.7242938346375052
 21
8.763099999991255
 31
0.0
  0
LINE
  5
22236
330
22217
100
AcDbEntity
  8
0
  6
CONTINUOUS
100
AcDbLine
 10
1.420999999998571
 20
8.739913043710375
 30
0.0
 11
1.397813043717691
 21
8.763099999991255
 31
0.0
  0
ENDBLK
  5
22242
330
22217
100
AcDbEntity
  8
0
100
AcDbBlockEnd
  0
ENDSEC
  0
SECTION
  2
ENTITIES
  0
LINE
  5
1D8CA
330
18
100
AcDbEntity
  8
01
100
AcDbLine
 10
743.016241615365
 20
-650.6713303512659
 30
0.0
 11
743.016241615365
 21
-672.8213303512673
 31
0.0
  0
LINE
  5
1D90A
330
18
100
AcDbEntity
  8
01
100
AcDbLine
 10
743.016241615365
 20
-653.1713303512665
 30
0.0
 11
743.016241615365
 21
-670.8213303512659
 31
0.0
  0
TEXT
  5
1DB9B
330
18
100
AcDbEntity
  8
1TEXT
100
AcDbText
 10
539.6325938370362
 20
-462.2204305540536
 30
0.0
 40
8.0
  1
SE-171-XXL
100
AcDbText
  0
LINE
  5
1DBA4
102
{ACAD_REACTORS
330
1EDFD
102
}
330
18
100
AcDbEntity
  8
01
100
AcDbLine
 10
755.516241615365
 20
-605.5394178870458
 30
0.0
 11
755.516241615365
 21
-679.9957650576096
 31
0.0
  0
LINE
  5
1DBA5
102
{ACAD_REACTORS
330
1EDFD
102
}
330
18
100
AcDbEntity
  8
01
100
AcDbLine
 10
764.516241615365
 20
-605.5394178870458
 30
0.0
 11
764.516241615365
 21
-679.9957650576096
 31
0.0
  0
LINE
  5
1DBA6
102
{ACAD_REACTORS
330
1EDFD
102
}
330
18
100
AcDbEntity
  8
01
100
AcDbLine
 10
743.016241615365
 20
-605.5394178870458
 30
0.0
 11
743.016241615365
 21
-679.9957650576096
 31
0.0
  0
LINE
  5
1E9D4
102
{ACAD_REACTORS
330
1E9DA
102
}
330
18
100
AcDbEntity
  8
01
100
AcDbLine
 10
629.766249329551
 20
-539.8213303512664
 30
0.0
 11
628.766249629551
 21
-538.8213303512664
 31
0.0
  0
LINE
  5
1E9D5
102
{ACAD_REACTORS
330
1E9DA
102
}
330
18
100
AcDbEntity
  8
01
100
AcDbLine
 10
633.066249479551
 20
-539.8213303512664
 30
0.0
 11
633.066249479551
 21
-538.8213303512664
 31
0.0
  0
LINE
  5
1E9D6
102
{ACAD_REACTORS
330
1E9DA
102
}
330
18
100
AcDbEntity
  8
01
100
AcDbLine
 10
633.066249479551
 20
-538.8213303512664
 30
0.0
 11
625.466249479551
 21
-538.8213303512664
 31
0.0
  0
LINE
  5
1E9D7
102
{ACAD_REACTORS
330
1E9DA
102
}
330
18
100
AcDbEntity
  8
01
100
AcDbLine
 10
633.066249479551
 20
-539.8213303512664
 30
0.0
 11
625.466249479551
 21
-539.8213303512664
 31
0.0
  0
LINE
  5
1E9D8
102
{ACAD_REACTORS
330
1E9DA
102
}
330
18
100
AcDbEntity
  8
01
100
AcDbLine
 10
625.466249479551
 20
-539.8213303512664
 30
0.0
 11
625.466249479551
 21
-538.8213303512664
 31
0.0
  0
LINE
  5
1E9EB
102
{ACAD_REACTORS
330
1E9F1
102
}
330
18
100
AcDbEntity
  8
01
100
AcDbLine
 10
-70.23374753360514
 20
-539.8213291369382
 30
0.0
 11
-71.23374723360513
 21
-538.8213291369382
 31
0.0
  0
LINE
  5
1E9EC
102
{ACAD_REACTORS
330
1E9F1
102
}
330
18
100
AcDbEntity
  8
01
100
AcDbLine
 10
-66.93374738360518
 20
-539.8213291369382
 30
0.0
 11
-66.93374738360518
 21
-538.8213291369382
 31
0.0
  0
LINE
  5
1E9ED
102
{ACAD_REACTORS
330
1E9F1
102
}
330
18
100
AcDbEntity
  8
01
100
AcDbLine
 10
-66.93374738360518
 20
-538.8213291369382
 30
0.0
 11
-74.53374738360509
 21
-538.8213291369382
 31
0.0
  0
LINE
  5
1E9EE
102
{ACAD_REACTORS
330
1E9F1
102
}
330
18
100
AcDbEntity
  8
01
100
AcDbLine
 10
-66.93374738360518
 20
-539.8213291369382
 30
0.0
 11
-74.53374738360509
 21
-539.8213291369382
 31
0.0
  0
LINE
  5
1E9EF
102
{ACAD_REACTORS
330
1E9F1
102
}
330
18
100
AcDbEntity
  8
01
100
AcDbLine
 10
-74.53374738360509
 20
-539.8213291369382
 30
0.0
 11
-74.53374738360509
 21
-538.8213291369382
 31
0.0
  0
LINE
  5
1EBEF
102
{ACAD_REACTORS
330
1EBF5
102
}
330
18
100
AcDbEntity
  8
01
100
AcDbLine
 10
739.016241615365
 20
-641.8215697249707
 30
0.0
 11
740.016241615365
 21
-640.8215700249707
 31
0.0
  0
LINE
  5
1EBF0
102
{ACAD_REACTORS
330
1EBF5
102
}
330
18
100
AcDbEntity
  8
01
100
AcDbLine
 10
739.016241615365
 20
-645.1215698749706
 30
0.0
 11
740.016241615365
 21
-645.1215698749706
 31
0.0
  0
LINE
  5
1EBF1
102
{ACAD_REACTORS
330
1EBF5
102
}
330
18
100
AcDbEntity
  8
01
100
AcDbLine
 10
740.016241615365
 20
-645.1215698749706
 30
0.0
 11
740.016241615365
 21
-637.5215698749707
 31
0.0
  0
LINE
  5
1EBF2
102
{ACAD_REACTORS
330
1EBF5
102
}
330
18
100
AcDbEntity
  8
01
100
AcDbLine
 10
739.016241615365
 20
-645.1215698749706
 30
0.0
 11
739.016241615365
 21
-637.5215698749707
 31
0.0
  0
LINE
  5
1EBF3
102
{ACAD_REACTORS
330
1EBF5
102
}
330
18
100
AcDbEntity
  8
01
100
AcDbLine
 10
739.016241615365
 20
-637.5215698749707
 30
0.0
 11
740.016241615365
 21
-637.5215698749707
 31
0.0
  0
LINE
  5
20D79
102
{ACAD_REACTORS
330
20F73
102
}
330
18
100
AcDbEntity
  8
01
100
AcDbLine
 10
723.2662416153648
 20
-654.3215626909025
 30
0.0
 11
743.016241615365
 21
-654.3215698718666
 31
0.0
  0
LINE
  5
20D7D
102
{ACAD_REACTORS
330
20F73
102
}
330
18
100
AcDbEntity
  8
01
100
AcDbLine
 10
743.016241615365
 20
-630.3215698718664
 30
0.0
 11
743.016241615365
 21
-654.3215698718666
 31
0.0
  0
ARC
  5
20D93
102
{ACAD_REACTORS
330
20F73
102
}
330
18
100
AcDbEntity
  8
01
100
AcDbCircle
 10
722.0516652649931
 20
-656.0321212164733
 30
0.0
 40
2.086652466974475
100
AcDbArc
 50
68.89790146739104
 51
128.226652925397
  0
ARC
  5
20D94
102
{ACAD_REACTORS
330
20F73
102
}
330
18
100
AcDbEntity
  8
01
100
AcDbCircle
 10
716.6966591503297
 20
-666.6375091645901
 30
0.0
 40
13.95857984565889
100
AcDbArc
 50
61.92360993264958
 51
64.05831855587611
  0
ARC
  5
20D9B
102
{ACAD_REACTORS
330
20F74
102
}
330
18
100
AcDbEntity
  8
01
100
AcDbCircle
 10
616.5162457871521
 20
-662.8404792604036
 30
0.0
 40
1.00000103480239
100
AcDbArc
 50
179.9999407148185
 51
269.9999407102719
  0
ARC
  5
20D9C
102
{ACAD_REACTORS
330
20F74
102
}
330
18
100
AcDbEntity
  8
01
100
AcDbCircle
 10
616.5162453502666
 20
-629.8026600462621
 30
0.0
 40
1.000000597917524
100
AcDbArc
 50
90.00003566485634
 51
180.0000843697568
  0
ARC
  5
20D9D
102
{ACAD_REACTORS
330
20F74
102
}
330
18
100
AcDbEntity
  8
01
100
AcDbCircle
 10
642.0162410174496
 20
-629.8026600462613
 30
0.0
 40
1.000000597916775
100
AcDbArc
 50
359.9999156301976
 51
89.99996574197512
  0
LINE
  5
20D9E
102
{ACAD_REACTORS
330
20F74
102
}
330
18
100
AcDbEntity
  8
01
100
AcDbLine
 10
643.0162416153653
 20
-662.8351754989345
 30
0.0
 11
643.0162416153653
 21
-662.8297587983703
 31
0.0
  0
LINE
  5
20D9F
102
{ACAD_REACTORS
330
20F74
102
}
330
18
100
AcDbEntity
  8
01
100
AcDbLine
 10
643.0162416153653
 20
-662.839803074843
 30
0.0
 11
643.0162416153653
 21
-662.8392877475148
 31
0.0
  0
ARC
  5
20DA0
102
{ACAD_REACTORS
330
20F74
102
}
330
18
100
AcDbEntity
  8
01
100
AcDbCircle
 10
642.0162405805631
 20
-662.8404792604035
 30
0.0
 40
1.000001034802589
100
AcDbArc
 50
270.0000592897412
 51
0.0000592851750235
  0
LINE
  5
20DA1
102
{ACAD_REACTORS
330
20F74
102
}
330
18
100
AcDbEntity
  8
01
100
AcDbLine
 10
642.0323762510918
 20
-663.8403501069346
 30
0.0
 11
616.516247340657
 21
-663.8403501069346
 31
0.0
  0
LINE
  5
20DA2
102
{ACAD_REACTORS
330
20F74
102
}
330
18
100
AcDbEntity
  8
01
100
AcDbLine
 10
616.5162447523501
 20
-628.802789636796
 30
0.0
 11
642.0323766956069
 21
-628.802789636796
 31
0.0
  0
LINE
  5
20DA4
102
{ACAD_REACTORS
330
20F74
102
}
330
18
100
AcDbEntity
  8
01
100
AcDbLine
 10
615.51624475235
 20
-629.8026600462621
 30
0.0
 11
615.5162447523502
 21
-662.8404792604036
 31
0.0
  0
LINE
  5
20DA6
102
{ACAD_REACTORS
330
20F74
102
}
330
18
100
AcDbEntity
  8
01
100
AcDbLine
 10
643.0162416153652
 20
-662.8297587983712
 30
0.0
 11
643.0162416153653
 21
-629.8026600462613
 31
0.0
  0
LINE
  5
20DA7
102
{ACAD_REACTORS
330
20F74
102
}
330
18
100
AcDbEntity
  8
01
100
AcDbLine
 10
643.0162416153652
 20
-662.8400427642275
 30
0.0
 11
643.0162416153652
 21
-662.8351754992358
 31
0.0
  0
LINE
  5
20DA8
102
{ACAD_REACTORS
330
20F74
102
}
330
18
100
AcDbEntity
  8
01
100
AcDbLine
 10
629.2662416232799
 20
-628.8033755992238
 30
0.0
 11
629.2662416253079
 21
-628.8027925900074
 31
0.0
  0
LINE
  5
20DA9
102
{ACAD_REACTORS
330
20F74
102
}
330
18
100
AcDbEntity
  8
01
100
AcDbLine
 10
629.2662416253079
 20
-628.8027925900074
 30
0.0
 11
629.2662416273477
 21
-628.803225679671
 31
0.0
  0
ARC
  5
20DAB
102
{ACAD_REACTORS
330
20F72
102
}
330
18
100
AcDbEntity
  8
01
100
AcDbCircle
 10
616.5162984435129
 20
-593.2470478417914
 30
0.0
 40
1.000045831131242
100
AcDbArc
 50
179.9973746917229
 51
269.9973742501091
  0
LINE
  5
20DAC
102
{ACAD_REACTORS
330
20F72
102
}
330
18
100
AcDbEntity
  8
01
100
AcDbLine
 10
615.5162526134316
 20
-593.1860198281234
 30
0.0
 11
615.5162526134316
 21
-593.246326589131
 31
0.0
  0
LINE
  5
20DAD
102
{ACAD_REACTORS
330
20F72
102
}
330
18
100
AcDbEntity
  8
01
100
AcDbLine
 10
615.5162526134317
 20
-536.8213228686709
 30
0.0
 11
615.5162526134317
 21
-536.8262440491837
 31
0.0
  0
ARC
  5
20DAE
102
{ACAD_REACTORS
330
20F72
102
}
330
18
100
AcDbEntity
  8
01
100
AcDbCircle
 10
616.5162984901152
 20
-536.8212386096336
 30
0.0
 40
1.000045877735605
100
AcDbArc
 50
90.00263019743781
 51
180.002627979221
  0
ARC
  5
20DAF
102
{ACAD_REACTORS
330
20F72
102
}
330
18
100
AcDbEntity
  8
01
100
AcDbCircle
 10
642.0162028834394
 20
-536.8212371773895
 30
0.0
 40
1.000046594092429
100
AcDbArc
 50
359.9973309965909
 51
89.99732865776572
  0
LINE
  5
20DB0
102
{ACAD_REACTORS
330
20F72
102
}
330
18
100
AcDbEntity
  8
01
100
AcDbLine
 10
643.0162494764465
 20
-593.247002744442
 30
0.0
 11
643.0162494764467
 21
-593.1860198281234
 31
0.0
  0
ARC
  5
20DB1
102
{ACAD_REACTORS
330
20F72
102
}
330
18
100
AcDbEntity
  8
01
100
AcDbCircle
 10
642.016202921121
 20
-593.2470492917528
 30
0.0
 40
1.000046556408801
100
AcDbArc
 50
270.0026672994875
 51
0.0026668402877084
  0
LINE
  5
20DB2
102
{ACAD_REACTORS
330
20F72
102
}
330
18
100
AcDbEntity
  8
01
100
AcDbLine
 10
629.2662502458128
 20
-594.246956193472
 30
0.0
 11
616.5162552149204
 21
-594.246956193472
 31
0.0
  0
LINE
  5
20DB3
102
{ACAD_REACTORS
330
20F72
102
}
330
18
100
AcDbEntity
  8
01
100
AcDbLine
 10
616.5162526134316
 20
-535.8213303512663
 30
0.0
 11
616.7662526134313
 21
-535.8213303512664
 31
0.0
  0
LINE
  5
20DB4
102
{ACAD_REACTORS
330
20F72
102
}
330
18
100
AcDbEntity
  8
01
100
AcDbLine
 10
641.7662494764469
 20
-535.8213303512663
 30
0.0
 11
642.016249508609
 21
-535.8213303512663
 31
0.0
  0
LINE
  5
20DB5
102
{ACAD_REACTORS
330
20F72
102
}
330
18
100
AcDbEntity
  8
01
100
AcDbLine
 10
642.0162468749572
 20
-594.246956193472
 30
0.0
 11
629.2662502458128
 21
-594.246956193472
 31
0.0
  0
LINE
  5
20DB7
102
{ACAD_REACTORS
330
20F72
102
}
330
18
100
AcDbEntity
  8
01
100
AcDbLine
 10
615.5162526134317
 20
-536.826244049184
 30
0.0
 11
615.5162526134314
 21
-593.2470478417914
 31
0.0
  0
LINE
  5
20DB9
102
{ACAD_REACTORS
330
20F72
102
}
330
18
100
AcDbEntity
  8
01
100
AcDbLine
 10
643.0162494764467
 20
-593.1860198281217
 30
0.0
 11
643.0162494764468
 21
-536.821322326691
 31
0.0
  0
LINE
  5
20DBA
102
{ACAD_REACTORS
330
20F72
102
}
330
18
100
AcDbEntity
  8
01
100
AcDbLine
 10
629.2662494764467
 20
-535.8213303512664
 30
0.0
 11
616.7662526134313
 21
-535.8213303512664
 31
0.0
  0
LINE
  5
20DBB
102
{ACAD_REACTORS
330
20F72
102
}
330
18
100
AcDbEntity
  8
01
100
AcDbLine
 10
629.2662494764467
 20
-535.8213303512664
 30
0.0
 11
641.7662494764469
 21
-535.8213303512664
 31
0.0
  0
ARC
  5
20DBE
102
{ACAD_REACTORS
330
20F73
102
}
330
18
100
AcDbEntity
  8
01
100
AcDbCircle
 10
739.9970136330046
 20
-691.689773796285
 30
0.0
 40
62.8870060075534
100
AcDbArc
 50
88.58187839364045
 51
150.6394662720937
  0
ARC
  5
20DBF
102
{ACAD_REACTORS
330
20F73
102
}
330
18
100
AcDbEntity
  8
01
100
AcDbCircle
 10
687.6091448346859
 20
-600.951900307305
 30
0.0
 40
62.88853780351035
100
AcDbArc
 50
269.3617030208231
 51
331.41756382197
  0
ARC
  5
20DC0
102
{ACAD_REACTORS
330
20F73
102
}
330
18
100
AcDbEntity
  8
01
100
AcDbCircle
 10
686.93083717971
 20
-661.8366597679017
 30
0.0
 40
1.999999999999982
100
AcDbArc
 50
150.6394662720921
 51
269.3617030208257
  0
ARC
  5
20DC1
102
{ACAD_REACTORS
330
20F73
102
}
330
18
100
AcDbEntity
  8
01
100
AcDbCircle
 10
741.516241615365
 20
-630.3215698718664
 30
0.0
 40
1.500000000000008
100
AcDbArc
 50
331.417563821967
 51
88.58187839363885
  0
LINE
  5
20DF2
102
{ACAD_REACTORS
330
20F73
102
}
330
18
100
AcDbEntity
  8
1CENTER
100
AcDbLine
 10
745.0725160654721
 20
-641.3215698718664
 30
0.0
 11
736.6534034492203
 21
-641.3215698718664
 31
0.0
  0
LINE
  5
20E07
102
{ACAD_REACTORS
330
20F74
102
}
330
18
100
AcDbEntity
  8
01
100
AcDbLine
 10
-56.98375524765007
 20
-629.8026600462649
 30
0.0
 11
-56.98375524764984
 21
-662.8404792604065
 31
0.0
  0
ARC
  5
20E08
102
{ACAD_REACTORS
330
20F74
102
}
330
18
100
AcDbEntity
  8
01
100
AcDbCircle
 10
-83.4837510758629
 20
-662.8511997224389
 30
0.0
 40
1.00000103480239
100
AcDbArc
 50
179.999940714825
 51
269.9999407102719
  0
ARC
  5
20E09
102
{ACAD_REACTORS
330
20F74
102
}
330
18
100
AcDbEntity
  8
01
100
AcDbCircle
 10
-83.48375151274851
 20
-629.8133805082973
 30
0.0
 40
1.000000597917524
100
AcDbArc
 50
90.0000356648547
 51
180.0000843697633
  0
ARC
  5
20E0A
102
{ACAD_REACTORS
330
20F74
102
}
330
18
100
AcDbEntity
  8
01
100
AcDbCircle
 10
-57.98375584556547
 20
-629.8133805082966
 30
0.0
 40
1.000000597916775
100
AcDbArc
 50
359.9999156301976
 51
89.99996574197188
  0
LINE
  5
20E0B
102
{ACAD_REACTORS
330
20F74
102
}
330
18
100
AcDbEntity
  8
01
100
AcDbLine
 10
-56.98375524764975
 20
-662.8458959609698
 30
0.0
 11
-56.98375524764978
 21
-662.8404792604056
 31
0.0
  0
LINE
  5
20E0C
102
{ACAD_REACTORS
330
20F74
102
}
330
18
100
AcDbEntity
  8
01
100
AcDbLine
 10
-56.9837552476497
 20
-662.8505235368782
 30
0.0
 11
-56.9837552476497
 21
-662.8500082095502
 31
0.0
  0
ARC
  5
20E0D
102
{ACAD_REACTORS
330
20F74
102
}
330
18
100
AcDbEntity
  8
01
100
AcDbCircle
 10
-57.98375628245188
 20
-662.8511997224389
 30
0.0
 40
1.000001034802589
100
AcDbArc
 50
270.0000592897379
 51
0.0000592851750235
  0
LINE
  5
20E0E
102
{ACAD_REACTORS
330
20F74
102
}
330
18
100
AcDbEntity
  8
01
100
AcDbLine
 10
-57.96762061192317
 20
-663.8510705689698
 30
0.0
 11
-83.48374952235812
 21
-663.8510705689698
 31
0.0
  0
LINE
  5
20E0F
102
{ACAD_REACTORS
330
20F74
102
}
330
18
100
AcDbEntity
  8
01
100
AcDbLine
 10
-83.48375211066494
 20
-628.8135100988313
 30
0.0
 11
-57.96762016740814
 21
-628.8135100988313
 31
0.0
  0
LINE
  5
20E11
102
{ACAD_REACTORS
330
20F74
102
}
330
18
100
AcDbEntity
  8
01
100
AcDbLine
 10
-84.48375211066511
 20
-629.8133805082973
 30
0.0
 11
-84.48375211066488
 21
-662.8511997224389
 31
0.0
  0
LINE
  5
20E13
102
{ACAD_REACTORS
330
20F74
102
}
330
18
100
AcDbEntity
  8
01
100
AcDbLine
 10
-56.98375524764984
 20
-662.8507632262629
 30
0.0
 11
-56.98375524764984
 21
-662.845895961271
 31
0.0
  0
LINE
  5
20E14
102
{ACAD_REACTORS
330
20F74
102
}
330
18
100
AcDbEntity
  8
01
100
AcDbLine
 10
-70.73375523973513
 20
-628.8140960612591
 30
0.0
 11
-70.73375523770713
 21
-628.8135130520427
 31
0.0
  0
LINE
  5
20E15
102
{ACAD_REACTORS
330
20F74
102
}
330
18
100
AcDbEntity
  8
01
100
AcDbLine
 10
-70.73375523770713
 20
-628.8135130520427
 30
0.0
 11
-70.73375523566745
 21
-628.8139461417063
 31
0.0
  0
ARC
  5
20E17
102
{ACAD_REACTORS
330
20F72
102
}
330
18
100
AcDbEntity
  8
01
100
AcDbCircle
 10
-83.48369841950208
 20
-593.2577683038269
 30
0.0
 40
1.000045831131242
100
AcDbArc
 50
179.9973746917229
 51
269.9973742501058
  0
LINE
  5
20E18
102
{ACAD_REACTORS
330
20F72
102
}
330
18
100
AcDbEntity
  8
01
100
AcDbLine
 10
-84.48374424958345
 20
-593.1967402901589
 30
0.0
 11
-84.48374424958345
 21
-593.2570470511664
 31
0.0
  0
LINE
  5
20E19
102
{ACAD_REACTORS
330
20F72
102
}
330
18
100
AcDbEntity
  8
01
100
AcDbLine
 10
-84.4837442495834
 20
-536.8320433307063
 30
0.0
 11
-84.48374424958334
 21
-536.8369645112191
 31
0.0
  0
ARC
  5
20E1A
102
{ACAD_REACTORS
330
20F72
102
}
330
18
100
AcDbEntity
  8
01
100
AcDbCircle
 10
-83.4836983728998
 20
-536.831959071669
 30
0.0
 40
1.000045877735605
100
AcDbArc
 50
90.00263019744106
 51
180.0026279792276
  0
ARC
  5
20E1B
102
{ACAD_REACTORS
330
20F72
102
}
330
18
100
AcDbEntity
  8
01
100
AcDbCircle
 10
-57.98379397957561
 20
-536.8319576394249
 30
0.0
 40
1.000046594092429
100
AcDbArc
 50
359.9973309965844
 51
89.99732865776572
  0
LINE
  5
20E1C
102
{ACAD_REACTORS
330
20F72
102
}
330
18
100
AcDbEntity
  8
01
100
AcDbLine
 10
-56.9837473865685
 20
-593.2577232064775
 30
0.0
 11
-56.98374738656835
 21
-593.1967402901589
 31
0.0
  0
ARC
  5
20E1D
102
{ACAD_REACTORS
330
20F72
102
}
330
18
100
AcDbEntity
  8
01
100
AcDbCircle
 10
-57.98379394189399
 20
-593.2577697537881
 30
0.0
 40
1.000046556408801
100
AcDbArc
 50
270.0026672994875
 51
0.0026668402877084
  0
LINE
  5
20E1E
102
{ACAD_REACTORS
330
20F72
102
}
330
18
100
AcDbEntity
  8
01
100
AcDbLine
 10
-70.73374661720229
 20
-594.2576766555073
 30
0.0
 11
-83.48374164809465
 21
-594.2576766555073
 31
0.0
  0
LINE
  5
20E1F
102
{ACAD_REACTORS
330
20F72
102
}
330
18
100
AcDbEntity
  8
01
100
AcDbLine
 10
-83.48374424958342
 20
-535.8320508133017
 30
0.0
 11
-83.23374424958371
 21
-535.8320508133017
 31
0.0
  0
LINE
  5
20E20
102
{ACAD_REACTORS
330
20F72
102
}
330
18
100
AcDbEntity
  8
01
100
AcDbLine
 10
-58.23374738656813
 20
-535.8320508133017
 30
0.0
 11
-57.98374735440601
 21
-535.8320508133017
 31
0.0
  0
LINE
  5
20E21
102
{ACAD_REACTORS
330
20F72
102
}
330
18
100
AcDbEntity
  8
01
100
AcDbLine
 10
-57.98374998805775
 20
-594.2576766555073
 30
0.0
 11
-70.73374661720226
 21
-594.2576766555073
 31
0.0
  0
LINE
  5
20E23
102
{ACAD_REACTORS
330
20F72
102
}
330
18
100
AcDbEntity
  8
01
100
AcDbLine
 10
-84.48374424958345
 20
-587.8576715595536
 30
0.0
 11
-84.48374424958345
 21
-593.1967402901589
 31
0.0
  0
LINE
  5
20E24
102
{ACAD_REACTORS
330
20F72
102
}
330
18
100
AcDbEntity
  8
01
100
AcDbLine
 10
-84.4837442495834
 20
-536.8369645112193
 30
0.0
 11
-84.48374424958362
 21
-593.2577683038269
 31
0.0
  0
LINE
  5
20E26
102
{ACAD_REACTORS
330
20F72
102
}
330
18
100
AcDbEntity
  8
01
100
AcDbLine
 10
-56.98374738656835
 20
-593.1967402901571
 30
0.0
 11
-56.98374738656821
 21
-536.8320427887263
 31
0.0
  0
LINE
  5
20E27
102
{ACAD_REACTORS
330
20F72
102
}
330
18
100
AcDbEntity
  8
01
100
AcDbLine
 10
-70.73374738656835
 20
-535.8320508133017
 30
0.0
 11
-83.23374424958368
 21
-535.8320508133017
 31
0.0
  0
LINE
  5
20E28
102
{ACAD_REACTORS
330
20F72
102
}
330
18
100
AcDbEntity
  8
01
100
AcDbLine
 10
-70.73374738656835
 20
-535.8320508133017
 30
0.0
 11
-58.23374738656813
 21
-535.8320508133017
 31
0.0
  0
LINE
  5
20E2A
102
{ACAD_REACTORS
330
20F74
102
}
330
18
100
AcDbEntity
  8
01
100
AcDbLine
 10
615.5162447523501
 20
-662.4700321328235
 30
0.0
 11
-56.98375524764981
 21
-662.4700321328235
 31
0.0
  0
LINE
  5
20E2B
102
{ACAD_REACTORS
330
20F74
102
}
330
18
100
AcDbEntity
  8
01
100
AcDbLine
 10
615.5162447523501
 20
-649.170712404932
 30
0.0
 11
-56.98375524764992
 21
-649.170712404932
 31
0.0
  0
LINE
  5
20E2C
102
{ACAD_REACTORS
330
20F72
102
}
330
18
100
AcDbEntity
  8
01
100
AcDbLine
 10
615.5162526134314
 20
-590.5904901486035
 30
0.0
 11
-56.98374738656821
 21
-590.5904901486035
 31
0.0
  0
LINE
  5
20E2D
102
{ACAD_REACTORS
330
20F72
102
}
330
18
100
AcDbEntity
  8
01
100
AcDbLine
 10
615.5162526134316
 20
-572.3859320162542
 30
0.0
 11
-56.98374738656821
 21
-572.3859320162542
 31
0.0
  0
CIRCLE
  5
20F6E
102
{ACAD_REACTORS
330
20F74
102
}
330
18
100
AcDbEntity
  8
1PHANTOM
100
AcDbCircle
 10
629.2662418948566
 20
-641.3215692317583
 30
0.0
 40
2.25
  0
LINE
  5
20F6F
102
{ACAD_REACTORS
330
20F74
102
}
330
18
100
AcDbEntity
  8
1CENTER
100
AcDbLine
 10
629.2662419429378
 20
-638.2002548657244
 30
0.0
 11
629.2662419429378
 21
-644.4428835977922
 31
0.0
  0
CIRCLE
  5
20F70
102
{ACAD_REACTORS
330
20F74
102
}
330
18
100
AcDbEntity
  8
1PHANTOM
100
AcDbCircle
 10
-70.7337523901565
 20
-641.3215692317583
 30
0.0
 40
2.249999999999999
  0
LINE
  5
20F71
102
{ACAD_REACTORS
330
20F74
102
}
330
18
100
AcDbEntity
  8
1CENTER
100
AcDbLine
 10
-70.7337523420756
 20
-644.4428835977922
 30
0.0
 11
-70.7337523420756
 21
-638.2002548657244
 31
0.0
  0
TEXT
  5
211C7
330
18
100
AcDbEntity
  8
1TEXT
100
AcDbText
 10
611.5659271703694
 20
-493.9347875377028
 30
0.0
 40
4.0
  1
SE-171-003L
 41
0.8
 72
     1
 11
627.0325938370361
 21
-493.9347875377028
 31
0.0
100
AcDbText
  0
ARC
  5
217C4
330
18
100
AcDbEntity
  8
1PHANTOM
100
AcDbCircle
 10
741.0162419501625
 20
-633.0715702066639
 30
0.0
 40
1.000000334797533
100
AcDbArc
 50
90.00001918247763
 51
179.9999805450773
  0
ARC
  5
217C5
330
18
100
AcDbEntity
  8
1PHANTOM
100
AcDbCircle
 10
739.5162415337105
 20
-650.8215699535206
 30
0.0
 40
0.5000000816542713
100
AcDbArc
 50
0.0000099618286523
 51
89.99999064310562
  0
LINE
  5
217C6
330
18
100
AcDbEntity
  8
1PHANTOM
100
AcDbLine
 10
740.0162416153648
 20
-650.8215698665872
 30
0.0
 11
740.0162416153648
 21
-651.0716250554253
 31
0.0
  0
ARC
  5
217C7
330
18
100
AcDbEntity
  8
1PHANTOM
100
AcDbCircle
 10
741.0162128659716
 20
-651.0716367924538
 30
0.0
 40
0.9999712506757286
100
AcDbArc
 50
179.9993274984721
 51
270.0016472662589
  0
LINE
  5
217C8
330
18
100
AcDbEntity
  8
1PHANTOM
100
AcDbLine
 10
741.016241615365
 20
-652.0716080427162
 30
0.0
 11
743.0162416153648
 21
-652.0715698718666
 31
0.0
  0
ARC
  5
217C9
330
18
100
AcDbEntity
  8
1PHANTOM
100
AcDbCircle
 10
715.0162426009618
 20
-649.3215688863972
 30
0.0
 40
1.0000009854696
100
AcDbArc
 50
179.9999435192474
 51
270.0
  0
ARC
  5
217CB
330
18
100
AcDbEntity
  8
1PHANTOM
100
AcDbCircle
 10
715.0162427551116
 20
-647.3215710114523
 30
0.0
 40
1.000001139586578
100
AcDbArc
 50
90.0
 51
180.0000419113848
  0
LINE
  5
217CC
330
18
100
AcDbEntity
  8
1PHANTOM
100
AcDbLine
 10
714.0162416155252
 20
-647.3215718484923
 30
0.0
 11
714.0162416154927
 21
-649.3215679006212
 31
0.0
  0
LINE
  5
217DE
330
18
100
AcDbEntity
  8
1PHANTOM
100
AcDbLine
 10
715.0162427551116
 20
-646.3215698718664
 30
0.0
 11
740.0162416153648
 21
-646.3215698718664
 31
0.0
  0
LINE
  5
217DF
330
18
100
AcDbEntity
  8
1PHANTOM
100
AcDbLine
 10
743.016241615365
 20
-632.0715698718664
 30
0.0
 11
741.016241615365
 21
-632.0715698718664
 31
0.0
  0
LINE
  5
217E1
330
18
100
AcDbEntity
  8
1PHANTOM
100
AcDbLine
 10
740.0162416153648
 20
-633.0715698671113
 30
0.0
 11
740.0162416153648
 21
-646.3215698718664
 31
0.0
  0
LINE
  5
217E7
330
18
100
AcDbEntity
  8
1PHANTOM
100
AcDbLine
 10
715.0162426009618
 20
-650.3215698718664
 30
0.0
 11
739.5162416153648
 21
-650.3215698718664
 31
0.0
  0
LINE
  5
217E9
330
18
100
AcDbEntity
  8
1PHANTOM
100
AcDbLine
 10
743.0162416153651
 20
-632.0715698718664
 30
0.0
 11
743.0162416153648
 21
-652.0715698718666
 31
0.0
  0
ARC
  5
21868
102
{ACAD_REACTORS
330
21AB3
102
}
330
18
100
AcDbEntity
  8
1PHANTOM
100
AcDbCircle
 10
634.1560179907261
 20
-563.821330347881
 30
0.0
 40
1.000000002020284
100
AcDbArc
 50
270.0017375295552
 51
359.9999998054465
  0
ARC
  5
21869
102
{ACAD_REACTORS
330
21AB3
102
}
330
18
100
AcDbEntity
  8
1PHANTOM
100
AcDbCircle
 10
624.3764809621609
 20
-563.8213303478935
 30
0.0
 40
1.000000002012906
100
AcDbArc
 50
180.0000017689071
 51
269.9982552736603
  0
ARC
  5
2186A
102
{ACAD_REACTORS
330
21AB3
102
}
330
18
100
AcDbEntity
  8
1PHANTOM
100
AcDbCircle
 10
638.2809145094656
 20
-537.8210969240215
 30
0.0
 40
1.000233454432361
100
AcDbArc
 50
269.986641069435
 51
359.9866287271146
  0
ARC
  5
2186B
102
{ACAD_REACTORS
330
21AB3
102
}
330
18
100
AcDbEntity
  8
1PHANTOM
100
AcDbCircle
 10
620.2515844435402
 20
-537.8210969239256
 30
0.0
 40
1.000233454528296
100
AcDbArc
 50
180.0133712799889
 51
270.0133589290984
  0
LINE
  5
2186C
102
{ACAD_REACTORS
330
21AB3
102
}
330
18
100
AcDbEntity
  8
1PHANTOM
100
AcDbLine
 10
635.1560179942438
 20
-548.8213303512664
 30
0.0
 11
635.1560179942438
 21
-563.8213303512664
 31
0.0
  0
LINE
  5
2186D
102
{ACAD_REACTORS
330
21AB3
102
}
330
18
100
AcDbEntity
  8
1PHANTOM
100
AcDbLine
 10
638.1361190088882
 20
-538.8213303512663
 30
0.0
 11
638.1096784959218
 21
-538.8453328949025
 31
0.0
  0
LINE
  5
2186E
102
{ACAD_REACTORS
330
21AB3
102
}
330
18
100
AcDbEntity
  8
1PHANTOM
100
AcDbLine
 10
638.1096784959218
 20
-538.8453328949025
 30
0.0
 11
638.0840333318356
 21
-538.8701834157406
 31
0.0
  0
LINE
  5
2186F
102
{ACAD_REACTORS
330
21AB3
102
}
330
18
100
AcDbEntity
  8
1PHANTOM
100
AcDbLine
 10
638.131141683239
 20
-538.8213303512664
 30
0.0
 11
638.0439236736513
 21
-538.9117785821801
 31
0.0
  0
LINE
  5
21870
102
{ACAD_REACTORS
330
21AB3
102
}
330
18
100
AcDbEntity
  8
1PHANTOM
100
AcDbLine
 10
638.0439236736513
 20
-538.9117785821801
 30
0.0
 11
638.0048049204953
 21
-538.9543292649784
 31
0.0
  0
LINE
  5
21871
102
{ACAD_REACTORS
330
21AB3
102
}
330
18
100
AcDbEntity
  8
1PHANTOM
100
AcDbLine
 10
638.0048049204953
 20
-538.9543292649784
 30
0.0
 11
637.9667107901442
 21
-538.9977996536109
 31
0.0
  0
LINE
  5
21872
102
{ACAD_REACTORS
330
21AB3
102
}
330
18
100
AcDbEntity
  8
1PHANTOM
100
AcDbLine
 10
637.9667107901442
 20
-538.9977996536109
 30
0.0
 11
637.9296732568938
 21
-539.0421523725976
 31
0.0
  0
LINE
  5
21873
102
{ACAD_REACTORS
330
21AB3
102
}
330
18
100
AcDbEntity
  8
1PHANTOM
100
AcDbLine
 10
637.9296732568938
 20
-539.0421523725976
 30
0.0
 11
637.8761187418826
 21
-539.1088889200046
 31
0.0
  0
LINE
  5
21874
102
{ACAD_REACTORS
330
21AB3
102
}
330
18
100
AcDbEntity
  8
1PHANTOM
100
AcDbLine
 10
637.8761187418826
 20
-539.1088889200046
 30
0.0
 11
637.8198438250023
 21
-539.1824153636902
 31
0.0
  0
LINE
  5
21875
102
{ACAD_REACTORS
330
21AB3
102
}
330
18
100
AcDbEntity
  8
1PHANTOM
100
AcDbLine
 10
637.8198438250023
 20
-539.1824153636902
 30
0.0
 11
637.7611424660984
 21
-539.2624728611833
 31
0.0
  0
LINE
  5
21876
102
{ACAD_REACTORS
330
21AB3
102
}
330
18
100
AcDbEntity
  8
1PHANTOM
100
AcDbLine
 10
637.7611424660984
 20
-539.2624728611833
 30
0.0
 11
637.7003086250159
 21
-539.3488025700126
 31
0.0
  0
LINE
  5
21877
102
{ACAD_REACTORS
330
21AB3
102
}
330
18
100
AcDbEntity
  8
1PHANTOM
100
AcDbLine
 10
637.7003086250159
 20
-539.3488025700126
 30
0.0
 11
637.5734193356964
 21
-539.539243251795
 31
0.0
  0
LINE
  5
21878
102
{ACAD_REACTORS
330
21AB3
102
}
330
18
100
AcDbEntity
  8
1PHANTOM
100
AcDbLine
 10
637.5734193356964
 20
-539.539243251795
 30
0.0
 11
637.4415276358055
 21
-539.7516666692682
 31
0.0
  0
LINE
  5
21879
102
{ACAD_REACTORS
330
21AB3
102
}
330
18
100
AcDbEntity
  8
1PHANTOM
100
AcDbLine
 10
637.4415276358055
 20
-539.7516666692682
 30
0.0
 11
637.3069582719867
 21
-539.9840830025082
 31
0.0
  0
LINE
  5
2187A
102
{ACAD_REACTORS
330
21AB3
102
}
330
18
100
AcDbEntity
  8
1PHANTOM
100
AcDbLine
 10
637.3069582719867
 20
-539.9840830025082
 30
0.0
 11
637.1777526977991
 21
-540.2196049770272
 31
0.0
  0
LINE
  5
2187B
102
{ACAD_REACTORS
330
21AB3
102
}
330
18
100
AcDbEntity
  8
1PHANTOM
100
AcDbLine
 10
637.1777526977991
 20
-540.2196049770272
 30
0.0
 11
637.0540162663021
 21
-540.4580456958712
 31
0.0
  0
LINE
  5
2187C
102
{ACAD_REACTORS
330
21AB3
102
}
330
18
100
AcDbEntity
  8
1PHANTOM
100
AcDbLine
 10
637.0540162663021
 20
-540.4580456958712
 30
0.0
 11
636.9358455964294
 21
-540.6992136009027
 31
0.0
  0
LINE
  5
2187D
102
{ACAD_REACTORS
330
21AB3
102
}
330
18
100
AcDbEntity
  8
1PHANTOM
100
AcDbLine
 10
636.9358455964294
 20
-540.6992136009027
 30
0.0
 11
636.7979530512263
 21
-540.995793671734
 31
0.0
  0
LINE
  5
2187E
102
{ACAD_REACTORS
330
21AB3
102
}
330
18
100
AcDbEntity
  8
1PHANTOM
100
AcDbLine
 10
636.7979530512263
 20
-540.995793671734
 30
0.0
 11
636.6661052767905
 21
-541.2951842106588
 31
0.0
  0
LINE
  5
2187F
102
{ACAD_REACTORS
330
21AB3
102
}
330
18
100
AcDbEntity
  8
1PHANTOM
100
AcDbLine
 10
636.6661052767905
 20
-541.2951842106588
 30
0.0
 11
636.5403863037818
 21
-541.5971995583599
 31
0.0
  0
LINE
  5
21880
102
{ACAD_REACTORS
330
21AB3
102
}
330
18
100
AcDbEntity
  8
1PHANTOM
100
AcDbLine
 10
636.5403863037818
 20
-541.5971995583599
 30
0.0
 11
636.4208725281566
 21
-541.9016507857717
 31
0.0
  0
LINE
  5
21881
102
{ACAD_REACTORS
330
21AB3
102
}
330
18
100
AcDbEntity
  8
1PHANTOM
100
AcDbLine
 10
636.4208725281566
 20
-541.9016507857717
 30
0.0
 11
636.2887127973714
 21
-542.2589761224003
 31
0.0
  0
LINE
  5
21882
102
{ACAD_REACTORS
330
21AB3
102
}
330
18
100
AcDbEntity
  8
1PHANTOM
100
AcDbLine
 10
636.2887127973714
 20
-542.2589761224003
 30
0.0
 11
636.1638692332971
 21
-542.6190074037906
 31
0.0
  0
LINE
  5
21883
102
{ACAD_REACTORS
330
21AB3
102
}
330
18
100
AcDbEntity
  8
1PHANTOM
100
AcDbLine
 10
636.1638692332971
 20
-542.6190074037906
 30
0.0
 11
636.0464226327044
 21
-542.9815191071598
 31
0.0
  0
LINE
  5
21884
102
{ACAD_REACTORS
330
21AB3
102
}
330
18
100
AcDbEntity
  8
1PHANTOM
100
AcDbLine
 10
636.0464226327044
 20
-542.9815191071598
 30
0.0
 11
635.9364444934497
 21
-543.3462825915219
 31
0.0
  0
LINE
  5
21885
102
{ACAD_REACTORS
330
21AB3
102
}
330
18
100
AcDbEntity
  8
1PHANTOM
100
AcDbLine
 10
635.9364444934497
 20
-543.3462825915219
 30
0.0
 11
635.8204825043471
 21
-543.7622119393254
 31
0.0
  0
LINE
  5
21886
102
{ACAD_REACTORS
330
21AB3
102
}
330
18
100
AcDbEntity
  8
1PHANTOM
100
AcDbLine
 10
635.8204825043471
 20
-543.7622119393254
 30
0.0
 11
635.7136861723694
 21
-544.1806966918804
 31
0.0
  0
LINE
  5
21887
102
{ACAD_REACTORS
330
21AB3
102
}
330
18
100
AcDbEntity
  8
1PHANTOM
100
AcDbLine
 10
635.7136861723694
 20
-544.1806966918804
 30
0.0
 11
635.6161366180064
 21
-544.6014329858797
 31
0.0
  0
LINE
  5
21888
102
{ACAD_REACTORS
330
21AB3
102
}
330
18
100
AcDbEntity
  8
1PHANTOM
100
AcDbLine
 10
635.6161366180064
 20
-544.6014329858797
 30
0.0
 11
635.5279014972881
 21
-545.0241136794922
 31
0.0
  0
LINE
  5
21889
102
{ACAD_REACTORS
330
21AB3
102
}
330
18
100
AcDbEntity
  8
1PHANTOM
100
AcDbLine
 10
635.5279014972881
 20
-545.0241136794922
 30
0.0
 11
635.4425339520687
 21
-545.4856101831965
 31
0.0
  0
LINE
  5
2188A
102
{ACAD_REACTORS
330
21AB3
102
}
330
18
100
AcDbEntity
  8
1PHANTOM
100
AcDbLine
 10
635.4425339520687
 20
-545.4856101831965
 30
0.0
 11
635.3681582397088
 21
-545.9491399542844
 31
0.0
  0
LINE
  5
2188B
102
{ACAD_REACTORS
330
21AB3
102
}
330
18
100
AcDbEntity
  8
1PHANTOM
100
AcDbLine
 10
635.3681582397088
 20
-545.9491399542844
 30
0.0
 11
635.3048423158649
 21
-546.4143094815124
 31
0.0
  0
LINE
  5
2188C
102
{ACAD_REACTORS
330
21AB3
102
}
330
18
100
AcDbEntity
  8
1PHANTOM
100
AcDbLine
 10
635.3048423158649
 20
-546.4143094815124
 30
0.0
 11
635.2526353246177
 21
-546.8807224645788
 31
0.0
  0
LINE
  5
2188D
102
{ACAD_REACTORS
330
21AB3
102
}
330
18
100
AcDbEntity
  8
1PHANTOM
100
AcDbLine
 10
635.2526353246177
 20
-546.8807224645788
 30
0.0
 11
635.2104085510409
 21
-547.3647493796623
 31
0.0
  0
LINE
  5
2188E
102
{ACAD_REACTORS
330
21AB3
102
}
330
18
100
AcDbEntity
  8
1PHANTOM
100
AcDbLine
 10
635.2104085510409
 20
-547.3647493796623
 30
0.0
 11
635.1802114306274
 21
-547.8498257682865
 31
0.0
  0
LINE
  5
2188F
102
{ACAD_REACTORS
330
21AB3
102
}
330
18
100
AcDbEntity
  8
1PHANTOM
100
AcDbLine
 10
635.1802114306274
 20
-547.8498257682865
 30
0.0
 11
635.1620775095719
 21
-548.3355027491996
 31
0.0
  0
LINE
  5
21890
102
{ACAD_REACTORS
330
21AB3
102
}
330
18
100
AcDbEntity
  8
1PHANTOM
100
AcDbLine
 10
635.1620775095719
 20
-548.3355027491996
 30
0.0
 11
635.1560179940894
 21
-548.8213303289067
 31
0.0
  0
LINE
  5
21891
102
{ACAD_REACTORS
330
21AB3
102
}
330
18
100
AcDbEntity
  8
1PHANTOM
100
AcDbLine
 10
623.3764809586561
 20
-563.8213303512664
 30
0.0
 11
623.3764809586561
 21
-548.8213303512664
 31
0.0
  0
LINE
  5
21892
102
{ACAD_REACTORS
330
21AB3
102
}
330
18
100
AcDbEntity
  8
1PHANTOM
100
AcDbLine
 10
623.3764809586584
 20
-548.8213303299465
 30
0.0
 11
623.3668101955917
 21
-548.1767635658737
 31
0.0
  0
LINE
  5
21893
102
{ACAD_REACTORS
330
21AB3
102
}
330
18
100
AcDbEntity
  8
1PHANTOM
100
AcDbLine
 10
623.3668101955917
 20
-548.1767635658737
 30
0.0
 11
623.3355859507972
 21
-547.5328809030052
 31
0.0
  0
LINE
  5
21894
102
{ACAD_REACTORS
330
21AB3
102
}
330
18
100
AcDbEntity
  8
1PHANTOM
100
AcDbLine
 10
623.3355859507972
 20
-547.5328809030052
 30
0.0
 11
623.2828431648896
 21
-546.8904028601584
 31
0.0
  0
LINE
  5
21895
102
{ACAD_REACTORS
330
21AB3
102
}
330
18
100
AcDbEntity
  8
1PHANTOM
100
AcDbLine
 10
623.2828431648896
 20
-546.8904028601584
 30
0.0
 11
623.2086408582028
 21
-546.25004838435
 31
0.0
  0
LINE
  5
21896
102
{ACAD_REACTORS
330
21AB3
102
}
330
18
100
AcDbEntity
  8
1PHANTOM
100
AcDbLine
 10
623.2086408582028
 20
-546.25004838435
 30
0.0
 11
623.1130620647447
 21
-545.6125340462785
 31
0.0
  0
LINE
  5
21897
102
{ACAD_REACTORS
330
21AB3
102
}
330
18
100
AcDbEntity
  8
1PHANTOM
100
AcDbLine
 10
623.1130620647447
 20
-545.6125340462785
 30
0.0
 11
622.996213739281
 21
-544.9785732384662
 31
0.0
  0
LINE
  5
21898
102
{ACAD_REACTORS
330
21AB3
102
}
330
18
100
AcDbEntity
  8
1PHANTOM
100
AcDbLine
 10
622.996213739281
 20
-544.9785732384662
 30
0.0
 11
622.8582266376499
 21
-544.3488753769573
 31
0.0
  0
LINE
  5
21899
102
{ACAD_REACTORS
330
21AB3
102
}
330
18
100
AcDbEntity
  8
1PHANTOM
100
AcDbLine
 10
622.8582266376499
 20
-544.3488753769573
 30
0.0
 11
622.6992551704433
 21
-543.7241451074651
 31
0.0
  0
LINE
  5
2189A
102
{ACAD_REACTORS
330
21AB3
102
}
330
18
100
AcDbEntity
  8
1PHANTOM
100
AcDbLine
 10
622.6992551704433
 20
-543.7241451074651
 30
0.0
 11
622.5194772302189
 21
-543.1050815168588
 31
0.0
  0
LINE
  5
2189B
102
{ACAD_REACTORS
330
21AB3
102
}
330
18
100
AcDbEntity
  8
1PHANTOM
100
AcDbLine
 10
622.5194772302189
 20
-543.1050815168588
 30
0.0
 11
622.3190939924333
 21
-542.4923773508699
 31
0.0
  0
LINE
  5
2189C
102
{ACAD_REACTORS
330
21AB3
102
}
330
18
100
AcDbEntity
  8
1PHANTOM
100
AcDbLine
 10
622.3190939924333
 20
-542.4923773508699
 30
0.0
 11
622.0983296903233
 21
-541.886718238894
 31
0.0
  0
LINE
  5
218A0
102
{ACAD_REACTORS
330
21AB3
102
}
330
18
100
AcDbEntity
  8
1PHANTOM
100
AcDbLine
 10
621.4970827403921
 20
-540.4798806858779
 30
0.0
 11
621.3901817217029
 21
-540.2639942982431
 31
0.0
  0
LINE
  5
218A1
102
{ACAD_REACTORS
330
21AB3
102
}
330
18
100
AcDbEntity
  8
1PHANTOM
100
AcDbLine
 10
621.3901817217029
 20
-540.2639942982431
 30
0.0
 11
621.2760862827107
 21
-540.0518222195808
 31
0.0
  0
LINE
  5
218A2
102
{ACAD_REACTORS
330
21AB3
102
}
330
18
100
AcDbEntity
  8
1PHANTOM
100
AcDbLine
 10
621.2760862827107
 20
-540.0518222195808
 30
0.0
 11
621.1549253050523
 21
-539.843604118409
 31
0.0
  0
LINE
  5
218A3
102
{ACAD_REACTORS
330
21AB3
102
}
330
18
100
AcDbEntity
  8
1PHANTOM
100
AcDbLine
 10
621.1549253050523
 20
-539.843604118409
 30
0.0
 11
621.0268356515618
 21
-539.6395751968527
 31
0.0
  0
LINE
  5
218A4
102
{ACAD_REACTORS
330
21AB3
102
}
330
18
100
AcDbEntity
  8
1PHANTOM
100
AcDbLine
 10
621.0268356515618
 20
-539.6395751968527
 30
0.0
 11
620.8919620116707
 21
-539.4399659249606
 31
0.0
  0
LINE
  5
218A5
102
{ACAD_REACTORS
330
21AB3
102
}
330
18
100
AcDbEntity
  8
1PHANTOM
100
AcDbLine
 10
620.8919620116707
 20
-539.4399659249606
 30
0.0
 11
620.7504567379675
 21
-539.2450017803674
 31
0.0
  0
LINE
  5
218A6
102
{ACAD_REACTORS
330
21AB3
102
}
330
18
100
AcDbEntity
  8
1PHANTOM
100
AcDbLine
 10
620.7504567379675
 20
-539.2450017803674
 30
0.0
 11
620.6024796741013
 21
-539.0549029935951
 31
0.0
  0
LINE
  5
218A7
102
{ACAD_REACTORS
330
21AB3
102
}
330
18
100
AcDbEntity
  8
1PHANTOM
100
AcDbLine
 10
620.6024796741013
 20
-539.0549029935951
 30
0.0
 11
620.4077102512747
 21
-538.8213303512664
 31
0.0
  0
LINE
  5
218A8
102
{ACAD_REACTORS
330
21AB3
102
}
330
18
100
AcDbEntity
  8
1PHANTOM
100
AcDbLine
 10
620.448197974223
 20
-538.8698842992818
 30
0.0
 11
620.3970067760329
 21
-538.8213303514733
 31
0.0
  0
LINE
  5
218A9
102
{ACAD_REACTORS
330
21AB3
102
}
330
18
100
AcDbEntity
  8
1PHANTOM
100
AcDbLine
 10
639.2802028604675
 20
-535.8213303512664
 30
0.0
 11
639.2802028604676
 21
-537.8213303512664
 31
0.0
  0
LINE
  5
218AA
102
{ACAD_REACTORS
330
21AB3
102
}
330
18
100
AcDbEntity
  8
1PHANTOM
100
AcDbLine
 10
619.2522960924256
 20
-537.8213303512663
 30
0.0
 11
619.2522960924256
 21
-535.8213303512663
 31
0.0
  0
LINE
  5
21913
102
{ACAD_REACTORS
330
21AB3
102
}
330
18
100
AcDbEntity
  8
1PHANTOM
100
AcDbLine
 10
639.2669149194813
 20
-537.8213303512496
 30
0.0
 11
639.2808712724801
 21
-537.8213303512399
 31
0.0
  0
LINE
  5
21914
102
{ACAD_REACTORS
330
21AB3
102
}
330
18
100
AcDbEntity
  8
1PHANTOM
100
AcDbLine
 10
619.2514706096109
 20
-537.8213303512662
 30
0.0
 11
619.251364625295
 21
-537.8213303512662
 31
0.0
  0
LINE
  5
21915
102
{ACAD_REACTORS
330
21AB3
102
}
330
18
100
AcDbEntity
  8
1PHANTOM
100
AcDbLine
 10
619.251364625295
 20
-537.8213303512662
 30
0.0
 11
619.2513590036939
 21
-537.8213303512662
 31
0.0
  0
LINE
  5
21916
102
{ACAD_REACTORS
330
21AB3
102
}
330
18
100
AcDbEntity
  8
1PHANTOM
100
AcDbLine
 10
619.2513590036939
 20
-537.8213303512662
 30
0.0
 11
619.2513593200152
 21
-537.8213303512662
 31
0.0
  0
LINE
  5
21917
102
{ACAD_REACTORS
330
21AB3
102
}
330
18
100
AcDbEntity
  8
1PHANTOM
100
AcDbLine
 10
619.2513593200152
 20
-537.8213303512662
 30
0.0
 11
619.2513617201029
 21
-537.8213303512662
 31
0.0
  0
LINE
  5
21918
102
{ACAD_REACTORS
330
21AB3
102
}
330
18
100
AcDbEntity
  8
1PHANTOM
100
AcDbLine
 10
619.2513617201029
 20
-537.8213303512662
 30
0.0
 11
619.2513921433888
 21
-537.8213303512662
 31
0.0
  0
LINE
  5
21919
102
{ACAD_REACTORS
330
21AB3
102
}
330
18
100
AcDbEntity
  8
1PHANTOM
100
AcDbLine
 10
619.2513921433888
 20
-537.8213303512662
 30
0.0
 11
619.2518461788317
 21
-537.8213303512663
 31
0.0
  0
LINE
  5
2191A
102
{ACAD_REACTORS
330
21AB3
102
}
330
18
100
AcDbEntity
  8
1PHANTOM
100
AcDbLine
 10
619.2518461788317
 20
-537.8213303512663
 30
0.0
 11
619.2543396909203
 21
-537.8213303512663
 31
0.0
  0
LINE
  5
2191B
102
{ACAD_REACTORS
330
21AB3
102
}
330
18
100
AcDbEntity
  8
1PHANTOM
100
AcDbLine
 10
619.2543396909203
 20
-537.8213303512663
 30
0.0
 11
619.2655840333638
 21
-537.8213303512663
 31
0.0
  0
LINE
  5
2191C
102
{ACAD_REACTORS
330
21AB3
102
}
330
18
100
AcDbEntity
  8
1PHANTOM
100
AcDbLine
 10
620.2518176550237
 20
-538.8213303512664
 30
0.0
 11
620.4077102512747
 21
-538.8213303512664
 31
0.0
  0
LINE
  5
2199E
102
{ACAD_REACTORS
330
21AB3
102
}
330
18
100
AcDbEntity
  8
1PHANTOM
100
AcDbLine
 10
637.2802028604676
 20
-535.8213303512664
 30
0.0
 11
639.2793672504869
 21
-535.8213303512663
 31
0.0
  0
LINE
  5
2199F
102
{ACAD_REACTORS
330
21AB3
102
}
330
18
100
AcDbEntity
  8
1PHANTOM
100
AcDbLine
 10
619.2527010770476
 20
-535.8213303512664
 30
0.0
 11
619.2523720336171
 21
-535.8213303512664
 31
0.0
  0
LINE
  5
219A0
102
{ACAD_REACTORS
330
21AB3
102
}
330
18
100
AcDbEntity
  8
1PHANTOM
100
AcDbLine
 10
619.2523720336171
 20
-535.8213303512664
 30
0.0
 11
619.2523050352014
 21
-535.8213303512663
 31
0.0
  0
LINE
  5
219A1
102
{ACAD_REACTORS
330
21AB3
102
}
330
18
100
AcDbEntity
  8
1PHANTOM
100
AcDbLine
 10
619.2523050352014
 20
-535.8213303512663
 30
0.0
 11
619.2523036335702
 21
-535.8213303512663
 31
0.0
  0
LINE
  5
219A2
102
{ACAD_REACTORS
330
21AB3
102
}
330
18
100
AcDbEntity
  8
1PHANTOM
100
AcDbLine
 10
619.2523036335702
 20
-535.8213303512663
 30
0.0
 11
619.2529625673816
 21
-535.8213303512664
 31
0.0
  0
LINE
  5
219A3
102
{ACAD_REACTORS
330
21AB3
102
}
330
18
100
AcDbEntity
  8
1PHANTOM
100
AcDbLine
 10
619.2529625673816
 20
-535.8213303512664
 30
0.0
 11
619.2575564351212
 21
-535.8213303512664
 31
0.0
  0
LINE
  5
219A4
102
{ACAD_REACTORS
330
21AB3
102
}
330
18
100
AcDbEntity
  8
1PHANTOM
100
AcDbLine
 10
619.2575564351212
 20
-535.8213303512664
 30
0.0
 11
619.2805286126103
 21
-535.8213303512664
 31
0.0
  0
LINE
  5
219A5
102
{ACAD_REACTORS
330
21AB3
102
}
330
18
100
AcDbEntity
  8
1PHANTOM
100
AcDbLine
 10
619.2805286126103
 20
-535.8213303512664
 30
0.0
 11
619.3857028911967
 21
-535.8213303512665
 31
0.0
  0
LINE
  5
219A6
102
{ACAD_REACTORS
330
21AB3
102
}
330
18
100
AcDbEntity
  8
1PHANTOM
100
AcDbLine
 10
619.3857028911967
 20
-535.8213303512665
 30
0.0
 11
619.8357454576625
 21
-535.8213303512664
 31
0.0
  0
LINE
  5
219A7
102
{ACAD_REACTORS
330
21AB3
102
}
330
18
100
AcDbEntity
  8
1PHANTOM
100
AcDbLine
 10
619.8357454576625
 20
-535.8213303512664
 30
0.0
 11
621.2522960924256
 21
-535.8213303512664
 31
0.0
  0
LINE
  5
219AA
102
{ACAD_REACTORS
330
21AB3
102
}
330
18
100
AcDbEntity
  8
1PHANTOM
100
AcDbLine
 10
637.2802028604676
 20
-535.8213303512664
 30
0.0
 11
621.2522960924256
 21
-535.8213303512664
 31
0.0
  0
LINE
  5
219AE
102
{ACAD_REACTORS
330
21AB3
102
}
330
18
100
AcDbEntity
  8
1PHANTOM
100
AcDbLine
 10
634.1560483170309
 20
-564.821330351107
 30
0.0
 11
624.3764505102496
 21
-564.8213303511047
 31
0.0
  0
LINE
  5
21AB2
102
{ACAD_REACTORS
330
21AB3
102
}
330
18
100
AcDbEntity
  8
1PHANTOM
100
AcDbLine
 10
638.131141683239
 20
-538.8213303512664
 30
0.0
 11
638.2806812979117
 21
-538.8213303512664
 31
0.0
  0
ARC
  5
21AB4
102
{ACAD_REACTORS
330
21B0B
102
}
330
18
100
AcDbEntity
  8
1PHANTOM
100
AcDbCircle
 10
-65.84397887228886
 20
-563.8320508099164
 30
0.0
 40
1.000000002020284
100
AcDbArc
 50
270.0017375295552
 51
359.9999998054465
  0
ARC
  5
21AB5
102
{ACAD_REACTORS
330
21B0B
102
}
330
18
100
AcDbEntity
  8
1PHANTOM
100
AcDbCircle
 10
-75.62351590085404
 20
-563.8320508099289
 30
0.0
 40
1.000000002012906
100
AcDbArc
 50
180.0000017689071
 51
269.9982552736603
  0
ARC
  5
21AB6
102
{ACAD_REACTORS
330
21B0B
102
}
330
18
100
AcDbEntity
  8
1PHANTOM
100
AcDbCircle
 10
-61.71908235354942
 20
-537.8318173860569
 30
0.0
 40
1.000233454432361
100
AcDbArc
 50
269.986641069435
 51
359.9866287271146
  0
ARC
  5
21AB7
102
{ACAD_REACTORS
330
21B0B
102
}
330
18
100
AcDbEntity
  8
1PHANTOM
100
AcDbCircle
 10
-79.74841241947479
 20
-537.8318173859609
 30
0.0
 40
1.000233454528296
100
AcDbArc
 50
180.0133712799889
 51
270.0133589290984
  0
LINE
  5
21AB8
102
{ACAD_REACTORS
330
21B0B
102
}
330
18
100
AcDbEntity
  8
1PHANTOM
100
AcDbLine
 10
-64.84397886877116
 20
-548.8320508133017
 30
0.0
 11
-64.84397886877116
 21
-563.8320508133017
 31
0.0
  0
LINE
  5
21AB9
102
{ACAD_REACTORS
330
21B0B
102
}
330
18
100
AcDbEntity
  8
1PHANTOM
100
AcDbLine
 10
-61.86387785412683
 20
-538.8320508133016
 30
0.0
 11
-61.89031836709319
 21
-538.8560533569379
 31
0.0
  0
LINE
  5
21ABA
102
{ACAD_REACTORS
330
21B0B
102
}
330
18
100
AcDbEntity
  8
1PHANTOM
100
AcDbLine
 10
-61.89031836709319
 20
-538.8560533569379
 30
0.0
 11
-61.91596353117939
 21
-538.880903877776
 31
0.0
  0
LINE
  5
21ABB
102
{ACAD_REACTORS
330
21B0B
102
}
330
18
100
AcDbEntity
  8
1PHANTOM
100
AcDbLine
 10
-61.86885517977601
 20
-538.8320508133017
 30
0.0
 11
-61.95607318936368
 21
-538.9224990442154
 31
0.0
  0
LINE
  5
21ABC
102
{ACAD_REACTORS
330
21B0B
102
}
330
18
100
AcDbEntity
  8
1PHANTOM
100
AcDbLine
 10
-61.95607318936368
 20
-538.9224990442154
 30
0.0
 11
-61.99519194251968
 21
-538.9650497270137
 31
0.0
  0
LINE
  5
21ABD
102
{ACAD_REACTORS
330
21B0B
102
}
330
18
100
AcDbEntity
  8
1PHANTOM
100
AcDbLine
 10
-61.99519194251968
 20
-538.9650497270137
 30
0.0
 11
-62.03328607287074
 21
-539.0085201156462
 31
0.0
  0
LINE
  5
21ABE
102
{ACAD_REACTORS
330
21B0B
102
}
330
18
100
AcDbEntity
  8
1PHANTOM
100
AcDbLine
 10
-62.03328607287074
 20
-539.0085201156462
 30
0.0
 11
-62.07032360612118
 21
-539.0528728346329
 31
0.0
  0
LINE
  5
21ABF
102
{ACAD_REACTORS
330
21B0B
102
}
330
18
100
AcDbEntity
  8
1PHANTOM
100
AcDbLine
 10
-62.07032360612118
 20
-539.0528728346329
 30
0.0
 11
-62.12387812113241
 21
-539.1196093820399
 31
0.0
  0
LINE
  5
21AC0
102
{ACAD_REACTORS
330
21B0B
102
}
330
18
100
AcDbEntity
  8
1PHANTOM
100
AcDbLine
 10
-62.12387812113241
 20
-539.1196093820399
 30
0.0
 11
-62.18015303801269
 21
-539.1931358257256
 31
0.0
  0
LINE
  5
21AC1
102
{ACAD_REACTORS
330
21B0B
102
}
330
18
100
AcDbEntity
  8
1PHANTOM
100
AcDbLine
 10
-62.18015303801269
 20
-539.1931358257256
 30
0.0
 11
-62.23885439691662
 21
-539.2731933232186
 31
0.0
  0
LINE
  5
21AC2
102
{ACAD_REACTORS
330
21B0B
102
}
330
18
100
AcDbEntity
  8
1PHANTOM
100
AcDbLine
 10
-62.23885439691662
 20
-539.2731933232186
 30
0.0
 11
-62.29968823799913
 21
-539.359523032048
 31
0.0
  0
LINE
  5
21AC3
102
{ACAD_REACTORS
330
21B0B
102
}
330
18
100
AcDbEntity
  8
1PHANTOM
100
AcDbLine
 10
-62.29968823799913
 20
-539.359523032048
 30
0.0
 11
-62.42657752731861
 21
-539.5499637138304
 31
0.0
  0
LINE
  5
21AC4
102
{ACAD_REACTORS
330
21B0B
102
}
330
18
100
AcDbEntity
  8
1PHANTOM
100
AcDbLine
 10
-62.42657752731861
 20
-539.5499637138304
 30
0.0
 11
-62.55846922720946
 21
-539.7623871313035
 31
0.0
  0
LINE
  5
21AC5
102
{ACAD_REACTORS
330
21B0B
102
}
330
18
100
AcDbEntity
  8
1PHANTOM
100
AcDbLine
 10
-62.55846922720946
 20
-539.7623871313035
 30
0.0
 11
-62.69303859102831
 21
-539.9948034645436
 31
0.0
  0
LINE
  5
21AC6
102
{ACAD_REACTORS
330
21B0B
102
}
330
18
100
AcDbEntity
  8
1PHANTOM
100
AcDbLine
 10
-62.69303859102831
 20
-539.9948034645436
 30
0.0
 11
-62.82224416521592
 21
-540.2303254390625
 31
0.0
  0
LINE
  5
21AC7
102
{ACAD_REACTORS
330
21B0B
102
}
330
18
100
AcDbEntity
  8
1PHANTOM
100
AcDbLine
 10
-62.82224416521592
 20
-540.2303254390625
 30
0.0
 11
-62.94598059671284
 21
-540.4687661579065
 31
0.0
  0
LINE
  5
21AC8
102
{ACAD_REACTORS
330
21B0B
102
}
330
18
100
AcDbEntity
  8
1PHANTOM
100
AcDbLine
 10
-62.94598059671284
 20
-540.4687661579065
 30
0.0
 11
-63.06415126658555
 21
-540.709934062938
 31
0.0
  0
LINE
  5
21AC9
102
{ACAD_REACTORS
330
21B0B
102
}
330
18
100
AcDbEntity
  8
1PHANTOM
100
AcDbLine
 10
-63.06415126658555
 20
-540.709934062938
 30
0.0
 11
-63.20204381178871
 21
-541.0065141337693
 31
0.0
  0
LINE
  5
21ACA
102
{ACAD_REACTORS
330
21B0B
102
}
330
18
100
AcDbEntity
  8
1PHANTOM
100
AcDbLine
 10
-63.20204381178871
 20
-541.0065141337693
 30
0.0
 11
-63.33389158622447
 21
-541.3059046726942
 31
0.0
  0
LINE
  5
21ACB
102
{ACAD_REACTORS
330
21B0B
102
}
330
18
100
AcDbEntity
  8
1PHANTOM
100
AcDbLine
 10
-63.33389158622447
 20
-541.3059046726942
 30
0.0
 11
-63.45961055923317
 21
-541.6079200203952
 31
0.0
  0
LINE
  5
21ACC
102
{ACAD_REACTORS
330
21B0B
102
}
330
18
100
AcDbEntity
  8
1PHANTOM
100
AcDbLine
 10
-63.45961055923317
 20
-541.6079200203952
 30
0.0
 11
-63.57912433485842
 21
-541.9123712478071
 31
0.0
  0
LINE
  5
21ACD
102
{ACAD_REACTORS
330
21B0B
102
}
330
18
100
AcDbEntity
  8
1PHANTOM
100
AcDbLine
 10
-63.57912433485842
 20
-541.9123712478071
 30
0.0
 11
-63.71128406564355
 21
-542.2696965844357
 31
0.0
  0
LINE
  5
21ACE
102
{ACAD_REACTORS
330
21B0B
102
}
330
18
100
AcDbEntity
  8
1PHANTOM
100
AcDbLine
 10
-63.71128406564355
 20
-542.2696965844357
 30
0.0
 11
-63.83612762971791
 21
-542.629727865826
 31
0.0
  0
LINE
  5
21ACF
102
{ACAD_REACTORS
330
21B0B
102
}
330
18
100
AcDbEntity
  8
1PHANTOM
100
AcDbLine
 10
-63.83612762971791
 20
-542.629727865826
 30
0.0
 11
-63.95357423031055
 21
-542.9922395691951
 31
0.0
  0
LINE
  5
21AD0
102
{ACAD_REACTORS
330
21B0B
102
}
330
18
100
AcDbEntity
  8
1PHANTOM
100
AcDbLine
 10
-63.95357423031055
 20
-542.9922395691951
 30
0.0
 11
-64.06355236956529
 21
-543.3570030535573
 31
0.0
  0
LINE
  5
21AD1
102
{ACAD_REACTORS
330
21B0B
102
}
330
18
100
AcDbEntity
  8
1PHANTOM
100
AcDbLine
 10
-64.06355236956529
 20
-543.3570030535573
 30
0.0
 11
-64.17951435866792
 21
-543.7729324013608
 31
0.0
  0
LINE
  5
21AD2
102
{ACAD_REACTORS
330
21B0B
102
}
330
18
100
AcDbEntity
  8
1PHANTOM
100
AcDbLine
 10
-64.17951435866792
 20
-543.7729324013608
 30
0.0
 11
-64.28631069064556
 21
-544.1914171539157
 31
0.0
  0
LINE
  5
21AD3
102
{ACAD_REACTORS
330
21B0B
102
}
330
18
100
AcDbEntity
  8
1PHANTOM
100
AcDbLine
 10
-64.28631069064556
 20
-544.1914171539157
 30
0.0
 11
-64.38386024500858
 21
-544.612153447915
 31
0.0
  0
LINE
  5
21AD4
102
{ACAD_REACTORS
330
21B0B
102
}
330
18
100
AcDbEntity
  8
1PHANTOM
100
AcDbLine
 10
-64.38386024500858
 20
-544.612153447915
 30
0.0
 11
-64.47209536572689
 21
-545.0348341415275
 31
0.0
  0
LINE
  5
21AD5
102
{ACAD_REACTORS
330
21B0B
102
}
330
18
100
AcDbEntity
  8
1PHANTOM
100
AcDbLine
 10
-64.47209536572689
 20
-545.0348341415275
 30
0.0
 11
-64.55746291094624
 21
-545.4963306452319
 31
0.0
  0
LINE
  5
21AD6
102
{ACAD_REACTORS
330
21B0B
102
}
330
18
100
AcDbEntity
  8
1PHANTOM
100
AcDbLine
 10
-64.55746291094624
 20
-545.4963306452319
 30
0.0
 11
-64.63183862330618
 21
-545.9598604163198
 31
0.0
  0
LINE
  5
21AD7
102
{ACAD_REACTORS
330
21B0B
102
}
330
18
100
AcDbEntity
  8
1PHANTOM
100
AcDbLine
 10
-64.63183862330618
 20
-545.9598604163198
 30
0.0
 11
-64.69515454715008
 21
-546.4250299435478
 31
0.0
  0
LINE
  5
21AD8
102
{ACAD_REACTORS
330
21B0B
102
}
330
18
100
AcDbEntity
  8
1PHANTOM
100
AcDbLine
 10
-64.69515454715008
 20
-546.4250299435478
 30
0.0
 11
-64.74736153839729
 21
-546.8914429266141
 31
0.0
  0
LINE
  5
21AD9
102
{ACAD_REACTORS
330
21B0B
102
}
330
18
100
AcDbEntity
  8
1PHANTOM
100
AcDbLine
 10
-64.74736153839729
 20
-546.8914429266141
 30
0.0
 11
-64.78958831197406
 21
-547.3754698416976
 31
0.0
  0
LINE
  5
21ADA
102
{ACAD_REACTORS
330
21B0B
102
}
330
18
100
AcDbEntity
  8
1PHANTOM
100
AcDbLine
 10
-64.78958831197406
 20
-547.3754698416976
 30
0.0
 11
-64.81978543238756
 21
-547.8605462303218
 31
0.0
  0
LINE
  5
21ADB
102
{ACAD_REACTORS
330
21B0B
102
}
330
18
100
AcDbEntity
  8
1PHANTOM
100
AcDbLine
 10
-64.81978543238756
 20
-547.8605462303218
 30
0.0
 11
-64.83791935344311
 21
-548.3462232112349
 31
0.0
  0
LINE
  5
21ADC
102
{ACAD_REACTORS
330
21B0B
102
}
330
18
100
AcDbEntity
  8
1PHANTOM
100
AcDbLine
 10
-64.83791935344311
 20
-548.3462232112349
 30
0.0
 11
-64.84397886892555
 21
-548.832050790942
 31
0.0
  0
LINE
  5
21ADD
102
{ACAD_REACTORS
330
21B0B
102
}
330
18
100
AcDbEntity
  8
1PHANTOM
100
AcDbLine
 10
-76.6235159043589
 20
-563.8320508133017
 30
0.0
 11
-76.6235159043589
 21
-548.8320508133017
 31
0.0
  0
LINE
  5
21ADE
102
{ACAD_REACTORS
330
21B0B
102
}
330
18
100
AcDbEntity
  8
1PHANTOM
100
AcDbLine
 10
-76.62351590435662
 20
-548.8320507919818
 30
0.0
 11
-76.63318666742327
 21
-548.187484027909
 31
0.0
  0
LINE
  5
21ADF
102
{ACAD_REACTORS
330
21B0B
102
}
330
18
100
AcDbEntity
  8
1PHANTOM
100
AcDbLine
 10
-76.63318666742327
 20
-548.187484027909
 30
0.0
 11
-76.66441091221782
 21
-547.5436013650406
 31
0.0
  0
LINE
  5
21AE0
102
{ACAD_REACTORS
330
21B0B
102
}
330
18
100
AcDbEntity
  8
1PHANTOM
100
AcDbLine
 10
-76.66441091221782
 20
-547.5436013650406
 30
0.0
 11
-76.71715369812534
 21
-546.9011233221937
 31
0.0
  0
LINE
  5
21AE1
102
{ACAD_REACTORS
330
21B0B
102
}
330
18
100
AcDbEntity
  8
1PHANTOM
100
AcDbLine
 10
-76.71715369812534
 20
-546.9011233221937
 30
0.0
 11
-76.7913560048122
 21
-546.2607688463853
 31
0.0
  0
LINE
  5
21AE2
102
{ACAD_REACTORS
330
21B0B
102
}
330
18
100
AcDbEntity
  8
1PHANTOM
100
AcDbLine
 10
-76.7913560048122
 20
-546.2607688463853
 30
0.0
 11
-76.88693479827032
 21
-545.6232545083138
 31
0.0
  0
LINE
  5
21AE3
102
{ACAD_REACTORS
330
21B0B
102
}
330
18
100
AcDbEntity
  8
1PHANTOM
100
AcDbLine
 10
-76.88693479827032
 20
-545.6232545083138
 30
0.0
 11
-77.00378312373402
 21
-544.9892937005015
 31
0.0
  0
LINE
  5
21AE4
102
{ACAD_REACTORS
330
21B0B
102
}
330
18
100
AcDbEntity
  8
1PHANTOM
100
AcDbLine
 10
-77.00378312373402
 20
-544.9892937005015
 30
0.0
 11
-77.14177022536512
 21
-544.3595958389926
 31
0.0
  0
LINE
  5
21AE5
102
{ACAD_REACTORS
330
21B0B
102
}
330
18
100
AcDbEntity
  8
1PHANTOM
100
AcDbLine
 10
-77.14177022536512
 20
-544.3595958389926
 30
0.0
 11
-77.3007416925717
 21
-543.7348655695005
 31
0.0
  0
LINE
  5
21AE6
102
{ACAD_REACTORS
330
21B0B
102
}
330
18
100
AcDbEntity
  8
1PHANTOM
100
AcDbLine
 10
-77.3007416925717
 20
-543.7348655695005
 30
0.0
 11
-77.48051963279613
 21
-543.1158019788942
 31
0.0
  0
LINE
  5
21AE7
102
{ACAD_REACTORS
330
21B0B
102
}
330
18
100
AcDbEntity
  8
1PHANTOM
100
AcDbLine
 10
-77.48051963279613
 20
-543.1158019788942
 30
0.0
 11
-77.68090287058169
 21
-542.5030978129053
 31
0.0
  0
LINE
  5
21AE8
102
{ACAD_REACTORS
330
21B0B
102
}
330
18
100
AcDbEntity
  8
1PHANTOM
100
AcDbLine
 10
-77.68090287058169
 20
-542.5030978129053
 30
0.0
 11
-77.90166717269165
 21
-541.8974387009293
 31
0.0
  0
LINE
  5
21AE9
102
{ACAD_REACTORS
330
21B0B
102
}
330
18
100
AcDbEntity
  8
1PHANTOM
100
AcDbLine
 10
-78.50291412262288
 20
-540.4906011479133
 30
0.0
 11
-78.60981514131208
 21
-540.2747147602785
 31
0.0
  0
LINE
  5
21AEA
102
{ACAD_REACTORS
330
21B0B
102
}
330
18
100
AcDbEntity
  8
1PHANTOM
100
AcDbLine
 10
-78.60981514131208
 20
-540.2747147602785
 30
0.0
 11
-78.72391058030428
 21
-540.0625426816162
 31
0.0
  0
LINE
  5
21AEB
102
{ACAD_REACTORS
330
21B0B
102
}
330
18
100
AcDbEntity
  8
1PHANTOM
100
AcDbLine
 10
-78.72391058030428
 20
-540.0625426816162
 30
0.0
 11
-78.84507155796268
 21
-539.8543245804443
 31
0.0
  0
LINE
  5
21AEC
102
{ACAD_REACTORS
330
21B0B
102
}
330
18
100
AcDbEntity
  8
1PHANTOM
100
AcDbLine
 10
-78.84507155796268
 20
-539.8543245804443
 30
0.0
 11
-78.9731612114532
 21
-539.650295658888
 31
0.0
  0
LINE
  5
21AED
102
{ACAD_REACTORS
330
21B0B
102
}
330
18
100
AcDbEntity
  8
1PHANTOM
100
AcDbLine
 10
-78.9731612114532
 20
-539.650295658888
 30
0.0
 11
-79.10803485134431
 21
-539.4506863869959
 31
0.0
  0
LINE
  5
21AEE
102
{ACAD_REACTORS
330
21B0B
102
}
330
18
100
AcDbEntity
  8
1PHANTOM
100
AcDbLine
 10
-79.10803485134431
 20
-539.4506863869959
 30
0.0
 11
-79.24954012504747
 21
-539.2557222424027
 31
0.0
  0
LINE
  5
21AEF
102
{ACAD_REACTORS
330
21B0B
102
}
330
18
100
AcDbEntity
  8
1PHANTOM
100
AcDbLine
 10
-79.24954012504747
 20
-539.2557222424027
 30
0.0
 11
-79.39751718891364
 21
-539.0656234556304
 31
0.0
  0
LINE
  5
21AF0
102
{ACAD_REACTORS
330
21B0B
102
}
330
18
100
AcDbEntity
  8
1PHANTOM
100
AcDbLine
 10
-79.39751718891364
 20
-539.0656234556304
 30
0.0
 11
-79.59228661174029
 21
-538.8320508133017
 31
0.0
  0
LINE
  5
21AF1
102
{ACAD_REACTORS
330
21B0B
102
}
330
18
100
AcDbEntity
  8
1PHANTOM
100
AcDbLine
 10
-79.55179888879195
 20
-538.8806047613172
 30
0.0
 11
-79.60299008698212
 21
-538.8320508135087
 31
0.0
  0
LINE
  5
21AF2
102
{ACAD_REACTORS
330
21B0B
102
}
330
18
100
AcDbEntity
  8
1PHANTOM
100
AcDbLine
 10
-60.71979400254747
 20
-535.8320508133017
 30
0.0
 11
-60.71979400254736
 21
-537.8320508133017
 31
0.0
  0
LINE
  5
21AF3
102
{ACAD_REACTORS
330
21B0B
102
}
330
18
100
AcDbEntity
  8
1PHANTOM
100
AcDbLine
 10
-80.7477007705894
 20
-537.8320508133016
 30
0.0
 11
-80.7477007705894
 21
-535.8320508133016
 31
0.0
  0
LINE
  5
21AF4
102
{ACAD_REACTORS
330
21B0B
102
}
330
18
100
AcDbEntity
  8
1PHANTOM
100
AcDbLine
 10
-60.73308194353365
 20
-537.8320508132849
 30
0.0
 11
-60.71912559053487
 21
-537.8320508132753
 31
0.0
  0
LINE
  5
21AF5
102
{ACAD_REACTORS
330
21B0B
102
}
330
18
100
AcDbEntity
  8
1PHANTOM
100
AcDbLine
 10
-80.74852625340407
 20
-537.8320508133015
 30
0.0
 11
-80.74863223772002
 21
-537.8320508133015
 31
0.0
  0
LINE
  5
21AF6
102
{ACAD_REACTORS
330
21B0B
102
}
330
18
100
AcDbEntity
  8
1PHANTOM
100
AcDbLine
 10
-80.74863223772002
 20
-537.8320508133015
 30
0.0
 11
-80.7486378593211
 21
-537.8320508133015
 31
0.0
  0
LINE
  5
21AF7
102
{ACAD_REACTORS
330
21B0B
102
}
330
18
100
AcDbEntity
  8
1PHANTOM
100
AcDbLine
 10
-80.7486378593211
 20
-537.8320508133015
 30
0.0
 11
-80.74863754299975
 21
-537.8320508133015
 31
0.0
  0
LINE
  5
21AF8
102
{ACAD_REACTORS
330
21B0B
102
}
330
18
100
AcDbEntity
  8
1PHANTOM
100
AcDbLine
 10
-80.74863754299975
 20
-537.8320508133015
 30
0.0
 11
-80.74863514291212
 21
-537.8320508133015
 31
0.0
  0
LINE
  5
21AF9
102
{ACAD_REACTORS
330
21B0B
102
}
330
18
100
AcDbEntity
  8
1PHANTOM
100
AcDbLine
 10
-80.74863514291212
 20
-537.8320508133015
 30
0.0
 11
-80.7486047196262
 21
-537.8320508133015
 31
0.0
  0
LINE
  5
21AFA
102
{ACAD_REACTORS
330
21B0B
102
}
330
18
100
AcDbEntity
  8
1PHANTOM
100
AcDbLine
 10
-80.7486047196262
 20
-537.8320508133015
 30
0.0
 11
-80.74815068418332
 21
-537.8320508133016
 31
0.0
  0
LINE
  5
21AFB
102
{ACAD_REACTORS
330
21B0B
102
}
330
18
100
AcDbEntity
  8
1PHANTOM
100
AcDbLine
 10
-80.74815068418332
 20
-537.8320508133016
 30
0.0
 11
-80.74565717209464
 21
-537.8320508133016
 31
0.0
  0
LINE
  5
21AFC
102
{ACAD_REACTORS
330
21B0B
102
}
330
18
100
AcDbEntity
  8
1PHANTOM
100
AcDbLine
 10
-80.74565717209464
 20
-537.8320508133016
 30
0.0
 11
-80.7344128296512
 21
-537.8320508133016
 31
0.0
  0
LINE
  5
21AFD
102
{ACAD_REACTORS
330
21B0B
102
}
330
18
100
AcDbEntity
  8
1PHANTOM
100
AcDbLine
 10
-79.74817920799126
 20
-538.8320508133017
 30
0.0
 11
-79.59228661174029
 21
-538.8320508133017
 31
0.0
  0
LINE
  5
21AFE
102
{ACAD_REACTORS
330
21B0B
102
}
330
18
100
AcDbEntity
  8
1PHANTOM
100
AcDbLine
 10
-62.71979400254736
 20
-535.8320508133017
 30
0.0
 11
-60.72062961252811
 21
-535.8320508133016
 31
0.0
  0
LINE
  5
21AFF
102
{ACAD_REACTORS
330
21B0B
102
}
330
18
100
AcDbEntity
  8
1PHANTOM
100
AcDbLine
 10
-80.74729578596737
 20
-535.8320508133017
 30
0.0
 11
-80.74762482939786
 21
-535.8320508133017
 31
0.0
  0
LINE
  5
21B00
102
{ACAD_REACTORS
330
21B0B
102
}
330
18
100
AcDbEntity
  8
1PHANTOM
100
AcDbLine
 10
-80.74762482939786
 20
-535.8320508133017
 30
0.0
 11
-80.74769182781358
 21
-535.8320508133016
 31
0.0
  0
LINE
  5
21B01
102
{ACAD_REACTORS
330
21B0B
102
}
330
18
100
AcDbEntity
  8
1PHANTOM
100
AcDbLine
 10
-80.74769182781358
 20
-535.8320508133016
 30
0.0
 11
-80.74769322944474
 21
-535.8320508133016
 31
0.0
  0
LINE
  5
21B02
102
{ACAD_REACTORS
330
21B0B
102
}
330
18
100
AcDbEntity
  8
1PHANTOM
100
AcDbLine
 10
-80.74769322944474
 20
-535.8320508133016
 30
0.0
 11
-80.7470342956334
 21
-535.8320508133017
 31
0.0
  0
LINE
  5
21B03
102
{ACAD_REACTORS
330
21B0B
102
}
330
18
100
AcDbEntity
  8
1PHANTOM
100
AcDbLine
 10
-80.7470342956334
 20
-535.8320508133017
 30
0.0
 11
-80.74244042789383
 21
-535.8320508133017
 31
0.0
  0
LINE
  5
21B04
102
{ACAD_REACTORS
330
21B0B
102
}
330
18
100
AcDbEntity
  8
1PHANTOM
100
AcDbLine
 10
-80.74244042789383
 20
-535.8320508133017
 30
0.0
 11
-80.7194682504047
 21
-535.8320508133017
 31
0.0
  0
LINE
  5
21B05
102
{ACAD_REACTORS
330
21B0B
102
}
330
18
100
AcDbEntity
  8
1PHANTOM
100
AcDbLine
 10
-80.7194682504047
 20
-535.8320508133017
 30
0.0
 11
-80.61429397181826
 21
-535.8320508133019
 31
0.0
  0
LINE
  5
21B06
102
{ACAD_REACTORS
330
21B0B
102
}
330
18
100
AcDbEntity
  8
1PHANTOM
100
AcDbLine
 10
-80.61429397181826
 20
-535.8320508133019
 30
0.0
 11
-80.1642514053525
 21
-535.8320508133017
 31
0.0
  0
LINE
  5
21B07
102
{ACAD_REACTORS
330
21B0B
102
}
330
18
100
AcDbEntity
  8
1PHANTOM
100
AcDbLine
 10
-80.1642514053525
 20
-535.8320508133017
 30
0.0
 11
-78.7477007705894
 21
-535.8320508133017
 31
0.0
  0
LINE
  5
21B08
102
{ACAD_REACTORS
330
21B0B
102
}
330
18
100
AcDbEntity
  8
1PHANTOM
100
AcDbLine
 10
-62.71979400254736
 20
-535.8320508133017
 30
0.0
 11
-78.7477007705894
 21
-535.8320508133017
 31
0.0
  0
LINE
  5
21B09
102
{ACAD_REACTORS
330
21B0B
102
}
330
18
100
AcDbEntity
  8
1PHANTOM
100
AcDbLine
 10
-65.84394854598406
 20
-564.8320508131424
 30
0.0
 11
-75.6235463527654
 21
-564.8320508131401
 31
0.0
  0
LINE
  5
21B0A
102
{ACAD_REACTORS
330
21B0B
102
}
330
18
100
AcDbEntity
  8
1PHANTOM
100
AcDbLine
 10
-61.86885517977601
 20
-538.8320508133017
 30
0.0
 11
-61.71931556510333
 21
-538.8320508133017
 31
0.0
  0
LINE
  5
21B0C
330
18
100
AcDbEntity
  8
1CENTER
100
AcDbLine
 10
626.1449275288228
 20
-641.3215691836773
 30
0.0
 11
632.3875562608905
 21
-641.3215691836773
 31
0.0
  0
LINE
  5
21B0D
330
18
100
AcDbEntity
  8
1CENTER
100
AcDbLine
 10
-67.61243802412264
 20
-641.3215691836774
 30
0.0
 11
-73.85506675619035
 21
-641.3215691836774
 31
0.0
  0
LINE
  5
21D7D
330
18
100
AcDbEntity
  8
1DIM
100
AcDbLine
 10
539.6325938370362
 20
-467.2204305540536
 30
0.0
 11
644.6325938370362
 21
-467.2204305540536
 31
0.0
  0
LINE
  5
21D7E
330
18
100
AcDbEntity
  8
1DIM
100
AcDbLine
 10
539.6325938370362
 20
-481.2204305540536
 30
0.0
 11
644.632593837036
 21
-481.2204305540536
 31
0.0
  0
LINE
  5
21D7F
330
18
100
AcDbEntity
  8
1DIM
100
AcDbLine
 10
539.6325938370362
 20
-474.2204305540536
 30
0.0
 11
644.632593837036
 21
-474.2204305540536
 31
0.0
  0
LINE
  5
21D80
330
18
100
AcDbEntity
  8
1DIM
100
AcDbLine
 10
609.6325938370362
 20
-467.2204305540536
 30
0.0
 11
609.6325938370353
 21
-495.2204305540536
 31
0.0
  0
TEXT
  5
21D81
330
18
100
AcDbEntity
  8
1TEXT
100
AcDbText
 10
620.1659271703696
 20
-472.7204305540536
 30
0.0
 40
4.0
  1
コード
 72
     1
 11
627.0325938370363
 21
-472.7204305540536
 31
0.0
100
AcDbText
  0
LINE
  5
21D82
330
18
100
AcDbEntity
  8
1DIM
100
AcDbLine
 10
539.6325938370362
 20
-495.2204305540536
 30
0.0
 11
539.6325938370362
 21
-467.2204305540536
 31
0.0
  0
LINE
  5
21D83
330
18
100
AcDbEntity
  8
1DIM
100
AcDbLine
 10
644.6325938370358
 20
-495.2204305540536
 30
0.0
 11
644.6325938370362
 21
-467.2204305540536
 31
0.0
  0
TEXT
  5
21D85
330
18
100
AcDbEntity
  8
1TEXT
100
AcDbText
 10
547.5659271703696
 20
-479.5557192135778
 30
0.0
 40
4.0
  1
クローム
 72
     1
 11
557.0325938370363
 21
-479.5557192135778
 31
0.0
100
AcDbText
  0
TEXT
  5
21D86
330
18
100
AcDbEntity
  8
1TEXT
100
AcDbText
 10
611.7325938370366
 20
-479.9347875377028
 30
0.0
 40
4.0
  1
SE-171-XCL
 41
0.85
 72
     1
 11
627.0325938370365
 21
-479.9347875377028
 31
0.0
100
AcDbText
  0
LINE
  5
21D87
330
18
100
AcDbEntity
  8
1DIM
100
AcDbLine
 10
539.6325938370362
 20
-488.2204305540536
 30
0.0
 11
644.6325938370358
 21
-488.2204305540536
 31
0.0
  0
TEXT
  5
21D88
330
18
100
AcDbEntity
  8
1TEXT
100
AcDbText
 10
540.499260503703
 20
-486.5557192135778
 30
0.0
 40
4.0
  1
サテンニッケル
 72
     1
 11
557.0325938370363
 21
-486.5557192135778
 31
0.0
100
AcDbText
  0
TEXT
  5
21D89
330
18
100
AcDbEntity
  8
1TEXT
100
AcDbText
 10
611.7325938370366
 20
-486.9347875377028
 30
0.0
 40
4.0
  1
SE-171-NTL
 41
0.85
 72
     1
 11
627.0325938370365
 21
-486.9347875377028
 31
0.0
100
AcDbText
  0
LINE
  5
21D8A
330
18
100
AcDbEntity
  8
1DIM
100
AcDbLine
 10
539.6325938370362
 20
-495.2204305540536
 30
0.0
 11
644.6325938370358
 21
-495.2204305540536
 31
0.0
  0
TEXT
  5
21D8B
330
18
100
AcDbEntity
  8
1TEXT
100
AcDbText
 10
540.7659271703697
 20
-493.5557192135778
 30
0.0
 40
4.0
  1
マットブラック
 72
     1
 11
557.0325938370363
 21
-493.5557192135778
 31
0.0
100
AcDbText
  0
TEXT
  5
21D8D
330
18
100
AcDbEntity
  8
1TEXT
100
AcDbText
 10
542.298334577777
 20
-472.7204305540536
 30
0.0
 40
4.0
  1
表面処理:脚部
 72
     1
 11
557.0325938370363
 21
-472.7204305540536
 31
0.0
100
AcDbText
  0
TEXT
  5
21D8E
330
18
100
AcDbEntity
  8
1TEXT
100
AcDbText
 10
582.8059271703701
 20
-486.934787537703
 30
0.0
 40
4.0
  1
ヘアライン
 41
0.8
 72
     1
 11
592.0325938370368
 21
-486.934787537703
 31
0.0
100
AcDbText
  0
TEXT
  5
21D8F
330
18
100
AcDbEntity
  8
1TEXT
100
AcDbText
 10
588.5659271703701
 20
-479.934787537703
 30
0.0
 40
4.0
  1
鏡面
 41
0.8
 72
     1
 11
592.0325938370368
 21
-479.934787537703
 31
0.0
100
AcDbText
  0
TEXT
  5
21D90
330
18
100
AcDbEntity
  8
1TEXT
100
AcDbText
 10
578.2718530962956
 20
-472.7204305540536
 30
0.0
 40
4.0
  1
表面処理:レール
 41
0.8
 72
     1
 11
592.0325938370363
 21
-472.7204305540536
 31
0.0
100
AcDbText
  0
LINE
  5
21D91
330
18
100
AcDbEntity
  8
1DIM
100
AcDbLine
 10
574.6325938370362
 20
-495.2204305540536
 30
0.0
 11
574.6325938370362
 21
-467.2204305540536
 31
0.0
  0
TEXT
  5
21D92
330
18
100
AcDbEntity
  8
1TEXT
100
AcDbText
 10
575.7659271703697
 20
-493.5557192135778
 30
0.0
 40
4.0
  1
マットブラック
 72
     1
 11
592.0325938370363
 21
-493.5557192135778
 31
0.0
100
AcDbText
  0
TEXT
  5
21F46
330
18
100
AcDbEntity
  8
01
  6
CONTINUOUS
100
AcDbText
 10
749.7537571261875
 20
-598.3365224252085
 30
0.0
 40
3.5
  1
PB
100
AcDbText
  0
TEXT
  5
21F47
330
18
100
AcDbEntity
  8
01
  6
CONTINUOUS
100
AcDbText
 10
762.8891752713527
 20
-598.3365224252085
 30
0.0
 40
3.5
  1
合板9mm以上
100
AcDbText
  0
LINE
  5
21F48
330
18
100
AcDbEntity
  8
1DIM1
100
AcDbLine
 10
-70.7337523420756
 20
-644.4428835977922
 30
0.0
 11
-70.7337523420756
 21
-704.4213303512677
 31
0.0
1001
ACAD
1000
DSTYLE
1002
{
1070
    40
1040
3.0
1070
    45
1040
0.5
1002
}
  0
LINE
  5
21F49
330
18
100
AcDbEntity
  8
1DIM1
100
AcDbLine
 10
629.2662419429378
 20
-644.4428835977922
 30
0.0
 11
629.2662419429378
 21
-704.4213303512677
 31
0.0
1001
ACAD
1000
DSTYLE
1002
{
1070
    40
1040
3.0
1070
    45
1040
0.5
1002
}
  0
LINE
  5
21F4A
330
18
100
AcDbEntity
  8
1DIM1
100
AcDbLine
 10
-64.7337523420756
 20
-701.4213303512677
 30
0.0
 11
623.2662419429378
 21
-701.4213303512677
 31
0.0
1001
ACAD
1000
DSTYLE
1002
{
1070
    40
1040
3.0
1070
    45
1040
0.5
1002
}
  0
SOLID
  5
21F4E
330
18
100
AcDbEntity
  8
1DIM
100
AcDbTrace
 10
571.2053857607035
 20
-652.8517979089814
 30
0.0
 11
570.382060321574
 21
-654.7047000468164
 31
0.0
 12
570.5599404490204
 22
-652.684930314552
 32
0.0
 13
570.5599404490204
 23
-652.684930314552
 33
0.0
1001
ACAD
1000
DSTYLE
1002
{
1070
    45
1040
0.5
1002
}
  0
LINE
  5
21F4F
330
18
100
AcDbEntity
  8
1DIM
100
AcDbLine
 10
570.8826631048619
 20
-652.7683641117668
 30
0.0
 11
574.0181908163233
 21
-640.6401155567542
 31
0.0
1001
ACAD
1000
DSTYLE
1002
{
1070
    45
1040
0.5
1002
}
  0
LINE
  5
21F50
330
18
100
AcDbEntity
  8
1DIM
100
AcDbLine
 10
574.0181908163233
 20
-640.6401155567542
 30
0.0
 11
613.7015241496567
 21
-640.6401155567542
 31
0.0
1001
ACAD
1000
DSTYLE
1002
{
1070
    45
1040
0.5
1002
}
  0
TEXT
  5
21F51
330
18
100
AcDbEntity
  8
1DIM
  6
CONTINUOUS
100
AcDbText
 10
576.48485748299
 20
-634.1067822234207
 30
0.0
 40
3.5
  1
材質：ステンレス
100
AcDbText
  0
TEXT
  5
21F52
330
18
100
AcDbEntity
  8
1DIM
  6
CONTINUOUS
100
AcDbText
 10
576.6015241496567
 20
-639.9401155567541
 30
0.0
 40
3.5
  1
仕上げ：各種仕上げ
100
AcDbText
  0
SOLID
  5
21F53
330
18
100
AcDbEntity
  8
1DIM
100
AcDbTrace
 10
617.2393418625549
 20
-662.8993386508643
 30
0.0
 11
618.7877042201083
 21
-661.5902606849575
 31
0.0
 12
617.7476029519058
 22
-663.3307492551569
 32
0.0
 13
617.7476029519058
 23
-663.3307492551569
 33
0.0
1001
ACAD
1000
DSTYLE
1002
{
1070
    45
1040
0.5
1002
}
  0
LINE
  5
21F54
330
18
100
AcDbEntity
  8
1DIM
100
AcDbLine
 10
617.4934724072303
 20
-663.1150439530105
 30
0.0
 11
601.981636227254
 21
-681.3901226743524
 31
0.0
1001
ACAD
1000
DSTYLE
1002
{
1070
    45
1040
0.5
1002
}
  0
LINE
  5
21F55
330
18
100
AcDbEntity
  8
1DIM
100
AcDbLine
 10
601.981636227254
 20
-681.3901226743524
 30
0.0
 11
554.7149695605873
 21
-681.3901226743524
 31
0.0
1001
ACAD
1000
DSTYLE
1002
{
1070
    45
1040
0.5
1002
}
  0
TEXT
  5
21F56
330
18
100
AcDbEntity
  8
1DIM
  6
CONTINUOUS
100
AcDbText
 10
554.4816362272538
 20
-674.856789341019
 30
0.0
 40
3.5
  1
材質：亜鉛ダイキャスト
100
AcDbText
1001
ACADANNOTATIVE
1000
AnnotativeData
1002
{
1070
     1
1070
     0
1002
}
  0
TEXT
  5
21F57
330
18
100
AcDbEntity
  8
1DIM
  6
CONTINUOUS
100
AcDbText
 10
562.1816362272539
 20
-680.6901226743523
 30
0.0
 40
3.5
  1
仕上げ：各種仕上げ
100
AcDbText
1001
ACADANNOTATIVE
1000
AnnotativeData
1002
{
1070
     1
1070
     0
1002
}
  0
LINE
  5
21F58
330
18
100
AcDbEntity
  8
1DIM
100
AcDbLine
 10
684.93083717971
 20
-661.8366597679017
 30
0.0
 11
684.93083717971
 21
-690.2406680819477
 31
0.0
1001
ACAD
1000
DSTYLE
1002
{
1070
    45
1040
0.5
1002
}
  0
LINE
  5
21F59
330
18
100
AcDbEntity
  8
1DIM
100
AcDbLine
 10
743.016241615365
 20
-679.9957650576096
 30
0.0
 11
743.016241615365
 21
-690.2406680819477
 31
0.0
1001
ACAD
1000
DSTYLE
1002
{
1070
    45
1040
0.5
1002
}
  0
LINE
  5
21F5A
330
18
100
AcDbEntity
  8
1DIM
100
AcDbLine
 10
686.93083717971
 20
-689.2406680819477
 30
0.0
 11
741.016241615365
 21
-689.2406680819477
 31
0.0
1001
ACAD
1000
DSTYLE
1002
{
1070
    45
1040
0.5
1002
}
  0
LINE
  5
21F5E
330
18
100
AcDbEntity
  8
1DIM
100
AcDbLine
 10
743.016241615365
 20
-679.9957650576096
 30
0.0
 11
743.016241615365
 21
-682.109722080378
 31
0.0
1001
ACAD
1000
DSTYLE
1002
{
1070
    45
1040
0.5
1002
}
  0
LINE
  5
21F5F
330
18
100
AcDbEntity
  8
1DIM
100
AcDbLine
 10
719.0165622713502
 20
-655.8110075349908
 30
0.0
 11
719.0165622713502
 21
-682.109722080378
 31
0.0
1001
ACAD
1000
DSTYLE
1002
{
1070
    45
1040
0.5
1002
}
  0
LINE
  5
21F60
330
18
100
AcDbEntity
  8
1DIM
100
AcDbLine
 10
741.016241615365
 20
-681.109722080378
 30
0.0
 11
721.0165622713502
 21
-681.109722080378
 31
0.0
1001
ACAD
1000
DSTYLE
1002
{
1070
    45
1040
0.5
1002
}
  0
LINE
  5
21F64
330
18
100
AcDbEntity
  8
1DIM
100
AcDbLine
 10
775.447036532668
 20
-641.3215698718664
 30
0.0
 11
785.516241615365
 21
-641.3215698718664
 31
0.0
1001
ACAD
1000
DSTYLE
1002
{
1070
    45
1040
0.5
1070
   271
1070
     0
1002
}
  0
LINE
  5
21F65
330
18
100
AcDbEntity
  8
1DIM
100
AcDbLine
 10
739.9970136330046
 20
-628.8027677887316
 30
0.0
 11
785.516241615365
 21
-628.8027677887316
 31
0.0
1001
ACAD
1000
DSTYLE
1002
{
1070
    45
1040
0.5
1070
   271
1070
     0
1002
}
  0
LINE
  5
21F66
330
18
100
AcDbEntity
  8
1DIM
100
AcDbLine
 10
784.516241615365
 20
-639.3215698718664
 30
0.0
 11
784.516241615365
 21
-630.8027677887316
 31
0.0
1001
ACAD
1000
DSTYLE
1002
{
1070
    45
1040
0.5
1070
   271
1070
     0
1002
}
  0
LINE
  5
21F6A
330
18
100
AcDbEntity
  8
1DIM1
100
AcDbLine
 10
-84.48375211066491
 20
-655.821330351268
 30
0.0
 11
-84.48375211066491
 21
-734.4213303512677
 31
0.0
1001
ACAD
1000
DSTYLE
1002
{
1070
    40
1040
3.0
1070
    45
1040
0.5
1002
}
  0
LINE
  5
21F6B
330
18
100
AcDbEntity
  8
1DIM1
100
AcDbLine
 10
643.0162416153653
 20
-655.8213303512664
 30
0.0
 11
643.0162416153653
 21
-734.4213303512677
 31
0.0
1001
ACAD
1000
DSTYLE
1002
{
1070
    40
1040
3.0
1070
    45
1040
0.5
1002
}
  0
LINE
  5
21F6C
330
18
100
AcDbEntity
  8
1DIM1
100
AcDbLine
 10
-78.48375211066491
 20
-731.4213303512677
 30
0.0
 11
637.0162416153653
 21
-731.4213303512677
 31
0.0
1001
ACAD
1000
DSTYLE
1002
{
1070
    40
1040
3.0
1070
    45
1040
0.5
1002
}
  0
LINE
  5
21F70
330
18
100
AcDbEntity
  8
1DIM
100
AcDbLine
 10
687.6091448346859
 20
-663.8404381108153
 30
0.0
 11
795.516241615365
 21
-663.8404381108153
 31
0.0
1001
ACAD
1000
DSTYLE
1002
{
1070
    45
1040
0.5
1002
}
  0
LINE
  5
21F71
330
18
100
AcDbEntity
  8
1DIM
100
AcDbLine
 10
739.9970136330046
 20
-628.8027677887316
 30
0.0
 11
795.516241615365
 21
-628.8027677887316
 31
0.0
1001
ACAD
1000
DSTYLE
1002
{
1070
    45
1040
0.5
1002
}
  0
LINE
  5
21F72
330
18
100
AcDbEntity
  8
1DIM
100
AcDbLine
 10
794.516241615365
 20
-661.8404381108153
 30
0.0
 11
794.516241615365
 21
-630.8027677887316
 31
0.0
1001
ACAD
1000
DSTYLE
1002
{
1070
    45
1040
0.5
1002
}
  0
LINE
  5
21F76
330
18
100
AcDbEntity
  8
1DIM
100
AcDbLine
 10
643.0162494764468
 20
-536.821322326691
 30
0.0
 11
643.0162494764468
 21
-499.8213303512664
 31
0.0
1001
ACAD
1000
DSTYLE
1002
{
1070
    45
1040
0.5
1002
}
  0
LINE
  5
21F77
330
18
100
AcDbEntity
  8
1DIM
100
AcDbLine
 10
615.5162526123796
 20
-536.8212386096336
 30
0.0
 11
615.5162526123796
 21
-499.8213303512664
 31
0.0
1001
ACAD
1000
DSTYLE
1002
{
1070
    45
1040
0.5
1002
}
  0
LINE
  5
21F78
330
18
100
AcDbEntity
  8
1DIM
100
AcDbLine
 10
641.0162494764468
 20
-500.8213303512664
 30
0.0
 11
617.5162526123796
 21
-500.8213303512664
 31
0.0
1001
ACAD
1000
DSTYLE
1002
{
1070
    45
1040
0.5
1002
}
  0
SOLID
  5
21F7C
330
18
100
AcDbEntity
  8
1DIM
100
AcDbTrace
 10
746.6708479197653
 20
-611.8816903348928
 30
0.0
 11
745.9299131930724
 21
-613.769050089124
 31
0.0
 12
746.0186807169501
 22
-611.7434066264643
 32
0.0
 13
746.0186807169501
 23
-611.7434066264643
 33
0.0
1001
ACAD
1000
DSTYLE
1002
{
1070
    45
1040
0.5
1002
}
  0
LINE
  5
21F7D
330
18
100
AcDbEntity
  8
1DIM
100
AcDbLine
 10
746.3447643183576
 20
-611.8125484806785
 30
0.0
 11
749.0537571261874
 21
-599.0365224252085
 31
0.0
1001
ACAD
1000
DSTYLE
1002
{
1070
    45
1040
0.5
1002
}
  0
SOLID
  5
21F7E
330
18
100
AcDbEntity
  8
1DIM
100
AcDbTrace
 10
759.8062660649305
 20
-611.8816903348928
 30
0.0
 11
759.0653313382376
 21
-613.769050089124
 31
0.0
 12
759.1540988621153
 22
-611.7434066264643
 32
0.0
 13
759.1540988621153
 23
-611.7434066264643
 33
0.0
1001
ACAD
1000
DSTYLE
1002
{
1070
    45
1040
0.5
1002
}
  0
LINE
  5
21F7F
330
18
100
AcDbEntity
  8
1DIM
100
AcDbLine
 10
759.4801824635229
 20
-611.8125484806785
 30
0.0
 11
762.1891752713526
 21
-599.0365224252085
 31
0.0
1001
ACAD
1000
DSTYLE
1002
{
1070
    45
1040
0.5
1002
}
  0
LINE
  5
21F80
330
18
100
AcDbEntity
  8
0
100
AcDbLine
 10
629.2662960123446
 20
-504.8213303514287
 30
0.0
 11
627.7662960123446
 21
-510.1213268612904
 31
0.0
  0
LINE
  5
21F81
330
18
100
AcDbEntity
  8
0
100
AcDbLine
 10
627.7662960123446
 20
-510.1213268612904
 30
0.0
 11
627.7662960123448
 21
-539.8213268611823
 31
0.0
  0
LINE
  5
21F82
330
18
100
AcDbEntity
  8
0
100
AcDbLine
 10
629.2662960123446
 20
-504.8213303514287
 30
0.0
 11
630.7662960123447
 21
-510.1213338416741
 31
0.0
  0
LINE
  5
21F83
330
18
100
AcDbEntity
  8
0
100
AcDbLine
 10
625.7662494764468
 20
-539.8213222074842
 30
0.0
 11
632.7662494764467
 21
-539.8213384950486
 31
0.0
  0
LINE
  5
21F84
330
18
100
AcDbEntity
  8
0
100
AcDbLine
 10
630.7662960123447
 20
-510.1213338416741
 30
0.0
 11
630.7662960123448
 21
-539.821333841567
 31
0.0
  0
LINE
  5
21F85
330
18
100
AcDbEntity
  8
0
100
AcDbLine
 10
625.7662494764468
 20
-539.8213222074842
 30
0.0
 11
625.7662494764467
 21
-540.9213256976795
 31
0.0
  0
ARC
  5
21F86
330
18
100
AcDbEntity
  8
0
100
AcDbCircle
 10
627.2662494764467
 20
-540.9213256976795
 30
0.0
 40
1.5
100
AcDbArc
 50
180.0
 51
269.9998666844662
  0
LINE
  5
21F87
330
18
100
AcDbEntity
  8
0
100
AcDbLine
 10
632.7662494764467
 20
-539.8213384950486
 30
0.0
 11
632.7662494764467
 21
-540.9213350048592
 31
0.0
  0
LINE
  5
21F88
330
18
100
AcDbEntity
  8
0
100
AcDbLine
 10
627.2662459862543
 20
-542.4213256976755
 30
0.0
 11
631.2662459862543
 21
-542.4213350048551
 31
0.0
  0
ARC
  5
21F89
330
18
100
AcDbEntity
  8
0
100
AcDbCircle
 10
631.2662494764467
 20
-540.9213350048592
 30
0.0
 40
1.5
100
AcDbArc
 50
269.9998666844662
 51
0.0
  0
LINE
  5
21F8A
330
18
100
AcDbEntity
  8
1CENTER
100
AcDbLine
 10
629.2662494764467
 20
-503.3905354339634
 30
0.0
 11
629.2662494764467
 21
-543.4916067605752
 31
0.0
  0
LINE
  5
21F8B
330
18
100
AcDbEntity
  8
0
100
AcDbLine
 10
628.1719256624516
 20
-506.9213278051066
 30
0.0
 11
630.134260751327
 21
-506.1213323710556
 31
0.0
  0
LINE
  5
21F8C
330
18
100
AcDbEntity
  8
0
100
AcDbLine
 10
630.134260751327
 20
-506.1213323710556
 30
0.0
 11
629.5459841762846
 21
-505.8095625148035
 31
0.0
  0
LINE
  5
21F8D
330
18
100
AcDbEntity
  8
0
100
AcDbLine
 10
627.2662960123446
 20
-529.3213256978966
 30
0.0
 11
631.2662960123446
 21
-528.5213350050783
 31
0.0
  0
LINE
  5
21F8E
330
18
100
AcDbEntity
  8
0
100
AcDbLine
 10
627.2662960123446
 20
-518.1213256978922
 30
0.0
 11
631.2662960123446
 21
-517.3213350050696
 31
0.0
  0
LINE
  5
21F8F
330
18
100
AcDbEntity
  8
0
100
AcDbLine
 10
627.2662960123446
 20
-514.9213256978921
 30
0.0
 11
631.2662960123446
 21
-514.1213350050696
 31
0.0
  0
LINE
  5
21F90
330
18
100
AcDbEntity
  8
0
100
AcDbLine
 10
631.2662960123446
 20
-514.1213350050696
 30
0.0
 11
630.7662960123446
 21
-514.0213338416723
 31
0.0
  0
LINE
  5
21F91
330
18
100
AcDbEntity
  8
0
100
AcDbLine
 10
627.7662960123446
 20
-513.4213268612893
 30
0.0
 11
627.2662960123446
 21
-513.3213256978921
 31
0.0
  0
LINE
  5
21F92
330
18
100
AcDbEntity
  8
0
100
AcDbLine
 10
631.2662960123446
 20
-517.3213350050696
 30
0.0
 11
630.7662960123446
 21
-517.2213338416724
 31
0.0
  0
LINE
  5
21F93
330
18
100
AcDbEntity
  8
0
100
AcDbLine
 10
631.2662960123446
 20
-515.7213350050695
 30
0.0
 11
630.7662960123446
 21
-515.6213338416724
 31
0.0
  0
LINE
  5
21F94
330
18
100
AcDbEntity
  8
0
100
AcDbLine
 10
627.7662960123446
 20
-515.0213268612893
 30
0.0
 11
627.2662960123446
 21
-514.9213256978921
 31
0.0
  0
LINE
  5
21F95
330
18
100
AcDbEntity
  8
0
100
AcDbLine
 10
627.7662960123446
 20
-516.6213268612892
 30
0.0
 11
627.2662960123446
 21
-516.521325697892
 31
0.0
  0
LINE
  5
21F96
330
18
100
AcDbEntity
  8
0
100
AcDbLine
 10
627.2662960123446
 20
-516.521325697892
 30
0.0
 11
631.2662960123446
 21
-515.7213350050695
 31
0.0
  0
LINE
  5
21F97
330
18
100
AcDbEntity
  8
0
100
AcDbLine
 10
630.5870748557338
 20
-507.7213334246612
 30
0.0
 11
630.0353253919305
 21
-507.5385692820332
 31
0.0
  0
LINE
  5
21F98
330
18
100
AcDbEntity
  8
0
100
AcDbLine
 10
631.2662960123446
 20
-510.9213350050695
 30
0.0
 11
630.7662960123446
 21
-510.8213338416724
 31
0.0
  0
LINE
  5
21F99
330
18
100
AcDbEntity
  8
0
100
AcDbLine
 10
631.2662960123446
 20
-512.5213350050695
 30
0.0
 11
630.7662960123446
 21
-512.4213338416725
 31
0.0
  0
LINE
  5
21F9A
330
18
100
AcDbEntity
  8
0
100
AcDbLine
 10
631.0398889601406
 20
-509.3213344782669
 30
0.0
 11
630.5032952248695
 21
-509.192063780637
 31
0.0
  0
LINE
  5
21F9B
330
18
100
AcDbEntity
  8
0
100
AcDbLine
 10
628.1872106095533
 20
-508.6340962638524
 30
0.0
 11
627.7191121544033
 21
-508.5213267515023
 31
0.0
  0
LINE
  5
21F9C
330
18
100
AcDbEntity
  8
0
100
AcDbLine
 10
627.7662960123446
 20
-511.8213268612892
 30
0.0
 11
627.2662960123446
 21
-511.7213256978921
 31
0.0
  0
LINE
  5
21F9D
330
18
100
AcDbEntity
  8
0
100
AcDbLine
 10
627.7662960123446
 20
-510.2213268612893
 30
0.0
 11
627.2662960123446
 21
-510.1213256978922
 31
0.0
  0
LINE
  5
21F9E
330
18
100
AcDbEntity
  8
0
100
AcDbLine
 10
628.6290975030827
 20
-507.072763601547
 30
0.0
 11
628.1719256624516
 21
-506.9213278051066
 31
0.0
  0
LINE
  5
21F9F
330
18
100
AcDbEntity
  8
0
100
AcDbLine
 10
627.7191121544033
 20
-508.5213267515023
 30
0.0
 11
630.5870748557338
 21
-507.7213334246612
 31
0.0
  0
LINE
  5
21FA0
330
18
100
AcDbEntity
  8
0
100
AcDbLine
 10
627.2662960123446
 20
-511.7213256978921
 30
0.0
 11
631.2662960123446
 21
-510.9213350050695
 31
0.0
  0
LINE
  5
21FA1
330
18
100
AcDbEntity
  8
0
100
AcDbLine
 10
627.2662960123446
 20
-510.1213256978922
 30
0.0
 11
631.0398889601406
 21
-509.3213344782669
 31
0.0
  0
LINE
  5
21FA2
330
18
100
AcDbEntity
  8
0
100
AcDbLine
 10
627.2662960123446
 20
-513.3213256978921
 30
0.0
 11
631.2662960123446
 21
-512.5213350050695
 31
0.0
  0
LINE
  5
21FA3
330
18
100
AcDbEntity
  8
0
100
AcDbLine
 10
627.2662960123446
 20
-526.1213256978965
 30
0.0
 11
631.2662960123446
 21
-525.3213350050783
 31
0.0
  0
LINE
  5
21FA4
330
18
100
AcDbEntity
  8
0
100
AcDbLine
 10
631.2662960123446
 20
-525.3213350050783
 30
0.0
 11
630.7662960123446
 21
-525.2213338416806
 31
0.0
  0
LINE
  5
21FA5
330
18
100
AcDbEntity
  8
0
100
AcDbLine
 10
627.7662960123446
 20
-524.6213268612898
 30
0.0
 11
627.2662960123446
 21
-524.5213256978922
 31
0.0
  0
LINE
  5
21FA6
330
18
100
AcDbEntity
  8
0
100
AcDbLine
 10
631.2662960123446
 20
-526.9213350050784
 30
0.0
 11
630.7662960123446
 21
-526.8213338416807
 31
0.0
  0
LINE
  5
21FA7
330
18
100
AcDbEntity
  8
0
100
AcDbLine
 10
631.2662960123446
 20
-528.5213350050783
 30
0.0
 11
630.7662960123446
 21
-528.4213338416806
 31
0.0
  0
LINE
  5
21FA8
330
18
100
AcDbEntity
  8
0
100
AcDbLine
 10
627.7662960123446
 20
-526.2213268612942
 30
0.0
 11
627.2662960123446
 21
-526.1213256978965
 31
0.0
  0
LINE
  5
21FA9
330
18
100
AcDbEntity
  8
0
100
AcDbLine
 10
627.7662960123446
 20
-527.8213268612943
 30
0.0
 11
627.2662960123446
 21
-527.7213256978966
 31
0.0
  0
LINE
  5
21FAA
330
18
100
AcDbEntity
  8
0
100
AcDbLine
 10
627.2662960123446
 20
-527.7213256978966
 30
0.0
 11
631.2662960123446
 21
-526.9213350050784
 31
0.0
  0
LINE
  5
21FAB
330
18
100
AcDbEntity
  8
0
100
AcDbLine
 10
631.2662960123446
 20
-520.5213350050739
 30
0.0
 11
630.7662960123446
 21
-520.4213338416762
 31
0.0
  0
LINE
  5
21FAC
330
18
100
AcDbEntity
  8
0
100
AcDbLine
 10
631.2662960123446
 20
-518.9213350050695
 30
0.0
 11
630.7662960123446
 21
-518.8213338416724
 31
0.0
  0
LINE
  5
21FAD
330
18
100
AcDbEntity
  8
0
100
AcDbLine
 10
631.2662960123446
 20
-523.7213350050739
 30
0.0
 11
630.7662960123446
 21
-523.6213338416762
 31
0.0
  0
LINE
  5
21FAE
330
18
100
AcDbEntity
  8
0
100
AcDbLine
 10
631.2662960123446
 20
-522.121335005074
 30
0.0
 11
630.7662960123446
 21
-522.0213338416763
 31
0.0
  0
LINE
  5
21FAF
330
18
100
AcDbEntity
  8
0
100
AcDbLine
 10
627.7662960123446
 20
-518.2213268612893
 30
0.0
 11
627.2662960123446
 21
-518.1213256978922
 31
0.0
  0
LINE
  5
21FB0
330
18
100
AcDbEntity
  8
0
100
AcDbLine
 10
627.7662960123446
 20
-519.8213268612899
 30
0.0
 11
627.2662960123446
 21
-519.7213256978921
 31
0.0
  0
LINE
  5
21FB1
330
18
100
AcDbEntity
  8
0
100
AcDbLine
 10
627.7662960123446
 20
-523.0213268612899
 30
0.0
 11
627.2662960123446
 21
-522.9213256978923
 31
0.0
  0
LINE
  5
21FB2
330
18
100
AcDbEntity
  8
0
100
AcDbLine
 10
627.7662960123446
 20
-521.4213268612898
 30
0.0
 11
627.2662960123446
 21
-521.3213256978921
 31
0.0
  0
LINE
  5
21FB3
330
18
100
AcDbEntity
  8
0
100
AcDbLine
 10
627.2662960123446
 20
-521.3213256978921
 30
0.0
 11
631.2662960123446
 21
-520.5213350050739
 31
0.0
  0
LINE
  5
21FB4
330
18
100
AcDbEntity
  8
0
100
AcDbLine
 10
627.2662960123446
 20
-519.7213256978921
 30
0.0
 11
631.2662960123446
 21
-518.9213350050695
 31
0.0
  0
LINE
  5
21FB5
330
18
100
AcDbEntity
  8
0
100
AcDbLine
 10
627.2662960123446
 20
-522.9213256978923
 30
0.0
 11
631.2662960123446
 21
-522.121335005074
 31
0.0
  0
LINE
  5
21FB6
330
18
100
AcDbEntity
  8
0
100
AcDbLine
 10
627.2662960123446
 20
-524.5213256978922
 30
0.0
 11
631.2662960123446
 21
-523.7213350050739
 31
0.0
  0
LINE
  5
21FB7
330
18
100
AcDbEntity
  8
0
100
AcDbLine
 10
627.7662960123446
 20
-534.2213268612984
 30
0.0
 11
627.2662960123446
 21
-534.1213256979007
 31
0.0
  0
LINE
  5
21FB8
330
18
100
AcDbEntity
  8
0
100
AcDbLine
 10
627.2662960123446
 20
-534.1213256979007
 30
0.0
 11
631.2662960123446
 21
-533.3213350050825
 31
0.0
  0
LINE
  5
21FB9
330
18
100
AcDbEntity
  8
0
100
AcDbLine
 10
631.2662960123446
 20
-533.3213350050825
 30
0.0
 11
630.7662960123446
 21
-533.2213338416848
 31
0.0
  0
LINE
  5
21FBA
330
18
100
AcDbEntity
  8
0
100
AcDbLine
 10
627.7662960123446
 20
-532.6213268612985
 30
0.0
 11
627.2662960123446
 21
-532.5213256979008
 31
0.0
  0
LINE
  5
21FBB
330
18
100
AcDbEntity
  8
0
100
AcDbLine
 10
627.7662960123446
 20
-531.0213268612986
 30
0.0
 11
627.2662960123446
 21
-530.9213256979009
 31
0.0
  0
LINE
  5
21FBC
330
18
100
AcDbEntity
  8
0
100
AcDbLine
 10
627.2662960123446
 20
-530.9213256979009
 30
0.0
 11
631.2662960123446
 21
-530.1213350050826
 31
0.0
  0
LINE
  5
21FBD
330
18
100
AcDbEntity
  8
0
100
AcDbLine
 10
631.2662960123446
 20
-531.7213350050826
 30
0.0
 11
630.7662960123446
 21
-531.6213338416849
 31
0.0
  0
LINE
  5
21FBE
330
18
100
AcDbEntity
  8
0
100
AcDbLine
 10
631.2662960123446
 20
-530.1213350050826
 30
0.0
 11
630.7662960123446
 21
-530.021333841685
 31
0.0
  0
LINE
  5
21FBF
330
18
100
AcDbEntity
  8
0
100
AcDbLine
 10
627.2662960123446
 20
-532.5213256979008
 30
0.0
 11
631.2662960123446
 21
-531.7213350050826
 31
0.0
  0
LINE
  5
21FC0
330
18
100
AcDbEntity
  8
0
100
AcDbLine
 10
627.7662960123446
 20
-529.4213268612942
 30
0.0
 11
627.2662960123446
 21
-529.3213256978966
 31
0.0
  0
LINE
  5
21FC1
330
18
100
AcDbEntity
  8
0
100
AcDbLine
 10
627.7662960123446
 20
-535.8213268612983
 30
0.0
 11
627.2662960123446
 21
-535.7213256979006
 31
0.0
  0
LINE
  5
21FC2
330
18
100
AcDbEntity
  8
0
100
AcDbLine
 10
627.2662960123446
 20
-535.7213256979006
 30
0.0
 11
631.2662960123446
 21
-534.9213350050824
 31
0.0
  0
LINE
  5
21FC3
330
18
100
AcDbEntity
  8
0
100
AcDbLine
 10
631.2662960123446
 20
-534.9213350050824
 30
0.0
 11
630.7662960123446
 21
-534.8213338416847
 31
0.0
  0
LINE
  5
21FC4
330
18
100
AcDbEntity
  8
0
100
AcDbLine
 10
627.7662960123446
 20
-537.4213268612982
 30
0.0
 11
627.2662960123446
 21
-537.3213256979005
 31
0.0
  0
LINE
  5
21FC5
330
18
100
AcDbEntity
  8
0
100
AcDbLine
 10
627.2662960123446
 20
-537.3213256979005
 30
0.0
 11
631.2662960123446
 21
-536.5213350050823
 31
0.0
  0
LINE
  5
21FC6
330
18
100
AcDbEntity
  8
0
100
AcDbLine
 10
631.2662960123446
 20
-536.5213350050823
 30
0.0
 11
630.7662960123446
 21
-536.4213338416846
 31
0.0
  0
LINE
  5
21FC7
330
18
100
AcDbEntity
  8
0
100
AcDbLine
 10
627.7662960123446
 20
-539.0213268612981
 30
0.0
 11
627.2662960123446
 21
-538.9213256979004
 31
0.0
  0
LINE
  5
21FC8
330
18
100
AcDbEntity
  8
0
100
AcDbLine
 10
627.2662960123446
 20
-538.9213256979004
 30
0.0
 11
631.2662960123446
 21
-538.1213350050822
 31
0.0
  0
LINE
  5
21FC9
330
18
100
AcDbEntity
  8
0
100
AcDbLine
 10
631.2662960123446
 20
-538.1213350050822
 30
0.0
 11
630.7662960123446
 21
-538.0213338416845
 31
0.0
  0
LINE
  5
21FCA
330
18
100
AcDbEntity
  8
0
100
AcDbLine
 10
-70.73370085081154
 20
-504.8213291371005
 30
0.0
 11
-72.23370085081154
 21
-510.1213256469622
 31
0.0
  0
LINE
  5
21FCB
330
18
100
AcDbEntity
  8
0
100
AcDbLine
 10
-72.23370085081154
 20
-510.1213256469622
 30
0.0
 11
-72.23370085081132
 21
-539.8213256468541
 31
0.0
  0
LINE
  5
21FCC
330
18
100
AcDbEntity
  8
0
100
AcDbLine
 10
-70.73370085081154
 20
-504.8213291371005
 30
0.0
 11
-69.23370085081143
 21
-510.1213326273459
 31
0.0
  0
LINE
  5
21FCD
330
18
100
AcDbEntity
  8
0
100
AcDbLine
 10
-74.23374738670935
 20
-539.821320993156
 30
0.0
 11
-67.23374738670947
 21
-539.8213372807204
 31
0.0
  0
LINE
  5
21FCE
330
18
100
AcDbEntity
  8
0
100
AcDbLine
 10
-69.23370085081143
 20
-510.1213326273459
 30
0.0
 11
-69.23370085081132
 21
-539.8213326272388
 31
0.0
  0
LINE
  5
21FCF
330
18
100
AcDbEntity
  8
0
100
AcDbLine
 10
-74.23374738670935
 20
-539.821320993156
 30
0.0
 11
-74.23374738670947
 21
-540.9213244833513
 31
0.0
  0
ARC
  5
21FD0
330
18
100
AcDbEntity
  8
0
100
AcDbCircle
 10
-72.73374738670947
 20
-540.9213244833513
 30
0.0
 40
1.5
100
AcDbArc
 50
180.0
 51
269.9998666844684
  0
LINE
  5
21FD1
330
18
100
AcDbEntity
  8
0
100
AcDbLine
 10
-67.23374738670947
 20
-539.8213372807204
 30
0.0
 11
-67.23374738670947
 21
-540.921333790531
 31
0.0
  0
LINE
  5
21FD2
330
18
100
AcDbEntity
  8
0
100
AcDbLine
 10
-72.73375087690187
 20
-542.4213244833472
 30
0.0
 11
-68.73375087690187
 21
-542.4213337905269
 31
0.0
  0
ARC
  5
21FD3
330
18
100
AcDbEntity
  8
0
100
AcDbCircle
 10
-68.73374738670947
 20
-540.921333790531
 30
0.0
 40
1.5
100
AcDbArc
 50
269.9998666844684
 51
0.0
  0
LINE
  5
21FD4
330
18
100
AcDbEntity
  8
1CENTER
100
AcDbLine
 10
-70.73374738670947
 20
-503.3905342196351
 30
0.0
 11
-70.73374738670947
 21
-543.491605546247
 31
0.0
  0
LINE
  5
21FD5
330
18
100
AcDbEntity
  8
0
100
AcDbLine
 10
-71.82807120070453
 20
-506.9213265907783
 30
0.0
 11
-69.86573611182911
 21
-506.1213311567274
 31
0.0
  0
LINE
  5
21FD6
330
18
100
AcDbEntity
  8
0
100
AcDbLine
 10
-69.86573611182911
 20
-506.1213311567274
 30
0.0
 11
-70.45401268687152
 21
-505.8095613004753
 31
0.0
  0
LINE
  5
21FD7
330
18
100
AcDbEntity
  8
0
100
AcDbLine
 10
-72.73370085081154
 20
-529.3213244835683
 30
0.0
 11
-68.73370085081154
 21
-528.5213337907501
 31
0.0
  0
LINE
  5
21FD8
330
18
100
AcDbEntity
  8
0
100
AcDbLine
 10
-72.73370085081154
 20
-518.121324483564
 30
0.0
 11
-68.73370085081154
 21
-517.3213337907414
 31
0.0
  0
LINE
  5
21FD9
330
18
100
AcDbEntity
  8
0
100
AcDbLine
 10
-72.73370085081154
 20
-514.9213244835639
 30
0.0
 11
-68.73370085081154
 21
-514.1213337907413
 31
0.0
  0
LINE
  5
21FDA
330
18
100
AcDbEntity
  8
0
100
AcDbLine
 10
-68.73370085081154
 20
-514.1213337907413
 30
0.0
 11
-69.23370085081154
 21
-514.0213326273441
 31
0.0
  0
LINE
  5
21FDB
330
18
100
AcDbEntity
  8
0
100
AcDbLine
 10
-72.23370085081154
 20
-513.4213256469611
 30
0.0
 11
-72.73370085081154
 21
-513.3213244835639
 31
0.0
  0
LINE
  5
21FDC
330
18
100
AcDbEntity
  8
0
100
AcDbLine
 10
-68.73370085081154
 20
-517.3213337907414
 30
0.0
 11
-69.23370085081154
 21
-517.2213326273442
 31
0.0
  0
LINE
  5
21FDD
330
18
100
AcDbEntity
  8
0
100
AcDbLine
 10
-68.73370085081154
 20
-515.7213337907413
 30
0.0
 11
-69.23370085081154
 21
-515.6213326273441
 31
0.0
  0
LINE
  5
21FDE
330
18
100
AcDbEntity
  8
0
100
AcDbLine
 10
-72.23370085081154
 20
-515.021325646961
 30
0.0
 11
-72.73370085081154
 21
-514.9213244835639
 31
0.0
  0
LINE
  5
21FDF
330
18
100
AcDbEntity
  8
0
100
AcDbLine
 10
-72.23370085081154
 20
-516.6213256469609
 30
0.0
 11
-72.73370085081154
 21
-516.5213244835638
 31
0.0
  0
LINE
  5
21FE0
330
18
100
AcDbEntity
  8
0
100
AcDbLine
 10
-72.73370085081154
 20
-516.5213244835638
 30
0.0
 11
-68.73370085081154
 21
-515.7213337907413
 31
0.0
  0
LINE
  5
21FE1
330
18
100
AcDbEntity
  8
0
100
AcDbLine
 10
-69.41292200742231
 20
-507.721332210333
 30
0.0
 11
-69.96467147122559
 21
-507.538568067705
 31
0.0
  0
LINE
  5
21FE2
330
18
100
AcDbEntity
  8
0
100
AcDbLine
 10
-68.73370085081154
 20
-510.9213337907413
 30
0.0
 11
-69.23370085081154
 21
-510.8213326273442
 31
0.0
  0
LINE
  5
21FE3
330
18
100
AcDbEntity
  8
0
100
AcDbLine
 10
-68.73370085081154
 20
-512.5213337907413
 30
0.0
 11
-69.23370085081154
 21
-512.4213326273443
 31
0.0
  0
LINE
  5
21FE4
330
18
100
AcDbEntity
  8
0
100
AcDbLine
 10
-68.96010790301551
 20
-509.3213332639386
 30
0.0
 11
-69.49670163828665
 21
-509.1920625663088
 31
0.0
  0
LINE
  5
21FE5
330
18
100
AcDbEntity
  8
0
100
AcDbLine
 10
-71.81278625360284
 20
-508.6340950495241
 30
0.0
 11
-72.28088470875281
 21
-508.5213255371741
 31
0.0
  0
LINE
  5
21FE6
330
18
100
AcDbEntity
  8
0
100
AcDbLine
 10
-72.23370085081154
 20
-511.821325646961
 30
0.0
 11
-72.73370085081154
 21
-511.7213244835639
 31
0.0
  0
LINE
  5
21FE7
330
18
100
AcDbEntity
  8
0
100
AcDbLine
 10
-72.23370085081154
 20
-510.2213256469611
 30
0.0
 11
-72.73370085081154
 21
-510.121324483564
 31
0.0
  0
LINE
  5
21FE8
330
18
100
AcDbEntity
  8
0
100
AcDbLine
 10
-71.37089936007345
 20
-507.0727623872187
 30
0.0
 11
-71.82807120070453
 21
-506.9213265907783
 31
0.0
  0
LINE
  5
21FE9
330
18
100
AcDbEntity
  8
0
100
AcDbLine
 10
-72.28088470875281
 20
-508.5213255371741
 30
0.0
 11
-69.41292200742231
 21
-507.721332210333
 31
0.0
  0
LINE
  5
21FEA
330
18
100
AcDbEntity
  8
0
100
AcDbLine
 10
-72.73370085081154
 20
-511.7213244835639
 30
0.0
 11
-68.73370085081154
 21
-510.9213337907413
 31
0.0
  0
LINE
  5
21FEB
330
18
100
AcDbEntity
  8
0
100
AcDbLine
 10
-72.73370085081154
 20
-510.121324483564
 30
0.0
 11
-68.96010790301551
 21
-509.3213332639386
 31
0.0
  0
LINE
  5
21FEC
330
18
100
AcDbEntity
  8
0
100
AcDbLine
 10
-72.73370085081154
 20
-513.3213244835639
 30
0.0
 11
-68.73370085081154
 21
-512.5213337907413
 31
0.0
  0
LINE
  5
21FED
330
18
100
AcDbEntity
  8
0
100
AcDbLine
 10
-72.73370085081154
 20
-526.1213244835683
 30
0.0
 11
-68.73370085081154
 21
-525.32133379075
 31
0.0
  0
LINE
  5
21FEE
330
18
100
AcDbEntity
  8
0
100
AcDbLine
 10
-68.73370085081154
 20
-525.32133379075
 30
0.0
 11
-69.23370085081154
 21
-525.2213326273524
 31
0.0
  0
LINE
  5
21FEF
330
18
100
AcDbEntity
  8
0
100
AcDbLine
 10
-72.23370085081154
 20
-524.6213256469616
 30
0.0
 11
-72.73370085081154
 21
-524.521324483564
 31
0.0
  0
LINE
  5
21FF0
330
18
100
AcDbEntity
  8
0
100
AcDbLine
 10
-68.73370085081154
 20
-526.9213337907502
 30
0.0
 11
-69.23370085081154
 21
-526.8213326273525
 31
0.0
  0
LINE
  5
21FF1
330
18
100
AcDbEntity
  8
0
100
AcDbLine
 10
-68.73370085081154
 20
-528.5213337907501
 30
0.0
 11
-69.23370085081154
 21
-528.4213326273524
 31
0.0
  0
LINE
  5
21FF2
330
18
100
AcDbEntity
  8
0
100
AcDbLine
 10
-72.23370085081154
 20
-526.221325646966
 30
0.0
 11
-72.73370085081154
 21
-526.1213244835683
 31
0.0
  0
LINE
  5
21FF3
330
18
100
AcDbEntity
  8
0
100
AcDbLine
 10
-72.23370085081154
 20
-527.8213256469661
 30
0.0
 11
-72.73370085081154
 21
-527.7213244835684
 31
0.0
  0
LINE
  5
21FF4
330
18
100
AcDbEntity
  8
0
100
AcDbLine
 10
-72.73370085081154
 20
-527.7213244835684
 30
0.0
 11
-68.73370085081154
 21
-526.9213337907502
 31
0.0
  0
LINE
  5
21FF5
330
18
100
AcDbEntity
  8
0
100
AcDbLine
 10
-68.73370085081154
 20
-520.5213337907456
 30
0.0
 11
-69.23370085081154
 21
-520.421332627348
 31
0.0
  0
LINE
  5
21FF6
330
18
100
AcDbEntity
  8
0
100
AcDbLine
 10
-68.73370085081154
 20
-518.9213337907413
 30
0.0
 11
-69.23370085081154
 21
-518.8213326273442
 31
0.0
  0
LINE
  5
21FF7
330
18
100
AcDbEntity
  8
0
100
AcDbLine
 10
-68.73370085081154
 20
-523.7213337907457
 30
0.0
 11
-69.23370085081154
 21
-523.621332627348
 31
0.0
  0
LINE
  5
21FF8
330
18
100
AcDbEntity
  8
0
100
AcDbLine
 10
-68.73370085081154
 20
-522.1213337907458
 30
0.0
 11
-69.23370085081154
 21
-522.0213326273481
 31
0.0
  0
LINE
  5
21FF9
330
18
100
AcDbEntity
  8
0
100
AcDbLine
 10
-72.23370085081154
 20
-518.2213256469611
 30
0.0
 11
-72.73370085081154
 21
-518.121324483564
 31
0.0
  0
LINE
  5
21FFA
330
18
100
AcDbEntity
  8
0
100
AcDbLine
 10
-72.23370085081154
 20
-519.8213256469617
 30
0.0
 11
-72.73370085081154
 21
-519.7213244835639
 31
0.0
  0
LINE
  5
21FFB
330
18
100
AcDbEntity
  8
0
100
AcDbLine
 10
-72.23370085081154
 20
-523.0213256469617
 30
0.0
 11
-72.73370085081154
 21
-522.921324483564
 31
0.0
  0
LINE
  5
21FFC
330
18
100
AcDbEntity
  8
0
100
AcDbLine
 10
-72.23370085081154
 20
-521.4213256469616
 30
0.0
 11
-72.73370085081154
 21
-521.3213244835639
 31
0.0
  0
LINE
  5
21FFD
330
18
100
AcDbEntity
  8
0
100
AcDbLine
 10
-72.73370085081154
 20
-521.3213244835639
 30
0.0
 11
-68.73370085081154
 21
-520.5213337907456
 31
0.0
  0
LINE
  5
21FFE
330
18
100
AcDbEntity
  8
0
100
AcDbLine
 10
-72.73370085081154
 20
-519.7213244835639
 30
0.0
 11
-68.73370085081154
 21
-518.9213337907413
 31
0.0
  0
LINE
  5
21FFF
330
18
100
AcDbEntity
  8
0
100
AcDbLine
 10
-72.73370085081154
 20
-522.921324483564
 30
0.0
 11
-68.73370085081154
 21
-522.1213337907458
 31
0.0
  0
LINE
  5
22000
330
18
100
AcDbEntity
  8
0
100
AcDbLine
 10
-72.73370085081154
 20
-524.521324483564
 30
0.0
 11
-68.73370085081154
 21
-523.7213337907457
 31
0.0
  0
LINE
  5
22001
330
18
100
AcDbEntity
  8
0
100
AcDbLine
 10
-72.23370085081154
 20
-534.2213256469702
 30
0.0
 11
-72.73370085081154
 21
-534.1213244835725
 31
0.0
  0
LINE
  5
22002
330
18
100
AcDbEntity
  8
0
100
AcDbLine
 10
-72.73370085081154
 20
-534.1213244835725
 30
0.0
 11
-68.73370085081154
 21
-533.3213337907542
 31
0.0
  0
LINE
  5
22003
330
18
100
AcDbEntity
  8
0
100
AcDbLine
 10
-68.73370085081154
 20
-533.3213337907542
 30
0.0
 11
-69.23370085081154
 21
-533.2213326273566
 31
0.0
  0
LINE
  5
22004
330
18
100
AcDbEntity
  8
0
100
AcDbLine
 10
-72.23370085081154
 20
-532.6213256469703
 30
0.0
 11
-72.73370085081154
 21
-532.5213244835726
 31
0.0
  0
LINE
  5
22005
330
18
100
AcDbEntity
  8
0
100
AcDbLine
 10
-72.23370085081154
 20
-531.0213256469704
 30
0.0
 11
-72.73370085081154
 21
-530.9213244835727
 31
0.0
  0
LINE
  5
22006
330
18
100
AcDbEntity
  8
0
100
AcDbLine
 10
-72.73370085081154
 20
-530.9213244835727
 30
0.0
 11
-68.73370085081154
 21
-530.1213337907544
 31
0.0
  0
LINE
  5
22007
330
18
100
AcDbEntity
  8
0
100
AcDbLine
 10
-68.73370085081154
 20
-531.7213337907543
 30
0.0
 11
-69.23370085081154
 21
-531.6213326273567
 31
0.0
  0
LINE
  5
22008
330
18
100
AcDbEntity
  8
0
100
AcDbLine
 10
-68.73370085081154
 20
-530.1213337907544
 30
0.0
 11
-69.23370085081154
 21
-530.0213326273567
 31
0.0
  0
LINE
  5
22009
330
18
100
AcDbEntity
  8
0
100
AcDbLine
 10
-72.73370085081154
 20
-532.5213244835726
 30
0.0
 11
-68.73370085081154
 21
-531.7213337907543
 31
0.0
  0
LINE
  5
2200A
330
18
100
AcDbEntity
  8
0
100
AcDbLine
 10
-72.23370085081154
 20
-529.421325646966
 30
0.0
 11
-72.73370085081154
 21
-529.3213244835683
 31
0.0
  0
LINE
  5
2200B
330
18
100
AcDbEntity
  8
0
100
AcDbLine
 10
-72.23370085081154
 20
-535.8213256469701
 30
0.0
 11
-72.73370085081154
 21
-535.7213244835724
 31
0.0
  0
LINE
  5
2200C
330
18
100
AcDbEntity
  8
0
100
AcDbLine
 10
-72.73370085081154
 20
-535.7213244835724
 30
0.0
 11
-68.73370085081154
 21
-534.9213337907541
 31
0.0
  0
LINE
  5
2200D
330
18
100
AcDbEntity
  8
0
100
AcDbLine
 10
-68.73370085081154
 20
-534.9213337907541
 30
0.0
 11
-69.23370085081154
 21
-534.8213326273565
 31
0.0
  0
LINE
  5
2200E
330
18
100
AcDbEntity
  8
0
100
AcDbLine
 10
-72.23370085081154
 20
-537.42132564697
 30
0.0
 11
-72.73370085081154
 21
-537.3213244835723
 31
0.0
  0
LINE
  5
2200F
330
18
100
AcDbEntity
  8
0
100
AcDbLine
 10
-72.73370085081154
 20
-537.3213244835723
 30
0.0
 11
-68.73370085081154
 21
-536.521333790754
 31
0.0
  0
LINE
  5
22010
330
18
100
AcDbEntity
  8
0
100
AcDbLine
 10
-68.73370085081154
 20
-536.521333790754
 30
0.0
 11
-69.23370085081154
 21
-536.4213326273564
 31
0.0
  0
LINE
  5
22011
330
18
100
AcDbEntity
  8
0
100
AcDbLine
 10
-72.23370085081154
 20
-539.0213256469699
 30
0.0
 11
-72.73370085081154
 21
-538.9213244835722
 31
0.0
  0
LINE
  5
22012
330
18
100
AcDbEntity
  8
0
100
AcDbLine
 10
-72.73370085081154
 20
-538.9213244835722
 30
0.0
 11
-68.73370085081154
 21
-538.121333790754
 31
0.0
  0
LINE
  5
22013
330
18
100
AcDbEntity
  8
0
100
AcDbLine
 10
-68.73370085081154
 20
-538.121333790754
 30
0.0
 11
-69.23370085081154
 21
-538.0213326273563
 31
0.0
  0
LINE
  5
22014
330
18
100
AcDbEntity
  8
0
100
AcDbLine
 10
774.0162416152026
 20
-641.3216164077643
 30
0.0
 11
768.7162451053409
 21
-639.8216164077643
 31
0.0
  0
LINE
  5
22015
330
18
100
AcDbEntity
  8
0
100
AcDbLine
 10
768.7162451053409
 20
-639.8216164077643
 30
0.0
 11
739.016245105449
 21
-639.8216164077645
 31
0.0
  0
LINE
  5
22016
330
18
100
AcDbEntity
  8
0
100
AcDbLine
 10
774.0162416152026
 20
-641.3216164077643
 30
0.0
 11
768.7162381249573
 21
-642.8216164077644
 31
0.0
  0
LINE
  5
22017
330
18
100
AcDbEntity
  8
0
100
AcDbLine
 10
739.0162497591472
 20
-637.8215698718665
 30
0.0
 11
739.0162334715827
 21
-644.8215698718664
 31
0.0
  0
LINE
  5
22018
330
18
100
AcDbEntity
  8
0
100
AcDbLine
 10
768.7162381249573
 20
-642.8216164077644
 30
0.0
 11
739.0162381250643
 21
-642.8216164077645
 31
0.0
  0
LINE
  5
22019
330
18
100
AcDbEntity
  8
0
100
AcDbLine
 10
739.0162497591472
 20
-637.8215698718665
 30
0.0
 11
737.9162462689518
 21
-637.8215698718664
 31
0.0
  0
ARC
  5
2201A
330
18
100
AcDbEntity
  8
0
100
AcDbCircle
 10
737.9162462689518
 20
-639.3215698718664
 30
0.0
 40
1.5
100
AcDbArc
 50
90.0
 51
179.9998666844663
  0
LINE
  5
2201B
330
18
100
AcDbEntity
  8
0
100
AcDbLine
 10
739.0162334715827
 20
-644.8215698718664
 30
0.0
 11
737.9162369617721
 21
-644.8215698718664
 31
0.0
  0
LINE
  5
2201C
330
18
100
AcDbEntity
  8
0
100
AcDbLine
 10
736.4162462689559
 20
-639.321566381674
 30
0.0
 11
736.4162369617762
 21
-643.321566381674
 31
0.0
  0
ARC
  5
2201D
330
18
100
AcDbEntity
  8
0
100
AcDbCircle
 10
737.9162369617721
 20
-643.3215698718664
 30
0.0
 40
1.5
100
AcDbArc
 50
179.9998666844663
 51
270.0
  0
LINE
  5
2201E
330
18
100
AcDbEntity
  8
1CENTER
100
AcDbLine
 10
775.447036532668
 20
-641.3215698718664
 30
0.0
 11
735.3459652060561
 21
-641.3215698718664
 31
0.0
  0
LINE
  5
2201F
330
18
100
AcDbEntity
  8
0
100
AcDbLine
 10
771.9162441615248
 20
-640.2272460578713
 30
0.0
 11
772.7162395955758
 21
-642.1895811467467
 31
0.0
  0
LINE
  5
22020
330
18
100
AcDbEntity
  8
0
100
AcDbLine
 10
772.7162395955758
 20
-642.1895811467467
 30
0.0
 11
773.0280094518279
 21
-641.6013045717043
 31
0.0
  0
LINE
  5
22021
330
18
100
AcDbEntity
  8
0
100
AcDbLine
 10
749.5162462687348
 20
-639.3216164077643
 30
0.0
 11
750.316236961553
 21
-643.3216164077643
 31
0.0
  0
LINE
  5
22022
330
18
100
AcDbEntity
  8
0
100
AcDbLine
 10
760.7162462687392
 20
-639.3216164077643
 30
0.0
 11
761.5162369615617
 21
-643.3216164077643
 31
0.0
  0
LINE
  5
22023
330
18
100
AcDbEntity
  8
0
100
AcDbLine
 10
763.9162462687392
 20
-639.3216164077643
 30
0.0
 11
764.7162369615618
 21
-643.3216164077643
 31
0.0
  0
LINE
  5
22024
330
18
100
AcDbEntity
  8
0
100
AcDbLine
 10
764.7162369615618
 20
-643.3216164077643
 30
0.0
 11
764.816238124959
 21
-642.8216164077643
 31
0.0
  0
LINE
  5
22025
330
18
100
AcDbEntity
  8
0
100
AcDbLine
 10
765.416245105342
 20
-639.8216164077643
 30
0.0
 11
765.5162462687392
 21
-639.3216164077643
 31
0.0
  0
LINE
  5
22026
330
18
100
AcDbEntity
  8
0
100
AcDbLine
 10
761.5162369615617
 20
-643.3216164077643
 30
0.0
 11
761.616238124959
 21
-642.8216164077643
 31
0.0
  0
LINE
  5
22027
330
18
100
AcDbEntity
  8
0
100
AcDbLine
 10
763.1162369615619
 20
-643.3216164077643
 30
0.0
 11
763.216238124959
 21
-642.8216164077643
 31
0.0
  0
LINE
  5
22028
330
18
100
AcDbEntity
  8
0
100
AcDbLine
 10
763.8162451053421
 20
-639.8216164077643
 30
0.0
 11
763.9162462687392
 21
-639.3216164077643
 31
0.0
  0
LINE
  5
22029
330
18
100
AcDbEntity
  8
0
100
AcDbLine
 10
762.2162451053422
 20
-639.8216164077643
 30
0.0
 11
762.3162462687393
 21
-639.3216164077643
 31
0.0
  0
LINE
  5
2202A
330
18
100
AcDbEntity
  8
0
100
AcDbLine
 10
762.3162462687393
 20
-639.3216164077643
 30
0.0
 11
763.1162369615619
 21
-643.3216164077643
 31
0.0
  0
LINE
  5
2202B
330
18
100
AcDbEntity
  8
0
100
AcDbLine
 10
771.1162385419701
 20
-642.6423952511535
 30
0.0
 11
771.2990026845981
 21
-642.0906457873502
 31
0.0
  0
LINE
  5
2202C
330
18
100
AcDbEntity
  8
0
100
AcDbLine
 10
767.9162369615618
 20
-643.3216164077643
 30
0.0
 11
768.0162381249589
 21
-642.8216164077643
 31
0.0
  0
LINE
  5
2202D
330
18
100
AcDbEntity
  8
0
100
AcDbLine
 10
766.3162369615618
 20
-643.3216164077643
 30
0.0
 11
766.4162381249588
 21
-642.8216164077643
 31
0.0
  0
LINE
  5
2202E
330
18
100
AcDbEntity
  8
0
100
AcDbLine
 10
769.5162374883645
 20
-643.0952093555603
 30
0.0
 11
769.6455081859943
 21
-642.5586156202892
 31
0.0
  0
LINE
  5
2202F
330
18
100
AcDbEntity
  8
0
100
AcDbLine
 10
770.203475702779
 20
-640.242531004973
 30
0.0
 11
770.316245215129
 21
-639.774432549823
 31
0.0
  0
LINE
  5
22030
330
18
100
AcDbEntity
  8
0
100
AcDbLine
 10
767.0162451053421
 20
-639.8216164077643
 30
0.0
 11
767.1162462687392
 21
-639.3216164077643
 31
0.0
  0
LINE
  5
22031
330
18
100
AcDbEntity
  8
0
100
AcDbLine
 10
768.616245105342
 20
-639.8216164077643
 30
0.0
 11
768.7162462687392
 21
-639.3216164077643
 31
0.0
  0
LINE
  5
22032
330
18
100
AcDbEntity
  8
0
100
AcDbLine
 10
771.7648083650844
 20
-640.6844178985024
 30
0.0
 11
771.9162441615248
 21
-640.2272460578713
 31
0.0
  0
LINE
  5
22033
330
18
100
AcDbEntity
  8
0
100
AcDbLine
 10
770.316245215129
 20
-639.774432549823
 30
0.0
 11
771.1162385419701
 21
-642.6423952511535
 31
0.0
  0
LINE
  5
22034
330
18
100
AcDbEntity
  8
0
100
AcDbLine
 10
767.1162462687392
 20
-639.3216164077643
 30
0.0
 11
767.9162369615618
 21
-643.3216164077643
 31
0.0
  0
LINE
  5
22035
330
18
100
AcDbEntity
  8
0
100
AcDbLine
 10
768.7162462687392
 20
-639.3216164077643
 30
0.0
 11
769.5162374883645
 21
-643.0952093555603
 31
0.0
  0
LINE
  5
22036
330
18
100
AcDbEntity
  8
0
100
AcDbLine
 10
765.5162462687392
 20
-639.3216164077643
 30
0.0
 11
766.3162369615618
 21
-643.3216164077643
 31
0.0
  0
LINE
  5
22037
330
18
100
AcDbEntity
  8
0
100
AcDbLine
 10
752.7162462687348
 20
-639.3216164077643
 30
0.0
 11
753.5162369615531
 21
-643.3216164077643
 31
0.0
  0
LINE
  5
22038
330
18
100
AcDbEntity
  8
0
100
AcDbLine
 10
753.5162369615531
 20
-643.3216164077643
 30
0.0
 11
753.6162381249508
 21
-642.8216164077643
 31
0.0
  0
LINE
  5
22039
330
18
100
AcDbEntity
  8
0
100
AcDbLine
 10
754.2162451053415
 20
-639.8216164077643
 30
0.0
 11
754.3162462687392
 21
-639.3216164077643
 31
0.0
  0
LINE
  5
2203A
330
18
100
AcDbEntity
  8
0
100
AcDbLine
 10
751.916236961553
 20
-643.3216164077643
 30
0.0
 11
752.0162381249506
 21
-642.8216164077643
 31
0.0
  0
LINE
  5
2203B
330
18
100
AcDbEntity
  8
0
100
AcDbLine
 10
750.316236961553
 20
-643.3216164077643
 30
0.0
 11
750.4162381249507
 21
-642.8216164077643
 31
0.0
  0
LINE
  5
2203C
330
18
100
AcDbEntity
  8
0
100
AcDbLine
 10
752.6162451053372
 20
-639.8216164077643
 30
0.0
 11
752.7162462687348
 21
-639.3216164077643
 31
0.0
  0
LINE
  5
2203D
330
18
100
AcDbEntity
  8
0
100
AcDbLine
 10
751.016245105337
 20
-639.8216164077643
 30
0.0
 11
751.1162462687347
 21
-639.3216164077643
 31
0.0
  0
LINE
  5
2203E
330
18
100
AcDbEntity
  8
0
100
AcDbLine
 10
751.1162462687347
 20
-639.3216164077643
 30
0.0
 11
751.916236961553
 21
-643.3216164077643
 31
0.0
  0
LINE
  5
2203F
330
18
100
AcDbEntity
  8
0
100
AcDbLine
 10
758.3162369615575
 20
-643.3216164077643
 30
0.0
 11
758.4162381249552
 21
-642.8216164077643
 31
0.0
  0
LINE
  5
22040
330
18
100
AcDbEntity
  8
0
100
AcDbLine
 10
759.9162369615618
 20
-643.3216164077643
 30
0.0
 11
760.0162381249589
 21
-642.8216164077643
 31
0.0
  0
LINE
  5
22041
330
18
100
AcDbEntity
  8
0
100
AcDbLine
 10
755.1162369615574
 20
-643.3216164077643
 30
0.0
 11
755.2162381249551
 21
-642.8216164077643
 31
0.0
  0
LINE
  5
22042
330
18
100
AcDbEntity
  8
0
100
AcDbLine
 10
756.7162369615573
 20
-643.3216164077643
 30
0.0
 11
756.816238124955
 21
-642.8216164077643
 31
0.0
  0
LINE
  5
22043
330
18
100
AcDbEntity
  8
0
100
AcDbLine
 10
760.616245105342
 20
-639.8216164077643
 30
0.0
 11
760.7162462687392
 21
-639.3216164077643
 31
0.0
  0
LINE
  5
22044
330
18
100
AcDbEntity
  8
0
100
AcDbLine
 10
759.0162451053415
 20
-639.8216164077643
 30
0.0
 11
759.1162462687392
 21
-639.3216164077643
 31
0.0
  0
LINE
  5
22045
330
18
100
AcDbEntity
  8
0
100
AcDbLine
 10
755.8162451053414
 20
-639.8216164077643
 30
0.0
 11
755.9162462687391
 21
-639.3216164077643
 31
0.0
  0
LINE
  5
22046
330
18
100
AcDbEntity
  8
0
100
AcDbLine
 10
757.4162451053415
 20
-639.8216164077643
 30
0.0
 11
757.5162462687392
 21
-639.3216164077643
 31
0.0
  0
LINE
  5
22047
330
18
100
AcDbEntity
  8
0
100
AcDbLine
 10
757.5162462687392
 20
-639.3216164077643
 30
0.0
 11
758.3162369615575
 21
-643.3216164077643
 31
0.0
  0
LINE
  5
22048
330
18
100
AcDbEntity
  8
0
100
AcDbLine
 10
759.1162462687392
 20
-639.3216164077643
 30
0.0
 11
759.9162369615618
 21
-643.3216164077643
 31
0.0
  0
LINE
  5
22049
330
18
100
AcDbEntity
  8
0
100
AcDbLine
 10
755.9162462687391
 20
-639.3216164077643
 30
0.0
 11
756.7162369615573
 21
-643.3216164077643
 31
0.0
  0
LINE
  5
2204A
330
18
100
AcDbEntity
  8
0
100
AcDbLine
 10
754.3162462687392
 20
-639.3216164077643
 30
0.0
 11
755.1162369615574
 21
-643.3216164077643
 31
0.0
  0
LINE
  5
2204B
330
18
100
AcDbEntity
  8
0
100
AcDbLine
 10
744.616245105333
 20
-639.8216164077643
 30
0.0
 11
744.7162462687306
 21
-639.3216164077643
 31
0.0
  0
LINE
  5
2204C
330
18
100
AcDbEntity
  8
0
100
AcDbLine
 10
744.7162462687306
 20
-639.3216164077643
 30
0.0
 11
745.5162369615489
 21
-643.3216164077643
 31
0.0
  0
LINE
  5
2204D
330
18
100
AcDbEntity
  8
0
100
AcDbLine
 10
745.5162369615489
 20
-643.3216164077643
 30
0.0
 11
745.6162381249466
 21
-642.8216164077643
 31
0.0
  0
LINE
  5
2204E
330
18
100
AcDbEntity
  8
0
100
AcDbLine
 10
746.2162451053329
 20
-639.8216164077643
 30
0.0
 11
746.3162462687305
 21
-639.3216164077643
 31
0.0
  0
LINE
  5
2204F
330
18
100
AcDbEntity
  8
0
100
AcDbLine
 10
747.8162451053328
 20
-639.8216164077643
 30
0.0
 11
747.9162462687304
 21
-639.3216164077643
 31
0.0
  0
LINE
  5
22050
330
18
100
AcDbEntity
  8
0
100
AcDbLine
 10
747.9162462687304
 20
-639.3216164077643
 30
0.0
 11
748.7162369615487
 21
-643.3216164077643
 31
0.0
  0
LINE
  5
22051
330
18
100
AcDbEntity
  8
0
100
AcDbLine
 10
747.1162369615488
 20
-643.3216164077643
 30
0.0
 11
747.2162381249465
 21
-642.8216164077643
 31
0.0
  0
LINE
  5
22052
330
18
100
AcDbEntity
  8
0
100
AcDbLine
 10
748.7162369615487
 20
-643.3216164077643
 30
0.0
 11
748.8162381249464
 21
-642.8216164077643
 31
0.0
  0
LINE
  5
22053
330
18
100
AcDbEntity
  8
0
100
AcDbLine
 10
746.3162462687305
 20
-639.3216164077643
 30
0.0
 11
747.1162369615488
 21
-643.3216164077643
 31
0.0
  0
LINE
  5
22054
330
18
100
AcDbEntity
  8
0
100
AcDbLine
 10
749.4162451053371
 20
-639.8216164077643
 30
0.0
 11
749.5162462687348
 21
-639.3216164077643
 31
0.0
  0
LINE
  5
22055
330
18
100
AcDbEntity
  8
0
100
AcDbLine
 10
743.016245105333
 20
-639.8216164077643
 30
0.0
 11
743.1162462687307
 21
-639.3216164077643
 31
0.0
  0
LINE
  5
22056
330
18
100
AcDbEntity
  8
0
100
AcDbLine
 10
743.1162462687307
 20
-639.3216164077643
 30
0.0
 11
743.916236961549
 21
-643.3216164077643
 31
0.0
  0
LINE
  5
22057
330
18
100
AcDbEntity
  8
0
100
AcDbLine
 10
743.916236961549
 20
-643.3216164077643
 30
0.0
 11
744.0162381249467
 21
-642.8216164077643
 31
0.0
  0
LINE
  5
22058
330
18
100
AcDbEntity
  8
0
100
AcDbLine
 10
741.4162451053331
 20
-639.8216164077643
 30
0.0
 11
741.5162462687308
 21
-639.3216164077643
 31
0.0
  0
LINE
  5
22059
330
18
100
AcDbEntity
  8
0
100
AcDbLine
 10
741.5162462687308
 20
-639.3216164077643
 30
0.0
 11
742.3162369615491
 21
-643.3216164077643
 31
0.0
  0
LINE
  5
2205A
330
18
100
AcDbEntity
  8
0
100
AcDbLine
 10
742.3162369615491
 20
-643.3216164077643
 30
0.0
 11
742.4162381249467
 21
-642.8216164077643
 31
0.0
  0
LINE
  5
2205B
330
18
100
AcDbEntity
  8
0
100
AcDbLine
 10
739.8162451053332
 20
-639.8216164077643
 30
0.0
 11
739.9162462687309
 21
-639.3216164077643
 31
0.0
  0
LINE
  5
2205C
330
18
100
AcDbEntity
  8
0
100
AcDbLine
 10
739.9162462687309
 20
-639.3216164077643
 30
0.0
 11
740.7162369615492
 21
-643.3216164077643
 31
0.0
  0
LINE
  5
2205D
330
18
100
AcDbEntity
  8
0
100
AcDbLine
 10
740.7162369615492
 20
-643.3216164077643
 30
0.0
 11
740.8162381249468
 21
-642.8216164077643
 31
0.0
  0
LINE
  5
2205F
330
18
100
AcDbEntity
  8
1HATCH
100
AcDbLine
 10
720.6668130044249
 20
-645.8712669957309
 30
0.0
 11
720.6666049888518
 21
-651.2212787451816
 31
0.0
  0
LINE
  5
22060
330
18
100
AcDbEntity
  8
1HATCH
100
AcDbLine
 10
717.3668130044812
 20
-645.8712455892179
 30
0.0
 11
717.3666049892284
 21
-651.2212229020023
 31
0.0
  0
LINE
  5
22061
330
18
100
AcDbEntity
  8
1HATCH
100
AcDbLine
 10
721.0168103348955
 20
-646.2212702532336
 30
0.0
 11
717.0168103349827
 21
-646.2212423316948
 31
0.0
  0
LINE
  5
22062
330
18
100
AcDbEntity
  8
0
100
AcDbLine
 10
723.0165831170307
 20
-653.5712842131051
 30
0.0
 11
715.0165831172038
 21
-653.5712283700276
 31
0.0
  0
LINE
  5
22063
330
18
100
AcDbEntity
  8
1HATCH
100
AcDbLine
 10
720.6666049888518
 20
-651.2212787451816
 30
0.0
 11
721.0166017313464
 21
-651.5712795595533
 31
0.0
  0
LINE
  5
22064
330
18
100
AcDbEntity
  8
1HATCH
100
AcDbLine
 10
717.3666049892284
 20
-651.2212229020023
 30
0.0
 11
717.016601731693
 21
-651.571223716389
 31
0.0
  0
LINE
  5
22065
330
18
100
AcDbEntity
  8
1CENTER
100
AcDbLine
 10
719.0168312603477
 20
-643.9097711331119
 30
0.0
 11
719.0165622713502
 21
-655.8110075349908
 31
0.0
  0
TEXT
  5
22066
330
18
100
AcDbEntity
  8
1DIM
  6
CONTINUOUS
100
AcDbText
 10
560.2800752868042
 20
-563.1955198950373
 30
0.0
 40
3.5
  1
20×10楕円パイプ
100
AcDbText
1001
ACADANNOTATIVE
1000
AnnotativeData
1002
{
1070
     1
1070
     0
1002
}
  0
SOLID
  5
22067
330
18
100
AcDbEntity
  8
1DIM
100
AcDbTrace
 10
554.7672702311843
 20
-576.1072022472646
 30
0.0
 11
553.9439447920548
 21
-577.9601043850995
 31
0.0
 12
554.1218249195011
 22
-575.9403346528352
 32
0.0
 13
554.1218249195011
 23
-575.9403346528352
 33
0.0
1001
ACAD
1000
DSTYLE
1002
{
1070
    45
1040
0.5
1002
}
  0
LINE
  5
22068
330
18
100
AcDbEntity
  8
1DIM
100
AcDbLine
 10
554.4445475753427
 20
-576.0237684500499
 30
0.0
 11
557.5800752868041
 21
-563.8955198950373
 31
0.0
1001
ACAD
1000
DSTYLE
1002
{
1070
    45
1040
0.5
1002
}
  0
LINE
  5
22069
330
18
100
AcDbEntity
  8
1DIM
100
AcDbLine
 10
557.5800752868041
 20
-563.8955198950373
 30
0.0
 11
597.6134086201374
 21
-563.8955198950373
 31
0.0
1001
ACAD
1000
DSTYLE
1002
{
1070
    45
1040
0.5
1002
}
  0
LINE
  5
2206A
330
18
100
AcDbEntity
  8
0
  6
BYBLOCK
100
AcDbLine
 10
-64.7337523420756
 20
-703.0290254912677
 30
0.0
 11
-70.7337523420756
 21
-701.4213303512677
 31
0.0
  0
LINE
  5
2206B
330
18
100
AcDbEntity
  8
0
  6
BYBLOCK
100
AcDbLine
 10
-70.7337523420756
 20
-701.4213303512677
 30
0.0
 11
-64.7337523420756
 21
-699.8136352112676
 31
0.0
  0
LINE
  5
2206C
330
18
100
AcDbEntity
  8
0
  6
BYBLOCK
100
AcDbLine
 10
-70.7337523420756
 20
-701.4213303512677
 30
0.0
 11
-64.7337523420756
 21
-701.4213303512677
 31
0.0
  0
LINE
  5
2206D
330
18
100
AcDbEntity
  8
0
  6
BYBLOCK
100
AcDbLine
 10
623.2662419429378
 20
-699.8136352112676
 30
0.0
 11
629.2662419429378
 21
-701.4213303512677
 31
0.0
  0
LINE
  5
2206E
330
18
100
AcDbEntity
  8
0
  6
BYBLOCK
100
AcDbLine
 10
629.2662419429378
 20
-701.4213303512677
 30
0.0
 11
623.2662419429378
 21
-703.0290254912677
 31
0.0
  0
LINE
  5
2206F
330
18
100
AcDbEntity
  8
0
  6
BYBLOCK
100
AcDbLine
 10
629.2662419429378
 20
-701.4213303512677
 30
0.0
 11
623.2662419429378
 21
-701.4213303512677
 31
0.0
  0
TEXT
  5
22070
330
18
100
AcDbEntity
  8
1DIM1
  6
CONTINUOUS
100
AcDbText
 10
261.5474948004311
 20
-699.3213303512676
 30
0.0
 40
10.5
  1
P700
100
AcDbText
1001
ACAD
1000
DSTYLE
1002
{
1070
    40
1040
3.0
1070
    45
1040
0.5
1002
}
  0
LINE
  5
22071
330
18
100
AcDbEntity
  8
0
  6
BYBLOCK
100
AcDbLine
 10
686.93083717971
 20
-689.7765664619477
 30
0.0
 11
684.93083717971
 21
-689.2406680819477
 31
0.0
  0
LINE
  5
22072
330
18
100
AcDbEntity
  8
0
  6
BYBLOCK
100
AcDbLine
 10
684.93083717971
 20
-689.2406680819477
 30
0.0
 11
686.93083717971
 21
-688.7047697019476
 31
0.0
  0
LINE
  5
22073
330
18
100
AcDbEntity
  8
0
  6
BYBLOCK
100
AcDbLine
 10
684.93083717971
 20
-689.2406680819477
 30
0.0
 11
686.93083717971
 21
-689.2406680819477
 31
0.0
  0
LINE
  5
22074
330
18
100
AcDbEntity
  8
0
  6
BYBLOCK
100
AcDbLine
 10
741.016241615365
 20
-688.7047697019476
 30
0.0
 11
743.016241615365
 21
-689.2406680819477
 31
0.0
  0
LINE
  5
22075
330
18
100
AcDbEntity
  8
0
  6
BYBLOCK
100
AcDbLine
 10
743.016241615365
 20
-689.2406680819477
 30
0.0
 11
741.016241615365
 21
-689.7765664619477
 31
0.0
  0
LINE
  5
22076
330
18
100
AcDbEntity
  8
0
  6
BYBLOCK
100
AcDbLine
 10
743.016241615365
 20
-689.2406680819477
 30
0.0
 11
741.016241615365
 21
-689.2406680819477
 31
0.0
  0
TEXT
  5
22077
330
18
100
AcDbEntity
  8
1DIM
  6
CONTINUOUS
100
AcDbText
 10
711.044719953093
 20
-688.5406680819477
 30
0.0
 40
3.5
  1
58
100
AcDbText
1001
ACAD
1000
DSTYLE
1002
{
1070
    45
1040
0.5
1002
}
  0
LINE
  5
22078
330
18
100
AcDbEntity
  8
0
  6
BYBLOCK
100
AcDbLine
 10
741.016241615365
 20
-680.573823700378
 30
0.0
 11
743.016241615365
 21
-681.109722080378
 31
0.0
  0
LINE
  5
22079
330
18
100
AcDbEntity
  8
0
  6
BYBLOCK
100
AcDbLine
 10
743.016241615365
 20
-681.109722080378
 30
0.0
 11
741.016241615365
 21
-681.645620460378
 31
0.0
  0
LINE
  5
2207A
330
18
100
AcDbEntity
  8
0
  6
BYBLOCK
100
AcDbLine
 10
743.016241615365
 20
-681.109722080378
 30
0.0
 11
741.016241615365
 21
-681.109722080378
 31
0.0
  0
LINE
  5
2207B
330
18
100
AcDbEntity
  8
0
  6
BYBLOCK
100
AcDbLine
 10
721.0165622713502
 20
-681.645620460378
 30
0.0
 11
719.0165622713502
 21
-681.109722080378
 31
0.0
  0
LINE
  5
2207C
330
18
100
AcDbEntity
  8
0
  6
BYBLOCK
100
AcDbLine
 10
719.0165622713502
 20
-681.109722080378
 30
0.0
 11
721.0165622713502
 21
-680.573823700378
 31
0.0
  0
LINE
  5
2207D
330
18
100
AcDbEntity
  8
0
  6
BYBLOCK
100
AcDbLine
 10
719.0165622713502
 20
-681.109722080378
 30
0.0
 11
721.0165622713502
 21
-681.109722080378
 31
0.0
  0
TEXT
  5
2207E
330
18
100
AcDbEntity
  8
1DIM
  6
CONTINUOUS
100
AcDbText
 10
728.0997352766909
 20
-680.409722080378
 30
0.0
 40
3.5
  1
24
100
AcDbText
1001
ACAD
1000
DSTYLE
1002
{
1070
    45
1040
0.5
1002
}
  0
LINE
  5
2207F
330
18
100
AcDbEntity
  8
0
  6
BYBLOCK
100
AcDbLine
 10
785.052139995365
 20
-639.3215698718664
 30
0.0
 11
784.516241615365
 21
-641.3215698718664
 31
0.0
  0
LINE
  5
22080
330
18
100
AcDbEntity
  8
0
  6
BYBLOCK
100
AcDbLine
 10
784.516241615365
 20
-641.3215698718664
 30
0.0
 11
783.9803432353649
 21
-639.3215698718664
 31
0.0
  0
LINE
  5
22081
330
18
100
AcDbEntity
  8
0
  6
BYBLOCK
100
AcDbLine
 10
784.516241615365
 20
-641.3215698718664
 30
0.0
 11
784.516241615365
 21
-639.3215698718664
 31
0.0
  0
LINE
  5
22082
330
18
100
AcDbEntity
  8
0
  6
BYBLOCK
100
AcDbLine
 10
783.9803432353649
 20
-630.8027677887316
 30
0.0
 11
784.516241615365
 21
-628.8027677887316
 31
0.0
  0
LINE
  5
22083
330
18
100
AcDbEntity
  8
0
  6
BYBLOCK
100
AcDbLine
 10
784.516241615365
 20
-628.8027677887316
 30
0.0
 11
785.052139995365
 21
-630.8027677887316
 31
0.0
  0
LINE
  5
22084
330
18
100
AcDbEntity
  8
0
  6
BYBLOCK
100
AcDbLine
 10
784.516241615365
 20
-628.8027677887316
 30
0.0
 11
784.516241615365
 21
-630.8027677887316
 31
0.0
  0
TEXT
  5
22085
330
18
100
AcDbEntity
  8
1DIM
  6
CONTINUOUS
100
AcDbText
 10
783.8162416153649
 20
-637.3955021636325
 30
0.0
 40
3.5
  1
13
 50
90.0
100
AcDbText
1001
ACAD
1000
DSTYLE
1002
{
1070
    45
1040
0.5
1070
   271
1070
     0
1002
}
  0
LINE
  5
22086
330
18
100
AcDbEntity
  8
0
  6
BYBLOCK
100
AcDbLine
 10
-78.48375211066491
 20
-733.0290254912677
 30
0.0
 11
-84.48375211066491
 21
-731.4213303512677
 31
0.0
  0
LINE
  5
22087
330
18
100
AcDbEntity
  8
0
  6
BYBLOCK
100
AcDbLine
 10
-84.48375211066491
 20
-731.4213303512677
 30
0.0
 11
-78.48375211066491
 21
-729.8136352112676
 31
0.0
  0
LINE
  5
22088
330
18
100
AcDbEntity
  8
0
  6
BYBLOCK
100
AcDbLine
 10
-84.48375211066491
 20
-731.4213303512677
 30
0.0
 11
-78.48375211066491
 21
-731.4213303512677
 31
0.0
  0
LINE
  5
22089
330
18
100
AcDbEntity
  8
0
  6
BYBLOCK
100
AcDbLine
 10
637.0162416153653
 20
-729.8136352112676
 30
0.0
 11
643.0162416153653
 21
-731.4213303512677
 31
0.0
  0
LINE
  5
2208A
330
18
100
AcDbEntity
  8
0
  6
BYBLOCK
100
AcDbLine
 10
643.0162416153653
 20
-731.4213303512677
 30
0.0
 11
637.0162416153653
 21
-733.0290254912677
 31
0.0
  0
LINE
  5
2208B
330
18
100
AcDbEntity
  8
0
  6
BYBLOCK
100
AcDbLine
 10
643.0162416153653
 20
-731.4213303512677
 30
0.0
 11
637.0162416153653
 21
-731.4213303512677
 31
0.0
  0
TEXT
  5
2208C
330
18
100
AcDbEntity
  8
1DIM1
  6
CONTINUOUS
100
AcDbText
 10
258.2662447523502
 20
-729.3213303512676
 30
0.0
 40
10.5
  1
727.5
100
AcDbText
1001
ACAD
1000
DSTYLE
1002
{
1070
    40
1040
3.0
1070
    45
1040
0.5
1002
}
  0
LINE
  5
2208D
330
18
100
AcDbEntity
  8
0
  6
BYBLOCK
100
AcDbLine
 10
795.052139995365
 20
-661.8404381108153
 30
0.0
 11
794.516241615365
 21
-663.8404381108153
 31
0.0
  0
LINE
  5
2208E
330
18
100
AcDbEntity
  8
0
  6
BYBLOCK
100
AcDbLine
 10
794.516241615365
 20
-663.8404381108153
 30
0.0
 11
793.9803432353649
 21
-661.8404381108153
 31
0.0
  0
LINE
  5
2208F
330
18
100
AcDbEntity
  8
0
  6
BYBLOCK
100
AcDbLine
 10
794.516241615365
 20
-663.8404381108153
 30
0.0
 11
794.516241615365
 21
-661.8404381108153
 31
0.0
  0
LINE
  5
22090
330
18
100
AcDbEntity
  8
0
  6
BYBLOCK
100
AcDbLine
 10
793.9803432353649
 20
-630.8027677887316
 30
0.0
 11
794.516241615365
 21
-628.8027677887316
 31
0.0
  0
LINE
  5
22091
330
18
100
AcDbEntity
  8
0
  6
BYBLOCK
100
AcDbLine
 10
794.516241615365
 20
-628.8027677887316
 30
0.0
 11
795.052139995365
 21
-630.8027677887316
 31
0.0
  0
LINE
  5
22092
330
18
100
AcDbEntity
  8
0
  6
BYBLOCK
100
AcDbLine
 10
794.516241615365
 20
-628.8027677887316
 30
0.0
 11
794.516241615365
 21
-630.8027677887316
 31
0.0
  0
TEXT
  5
22093
330
18
100
AcDbEntity
  8
1DIM
  6
CONTINUOUS
100
AcDbText
 10
793.816241615365
 20
-649.2382696164402
 30
0.0
 40
3.5
  1
35
 50
90.0
100
AcDbText
1001
ACAD
1000
DSTYLE
1002
{
1070
    45
1040
0.5
1002
}
  0
LINE
  5
22094
330
18
100
AcDbEntity
  8
0
  6
BYBLOCK
100
AcDbLine
 10
641.0162494764468
 20
-500.2854319712664
 30
0.0
 11
643.0162494764468
 21
-500.8213303512664
 31
0.0
  0
LINE
  5
22095
330
18
100
AcDbEntity
  8
0
  6
BYBLOCK
100
AcDbLine
 10
643.0162494764468
 20
-500.8213303512664
 30
0.0
 11
641.0162494764468
 21
-501.3572287312664
 31
0.0
  0
LINE
  5
22096
330
18
100
AcDbEntity
  8
0
  6
BYBLOCK
100
AcDbLine
 10
643.0162494764468
 20
-500.8213303512664
 30
0.0
 11
641.0162494764468
 21
-500.8213303512664
 31
0.0
  0
LINE
  5
22097
330
18
100
AcDbEntity
  8
0
  6
BYBLOCK
100
AcDbLine
 10
617.5162526123796
 20
-501.3572287312664
 30
0.0
 11
615.5162526123796
 21
-500.8213303512664
 31
0.0
  0
LINE
  5
22098
330
18
100
AcDbEntity
  8
0
  6
BYBLOCK
100
AcDbLine
 10
615.5162526123796
 20
-500.8213303512664
 30
0.0
 11
617.5162526123796
 21
-500.2854319712664
 31
0.0
  0
LINE
  5
22099
330
18
100
AcDbEntity
  8
0
  6
BYBLOCK
100
AcDbLine
 10
615.5162526123796
 20
-500.8213303512664
 30
0.0
 11
617.5162526123796
 21
-500.8213303512664
 31
0.0
  0
TEXT
  5
2209A
330
18
100
AcDbEntity
  8
1DIM
  6
CONTINUOUS
100
AcDbText
 10
624.0162510444131
 20
-500.1213303512664
 30
0.0
 40
3.5
  1
27.5
100
AcDbText
1001
ACAD
1000
DSTYLE
1002
{
1070
    45
1040
0.5
1002
}
  0
LINE
  5
2209B
330
18
100
AcDbEntity
  8
0
100
AcDbLine
 10
721.0166017313464
 20
-651.5712795595533
 30
0.0
 11
721.0168103348955
 21
-646.2212702532336
 31
0.0
  0
LINE
  5
2209C
330
18
100
AcDbEntity
  8
0
100
AcDbLine
 10
721.0168103348955
 20
-646.2212702532336
 30
0.0
 11
720.6668130044183
 21
-645.8712678101092
 31
0.0
  0
LINE
  5
2209D
330
18
100
AcDbEntity
  8
0
100
AcDbLine
 10
720.6668130044183
 20
-645.8712678101092
 30
0.0
 11
717.3668130044879
 21
-645.8712447748396
 31
0.0
  0
LINE
  5
2209E
330
18
100
AcDbEntity
  8
0
100
AcDbLine
 10
717.3668130044879
 20
-645.8712447748396
 30
0.0
 11
717.0168103349827
 21
-646.2212423316948
 31
0.0
  0
LINE
  5
2209F
330
18
100
AcDbEntity
  8
0
100
AcDbLine
 10
717.0168103349827
 20
-646.2212423316948
 30
0.0
 11
717.016601731693
 21
-651.571223716389
 31
0.0
  0
LINE
  5
220A0
330
18
100
AcDbEntity
  8
0
100
AcDbLine
 10
717.016601731693
 20
-651.571223716389
 30
0.0
 11
715.0165831172038
 21
-653.5712283700276
 31
0.0
  0
LINE
  5
220A1
330
18
100
AcDbEntity
  8
0
100
AcDbLine
 10
715.0165831172038
 20
-653.5712283700276
 30
0.0
 11
715.01658032505
 21
-653.8712283700154
 31
0.0
  0
LINE
  5
220A2
330
18
100
AcDbEntity
  8
0
100
AcDbLine
 10
715.01658032505
 20
-653.8712283700154
 30
0.0
 11
723.0165803248768
 21
-653.871284213093
 31
0.0
  0
LINE
  5
220A3
330
18
100
AcDbEntity
  8
0
100
AcDbLine
 10
723.0165803248768
 20
-653.871284213093
 30
0.0
 11
723.0165831170307
 21
-653.5712842131051
 31
0.0
  0
LINE
  5
220A4
330
18
100
AcDbEntity
  8
0
100
AcDbLine
 10
723.0165831170307
 20
-653.5712842131051
 30
0.0
 11
721.0166017313464
 21
-651.5712795595533
 31
0.0
  0
VIEWPORT
  5
57
330
15
100
AcDbEntity
 67
     1
  8
0
100
AcDbViewport
 68
     1
 10
0.0
 20
0.0
 30
0.0
 40
547.8363136176066
 41
297.0
 68
     1
 69
     1
1001
ACAD
1000
MVIEW
1002
{
1070
    16
1010
0.0
1020
0.0
1030
0.0
1010
0.0
1020
0.0
1030
1.0
1040
0.0
1040
297.0
1040
-4.171999999925333
1040
12.83903210976956
1040
50.0
1040
0.0
1040
0.0
1070
    16
1070
   100
1070
     0
1070
     1
1070
     0
1070
     0
1070
     0
1070
     0
1040
0.0
1040
0.0
1040
0.0
1040
10.0
1040
10.0
1040
10.0
1040
10.0
1070
     0
1002
{
1002
}
1002
}
  0
ENDSEC
  0
SECTION
  2
OBJECTS
  0
DICTIONARY
  5
C
330
0
100
AcDbDictionary
  3
ACAD_COLOR
350
2D0
  3
ACAD_GROUP
350
D
  3
ACAD_LAYOUT
350
2D1
  3
ACAD_MATERIAL
350
2CF
  3
ACAD_MLEADERSTYLE
350
19E18
  3
ACAD_MLINESTYLE
350
1B
  3
ACAD_PLOTSETTINGS
350
2D2
  3
ACAD_SCALELIST
350
19DF6
  3
ACAD_VISUALSTYLE
350
19DE5
  3
ACDBHEADERROUNDTRIPXREC
350
220A5
  3
ACDBVARIABLEDICTIONARY
350
37
  3
CONTENTDICTIONARY
350
D8
  3
DRAWINGVARIABLESDICT
350
20
  3
DWGPROPS
350
220A8
1001
ACAD
1000
TREAT_AS_HARD
1070
     0
  0
DICTIONARY
  5
18FE8
330
2
100
AcDbDictionary
  3
ACAD_LAYERSTATES
360
18FE9
1001
ACAD
1000
TREAT_AS_HARD
1070
     1
  0
DICTIONARY
  5
1A20A
330
E
100
AcDbDictionary
  3
ADSK_XREC_LAYER_RECONCILED
360
1A20B
1001
ACAD
1000
TREAT_AS_HARD
1070
     1
  0
DICTIONARY
  5
1A20C
330
29
100
AcDbDictionary
  3
ADSK_XREC_LAYER_RECONCILED
360
1A20D
1001
ACAD
1000
TREAT_AS_HARD
1070
     1
  0
DICTIONARY
  5
1A20E
330
31
100
AcDbDictionary
  3
ADSK_XREC_LAYER_RECONCILED
360
1A20F
1001
ACAD
1000
TREAT_AS_HARD
1070
     1
  0
DICTIONARY
  5
1A218
330
101
100
AcDbDictionary
  3
ADSK_XREC_LAYER_RECONCILED
360
1A219
1001
ACAD
1000
TREAT_AS_HARD
1070
     1
  0
DICTIONARY
  5
1A21C
330
103
100
AcDbDictionary
  3
ADSK_XREC_LAYER_RECONCILED
360
1A21D
1001
ACAD
1000
TREAT_AS_HARD
1070
     1
  0
DICTIONARY
  5
1A220
330
25F
100
AcDbDictionary
  3
ADSK_XREC_LAYER_RECONCILED
360
1A221
1001
ACAD
1000
TREAT_AS_HARD
1070
     1
  0
DICTIONARY
  5
1A236
330
26A
100
AcDbDictionary
  3
ADSK_XREC_LAYER_RECONCILED
360
1A237
1001
ACAD
1000
TREAT_AS_HARD
1070
     1
  0
DICTIONARY
  5
1A23C
330
26D
100
AcDbDictionary
  3
ADSK_XREC_LAYER_RECONCILED
360
1A23D
1001
ACAD
1000
TREAT_AS_HARD
1070
     1
  0
DICTIONARY
  5
6E9
330
18
100
AcDbDictionary
  3
ACAD_SORTENTS
360
6EA
1001
ACAD
1000
TREAT_AS_HARD
1070
     1
  0
DICTIONARY
  5
59B
330
15
100
AcDbDictionary
  3
ACAD_SORTENTS
360
59C
1001
ACAD
1000
TREAT_AS_HARD
1070
     1
  0
DICTIONARY
  5
20B2E
330
20B2D
100
AcDbDictionary
  3
ACAD_SORTENTS
360
20B2F
1001
ACAD
1000
TREAT_AS_HARD
1070
     1
  0
DICTIONARY
  5
2D0
102
{ACAD_REACTORS
330
C
102
}
330
C
100
AcDbDictionary
1001
ACAD
1000
TREAT_AS_HARD
1070
     0
  0
DICTIONARY
  5
D
102
{ACAD_REACTORS
330
C
102
}
330
C
100
AcDbDictionary
  3
*A1
350
1E9DA
  3
*A2
350
1E9F1
  3
*A3
350
1EBF5
  3
*A4
350
1EDFD
  3
*A5
350
20F72
  3
*A6
350
20F73
  3
*A7
350
20F74
  3
*A8
350
21AB3
  3
*A9
350
21B0B
1001
ACAD
1000
TREAT_AS_HARD
1070
     0
  0
DICTIONARY
  5
2D1
102
{ACAD_REACTORS
330
C
102
}
330
C
100
AcDbDictionary
1001
ACAD
1000
TREAT_AS_HARD
1070
     0
  0
DICTIONARY
  5
2CF
102
{ACAD_REACTORS
330
C
102
}
330
C
100
AcDbDictionary
  3
BYBLOCK
350
19DD5
  3
BYLAYER
350
19DCD
  3
GLOBAL
350
19DDD
1001
ACAD
1000
TREAT_AS_HARD
1070
     0
  0
DICTIONARY
  5
19E18
102
{ACAD_REACTORS
330
C
102
}
330
C
100
AcDbDictionary
  3
BALLOONA
350
20B2C
  3
LEADERMULTI
350
2142E
  3
STANDARD
350
19E19
1001
ACAD
1000
TREAT_AS_HARD
1070
     0
  0
DICTIONARY
  5
1B
102
{ACAD_REACTORS
330
C
102
}
330
C
100
AcDbDictionary
  3
STANDARD
350
1C
1001
ACAD
1000
TREAT_AS_HARD
1070
     0
  0
DICTIONARY
  5
2D2
102
{ACAD_REACTORS
330
C
102
}
330
C
100
AcDbDictionary
1001
ACAD
1000
TREAT_AS_HARD
1070
     0
  0
DICTIONARY
  5
19DF6
102
{ACAD_REACTORS
330
C
102
}
330
C
100
AcDbDictionary
  3
A0
350
19DF7
  3
A1
350
19DF8
  3
A2
350
19DF9
  3
A3
350
19DFA
  3
A4
350
19DFB
  3
A5
350
19DFC
  3
A6
350
19DFD
  3
A7
350
19DFE
  3
A8
350
19DFF
  3
A9
350
19E00
  3
B0
350
19E01
  3
B1
350
19E02
  3
B2
350
19E03
  3
B3
350
19E04
  3
B4
350
19E05
  3
B5
350
19E06
  3
B6
350
19E07
  3
B7
350
19E08
  3
B8
350
19E09
  3
B9
350
19E0A
  3
C0
350
19E0B
  3
C1
350
19E0C
  3
C2
350
19E0D
  3
C3
350
19E0E
  3
C4
350
19E0F
  3
C5
350
19E10
  3
C6
350
19E11
  3
C7
350
19E12
  3
C8
350
19E13
  3
C9
350
19E14
  3
D0
350
19E15
  3
D1
350
19E16
  3
D2
350
19E17
1001
ACAD
1000
TREAT_AS_HARD
1070
     0
  0
DICTIONARY
  5
19DE5
102
{ACAD_REACTORS
330
C
102
}
330
C
100
AcDbDictionary
  3
2DWIREFRAME
350
19DEB
  3
3D_HIDDEN
350
19DED
  3
3DWIREFRAME
350
19DEC
  3
BASIC
350
19DEA
  3
BRIGHTEN
350
19DF1
  3
COLORCHANGE
350
19DF5
  3
CONCEPTUAL
350
19DEE
  3
DIM
350
19DF0
  3
EDGECOLOROFF
350
1E02A
  3
FACEPATTERN
350
19DF4
  3
FLAT
350
19DE6
  3
FLATWITHEDGES
350
19DE7
  3
GOURAUD
350
19DE8
  3
GOURAUDWITHEDGES
350
19DE9
  3
HIDDEN
350
1F381
  3
JITTEROFF
350
1E028
  3
LINEPATTERN
350
19DF3
  3
MODELING
350
1F387
  3
OVERHANGOFF
350
1E029
  3
REALISTIC
350
19DEF
  3
SHADED
350
1F386
  3
SHADED_WITH_EDGES
350
1F385
  3
SHADES_OF_GRAY
350
1F382
  3
SKETCHY
350
1F383
  3
THICKEN
350
19DF2
  3
WIREFRAME
350
1F380
  3
X-RAY
350
1F384
1001
ACAD
1000
TREAT_AS_HARD
1070
     0
  0
DICTIONARY
  5
220A5
102
{ACAD_REACTORS
330
C
102
}
330
C
100
AcDbDictionary
  3
COLORDICT
350
220A6
  3
MATERIALDICT
350
220A7
1001
ACAD
1000
TREAT_AS_HARD
1070
     0
  0
DICTIONARY
  5
37
102
{ACAD_REACTORS
330
C
102
}
330
C
100
AcDbDictionary
  3
CANNOSCALE
350
20A45
  3
CMLEADERSTYLE
350
1AC19
  3
CTABLESTYLE
350
4F1
  3
DIMADEC
350
38
  3
DIMASSOC
350
408
  3
HIDETEXT
350
1891
  3
INDEXCTL
350
1AC1C
  3
INTERSECTIONCOLOR
350
1895
  3
INTERSECTIONDISPLAY
350
1894
  3
MSLTSCALE
350
20A9B
  3
OBSCOLOR
350
1892
  3
OBSLTYPE
350
1893
  3
PROJECTNAME
350
409
  3
SORTENTS
350
1AC1B
  3
XCLIPFRAME
350
1F37F
1001
ACAD
1000
TREAT_AS_HARD
1070
     0
  0
DICTIONARY
  5
D8
102
{ACAD_REACTORS
330
C
102
}
330
C
100
AcDbDictionary
1001
CONTENTTABDATA
1070
    11
1000
Child
1000
D:\ACLT\TABset\CHILDREN.dwg
1070
     0
1070
     0
1070
     1
1000
PK
1000
D:\ACLT\TABset\PK.dwg
1070
     0
1070
     0
1070
     1
1000
Lev1
1000
D:\ACLT\TABset\Lever01.dwg
1070
     0
1070
     0
1070
     1
1000
Lev2
1000
D:\ACLT\TABset\Lever02.dwg
1070
     0
1070
     0
1070
     1
1000
L3
1000
D:\Aclt\TABset\Lever03.dwg
1070
     0
1070
     0
1070
     1
1000
Form
1000
D:\ACLT\FORMAT
1070
     1
1070
     0
1070
     1
1000
Jnt
1000
D:\ACLT\TABset\JOINTPARTS.dwg
1070
     0
1070
     0
1070
     1
1000
ISO
1000
D:\ACLT\TABset\Isome01.dwg
1070
     0
1070
     0
1070
     1
1000
R
1000
D:\ACLT\TABset\REGION.dwg
1070
     0
1070
     0
1070
     1
1000
std
1000
D:\ACLT\TABset\std_sym_all.dwg
1070
     0
1070
     0
1070
     1
1000
丸
1000
D:\Aclt\TABset\MARU.dwg
1070
     0
1070
     0
1070
     1
1001
CONTENTCURRENTTAB
1070
     0
1001
ACAD
1000
TREAT_AS_HARD
1070
     0
  0
DICTIONARY
  5
20
102
{ACAD_REACTORS
330
C
102
}
330
C
100
AcDbDictionary
1001
DRAWINGVARIABLESXDATA
1000
POLARANG
1000
0.261799387799149410000000
1000
POLARMODE
1000
1
1000
POLARSTYLE
1000
1
1001
ACAD
1000
TREAT_AS_HARD
1070
     0
  0
XRECORD
  5
220A8
102
{ACAD_REACTORS
330
C
102
}
330
C
100
AcDbXrecord
  1
DWGPROPS COOKIE
  2

  3

  4

  6

  7

  8
3684
  9

300
=
301
=
302
=
303
=
304
=
305
=
306
=
307
=
308
=
309
=
 40
0.0
 41
2453033.357663484
 42
2459305.354413889
  1

 90
        0
  0
DICTIONARY
  5
18FE9
102
{ACAD_REACTORS
330
18FE8
102
}
330
18FE8
100
AcDbDictionary
1001
ACAD
1000
TREAT_AS_HARD
1070
     0
  0
ACAD_PROXY_OBJECT
  5
1A20B
102
{ACAD_REACTORS
330
1A20A
102
}
330
1A20A
100
AcDbZombieObject
 90
      499
 91
      519
 93
       34
310
40C8804040
  0
ACAD_PROXY_OBJECT
  5
1A20D
102
{ACAD_REACTORS
330
1A20C
102
}
330
1A20C
100
AcDbZombieObject
 90
      499
 91
      519
 93
       34
310
40C8804040
  0
ACAD_PROXY_OBJECT
  5
1A20F
102
{ACAD_REACTORS
330
1A20E
102
}
330
1A20E
100
AcDbZombieObject
 90
      499
 91
      519
 93
       34
310
40C8804040
  0
ACAD_PROXY_OBJECT
  5
1A219
102
{ACAD_REACTORS
330
1A218
102
}
330
1A218
100
AcDbZombieObject
 90
      499
 91
      519
 93
       34
310
40C8804040
  0
ACAD_PROXY_OBJECT
  5
1A21D
102
{ACAD_REACTORS
330
1A21C
102
}
330
1A21C
100
AcDbZombieObject
 90
      499
 91
      519
 93
       34
310
40C8804040
  0
ACAD_PROXY_OBJECT
  5
1A221
102
{ACAD_REACTORS
330
1A220
102
}
330
1A220
100
AcDbZombieObject
 90
      499
 91
      519
 93
       34
310
40C8804040
  0
ACAD_PROXY_OBJECT
  5
1A237
102
{ACAD_REACTORS
330
1A236
102
}
330
1A236
100
AcDbZombieObject
 90
      499
 91
      519
 93
       34
310
40C8804040
  0
ACAD_PROXY_OBJECT
  5
1A23D
102
{ACAD_REACTORS
330
1A23C
102
}
330
1A23C
100
AcDbZombieObject
 90
      499
 91
      519
 93
       34
310
40C8804040
  0
SORTENTSTABLE
  5
6EA
102
{ACAD_REACTORS
330
6E9
102
}
330
6E9
100
AcDbSortentsTable
330
18
331
0
  5
99AB
331
0
  5
AB53
331
0
  5
AB54
331
0
  5
ECB5
331
0
  5
1D308
331
1D8CA
  5
20D9C
331
1D90A
  5
20D9D
331
0
  5
1DB93
331
1DB9B
  5
20DB4
331
1DBA4
  5
20DB5
331
1DBA5
  5
20DBB
331
1DBA6
  5
20DBE
331
0
  5
1E232
331
0
  5
1E233
331
0
  5
1E234
331
0
  5
1E235
331
0
  5
1E236
331
0
  5
1E7B5
331
0
  5
1E7B6
331
0
  5
1E9D9
331
0
  5
1E7B8
331
1E9D4
  5
2186C
331
1E9D5
  5
2186D
331
1E9D6
  5
2186E
331
1E9D7
  5
2186F
331
1E9D8
  5
21870
331
0
  5
1E9F0
331
1E9EB
  5
219A7
331
1E9EC
  5
219AA
331
1E9ED
  5
219AE
331
1E9EE
  5
21AB2
331
1E9EF
  5
21AB4
331
0
  5
1EBF1
331
1EBEF
  5
21AFF
331
1EBF0
  5
21B00
331
1EBF1
  5
21B01
331
1EBF2
  5
21B02
331
1EBF3
  5
21B03
331
0
  5
20D7D
331
20D79
  5
21F73
331
20D7D
  5
21F74
331
20D93
  5
21F75
331
20D94
  5
21F76
331
20D9B
  5
21F77
331
20D9C
  5
21F78
331
20D9D
  5
21F79
331
20D9E
  5
21F7A
331
20D9F
  5
21F7B
331
20DA0
  5
21F7C
331
20DA1
  5
21F7D
331
20DA2
  5
21F7E
331
20DA4
  5
21F7F
331
20DA6
  5
21F80
331
20DA7
  5
21F81
331
20DA8
  5
21F82
331
20DA9
  5
21F83
331
20DAB
  5
21F84
331
20DAC
  5
21F85
331
20DAD
  5
21F86
331
20DAE
  5
21F87
331
20DAF
  5
21F89
331
20DB0
  5
21F8A
331
20DB1
  5
21F8B
331
20DB2
  5
21F8C
331
20DB3
  5
21F8D
331
20DB4
  5
21F8E
331
20DB5
  5
21F8F
331
20DB7
  5
21F90
331
20DB9
  5
21F91
331
20DBA
  5
21F92
331
20DBB
  5
21F93
331
20DBE
  5
21F94
331
20DBF
  5
21F95
331
20DC0
  5
21F96
331
20DC1
  5
21F97
331
20DF2
  5
21F98
331
20E07
  5
21F99
331
20E08
  5
21F9A
331
20E09
  5
21F9B
331
20E0A
  5
21F9C
331
20E0B
  5
21F9D
331
20E0C
  5
21F9E
331
20E0D
  5
21F9F
331
20E0E
  5
21FA0
331
20E0F
  5
21FA1
331
20E11
  5
21FA2
331
20E13
  5
21FA3
331
20E14
  5
21FA4
331
20E15
  5
21FA5
331
20E17
  5
21FA6
331
20E18
  5
21FA7
331
20E19
  5
21FA8
331
20E1A
  5
21FA9
331
20E1B
  5
21FAA
331
20E1C
  5
21FAB
331
20E1D
  5
21FAC
331
20E1E
  5
21FAD
331
20E1F
  5
21FAE
331
20E20
  5
21FAF
331
20E21
  5
21FB0
331
20E23
  5
21FB1
331
20E24
  5
21FB2
331
20E26
  5
21FB3
331
20E27
  5
21FB4
331
20E28
  5
21FB5
331
20E2A
  5
21FB6
331
20E2B
  5
21FB7
331
20E2C
  5
21FB8
331
20E2D
  5
21FB9
331
0
  5
20F6F
331
20F6E
  5
21FCB
331
20F6F
  5
21FCC
331
20F70
  5
21FCD
331
20F71
  5
21FCE
331
211C7
  5
21FCF
331
217C4
  5
21FD0
331
217C5
  5
21FD1
331
217C6
  5
21FD2
331
217C7
  5
21FD3
331
217C8
  5
21FD4
331
217C9
  5
21FD5
331
217CB
  5
21FD6
331
217CC
  5
21FD7
331
217DE
  5
21FD8
331
217DF
  5
21FD9
331
217E1
  5
21FDA
331
217E7
  5
21FDB
331
217E9
  5
21FDC
331
21868
  5
21FDD
331
21869
  5
21FDE
331
2186A
  5
21FDF
331
2186B
  5
21FE0
331
2186C
  5
21FE1
331
2186D
  5
21FE2
331
2186E
  5
21FE3
331
2186F
  5
21FE4
331
21870
  5
21FE5
331
21871
  5
21FE6
331
21872
  5
21FE7
331
21873
  5
21FE8
331
21874
  5
21FE9
331
21875
  5
21FEA
331
21876
  5
21FEB
331
21877
  5
21FEC
331
21878
  5
21FED
331
21879
  5
21FEE
331
2187A
  5
21FEF
331
2187B
  5
21FF0
331
2187C
  5
21FF1
331
2187D
  5
21FF2
331
2187E
  5
21FF3
331
2187F
  5
21FF4
331
21880
  5
21FF5
331
21881
  5
21FF6
331
21882
  5
21FF7
331
21883
  5
21FF8
331
21884
  5
21FF9
331
21885
  5
21FFA
331
21886
  5
21FFB
331
21887
  5
21FFC
331
21888
  5
21FFD
331
21889
  5
21FFE
331
2188A
  5
21FFF
331
2188B
  5
22000
331
2188C
  5
22001
331
2188D
  5
22002
331
2188E
  5
22003
331
2188F
  5
22004
331
21890
  5
22005
331
21891
  5
22006
331
21892
  5
22007
331
21893
  5
22008
331
21894
  5
22009
331
21895
  5
2200A
331
21896
  5
2200B
331
21897
  5
2200C
331
21898
  5
2200D
331
21899
  5
2200E
331
2189A
  5
2200F
331
2189B
  5
22010
331
2189C
  5
22011
331
218A0
  5
22012
331
218A1
  5
22013
331
218A2
  5
22014
331
218A3
  5
22015
331
218A4
  5
22016
331
218A5
  5
22017
331
218A6
  5
22018
331
218A7
  5
22019
331
218A8
  5
2201A
331
218A9
  5
2201B
331
218AA
  5
2201C
331
21913
  5
2201D
331
21914
  5
2201E
331
21915
  5
2201F
331
21916
  5
22020
331
21917
  5
22021
331
21918
  5
22022
331
21919
  5
22023
331
2191A
  5
22024
331
2191B
  5
22025
331
2191C
  5
22026
331
2199E
  5
22027
331
2199F
  5
22028
331
219A0
  5
22029
331
219A1
  5
2202A
331
219A2
  5
2202B
331
219A3
  5
2202C
331
219A4
  5
2202D
331
219A5
  5
2202E
331
219A6
  5
2202F
331
219A7
  5
22030
331
219AA
  5
22031
331
219AE
  5
22032
331
21AB2
  5
22033
331
21AB4
  5
22034
331
21AB5
  5
22035
331
21AB6
  5
22036
331
21AB7
  5
22037
331
21AB8
  5
22038
331
21AB9
  5
22039
331
21ABA
  5
2203A
331
21ABB
  5
2203B
331
21ABC
  5
2203C
331
21ABD
  5
2203D
331
21ABE
  5
2203E
331
21ABF
  5
2203F
331
21AC0
  5
22040
331
21AC1
  5
22041
331
21AC2
  5
22042
331
21AC3
  5
22043
331
21AC4
  5
22044
331
21AC5
  5
22045
331
21AC6
  5
22046
331
21AC7
  5
22047
331
21AC8
  5
22048
331
21AC9
  5
22049
331
21ACA
  5
2204A
331
21ACB
  5
2204B
331
21ACC
  5
2204C
331
21ACD
  5
2204D
331
21ACE
  5
2204E
331
21ACF
  5
2204F
331
21AD0
  5
22050
331
21AD1
  5
22051
331
21AD2
  5
22052
331
21AD3
  5
22053
331
21AD4
  5
22054
331
21AD5
  5
22055
331
21AD6
  5
22056
331
21AD7
  5
22057
331
21AD8
  5
22058
331
21AD9
  5
22059
331
21ADA
  5
2205A
331
21ADB
  5
2205B
331
21ADC
  5
2205C
331
21ADD
  5
2205D
331
21ADE
  5
2205E
331
21ADF
  5
2205F
331
21AE0
  5
22060
331
21AE1
  5
22061
331
21AE2
  5
22062
331
21AE3
  5
22063
331
21AE4
  5
22064
331
21AE5
  5
22065
331
21AE6
  5
22066
331
21AE7
  5
22067
331
21AE8
  5
22068
331
21AE9
  5
22069
331
21AEA
  5
2206A
331
21AEB
  5
2206B
331
21AEC
  5
2206C
331
21AED
  5
2206D
331
21AEE
  5
2206E
331
21AEF
  5
2206F
331
21AF0
  5
22070
331
21AF1
  5
22071
331
21AF2
  5
22072
331
21AF3
  5
22073
331
21AF4
  5
22074
331
21AF5
  5
22075
331
21AF6
  5
22076
331
21AF7
  5
22077
331
21AF8
  5
22078
331
21AF9
  5
22079
331
21AFA
  5
2207A
331
21AFB
  5
2207B
331
21AFC
  5
2207C
331
21AFD
  5
2207D
331
21AFE
  5
2207E
331
21AFF
  5
2207F
331
21B00
  5
22080
331
21B01
  5
22081
331
21B02
  5
22082
331
21B03
  5
22083
331
21B04
  5
22084
331
21B05
  5
22085
331
21B06
  5
22086
331
21B07
  5
22087
331
21B08
  5
22088
331
21B09
  5
22089
331
21B0A
  5
2208A
331
21B0C
  5
2208B
331
21B0D
  5
2208C
331
0
  5
21D7D
331
0
  5
21D7E
331
21D7D
  5
22091
331
21D7E
  5
22092
331
21D7F
  5
22093
331
21D80
  5
22094
331
21D81
  5
22095
331
21D82
  5
22096
331
21D83
  5
22097
331
21D85
  5
22098
331
21D86
  5
22099
331
21D87
  5
2209A
331
21D88
  5
2209B
331
21D89
  5
2209C
331
21D8A
  5
2209D
331
21D8B
  5
2209E
331
21D8D
  5
2209F
331
21D8E
  5
220A0
331
21D8F
  5
220A1
331
21D90
  5
220A2
331
21D91
  5
220A3
331
21D92
  5
220A4
331
21F46
  5
21868
331
21F47
  5
2186B
331
21F48
  5
1D8CE
331
21F49
  5
1D910
331
21F4A
  5
1DB9F
331
0
  5
1DBA8
331
0
  5
1DF13
331
0
  5
1DFD9
331
21F4E
  5
1EA19
331
21F4F
  5
1EA1A
331
21F50
  5
1EA4D
331
21F51
  5
1EA4E
331
21F52
  5
1EBF0
331
21F53
  5
1EBF2
331
21F54
  5
1EBF3
331
21F55
  5
1EBF4
331
21F56
  5
20D94
331
21F57
  5
20D9B
331
21F58
  5
20D9E
331
21F59
  5
20D9F
331
21F5A
  5
20DA0
331
0
  5
1EBF6
331
0
  5
20D79
331
0
  5
20D93
331
21F5E
  5
20DBF
331
21F5F
  5
20E07
331
21F60
  5
20E08
331
0
  5
20DA1
331
0
  5
20DA2
331
0
  5
20DA4
331
21F64
  5
20E11
331
21F65
  5
20E13
331
21F66
  5
20E14
331
0
  5
20DA9
331
0
  5
20DAB
331
0
  5
20DAC
331
21F6A
  5
20E1D
331
21F6B
  5
20E1E
331
21F6C
  5
20E1F
331
0
  5
20DB0
331
0
  5
20DB1
331
0
  5
20DB2
331
21F70
  5
20E2A
331
21F71
  5
20E2B
331
21F72
  5
20E2C
331
0
  5
20DB7
331
0
  5
20DB9
331
0
  5
20DBA
331
21F76
  5
217C5
331
21F77
  5
217C6
331
21F78
  5
217C7
331
0
  5
20DC0
331
0
  5
20DC1
331
0
  5
20DF2
331
21F7C
  5
217E7
331
21F7D
  5
217E9
331
21F7E
  5
21869
331
21F7F
  5
2186A
331
21F80
  5
21871
331
21F81
  5
21872
331
21F82
  5
21873
331
21F83
  5
21874
331
21F84
  5
21875
331
21F85
  5
21876
331
21F86
  5
21877
331
21F87
  5
21878
331
21F88
  5
21879
331
21F89
  5
2187A
331
21F8A
  5
2187B
331
21F8B
  5
2187C
331
21F8C
  5
2187D
331
21F8D
  5
2187E
331
21F8E
  5
2187F
331
21F8F
  5
21880
331
21F90
  5
21881
331
21F91
  5
21882
331
21F92
  5
21883
331
21F93
  5
21884
331
21F94
  5
21885
331
21F95
  5
21886
331
21F96
  5
21887
331
21F97
  5
21888
331
21F98
  5
21889
331
21F99
  5
2188A
331
21F9A
  5
2188B
331
21F9B
  5
2188C
331
21F9C
  5
2188D
331
21F9D
  5
2188E
331
21F9E
  5
2188F
331
21F9F
  5
21890
331
21FA0
  5
21891
331
21FA1
  5
21892
331
21FA2
  5
21893
331
21FA3
  5
21894
331
21FA4
  5
21895
331
21FA5
  5
21896
331
21FA6
  5
21897
331
21FA7
  5
21898
331
21FA8
  5
21899
331
21FA9
  5
2189A
331
21FAA
  5
2189B
331
21FAB
  5
2189C
331
21FAC
  5
218A0
331
21FAD
  5
218A1
331
21FAE
  5
218A2
331
21FAF
  5
218A3
331
21FB0
  5
218A4
331
21FB1
  5
218A5
331
21FB2
  5
218A6
331
21FB3
  5
218A7
331
21FB4
  5
218A8
331
21FB5
  5
218A9
331
21FB6
  5
218AA
331
21FB7
  5
21913
331
21FB8
  5
21914
331
21FB9
  5
21915
331
21FBA
  5
21916
331
21FBB
  5
21917
331
21FBC
  5
21918
331
21FBD
  5
21919
331
21FBE
  5
2191A
331
21FBF
  5
2191B
331
21FC0
  5
2191C
331
21FC1
  5
2199E
331
21FC2
  5
2199F
331
21FC3
  5
219A0
331
21FC4
  5
219A1
331
21FC5
  5
219A2
331
21FC6
  5
219A3
331
21FC7
  5
219A4
331
21FC8
  5
219A5
331
21FC9
  5
219A6
331
21FCA
  5
21AB5
331
21FCB
  5
21AB6
331
21FCC
  5
21AB7
331
21FCD
  5
21AB8
331
21FCE
  5
21AB9
331
21FCF
  5
21ABA
331
21FD0
  5
21ABB
331
21FD1
  5
21ABC
331
21FD2
  5
21ABD
331
21FD3
  5
21ABE
331
21FD4
  5
21ABF
331
21FD5
  5
21AC0
331
21FD6
  5
21AC1
331
21FD7
  5
21AC2
331
21FD8
  5
21AC3
331
21FD9
  5
21AC4
331
21FDA
  5
21AC5
331
21FDB
  5
21AC6
331
21FDC
  5
21AC7
331
21FDD
  5
21AC8
331
21FDE
  5
21AC9
331
21FDF
  5
21ACA
331
21FE0
  5
21ACB
331
21FE1
  5
21ACC
331
21FE2
  5
21ACD
331
21FE3
  5
21ACE
331
21FE4
  5
21ACF
331
21FE5
  5
21AD0
331
21FE6
  5
21AD1
331
21FE7
  5
21AD2
331
21FE8
  5
21AD3
331
21FE9
  5
21AD4
331
21FEA
  5
21AD5
331
21FEB
  5
21AD6
331
21FEC
  5
21AD7
331
21FED
  5
21AD8
331
21FEE
  5
21AD9
331
21FEF
  5
21ADA
331
21FF0
  5
21ADB
331
21FF1
  5
21ADC
331
21FF2
  5
21ADD
331
21FF3
  5
21ADE
331
21FF4
  5
21ADF
331
21FF5
  5
21AE0
331
21FF6
  5
21AE1
331
21FF7
  5
21AE2
331
21FF8
  5
21AE3
331
21FF9
  5
21AE4
331
21FFA
  5
21AE5
331
21FFB
  5
21AE6
331
21FFC
  5
21AE7
331
21FFD
  5
21AE8
331
21FFE
  5
21AE9
331
21FFF
  5
21AEA
331
22000
  5
21AEB
331
22001
  5
21AEC
331
22002
  5
21AED
331
22003
  5
21AEE
331
22004
  5
21AEF
331
22005
  5
21AF0
331
22006
  5
21AF1
331
22007
  5
21AF2
331
22008
  5
21AF3
331
22009
  5
21AF4
331
2200A
  5
21AF5
331
2200B
  5
21AF6
331
2200C
  5
21AF7
331
2200D
  5
21AF8
331
2200E
  5
21AF9
331
2200F
  5
21AFA
331
22010
  5
21AFB
331
22011
  5
21AFC
331
22012
  5
21AFD
331
22013
  5
21AFE
331
22014
  5
21B04
331
22015
  5
21B05
331
22016
  5
21B06
331
22017
  5
21B07
331
22018
  5
21B08
331
22019
  5
21B09
331
2201A
  5
21B0A
331
2201B
  5
21B0C
331
2201C
  5
21B0D
331
2201D
  5
21C37
331
2201E
  5
21C3B
331
2201F
  5
21D7F
331
22020
  5
21D80
331
22021
  5
21D81
331
22022
  5
21D82
331
22023
  5
21D83
331
22024
  5
21D85
331
22025
  5
21D86
331
22026
  5
21D87
331
22027
  5
21D88
331
22028
  5
21D89
331
22029
  5
21D8A
331
2202A
  5
21D8B
331
2202B
  5
21D8D
331
2202C
  5
21D8E
331
2202D
  5
21D8F
331
2202E
  5
21D90
331
2202F
  5
21D91
331
22030
  5
21D92
331
22031
  5
21F46
331
22032
  5
21F47
331
22033
  5
21F48
331
22034
  5
21F49
331
22035
  5
21F4A
331
22036
  5
21F4B
331
22037
  5
21F4C
331
22038
  5
21F4D
331
22039
  5
21F4E
331
2203A
  5
21F4F
331
2203B
  5
21F50
331
2203C
  5
21F51
331
2203D
  5
21F52
331
2203E
  5
21F53
331
2203F
  5
21F54
331
22040
  5
21F55
331
22041
  5
21F56
331
22042
  5
21F57
331
22043
  5
21F58
331
22044
  5
21F59
331
22045
  5
21F5A
331
22046
  5
21F5B
331
22047
  5
21F5C
331
22048
  5
21F5D
331
22049
  5
21F5E
331
2204A
  5
21F5F
331
2204B
  5
21F60
331
2204C
  5
21F61
331
2204D
  5
21F62
331
2204E
  5
21F63
331
2204F
  5
21F64
331
22050
  5
21F65
331
22051
  5
21F66
331
22052
  5
21F67
331
22053
  5
21F68
331
22054
  5
21F69
331
22055
  5
21F6A
331
22056
  5
21F6B
331
22057
  5
21F6C
331
22058
  5
21F6D
331
22059
  5
21F6E
331
2205A
  5
21F6F
331
2205B
  5
21F70
331
2205C
  5
21F71
331
2205D
  5
21F72
331
0
  5
21F88
331
2205F
  5
21FC4
331
22060
  5
21FC5
331
22061
  5
21FC6
331
22062
  5
21FC7
331
22063
  5
21FC8
331
22064
  5
21FC9
331
22065
  5
21FCA
331
22066
  5
2208D
331
22067
  5
2208E
331
22068
  5
2208F
331
22069
  5
22090
331
2206A
  5
1E7B7
331
2206B
  5
1E9DB
331
2206C
  5
1E9E5
331
2206D
  5
1E9E6
331
2206E
  5
1E9E7
331
2206F
  5
1E9E8
331
22070
  5
1E9EF
331
22071
  5
20DA6
331
22072
  5
20DA7
331
22073
  5
20DA8
331
22074
  5
20DAD
331
22075
  5
20DAE
331
22076
  5
20DAF
331
22077
  5
20DB3
331
22078
  5
20E09
331
22079
  5
20E0A
331
2207A
  5
20E0B
331
2207B
  5
20E0C
331
2207C
  5
20E0D
331
2207D
  5
20E0E
331
2207E
  5
20E0F
331
2207F
  5
20E15
331
22080
  5
20E17
331
22081
  5
20E18
331
22082
  5
20E19
331
22083
  5
20E1A
331
22084
  5
20E1B
331
22085
  5
20E1C
331
22086
  5
20E20
331
22087
  5
20E21
331
22088
  5
20E23
331
22089
  5
20E24
331
2208A
  5
20E26
331
2208B
  5
20E27
331
2208C
  5
20E28
331
2208D
  5
20E2D
331
2208E
  5
20F6B
331
2208F
  5
20F6E
331
22090
  5
20F70
331
22091
  5
20F71
331
22092
  5
211C7
331
22093
  5
217C4
331
22094
  5
217C8
331
22095
  5
217C9
331
22096
  5
217CB
331
22097
  5
217CC
331
22098
  5
217DE
331
22099
  5
217DF
331
2209A
  5
217E1
331
2209B
  5
21FBA
331
2209C
  5
21FBB
331
2209D
  5
21FBC
331
2209E
  5
21FBD
331
2209F
  5
21FBE
331
220A0
  5
21FBF
331
220A1
  5
21FC0
331
220A2
  5
21FC1
331
220A3
  5
21FC2
331
220A4
  5
21FC3
  0
SORTENTSTABLE
  5
59C
102
{ACAD_REACTORS
330
59B
102
}
330
59B
100
AcDbSortentsTable
330
15
331
57
  5
57
331
0
  5
70
  0
SORTENTSTABLE
  5
20B2F
102
{ACAD_REACTORS
330
20B2E
102
}
330
20B2E
100
AcDbSortentsTable
330
20B2D
331
20B31
  5
20B32
331
20B32
  5
20B31
  0
GROUP
  5
1E9DA
102
{ACAD_REACTORS
330
D
102
}
330
D
100
AcDbGroup
300

 70
     1
 71
     1
340
1E9D8
340
1E9D7
340
1E9D6
340
1E9D5
340
1E9D4
  0
GROUP
  5
1E9F1
102
{ACAD_REACTORS
330
D
102
}
330
D
100
AcDbGroup
300

 70
     1
 71
     1
340
1E9EF
340
1E9EE
340
1E9ED
340
1E9EC
340
1E9EB
  0
GROUP
  5
1EBF5
102
{ACAD_REACTORS
330
D
102
}
330
D
100
AcDbGroup
300

 70
     1
 71
     1
340
1EBF3
340
1EBF2
340
1EBF1
340
1EBF0
340
1EBEF
  0
GROUP
  5
1EDFD
102
{ACAD_REACTORS
330
D
102
}
330
D
100
AcDbGroup
300

 70
     1
 71
     1
340
1DBA6
340
1DBA5
340
1DBA4
  0
GROUP
  5
20F72
102
{ACAD_REACTORS
330
D
102
}
330
D
100
AcDbGroup
300

 70
     1
 71
     1
340
20E2D
340
20E2C
340
20E28
340
20E27
340
20E26
340
20E24
340
20E23
340
20E21
340
20E20
340
20E1F
340
20E1E
340
20E1D
340
20E1C
340
20E1B
340
20E1A
340
20E19
340
20E18
340
20E17
340
20DBB
340
20DBA
340
20DB9
340
20DB7
340
20DB5
340
20DB4
340
20DB3
340
20DB2
340
20DB1
340
20DB0
340
20DAF
340
20DAE
340
20DAD
340
20DAC
340
20DAB
  0
GROUP
  5
20F73
102
{ACAD_REACTORS
330
D
102
}
330
D
100
AcDbGroup
300

 70
     1
 71
     1
340
20DF2
340
20DC1
340
20DC0
340
20DBF
340
20DBE
340
20D94
340
20D93
340
20D7D
340
20D79
  0
GROUP
  5
20F74
102
{ACAD_REACTORS
330
D
102
}
330
D
100
AcDbGroup
300

 70
     1
 71
     1
340
20F71
340
20F70
340
20F6F
340
20F6E
340
20E2B
340
20E2A
340
20E15
340
20E14
340
20E13
340
20E11
340
20E0F
340
20E0E
340
20E0D
340
20E0C
340
20E0B
340
20E0A
340
20E09
340
20E08
340
20E07
340
20DA9
340
20DA8
340
20DA7
340
20DA6
340
20DA4
340
20DA2
340
20DA1
340
20DA0
340
20D9F
340
20D9E
340
20D9D
340
20D9C
340
20D9B
  0
GROUP
  5
21AB3
102
{ACAD_REACTORS
330
D
102
}
330
D
100
AcDbGroup
300

 70
     1
 71
     1
340
219AE
340
21AB2
340
219AA
340
219A7
340
219A6
340
219A5
340
219A4
340
219A3
340
219A2
340
219A1
340
219A0
340
2199F
340
2199E
340
2191C
340
2191B
340
2191A
340
21919
340
21918
340
21917
340
21916
340
21915
340
21914
340
21913
340
218AA
340
218A9
340
218A8
340
218A7
340
218A6
340
218A5
340
218A4
340
218A3
340
218A2
340
218A1
340
218A0
340
2189C
340
2189B
340
2189A
340
21899
340
21898
340
21897
340
21896
340
21895
340
21894
340
21893
340
21892
340
21891
340
21890
340
2188F
340
2188E
340
2188D
340
2188C
340
2188B
340
2188A
340
21889
340
21888
340
21887
340
21886
340
21885
340
21884
340
21883
340
21882
340
21881
340
21880
340
2187F
340
2187E
340
2187D
340
2187C
340
2187B
340
2187A
340
21879
340
21878
340
21877
340
21876
340
21875
340
21874
340
21873
340
21872
340
21871
340
21870
340
2186F
340
2186E
340
2186D
340
2186C
340
2186B
340
2186A
340
21869
340
21868
  0
GROUP
  5
21B0B
102
{ACAD_REACTORS
330
D
102
}
330
D
100
AcDbGroup
300

 70
     1
 71
     1
340
21B09
340
21B0A
340
21B08
340
21B07
340
21B06
340
21B05
340
21B04
340
21B03
340
21B02
340
21B01
340
21B00
340
21AFF
340
21AFE
340
21AFD
340
21AFC
340
21AFB
340
21AFA
340
21AF9
340
21AF8
340
21AF7
340
21AF6
340
21AF5
340
21AF4
340
21AF3
340
21AF2
340
21AF1
340
21AF0
340
21AEF
340
21AEE
340
21AED
340
21AEC
340
21AEB
340
21AEA
340
21AE9
340
21AE8
340
21AE7
340
21AE6
340
21AE5
340
21AE4
340
21AE3
340
21AE2
340
21AE1
340
21AE0
340
21ADF
340
21ADE
340
21ADD
340
21ADC
340
21ADB
340
21ADA
340
21AD9
340
21AD8
340
21AD7
340
21AD6
340
21AD5
340
21AD4
340
21AD3
340
21AD2
340
21AD1
340
21AD0
340
21ACF
340
21ACE
340
21ACD
340
21ACC
340
21ACB
340
21ACA
340
21AC9
340
21AC8
340
21AC7
340
21AC6
340
21AC5
340
21AC4
340
21AC3
340
21AC2
340
21AC1
340
21AC0
340
21ABF
340
21ABE
340
21ABD
340
21ABC
340
21ABB
340
21ABA
340
21AB9
340
21AB8
340
21AB7
340
21AB6
340
21AB5
340
21AB4
  0
MATERIAL
  5
19DD5
102
{ACAD_REACTORS
330
2CF
102
}
102
{ACAD_XDICTIONARY
360
22243
102
}
330
2CF
100
AcDbMaterial
  1
BYBLOCK
 72
     0
 73
     2
 43
0.0208333333333333
 43
0.0
 43
0.0
 43
0.0
 43
0.0
 43
0.0208333333333333
 43
0.0
 43
0.0
 43
0.0
 43
0.0
 43
1.0
 43
0.0
 43
0.0
 43
0.0
 43
0.0
 43
1.0
 77
     0
 78
     2
 47
0.0208333333333333
 47
0.0
 47
0.0
 47
0.0
 47
0.0
 47
0.0208333333333333
 47
0.0
 47
0.0
 47
0.0
 47
0.0
 47
1.0
 47
0.0
 47
0.0
 47
0.0
 47
0.0
 47
1.0
171
     0
172
     2
 49
0.0208333333333333
 49
0.0
 49
0.0
 49
0.0
 49
0.0
 49
0.0208333333333333
 49
0.0
 49
0.0
 49
0.0
 49
0.0
 49
1.0
 49
0.0
 49
0.0
 49
0.0
 49
0.0
 49
1.0
175
     0
176
     2
142
0.0208333333333333
142
0.0
142
0.0
142
0.0
142
0.0
142
0.0208333333333333
142
0.0
142
0.0
142
0.0
142
0.0
142
1.0
142
0.0
142
0.0
142
0.0
142
0.0
142
1.0
179
     0
270
     2
144
0.0208333333333333
144
0.0
144
0.0
144
0.0
144
0.0
144
0.0208333333333333
144
0.0
144
0.0
144
0.0
144
0.0
144
1.0
144
0.0
144
0.0
144
0.0
144
0.0
144
1.0
274
     2
147
0.0208333333333333
147
0.0
147
0.0
147
0.0
147
0.0
147
0.0208333333333333
147
0.0
147
0.0
147
0.0
147
0.0
147
1.0
147
0.0
147
0.0
147
0.0
147
0.0
147
1.0
  0
MATERIAL
  5
19DCD
102
{ACAD_REACTORS
330
2CF
102
}
102
{ACAD_XDICTIONARY
360
22245
102
}
330
2CF
100
AcDbMaterial
  1
BYLAYER
 72
     0
 73
     2
 43
0.0208333333333333
 43
0.0
 43
0.0
 43
0.0
 43
0.0
 43
0.0208333333333333
 43
0.0
 43
0.0
 43
0.0
 43
0.0
 43
1.0
 43
0.0
 43
0.0
 43
0.0
 43
0.0
 43
1.0
 77
     0
 78
     2
 47
0.0208333333333333
 47
0.0
 47
0.0
 47
0.0
 47
0.0
 47
0.0208333333333333
 47
0.0
 47
0.0
 47
0.0
 47
0.0
 47
1.0
 47
0.0
 47
0.0
 47
0.0
 47
0.0
 47
1.0
171
     0
172
     2
 49
0.0208333333333333
 49
0.0
 49
0.0
 49
0.0
 49
0.0
 49
0.0208333333333333
 49
0.0
 49
0.0
 49
0.0
 49
0.0
 49
1.0
 49
0.0
 49
0.0
 49
0.0
 49
0.0
 49
1.0
175
     0
176
     2
142
0.0208333333333333
142
0.0
142
0.0
142
0.0
142
0.0
142
0.0208333333333333
142
0.0
142
0.0
142
0.0
142
0.0
142
1.0
142
0.0
142
0.0
142
0.0
142
0.0
142
1.0
179
     0
270
     2
144
0.0208333333333333
144
0.0
144
0.0
144
0.0
144
0.0
144
0.0208333333333333
144
0.0
144
0.0
144
0.0
144
0.0
144
1.0
144
0.0
144
0.0
144
0.0
144
0.0
144
1.0
274
     2
147
0.0208333333333333
147
0.0
147
0.0
147
0.0
147
0.0
147
0.0208333333333333
147
0.0
147
0.0
147
0.0
147
0.0
147
1.0
147
0.0
147
0.0
147
0.0
147
0.0
147
1.0
  0
MATERIAL
  5
19DDD
102
{ACAD_REACTORS
330
2CF
102
}
102
{ACAD_XDICTIONARY
360
22247
102
}
330
2CF
100
AcDbMaterial
  1
GLOBAL
 72
     0
 73
     2
 43
0.0208333333333333
 43
0.0
 43
0.0
 43
0.0
 43
0.0
 43
0.0208333333333333
 43
0.0
 43
0.0
 43
0.0
 43
0.0
 43
1.0
 43
0.0
 43
0.0
 43
0.0
 43
0.0
 43
1.0
 77
     0
 78
     2
 47
0.0208333333333333
 47
0.0
 47
0.0
 47
0.0
 47
0.0
 47
0.0208333333333333
 47
0.0
 47
0.0
 47
0.0
 47
0.0
 47
1.0
 47
0.0
 47
0.0
 47
0.0
 47
0.0
 47
1.0
171
     0
172
     2
 49
0.0208333333333333
 49
0.0
 49
0.0
 49
0.0
 49
0.0
 49
0.0208333333333333
 49
0.0
 49
0.0
 49
0.0
 49
0.0
 49
1.0
 49
0.0
 49
0.0
 49
0.0
 49
0.0
 49
1.0
175
     0
176
     2
142
0.0208333333333333
142
0.0
142
0.0
142
0.0
142
0.0
142
0.0208333333333333
142
0.0
142
0.0
142
0.0
142
0.0
142
1.0
142
0.0
142
0.0
142
0.0
142
0.0
142
1.0
179
     0
270
     2
144
0.0208333333333333
144
0.0
144
0.0
144
0.0
144
0.0
144
0.0208333333333333
144
0.0
144
0.0
144
0.0
144
0.0
144
1.0
144
0.0
144
0.0
144
0.0
144
0.0
144
1.0
274
     2
147
0.0208333333333333
147
0.0
147
0.0
147
0.0
147
0.0
147
0.0208333333333333
147
0.0
147
0.0
147
0.0
147
0.0
147
1.0
147
0.0
147
0.0
147
0.0
147
0.0
147
1.0
  0
ACAD_PROXY_OBJECT
  5
20B2C
102
{ACAD_REACTORS
330
19E18
102
}
330
19E18
100
AcDbZombieObject
 90
      499
 91
      512
 93
      546
310
40501902A4063FBFFFFFE0000000000000020000000000000020408000000000000004090140501A0000000000000410000000000000004102575016000000000000039000
340
12
340
42
340
F
340
20B2D
 94
        0
1001
ACAD_MLEADERVER
1070
     2
  0
ACAD_PROXY_OBJECT
  5
2142E
102
{ACAD_REACTORS
330
19E18
102
}
330
19E18
100
AcDbZombieObject
 90
      499
 91
      512
 93
      546
310
40901902A4063FBFFFFFE0000000000000020400000000000020C080000000000000040905415019C900000000000003100000000000000041025764000000000000039000
340
12
340
42
340
F
340
0
 94
        0
1001
ACAD_MLEADERVER
1070
     2
  0
ACAD_PROXY_OBJECT
  5
19E19
102
{ACAD_REACTORS
330
19E18
102
}
330
19E18
100
AcDbZombieObject
 90
      499
 91
      512
 93
      610
310
40901902A4063FBFFFFFE000000000000002040AD7A3703D0AD73F4214DD185B99185C990000000000000104090141901A00000000000004100000000000000041025764000000000000300FC0
340
12
340
0
340
F
340
0
 94
        0
1001
ACAD_MLEADERVER
1070
     2
  0
MLINESTYLE
  5
1C
102
{ACAD_REACTORS
330
1B
102
}
330
1B
100
AcDbMlineStyle
  2
STANDARD
 70
     0
  3

 62
   256
 51
90.0
 52
90.0
 71
     2
 49
0.5
 62
   256
  6
BYLAYER
 49
-0.5
 62
   256
  6
BYLAYER
  0
ACAD_PROXY_OBJECT
  5
19DF7
102
{ACAD_REACTORS
330
19DF6
102
}
330
19DF6
100
AcDbZombieObject
 90
      499
 91
      511
 93
       41
310
903313A31580
  0
ACAD_PROXY_OBJECT
  5
19DF8
102
{ACAD_REACTORS
330
19DF6
102
}
330
19DF6
100
AcDbZombieObject
 90
      499
 91
      511
 93
      105
310
903313A324000000000000004000
  0
ACAD_PROXY_OBJECT
  5
19DF9
102
{ACAD_REACTORS
330
19DF6
102
}
330
19DF6
100
AcDbZombieObject
 90
      499
 91
      511
 93
      105
310
903313A344000000000000104000
  0
ACAD_PROXY_OBJECT
  5
19DFA
102
{ACAD_REACTORS
330
19DF6
102
}
330
19DF6
100
AcDbZombieObject
 90
      499
 91
      511
 93
      105
310
903313A354000000000000144000
  0
ACAD_PROXY_OBJECT
  5
19DFB
102
{ACAD_REACTORS
330
19DF6
102
}
330
19DF6
100
AcDbZombieObject
 90
      499
 91
      511
 93
      105
310
903313A384000000000000204000
  0
ACAD_PROXY_OBJECT
  5
19DFC
102
{ACAD_REACTORS
330
19DF6
102
}
330
19DF6
100
AcDbZombieObject
 90
      499
 91
      511
 93
      113
310
904313A31304000000000000244000
  0
ACAD_PROXY_OBJECT
  5
19DFD
102
{ACAD_REACTORS
330
19DF6
102
}
330
19DF6
100
AcDbZombieObject
 90
      499
 91
      511
 93
      113
310
904313A31364000000000000304000
  0
ACAD_PROXY_OBJECT
  5
19DFE
102
{ACAD_REACTORS
330
19DF6
102
}
330
19DF6
100
AcDbZombieObject
 90
      499
 91
      511
 93
      113
310
904313A32304000000000000344000
  0
ACAD_PROXY_OBJECT
  5
19DFF
102
{ACAD_REACTORS
330
19DF6
102
}
330
19DF6
100
AcDbZombieObject
 90
      499
 91
      511
 93
      113
310
904313A333040000000000003E4000
  0
ACAD_PROXY_OBJECT
  5
19E00
102
{ACAD_REACTORS
330
19DF6
102
}
330
19DF6
100
AcDbZombieObject
 90
      499
 91
      511
 93
      113
310
904313A34304000000000000444000
  0
ACAD_PROXY_OBJECT
  5
19E01
102
{ACAD_REACTORS
330
19DF6
102
}
330
19DF6
100
AcDbZombieObject
 90
      499
 91
      511
 93
      113
310
904313A35304000000000000494000
  0
ACAD_PROXY_OBJECT
  5
19E02
102
{ACAD_REACTORS
330
19DF6
102
}
330
19DF6
100
AcDbZombieObject
 90
      499
 91
      511
 93
      121
310
905313A3130304000000000000594000
  0
ACAD_PROXY_OBJECT
  5
19E03
102
{ACAD_REACTORS
330
19DF6
102
}
330
19DF6
100
AcDbZombieObject
 90
      499
 91
      511
 93
      105
310
903323A310000000000000010100
  0
ACAD_PROXY_OBJECT
  5
19E04
102
{ACAD_REACTORS
330
19DF6
102
}
330
19DF6
100
AcDbZombieObject
 90
      499
 91
      511
 93
      105
310
903343A310000000000000410100
  0
ACAD_PROXY_OBJECT
  5
19E05
102
{ACAD_REACTORS
330
19DF6
102
}
330
19DF6
100
AcDbZombieObject
 90
      499
 91
      511
 93
      105
310
903383A310000000000000810100
  0
ACAD_PROXY_OBJECT
  5
19E06
102
{ACAD_REACTORS
330
19DF6
102
}
330
19DF6
100
AcDbZombieObject
 90
      499
 91
      511
 93
      113
310
90431303A310000000000000910100
  0
ACAD_PROXY_OBJECT
  5
19E07
102
{ACAD_REACTORS
330
19DF6
102
}
330
19DF6
100
AcDbZombieObject
 90
      499
 91
      511
 93
      121
310
9053130303A310000000000001650100
  0
ACAD_PROXY_OBJECT
  5
19E08
102
{ACAD_REACTORS
330
19DF6
102
}
330
19DF6
100
AcDbZombieObject
 90
      499
 91
      511
 93
      257
310
90E312F31323822203D2031272D3022000000000000200FC000000000000284000
  0
ACAD_PROXY_OBJECT
  5
19E09
102
{ACAD_REACTORS
330
19DF6
102
}
330
19DF6
100
AcDbZombieObject
 90
      499
 91
      511
 93
      249
310
90D312F363422203D2031272D3022000000000000240FC000000000000284000
  0
ACAD_PROXY_OBJECT
  5
19E0A
102
{ACAD_REACTORS
330
19DF6
102
}
330
19DF6
100
AcDbZombieObject
 90
      499
 91
      511
 93
      249
310
90D312F333222203D2031272D3022000000000000280FC000000000000284000
  0
ACAD_PROXY_OBJECT
  5
19E0B
102
{ACAD_REACTORS
330
19DF6
102
}
330
19DF6
100
AcDbZombieObject
 90
      499
 91
      511
 93
      249
310
90D312F313622203D2031272D30220000000000002C0FC000000000000284000
  0
ACAD_PROXY_OBJECT
  5
19E0C
102
{ACAD_REACTORS
330
19DF6
102
}
330
19DF6
100
AcDbZombieObject
 90
      499
 91
      511
 93
      249
310
90D332F333222203D2031272D30220000000000002E0FC000000000000284000
  0
ACAD_PROXY_OBJECT
  5
19E0D
102
{ACAD_REACTORS
330
19DF6
102
}
330
19DF6
100
AcDbZombieObject
 90
      499
 91
      511
 93
      241
310
90C312F3822203D2031272D3022000000000000300FC000000000000284000
  0
ACAD_PROXY_OBJECT
  5
19E0E
102
{ACAD_REACTORS
330
19DF6
102
}
330
19DF6
100
AcDbZombieObject
 90
      499
 91
      511
 93
      249
310
90D332F313622203D2031272D3022000000000000320FC000000000000284000
  0
ACAD_PROXY_OBJECT
  5
19E0F
102
{ACAD_REACTORS
330
19DF6
102
}
330
19DF6
100
AcDbZombieObject
 90
      499
 91
      511
 93
      241
310
90C312F3422203D2031272D3022000000000000340FC000000000000284000
  0
ACAD_PROXY_OBJECT
  5
19E10
102
{ACAD_REACTORS
330
19DF6
102
}
330
19DF6
100
AcDbZombieObject
 90
      499
 91
      511
 93
      241
310
90C332F3822203D2031272D3022000000000000360FC000000000000284000
  0
ACAD_PROXY_OBJECT
  5
19E11
102
{ACAD_REACTORS
330
19DF6
102
}
330
19DF6
100
AcDbZombieObject
 90
      499
 91
      511
 93
      241
310
90C312F3222203D2031272D3022000000000000380FC000000000000284000
  0
ACAD_PROXY_OBJECT
  5
19E12
102
{ACAD_REACTORS
330
19DF6
102
}
330
19DF6
100
AcDbZombieObject
 90
      499
 91
      511
 93
      241
310
90C332F3422203D2031272D30220000000000003A0FC000000000000284000
  0
ACAD_PROXY_OBJECT
  5
19E13
102
{ACAD_REACTORS
330
19DF6
102
}
330
19DF6
100
AcDbZombieObject
 90
      499
 91
      511
 93
      161
310
90A3122203D2031272D30224000000000000284000
  0
ACAD_PROXY_OBJECT
  5
19E14
102
{ACAD_REACTORS
330
19DF6
102
}
330
19DF6
100
AcDbZombieObject
 90
      499
 91
      511
 93
      257
310
90E312D312F3222203D2031272D30220000000000003E0FC000000000000284000
  0
ACAD_PROXY_OBJECT
  5
19E15
102
{ACAD_REACTORS
330
19DF6
102
}
330
19DF6
100
AcDbZombieObject
 90
      499
 91
      511
 93
      225
310
90A3322203D2031272D302200000000000002100000000000000284000
  0
ACAD_PROXY_OBJECT
  5
19E16
102
{ACAD_REACTORS
330
19DF6
102
}
330
19DF6
100
AcDbZombieObject
 90
      499
 91
      511
 93
      225
310
90A3622203D2031272D302200000000000006100000000000000284000
  0
ACAD_PROXY_OBJECT
  5
19E17
102
{ACAD_REACTORS
330
19DF6
102
}
330
19DF6
100
AcDbZombieObject
 90
      499
 91
      511
 93
      249
310
90D31272D3022203D2031272D30220000000000000A100000000000000284000
  0
ACAD_PROXY_OBJECT
  5
19DEB
102
{ACAD_REACTORS
330
19DE5
102
}
330
19DE5
100
AcDbZombieObject
 90
      499
 91
      510
 93
      436
310
42CC9915DA5C99599C985B595049028333333333333E3BF0000000000000FB0107901411070040501600405405064090741402480A0340
1001
ACAD
1000
AcDbSavedByObjectVersion
1070
     0
  0
ACAD_PROXY_OBJECT
  5
19DED
102
{ACAD_REACTORS
330
19DE5
102
}
330
19DE5
100
AcDbZombieObject
 90
      499
 91
      510
 93
      500
310
424CD108121A5919195B90640502408333333333333E3BF0000000000000FB01079024090700405020000000000001110200405405064090740C02480A0340
1001
ACAD
1000
AcDbSavedByObjectVersion
1070
     0
  0
ACAD_PROXY_OBJECT
  5
19DEC
102
{ACAD_REACTORS
330
19DE5
102
}
330
19DE5
100
AcDbZombieObject
 90
      499
 91
      510
 93
      436
310
42CCD915DA5C99599C985B595059028333333333333E3BF0000000000000FB0107901411070040501600405405064090741402480A0340
1001
ACAD
1000
AcDbSavedByObjectVersion
1070
     0
  0
ACAD_PROXY_OBJECT
  5
19DEA
102
{ACAD_REACTORS
330
19DE5
102
}
330
19DE5
100
AcDbZombieObject
 90
      499
 91
      510
 93
      388
310
4150985CDA58D07406404333333333333E3BF0000000000000FB0107A41107004050150841D405064090741402480A0350
1001
ACAD
1000
AcDbSavedByObjectVersion
1070
     0
  0
ACAD_PROXY_OBJECT
  5
19DF1
102
{ACAD_REACTORS
330
19DE5
102
}
330
19DE5
100
AcDbZombieObject
 90
      499
 91
      510
 93
      428
310
42109C9A59DA1D195B90C409028333333333333E3BF0000000000000FB010790141107004050150841D405064090741402480A029950
1001
ACAD
1000
AcDbSavedByObjectVersion
1070
     0
  0
ACAD_PROXY_OBJECT
  5
19DF5
102
{ACAD_REACTORS
330
19DE5
102
}
330
19DE5
100
AcDbZombieObject
 90
      499
 91
      510
 93
      452
310
42D0DBDB1BDC90DA185B99D95104090240C333333333333E3BF0000000000000FB0108901411070040501508421405064090741402480A0350
1001
ACAD
1000
AcDbSavedByObjectVersion
1070
     0
  0
ACAD_PROXY_OBJECT
  5
19DEE
102
{ACAD_REACTORS
330
19DE5
102
}
330
19DE5
100
AcDbZombieObject
 90
      499
 91
      510
 93
      500
310
4290DBDB98D95C1D1D585B10940D028333333333333E3BF0000000000000FB0107902409070040501000000000000111010841D405064090740C02480A0340
1001
ACAD
1000
AcDbSavedByObjectVersion
1070
     0
  0
ACAD_PROXY_OBJECT
  5
19DF0
102
{ACAD_REACTORS
330
19DE5
102
}
330
19DE5
100
AcDbZombieObject
 90
      499
 91
      510
 93
      412
310
40D11A5B50B409028333333333333E3BF0000000000000FB010790141107004050150841D405064090741402480A02677FFFFFD0
1001
ACAD
1000
AcDbSavedByObjectVersion
1070
     0
  0
ACAD_PROXY_OBJECT
  5
1E02A
102
{ACAD_REACTORS
330
19DE5
102
}
330
19DE5
100
AcDbZombieObject
 90
      499
 91
      510
 93
      452
310
43115919D950DBDB1BDC93D999916409028333333333333E3BF0000000000000FB010790141107004050150841D405064090741402480A0350
1001
ACAD
1000
AcDbSavedByObjectVersion
1070
     0
  0
ACAD_PROXY_OBJECT
  5
19DF4
102
{ACAD_REACTORS
330
19DE5
102
}
330
19DE5
100
AcDbZombieObject
 90
      499
 91
      510
 93
      444
310
42D19858D95C185D1D195C9B90F409028333333333333E3BF0000000000000FB010790141107004050150841D405064090741402480A0350
1001
ACAD
1000
AcDbSavedByObjectVersion
1070
     0
  0
ACAD_PROXY_OBJECT
  5
19DE6
102
{ACAD_REACTORS
330
19DE5
102
}
330
19DE5
100
AcDbZombieObject
 90
      499
 91
      510
 93
      388
310
41119B185D240901404333333333333E3BF0000000000000F9010740A41107004050150841D405064090741402480A1B50
1001
ACAD
1000
AcDbSavedByObjectVersion
1070
     0
  0
ACAD_PROXY_OBJECT
  5
19DE7
102
{ACAD_REACTORS
330
19DE5
102
}
330
19DE5
100
AcDbZombieObject
 90
      499
 91
      510
 93
      476
310
43519B185D15DA5D1A115919D95CD0140901404333333333333E3BF0000000000000F9010740901411070040501600405405064090741402480A1B50
1001
ACAD
1000
AcDbSavedByObjectVersion
1070
     0
  0
ACAD_PROXY_OBJECT
  5
19DE8
102
{ACAD_REACTORS
330
19DE5
102
}
330
19DE5
100
AcDbZombieObject
 90
      499
 91
      510
 93
      412
310
41D1DBDD5C985D5910240902404333333333333E3BF0000000000000F9010740A411070040501641D405064090741402480A1B50
1001
ACAD
1000
AcDbSavedByObjectVersion
1070
     0
  0
ACAD_PROXY_OBJECT
  5
19DE9
102
{ACAD_REACTORS
330
19DE5
102
}
330
19DE5
100
AcDbZombieObject
 90
      499
 91
      510
 93
      500
310
4411DBDD5C985D5915DA5D1A115919D95CD0340902404333333333333E3BF0000000000000F9010740901411070040501600405405064090741402480A1B50
1001
ACAD
1000
AcDbSavedByObjectVersion
1070
     0
  0
ACAD_PROXY_OBJECT
  5
1F381
102
{ACAD_REACTORS
330
19DE5
102
}
330
19DE5
100
AcDbZombieObject
 90
      499
 91
      510
 93
      476
310
41921A5919195B90640502408333333333333E33F0000000000000F901079024090700405020000000000001110200405405064090740C02480A0340
1001
ACAD
1000
AcDbSavedByObjectVersion
1070
     0
  0
ACAD_PROXY_OBJECT
  5
1E028
102
{ACAD_REACTORS
330
19DE5
102
}
330
19DE5
100
AcDbZombieObject
 90
      499
 91
      510
 93
      428
310
42529A5D1D195C93D999914409028333333333333E3BF0000000000000FB010790141107004050150A41D405064090741402480A0350
1001
ACAD
1000
AcDbSavedByObjectVersion
1070
     0
  0
ACAD_PROXY_OBJECT
  5
19DF3
102
{ACAD_REACTORS
330
19DE5
102
}
330
19DE5
100
AcDbZombieObject
 90
      499
 91
      510
 93
      444
310
42D31A5B995C185D1D195C9B90E409028333333333333E3BF0000000000000FB010790141107004050750841D405064090741402483A0350
1001
ACAD
1000
AcDbSavedByObjectVersion
1070
     0
  0
ACAD_PROXY_OBJECT
  5
1F387
102
{ACAD_REACTORS
330
19DE5
102
}
330
19DE5
100
AcDbZombieObject
 90
      499
 91
      510
 93
      484
310
42135BD9195B1A5B99D0A409038333333333333E33F0000000000000F901074090290700405010000000000201990108421405064090741402480A1B40
1001
ACAD
1000
AcDbSavedByObjectVersion
1070
     0
  0
ACAD_PROXY_OBJECT
  5
1E029
102
{ACAD_REACTORS
330
19DE5
102
}
330
19DE5
100
AcDbZombieObject
 90
      499
 91
      510
 93
      444
310
42D3DD995C9A185B99D3D999915409028333333333333E3BF0000000000000FB010790141107004050150941D405064090741402480A0350
1001
ACAD
1000
AcDbSavedByObjectVersion
1070
     0
  0
ACAD_PROXY_OBJECT
  5
19DEF
102
{ACAD_REACTORS
330
19DE5
102
}
330
19DE5
100
AcDbZombieObject
 90
      499
 91
      510
 93
      420
310
425499585B1A5CDD1A58D08409028333333333333E3BF0000000000000FB01079019070040501508421405064090741402480A1B40
1001
ACAD
1000
AcDbSavedByObjectVersion
1070
     0
  0
ACAD_PROXY_OBJECT
  5
1F386
102
{ACAD_REACTORS
330
19DE5
102
}
330
19DE5
100
AcDbZombieObject
 90
      499
 91
      510
 93
      420
310
4194DA1859195911B40902404333333333333E33F0000000000000F9010740A41107004050150800405405064090840C02480A0B40
1001
ACAD
1000
AcDbSavedByObjectVersion
1070
     0
  0
ACAD_PROXY_OBJECT
  5
1F385
102
{ACAD_REACTORS
330
19DE5
102
}
330
19DE5
100
AcDbZombieObject
 90
      499
 91
      510
 93
      516
310
4454DA18591959081DDA5D1A08195919D95CD1A40902404333333333333E33F0000000000000F901074090142907004050250800405405064090740C02480A0B40
1001
ACAD
1000
AcDbSavedByObjectVersion
1070
     0
  0
ACAD_PROXY_OBJECT
  5
1F382
102
{ACAD_REACTORS
330
19DE5
102
}
330
19DE5
100
AcDbZombieObject
 90
      499
 91
      510
 93
      532
310
4394DA1859195CC81BD98811DC985E5174090240C333333333333E33F0000000000000F901079024090741D01000000000000111010841D405064090740C02480A0340
1001
ACAD
1000
AcDbSavedByObjectVersion
1070
     0
  0
ACAD_PROXY_OBJECT
  5
1F383
102
{ACAD_REACTORS
330
19DE5
102
}
330
19DE5
100
AcDbZombieObject
 90
      499
 91
      510
 93
      476
310
41D4DAD95D18DA1E51840502408333333333333E33F0000000000000F901079024090741D01000000000000111010B41D405064090741802480A0340
1001
ACAD
1000
AcDbSavedByObjectVersion
1070
     0
  0
ACAD_PROXY_OBJECT
  5
19DF2
102
{ACAD_REACTORS
330
19DE5
102
}
330
19DE5
100
AcDbZombieObject
 90
      499
 91
      510
 93
      412
310
41D51A1A58DAD95B90D409028333333333333E3BF0000000000000FB010790141107004050150C41D405064090741402480A0350
1001
ACAD
1000
AcDbSavedByObjectVersion
1070
     0
  0
ACAD_PROXY_OBJECT
  5
1F380
102
{ACAD_REACTORS
330
19DE5
102
}
330
19DE5
100
AcDbZombieObject
 90
      499
 91
      510
 93
      420
310
4255DA5C99599C985B595059028333333333333E33F0000000000000F90107901411070040501600405405064090740C02480A0340
1001
ACAD
1000
AcDbSavedByObjectVersion
1070
     0
  0
ACAD_PROXY_OBJECT
  5
1F384
102
{ACAD_REACTORS
330
19DE5
102
}
330
19DE5
100
AcDbZombieObject
 90
      499
 91
      510
 93
      404
310
41560B54985E51940902404000000000000E03F0000000000000F9010740501907004050150841D405064090740C02480A1B40
1001
ACAD
1000
AcDbSavedByObjectVersion
1070
     0
  0
XRECORD
  5
220A6
102
{ACAD_REACTORS
330
220A5
102
}
330
220A5
100
AcDbXrecord
340
2D0
  0
XRECORD
  5
220A7
102
{ACAD_REACTORS
330
220A5
102
}
330
220A5
100
AcDbXrecord
340
2CF
  0
DICTIONARYVAR
  5
20A45
102
{ACAD_REACTORS
330
37
102
}
330
37
100
DictionaryVariables
280
     0
  1
1:1
  0
DICTIONARYVAR
  5
1AC19
102
{ACAD_REACTORS
330
37
102
}
330
37
100
DictionaryVariables
280
     0
  1
Standard
  0
DICTIONARYVAR
  5
4F1
102
{ACAD_REACTORS
330
37
102
}
330
37
100
DictionaryVariables
280
     0
  1
Standard
  0
DICTIONARYVAR
  5
38
102
{ACAD_REACTORS
330
37
102
}
330
37
100
DictionaryVariables
280
     0
  1
-1
  0
DICTIONARYVAR
  5
408
102
{ACAD_REACTORS
330
37
102
}
330
37
100
DictionaryVariables
280
     0
  1
2
  0
DICTIONARYVAR
  5
1891
102
{ACAD_REACTORS
330
37
102
}
330
37
100
DictionaryVariables
280
     0
  1
1
  0
DICTIONARYVAR
  5
1AC1C
102
{ACAD_REACTORS
330
37
102
}
330
37
100
DictionaryVariables
280
     0
  1
0
  0
DICTIONARYVAR
  5
1895
102
{ACAD_REACTORS
330
37
102
}
330
37
100
DictionaryVariables
280
     0
  1
8
  0
DICTIONARYVAR
  5
1894
102
{ACAD_REACTORS
330
37
102
}
330
37
100
DictionaryVariables
280
     0
  1
1
  0
DICTIONARYVAR
  5
20A9B
102
{ACAD_REACTORS
330
37
102
}
330
37
100
DictionaryVariables
280
     0
  1
0
  0
DICTIONARYVAR
  5
1892
102
{ACAD_REACTORS
330
37
102
}
330
37
100
DictionaryVariables
280
     0
  1
8
  0
DICTIONARYVAR
  5
1893
102
{ACAD_REACTORS
330
37
102
}
330
37
100
DictionaryVariables
280
     0
  1
2
  0
DICTIONARYVAR
  5
409
102
{ACAD_REACTORS
330
37
102
}
330
37
100
DictionaryVariables
280
     0
  1

  0
DICTIONARYVAR
  5
1AC1B
102
{ACAD_REACTORS
330
37
102
}
330
37
100
DictionaryVariables
280
     0
  1
127
  0
DICTIONARYVAR
  5
1F37F
102
{ACAD_REACTORS
330
37
102
}
330
37
100
DictionaryVariables
280
     0
  1
2
  0
DICTIONARY
  5
22243
330
19DD5
100
AcDbDictionary
  3
ACAD_XREC_ROUNDTRIP
360
22244
1001
ACAD
1000
TREAT_AS_HARD
1070
     1
  0
DICTIONARY
  5
22245
330
19DCD
100
AcDbDictionary
  3
ACAD_XREC_ROUNDTRIP
360
22246
1001
ACAD
1000
TREAT_AS_HARD
1070
     1
  0
DICTIONARY
  5
22247
330
19DDD
100
AcDbDictionary
  3
ACAD_XREC_ROUNDTRIP
360
22248
1001
ACAD
1000
TREAT_AS_HARD
1070
     1
  0
XRECORD
  5
22244
102
{ACAD_REACTORS
330
22243
102
}
330
22243
100
AcDbXrecord
102
MATERIAL
148
0.0
149
0.0
149
0.0
 93
        0
 94
      127
282
     0
 72
     0
 77
     0
171
     0
175
     0
179
     0
273
     0
  0
XRECORD
  5
22246
102
{ACAD_REACTORS
330
22245
102
}
330
22245
100
AcDbXrecord
102
MATERIAL
148
0.0
149
0.0
149
0.0
 93
        0
 94
      127
282
     0
 72
     0
 77
     0
171
     0
175
     0
179
     0
273
     0
  0
XRECORD
  5
22248
102
{ACAD_REACTORS
330
22247
102
}
330
22247
100
AcDbXrecord
102
MATERIAL
148
0.0
149
0.0
149
0.0
 93
        0
 94
      127
282
     0
 72
     0
 77
     0
171
     0
175
     0
179
     0
273
     0
  0
ENDSEC
  0
EOF
