  0
SECTION
  2
HEADER
  9
$ACADVER
  1
AC1012
  9
$DWGCODEPAGE
  3
ansi_932
  9
$INSBASE
 10
0.0
 20
0.0
 30
0.0
  9
$EXTMIN
 10
165.5162478893339
 20
-734.4213303512677
 30
0.0
  9
$EXTMAX
 10
795.516241615365
 20
-453.2202789373773
 30
0.0
  9
$LIMMIN
 10
0.0
 20
0.0
  9
$LIMMAX
 10
420.0
 20
297.0
  9
$ORTHOMODE
 70
     0
  9
$REGENMODE
 70
     1
  9
$FILLMODE
 70
     1
  9
$QTEXTMODE
 70
     0
  9
$MIRRTEXT
 70
     0
  9
$DRAGMODE
 70
     2
  9
$LTSCALE
 40
0.5
  9
$OSMODE
 70
  2175
  9
$ATTMODE
 70
     1
  9
$TEXTSIZE
 40
4.0
  9
$TRACEWID
 40
1.0
  9
$TEXTSTYLE
  7
STANDARD
  9
$CLAYER
  8
1TEXT
  9
$CELTYPE
  6
BYLAYER
  9
$CECOLOR
 62
   256
  9
$CELTSCALE
 40
1.0
  9
$DELOBJ
 70
     1
  9
$DISPSILH
 70
     0
  9
$DIMSCALE
 40
1.0
  9
$DIMASZ
 40
2.0
  9
$DIMEXO
 40
0.0
  9
$DIMDLI
 40
7.0
  9
$DIMRND
 40
0.0
  9
$DIMDLE
 40
0.0
  9
$DIMEXE
 40
1.0
  9
$DIMTP
 40
0.0
  9
$DIMTM
 40
0.0
  9
$DIMTXT
 40
3.5
  9
$DIMCEN
 40
0.0
  9
$DIMTSZ
 40
0.0
  9
$DIMTOL
 70
     0
  9
$DIMLIM
 70
     0
  9
$DIMTIH
 70
     0
  9
$DIMTOH
 70
     0
  9
$DIMSE1
 70
     0
  9
$DIMSE2
 70
     0
  9
$DIMTAD
 70
     1
  9
$DIMZIN
 70
     8
  9
$DIMBLK
  1

  9
$DIMASO
 70
     1
  9
$DIMSHO
 70
     1
  9
$DIMPOST
  1
 
  9
$DIMAPOST
  1

  9
$DIMALT
 70
     0
  9
$DIMALTD
 70
     2
  9
$DIMALTF
 40
25.4
  9
$DIMLFAC
 40
1.0
  9
$DIMTOFL
 70
     1
  9
$DIMTVP
 40
0.0
  9
$DIMTIX
 70
     0
  9
$DIMSOXD
 70
     0
  9
$DIMSAH
 70
     1
  9
$DIMBLK1
  1
OPEN30
  9
$DIMBLK2
  1
OPEN30
  9
$DIMSTYLE
  2
NEWX10
  9
$DIMCLRD
 70
   256
  9
$DIMCLRE
 70
   256
  9
$DIMCLRT
 70
   201
  9
$DIMTFAC
 40
0.7
  9
$DIMGAP
 40
0.7
  9
$DIMJUST
 70
     0
  9
$DIMSD1
 70
     0
  9
$DIMSD2
 70
     0
  9
$DIMTOLJ
 70
     1
  9
$DIMTZIN
 70
     8
  9
$DIMALTZ
 70
     0
  9
$DIMALTTZ
 70
     0
  9
$DIMFIT
 70
     2
  9
$DIMUPT
 70
     0
  9
$DIMUNIT
 70
     2
  9
$DIMDEC
 70
     2
  9
$DIMTDEC
 70
     4
  9
$DIMALTU
 70
     2
  9
$DIMALTTD
 70
     2
  9
$DIMTXSTY
  7
STANDARD
  9
$DIMAUNIT
 70
     0
  9
$LUNITS
 70
     2
  9
$LUPREC
 70
     4
  9
$SKETCHINC
 40
1.0
  9
$FILLETRAD
 40
0.0
  9
$AUNITS
 70
     0
  9
$AUPREC
 70
     2
  9
$MENU
  1
acad
  9
$ELEVATION
 40
0.0
  9
$PELEVATION
 40
0.0
  9
$THICKNESS
 40
0.0
  9
$LIMCHECK
 70
     0
  9
$CHAMFERA
 40
1.0
  9
$CHAMFERB
 40
1.0
  9
$CHAMFERC
 40
20.0
  9
$CHAMFERD
 40
0.0
  9
$SKPOLY
 70
     0
  9
$TDCREATE
 40
2453033.732663484
  9
$TDUPDATE
 40
2459305.729495683
  9
$TDINDWG
 40
2.5816516782
  9
$TDUSRTIMER
 40
2.5816516782
  9
$USRTIMER
 70
     1
  9
$ANGBASE
 50
0.0
  9
$ANGDIR
 70
     0
  9
$PDMODE
 70
     0
  9
$PDSIZE
 40
0.0
  9
$PLINEWID
 40
0.0
  9
$COORDS
 70
     2
  9
$SPLFRAME
 70
     0
  9
$SPLINETYPE
 70
     6
  9
$SPLINESEGS
 70
     8
  9
$ATTDIA
 70
     0
  9
$ATTREQ
 70
     1
  9
$HANDLING
 70
     1
  9
$HANDSEED
  5
21FFD
  9
$SURFTAB1
 70
     6
  9
$SURFTAB2
 70
     6
  9
$SURFTYPE
 70
     6
  9
$SURFU
 70
     6
  9
$SURFV
 70
     6
  9
$UCSNAME
  2

  9
$UCSORG
 10
0.0
 20
0.0
 30
0.0
  9
$UCSXDIR
 10
1.0
 20
0.0
 30
0.0
  9
$UCSYDIR
 10
0.0
 20
1.0
 30
0.0
  9
$PUCSNAME
  2

  9
$PUCSORG
 10
0.0
 20
0.0
 30
0.0
  9
$PUCSXDIR
 10
1.0
 20
0.0
 30
0.0
  9
$PUCSYDIR
 10
0.0
 20
1.0
 30
0.0
  9
$USERI1
 70
     0
  9
$USERI2
 70
     0
  9
$USERI3
 70
     0
  9
$USERI4
 70
     0
  9
$USERI5
 70
     0
  9
$USERR1
 40
0.0
  9
$USERR2
 40
0.0
  9
$USERR3
 40
0.0
  9
$USERR4
 40
0.0
  9
$USERR5
 40
0.0
  9
$WORLDVIEW
 70
     1
  9
$SHADEDGE
 70
     3
  9
$SHADEDIF
 70
    70
  9
$TILEMODE
 70
     1
  9
$MAXACTVP
 70
    48
  9
$PINSBASE
 10
0.0
 20
0.0
 30
0.0
  9
$PLIMCHECK
 70
     0
  9
$PEXTMIN
 10
1.000000000000000E+20
 20
1.000000000000000E+20
 30
1.000000000000000E+20
  9
$PEXTMAX
 10
-1.000000000000000E+20
 20
-1.000000000000000E+20
 30
-1.000000000000000E+20
  9
$PLIMMIN
 10
0.0
 20
0.0
  9
$PLIMMAX
 10
420.0
 20
297.0
  9
$UNITMODE
 70
     0
  9
$VISRETAIN
 70
     1
  9
$PLINEGEN
 70
     0
  9
$PSLTSCALE
 70
     1
  9
$TREEDEPTH
 70
  3020
  9
$PICKSTYLE
 70
     1
  9
$CMLSTYLE
  2
STANDARD
  9
$CMLJUST
 70
     0
  9
$CMLSCALE
 40
20.0
  9
$SAVEIMAGES
 70
     1
  0
ENDSEC
  0
SECTION
  2
CLASSES
  0
CLASS
  1
DICTIONARYVAR
  2
AcDbDictionaryVar
  3
ObjectDBX Classes
 90
        0
280
     0
281
     0
  0
CLASS
  1
IDBUFFER
  2
AcDbIdBuffer
  3
ObjectDBX Classes
 90
    32768
280
     0
281
     0
  0
CLASS
  1
LWPOLYLINE
  2
AcDbPolyline
  3
ObjectDBX Classes
 90
    32768
280
     0
281
     1
  0
CLASS
  1
ACDBDICTIONARYWDFLT
  2
AcDbDictionaryWithDefault
  3
ObjectDBX Classes
 90
    32768
280
     0
281
     0
  0
CLASS
  1
ACDBPLACEHOLDER
  2
AcDbPlaceHolder
  3
ObjectDBX Classes
 90
        0
280
     0
281
     0
  0
CLASS
  1
LAYOUT
  2
AcDbLayout
  3
ObjectDBX Classes
 90
        0
280
     0
281
     0
  0
CLASS
  1
TABLESTYLE
  2
AcDbTableStyle
  3
ObjectDBX Classes
 90
     4095
280
     0
281
     0
  0
CLASS
  1
SORTENTSTABLE
  2
AcDbSortentsTable
  3
ObjectDBX Classes
 90
    32768
280
     0
281
     0
  0
CLASS
  1
DIMASSOC
  2
AcDbDimAssoc
  3
"AcDbDimAssoc|Product Desc:     AcDim ARX App For Dimension|Company:          Autodesk, Inc.|WEB Address:      www.autodesk.com"
 90
        0
280
     0
281
     0
  0
CLASS
  1
MATERIAL
  2
AcDbMaterial
  3
ObjectDBX Classes
 90
     1153
280
     0
281
     0
  0
CLASS
  1
VISUALSTYLE
  2
AcDbVisualStyle
  3
ObjectDBX Classes
 90
     4095
280
     0
281
     0
  0
CLASS
  1
SCALE
  2
AcDbScale
  3
ObjectDBX Classes
 90
     1153
280
     0
281
     0
  0
CLASS
  1
MLEADERSTYLE
  2
AcDbMLeaderStyle
  3
ACDB_MLEADERSTYLE_CLASS
 90
     4095
280
     0
281
     0
  0
CLASS
  1
CELLSTYLEMAP
  2
AcDbCellStyleMap
  3
ObjectDBX Classes
 90
     1152
280
     0
281
     0
  0
CLASS
  1
EXACXREFPANELOBJECT
  2
ExAcXREFPanelObject
  3
EXAC_ESW
 90
     1025
280
     1
281
     0
  0
CLASS
  1
NPOCOLLECTION
  2
AcDbImpNonPersistentObjectsCollection
  3
ObjectDBX Classes
 90
     1153
280
     1
281
     0
  0
CLASS
  1
SUN
  2
AcDbSun
  3
SCENEOE
 90
     1153
280
     0
281
     0
  0
CLASS
  1
MULTILEADER
  2
AcDbMLeader
  3
ACDB_MLEADER_CLASS
 90
     1025
280
     0
281
     1
  0
CLASS
  1
ACDB_MLEADEROBJECTCONTEXTDATA_CLASS
  2
AcDbMLeaderObjectContextData
  3
ObjectDBX Classes
 90
     1153
280
     0
281
     0
  0
CLASS
  1
XRECORD
  2
AcDbXrecord
  3
ObjectDBX Classes
 90
    32768
280
     0
281
     0
  0
CLASS
  1
HATCH
  2
AcDbHatch
  3
ObjectDBX Classes
 90
    32768
280
     0
281
     1
  0
ENDSEC
  0
SECTION
  2
TABLES
  0
TABLE
  2
VPORT
  5
8
330
0
100
AcDbSymbolTable
 70
     1
  0
VPORT
  5
19DC2
330
8
100
AcDbSymbolTableRecord
100
AcDbViewportTableRecord
  2
*ACTIVE
 70
     0
 10
0.0
 20
0.0
 11
1.0
 21
1.0
 12
480.5162447523495
 22
-593.8208046443225
 13
0.0
 23
0.0
 14
10.0
 24
10.0
 15
10.0
 25
10.0
 16
0.0
 26
0.0
 36
1.0
 17
0.0
 27
0.0
 37
0.0
 40
366.7099928157316
 41
1.844566712517194
 42
50.0
 43
0.0
 44
0.0
 50
0.0
 51
0.0
 71
    16
 72
   100
 73
     1
 74
     1
 75
     0
 76
     0
 77
     0
 78
     0
  0
ENDTAB
  0
TABLE
  2
LTYPE
  5
5
330
0
100
AcDbSymbolTable
 70
     3
  0
LTYPE
  5
12
330
5
100
AcDbSymbolTableRecord
100
AcDbLinetypeTableRecord
  2
BYBLOCK
 70
     0
  3

 72
    65
 73
     0
 40
0.0
  0
LTYPE
  5
13
330
5
100
AcDbSymbolTableRecord
100
AcDbLinetypeTableRecord
  2
BYLAYER
 70
     0
  3

 72
    65
 73
     0
 40
0.0
  0
LTYPE
  5
14
330
5
100
AcDbSymbolTableRecord
100
AcDbLinetypeTableRecord
  2
CONTINUOUS
 70
     0
  3
Solid line
 72
    65
 73
     0
 40
0.0
  0
LTYPE
  5
26
330
5
100
AcDbSymbolTableRecord
100
AcDbLinetypeTableRecord
  2
CENTER2
 70
     0
  3
Center (.5x) ___ _ ___ _ ___ _ ___ _ ___ _ ___
 72
    65
 73
     4
 40
28.575
 49
19.05
 74
     0
 49
-3.175
 74
     0
 49
3.175
 74
     0
 49
-3.175
 74
     0
  0
LTYPE
  5
100
330
5
100
AcDbSymbolTableRecord
100
AcDbLinetypeTableRecord
  2
PHANTOM2
 70
     0
  3
Phantom (0.5x) ___ _ _ ___ _ _ ___ _ _ ___ _ _
 72
    65
 73
     6
 40
31.75
 49
15.875
 74
     0
 49
-3.175
 74
     0
 49
3.175
 74
     0
 49
-3.175
 74
     0
 49
3.175
 74
     0
 49
-3.175
 74
     0
  0
ENDTAB
  0
TABLE
  2
LAYER
  5
2
102
{ACAD_XDICTIONARY
360
18FE8
102
}
330
0
100
AcDbSymbolTable
 70
     8
  0
LAYER
  5
E
102
{ACAD_XDICTIONARY
360
1A20A
102
}
330
2
100
AcDbSymbolTableRecord
100
AcDbLayerTableRecord
  2
0
 70
     0
 62
     7
  6
CONTINUOUS
  0
LAYER
  5
29
102
{ACAD_XDICTIONARY
360
1A20C
102
}
330
2
100
AcDbSymbolTableRecord
100
AcDbLayerTableRecord
  2
1CENTER
 70
     0
 62
     7
  6
CENTER2
  0
LAYER
  5
31
102
{ACAD_XDICTIONARY
360
1A20E
102
}
330
2
100
AcDbSymbolTableRecord
100
AcDbLayerTableRecord
  2
1TEXT
 70
     0
 62
     7
  6
CONTINUOUS
  0
LAYER
  5
101
102
{ACAD_XDICTIONARY
360
1A218
102
}
330
2
100
AcDbSymbolTableRecord
100
AcDbLayerTableRecord
  2
1DIM
 70
     0
 62
     7
  6
CONTINUOUS
  0
LAYER
  5
103
102
{ACAD_XDICTIONARY
360
1A21C
102
}
330
2
100
AcDbSymbolTableRecord
100
AcDbLayerTableRecord
  2
1PHANTOM
 70
     0
 62
     7
  6
PHANTOM2
  0
LAYER
  5
25F
102
{ACAD_XDICTIONARY
360
1A220
102
}
330
2
100
AcDbSymbolTableRecord
100
AcDbLayerTableRecord
  2
01
 70
     0
 62
     1
  6
CONTINUOUS
  0
LAYER
  5
26A
102
{ACAD_XDICTIONARY
360
1A236
102
}
330
2
100
AcDbSymbolTableRecord
100
AcDbLayerTableRecord
  2
1DIM1
 70
     0
 62
     7
  6
CONTINUOUS
  0
LAYER
  5
26D
102
{ACAD_XDICTIONARY
360
1A23C
102
}
330
2
100
AcDbSymbolTableRecord
100
AcDbLayerTableRecord
  2
1HATCH
 70
     0
 62
     7
  6
CONTINUOUS
  0
ENDTAB
  0
TABLE
  2
STYLE
  5
3
330
0
100
AcDbSymbolTable
 70
     1
  0
STYLE
  5
F
330
3
100
AcDbSymbolTableRecord
100
AcDbTextStyleTableRecord
  2
STANDARD
 70
     0
 40
0.0
 41
1.0
 50
0.0
 71
     0
 42
4.0
  3
txt.shx
  4
extfont.shx
  0
ENDTAB
  0
TABLE
  2
VIEW
  5
6
330
0
100
AcDbSymbolTable
 70
     0
  0
ENDTAB
  0
TABLE
  2
UCS
  5
7
330
0
100
AcDbSymbolTable
 70
     0
  0
ENDTAB
  0
TABLE
  2
APPID
  5
9
330
0
100
AcDbSymbolTable
 70
    17
  0
APPID
  5
10
330
9
100
AcDbSymbolTableRecord
100
AcDbRegAppTableRecord
  2
ACAD
 70
     0
  0
APPID
  5
21
330
9
100
AcDbSymbolTableRecord
100
AcDbRegAppTableRecord
  2
DRAWINGVARIABLESXDATA
 70
     0
  0
APPID
  5
64
330
9
100
AcDbSymbolTableRecord
100
AcDbRegAppTableRecord
  2
CONTENTTABDATA
 70
     0
  0
APPID
  5
65
330
9
100
AcDbSymbolTableRecord
100
AcDbRegAppTableRecord
  2
CONTENTCURRENTTAB
 70
     0
  0
APPID
  5
66
330
9
100
AcDbSymbolTableRecord
100
AcDbRegAppTableRecord
  2
CONTENTBLOCKDESCRIPTION
 70
     0
  0
APPID
  5
67
330
9
100
AcDbSymbolTableRecord
100
AcDbRegAppTableRecord
  2
CONTENTBLOCKICON
 70
     0
  0
APPID
  5
68
330
9
100
AcDbSymbolTableRecord
100
AcDbRegAppTableRecord
  2
CONTENTLONGBLOCKNAME
 70
     0
  0
APPID
  5
5A9
330
9
100
AcDbSymbolTableRecord
100
AcDbRegAppTableRecord
  2
ACAD_PSEXT
 70
     0
  0
APPID
  5
18AC
330
9
100
AcDbSymbolTableRecord
100
AcDbRegAppTableRecord
  2
ACAD_DSTYLE_DIMTEXT_FILL
 70
     0
  0
APPID
  5
19E1A
330
9
100
AcDbSymbolTableRecord
100
AcDbRegAppTableRecord
  2
ACAD_MLEADERVER
 70
     0
  0
APPID
  5
1A2FA
330
9
100
AcDbSymbolTableRecord
100
AcDbRegAppTableRecord
  2
ACAD_DSTYLE_DIMRADIAL_EXTE
 70
     0
  0
APPID
  5
1DBC1
330
9
100
AcDbSymbolTableRecord
100
AcDbRegAppTableRecord
  2
ACADANNOTATIVE
 70
     0
  0
APPID
  5
1E991
330
9
100
AcDbSymbolTableRecord
100
AcDbRegAppTableRecord
  2
ACAD_EXEMPT_FROM_CAD_STAND
 70
     0
  0
APPID
  5
202C7
330
9
100
AcDbSymbolTableRecord
100
AcDbRegAppTableRecord
  2
ACDBBLOCKREPETAG
 70
     0
  0
APPID
  5
20AA7
330
9
100
AcDbSymbolTableRecord
100
AcDbRegAppTableRecord
  2
ACAD_OBJECT_CHANGE_GUID
 70
     0
  0
APPID
  5
20B26
330
9
100
AcDbSymbolTableRecord
100
AcDbRegAppTableRecord
  2
ACLAYERTOOLS
 70
     0
  0
APPID
  5
20B27
330
9
100
AcDbSymbolTableRecord
100
AcDbRegAppTableRecord
  2
ACAD_NAV_VCDISPLAY
 70
     0
  0
ENDTAB
  0
TABLE
  2
DIMSTYLE
  5
A
330
0
100
AcDbSymbolTable
 70
     1
  0
DIMSTYLE
105
48
330
A
100
AcDbSymbolTableRecord
100
AcDbDimStyleTableRecord
  2
NEWX10
 70
     0
  3
 
  4

  5

  6
OPEN30
  7
OPEN30
 40
1.0
 41
2.0
 42
0.0
 43
7.0
 44
1.0
 45
0.0
 46
0.0
 47
0.0
 48
0.0
140
3.5
141
0.0
142
0.0
143
25.4
144
1.0
145
0.0
146
0.7
147
0.7
 71
     0
 72
     0
 73
     0
 74
     0
 75
     0
 76
     0
 77
     1
 78
     8
170
     0
171
     2
172
     1
173
     1
174
     0
175
     0
176
   256
177
   256
178
   201
179
     2
270
     2
271
     2
272
     4
273
     2
274
     2
340
F
275
     0
280
     0
281
     0
282
     0
283
     1
284
     8
285
     0
286
     0
287
     2
288
     0
  0
ENDTAB
  0
TABLE
  2
BLOCK_RECORD
  5
1
330
0
100
AcDbSymbolTable
 70
     9
  0
BLOCK_RECORD
  5
18
102
{ACAD_XDICTIONARY
360
6E9
102
}
330
1
100
AcDbSymbolTableRecord
100
AcDbBlockTableRecord
  2
*MODEL_SPACE
  0
BLOCK_RECORD
  5
15
102
{ACAD_XDICTIONARY
360
59B
102
}
330
1
100
AcDbSymbolTableRecord
100
AcDbBlockTableRecord
  2
*PAPER_SPACE
  0
BLOCK_RECORD
  5
42
330
1
100
AcDbSymbolTableRecord
100
AcDbBlockTableRecord
  2
_OPEN30
  0
BLOCK_RECORD
  5
20316
330
1
100
AcDbSymbolTableRecord
100
AcDbBlockTableRecord
  2
A3WAKUKAWAJUN2017_HYOUDAI_
  0
BLOCK_RECORD
  5
20B2D
102
{ACAD_XDICTIONARY
360
20B2E
102
}
330
1
100
AcDbSymbolTableRecord
100
AcDbBlockTableRecord
  2
NOCIRCLE
1001
ACADANNOTATIVE
1000
AnnotativeData
1002
{
1070
     1
1070
     0
1002
}
  0
BLOCK_RECORD
  5
21E5D
330
1
100
AcDbSymbolTableRecord
100
AcDbBlockTableRecord
  2
*X68
  0
BLOCK_RECORD
  5
21EAB
330
1
100
AcDbSymbolTableRecord
100
AcDbBlockTableRecord
  2
*X69
  0
BLOCK_RECORD
  5
21EFD
330
1
100
AcDbSymbolTableRecord
100
AcDbBlockTableRecord
  2
*X70
  0
BLOCK_RECORD
  5
21F4E
330
1
100
AcDbSymbolTableRecord
100
AcDbBlockTableRecord
  2
*X71
  0
BLOCK_RECORD
  5
21F8B
330
1
100
AcDbSymbolTableRecord
100
AcDbBlockTableRecord
  2
*X72
  0
BLOCK_RECORD
  5
21FCB
330
1
100
AcDbSymbolTableRecord
100
AcDbBlockTableRecord
  2
*X73
  0
ENDTAB
  0
ENDSEC
  0
SECTION
  2
BLOCKS
  0
BLOCK
  5
19
330
18
100
AcDbEntity
  8
0
100
AcDbBlockBegin
  2
*MODEL_SPACE
 70
     0
 10
0.0
 20
0.0
 30
0.0
  3
*MODEL_SPACE
  1

  0
ENDBLK
  5
1A
330
18
100
AcDbEntity
  8
0
100
AcDbBlockEnd
  0
BLOCK
  5
16
330
15
100
AcDbEntity
 67
     1
  8
0
100
AcDbBlockBegin
  2
*PAPER_SPACE
 70
     0
 10
0.0
 20
0.0
 30
0.0
  3
*PAPER_SPACE
  1

  0
ENDBLK
  5
17
330
15
100
AcDbEntity
 67
     1
  8
0
100
AcDbBlockEnd
  0
BLOCK
  5
43
330
42
100
AcDbEntity
  8
0
100
AcDbBlockBegin
  2
_OPEN30
 70
     0
 10
0.0
 20
0.0
 30
0.0
  3
_OPEN30
  1

  0
LINE
  5
44
330
42
100
AcDbEntity
  8
0
  6
BYBLOCK
 62
     0
100
AcDbLine
 10
-1.0
 20
0.26794919
 30
0.0
 11
0.0
 21
0.0
 31
0.0
  0
LINE
  5
45
330
42
100
AcDbEntity
  8
0
  6
BYBLOCK
 62
     0
100
AcDbLine
 10
0.0
 20
0.0
 30
0.0
 11
-1.0
 21
-0.26794919
 31
0.0
  0
LINE
  5
46
330
42
100
AcDbEntity
  8
0
  6
BYBLOCK
 62
     0
100
AcDbLine
 10
0.0
 20
0.0
 30
0.0
 11
-1.0
 21
0.0
 31
0.0
  0
ENDBLK
  5
47
330
42
100
AcDbEntity
  8
0
100
AcDbBlockEnd
  0
BLOCK
  5
20A15
330
20316
100
AcDbEntity
  8
0
100
AcDbBlockBegin
  2
A3WAKUKAWAJUN2017_HYOUDAI_
 70
     0
 10
0.0
 20
0.0
 30
0.0
  3
A3WAKUKAWAJUN2017_HYOUDAI_
  1

  0
LINE
  5
20318
330
20316
100
AcDbEntity
  8
0
100
AcDbLine
 10
13.26299999998673
 20
-0.0001000000000317
 30
0.0
 11
9.236999999990758
 21
8.999899999990987
 31
0.0
1001
ACAD
1000
ASC_BOUNDS
1002
{
1070
    19
1005
20359
1002
}
  0
LINE
  5
20319
330
20316
100
AcDbEntity
  8
0
100
AcDbLine
 10
5.657999999994331
 20
0.9999999999989768
 30
0.0
 11
9.236999999990758
 21
8.999999999991019
 31
0.0
1001
ACAD
1000
ASC_BOUNDS
1002
{
1070
    19
1005
20359
1002
}
  0
LINE
  5
2031A
330
20316
100
AcDbEntity
  8
0
100
AcDbLine
 10
18.59199999998134
 20
-0.2368999999997641
 30
0.0
 11
16.46099999998353
 21
5.432899999994561
 31
0.0
1001
ACAD
1000
ASC_BOUNDS
1002
{
1070
    19
1005
2035A
1002
}
  0
LINE
  5
2031B
330
20316
100
AcDbEntity
  8
0
100
AcDbLine
 10
18.59199999998134
 20
-0.2368999999997641
 30
0.0
 11
22.38199999997767
 21
8.763099999991255
 31
0.0
1001
ACAD
1000
ASC_BOUNDS
1002
{
1070
    19
1005
2035A
1002
}
  0
LINE
  5
2031C
330
20316
100
AcDbEntity
  8
0
100
AcDbLine
 10
14.32899999998563
 20
-0.2368999999997641
 30
0.0
 11
16.46099999998353
 21
5.432899999994561
 31
0.0
1001
ACAD
1000
ASC_BOUNDS
1002
{
1070
    19
1005
2035A
1002
}
  0
LINE
  5
2031D
330
20316
100
AcDbEntity
  8
0
100
AcDbLine
 10
14.32899999998563
 20
-0.2368999999997641
 30
0.0
 11
10.53899999998941
 21
8.763099999991255
 31
0.0
1001
ACAD
1000
ASC_BOUNDS
1002
{
1070
    19
1005
2035A
1002
}
  0
LINE
  5
2031E
330
20316
100
AcDbEntity
  8
0
100
AcDbLine
 10
19.53899999998043
 20
-0.0001000000000317
 30
0.0
 11
23.56599999997638
 21
8.999899999990987
 31
0.0
1001
ACAD
1000
ASC_BOUNDS
1002
{
1070
    19
1005
2035B
1002
}
  0
LINE
  5
2031F
330
20316
100
AcDbEntity
  8
0
100
AcDbLine
 10
26.97358892824991
 20
1.383099999991202
 30
0.0
 11
23.56599999997638
 21
8.999899999990987
 31
0.0
1001
ACAD
1000
ASC_BOUNDS
1002
{
1070
    19
1005
2035B
1002
}
  0
LINE
  5
20320
330
20316
100
AcDbEntity
  8
0
100
AcDbLine
 10
5.657999999994331
 20
0.9999999999989768
 30
0.0
 11
3.181999999996833
 21
4.668599999995308
 31
0.0
1001
ACAD
1000
ASC_BOUNDS
1002
{
1070
    19
1005
20359
1002
}
  0
LINE
  5
20321
330
20316
100
AcDbEntity
  8
0
100
AcDbLine
 10
4.617999999995391
 20
-0.0001000000000317
 30
0.0
 11
1.420999999998571
 21
4.736799999995242
 31
0.0
1001
ACAD
1000
ASC_BOUNDS
1002
{
1070
    19
1005
20359
1002
}
  0
LINE
  5
20322
330
20316
100
AcDbEntity
  8
0
100
AcDbLine
 10
1.420999999998571
 20
8.763099999991255
 30
0.0
 11
1.420999999998571
 21
0.0
 31
0.0
1001
ACAD
1000
ASC_BOUNDS
1002
{
1070
    19
1005
2035E
1002
}
  0
LINE
  5
20323
330
20316
100
AcDbEntity
  8
0
100
AcDbLine
 10
0.0
 20
8.763099999991255
 30
0.0
 11
0.0
 21
0.0
 31
0.0
1001
ACAD
1000
ASC_BOUNDS
1002
{
1070
    19
1005
2035E
1002
}
  0
LINE
  5
20324
330
20316
100
AcDbEntity
  8
0
100
AcDbLine
 10
6.766999999993232
 20
-0.0001000000000317
 30
0.0
 11
7.826999999992154
 21
2.368399999997621
 31
0.0
1001
ACAD
1000
ASC_BOUNDS
1002
{
1070
    19
1005
20359
1002
}
  0
LINE
  5
20325
330
20316
100
AcDbEntity
  8
0
100
AcDbLine
 10
0.0
 20
0.0
 30
0.0
 11
1.420999999998571
 21
0.0
 31
0.0
1001
ACAD
1000
ASC_BOUNDS
1002
{
1070
    19
1005
2035E
1002
}
  0
LINE
  5
20326
330
20316
100
AcDbEntity
  8
0
100
AcDbLine
 10
4.617999999995391
 20
0.0
 30
0.0
 11
6.766999999993232
 21
0.0
 31
0.0
1001
ACAD
1000
ASC_BOUNDS
1002
{
1070
    19
1005
20359
1002
}
  0
LINE
  5
20327
330
20316
100
AcDbEntity
  8
0
100
AcDbLine
 10
11.70599999998831
 20
-0.0001000000000317
 30
0.0
 11
10.64699999998936
 21
2.368399999997621
 31
0.0
1001
ACAD
1000
ASC_BOUNDS
1002
{
1070
    19
1005
20359
1002
}
  0
LINE
  5
20328
330
20316
100
AcDbEntity
  8
0
100
AcDbLine
 10
7.826999999992154
 20
2.368399999997621
 30
0.0
 11
10.64699999998936
 21
2.368399999997621
 31
0.0
1001
ACAD
1000
ASC_BOUNDS
1002
{
1070
    19
1005
20359
1002
}
  0
LINE
  5
20329
330
20316
100
AcDbEntity
  8
0
100
AcDbLine
 10
11.70599999998831
 20
0.0
 30
0.0
 11
13.26299999998673
 21
0.0
 31
0.0
1001
ACAD
1000
ASC_BOUNDS
1002
{
1070
    19
1005
20359
1002
}
  0
LINE
  5
2032A
330
20316
100
AcDbEntity
  8
0
100
AcDbLine
 10
22.15599999997789
 20
2.368399999997621
 30
0.0
 11
24.97599999997499
 21
2.368399999997621
 31
0.0
1001
ACAD
1000
ASC_BOUNDS
1002
{
1070
    19
1005
2035B
1002
}
  0
LINE
  5
2032B
330
20316
100
AcDbEntity
  8
0
100
AcDbLine
 10
19.53899999998043
 20
0.0
 30
0.0
 11
21.09599999997886
 21
0.0
 31
0.0
1001
ACAD
1000
ASC_BOUNDS
1002
{
1070
    19
1005
2035B
1002
}
  0
LINE
  5
2032C
330
20316
100
AcDbEntity
  8
0
100
AcDbLine
 10
21.09599999997886
 20
-0.0001000000000317
 30
0.0
 11
22.15599999997789
 21
2.368399999997621
 31
0.0
1001
ACAD
1000
ASC_BOUNDS
1002
{
1070
    19
1005
2035B
1002
}
  0
LINE
  5
2032D
330
20316
100
AcDbEntity
  8
0
100
AcDbLine
 10
26.02015566812236
 20
0.0330999999912365
 30
0.0
 11
24.97599999997499
 21
2.368399999997621
 31
0.0
1001
ACAD
1000
ASC_BOUNDS
1002
{
1070
    19
1005
2035B
1002
}
  0
LINE
  5
2032E
330
20316
100
AcDbEntity
  8
0
100
AcDbLine
 10
14.32399999998563
 20
3.315799999996671
 30
0.0
 11
16.46099999998353
 21
8.999899999990987
 31
0.0
1001
ACAD
1000
ASC_BOUNDS
1002
{
1070
    19
1005
2035A
1002
}
  0
LINE
  5
2032F
330
20316
100
AcDbEntity
  8
0
100
AcDbLine
 10
6.432999999993513
 20
8.763099999991255
 30
0.0
 11
3.181999999996833
 21
4.668599999995308
 31
0.0
1001
ACAD
1000
ASC_BOUNDS
1002
{
1070
    19
1005
20359
1002
}
  0
LINE
  5
20330
330
20316
100
AcDbEntity
  8
0
100
AcDbLine
 10
4.617999999995391
 20
8.763099999991255
 30
0.0
 11
1.420999999998571
 21
4.736799999995242
 31
0.0
1001
ACAD
1000
ASC_BOUNDS
1002
{
1070
    19
1005
20359
1002
}
  0
LINE
  5
20331
330
20316
100
AcDbEntity
  8
0
100
AcDbLine
 10
0.0
 20
8.763099999991255
 30
0.0
 11
1.420999999998571
 21
8.763099999991255
 31
0.0
1001
ACAD
1000
ASC_BOUNDS
1002
{
1070
    19
1005
2035E
1002
}
  0
LINE
  5
20332
330
20316
100
AcDbEntity
  8
0
100
AcDbLine
 10
4.617999999995391
 20
8.763099999991255
 30
0.0
 11
6.432999999993513
 21
8.763099999991255
 31
0.0
1001
ACAD
1000
ASC_BOUNDS
1002
{
1070
    19
1005
20359
1002
}
  0
LINE
  5
20333
330
20316
100
AcDbEntity
  8
0
100
AcDbLine
 10
14.32399999998563
 20
3.315799999996671
 30
0.0
 11
12.02999999998792
 21
8.763099999991255
 31
0.0
1001
ACAD
1000
ASC_BOUNDS
1002
{
1070
    19
1005
2035A
1002
}
  0
LINE
  5
20334
330
20316
100
AcDbEntity
  8
0
100
AcDbLine
 10
10.06399999998996
 20
3.670999999996297
 30
0.0
 11
9.236999999990758
 21
5.5200999999945
 31
0.0
1001
ACAD
1000
ASC_BOUNDS
1002
{
1070
    19
1005
20359
1002
}
  0
LINE
  5
20335
330
20316
100
AcDbEntity
  8
0
100
AcDbLine
 10
8.409999999991555
 20
3.670999999996297
 30
0.0
 11
9.236999999990758
 21
5.5200999999945
 31
0.0
1001
ACAD
1000
ASC_BOUNDS
1002
{
1070
    19
1005
20359
1002
}
  0
LINE
  5
20336
330
20316
100
AcDbEntity
  8
0
100
AcDbLine
 10
8.409999999991555
 20
3.670999999996297
 30
0.0
 11
10.06399999998996
 21
3.670999999996297
 31
0.0
1001
ACAD
1000
ASC_BOUNDS
1002
{
1070
    19
1005
20359
1002
}
  0
LINE
  5
20337
330
20316
100
AcDbEntity
  8
0
100
AcDbLine
 10
10.53899999998941
 20
8.763099999991255
 30
0.0
 11
12.02999999998792
 21
8.763099999991255
 31
0.0
1001
ACAD
1000
ASC_BOUNDS
1002
{
1070
    19
1005
2035A
1002
}
  0
LINE
  5
20338
330
20316
100
AcDbEntity
  8
0
100
AcDbLine
 10
22.7389999999773
 20
3.670999999996297
 30
0.0
 11
23.56599999997638
 21
5.5200999999945
 31
0.0
1001
ACAD
1000
ASC_BOUNDS
1002
{
1070
    19
1005
2035B
1002
}
  0
LINE
  5
20339
330
20316
100
AcDbEntity
  8
0
100
AcDbLine
 10
22.7389999999773
 20
3.670999999996297
 30
0.0
 11
24.39299999997559
 21
3.670999999996297
 31
0.0
1001
ACAD
1000
ASC_BOUNDS
1002
{
1070
    19
1005
2035B
1002
}
  0
LINE
  5
2033A
330
20316
100
AcDbEntity
  8
0
100
AcDbLine
 10
18.59799999998143
 20
3.315799999996671
 30
0.0
 11
20.89099999997916
 21
8.763099999991255
 31
0.0
1001
ACAD
1000
ASC_BOUNDS
1002
{
1070
    19
1005
2035A
1002
}
  0
LINE
  5
2033B
330
20316
100
AcDbEntity
  8
0
100
AcDbLine
 10
18.59799999998143
 20
3.315799999996671
 30
0.0
 11
16.46099999998353
 21
8.999899999990987
 31
0.0
1001
ACAD
1000
ASC_BOUNDS
1002
{
1070
    19
1005
2035A
1002
}
  0
LINE
  5
2033C
330
20316
100
AcDbEntity
  8
0
100
AcDbLine
 10
20.89099999997916
 20
8.763099999991255
 30
0.0
 11
22.38199999997767
 21
8.763099999991255
 31
0.0
1001
ACAD
1000
ASC_BOUNDS
1002
{
1070
    19
1005
2035A
1002
}
  0
LINE
  5
2033D
330
20316
100
AcDbEntity
  8
0
100
AcDbLine
 10
24.39299999997559
 20
3.670999999996297
 30
0.0
 11
23.56599999997638
 21
5.5200999999945
 31
0.0
1001
ACAD
1000
ASC_BOUNDS
1002
{
1070
    19
1005
2035B
1002
}
  0
LINE
  5
2033E
330
20316
100
AcDbEntity
  8
0
100
AcDbLine
 10
44.99999999995498
 20
-0.2368999999997641
 30
0.0
 11
40.02599999995994
 21
5.341799999994635
 31
0.0
1001
ACAD
1000
ASC_BOUNDS
1002
{
1070
    19
1005
2035D
1002
}
  0
LINE
  5
2033F
330
20316
100
AcDbEntity
  8
0
100
AcDbLine
 10
40.02599999995994
 20
5.341799999994635
 30
0.0
 11
40.02599999995994
 21
0.0
 31
0.0
1001
ACAD
1000
ASC_BOUNDS
1002
{
1070
    19
1005
2035D
1002
}
  0
LINE
  5
20340
330
20316
100
AcDbEntity
  8
0
100
AcDbLine
 10
38.60499999996136
 20
8.999999999991019
 30
0.0
 11
38.60499999996136
 21
0.0
 31
0.0
1001
ACAD
1000
ASC_BOUNDS
1002
{
1070
    19
1005
2035D
1002
}
  0
LINE
  5
20341
330
20316
100
AcDbEntity
  8
0
100
AcDbLine
 10
44.99999999995498
 20
8.763099999991255
 30
0.0
 11
44.99999999995498
 21
-0.2368999999997641
 31
0.0
1001
ACAD
1000
ASC_BOUNDS
1002
{
1070
    19
1005
2035D
1002
}
  0
LINE
  5
20342
330
20316
100
AcDbEntity
  8
0
100
AcDbLine
 10
38.60499999996136
 20
0.0
 30
0.0
 11
40.02599999995994
 21
0.0
 31
0.0
1001
ACAD
1000
ASC_BOUNDS
1002
{
1070
    19
1005
2035D
1002
}
  0
LINE
  5
20343
330
20316
100
AcDbEntity
  8
0
100
AcDbLine
 10
43.57899999995641
 20
3.421199999996588
 30
0.0
 11
38.60499999996136
 21
8.999899999990987
 31
0.0
1001
ACAD
1000
ASC_BOUNDS
1002
{
1070
    19
1005
2035D
1002
}
  0
LINE
  5
20344
330
20316
100
AcDbEntity
  8
0
100
AcDbLine
 10
43.57899999995641
 20
8.763099999991255
 30
0.0
 11
43.57899999995641
 21
3.421199999996588
 31
0.0
1001
ACAD
1000
ASC_BOUNDS
1002
{
1070
    19
1005
2035D
1002
}
  0
LINE
  5
20345
330
20316
100
AcDbEntity
  8
0
100
AcDbLine
 10
43.57899999995641
 20
8.763099999991255
 30
0.0
 11
44.99999999995498
 21
8.763099999991255
 31
0.0
1001
ACAD
1000
ASC_BOUNDS
1002
{
1070
    19
1005
2035D
1002
}
  0
LINE
  5
20346
330
20316
100
AcDbEntity
  8
0
100
AcDbLine
 10
37.67199999996831
 20
8.763099999991255
 30
0.0
 11
36.23199999996837
 21
8.763099999991255
 31
0.0
  0
LINE
  5
20347
330
20316
100
AcDbEntity
  8
0
100
AcDbLine
 10
31.64199999996833
 20
8.763099999991255
 30
0.0
 11
31.64199999996833
 21
2.481619422925121
 31
0.0
  0
LINE
  5
20348
330
20316
100
AcDbEntity
  8
0
100
AcDbLine
 10
37.67199999996831
 20
8.763099999991255
 30
0.0
 11
37.67199999996831
 21
2.481619422925121
 31
0.0
  0
LINE
  5
20349
330
20316
100
AcDbEntity
  8
0
100
AcDbLine
 10
36.23199999996837
 20
8.763099999991255
 30
0.0
 11
36.23199999996837
 21
2.481619422925064
 31
0.0
  0
LINE
  5
2034A
330
20316
100
AcDbEntity
  8
0
100
AcDbLine
 10
33.08199999996839
 20
8.763099999991255
 30
0.0
 11
33.08199999996839
 21
2.481619422925121
 31
0.0
  0
ARC
  5
2034B
330
20316
100
AcDbEntity
  8
0
100
AcDbCircle
 10
34.65699999996832
 20
3.183099999991214
 30
0.0
 40
3.420000000000007
100
AcDbArc
 50
240.0000000000255
 51
299.9999999999766
  0
ARC
  5
2034C
330
20316
100
AcDbEntity
  8
0
100
AcDbCircle
 10
34.65699999996832
 20
3.183099999991214
 30
0.0
 40
1.97999999999999
100
AcDbArc
 50
240.000000000026
 51
299.9999999999703
  0
LINE
  5
2034D
330
20316
100
AcDbEntity
  8
0
100
AcDbLine
 10
33.08199999996828
 20
8.763099999991255
 30
0.0
 11
31.64199999996833
 21
8.763099999991255
 31
0.0
  0
ARC
  5
2034E
330
20316
100
AcDbEntity
  8
0
100
AcDbCircle
 10
35.06199999996829
 20
2.481619422925064
 30
0.0
 40
1.17
100
AcDbArc
 50
299.9999999999699
 51
0.0
  0
ARC
  5
2034F
330
20316
100
AcDbEntity
  8
0
100
AcDbCircle
 10
34.25199999996835
 20
2.481619422925121
 30
0.0
 40
1.17
100
AcDbArc
 50
180.0
 51
240.0000000000238
  0
ARC
  5
20350
330
20316
100
AcDbEntity
  8
0
100
AcDbCircle
 10
35.06199999996841
 20
2.481619422925121
 30
0.0
 40
2.61
100
AcDbArc
 50
299.9999999999756
 51
0.0
  0
ARC
  5
20351
330
20316
100
AcDbEntity
  8
0
100
AcDbCircle
 10
34.25199999996835
 20
2.481619422925121
 30
0.0
 40
2.61
100
AcDbArc
 50
180.0
 51
240.0000000000244
  0
LINE
  5
20352
330
20316
100
AcDbEntity
  8
0
100
AcDbLine
 10
29.30199999996933
 20
8.763099999991255
 30
0.0
 11
30.74199999996927
 21
8.763099999991255
 31
0.0
1001
ACAD
1000
ASC_BOUNDS
1002
{
1070
    19
1005
2035B
1002
}
  0
LINE
  5
20353
330
20316
100
AcDbEntity
  8
0
100
AcDbLine
 10
30.74199999996927
 20
8.763099999991255
 30
0.0
 11
30.74199999996927
 21
2.373099999991211
 31
0.0
1001
ACAD
1000
ASC_BOUNDS
1002
{
1070
    19
1005
2035B
1002
}
  0
LINE
  5
20354
330
20316
100
AcDbEntity
  8
0
100
AcDbLine
 10
26.02015566812236
 20
0.0330999999912365
 30
0.0
 11
28.40199999996923
 21
0.0330999999912365
 31
0.0
1001
ACAD
1000
ASC_BOUNDS
1002
{
1070
    19
1005
2035B
1002
}
  0
LINE
  5
20355
330
20316
100
AcDbEntity
  8
0
100
AcDbLine
 10
29.30199999996933
 20
8.763099999991255
 30
0.0
 11
29.30199999996933
 21
2.283099999991236
 31
0.0
1001
ACAD
1000
ASC_BOUNDS
1002
{
1070
    19
1005
2035B
1002
}
  0
LINE
  5
20356
330
20316
100
AcDbEntity
  8
0
100
AcDbLine
 10
26.97358892824991
 20
1.383099999991202
 30
0.0
 11
28.40199999996923
 21
1.383099999991202
 31
0.0
1001
ACAD
1000
ASC_BOUNDS
1002
{
1070
    19
1005
2035B
1002
}
  0
ARC
  5
20357
330
20316
100
AcDbEntity
  8
0
100
AcDbCircle
 10
28.40199999996923
 20
2.283099999991236
 30
0.0
 40
0.9
100
AcDbArc
 50
270.0
 51
0.0
1001
ACAD
1000
ASC_BOUNDS
1002
{
1070
    19
1005
2035B
1002
}
  0
ARC
  5
20358
330
20316
100
AcDbEntity
  8
0
100
AcDbCircle
 10
28.40199999996923
 20
2.373099999991211
 30
0.0
 40
2.34
100
AcDbArc
 50
270.0
 51
0.0
1001
ACAD
1000
ASC_BOUNDS
1002
{
1070
    19
1005
2035B
1002
}
  0
INSERT
  5
20359
330
20316
100
AcDbEntity
  8
0
100
AcDbBlockReference
  2
*X68
 10
0.0
 20
0.0
 30
0.0
1001
ACAD
1000
HATCH
1002
{
1070
    19
1000
ANSI37
1040
0.15
1040
0.0
1000
ASC_BOUNDS
1070
     2
1070
     2
1070
    12
1005
20318
1005
20319
1005
20320
1005
2032F
1005
20332
1005
20330
1005
20321
1005
20326
1005
20324
1005
20328
1005
20327
1005
20329
1070
     2
1070
     3
1005
20334
1005
20336
1005
20335
1000
ASC_SEEDPOINT
1011
3.614004224891801
1021
2.996669441146025
1031
0.0
1000
R14_HATCH_DATA
1000
20359
1011
1.0
1021
0.0
1031
0.0
1011
0.0
1021
1.0
1031
0.0
1011
0.0
1021
0.0
1031
1.0
1040
0.0
1010
0.0
1020
0.0
1030
1.0
1000
ANSI37
1070
     0
1070
     1
1071
        2
1071
        7
1070
     0
1070
     1
1071
       17
1040
13.26299999998673
1040
-0.0001000000000317
1040
9.236999999990758
1040
8.999899999990987
1040
9.236999999990758
1040
8.999999999991019
1040
5.657999999994331
1040
0.9999999999989768
1040
3.181999999996833
1040
4.668599999995308
1040
6.432999999993513
1040
8.763099999991255
1040
4.617999999995391
1040
8.763099999991255
1040
1.420999999998571
1040
4.736799999995242
1040
4.617999999995391
1040
-0.0001000000000317
1040
4.617999999995391
1040
0.0
1040
6.766999999993232
1040
0.0
1040
6.766999999993232
1040
-0.0001000000000317
1040
7.826999999992154
1040
2.368399999997621
1040
10.64699999998936
1040
2.368399999997621
1040
11.70599999998831
1040
-0.0001000000000317
1040
11.70599999998831
1040
0.0
1040
13.26299999998673
1040
0.0
1071
       12
1005
20318
1005
20319
1005
20320
1005
2032F
1005
20332
1005
20330
1005
20321
1005
20326
1005
20324
1005
20328
1005
20327
1005
20329
1071
       22
1070
     0
1070
     1
1071
        3
1040
9.236999999990758
1040
5.5200999999945
1040
10.06399999998996
1040
3.670999999996297
1040
8.409999999991555
1040
3.670999999996297
1071
        3
1005
20334
1005
20336
1005
20335
1070
     0
1070
     1
1040
0.0
1040
0.15
1070
     0
1070
     2
1040
0.7853981633974483
1040
49.29960901727088
1040
-10.17736998311392
1040
-0.3367596045400932
1040
0.3367596045400932
1070
     0
1040
2.356194490192345
1040
49.29960901727088
1040
-10.17736998311392
1040
-0.3367596045400932
1040
-0.3367596045400932
1070
     0
1040
0.0110235143455945
1071
        2
1040
3.614004224891801
1040
2.996669441146025
1040
0.0
1040
3.614004224891801
1040
2.996669441146025
1040
0.0
1002
}
  0
INSERT
  5
2035A
330
20316
100
AcDbEntity
  8
0
100
AcDbBlockReference
  2
*X69
 10
0.0
 20
0.0
 30
0.0
1001
ACAD
1000
HATCH
1002
{
1070
    19
1000
ANSI37
1040
0.15
1040
0.0
1000
ASC_BOUNDS
1070
     1
1070
     2
1070
    10
1005
2031A
1005
2031B
1005
2033C
1005
2033A
1005
2033B
1005
2032E
1005
20333
1005
20337
1005
2031D
1005
2031C
1000
ASC_SEEDPOINT
1011
14.73245321214324
1021
2.798246178283421
1031
0.0
1000
R14_HATCH_DATA
1000
2035A
1011
1.0
1021
0.0
1031
0.0
1011
0.0
1021
1.0
1031
0.0
1011
0.0
1021
0.0
1031
1.0
1040
0.0
1010
0.0
1020
0.0
1030
1.0
1000
ANSI37
1070
     0
1070
     1
1071
        1
1071
        7
1070
     0
1070
     1
1071
       10
1040
16.46099999998353
1040
5.432899999994561
1040
18.59199999998134
1040
-0.2368999999997641
1040
22.38199999997767
1040
8.763099999991255
1040
20.89099999997916
1040
8.763099999991255
1040
18.59799999998143
1040
3.315799999996671
1040
16.46099999998353
1040
8.999899999990987
1040
14.32399999998563
1040
3.315799999996671
1040
12.02999999998792
1040
8.763099999991255
1040
10.53899999998941
1040
8.763099999991255
1040
14.32899999998563
1040
-0.2368999999997641
1071
       10
1005
2031A
1005
2031B
1005
2033C
1005
2033A
1005
2033B
1005
2032E
1005
20333
1005
20337
1005
2031D
1005
2031C
1070
     0
1070
     1
1040
0.0
1040
0.15
1070
     0
1070
     2
1040
0.7853981633974483
1040
49.29960901727088
1040
-10.17736998311392
1040
-0.3367596045400932
1040
0.3367596045400932
1070
     0
1040
2.356194490192345
1040
49.29960901727088
1040
-10.17736998311392
1040
-0.3367596045400932
1040
-0.3367596045400932
1070
     0
1040
0.0110235143455945
1071
        1
1040
14.73245321214324
1040
2.798246178283421
1040
0.0
1002
}
  0
INSERT
  5
2035B
330
20316
100
AcDbEntity
  8
0
100
AcDbBlockReference
  2
*X70
 10
0.0
 20
0.0
 30
0.0
1001
ACAD
1000
HATCH
1002
{
1070
    19
1000
ANSI37
1040
0.15
1040
0.0
1000
ASC_BOUNDS
1070
     2
1070
     2
1070
    13
1005
2031E
1005
2032B
1005
2032C
1005
2032A
1005
2032D
1005
20354
1005
20358
1005
20353
1005
20352
1005
20355
1005
20357
1005
20356
1005
2031F
1070
     2
1070
     3
1005
20338
1005
2033D
1005
20339
1000
ASC_SEEDPOINT
1011
21.97929957367762
1021
3.294304244259308
1031
0.0
1000
R14_HATCH_DATA
1000
2035B
1011
1.0
1021
0.0
1031
0.0
1011
0.0
1021
1.0
1031
0.0
1011
0.0
1021
0.0
1031
1.0
1040
0.0
1010
0.0
1020
0.0
1030
1.0
1000
ANSI37
1070
     0
1070
     1
1071
        2
1071
        7
1070
     1
1070
     1
1071
       15
1040
23.56599999997638
1040
8.999899999990987
1040
0.0
1040
19.53899999998043
1040
-0.0001000000000317
1040
0.0
1040
19.53899999998043
1040
0.0
1040
0.0
1040
21.09599999997886
1040
0.0
1040
0.0
1040
21.09599999997886
1040
-0.0001000000000317
1040
0.0
1040
22.15599999997789
1040
2.368399999997621
1040
0.0
1040
24.97599999997499
1040
2.368399999997621
1040
0.0
1040
26.02015566812236
1040
0.0330999999912365
1040
0.0
1040
28.40199999996923
1040
0.0330999999912365
1040
0.414213562373095
1040
30.74199999996923
1040
2.373099999991211
1040
0.0
1040
30.74199999996927
1040
8.763099999991255
1040
0.0
1040
29.30199999996933
1040
8.763099999991255
1040
0.0
1040
29.30199999996933
1040
2.283099999991236
1040
-0.414213562373095
1040
28.40199999996923
1040
1.383099999991237
1040
0.0
1040
26.97358892824991
1040
1.383099999991202
1040
0.0
1071
       13
1005
2031E
1005
2032B
1005
2032C
1005
2032A
1005
2032D
1005
20354
1005
20358
1005
20353
1005
20352
1005
20355
1005
20357
1005
20356
1005
2031F
1071
       22
1070
     0
1070
     1
1071
        3
1040
22.7389999999773
1040
3.670999999996297
1040
23.56599999997638
1040
5.5200999999945
1040
24.39299999997559
1040
3.670999999996297
1071
        3
1005
20338
1005
2033D
1005
20339
1070
     0
1070
     1
1040
0.0
1040
0.15
1070
     0
1070
     2
1040
0.7853981633974483
1040
49.29960901727088
1040
-10.17736998311392
1040
-0.3367596045400932
1040
0.3367596045400932
1070
     0
1040
2.356194490192345
1040
49.29960901727088
1040
-10.17736998311392
1040
-0.3367596045400932
1040
-0.3367596045400932
1070
     0
1040
0.0110235143455945
1071
        2
1040
21.97929957367762
1040
3.294304244259308
1040
0.0
1040
21.97929957367762
1040
3.294304244259308
1040
0.0
1002
}
  0
INSERT
  5
2035C
330
20316
100
AcDbEntity
  8
0
100
AcDbBlockReference
  2
*X71
 10
0.0
 20
0.0
 30
0.0
1001
ACAD
1000
HATCH
1002
{
1070
    19
1000
ANSI37
1040
0.15
1040
0.0
1000
R14_HATCH_DATA
1000
2035C
1011
1.0
1021
0.0
1031
0.0
1011
0.0
1021
1.0
1031
0.0
1011
0.0
1021
0.0
1031
1.0
1040
0.0
1010
0.0
1020
0.0
1030
1.0
1000
ANSI37
1070
     0
1070
     1
1071
        1
1071
        7
1070
     1
1070
     1
1071
       12
1040
31.64199999996833
1040
2.481619422925121
1040
0.2679491924310942
1040
32.94699999997067
1040
0.2212931190493919
1040
0.2679491924301353
1040
36.36699999995983
1040
0.2212931190459813
1040
0.2679491924321411
1040
37.67199999996831
1040
2.481619422928361
1040
0.0
1040
37.67199999996831
1040
8.763099999991255
1040
0.0
1040
36.23199999996837
1040
8.763099999991255
1040
0.0
1040
36.23199999996837
1040
2.481619422925064
1040
-0.2679491924310291
1040
35.64699999996708
1040
1.468369700498386
1040
-0.267949192430519
1040
33.66699999997093
1040
1.468369700497703
1040
-0.267949192431809
1040
33.08199999996839
1040
2.481619422926997
1040
0.0
1040
33.08199999996839
1040
8.763099999991255
1040
0.0
1040
31.64199999996833
1040
8.763099999991255
1040
0.0
1071
        0
1070
     0
1070
     1
1040
0.0
1040
0.15
1070
     0
1070
     2
1040
0.7853981633974483
1040
49.29960901727088
1040
-10.17736998311392
1040
-0.3367596045400932
1040
0.3367596045400932
1070
     0
1040
2.356194490192345
1040
49.29960901727088
1040
-10.17736998311392
1040
-0.3367596045400932
1040
-0.3367596045400932
1070
     0
1040
0.0110235143455945
1071
        1
1040
32.30357378967278
1040
3.988785755459219
1040
0.0
1002
}
  0
INSERT
  5
2035D
330
20316
100
AcDbEntity
  8
0
100
AcDbBlockReference
  2
*X72
 10
0.0
 20
0.0
 30
0.0
1001
ACAD
1000
HATCH
1002
{
1070
    19
1000
ANSI37
1040
0.15
1040
0.0
1000
ASC_BOUNDS
1070
     1
1070
     2
1070
     8
1005
2033E
1005
20341
1005
20345
1005
20344
1005
20343
1005
20340
1005
20342
1005
2033F
1000
ASC_SEEDPOINT
1011
39.74896370716704
1021
4.484843821435049
1031
0.0
1000
R14_HATCH_DATA
1000
2035D
1011
1.0
1021
0.0
1031
0.0
1011
0.0
1021
1.0
1031
0.0
1011
0.0
1021
0.0
1031
1.0
1040
0.0
1010
0.0
1020
0.0
1030
1.0
1000
ANSI37
1070
     0
1070
     1
1071
        1
1071
        7
1070
     0
1070
     1
1071
        9
1040
40.02599999995994
1040
5.341799999994635
1040
44.99999999995498
1040
-0.2368999999997641
1040
44.99999999995498
1040
8.763099999991255
1040
43.57899999995641
1040
8.763099999991255
1040
43.57899999995641
1040
3.421199999996588
1040
38.60499999996136
1040
8.999899999990987
1040
38.60499999996136
1040
8.999999999991019
1040
38.60499999996136
1040
0.0
1040
40.02599999995994
1040
0.0
1071
        8
1005
2033E
1005
20341
1005
20345
1005
20344
1005
20343
1005
20340
1005
20342
1005
2033F
1070
     0
1070
     1
1040
0.0
1040
0.15
1070
     0
1070
     2
1040
0.7853981633974483
1040
49.29960901727088
1040
-10.17736998311392
1040
-0.3367596045400932
1040
0.3367596045400932
1070
     0
1040
2.356194490192345
1040
49.29960901727088
1040
-10.17736998311392
1040
-0.3367596045400932
1040
-0.3367596045400932
1070
     0
1040
0.0110235143455945
1071
        1
1040
39.74896370716704
1040
4.484843821435049
1040
0.0
1002
}
  0
INSERT
  5
2035E
330
20316
100
AcDbEntity
  8
0
100
AcDbBlockReference
  2
*X73
 10
0.0
 20
0.0
 30
0.0
1001
ACAD
1000
HATCH
1002
{
1070
    19
1000
ANSI37
1040
0.15
1040
0.0
1000
ASC_BOUNDS
1070
     1
1070
     2
1070
     4
1005
20322
1005
20331
1005
20323
1005
20325
1000
ASC_SEEDPOINT
1011
1.079051535452663
1021
4.148538732891836
1031
0.0
1000
R14_HATCH_DATA
1000
2035E
1011
1.0
1021
0.0
1031
0.0
1011
0.0
1021
1.0
1031
0.0
1011
0.0
1021
0.0
1031
1.0
1040
0.0
1010
0.0
1020
0.0
1030
1.0
1000
ANSI37
1070
     0
1070
     1
1071
        1
1071
        7
1070
     0
1070
     1
1071
        4
1040
1.420999999998571
1040
0.0
1040
1.420999999998571
1040
8.763099999991255
1040
0.0
1040
8.763099999991255
1040
0.0
1040
0.0
1071
        4
1005
20322
1005
20331
1005
20323
1005
20325
1070
     0
1070
     1
1040
0.0
1040
0.15
1070
     0
1070
     2
1040
0.7853981633974483
1040
49.29960901727088
1040
-10.17736998311392
1040
-0.3367596045400932
1040
0.3367596045400932
1070
     0
1040
2.356194490192345
1040
49.29960901727088
1040
-10.17736998311392
1040
-0.3367596045400932
1040
-0.3367596045400932
1070
     0
1040
0.0053004257112761
1071
        1
1040
1.079051535452663
1040
4.148538732891836
1040
0.0
1002
}
  0
ENDBLK
  5
20A16
330
20316
100
AcDbEntity
  8
0
100
AcDbBlockEnd
  0
BLOCK
  5
20D6A
330
20B2D
100
AcDbEntity
  8
0
100
AcDbBlockBegin
  2
NOCIRCLE
 70
     2
 10
0.0
 20
0.0
 30
0.0
  3
NOCIRCLE
  1

  0
CIRCLE
  5
20B31
330
20B2D
100
AcDbEntity
  8
0
  6
BYBLOCK
 62
     0
100
AcDbCircle
 10
0.0
 20
0.0
 30
0.0
 40
4.2
  0
ATTDEF
  5
20B32
330
20B2D
100
AcDbEntity
  8
1TEXT
100
AcDbText
 10
-1.904761904761876
 20
-2.0
 30
0.0
 40
4.0
  1
0
 72
     4
 11
0.0
 21
0.0
 31
0.0
100
AcDbAttributeDefinition
  3
NO.
  2
NO
 70
     0
  0
ENDBLK
  5
20D6B
330
20B2D
100
AcDbEntity
  8
0
100
AcDbBlockEnd
  0
BLOCK
  5
21FEB
330
21E5D
100
AcDbEntity
  8
0
100
AcDbBlockBegin
  2
*X68
 70
     1
 10
0.0
 20
0.0
 30
0.0
  3
*X68
  1

  0
LINE
  5
21E5E
330
21E5D
100
AcDbEntity
  8
0
  6
CONTINUOUS
100
AcDbLine
 10
3.418023043697893
 20
7.251849696850613
 30
0.0
 11
4.929273346838536
 21
8.763099999991255
 31
0.0
  0
LINE
  5
21E5F
330
21E5D
100
AcDbEntity
  8
0
  6
CONTINUOUS
100
AcDbLine
 10
1.483656411257782
 20
4.643963855330318
 30
0.0
 11
5.60279255591872
 21
8.763099999991255
 31
0.0
  0
LINE
  5
21E60
330
21E5D
100
AcDbEntity
  8
0
  6
CONTINUOUS
100
AcDbLine
 10
1.755053947328235
 20
4.241842182320584
 30
0.0
 11
6.276311764998907
 21
8.763099999991255
 31
0.0
  0
LINE
  5
21E61
330
21E5D
100
AcDbEntity
  8
0
  6
CONTINUOUS
100
AcDbLine
 10
2.026451483398688
 20
3.839720509310849
 30
0.0
 11
4.441040904851878
 21
6.254309930764039
 31
0.0
  0
LINE
  5
21E62
330
21E5D
100
AcDbEntity
  8
0
  6
CONTINUOUS
100
AcDbLine
 10
2.297849019469139
 20
3.437598836301114
 30
0.0
 11
3.321765168359338
 21
4.461514985191313
 31
0.0
  0
LINE
  5
21E63
330
21E5D
100
AcDbEntity
  8
0
  6
CONTINUOUS
100
AcDbLine
 10
2.569246555539591
 20
3.03547716329138
 30
0.0
 11
3.593163397972743
 21
4.059394005724531
 31
0.0
  0
LINE
  5
21E64
330
21E5D
100
AcDbEntity
  8
0
  6
CONTINUOUS
100
AcDbLine
 10
2.840644091610043
 20
2.633355490281646
 30
0.0
 11
3.864561627586149
 21
3.657273026257751
 31
0.0
  0
LINE
  5
21E65
330
21E5D
100
AcDbEntity
  8
0
  6
CONTINUOUS
100
AcDbLine
 10
3.112041627680496
 20
2.231233817271911
 30
0.0
 11
4.135959857199554
 21
3.25515204679097
 31
0.0
  0
LINE
  5
21E66
330
21E5D
100
AcDbEntity
  8
0
  6
CONTINUOUS
100
AcDbLine
 10
3.383439163750948
 20
1.829112144262177
 30
0.0
 11
4.40735808681296
 21
2.853031067324189
 31
0.0
  0
LINE
  5
21E67
330
21E5D
100
AcDbEntity
  8
0
  6
CONTINUOUS
100
AcDbLine
 10
3.654836699821399
 20
1.426990471252442
 30
0.0
 11
4.678756316426365
 21
2.450910087857407
 31
0.0
  0
LINE
  5
21E68
330
21E5D
100
AcDbEntity
  8
0
  6
CONTINUOUS
100
AcDbLine
 10
3.926234235891853
 20
1.024868798242709
 30
0.0
 11
4.95015454603977
 21
2.048789108390626
 31
0.0
  0
LINE
  5
21E69
330
21E5D
100
AcDbEntity
  8
0
  6
CONTINUOUS
100
AcDbLine
 10
4.197631771962304
 20
0.6227471252329737
 30
0.0
 11
5.221552775653176
 21
1.646668128923846
 31
0.0
  0
LINE
  5
21E6A
330
21E5D
100
AcDbEntity
  8
0
  6
CONTINUOUS
100
AcDbLine
 10
8.715877546767851
 20
7.835069736359266
 30
0.0
 11
9.435953450375058
 21
8.555145639966472
 31
0.0
  0
LINE
  5
21E6B
330
21E5D
100
AcDbEntity
  8
0
  6
CONTINUOUS
100
AcDbLine
 10
8.170620868422267
 20
6.616293848933497
 30
0.0
 11
9.644120833743461
 21
8.08979381425469
 31
0.0
  0
LINE
  5
21E6C
330
21E5D
100
AcDbEntity
  8
0
  6
CONTINUOUS
100
AcDbLine
 10
7.625364190076684
 20
5.397517961507727
 30
0.0
 11
9.852288217111864
 21
7.624441988542907
 31
0.0
  0
LINE
  5
21E6D
330
21E5D
100
AcDbEntity
  8
0
  6
CONTINUOUS
100
AcDbLine
 10
7.080107511731101
 20
4.178742074081957
 30
0.0
 11
10.06045560048027
 21
7.159090162831124
 31
0.0
  0
LINE
  5
21E6E
330
21E5D
100
AcDbEntity
  8
0
  6
CONTINUOUS
100
AcDbLine
 10
6.534850833385518
 20
2.959966186656187
 30
0.0
 11
10.26862298384867
 21
6.693738337119342
 31
0.0
  0
LINE
  5
21E6F
330
21E5D
100
AcDbEntity
  8
0
  6
CONTINUOUS
100
AcDbLine
 10
4.469029308032756
 20
0.2206254522232385
 30
0.0
 11
5.492951005266582
 21
1.244547149457064
 31
0.0
  0
LINE
  5
21E70
330
21E5D
100
AcDbEntity
  8
0
  6
CONTINUOUS
100
AcDbLine
 10
5.989594155039935
 20
1.741190299230417
 30
0.0
 11
8.806950407233131
 21
4.558546551423613
 31
0.0
  0
LINE
  5
21E71
330
21E5D
100
AcDbEntity
  8
0
  6
CONTINUOUS
100
AcDbLine
 10
9.401251593263643
 20
5.152847737454126
 30
0.0
 11
10.47679036721708
 21
6.228386511407559
 31
0.0
  0
LINE
  5
21E72
330
21E5D
100
AcDbEntity
  8
0
  6
CONTINUOUS
100
AcDbLine
 10
4.921837203428691
 20
-0.0000858614610131
 30
0.0
 11
8.592923064886001
 21
3.670999999996297
 31
0.0
  0
LINE
  5
21E73
330
21E5D
100
AcDbEntity
  8
0
  6
CONTINUOUS
100
AcDbLine
 10
9.609390446785305
 20
4.6874673818956
 30
0.0
 11
10.68495775058548
 21
5.763034685695775
 31
0.0
  0
LINE
  5
21E74
330
21E5D
100
AcDbEntity
  8
0
  6
CONTINUOUS
100
AcDbLine
 10
5.595387755019432
 20
-0.0000545189504582
 30
0.0
 11
7.716137258923768
 21
2.120694984953879
 31
0.0
  0
LINE
  5
21E75
330
21E5D
100
AcDbEntity
  8
0
  6
CONTINUOUS
100
AcDbLine
 10
6.268938306610172
 20
-0.000023176439905
 30
0.0
 11
7.170485805526503
 21
0.9015243224764267
 31
0.0
  0
LINE
  5
21E76
330
21E5D
100
AcDbEntity
  8
0
  6
CONTINUOUS
100
AcDbLine
 10
7.963842273967511
 20
2.368399999997621
 30
0.0
 11
9.266442273966188
 21
3.670999999996297
 31
0.0
  0
LINE
  5
21E77
330
21E5D
100
AcDbEntity
  8
0
  6
CONTINUOUS
100
AcDbLine
 10
8.637361483047696
 20
2.368399999997621
 30
0.0
 11
9.939961483046375
 21
3.670999999996297
 31
0.0
  0
LINE
  5
21E78
330
21E5D
100
AcDbEntity
  8
0
  6
CONTINUOUS
100
AcDbLine
 10
9.817529300306965
 20
4.222087026337075
 30
0.0
 11
10.89312513395388
 21
5.297682859983993
 31
0.0
  0
LINE
  5
21E79
330
21E5D
100
AcDbEntity
  8
0
  6
CONTINUOUS
100
AcDbLine
 10
10.02566815382863
 20
3.756706670778549
 30
0.0
 11
11.10129251732229
 21
4.832331034272211
 31
0.0
  0
LINE
  5
21E7A
330
21E5D
100
AcDbEntity
  8
0
  6
CONTINUOUS
100
AcDbLine
 10
9.310880692127883
 20
2.368399999997621
 30
0.0
 11
11.30945990069069
 21
4.366979208560428
 31
0.0
  0
LINE
  5
21E7B
330
21E5D
100
AcDbEntity
  8
0
  6
CONTINUOUS
100
AcDbLine
 10
9.98439990120807
 20
2.36839999999762
 30
0.0
 11
11.5176272840591
 21
3.901627382848645
 31
0.0
  0
LINE
  5
21E7C
330
21E5D
100
AcDbEntity
  8
0
  6
CONTINUOUS
100
AcDbLine
 10
10.65037369446246
 20
2.36085458417182
 30
0.0
 11
11.7257946674275
 21
3.436275557136862
 31
0.0
  0
LINE
  5
21E7D
330
21E5D
100
AcDbEntity
  8
0
  6
CONTINUOUS
100
AcDbLine
 10
10.85847197087848
 20
1.895433651507656
 30
0.0
 11
11.9339620507959
 21
2.97092373142508
 31
0.0
  0
LINE
  5
21E7E
330
21E5D
100
AcDbEntity
  8
0
  6
CONTINUOUS
100
AcDbLine
 10
11.0665702472945
 20
1.430012718843491
 30
0.0
 11
12.14212943416431
 21
2.505571905713296
 31
0.0
  0
LINE
  5
21E7F
330
21E5D
100
AcDbEntity
  8
0
  6
CONTINUOUS
100
AcDbLine
 10
11.27466852371052
 20
0.9645917861793256
 30
0.0
 11
12.35029681753271
 21
2.040220080001513
 31
0.0
  0
LINE
  5
21E80
330
21E5D
100
AcDbEntity
  8
0
  6
CONTINUOUS
100
AcDbLine
 10
11.48276680012654
 20
0.4991708535151611
 30
0.0
 11
12.55846420090111
 21
1.57486825428973
 31
0.0
  0
LINE
  5
21E81
330
21E5D
100
AcDbEntity
  8
0
  6
CONTINUOUS
100
AcDbLine
 10
11.69086507654257
 20
0.0337499208509957
 30
0.0
 11
12.76663158426952
 21
1.109516428577947
 31
0.0
  0
LINE
  5
21E82
330
21E5D
100
AcDbEntity
  8
0
  6
CONTINUOUS
100
AcDbLine
 10
12.33057447873954
 20
-0.0000598860322123
 30
0.0
 11
12.97479896763792
 21
0.6441646028661663
 31
0.0
  0
LINE
  5
21E83
330
21E5D
100
AcDbEntity
  8
0
  6
CONTINUOUS
100
AcDbLine
 10
13.00413694809395
 20
-0.0000166257579952
 30
0.0
 11
13.18296635100632
 21
0.1788127771543824
 31
0.0
  0
LINE
  5
21E84
330
21E5D
100
AcDbEntity
  8
0
  6
CONTINUOUS
100
AcDbLine
 10
4.772852165289667
 20
-0.000092794222212
 30
0.0
 11
4.296495091028902
 21
0.4762642800385528
 31
0.0
  0
LINE
  5
21E85
330
21E5D
100
AcDbEntity
  8
0
  6
CONTINUOUS
100
AcDbLine
 10
5.446340034776103
 20
-0.0000614546284616
 30
0.0
 11
2.898195908335625
 21
2.548082671812017
 31
0.0
  0
LINE
  5
21E86
330
21E5D
100
AcDbEntity
  8
0
  6
CONTINUOUS
100
AcDbLine
 10
6.119827904262539
 20
-0.0000301150347113
 30
0.0
 11
1.499896725642348
 21
4.61990106358548
 31
0.0
  0
LINE
  5
21E87
330
21E5D
100
AcDbEntity
  8
0
  6
CONTINUOUS
100
AcDbLine
 10
6.775136745476159
 20
0.0181802528318542
 30
0.0
 11
5.699826040202669
 21
1.093490958105344
 31
0.0
  0
LINE
  5
21E88
330
21E5D
100
AcDbEntity
  8
0
  6
CONTINUOUS
100
AcDbLine
 10
6.983376846288489
 20
0.4834593610997118
 30
0.0
 11
5.908008617934405
 21
1.558827589453796
 31
0.0
  0
LINE
  5
21E89
330
21E5D
100
AcDbEntity
  8
0
  6
CONTINUOUS
100
AcDbLine
 10
5.377063484962296
 20
1.416253513345719
 30
0.0
 11
1.702276957014131
 21
5.091040041293883
 31
0.0
  0
LINE
  5
21E8A
330
21E5D
100
AcDbEntity
  8
0
  6
CONTINUOUS
100
AcDbLine
 10
3.978745891735324
 20
3.488090315652877
 30
0.0
 11
2.000373521109399
 21
5.466462686278803
 31
0.0
  0
LINE
  5
21E8B
330
21E5D
100
AcDbEntity
  8
0
  6
CONTINUOUS
100
AcDbLine
 10
7.191616947100819
 20
0.948738469367568
 30
0.0
 11
6.11619119566614
 21
2.024164220802247
 31
0.0
  0
LINE
  5
21E8C
330
21E5D
100
AcDbEntity
  8
0
  6
CONTINUOUS
100
AcDbLine
 10
7.399857047913149
 20
1.414017577635424
 30
0.0
 11
6.324373773397875
 21
2.489500852150698
 31
0.0
  0
LINE
  5
21E8D
330
21E5D
100
AcDbEntity
  8
0
  6
CONTINUOUS
100
AcDbLine
 10
7.608097148725479
 20
1.879296685903281
 30
0.0
 11
6.53255635112961
 21
2.95483748349915
 31
0.0
  0
LINE
  5
21E8E
330
21E5D
100
AcDbEntity
  8
0
  6
CONTINUOUS
100
AcDbLine
 10
7.816337249537808
 20
2.344575794171138
 30
0.0
 11
6.740738928861345
 21
3.420174114847601
 31
0.0
  0
LINE
  5
21E8F
330
21E5D
100
AcDbEntity
  8
0
  6
CONTINUOUS
100
AcDbLine
 10
3.310241080789734
 20
4.830114335678653
 30
0.0
 11
2.298470085204666
 21
5.84188533126372
 31
0.0
  0
LINE
  5
21E90
330
21E5D
100
AcDbEntity
  8
0
  6
CONTINUOUS
100
AcDbLine
 10
3.60832983563551
 20
5.205544789913063
 30
0.0
 11
2.596566649299935
 21
6.217307976248638
 31
0.0
  0
LINE
  5
21E91
330
21E5D
100
AcDbEntity
  8
0
  6
CONTINUOUS
100
AcDbLine
 10
3.906418590481286
 20
5.580975244147473
 30
0.0
 11
2.894663213395203
 21
6.592730621233557
 31
0.0
  0
LINE
  5
21E92
330
21E5D
100
AcDbEntity
  8
0
  6
CONTINUOUS
100
AcDbLine
 10
4.204507345327062
 20
5.956405698381884
 30
0.0
 11
3.192759777490472
 21
6.968153266218474
 31
0.0
  0
LINE
  5
21E93
330
21E5D
100
AcDbEntity
  8
0
  6
CONTINUOUS
100
AcDbLine
 10
8.466032252791512
 20
2.368399999997621
 30
0.0
 11
6.948921506593081
 21
3.885510746196053
 31
0.0
  0
LINE
  5
21E94
330
21E5D
100
AcDbEntity
  8
0
  6
CONTINUOUS
100
AcDbLine
 10
9.139551461871699
 20
2.36839999999762
 30
0.0
 11
7.157104084324816
 21
4.350847377544504
 31
0.0
  0
LINE
  5
21E95
330
21E5D
100
AcDbEntity
  8
0
  6
CONTINUOUS
100
AcDbLine
 10
4.502596100172839
 20
6.331836152616295
 30
0.0
 11
3.49085634158574
 21
7.343575911203393
 31
0.0
  0
LINE
  5
21E96
330
21E5D
100
AcDbEntity
  8
0
  6
CONTINUOUS
100
AcDbLine
 10
4.800684855018615
 20
6.707266606850705
 30
0.0
 11
3.788952905681008
 21
7.718998556188312
 31
0.0
  0
LINE
  5
21E97
330
21E5D
100
AcDbEntity
  8
0
  6
CONTINUOUS
100
AcDbLine
 10
12.18154012887317
 20
-0.0000694579236642
 30
0.0
 11
11.32140332908496
 21
0.8600673418645499
 31
0.0
  0
LINE
  5
21E98
330
21E5D
100
AcDbEntity
  8
0
  6
CONTINUOUS
100
AcDbLine
 10
12.85501608323566
 20
-0.0000262032059659
 30
0.0
 11
10.77672456435345
 21
2.078265315676246
 31
0.0
  0
LINE
  5
21E99
330
21E5D
100
AcDbEntity
  8
0
  6
CONTINUOUS
100
AcDbLine
 10
9.813070670951886
 20
2.36839999999762
 30
0.0
 11
8.51047067095321
 21
3.670999999996297
 31
0.0
  0
LINE
  5
21E9A
330
21E5D
100
AcDbEntity
  8
0
  6
CONTINUOUS
100
AcDbLine
 10
10.48658988003207
 20
2.36839999999762
 30
0.0
 11
9.183989880033396
 21
3.670999999996297
 31
0.0
  0
LINE
  5
21E9B
330
21E5D
100
AcDbEntity
  8
0
  6
CONTINUOUS
100
AcDbLine
 10
8.441048632286794
 20
3.740422038662712
 30
0.0
 11
7.365286662056551
 21
4.816184008892956
 31
0.0
  0
LINE
  5
21E9C
330
21E5D
100
AcDbEntity
  8
0
  6
CONTINUOUS
100
AcDbLine
 10
8.649187485808454
 20
4.205802394221237
 30
0.0
 11
7.573469239788285
 21
5.281520640241407
 31
0.0
  0
LINE
  5
21E9D
330
21E5D
100
AcDbEntity
  8
0
  6
CONTINUOUS
100
AcDbLine
 10
5.098773609864391
 20
7.082697061085115
 30
0.0
 11
4.087049469776277
 21
8.09442120117323
 31
0.0
  0
LINE
  5
21E9E
330
21E5D
100
AcDbEntity
  8
0
  6
CONTINUOUS
100
AcDbLine
 10
5.396862364710167
 20
7.458127515319526
 30
0.0
 11
4.385146033871544
 21
8.469843846158149
 31
0.0
  0
LINE
  5
21E9F
330
21E5D
100
AcDbEntity
  8
0
  6
CONTINUOUS
100
AcDbLine
 10
13.04801363231285
 20
0.4804954567970334
 30
0.0
 11
9.85750908911358
 21
3.670999999996297
 31
0.0
  0
LINE
  5
21EA0
330
21E5D
100
AcDbEntity
  8
0
  6
CONTINUOUS
100
AcDbLine
 10
8.857326339330116
 20
4.671182749779763
 30
0.0
 11
7.781651817520021
 21
5.746857271589858
 31
0.0
  0
LINE
  5
21EA1
330
21E5D
100
AcDbEntity
  8
0
  6
CONTINUOUS
100
AcDbLine
 10
5.694951119555943
 20
7.833557969553937
 30
0.0
 11
4.765409089118624
 21
8.763099999991255
 31
0.0
  0
LINE
  5
21EA2
330
21E5D
100
AcDbEntity
  8
0
  6
CONTINUOUS
100
AcDbLine
 10
12.50286117236978
 20
1.699167125820288
 30
0.0
 11
9.68611877250287
 21
4.515909525687196
 31
0.0
  0
LINE
  5
21EA3
330
21E5D
100
AcDbEntity
  8
0
  6
CONTINUOUS
100
AcDbLine
 10
9.065465192851777
 20
5.136563105338288
 30
0.0
 11
7.989834395251757
 21
6.21219390293831
 31
0.0
  0
LINE
  5
21EA4
330
21E5D
100
AcDbEntity
  8
0
  6
CONTINUOUS
100
AcDbLine
 10
5.993039874401719
 20
8.208988423788346
 30
0.0
 11
5.43892829819881
 21
8.763099999991255
 31
0.0
  0
LINE
  5
21EA5
330
21E5D
100
AcDbEntity
  8
0
  6
CONTINUOUS
100
AcDbLine
 10
11.95770871242671
 20
2.917838794843543
 30
0.0
 11
8.19801697298349
 21
6.677530534286761
 31
0.0
  0
LINE
  5
21EA6
330
21E5D
100
AcDbEntity
  8
0
  6
CONTINUOUS
100
AcDbLine
 10
6.291128629247495
 20
8.584418878022756
 30
0.0
 11
6.112447507278997
 21
8.763099999991255
 31
0.0
  0
LINE
  5
21EA7
330
21E5D
100
AcDbEntity
  8
0
  6
CONTINUOUS
100
AcDbLine
 10
11.41255625248364
 20
4.136510463866797
 30
0.0
 11
8.406199550715227
 21
7.142867165635211
 31
0.0
  0
LINE
  5
21EA8
330
21E5D
100
AcDbEntity
  8
0
  6
CONTINUOUS
100
AcDbLine
 10
10.86740379254057
 20
5.355182132890051
 30
0.0
 11
8.614382128446962
 21
7.608203796983664
 31
0.0
  0
LINE
  5
21EA9
330
21E5D
100
AcDbEntity
  8
0
  6
CONTINUOUS
100
AcDbLine
 10
10.3222513325975
 20
6.573853801913305
 30
0.0
 11
8.822564706178696
 21
8.073540428332114
 31
0.0
  0
LINE
  5
21EAA
330
21E5D
100
AcDbEntity
  8
0
  6
CONTINUOUS
100
AcDbLine
 10
9.777098872654436
 20
7.792525470936562
 30
0.0
 11
9.030747283910433
 21
8.538877059680566
 31
0.0
  0
ENDBLK
  5
21FEC
330
21E5D
100
AcDbEntity
  8
0
100
AcDbBlockEnd
  0
BLOCK
  5
21FED
330
21EAB
100
AcDbEntity
  8
0
100
AcDbBlockBegin
  2
*X69
 70
     1
 10
0.0
 20
0.0
 30
0.0
  3
*X69
  1

  0
LINE
  5
21EAC
330
21EAB
100
AcDbEntity
  8
0
  6
CONTINUOUS
100
AcDbLine
 10
10.67292308101235
 20
8.445076852443387
 30
0.0
 11
10.99094622856022
 21
8.763099999991255
 31
0.0
  0
LINE
  5
21EAD
330
21EAB
100
AcDbEntity
  8
0
  6
CONTINUOUS
100
AcDbLine
 10
10.87250383178748
 20
7.971138394138331
 30
0.0
 11
11.6644654376404
 21
8.763099999991255
 31
0.0
  0
LINE
  5
21EAE
330
21EAB
100
AcDbEntity
  8
0
  6
CONTINUOUS
100
AcDbLine
 10
11.07208458256261
 20
7.497199935833273
 30
0.0
 11
12.12126590876355
 21
8.546381262034211
 31
0.0
  0
LINE
  5
21EAF
330
21EAB
100
AcDbEntity
  8
0
  6
CONTINUOUS
100
AcDbLine
 10
11.27166533333774
 20
7.023261477528216
 30
0.0
 11
12.32085164573666
 21
8.072447789927136
 31
0.0
  0
LINE
  5
21EB0
330
21EAB
100
AcDbEntity
  8
0
  6
CONTINUOUS
100
AcDbLine
 10
11.47124608411287
 20
6.549323019223158
 30
0.0
 11
12.52043738270977
 21
7.59851431782006
 31
0.0
  0
LINE
  5
21EB1
330
21EAB
100
AcDbEntity
  8
0
  6
CONTINUOUS
100
AcDbLine
 10
11.670826834888
 20
6.075384560918101
 30
0.0
 11
12.72002311968288
 21
7.124580845712984
 31
0.0
  0
LINE
  5
21EB2
330
21EAB
100
AcDbEntity
  8
0
  6
CONTINUOUS
100
AcDbLine
 10
11.87040758566313
 20
5.601446102613043
 30
0.0
 11
12.91960885665599
 21
6.650647373605907
 31
0.0
  0
LINE
  5
21EB3
330
21EAB
100
AcDbEntity
  8
0
  6
CONTINUOUS
100
AcDbLine
 10
12.06998833643825
 20
5.127507644307986
 30
0.0
 11
13.1191945936291
 21
6.176713901498832
 31
0.0
  0
LINE
  5
21EB4
330
21EAB
100
AcDbEntity
  8
0
  6
CONTINUOUS
100
AcDbLine
 10
12.26956908721338
 20
4.65356918600293
 30
0.0
 11
13.31878033060221
 21
5.702780429391757
 31
0.0
  0
LINE
  5
21EB5
330
21EAB
100
AcDbEntity
  8
0
  6
CONTINUOUS
100
AcDbLine
 10
12.46914983798851
 20
4.179630727697873
 30
0.0
 11
13.51836606757532
 21
5.228846957284683
 31
0.0
  0
LINE
  5
21EB6
330
21EAB
100
AcDbEntity
  8
0
  6
CONTINUOUS
100
AcDbLine
 10
12.66873058876364
 20
3.705692269392816
 30
0.0
 11
13.71795180454843
 21
4.754913485177607
 31
0.0
  0
LINE
  5
21EB7
330
21EAB
100
AcDbEntity
  8
0
  6
CONTINUOUS
100
AcDbLine
 10
12.86831133953877
 20
3.231753811087759
 30
0.0
 11
13.91753754152154
 21
4.280980013070531
 31
0.0
  0
LINE
  5
21EB8
330
21EAB
100
AcDbEntity
  8
0
  6
CONTINUOUS
100
AcDbLine
 10
13.0678920903139
 20
2.757815352782702
 30
0.0
 11
14.11712327849465
 21
3.807046540963456
 31
0.0
  0
LINE
  5
21EB9
330
21EAB
100
AcDbEntity
  8
0
  6
CONTINUOUS
100
AcDbLine
 10
13.26747284108903
 20
2.283876894477644
 30
0.0
 11
14.31670901546777
 21
3.333113068856379
 31
0.0
  0
LINE
  5
21EBA
330
21EAB
100
AcDbEntity
  8
0
  6
CONTINUOUS
100
AcDbLine
 10
16.36767838827179
 20
8.751678487061342
 30
0.0
 11
16.50332410898388
 21
8.887324207773432
 31
0.0
  0
LINE
  5
21EBB
330
21EAB
100
AcDbEntity
  8
0
  6
CONTINUOUS
100
AcDbLine
 10
15.96190732182191
 20
7.67238821153127
 30
0.0
 11
16.68735328004734
 21
8.397834169756699
 31
0.0
  0
LINE
  5
21EBC
330
21EAB
100
AcDbEntity
  8
0
  6
CONTINUOUS
100
AcDbLine
 10
15.55613625537202
 20
6.593097936001196
 30
0.0
 11
16.87138245111079
 21
7.908344131739965
 31
0.0
  0
LINE
  5
21EBD
330
21EAB
100
AcDbEntity
  8
0
  6
CONTINUOUS
100
AcDbLine
 10
15.15036518892213
 20
5.513807660471122
 30
0.0
 11
17.05541162217424
 21
7.418854093723231
 31
0.0
  0
LINE
  5
21EBE
330
21EAB
100
AcDbEntity
  8
0
  6
CONTINUOUS
100
AcDbLine
 10
14.74459412247225
 20
4.434517384941048
 30
0.0
 11
17.2394407932377
 21
6.929364055706499
 31
0.0
  0
LINE
  5
21EBF
330
21EAB
100
AcDbEntity
  8
0
  6
CONTINUOUS
100
AcDbLine
 10
14.33882305602236
 20
3.355227109410975
 30
0.0
 11
17.42346996430115
 21
6.439874017689766
 31
0.0
  0
LINE
  5
21EC0
330
21EAB
100
AcDbEntity
  8
0
  6
CONTINUOUS
100
AcDbLine
 10
13.46705359186416
 20
1.809938436172586
 30
0.0
 11
16.0819338255367
 21
4.424818669845129
 31
0.0
  0
LINE
  5
21EC1
330
21EAB
100
AcDbEntity
  8
0
  6
CONTINUOUS
100
AcDbLine
 10
16.63283254238972
 20
4.975717386698149
 30
0.0
 11
17.60749913536461
 21
5.950383979673033
 31
0.0
  0
LINE
  5
21EC2
330
21EAB
100
AcDbEntity
  8
0
  6
CONTINUOUS
100
AcDbLine
 10
13.66663434263929
 20
1.335999977867529
 30
0.0
 11
15.67604797733754
 21
3.345413612565779
 31
0.0
  0
LINE
  5
21EC3
330
21EAB
100
AcDbEntity
  8
0
  6
CONTINUOUS
100
AcDbLine
 10
13.86621509341442
 20
0.8620615195624723
 30
0.0
 11
15.27016212913838
 21
2.26600855528643
 31
0.0
  0
LINE
  5
21EC4
330
21EAB
100
AcDbEntity
  8
0
  6
CONTINUOUS
100
AcDbLine
 10
16.81682257348267
 20
4.486188208710908
 30
0.0
 11
17.79152830642806
 21
5.460893941656299
 31
0.0
  0
LINE
  5
21EC5
330
21EAB
100
AcDbEntity
  8
0
  6
CONTINUOUS
100
AcDbLine
 10
17.00081260457561
 20
3.996659030723667
 30
0.0
 11
17.97555747749151
 21
4.971403903639565
 31
0.0
  0
LINE
  5
21EC6
330
21EAB
100
AcDbEntity
  8
0
  6
CONTINUOUS
100
AcDbLine
 10
20.74362343514722
 20
8.412989070375462
 30
0.0
 11
21.09373436476302
 21
8.763099999991256
 31
0.0
  0
LINE
  5
21EC7
330
21EAB
100
AcDbEntity
  8
0
  6
CONTINUOUS
100
AcDbLine
 10
20.25401257174777
 20
7.249858997895826
 30
0.0
 11
21.7672535738432
 21
8.763099999991255
 31
0.0
  0
LINE
  5
21EC8
330
21EAB
100
AcDbEntity
  8
0
  6
CONTINUOUS
100
AcDbLine
 10
14.06579584418955
 20
0.3881230612574149
 30
0.0
 11
14.86427628093921
 21
1.186603498007082
 31
0.0
  0
LINE
  5
21EC9
330
21EAB
100
AcDbEntity
  8
0
  6
CONTINUOUS
100
AcDbLine
 10
14.26537659496467
 20
-0.0858153970476412
 30
0.0
 11
14.45839043274005
 21
0.1071984407277329
 31
0.0
  0
LINE
  5
21ECA
330
21EAB
100
AcDbEntity
  8
0
  6
CONTINUOUS
100
AcDbLine
 10
17.18480263566856
 20
3.507129852736426
 30
0.0
 11
18.15958664855496
 21
4.481913865622833
 31
0.0
  0
LINE
  5
21ECB
330
21EAB
100
AcDbEntity
  8
0
  6
CONTINUOUS
100
AcDbLine
 10
17.3687926667615
 20
3.017600674749186
 30
0.0
 11
18.34361581961842
 21
3.9924238276061
 31
0.0
  0
LINE
  5
21ECC
330
21EAB
100
AcDbEntity
  8
0
  6
CONTINUOUS
100
AcDbLine
 10
19.76440170834832
 20
6.086728925416191
 30
0.0
 11
22.33924590259489
 21
8.661573119662755
 31
0.0
  0
LINE
  5
21ECD
330
21EAB
100
AcDbEntity
  8
0
  6
CONTINUOUS
100
AcDbLine
 10
19.27479084494887
 20
4.923598852936555
 30
0.0
 11
21.84929622842713
 21
7.498104236414807
 31
0.0
  0
LINE
  5
21ECE
330
21EAB
100
AcDbEntity
  8
0
  6
CONTINUOUS
100
AcDbLine
 10
17.55278269785445
 20
2.528071496761945
 30
0.0
 11
18.52764499068187
 21
3.502933789589366
 31
0.0
  0
LINE
  5
21ECF
330
21EAB
100
AcDbEntity
  8
0
  6
CONTINUOUS
100
AcDbLine
 10
18.78517998154942
 20
3.760468780456919
 30
0.0
 11
21.35934655425936
 21
6.33463535316686
 31
0.0
  0
LINE
  5
21ED0
330
21EAB
100
AcDbEntity
  8
0
  6
CONTINUOUS
100
AcDbLine
 10
17.73677272894739
 20
2.038542318774704
 30
0.0
 11
20.8693968800916
 21
5.171166469918914
 31
0.0
  0
LINE
  5
21ED1
330
21EAB
100
AcDbEntity
  8
0
  6
CONTINUOUS
100
AcDbLine
 10
17.92076276004034
 20
1.549013140787464
 30
0.0
 11
20.37944720592384
 21
4.007697586670968
 31
0.0
  0
LINE
  5
21ED2
330
21EAB
100
AcDbEntity
  8
0
  6
CONTINUOUS
100
AcDbLine
 10
18.10475279113329
 20
1.059483962800223
 30
0.0
 11
19.88949753175608
 21
2.84422870342302
 31
0.0
  0
LINE
  5
21ED3
330
21EAB
100
AcDbEntity
  8
0
  6
CONTINUOUS
100
AcDbLine
 10
18.28874282222623
 20
0.5699547848129822
 30
0.0
 11
19.39954785758832
 21
1.680759820175074
 31
0.0
  0
LINE
  5
21ED4
330
21EAB
100
AcDbEntity
  8
0
  6
CONTINUOUS
100
AcDbLine
 10
18.47273285331918
 20
0.0804256068257416
 30
0.0
 11
18.90959818342056
 21
0.517290936927127
 31
0.0
  0
LINE
  5
21ED5
330
21EAB
100
AcDbEntity
  8
0
  6
CONTINUOUS
100
AcDbLine
 10
14.3590401358224
 20
-0.1570118376323384
 30
0.0
 11
14.24903296539946
 21
-0.0470046672093929
 31
0.0
  0
LINE
  5
21ED6
330
21EAB
100
AcDbEntity
  8
0
  6
CONTINUOUS
100
AcDbLine
 10
14.54309291258661
 20
0.332454594683643
 30
0.0
 11
13.75908329123172
 21
1.116464216038529
 31
0.0
  0
LINE
  5
21ED7
330
21EAB
100
AcDbEntity
  8
0
  6
CONTINUOUS
100
AcDbLine
 10
14.72714568935081
 20
0.8219210269996244
 30
0.0
 11
13.26913361706399
 21
2.27993309928645
 31
0.0
  0
LINE
  5
21ED8
330
21EAB
100
AcDbEntity
  8
0
  6
CONTINUOUS
100
AcDbLine
 10
14.91119846611502
 20
1.311387459315606
 30
0.0
 11
12.77918394289625
 21
3.443401982534371
 31
0.0
  0
LINE
  5
21ED9
330
21EAB
100
AcDbEntity
  8
0
  6
CONTINUOUS
100
AcDbLine
 10
15.09525124287922
 20
1.800853891631587
 30
0.0
 11
12.28923426872852
 21
4.606870865782293
 31
0.0
  0
LINE
  5
21EDA
330
21EAB
100
AcDbEntity
  8
0
  6
CONTINUOUS
100
AcDbLine
 10
15.27930401964343
 20
2.290320323947569
 30
0.0
 11
11.79928459456078
 21
5.770339749030213
 31
0.0
  0
LINE
  5
21EDB
330
21EAB
100
AcDbEntity
  8
0
  6
CONTINUOUS
100
AcDbLine
 10
15.46335679640763
 20
2.77978675626355
 30
0.0
 11
14.48885470994921
 21
3.754288842721972
 31
0.0
  0
LINE
  5
21EDC
330
21EAB
100
AcDbEntity
  8
0
  6
CONTINUOUS
100
AcDbLine
 10
13.88507249233704
 20
4.358071060334137
 30
0.0
 11
11.30933492039305
 21
6.933808632278135
 31
0.0
  0
LINE
  5
21EDD
330
21EAB
100
AcDbEntity
  8
0
  6
CONTINUOUS
100
AcDbLine
 10
18.75840522805855
 20
0.1582575336928151
 30
0.0
 11
18.25383727664818
 21
0.6628254851031863
 31
0.0
  0
LINE
  5
21EDE
330
21EAB
100
AcDbEntity
  8
0
  6
CONTINUOUS
100
AcDbLine
 10
15.64740957317184
 20
3.269253188579531
 30
0.0
 11
14.67288388101266
 21
4.243778880738705
 31
0.0
  0
LINE
  5
21EDF
330
21EAB
100
AcDbEntity
  8
0
  6
CONTINUOUS
100
AcDbLine
 10
13.39509276772158
 20
5.521569994029786
 30
0.0
 11
10.81938524622531
 21
8.097277515526056
 31
0.0
  0
LINE
  5
21EE0
330
21EAB
100
AcDbEntity
  8
0
  6
CONTINUOUS
100
AcDbLine
 10
18.95798597883369
 20
0.6321959919978686
 30
0.0
 11
17.84825644852853
 21
1.741925522303024
 31
0.0
  0
LINE
  5
21EE1
330
21EAB
100
AcDbEntity
  8
0
  6
CONTINUOUS
100
AcDbLine
 10
19.15756672960882
 20
1.106134450302922
 30
0.0
 11
17.44267562040888
 21
2.821025559502861
 31
0.0
  0
LINE
  5
21EE2
330
21EAB
100
AcDbEntity
  8
0
  6
CONTINUOUS
100
AcDbLine
 10
15.83146234993604
 20
3.758719620895513
 30
0.0
 11
14.85691305207612
 21
4.733268918755439
 31
0.0
  0
LINE
  5
21EE3
330
21EAB
100
AcDbEntity
  8
0
  6
CONTINUOUS
100
AcDbLine
 10
16.01551512670025
 20
4.248186053211494
 30
0.0
 11
15.04094222313957
 21
5.222758956772172
 31
0.0
  0
LINE
  5
21EE4
330
21EAB
100
AcDbEntity
  8
0
  6
CONTINUOUS
100
AcDbLine
 10
12.90511304310612
 20
6.685068927725435
 30
0.0
 11
10.8270819708403
 21
8.763099999991255
 31
0.0
  0
LINE
  5
21EE5
330
21EAB
100
AcDbEntity
  8
0
  6
CONTINUOUS
100
AcDbLine
 10
12.41513331849066
 20
7.848567861421083
 30
0.0
 11
11.50060117992049
 21
8.763099999991255
 31
0.0
  0
LINE
  5
21EE6
330
21EAB
100
AcDbEntity
  8
0
  6
CONTINUOUS
100
AcDbLine
 10
19.35714748038395
 20
1.580072908607975
 30
0.0
 11
17.03709479228923
 21
3.900125596702697
 31
0.0
  0
LINE
  5
21EE7
330
21EAB
100
AcDbEntity
  8
0
  6
CONTINUOUS
100
AcDbLine
 10
19.55672823115909
 20
2.054011366913028
 30
0.0
 11
16.63151396416958
 21
4.979225633902534
 31
0.0
  0
LINE
  5
21EE8
330
21EAB
100
AcDbEntity
  8
0
  6
CONTINUOUS
100
AcDbLine
 10
16.19956790346445
 20
4.737652485527476
 30
0.0
 11
15.22497139420302
 21
5.712248994788904
 31
0.0
  0
LINE
  5
21EE9
330
21EAB
100
AcDbEntity
  8
0
  6
CONTINUOUS
100
AcDbLine
 10
16.38362068022866
 20
5.227118917843457
 30
0.0
 11
15.40900056526648
 21
6.201739032805637
 31
0.0
  0
LINE
  5
21EEA
330
21EAB
100
AcDbEntity
  8
0
  6
CONTINUOUS
100
AcDbLine
 10
19.75630898193422
 20
2.527949825218081
 30
0.0
 11
18.70774536448286
 21
3.576513442669441
 31
0.0
  0
LINE
  5
21EEB
330
21EAB
100
AcDbEntity
  8
0
  6
CONTINUOUS
100
AcDbLine
 10
19.95588973270936
 20
3.001888283523134
 30
0.0
 11
18.90726987211446
 21
4.050508144118028
 31
0.0
  0
LINE
  5
21EEC
330
21EAB
100
AcDbEntity
  8
0
  6
CONTINUOUS
100
AcDbLine
 10
20.15547048348449
 20
3.475826741828186
 30
0.0
 11
19.10679437974606
 21
4.524502845566614
 31
0.0
  0
LINE
  5
21EED
330
21EAB
100
AcDbEntity
  8
0
  6
CONTINUOUS
100
AcDbLine
 10
20.35505123425962
 20
3.94976520013324
 30
0.0
 11
19.30631888737766
 21
4.998497547015201
 31
0.0
  0
LINE
  5
21EEE
330
21EAB
100
AcDbEntity
  8
0
  6
CONTINUOUS
100
AcDbLine
 10
20.55463198503475
 20
4.423703658438292
 30
0.0
 11
19.50584339500926
 21
5.472492248463787
 31
0.0
  0
LINE
  5
21EEF
330
21EAB
100
AcDbEntity
  8
0
  6
CONTINUOUS
100
AcDbLine
 10
18.37481191085755
 20
3.909446896294752
 30
0.0
 11
15.59302973632993
 21
6.691229070822371
 31
0.0
  0
LINE
  5
21EF0
330
21EAB
100
AcDbEntity
  8
0
  6
CONTINUOUS
100
AcDbLine
 10
17.96904084440766
 20
4.988737171824825
 30
0.0
 11
15.77705890739338
 21
7.180719108839104
 31
0.0
  0
LINE
  5
21EF1
330
21EAB
100
AcDbEntity
  8
0
  6
CONTINUOUS
100
AcDbLine
 10
17.56326977795777
 20
6.068027447354899
 30
0.0
 11
15.96108807845684
 21
7.670209146855838
 31
0.0
  0
LINE
  5
21EF2
330
21EAB
100
AcDbEntity
  8
0
  6
CONTINUOUS
100
AcDbLine
 10
17.15749871150789
 20
7.147317722884972
 30
0.0
 11
16.14511724952029
 21
8.15969918487257
 31
0.0
  0
LINE
  5
21EF3
330
21EAB
100
AcDbEntity
  8
0
  6
CONTINUOUS
100
AcDbLine
 10
16.751727645058
 20
8.226607998415046
 30
0.0
 11
16.32914642058374
 21
8.649189222889303
 31
0.0
  0
LINE
  5
21EF4
330
21EAB
100
AcDbEntity
  8
0
  6
CONTINUOUS
100
AcDbLine
 10
20.75421273580989
 20
4.897642116743345
 30
0.0
 11
19.70536790264086
 21
5.946486949912374
 31
0.0
  0
LINE
  5
21EF5
330
21EAB
100
AcDbEntity
  8
0
  6
CONTINUOUS
100
AcDbLine
 10
20.95379348658502
 20
5.371580575048398
 30
0.0
 11
19.90489241027246
 21
6.42048165136096
 31
0.0
  0
LINE
  5
21EF6
330
21EAB
100
AcDbEntity
  8
0
  6
CONTINUOUS
100
AcDbLine
 10
21.15337423736015
 20
5.845519033353452
 30
0.0
 11
20.10441691790406
 21
6.894476352809547
 31
0.0
  0
LINE
  5
21EF7
330
21EAB
100
AcDbEntity
  8
0
  6
CONTINUOUS
100
AcDbLine
 10
21.35295498813529
 20
6.319457491658505
 30
0.0
 11
20.30394142553566
 21
7.368471054258134
 31
0.0
  0
LINE
  5
21EF8
330
21EAB
100
AcDbEntity
  8
0
  6
CONTINUOUS
100
AcDbLine
 10
21.55253573891042
 20
6.793395949963558
 30
0.0
 11
20.50346593316726
 21
7.842465755706721
 31
0.0
  0
LINE
  5
21EF9
330
21EAB
100
AcDbEntity
  8
0
  6
CONTINUOUS
100
AcDbLine
 10
21.75211648968556
 20
7.267334408268612
 30
0.0
 11
20.70299044079886
 21
8.316460457155308
 31
0.0
  0
LINE
  5
21EFA
330
21EAB
100
AcDbEntity
  8
0
  6
CONTINUOUS
100
AcDbLine
 10
21.95169724046069
 20
7.741272866573663
 30
0.0
 11
20.9298701070431
 21
8.763099999991256
 31
0.0
  0
LINE
  5
21EFB
330
21EAB
100
AcDbEntity
  8
0
  6
CONTINUOUS
100
AcDbLine
 10
22.15127799123582
 20
8.215211324878716
 30
0.0
 11
21.60338931612328
 21
8.763099999991256
 31
0.0
  0
LINE
  5
21EFC
330
21EAB
100
AcDbEntity
  8
0
  6
CONTINUOUS
100
AcDbLine
 10
22.35085874201096
 20
8.689149783183769
 30
0.0
 11
22.27690852520347
 21
8.763099999991255
 31
0.0
  0
ENDBLK
  5
21FEE
330
21EAB
100
AcDbEntity
  8
0
100
AcDbBlockEnd
  0
BLOCK
  5
21FEF
330
21EFD
100
AcDbEntity
  8
0
100
AcDbBlockBegin
  2
*X70
 70
     1
 10
0.0
 20
0.0
 30
0.0
  3
*X70
  1

  0
LINE
  5
21EFE
330
21EFD
100
AcDbEntity
  8
0
  6
CONTINUOUS
100
AcDbLine
 10
23.19462913593892
 20
8.169917934846424
 30
0.0
 11
23.70775465517246
 21
8.683043454079957
 31
0.0
  0
LINE
  5
21EFF
330
21EFD
100
AcDbEntity
  8
0
  6
CONTINUOUS
100
AcDbLine
 10
22.64923161835078
 20
6.951001208178088
 30
0.0
 11
23.9159364069932
 21
8.217705996820516
 31
0.0
  0
LINE
  5
21F00
330
21EFD
100
AcDbEntity
  8
0
  6
CONTINUOUS
100
AcDbLine
 10
22.10383410076263
 20
5.732084481509751
 30
0.0
 11
24.12411815881395
 21
7.752368539561078
 31
0.0
  0
LINE
  5
21F01
330
21EFD
100
AcDbEntity
  8
0
  6
CONTINUOUS
100
AcDbLine
 10
21.55843658317447
 20
4.513167754841414
 30
0.0
 11
24.3322999106347
 21
7.287031082301639
 31
0.0
  0
LINE
  5
21F02
330
21EFD
100
AcDbEntity
  8
0
  6
CONTINUOUS
100
AcDbLine
 10
21.01303906558632
 20
3.294251028173077
 30
0.0
 11
24.54048166245544
 21
6.821693625042199
 31
0.0
  0
LINE
  5
21F03
330
21EFD
100
AcDbEntity
  8
0
  6
CONTINUOUS
100
AcDbLine
 10
20.46764154799817
 20
2.075334301504738
 30
0.0
 11
23.28571549467848
 21
4.89340824818505
 31
0.0
  0
LINE
  5
21F04
330
21EFD
100
AcDbEntity
  8
0
  6
CONTINUOUS
100
AcDbLine
 10
19.92224403041002
 20
0.8564175748364002
 30
0.0
 11
22.74075865492779
 21
3.674932199354171
 31
0.0
  0
LINE
  5
21F05
330
21EFD
100
AcDbEntity
  8
0
  6
CONTINUOUS
100
AcDbLine
 10
23.67305085490148
 20
5.280743608408048
 30
0.0
 11
24.74866341427619
 21
6.356356167782759
 31
0.0
  0
LINE
  5
21F06
330
21EFD
100
AcDbEntity
  8
0
  6
CONTINUOUS
100
AcDbLine
 10
23.88118970842314
 20
4.815363252849522
 30
0.0
 11
24.95684516609694
 21
5.89101871052332
 31
0.0
  0
LINE
  5
21F07
330
21EFD
100
AcDbEntity
  8
0
  6
CONTINUOUS
100
AcDbLine
 10
19.73925852647308
 20
-0.0000871381807288
 30
0.0
 11
23.4103456646501
 21
3.670999999996297
 31
0.0
  0
LINE
  5
21F08
330
21EFD
100
AcDbEntity
  8
0
  6
CONTINUOUS
100
AcDbLine
 10
24.0893285619448
 20
4.349982897290997
 30
0.0
 11
25.16502691791769
 21
5.42568125326388
 31
0.0
  0
LINE
  5
21F09
330
21EFD
100
AcDbEntity
  8
0
  6
CONTINUOUS
100
AcDbLine
 10
20.41282099582748
 20
-0.0000438779065108
 30
0.0
 11
21.64944178675636
 21
1.236576913022366
 31
0.0
  0
LINE
  5
21F0A
330
21EFD
100
AcDbEntity
  8
0
  6
CONTINUOUS
100
AcDbLine
 10
22.78126487373161
 20
2.36839999999762
 30
0.0
 11
24.08386487373029
 21
3.670999999996297
 31
0.0
  0
LINE
  5
21F0B
330
21EFD
100
AcDbEntity
  8
0
  6
CONTINUOUS
100
AcDbLine
 10
24.29746741546646
 20
3.884602541732471
 30
0.0
 11
25.37320866973843
 21
4.960343796004441
 31
0.0
  0
LINE
  5
21F0C
330
21EFD
100
AcDbEntity
  8
0
  6
CONTINUOUS
100
AcDbLine
 10
21.08638346518189
 20
-0.0000006176322938
 30
0.0
 11
21.10379033335899
 21
0.0174062505448083
 31
0.0
  0
LINE
  5
21F0D
330
21EFD
100
AcDbEntity
  8
0
  6
CONTINUOUS
100
AcDbLine
 10
23.4547840828118
 20
2.36839999999762
 30
0.0
 11
25.58139042155918
 21
4.495006338745002
 31
0.0
  0
LINE
  5
21F0E
330
21EFD
100
AcDbEntity
  8
0
  6
CONTINUOUS
100
AcDbLine
 10
29.30199999996933
 20
8.215615917155148
 30
0.0
 11
29.84948408280543
 21
8.763099999991255
 31
0.0
  0
LINE
  5
21F0F
330
21EFD
100
AcDbEntity
  8
0
  6
CONTINUOUS
100
AcDbLine
 10
24.12830329189199
 20
2.36839999999762
 30
0.0
 11
25.78957217337993
 21
4.029668881485562
 31
0.0
  0
LINE
  5
21F10
330
21EFD
100
AcDbEntity
  8
0
  6
CONTINUOUS
100
AcDbLine
 10
29.30199999996933
 20
7.54209670807496
 30
0.0
 11
30.52300329188562
 21
8.763099999991255
 31
0.0
  0
LINE
  5
21F11
330
21EFD
100
AcDbEntity
  8
0
  6
CONTINUOUS
100
AcDbLine
 10
24.80182250097217
 20
2.36839999999762
 30
0.0
 11
25.99775392520067
 21
3.564331424226122
 31
0.0
  0
LINE
  5
21F12
330
21EFD
100
AcDbEntity
  8
0
  6
CONTINUOUS
100
AcDbLine
 10
29.30199999996933
 20
6.868577498994774
 30
0.0
 11
30.74199999996926
 21
8.308577498994712
 31
0.0
  0
LINE
  5
21F13
330
21EFD
100
AcDbEntity
  8
0
  6
CONTINUOUS
100
AcDbLine
 10
25.13028238392013
 20
2.023340673865392
 30
0.0
 11
26.20593567702142
 21
3.098993966966683
 31
0.0
  0
LINE
  5
21F14
330
21EFD
100
AcDbEntity
  8
0
  6
CONTINUOUS
100
AcDbLine
 10
25.33838066033617
 20
1.557919741201244
 30
0.0
 11
26.41411742884217
 21
2.633656509707244
 31
0.0
  0
LINE
  5
21F15
330
21EFD
100
AcDbEntity
  8
0
  6
CONTINUOUS
100
AcDbLine
 10
25.54647893675221
 20
1.092498808537098
 30
0.0
 11
26.62229918066291
 21
2.168319052447804
 31
0.0
  0
LINE
  5
21F16
330
21EFD
100
AcDbEntity
  8
0
  6
CONTINUOUS
100
AcDbLine
 10
25.75457721316825
 20
0.62707787587295
 30
0.0
 11
26.83048093248366
 21
1.702981595188365
 31
0.0
  0
LINE
  5
21F17
330
21EFD
100
AcDbEntity
  8
0
  6
CONTINUOUS
100
AcDbLine
 10
29.30199999996933
 20
6.195058289914587
 30
0.0
 11
30.74199999996926
 21
7.635058289914522
 31
0.0
  0
LINE
  5
21F18
330
21EFD
100
AcDbEntity
  8
0
  6
CONTINUOUS
100
AcDbLine
 10
29.30199999996933
 20
5.521539080834401
 30
0.0
 11
30.74199999996926
 21
6.961539080834331
 31
0.0
  0
LINE
  5
21F19
330
21EFD
100
AcDbEntity
  8
0
  6
CONTINUOUS
100
AcDbLine
 10
29.30199999996933
 20
4.848019871754214
 30
0.0
 11
30.74199999996925
 21
6.288019871754143
 31
0.0
  0
LINE
  5
21F1A
330
21EFD
100
AcDbEntity
  8
0
  6
CONTINUOUS
100
AcDbLine
 10
29.30199999996933
 20
4.174500662674028
 30
0.0
 11
30.74199999996925
 21
5.614500662673953
 31
0.0
  0
LINE
  5
21F1B
330
21EFD
100
AcDbEntity
  8
0
  6
CONTINUOUS
100
AcDbLine
 10
25.96267548958429
 20
0.1616569432088024
 30
0.0
 11
27.18411854636669
 21
1.383099999991207
 31
0.0
  0
LINE
  5
21F1C
330
21EFD
100
AcDbEntity
  8
0
  6
CONTINUOUS
100
AcDbLine
 10
29.30199999996933
 20
3.500981453593841
 30
0.0
 11
30.74199999996925
 21
4.940981453593762
 31
0.0
  0
LINE
  5
21F1D
330
21EFD
100
AcDbEntity
  8
0
  6
CONTINUOUS
100
AcDbLine
 10
26.50763775544691
 20
0.0330999999912356
 30
0.0
 11
27.85763775544689
 21
1.383099999991223
 31
0.0
  0
LINE
  5
21F1E
330
21EFD
100
AcDbEntity
  8
0
  6
CONTINUOUS
100
AcDbLine
 10
29.30199999996933
 20
2.827462244513656
 30
0.0
 11
30.74199999996925
 21
4.267462244513574
 31
0.0
  0
LINE
  5
21F1F
330
21EFD
100
AcDbEntity
  8
0
  6
CONTINUOUS
100
AcDbLine
 10
27.18115696452709
 20
0.0330999999912356
 30
0.0
 11
28.6224847300034
 21
1.474427765467545
 31
0.0
  0
LINE
  5
21F20
330
21EFD
100
AcDbEntity
  8
0
  6
CONTINUOUS
100
AcDbLine
 10
29.21067223449293
 20
2.062615269957069
 30
0.0
 11
30.74199999996924
 21
3.593943035433383
 31
0.0
  0
LINE
  5
21F21
330
21EFD
100
AcDbEntity
  8
0
  6
CONTINUOUS
100
AcDbLine
 10
27.85467617360728
 20
0.0330999999912356
 30
0.0
 11
30.74199999996924
 21
2.920423826353195
 31
0.0
  0
LINE
  5
21F22
330
21EFD
100
AcDbEntity
  8
0
  6
CONTINUOUS
100
AcDbLine
 10
28.57438609860264
 20
0.0792907159064073
 30
0.0
 11
30.69580928405405
 21
2.200713901357819
 31
0.0
  0
LINE
  5
21F23
330
21EFD
100
AcDbEntity
  8
0
  6
CONTINUOUS
100
AcDbLine
 10
29.49443044814297
 20
0.3258158563665496
 30
0.0
 11
30.44928414359389
 21
1.280669551817477
 31
0.0
  0
LINE
  5
21F24
330
21EFD
100
AcDbEntity
  8
0
  6
CONTINUOUS
100
AcDbLine
 10
19.59027867740337
 20
-0.0000967065718083
 30
0.0
 11
19.55485265190471
 21
0.035329318926844
 31
0.0
  0
LINE
  5
21F25
330
21EFD
100
AcDbEntity
  8
0
  6
CONTINUOUS
100
AcDbLine
 10
20.26375463176586
 20
-0.0000534518541091
 30
0.0
 11
19.76305575737534
 21
0.5006454225364014
 31
0.0
  0
LINE
  5
21F26
330
21EFD
100
AcDbEntity
  8
0
  6
CONTINUOUS
100
AcDbLine
 10
20.93723058612834
 20
-0.0000101971364099
 30
0.0
 11
19.97125886284597
 21
0.965961526145958
 31
0.0
  0
LINE
  5
21F27
330
21EFD
100
AcDbEntity
  8
0
  6
CONTINUOUS
100
AcDbLine
 10
21.25514828313686
 20
0.355591314935257
 30
0.0
 11
20.1794619683166
 21
1.431277629755512
 31
0.0
  0
LINE
  5
21F28
330
21EFD
100
AcDbEntity
  8
0
  6
CONTINUOUS
100
AcDbLine
 10
21.46338838394921
 20
0.8208704232030986
 30
0.0
 11
20.38766507378723
 21
1.896593733365069
 31
0.0
  0
LINE
  5
21F29
330
21EFD
100
AcDbEntity
  8
0
  6
CONTINUOUS
100
AcDbLine
 10
21.67162848476155
 20
1.28614953147094
 30
0.0
 11
20.59586817925786
 21
2.361909836974626
 31
0.0
  0
LINE
  5
21F2A
330
21EFD
100
AcDbEntity
  8
0
  6
CONTINUOUS
100
AcDbLine
 10
21.8798685855739
 20
1.751428639738782
 30
0.0
 11
20.80407128472849
 21
2.827225940584183
 31
0.0
  0
LINE
  5
21F2B
330
21EFD
100
AcDbEntity
  8
0
  6
CONTINUOUS
100
AcDbLine
 10
22.08810868638624
 20
2.216707748006623
 30
0.0
 11
21.01227439019912
 21
3.292542044193739
 31
0.0
  0
LINE
  5
21F2C
330
21EFD
100
AcDbEntity
  8
0
  6
CONTINUOUS
100
AcDbLine
 10
22.60993564347543
 20
2.36839999999762
 30
0.0
 11
21.22047749566975
 21
3.757858147803296
 31
0.0
  0
LINE
  5
21F2D
330
21EFD
100
AcDbEntity
  8
0
  6
CONTINUOUS
100
AcDbLine
 10
23.28345485255561
 20
2.36839999999762
 30
0.0
 11
21.42868060114038
 21
4.223174251412853
 31
0.0
  0
LINE
  5
21F2E
330
21EFD
100
AcDbEntity
  8
0
  6
CONTINUOUS
100
AcDbLine
 10
26.29227406164219
 20
0.0330999999912356
 30
0.0
 11
25.80009199592872
 21
0.5252820657046957
 31
0.0
  0
LINE
  5
21F2F
330
21EFD
100
AcDbEntity
  8
0
  6
CONTINUOUS
100
AcDbLine
 10
23.9569740616358
 20
2.36839999999762
 30
0.0
 11
21.63688370661101
 21
4.688490355022409
 31
0.0
  0
LINE
  5
21F30
330
21EFD
100
AcDbEntity
  8
0
  6
CONTINUOUS
100
AcDbLine
 10
26.96579327072237
 20
0.0330999999912356
 30
0.0
 11
25.2554132311971
 21
1.743480039516508
 31
0.0
  0
LINE
  5
21F31
330
21EFD
100
AcDbEntity
  8
0
  6
CONTINUOUS
100
AcDbLine
 10
24.63049327071599
 20
2.36839999999762
 30
0.0
 11
23.32789327071731
 21
3.670999999996297
 31
0.0
  0
LINE
  5
21F32
330
21EFD
100
AcDbEntity
  8
0
  6
CONTINUOUS
100
AcDbLine
 10
22.92098674744635
 20
4.077906523267254
 30
0.0
 11
21.84508681208164
 21
5.153806458631966
 31
0.0
  0
LINE
  5
21F33
330
21EFD
100
AcDbEntity
  8
0
  6
CONTINUOUS
100
AcDbLine
 10
27.63931247980256
 20
0.0330999999912356
 30
0.0
 11
24.0014124797975
 21
3.670999999996297
 31
0.0
  0
LINE
  5
21F34
330
21EFD
100
AcDbEntity
  8
0
  6
CONTINUOUS
100
AcDbLine
 10
23.129125600968
 20
4.5432868788258
 30
0.0
 11
22.05328991755227
 21
5.619122562241522
 31
0.0
  0
LINE
  5
21F35
330
21EFD
100
AcDbEntity
  8
0
  6
CONTINUOUS
100
AcDbLine
 10
28.31283168888275
 20
0.0330999999912356
 30
0.0
 11
24.16488385994816
 21
4.181047828925828
 31
0.0
  0
LINE
  5
21F36
330
21EFD
100
AcDbEntity
  8
0
  6
CONTINUOUS
100
AcDbLine
 10
23.33726445448964
 20
5.008667234384345
 30
0.0
 11
22.2614930230229
 21
6.084438665851079
 31
0.0
  0
LINE
  5
21F37
330
21EFD
100
AcDbEntity
  8
0
  6
CONTINUOUS
100
AcDbLine
 10
28.86286302309502
 20
0.1565878748591523
 30
0.0
 11
27.63635089796295
 21
1.383099999991217
 31
0.0
  0
LINE
  5
21F38
330
21EFD
100
AcDbEntity
  8
0
  6
CONTINUOUS
100
AcDbLine
 10
26.43704649509776
 20
2.582404402856405
 30
0.0
 11
23.61992702019732
 21
5.399523877756844
 31
0.0
  0
LINE
  5
21F39
330
21EFD
100
AcDbEntity
  8
0
  6
CONTINUOUS
100
AcDbLine
 10
23.54540330801128
 20
5.47404758994289
 30
0.0
 11
22.46969612849353
 21
6.549754769460635
 31
0.0
  0
LINE
  5
21F3A
330
21EFD
100
AcDbEntity
  8
0
  6
CONTINUOUS
100
AcDbLine
 10
29.39405087596853
 20
0.2989192310658284
 30
0.0
 11
28.30987010704312
 21
1.383099999991234
 31
0.0
  0
LINE
  5
21F3B
330
21EFD
100
AcDbEntity
  8
0
  6
CONTINUOUS
100
AcDbLine
 10
25.89179548232307
 20
3.801174624711282
 30
0.0
 11
22.67789923396416
 21
7.015070873070191
 31
0.0
  0
LINE
  5
21F3C
330
21EFD
100
AcDbEntity
  8
0
  6
CONTINUOUS
100
AcDbLine
 10
29.79594438047407
 20
0.570544935640473
 30
0.0
 11
28.81310432793121
 21
1.553384988183336
 31
0.0
  0
LINE
  5
21F3D
330
21EFD
100
AcDbEntity
  8
0
  6
CONTINUOUS
100
AcDbLine
 10
25.34654446954838
 20
5.01994484656616
 30
0.0
 11
22.88610233943479
 21
7.480386976679748
 31
0.0
  0
LINE
  5
21F3E
330
21EFD
100
AcDbEntity
  8
0
  6
CONTINUOUS
100
AcDbLine
 10
30.13270398501416
 20
0.9073045401805646
 30
0.0
 11
29.14234640337737
 21
1.897662121817355
 31
0.0
  0
LINE
  5
21F3F
330
21EFD
100
AcDbEntity
  8
0
  6
CONTINUOUS
100
AcDbLine
 10
24.80129345677369
 20
6.238715068421037
 30
0.0
 11
23.09430544490542
 21
7.945703080289305
 31
0.0
  0
LINE
  5
21F40
330
21EFD
100
AcDbEntity
  8
0
  6
CONTINUOUS
100
AcDbLine
 10
30.44581292956759
 20
1.26771480470732
 30
0.0
 11
29.30199999996933
 21
2.411527734305588
 31
0.0
  0
LINE
  5
21F41
330
21EFD
100
AcDbEntity
  8
0
  6
CONTINUOUS
100
AcDbLine
 10
30.58814428577427
 20
1.798902657580827
 30
0.0
 11
29.30199999996933
 21
3.085046943385775
 31
0.0
  0
LINE
  5
21F42
330
21EFD
100
AcDbEntity
  8
0
  6
CONTINUOUS
100
AcDbLine
 10
24.256042443999
 20
7.457485290275915
 30
0.0
 11
23.30250855037605
 21
8.411019183898862
 31
0.0
  0
LINE
  5
21F43
330
21EFD
100
AcDbEntity
  8
0
  6
CONTINUOUS
100
AcDbLine
 10
23.71079143122431
 20
8.676255512130794
 30
0.0
 11
23.51071165584668
 21
8.876335287508418
 31
0.0
  0
LINE
  5
21F44
330
21EFD
100
AcDbEntity
  8
0
  6
CONTINUOUS
100
AcDbLine
 10
30.73047564198095
 20
2.330090510454333
 30
0.0
 11
29.30199999996933
 21
3.758566152465961
 31
0.0
  0
LINE
  5
21F45
330
21EFD
100
AcDbEntity
  8
0
  6
CONTINUOUS
100
AcDbLine
 10
30.74199999996924
 20
2.992085361546236
 30
0.0
 11
29.30199999996933
 21
4.432085361546148
 31
0.0
  0
LINE
  5
21F46
330
21EFD
100
AcDbEntity
  8
0
  6
CONTINUOUS
100
AcDbLine
 10
30.74199999996924
 20
3.665604570626419
 30
0.0
 11
29.30199999996933
 21
5.105604570626333
 31
0.0
  0
LINE
  5
21F47
330
21EFD
100
AcDbEntity
  8
0
  6
CONTINUOUS
100
AcDbLine
 10
30.74199999996925
 20
4.339123779706602
 30
0.0
 11
29.30199999996933
 21
5.77912377970652
 31
0.0
  0
LINE
  5
21F48
330
21EFD
100
AcDbEntity
  8
0
  6
CONTINUOUS
100
AcDbLine
 10
30.74199999996925
 20
5.012642988786785
 30
0.0
 11
29.30199999996933
 21
6.452642988786707
 31
0.0
  0
LINE
  5
21F49
330
21EFD
100
AcDbEntity
  8
0
  6
CONTINUOUS
100
AcDbLine
 10
30.74199999996925
 20
5.68616219786697
 30
0.0
 11
29.30199999996933
 21
7.126162197866894
 31
0.0
  0
LINE
  5
21F4A
330
21EFD
100
AcDbEntity
  8
0
  6
CONTINUOUS
100
AcDbLine
 10
30.74199999996925
 20
6.359681406947153
 30
0.0
 11
29.30199999996933
 21
7.799681406947081
 31
0.0
  0
LINE
  5
21F4B
330
21EFD
100
AcDbEntity
  8
0
  6
CONTINUOUS
100
AcDbLine
 10
30.74199999996926
 20
7.033200616027337
 30
0.0
 11
29.30199999996933
 21
8.473200616027269
 31
0.0
  0
LINE
  5
21F4C
330
21EFD
100
AcDbEntity
  8
0
  6
CONTINUOUS
100
AcDbLine
 10
30.74199999996926
 20
7.706719825107518
 30
0.0
 11
29.68561982508552
 21
8.763099999991255
 31
0.0
  0
LINE
  5
21F4D
330
21EFD
100
AcDbEntity
  8
0
  6
CONTINUOUS
100
AcDbLine
 10
30.74199999996926
 20
8.380239034187703
 30
0.0
 11
30.35913903416571
 21
8.763099999991255
 31
0.0
  0
ENDBLK
  5
21FF0
330
21EFD
100
AcDbEntity
  8
0
100
AcDbBlockEnd
  0
BLOCK
  5
21FF1
330
21F4E
100
AcDbEntity
  8
0
100
AcDbBlockBegin
  2
*X71
 70
     1
 10
0.0
 20
0.0
 30
0.0
  3
*X71
  1

  0
LINE
  5
21F4F
330
21F4E
100
AcDbEntity
  8
0
  6
CONTINUOUS
100
AcDbLine
 10
31.64199999996833
 20
8.5350582899136
 30
0.0
 11
31.87004171004599
 21
8.763099999991255
 31
0.0
  0
LINE
  5
21F50
330
21F4E
100
AcDbEntity
  8
0
  6
CONTINUOUS
100
AcDbLine
 10
31.64199999996833
 20
7.861539080833413
 30
0.0
 11
32.54356091912618
 21
8.763099999991255
 31
0.0
  0
LINE
  5
21F51
330
21F4E
100
AcDbEntity
  8
0
  6
CONTINUOUS
100
AcDbLine
 10
31.64199999996833
 20
7.188019871753227
 30
0.0
 11
33.08199999996839
 21
8.628019871753281
 31
0.0
  0
LINE
  5
21F52
330
21F4E
100
AcDbEntity
  8
0
  6
CONTINUOUS
100
AcDbLine
 10
31.64199999996833
 20
6.514500662673041
 30
0.0
 11
33.08199999996839
 21
7.954500662673095
 31
0.0
  0
LINE
  5
21F53
330
21F4E
100
AcDbEntity
  8
0
  6
CONTINUOUS
100
AcDbLine
 10
31.64199999996833
 20
5.840981453592855
 30
0.0
 11
33.08199999996839
 21
7.28098145359291
 31
0.0
  0
LINE
  5
21F54
330
21F4E
100
AcDbEntity
  8
0
  6
CONTINUOUS
100
AcDbLine
 10
31.64199999996833
 20
5.167462244512668
 30
0.0
 11
33.08199999996839
 21
6.607462244512723
 31
0.0
  0
LINE
  5
21F55
330
21F4E
100
AcDbEntity
  8
0
  6
CONTINUOUS
100
AcDbLine
 10
31.64199999996833
 20
4.493943035432482
 30
0.0
 11
33.08199999996839
 21
5.933943035432536
 31
0.0
  0
LINE
  5
21F56
330
21F4E
100
AcDbEntity
  8
0
  6
CONTINUOUS
100
AcDbLine
 10
31.64199999996833
 20
3.820423826352294
 30
0.0
 11
33.08199999996839
 21
5.260423826352349
 31
0.0
  0
LINE
  5
21F57
330
21F4E
100
AcDbEntity
  8
0
  6
CONTINUOUS
100
AcDbLine
 10
31.64199999996833
 20
3.146904617272108
 30
0.0
 11
33.08199999996839
 21
4.586904617272163
 31
0.0
  0
LINE
  5
21F58
330
21F4E
100
AcDbEntity
  8
0
  6
CONTINUOUS
100
AcDbLine
 10
36.23199999996837
 20
8.410423826352327
 30
0.0
 11
36.58467617360729
 21
8.763099999991255
 31
0.0
  0
LINE
  5
21F59
330
21F4E
100
AcDbEntity
  8
0
  6
CONTINUOUS
100
AcDbLine
 10
36.23199999996837
 20
7.73690461727214
 30
0.0
 11
37.25819538268748
 21
8.763099999991255
 31
0.0
  0
LINE
  5
21F5A
330
21F4E
100
AcDbEntity
  8
0
  6
CONTINUOUS
100
AcDbLine
 10
31.64323424774199
 20
2.474619655965573
 30
0.0
 11
33.08199999996839
 21
3.913385408191976
 31
0.0
  0
LINE
  5
21F5B
330
21F4E
100
AcDbEntity
  8
0
  6
CONTINUOUS
100
AcDbLine
 10
31.74419223861915
 20
1.902058437762552
 30
0.0
 11
33.08199999996839
 21
3.239866199111789
 31
0.0
  0
LINE
  5
21F5C
330
21F4E
100
AcDbEntity
  8
0
  6
CONTINUOUS
100
AcDbLine
 10
36.23199999996837
 20
7.063385408191953
 30
0.0
 11
37.67199999996831
 21
8.503385408191894
 31
0.0
  0
LINE
  5
21F5D
330
21F4E
100
AcDbEntity
  8
0
  6
CONTINUOUS
100
AcDbLine
 10
36.23199999996837
 20
6.389866199111767
 30
0.0
 11
37.67199999996831
 21
7.829866199111708
 31
0.0
  0
LINE
  5
21F5E
330
21F4E
100
AcDbEntity
  8
0
  6
CONTINUOUS
100
AcDbLine
 10
31.91111233414976
 20
1.39545932421297
 30
0.0
 11
33.08199999996839
 21
2.566346990031603
 31
0.0
  0
LINE
  5
21F5F
330
21F4E
100
AcDbEntity
  8
0
  6
CONTINUOUS
100
AcDbLine
 10
36.23199999996837
 20
5.71634699003158
 30
0.0
 11
37.67199999996831
 21
7.156346990031522
 31
0.0
  0
LINE
  5
21F60
330
21F4E
100
AcDbEntity
  8
0
  6
CONTINUOUS
100
AcDbLine
 10
32.1576374746103
 20
0.9684652555933289
 30
0.0
 11
33.20642631446081
 21
2.017254095443838
 31
0.0
  0
LINE
  5
21F61
330
21F4E
100
AcDbEntity
  8
0
  6
CONTINUOUS
100
AcDbLine
 10
36.23199999996837
 20
5.042827780951393
 30
0.0
 11
37.67199999996831
 21
6.482827780951334
 31
0.0
  0
LINE
  5
21F62
330
21F4E
100
AcDbEntity
  8
0
  6
CONTINUOUS
100
AcDbLine
 10
32.47774023927325
 20
0.6150488111760914
 30
0.0
 11
33.49903056428258
 21
1.636339136185419
 31
0.0
  0
LINE
  5
21F63
330
21F4E
100
AcDbEntity
  8
0
  6
CONTINUOUS
100
AcDbLine
 10
36.23199999996837
 20
4.369308571871207
 30
0.0
 11
37.67199999996831
 21
5.809308571871148
 31
0.0
  0
LINE
  5
21F64
330
21F4E
100
AcDbEntity
  8
0
  6
CONTINUOUS
100
AcDbLine
 10
32.84396249154443
 20
0.3077518543670883
 30
0.0
 11
33.93324121824649
 21
1.397030581069146
 31
0.0
  0
LINE
  5
21F65
330
21F4E
100
AcDbEntity
  8
0
  6
CONTINUOUS
100
AcDbLine
 10
36.23199999996837
 20
3.695789362791021
 30
0.0
 11
37.67199999996831
 21
5.135789362790963
 31
0.0
  0
LINE
  5
21F66
330
21F4E
100
AcDbEntity
  8
0
  6
CONTINUOUS
100
AcDbLine
 10
33.30186329036846
 20
0.0921334441109263
 30
0.0
 11
34.46442907112041
 21
1.254699224862875
 31
0.0
  0
LINE
  5
21F67
330
21F4E
100
AcDbEntity
  8
0
  6
CONTINUOUS
100
AcDbLine
 10
36.23199999996837
 20
3.022270153710834
 30
0.0
 11
37.67199999996831
 21
4.462270153710776
 31
0.0
  0
LINE
  5
21F68
330
21F4E
100
AcDbEntity
  8
0
  6
CONTINUOUS
100
AcDbLine
 10
33.79565647746294
 20
-0.0875925778747773
 30
0.0
 11
35.24350171668284
 21
1.360252661345124
 31
0.0
  0
LINE
  5
21F69
330
21F4E
100
AcDbEntity
  8
0
  6
CONTINUOUS
100
AcDbLine
 10
36.18336676155003
 20
2.300117706212308
 30
0.0
 11
37.67199999996831
 21
3.788750944630589
 31
0.0
  0
LINE
  5
21F6A
330
21F4E
100
AcDbEntity
  8
0
  6
CONTINUOUS
100
AcDbLine
 10
34.37182574910968
 20
-0.184942515308224
 30
0.0
 11
37.67199999996831
 21
3.115231735550402
 31
0.0
  0
LINE
  5
21F6B
330
21F4E
100
AcDbEntity
  8
0
  6
CONTINUOUS
100
AcDbLine
 10
35.0453449581892
 20
-0.1849425153088955
 30
0.0
 11
37.66345697088136
 21
2.433169497383271
 31
0.0
  0
LINE
  5
21F6C
330
21F4E
100
AcDbEntity
  8
0
  6
CONTINUOUS
100
AcDbLine
 10
35.98667157609191
 20
0.0828648935136398
 30
0.0
 11
37.51927401744566
 21
1.615467334867382
 31
0.0
  0
LINE
  5
21F6D
330
21F4E
100
AcDbEntity
  8
0
  6
CONTINUOUS
100
AcDbLine
 10
32.27747408544484
 20
0.7830920669904482
 30
0.0
 11
32.24716210471949
 21
0.8134040477157893
 31
0.0
  0
LINE
  5
21F6E
330
21F4E
100
AcDbEntity
  8
0
  6
CONTINUOUS
100
AcDbLine
 10
33.83656881101902
 20
-0.1024834495035494
 30
0.0
 11
31.72538911593758
 21
2.008696245577891
 31
0.0
  0
LINE
  5
21F6F
330
21F4E
100
AcDbEntity
  8
0
  6
CONTINUOUS
100
AcDbLine
 10
34.5925470859041
 20
-0.1849425153084434
 30
0.0
 11
31.64199999996833
 21
2.765604570627322
 31
0.0
  0
LINE
  5
21F70
330
21F4E
100
AcDbEntity
  8
0
  6
CONTINUOUS
100
AcDbLine
 10
35.26201302775981
 20
-0.1808892480839752
 30
0.0
 11
31.64199999996833
 21
3.439123779707508
 31
0.0
  0
LINE
  5
21F71
330
21F4E
100
AcDbEntity
  8
0
  6
CONTINUOUS
100
AcDbLine
 10
35.75580621485512
 20
-0.0011632260990879
 30
0.0
 11
34.51294304365551
 21
1.241699945100514
 31
0.0
  0
LINE
  5
21F72
330
21F4E
100
AcDbEntity
  8
0
  6
CONTINUOUS
100
AcDbLine
 10
33.08199999996839
 20
2.672642988787641
 30
0.0
 11
31.64199999996833
 21
4.112642988787695
 31
0.0
  0
LINE
  5
21F73
330
21F4E
100
AcDbEntity
  8
0
  6
CONTINUOUS
100
AcDbLine
 10
36.24959940195042
 20
0.1785627958857976
 30
0.0
 11
35.10501653033629
 21
1.323145667499924
 31
0.0
  0
LINE
  5
21F74
330
21F4E
100
AcDbEntity
  8
0
  6
CONTINUOUS
100
AcDbLine
 10
33.08199999996839
 20
3.346162197867827
 30
0.0
 11
31.64199999996833
 21
4.786162197867881
 31
0.0
  0
LINE
  5
21F75
330
21F4E
100
AcDbEntity
  8
0
  6
CONTINUOUS
100
AcDbLine
 10
36.64615197150552
 20
0.4555294354108876
 30
0.0
 11
35.6362043832099
 21
1.465477023706505
 31
0.0
  0
LINE
  5
21F76
330
21F4E
100
AcDbEntity
  8
0
  6
CONTINUOUS
100
AcDbLine
 10
33.08199999996839
 20
4.019681406948013
 30
0.0
 11
31.64199999996833
 21
5.459681406948068
 31
0.0
  0
LINE
  5
21F77
330
21F4E
100
AcDbEntity
  8
0
  6
CONTINUOUS
100
AcDbLine
 10
37.0123742237774
 20
0.7628263922191891
 30
0.0
 11
35.97691545773309
 21
1.798285158263504
 31
0.0
  0
LINE
  5
21F78
330
21F4E
100
AcDbEntity
  8
0
  6
CONTINUOUS
100
AcDbLine
 10
33.08199999996839
 20
4.6932006160282
 30
0.0
 11
31.64199999996833
 21
6.133200616028255
 31
0.0
  0
LINE
  5
21F79
330
21F4E
100
AcDbEntity
  8
0
  6
CONTINUOUS
100
AcDbLine
 10
37.27491524157143
 20
1.173804583505349
 30
0.0
 11
36.17602012811361
 21
2.272699696963169
 31
0.0
  0
LINE
  5
21F7A
330
21F4E
100
AcDbEntity
  8
0
  6
CONTINUOUS
100
AcDbLine
 10
33.08199999996839
 20
5.366719825108387
 30
0.0
 11
31.64199999996833
 21
6.806719825108441
 31
0.0
  0
LINE
  5
21F7B
330
21F4E
100
AcDbEntity
  8
0
  6
CONTINUOUS
100
AcDbLine
 10
37.51739996707661
 20
1.604839067080355
 30
0.0
 11
36.23199999996837
 21
2.890239034188595
 31
0.0
  0
LINE
  5
21F7C
330
21F4E
100
AcDbEntity
  8
0
  6
CONTINUOUS
100
AcDbLine
 10
37.6183579579535
 20
2.177400285283649
 30
0.0
 11
36.23199999996837
 21
3.563758243268782
 31
0.0
  0
LINE
  5
21F7D
330
21F4E
100
AcDbEntity
  8
0
  6
CONTINUOUS
100
AcDbLine
 10
33.08199999996839
 20
6.040239034188573
 30
0.0
 11
31.64199999996833
 21
7.480239034188628
 31
0.0
  0
LINE
  5
21F7E
330
21F4E
100
AcDbEntity
  8
0
  6
CONTINUOUS
100
AcDbLine
 10
33.08199999996839
 20
6.713758243268759
 30
0.0
 11
31.64199999996833
 21
8.153758243268815
 31
0.0
  0
LINE
  5
21F7F
330
21F4E
100
AcDbEntity
  8
0
  6
CONTINUOUS
100
AcDbLine
 10
37.67199999996831
 20
2.797277452349027
 30
0.0
 11
36.23199999996837
 21
4.237277452348969
 31
0.0
  0
LINE
  5
21F80
330
21F4E
100
AcDbEntity
  8
0
  6
CONTINUOUS
100
AcDbLine
 10
37.67199999996831
 20
3.470796661429214
 30
0.0
 11
36.23199999996837
 21
4.910796661429155
 31
0.0
  0
LINE
  5
21F81
330
21F4E
100
AcDbEntity
  8
0
  6
CONTINUOUS
100
AcDbLine
 10
37.67199999996831
 20
4.1443158705094
 30
0.0
 11
36.23199999996837
 21
5.584315870509341
 31
0.0
  0
LINE
  5
21F82
330
21F4E
100
AcDbEntity
  8
0
  6
CONTINUOUS
100
AcDbLine
 10
33.08199999996839
 20
7.387277452348946
 30
0.0
 11
31.70617745232608
 21
8.763099999991255
 31
0.0
  0
LINE
  5
21F83
330
21F4E
100
AcDbEntity
  8
0
  6
CONTINUOUS
100
AcDbLine
 10
33.08199999996839
 20
8.060796661429134
 30
0.0
 11
32.37969666140626
 21
8.763099999991255
 31
0.0
  0
LINE
  5
21F84
330
21F4E
100
AcDbEntity
  8
0
  6
CONTINUOUS
100
AcDbLine
 10
33.08199999996839
 20
8.734315870509318
 30
0.0
 11
33.05321587048645
 21
8.763099999991255
 31
0.0
  0
LINE
  5
21F85
330
21F4E
100
AcDbEntity
  8
0
  6
CONTINUOUS
100
AcDbLine
 10
37.67199999996831
 20
4.817835079589586
 30
0.0
 11
36.23199999996837
 21
6.257835079589528
 31
0.0
  0
LINE
  5
21F86
330
21F4E
100
AcDbEntity
  8
0
  6
CONTINUOUS
100
AcDbLine
 10
37.67199999996831
 20
5.491354288669772
 30
0.0
 11
36.23199999996837
 21
6.931354288669715
 31
0.0
  0
LINE
  5
21F87
330
21F4E
100
AcDbEntity
  8
0
  6
CONTINUOUS
100
AcDbLine
 10
37.67199999996831
 20
6.164873497749959
 30
0.0
 11
36.23199999996837
 21
7.6048734977499
 31
0.0
  0
LINE
  5
21F88
330
21F4E
100
AcDbEntity
  8
0
  6
CONTINUOUS
100
AcDbLine
 10
37.67199999996831
 20
6.838392706830145
 30
0.0
 11
36.23199999996837
 21
8.278392706830086
 31
0.0
  0
LINE
  5
21F89
330
21F4E
100
AcDbEntity
  8
0
  6
CONTINUOUS
100
AcDbLine
 10
37.67199999996831
 20
7.511911915910333
 30
0.0
 11
36.42081191588738
 21
8.763099999991255
 31
0.0
  0
LINE
  5
21F8A
330
21F4E
100
AcDbEntity
  8
0
  6
CONTINUOUS
100
AcDbLine
 10
37.67199999996831
 20
8.185431124990519
 30
0.0
 11
37.09433112496757
 21
8.763099999991255
 31
0.0
  0
ENDBLK
  5
21FF2
330
21F4E
100
AcDbEntity
  8
0
100
AcDbBlockEnd
  0
BLOCK
  5
21FF3
330
21F8B
100
AcDbEntity
  8
0
100
AcDbBlockBegin
  2
*X72
 70
     1
 10
0.0
 20
0.0
 30
0.0
  3
*X72
  1

  0
LINE
  5
21F8C
330
21F8B
100
AcDbEntity
  8
0
  6
CONTINUOUS
100
AcDbLine
 10
38.60499999996136
 20
8.762866199104765
 30
0.0
 11
38.71672554182345
 21
8.874591740966855
 31
0.0
  0
LINE
  5
21F8D
330
21F8B
100
AcDbEntity
  8
0
  6
CONTINUOUS
100
AcDbLine
 10
38.60499999996136
 20
8.089346990024577
 30
0.0
 11
39.03418785440363
 21
8.518534844466847
 31
0.0
  0
LINE
  5
21F8E
330
21F8B
100
AcDbEntity
  8
0
  6
CONTINUOUS
100
AcDbLine
 10
38.60499999996136
 20
7.41582778094439
 30
0.0
 11
39.35165016698382
 21
8.16247794796684
 31
0.0
  0
LINE
  5
21F8F
330
21F8B
100
AcDbEntity
  8
0
  6
CONTINUOUS
100
AcDbLine
 10
38.60499999996136
 20
6.742308571864204
 30
0.0
 11
39.66911247956399
 21
7.806421051466834
 31
0.0
  0
LINE
  5
21F90
330
21F8B
100
AcDbEntity
  8
0
  6
CONTINUOUS
100
AcDbLine
 10
38.60499999996136
 20
6.068789362784018
 30
0.0
 11
39.98657479214418
 21
7.450364154966827
 31
0.0
  0
LINE
  5
21F91
330
21F8B
100
AcDbEntity
  8
0
  6
CONTINUOUS
100
AcDbLine
 10
38.60499999996136
 20
5.395270153703832
 30
0.0
 11
40.30403710472435
 21
7.09430725846682
 31
0.0
  0
LINE
  5
21F92
330
21F8B
100
AcDbEntity
  8
0
  6
CONTINUOUS
100
AcDbLine
 10
38.60499999996136
 20
4.721750944623645
 30
0.0
 11
40.62149941730453
 21
6.738250361966813
 31
0.0
  0
LINE
  5
21F93
330
21F8B
100
AcDbEntity
  8
0
  6
CONTINUOUS
100
AcDbLine
 10
38.60499999996136
 20
4.048231735543458
 30
0.0
 11
40.93896172988471
 21
6.382193465466806
 31
0.0
  0
LINE
  5
21F94
330
21F8B
100
AcDbEntity
  8
0
  6
CONTINUOUS
100
AcDbLine
 10
38.60499999996136
 20
3.374712526463272
 30
0.0
 11
40.02599999995994
 21
4.795712526461843
 31
0.0
  0
LINE
  5
21F95
330
21F8B
100
AcDbEntity
  8
0
  6
CONTINUOUS
100
AcDbLine
 10
38.60499999996136
 20
2.701193317383085
 30
0.0
 11
40.02599999995994
 21
4.122193317381657
 31
0.0
  0
LINE
  5
21F96
330
21F8B
100
AcDbEntity
  8
0
  6
CONTINUOUS
100
AcDbLine
 10
40.28339754687704
 20
5.053110073378947
 30
0.0
 11
41.25642404246489
 21
6.026136568966799
 31
0.0
  0
LINE
  5
21F97
330
21F8B
100
AcDbEntity
  8
0
  6
CONTINUOUS
100
AcDbLine
 10
40.60085985945722
 20
4.697053176878939
 30
0.0
 11
41.57388635504507
 21
5.670079672466793
 31
0.0
  0
LINE
  5
21F98
330
21F8B
100
AcDbEntity
  8
0
  6
CONTINUOUS
100
AcDbLine
 10
43.57899999995641
 20
8.348712526458318
 30
0.0
 11
43.99338747348935
 21
8.763099999991255
 31
0.0
  0
LINE
  5
21F99
330
21F8B
100
AcDbEntity
  8
0
  6
CONTINUOUS
100
AcDbLine
 10
43.57899999995641
 20
7.675193317378131
 30
0.0
 11
44.66690668256953
 21
8.763099999991255
 31
0.0
  0
LINE
  5
21F9A
330
21F8B
100
AcDbEntity
  8
0
  6
CONTINUOUS
100
AcDbLine
 10
38.60499999996136
 20
2.027674108302898
 30
0.0
 11
40.02599999995994
 21
3.44867410830147
 31
0.0
  0
LINE
  5
21F9B
330
21F8B
100
AcDbEntity
  8
0
  6
CONTINUOUS
100
AcDbLine
 10
38.60499999996136
 20
1.354154899222712
 30
0.0
 11
40.02599999995994
 21
2.775154899221284
 31
0.0
  0
LINE
  5
21F9C
330
21F8B
100
AcDbEntity
  8
0
  6
CONTINUOUS
100
AcDbLine
 10
38.60499999996136
 20
0.6806356901425255
 30
0.0
 11
40.02599999995994
 21
2.101635690141098
 31
0.0
  0
LINE
  5
21F9D
330
21F8B
100
AcDbEntity
  8
0
  6
CONTINUOUS
100
AcDbLine
 10
38.60499999996136
 20
0.0071164810623383
 30
0.0
 11
40.02599999995994
 21
1.428116481060911
 31
0.0
  0
LINE
  5
21F9E
330
21F8B
100
AcDbEntity
  8
0
  6
CONTINUOUS
100
AcDbLine
 10
40.9183221720374
 20
4.340996280378933
 30
0.0
 11
41.89134866762525
 21
5.314022775966786
 31
0.0
  0
LINE
  5
21F9F
330
21F8B
100
AcDbEntity
  8
0
  6
CONTINUOUS
100
AcDbLine
 10
41.23578448461758
 20
3.984939383878926
 30
0.0
 11
42.20881098020543
 21
4.957965879466778
 31
0.0
  0
LINE
  5
21FA0
330
21F8B
100
AcDbEntity
  8
0
  6
CONTINUOUS
100
AcDbLine
 10
41.55324679719776
 20
3.628882487378919
 30
0.0
 11
42.52627329278561
 21
4.601908982966772
 31
0.0
  0
LINE
  5
21FA1
330
21F8B
100
AcDbEntity
  8
0
  6
CONTINUOUS
100
AcDbLine
 10
41.87070910977793
 20
3.272825590878912
 30
0.0
 11
42.84373560536579
 21
4.245852086466765
 31
0.0
  0
LINE
  5
21FA2
330
21F8B
100
AcDbEntity
  8
0
  6
CONTINUOUS
100
AcDbLine
 10
43.57899999995641
 20
7.001674108297943
 30
0.0
 11
44.99999999995498
 21
8.422674108296516
 31
0.0
  0
LINE
  5
21FA3
330
21F8B
100
AcDbEntity
  8
0
  6
CONTINUOUS
100
AcDbLine
 10
43.57899999995641
 20
6.328154899217758
 30
0.0
 11
44.99999999995498
 21
7.749154899216329
 31
0.0
  0
LINE
  5
21FA4
330
21F8B
100
AcDbEntity
  8
0
  6
CONTINUOUS
100
AcDbLine
 10
43.57899999995641
 20
5.654635690137571
 30
0.0
 11
44.99999999995498
 21
7.075635690136142
 31
0.0
  0
LINE
  5
21FA5
330
21F8B
100
AcDbEntity
  8
0
  6
CONTINUOUS
100
AcDbLine
 10
43.57899999995641
 20
4.981116481057384
 30
0.0
 11
44.99999999995498
 21
6.402116481055955
 31
0.0
  0
LINE
  5
21FA6
330
21F8B
100
AcDbEntity
  8
0
  6
CONTINUOUS
100
AcDbLine
 10
39.27140272797921
 20
-0.0000000000000009
 30
0.0
 11
40.02599999995994
 21
0.7545972719807246
 31
0.0
  0
LINE
  5
21FA7
330
21F8B
100
AcDbEntity
  8
0
  6
CONTINUOUS
100
AcDbLine
 10
39.9449219370594
 20
-0.0000000000000009
 30
0.0
 11
40.02599999995994
 21
0.0810780629005379
 31
0.0
  0
LINE
  5
21FA8
330
21F8B
100
AcDbEntity
  8
0
  6
CONTINUOUS
100
AcDbLine
 10
42.18817142235812
 20
2.916768694378905
 30
0.0
 11
43.16119791794597
 21
3.889795189966758
 31
0.0
  0
LINE
  5
21FA9
330
21F8B
100
AcDbEntity
  8
0
  6
CONTINUOUS
100
AcDbLine
 10
42.50563373493829
 20
2.560711797878898
 30
0.0
 11
43.47866023052615
 21
3.533738293466751
 31
0.0
  0
LINE
  5
21FAA
330
21F8B
100
AcDbEntity
  8
0
  6
CONTINUOUS
100
AcDbLine
 10
43.57899999995641
 20
4.307597271977198
 30
0.0
 11
44.99999999995498
 21
5.728597271975769
 31
0.0
  0
LINE
  5
21FAB
330
21F8B
100
AcDbEntity
  8
0
  6
CONTINUOUS
100
AcDbLine
 10
43.57899999995641
 20
3.634078062897011
 30
0.0
 11
44.99999999995498
 21
5.055078062895582
 31
0.0
  0
LINE
  5
21FAC
330
21F8B
100
AcDbEntity
  8
0
  6
CONTINUOUS
100
AcDbLine
 10
42.82309604751848
 20
2.204654901378891
 30
0.0
 11
44.99999999995498
 21
4.381558853815395
 31
0.0
  0
LINE
  5
21FAD
330
21F8B
100
AcDbEntity
  8
0
  6
CONTINUOUS
100
AcDbLine
 10
43.14055836009865
 20
1.848598004878885
 30
0.0
 11
44.99999999995498
 21
3.70803964473521
 31
0.0
  0
LINE
  5
21FAE
330
21F8B
100
AcDbEntity
  8
0
  6
CONTINUOUS
100
AcDbLine
 10
43.45802067267883
 20
1.492541108378878
 30
0.0
 11
44.99999999995498
 21
3.034520435655023
 31
0.0
  0
LINE
  5
21FAF
330
21F8B
100
AcDbEntity
  8
0
  6
CONTINUOUS
100
AcDbLine
 10
43.77548298525902
 20
1.136484211878871
 30
0.0
 11
44.99999999995498
 21
2.361001226574837
 31
0.0
  0
LINE
  5
21FB0
330
21F8B
100
AcDbEntity
  8
0
  6
CONTINUOUS
100
AcDbLine
 10
44.09294529783919
 20
0.7804273153788639
 30
0.0
 11
44.99999999995498
 21
1.687482017494649
 31
0.0
  0
LINE
  5
21FB1
330
21F8B
100
AcDbEntity
  8
0
  6
CONTINUOUS
100
AcDbLine
 10
44.41040761041938
 20
0.4243704188788566
 30
0.0
 11
44.99999999995498
 21
1.013962808414463
 31
0.0
  0
LINE
  5
21FB2
330
21F8B
100
AcDbEntity
  8
0
  6
CONTINUOUS
100
AcDbLine
 10
44.72786992299955
 20
0.0683135223788494
 30
0.0
 11
44.99999999995498
 21
0.340443599334276
 31
0.0
  0
LINE
  5
21FB3
330
21F8B
100
AcDbEntity
  8
0
  6
CONTINUOUS
100
AcDbLine
 10
39.12223903415696
 20
-0.0000000000000009
 30
0.0
 11
38.60499999996136
 21
0.5172390341955961
 31
0.0
  0
LINE
  5
21FB4
330
21F8B
100
AcDbEntity
  8
0
  6
CONTINUOUS
100
AcDbLine
 10
39.79575824323715
 20
-0.0000000000000009
 30
0.0
 11
38.60499999996136
 21
1.190758243275783
 31
0.0
  0
LINE
  5
21FB5
330
21F8B
100
AcDbEntity
  8
0
  6
CONTINUOUS
100
AcDbLine
 10
40.02599999995994
 20
0.443277452357397
 30
0.0
 11
38.60499999996136
 21
1.864277452355969
 31
0.0
  0
LINE
  5
21FB6
330
21F8B
100
AcDbEntity
  8
0
  6
CONTINUOUS
100
AcDbLine
 10
40.02599999995994
 20
1.116796661437583
 30
0.0
 11
38.60499999996136
 21
2.537796661436155
 31
0.0
  0
LINE
  5
21FB7
330
21F8B
100
AcDbEntity
  8
0
  6
CONTINUOUS
100
AcDbLine
 10
40.02599999995994
 20
1.79031587051777
 30
0.0
 11
38.60499999996136
 21
3.211315870516341
 31
0.0
  0
LINE
  5
21FB8
330
21F8B
100
AcDbEntity
  8
0
  6
CONTINUOUS
100
AcDbLine
 10
40.02599999995994
 20
2.463835079597956
 30
0.0
 11
38.60499999996136
 21
3.884835079596527
 31
0.0
  0
LINE
  5
21FB9
330
21F8B
100
AcDbEntity
  8
0
  6
CONTINUOUS
100
AcDbLine
 10
40.02599999995994
 20
3.137354288678143
 30
0.0
 11
38.60499999996136
 21
4.558354288676714
 31
0.0
  0
LINE
  5
21FBA
330
21F8B
100
AcDbEntity
  8
0
  6
CONTINUOUS
100
AcDbLine
 10
40.02599999995994
 20
3.810873497758329
 30
0.0
 11
38.60499999996136
 21
5.2318734977569
 31
0.0
  0
LINE
  5
21FBB
330
21F8B
100
AcDbEntity
  8
0
  6
CONTINUOUS
100
AcDbLine
 10
40.02599999995994
 20
4.484392706838515
 30
0.0
 11
38.60499999996136
 21
5.905392706837086
 31
0.0
  0
LINE
  5
21FBC
330
21F8B
100
AcDbEntity
  8
0
  6
CONTINUOUS
100
AcDbLine
 10
44.99999999995498
 20
0.183911915923658
 30
0.0
 11
41.53858364506288
 21
3.64532827081576
 31
0.0
  0
LINE
  5
21FBD
330
21F8B
100
AcDbEntity
  8
0
  6
CONTINUOUS
100
AcDbLine
 10
40.02599999995994
 20
5.157911915918703
 30
0.0
 11
38.60499999996136
 21
6.578911915917274
 31
0.0
  0
LINE
  5
21FBE
330
21F8B
100
AcDbEntity
  8
0
  6
CONTINUOUS
100
AcDbLine
 10
44.99999999995498
 20
0.8574311250038447
 30
0.0
 11
38.60499999996136
 21
7.25243112499746
 31
0.0
  0
LINE
  5
21FBF
330
21F8B
100
AcDbEntity
  8
0
  6
CONTINUOUS
100
AcDbLine
 10
44.99999999995498
 20
1.530950334084031
 30
0.0
 11
38.60499999996136
 21
7.925950334077647
 31
0.0
  0
LINE
  5
21FC0
330
21F8B
100
AcDbEntity
  8
0
  6
CONTINUOUS
100
AcDbLine
 10
44.99999999995498
 20
2.204469543164218
 30
0.0
 11
43.57899999995641
 21
3.625469543162789
 31
0.0
  0
LINE
  5
21FC1
330
21F8B
100
AcDbEntity
  8
0
  6
CONTINUOUS
100
AcDbLine
 10
41.89876730984767
 20
5.305702233271528
 30
0.0
 11
38.60499999996136
 21
8.599469543157834
 31
0.0
  0
LINE
  5
21FC2
330
21F8B
100
AcDbEntity
  8
0
  6
CONTINUOUS
100
AcDbLine
 10
44.99999999995498
 20
2.877988752244405
 30
0.0
 11
43.57899999995641
 21
4.298988752242975
 31
0.0
  0
LINE
  5
21FC3
330
21F8B
100
AcDbEntity
  8
0
  6
CONTINUOUS
100
AcDbLine
 10
44.99999999995498
 20
3.551507961324591
 30
0.0
 11
43.57899999995641
 21
4.972507961323163
 31
0.0
  0
LINE
  5
21FC4
330
21F8B
100
AcDbEntity
  8
0
  6
CONTINUOUS
100
AcDbLine
 10
44.99999999995498
 20
4.225027170404777
 30
0.0
 11
43.57899999995641
 21
5.646027170403348
 31
0.0
  0
LINE
  5
21FC5
330
21F8B
100
AcDbEntity
  8
0
  6
CONTINUOUS
100
AcDbLine
 10
44.99999999995498
 20
4.898546379484964
 30
0.0
 11
43.57899999995641
 21
6.319546379483535
 31
0.0
  0
LINE
  5
21FC6
330
21F8B
100
AcDbEntity
  8
0
  6
CONTINUOUS
100
AcDbLine
 10
44.99999999995498
 20
5.572065588565151
 30
0.0
 11
43.57899999995641
 21
6.993065588563722
 31
0.0
  0
LINE
  5
21FC7
330
21F8B
100
AcDbEntity
  8
0
  6
CONTINUOUS
100
AcDbLine
 10
44.99999999995498
 20
6.245584797645336
 30
0.0
 11
43.57899999995641
 21
7.666584797643908
 31
0.0
  0
LINE
  5
21FC8
330
21F8B
100
AcDbEntity
  8
0
  6
CONTINUOUS
100
AcDbLine
 10
44.99999999995498
 20
6.919104006725522
 30
0.0
 11
43.57899999995641
 21
8.340104006724093
 31
0.0
  0
LINE
  5
21FC9
330
21F8B
100
AcDbEntity
  8
0
  6
CONTINUOUS
100
AcDbLine
 10
44.99999999995498
 20
7.592623215805709
 30
0.0
 11
43.82952321576943
 21
8.763099999991255
 31
0.0
  0
LINE
  5
21FCA
330
21F8B
100
AcDbEntity
  8
0
  6
CONTINUOUS
100
AcDbLine
 10
44.99999999995498
 20
8.266142424885896
 30
0.0
 11
44.50304242484962
 21
8.763099999991255
 31
0.0
  0
ENDBLK
  5
21FF4
330
21F8B
100
AcDbEntity
  8
0
100
AcDbBlockEnd
  0
BLOCK
  5
21FF5
330
21FCB
100
AcDbEntity
  8
0
100
AcDbBlockBegin
  2
*X73
 70
     1
 10
0.0
 20
0.0
 30
0.0
  3
*X73
  1

  0
LINE
  5
21FCC
330
21FCB
100
AcDbEntity
  8
0
  6
CONTINUOUS
100
AcDbLine
 10
0.0
 20
8.548461116714023
 30
0.0
 11
0.2146388832772324
 21
8.763099999991255
 31
0.0
  0
LINE
  5
21FCD
330
21FCB
100
AcDbEntity
  8
0
  6
CONTINUOUS
100
AcDbLine
 10
-0.0000000000000002
 20
7.874941907633837
 30
0.0
 11
0.8881580923574184
 21
8.763099999991255
 31
0.0
  0
LINE
  5
21FCE
330
21FCB
100
AcDbEntity
  8
0
  6
CONTINUOUS
100
AcDbLine
 10
0.0
 20
7.20142269855365
 30
0.0
 11
1.420999999998572
 21
8.622422698552223
 31
0.0
  0
LINE
  5
21FCF
330
21FCB
100
AcDbEntity
  8
0
  6
CONTINUOUS
100
AcDbLine
 10
-0.0000000000000001
 20
6.527903489473465
 30
0.0
 11
1.420999999998571
 21
7.948903489472036
 31
0.0
  0
LINE
  5
21FD0
330
21FCB
100
AcDbEntity
  8
0
  6
CONTINUOUS
100
AcDbLine
 10
-0.0000000000000002
 20
5.854384280393278
 30
0.0
 11
1.420999999998571
 21
7.275384280391849
 31
0.0
  0
LINE
  5
21FD1
330
21FCB
100
AcDbEntity
  8
0
  6
CONTINUOUS
100
AcDbLine
 10
-0.0000000000000002
 20
5.180865071313091
 30
0.0
 11
1.420999999998571
 21
6.601865071311663
 31
0.0
  0
LINE
  5
21FD2
330
21FCB
100
AcDbEntity
  8
0
  6
CONTINUOUS
100
AcDbLine
 10
0.0
 20
4.507345862232905
 30
0.0
 11
1.420999999998571
 21
5.928345862231477
 31
0.0
  0
LINE
  5
21FD3
330
21FCB
100
AcDbEntity
  8
0
  6
CONTINUOUS
100
AcDbLine
 10
-0.0000000000000003
 20
3.833826653152718
 30
0.0
 11
1.420999999998571
 21
5.25482665315129
 31
0.0
  0
LINE
  5
21FD4
330
21FCB
100
AcDbEntity
  8
0
  6
CONTINUOUS
100
AcDbLine
 10
-0.0000000000000002
 20
3.160307444072532
 30
0.0
 11
1.420999999998571
 21
4.581307444071103
 31
0.0
  0
LINE
  5
21FD5
330
21FCB
100
AcDbEntity
  8
0
  6
CONTINUOUS
100
AcDbLine
 10
-0.0000000000000001
 20
2.486788234992345
 30
0.0
 11
1.420999999998571
 21
3.907788234990917
 31
0.0
  0
LINE
  5
21FD6
330
21FCB
100
AcDbEntity
  8
0
  6
CONTINUOUS
100
AcDbLine
 10
-0.0000000000000006
 20
1.813269025912159
 30
0.0
 11
1.420999999998571
 21
3.234269025910731
 31
0.0
  0
LINE
  5
21FD7
330
21FCB
100
AcDbEntity
  8
0
  6
CONTINUOUS
100
AcDbLine
 10
0.0
 20
1.139749816831973
 30
0.0
 11
1.420999999998571
 21
2.560749816830544
 31
0.0
  0
LINE
  5
21FD8
330
21FCB
100
AcDbEntity
  8
0
  6
CONTINUOUS
100
AcDbLine
 10
0.0000000000000002
 20
0.466230607751787
 30
0.0
 11
1.420999999998571
 21
1.887230607750358
 31
0.0
  0
LINE
  5
21FD9
330
21FCB
100
AcDbEntity
  8
0
  6
CONTINUOUS
100
AcDbLine
 10
0.2072886013284003
 20
-0.0000000000000009
 30
0.0
 11
1.420999999998571
 21
1.213711398670171
 31
0.0
  0
LINE
  5
21FDA
330
21FCB
100
AcDbEntity
  8
0
  6
CONTINUOUS
100
AcDbLine
 10
0.8808078104085864
 20
-0.0000000000000009
 30
0.0
 11
1.420999999998571
 21
0.5401921895899839
 31
0.0
  0
LINE
  5
21FDB
330
21FCB
100
AcDbEntity
  8
0
  6
CONTINUOUS
100
AcDbLine
 10
0.0581249075061505
 20
-0.0000000000000009
 30
0.0
 11
-0.0000000000000002
 21
0.0581249075061496
 31
0.0
  0
LINE
  5
21FDC
330
21FCB
100
AcDbEntity
  8
0
  6
CONTINUOUS
100
AcDbLine
 10
0.7316441165863372
 20
-0.0000000000000009
 30
0.0
 11
-0.0000000000000002
 21
0.7316441165863363
 31
0.0
  0
LINE
  5
21FDD
330
21FCB
100
AcDbEntity
  8
0
  6
CONTINUOUS
100
AcDbLine
 10
1.405163325666523
 20
-0.0000000000000009
 30
0.0
 11
-0.0000000000000002
 21
1.405163325666523
 31
0.0
  0
LINE
  5
21FDE
330
21FCB
100
AcDbEntity
  8
0
  6
CONTINUOUS
100
AcDbLine
 10
1.420999999998572
 20
0.6576825347481381
 30
0.0
 11
-0.0000000000000001
 21
2.07868253474671
 31
0.0
  0
LINE
  5
21FDF
330
21FCB
100
AcDbEntity
  8
0
  6
CONTINUOUS
100
AcDbLine
 10
1.420999999998571
 20
1.331201743828324
 30
0.0
 11
-0.0000000000000001
 21
2.752201743826896
 31
0.0
  0
LINE
  5
21FE0
330
21FCB
100
AcDbEntity
  8
0
  6
CONTINUOUS
100
AcDbLine
 10
1.420999999998571
 20
2.004720952908511
 30
0.0
 11
-0.0000000000000002
 21
3.425720952907082
 31
0.0
  0
LINE
  5
21FE1
330
21FCB
100
AcDbEntity
  8
0
  6
CONTINUOUS
100
AcDbLine
 10
1.420999999998571
 20
2.678240161988697
 30
0.0
 11
-0.0000000000000001
 21
4.099240161987269
 31
0.0
  0
LINE
  5
21FE2
330
21FCB
100
AcDbEntity
  8
0
  6
CONTINUOUS
100
AcDbLine
 10
1.420999999998572
 20
3.351759371068884
 30
0.0
 11
0.0
 21
4.772759371067455
 31
0.0
  0
LINE
  5
21FE3
330
21FCB
100
AcDbEntity
  8
0
  6
CONTINUOUS
100
AcDbLine
 10
1.420999999998571
 20
4.02527858014907
 30
0.0
 11
-0.0000000000000003
 21
5.446278580147642
 31
0.0
  0
LINE
  5
21FE4
330
21FCB
100
AcDbEntity
  8
0
  6
CONTINUOUS
100
AcDbLine
 10
1.420999999998571
 20
4.698797789229257
 30
0.0
 11
0.0
 21
6.119797789227828
 31
0.0
  0
LINE
  5
21FE5
330
21FCB
100
AcDbEntity
  8
0
  6
CONTINUOUS
100
AcDbLine
 10
1.420999999998571
 20
5.372316998309444
 30
0.0
 11
-0.0000000000000001
 21
6.793316998308015
 31
0.0
  0
LINE
  5
21FE6
330
21FCB
100
AcDbEntity
  8
0
  6
CONTINUOUS
100
AcDbLine
 10
1.420999999998572
 20
6.045836207389629
 30
0.0
 11
-0.0000000000000004
 21
7.466836207388202
 31
0.0
  0
LINE
  5
21FE7
330
21FCB
100
AcDbEntity
  8
0
  6
CONTINUOUS
100
AcDbLine
 10
1.420999999998571
 20
6.719355416469816
 30
0.0
 11
0.0
 21
8.140355416468388
 31
0.0
  0
LINE
  5
21FE8
330
21FCB
100
AcDbEntity
  8
0
  6
CONTINUOUS
100
AcDbLine
 10
1.420999999998571
 20
7.392874625550003
 30
0.0
 11
0.0507746255573185
 21
8.763099999991255
 31
0.0
  0
LINE
  5
21FE9
330
21FCB
100
AcDbEntity
  8
0
  6
CONTINUOUS
100
AcDbLine
 10
1.420999999998571
 20
8.06639383463019
 30
0.0
 11
0.7242938346375052
 21
8.763099999991255
 31
0.0
  0
LINE
  5
21FEA
330
21FCB
100
AcDbEntity
  8
0
  6
CONTINUOUS
100
AcDbLine
 10
1.420999999998571
 20
8.739913043710375
 30
0.0
 11
1.397813043717691
 21
8.763099999991255
 31
0.0
  0
ENDBLK
  5
21FF6
330
21FCB
100
AcDbEntity
  8
0
100
AcDbBlockEnd
  0
ENDSEC
  0
SECTION
  2
ENTITIES
  0
LINE
  5
1DB94
330
18
100
AcDbEntity
  8
1DIM
100
AcDbLine
 10
532.3571089299085
 20
-466.2202789373773
 30
0.0
 11
637.3571089299085
 21
-466.2202789373773
 31
0.0
  0
LINE
  5
1DB95
330
18
100
AcDbEntity
  8
1DIM
100
AcDbLine
 10
532.3571089299085
 20
-480.2202789373773
 30
0.0
 11
637.3571089299082
 21
-480.2202789373773
 31
0.0
  0
LINE
  5
1DB96
330
18
100
AcDbEntity
  8
1DIM
100
AcDbLine
 10
532.3571089299085
 20
-473.2202789373773
 30
0.0
 11
637.3571089299082
 21
-473.2202789373773
 31
0.0
  0
LINE
  5
1DB97
330
18
100
AcDbEntity
  8
1DIM
100
AcDbLine
 10
602.3571089299085
 20
-466.2202789373773
 30
0.0
 11
602.3571089299076
 21
-494.2202789373773
 31
0.0
  0
TEXT
  5
1DB98
330
18
100
AcDbEntity
  8
1TEXT
100
AcDbText
 10
612.8904422632419
 20
-471.7202789373773
 30
0.0
 40
4.0
  1
コード
 72
     1
 11
619.7571089299086
 21
-471.7202789373773
 31
0.0
100
AcDbText
  0
LINE
  5
1DB99
330
18
100
AcDbEntity
  8
1DIM
100
AcDbLine
 10
532.3571089299085
 20
-494.2202789373773
 30
0.0
 11
532.3571089299085
 21
-466.2202789373773
 31
0.0
  0
LINE
  5
1DB9A
330
18
100
AcDbEntity
  8
1DIM
100
AcDbLine
 10
637.357108929908
 20
-494.2202789373773
 30
0.0
 11
637.3571089299085
 21
-466.2202789373773
 31
0.0
  0
TEXT
  5
1DB9B
330
18
100
AcDbEntity
  8
1TEXT
100
AcDbText
 10
532.3571089299085
 20
-461.2202789373773
 30
0.0
 40
8.0
  1
SE-171-X
100
AcDbText
  0
TEXT
  5
1DB9C
330
18
100
AcDbEntity
  8
1TEXT
100
AcDbText
 10
540.2904422632419
 20
-478.5555675969015
 30
0.0
 40
4.0
  1
クローム
 72
     1
 11
549.7571089299086
 21
-478.5555675969015
 31
0.0
100
AcDbText
  0
TEXT
  5
1DB9D
330
18
100
AcDbEntity
  8
1TEXT
100
AcDbText
 10
606.1571089299088
 20
-478.9346359210265
 30
0.0
 40
4.0
  1
SE-171-XC
 41
0.85
 72
     1
 11
619.7571089299088
 21
-478.9346359210265
 31
0.0
100
AcDbText
  0
LINE
  5
1DB9E
330
18
100
AcDbEntity
  8
1DIM
100
AcDbLine
 10
532.3571089299085
 20
-487.2202789373773
 30
0.0
 11
637.357108929908
 21
-487.2202789373773
 31
0.0
  0
TEXT
  5
1DB9F
330
18
100
AcDbEntity
  8
1TEXT
100
AcDbText
 10
533.2237755965753
 20
-485.5555675969015
 30
0.0
 40
4.0
  1
サテンニッケル
 72
     1
 11
549.7571089299086
 21
-485.5555675969015
 31
0.0
100
AcDbText
  0
LINE
  5
1DBA5
102
{ACAD_REACTORS
330
1EDFD
102
}
330
18
100
AcDbEntity
  8
01
100
AcDbLine
 10
764.516241615365
 20
-605.5394178870458
 30
0.0
 11
764.516241615365
 21
-679.9957650576096
 31
0.0
  0
TEXT
  5
1EE4F
330
18
100
AcDbEntity
  8
1TEXT
100
AcDbText
 10
606.1571089299088
 20
-485.9346359210265
 30
0.0
 40
4.0
  1
SE-171-NT
 41
0.85
 72
     1
 11
619.7571089299088
 21
-485.9346359210265
 31
0.0
100
AcDbText
  0
LINE
  5
211C5
330
18
100
AcDbEntity
  8
1DIM
100
AcDbLine
 10
532.3571089299085
 20
-494.2202789373773
 30
0.0
 11
637.357108929908
 21
-494.2202789373773
 31
0.0
  0
TEXT
  5
211C6
330
18
100
AcDbEntity
  8
1TEXT
100
AcDbText
 10
533.4904422632419
 20
-492.5555675969015
 30
0.0
 40
4.0
  1
マットブラック
 72
     1
 11
549.7571089299086
 21
-492.5555675969015
 31
0.0
100
AcDbText
  0
TEXT
  5
211C7
330
18
100
AcDbEntity
  8
1TEXT
100
AcDbText
 10
605.0237755965754
 20
-492.9346359210265
 30
0.0
 40
4.0
  1
SE-171-003
 41
0.85
 72
     1
 11
619.7571089299088
 21
-492.9346359210265
 31
0.0
100
AcDbText
  0
LINE
  5
21608
330
18
100
AcDbEntity
  8
01
100
AcDbLine
 10
743.016241615365
 20
-650.6713303512659
 30
0.0
 11
743.016241615365
 21
-672.8213303512673
 31
0.0
  0
LINE
  5
21609
330
18
100
AcDbEntity
  8
01
100
AcDbLine
 10
743.016241615365
 20
-653.1713303512665
 30
0.0
 11
743.016241615365
 21
-670.8213303512659
 31
0.0
  0
LINE
  5
21618
330
18
100
AcDbEntity
  8
01
100
AcDbLine
 10
755.516241615365
 20
-605.5394178870458
 30
0.0
 11
755.516241615365
 21
-679.9957650576096
 31
0.0
  0
LINE
  5
2161A
330
18
100
AcDbEntity
  8
01
100
AcDbLine
 10
743.016241615365
 20
-605.5394178870458
 30
0.0
 11
743.016241615365
 21
-679.9957650576096
 31
0.0
  0
LINE
  5
21624
330
18
100
AcDbEntity
  8
01
100
AcDbLine
 10
629.766249329551
 20
-539.8213303512664
 30
0.0
 11
628.766249629551
 21
-538.8213303512664
 31
0.0
  0
LINE
  5
21625
330
18
100
AcDbEntity
  8
01
100
AcDbLine
 10
633.066249479551
 20
-539.8213303512664
 30
0.0
 11
633.066249479551
 21
-538.8213303512664
 31
0.0
  0
LINE
  5
21626
330
18
100
AcDbEntity
  8
01
100
AcDbLine
 10
633.066249479551
 20
-538.8213303512664
 30
0.0
 11
625.466249479551
 21
-538.8213303512664
 31
0.0
  0
LINE
  5
21627
330
18
100
AcDbEntity
  8
01
100
AcDbLine
 10
633.066249479551
 20
-539.8213303512664
 30
0.0
 11
625.466249479551
 21
-539.8213303512664
 31
0.0
  0
LINE
  5
21628
330
18
100
AcDbEntity
  8
01
100
AcDbLine
 10
625.466249479551
 20
-539.8213303512664
 30
0.0
 11
625.466249479551
 21
-538.8213303512664
 31
0.0
  0
LINE
  5
2162A
330
18
100
AcDbEntity
  8
01
100
AcDbLine
 10
179.7662524663948
 20
-539.8213291369386
 30
0.0
 11
178.7662527663948
 21
-538.8213291369386
 31
0.0
  0
LINE
  5
2162B
330
18
100
AcDbEntity
  8
01
100
AcDbLine
 10
183.0662526163948
 20
-539.8213291369386
 30
0.0
 11
183.0662526163948
 21
-538.8213291369386
 31
0.0
  0
LINE
  5
2162C
330
18
100
AcDbEntity
  8
01
100
AcDbLine
 10
183.0662526163948
 20
-538.8213291369386
 30
0.0
 11
175.4662526163949
 21
-538.8213291369386
 31
0.0
  0
LINE
  5
2162D
330
18
100
AcDbEntity
  8
01
100
AcDbLine
 10
183.0662526163948
 20
-539.8213291369386
 30
0.0
 11
175.4662526163949
 21
-539.8213291369386
 31
0.0
  0
LINE
  5
2162E
330
18
100
AcDbEntity
  8
01
100
AcDbLine
 10
175.4662526163949
 20
-539.8213291369386
 30
0.0
 11
175.4662526163949
 21
-538.8213291369386
 31
0.0
  0
LINE
  5
21630
330
18
100
AcDbEntity
  8
01
100
AcDbLine
 10
739.016241615365
 20
-641.8215697249707
 30
0.0
 11
740.016241615365
 21
-640.8215700249707
 31
0.0
  0
LINE
  5
21631
330
18
100
AcDbEntity
  8
01
100
AcDbLine
 10
739.016241615365
 20
-645.1215698749706
 30
0.0
 11
740.016241615365
 21
-645.1215698749706
 31
0.0
  0
LINE
  5
21632
330
18
100
AcDbEntity
  8
01
100
AcDbLine
 10
740.016241615365
 20
-645.1215698749706
 30
0.0
 11
740.016241615365
 21
-637.5215698749707
 31
0.0
  0
LINE
  5
21633
330
18
100
AcDbEntity
  8
01
100
AcDbLine
 10
739.016241615365
 20
-645.1215698749706
 30
0.0
 11
739.016241615365
 21
-637.5215698749707
 31
0.0
  0
LINE
  5
21634
330
18
100
AcDbEntity
  8
01
100
AcDbLine
 10
739.016241615365
 20
-637.5215698749707
 30
0.0
 11
740.016241615365
 21
-637.5215698749707
 31
0.0
  0
LINE
  5
21637
330
18
100
AcDbEntity
  8
01
100
AcDbLine
 10
723.2662416153648
 20
-654.3215626909025
 30
0.0
 11
743.016241615365
 21
-654.3215698718666
 31
0.0
  0
LINE
  5
21638
330
18
100
AcDbEntity
  8
01
100
AcDbLine
 10
743.016241615365
 20
-630.3215698718664
 30
0.0
 11
743.016241615365
 21
-654.3215698718666
 31
0.0
  0
ARC
  5
21639
330
18
100
AcDbEntity
  8
01
100
AcDbCircle
 10
722.0516652649931
 20
-656.0321212164733
 30
0.0
 40
2.086652466974475
100
AcDbArc
 50
68.89790146739104
 51
128.2266529253989
  0
ARC
  5
2163A
330
18
100
AcDbEntity
  8
01
100
AcDbCircle
 10
716.6966591503297
 20
-666.6375091645901
 30
0.0
 40
13.95857984565889
100
AcDbArc
 50
61.92360993264958
 51
64.05831855587611
  0
ARC
  5
2163B
330
18
100
AcDbEntity
  8
01
100
AcDbCircle
 10
616.5162457871521
 20
-662.8404792604036
 30
0.0
 40
1.00000103480239
100
AcDbArc
 50
179.9999407148185
 51
269.9999407102719
  0
ARC
  5
2163C
330
18
100
AcDbEntity
  8
01
100
AcDbCircle
 10
616.5162453502666
 20
-629.8026600462621
 30
0.0
 40
1.000000597917524
100
AcDbArc
 50
90.00003566485634
 51
180.0000843697568
  0
ARC
  5
2163D
330
18
100
AcDbEntity
  8
01
100
AcDbCircle
 10
642.0162410174496
 20
-629.8026600462613
 30
0.0
 40
1.000000597916775
100
AcDbArc
 50
359.9999156301976
 51
89.99996574197512
  0
LINE
  5
2163E
330
18
100
AcDbEntity
  8
01
100
AcDbLine
 10
643.0162416153653
 20
-662.8351754989345
 30
0.0
 11
643.0162416153653
 21
-662.8297587983703
 31
0.0
  0
LINE
  5
2163F
330
18
100
AcDbEntity
  8
01
100
AcDbLine
 10
643.0162416153653
 20
-662.839803074843
 30
0.0
 11
643.0162416153653
 21
-662.8392877475148
 31
0.0
  0
ARC
  5
21640
330
18
100
AcDbEntity
  8
01
100
AcDbCircle
 10
642.0162405805631
 20
-662.8404792604035
 30
0.0
 40
1.000001034802589
100
AcDbArc
 50
270.0000592897412
 51
0.0000592851750235
  0
LINE
  5
21641
330
18
100
AcDbEntity
  8
01
100
AcDbLine
 10
642.0323762510918
 20
-663.8403501069346
 30
0.0
 11
616.516247340657
 21
-663.8403501069346
 31
0.0
  0
LINE
  5
21642
330
18
100
AcDbEntity
  8
01
100
AcDbLine
 10
616.5162447523501
 20
-628.802789636796
 30
0.0
 11
642.0323766956069
 21
-628.802789636796
 31
0.0
  0
LINE
  5
21643
330
18
100
AcDbEntity
  8
01
100
AcDbLine
 10
615.51624475235
 20
-629.8026600462621
 30
0.0
 11
615.5162447523502
 21
-662.8404792604036
 31
0.0
  0
LINE
  5
21644
330
18
100
AcDbEntity
  8
01
100
AcDbLine
 10
643.0162416153652
 20
-662.8297587983712
 30
0.0
 11
643.0162416153653
 21
-629.8026600462613
 31
0.0
  0
LINE
  5
21645
330
18
100
AcDbEntity
  8
01
100
AcDbLine
 10
643.0162416153652
 20
-662.8400427642275
 30
0.0
 11
643.0162416153652
 21
-662.8351754992358
 31
0.0
  0
LINE
  5
21646
330
18
100
AcDbEntity
  8
01
100
AcDbLine
 10
629.2662416232799
 20
-628.8033755992238
 30
0.0
 11
629.2662416253079
 21
-628.8027925900074
 31
0.0
  0
LINE
  5
21647
330
18
100
AcDbEntity
  8
01
100
AcDbLine
 10
629.2662416253079
 20
-628.8027925900074
 30
0.0
 11
629.2662416273477
 21
-628.803225679671
 31
0.0
  0
ARC
  5
21648
330
18
100
AcDbEntity
  8
01
100
AcDbCircle
 10
616.5162984435129
 20
-593.2470478417914
 30
0.0
 40
1.000045831131242
100
AcDbArc
 50
179.9973746917229
 51
269.9973742501091
  0
LINE
  5
21649
330
18
100
AcDbEntity
  8
01
100
AcDbLine
 10
615.5162526134316
 20
-593.1860198281234
 30
0.0
 11
615.5162526134316
 21
-593.246326589131
 31
0.0
  0
LINE
  5
2164A
330
18
100
AcDbEntity
  8
01
100
AcDbLine
 10
615.5162526134317
 20
-536.8213228686709
 30
0.0
 11
615.5162526134317
 21
-536.8262440491837
 31
0.0
  0
ARC
  5
2164B
330
18
100
AcDbEntity
  8
01
100
AcDbCircle
 10
616.5162984901152
 20
-536.8212386096336
 30
0.0
 40
1.000045877735605
100
AcDbArc
 50
90.00263019743781
 51
180.002627979221
  0
ARC
  5
2164C
330
18
100
AcDbEntity
  8
01
100
AcDbCircle
 10
642.0162028834394
 20
-536.8212371773895
 30
0.0
 40
1.000046594092429
100
AcDbArc
 50
359.9973309965909
 51
89.99732865776572
  0
LINE
  5
2164D
330
18
100
AcDbEntity
  8
01
100
AcDbLine
 10
643.0162494764465
 20
-593.247002744442
 30
0.0
 11
643.0162494764467
 21
-593.1860198281234
 31
0.0
  0
ARC
  5
2164E
330
18
100
AcDbEntity
  8
01
100
AcDbCircle
 10
642.016202921121
 20
-593.2470492917528
 30
0.0
 40
1.000046556408801
100
AcDbArc
 50
270.0026672994875
 51
0.0026668402877084
  0
LINE
  5
2164F
330
18
100
AcDbEntity
  8
01
100
AcDbLine
 10
629.2662502458128
 20
-594.246956193472
 30
0.0
 11
616.5162552149204
 21
-594.246956193472
 31
0.0
  0
LINE
  5
21650
330
18
100
AcDbEntity
  8
01
100
AcDbLine
 10
616.5162526134316
 20
-535.8213303512663
 30
0.0
 11
616.7662526134313
 21
-535.8213303512664
 31
0.0
  0
LINE
  5
21651
330
18
100
AcDbEntity
  8
01
100
AcDbLine
 10
641.7662494764469
 20
-535.8213303512663
 30
0.0
 11
642.016249508609
 21
-535.8213303512663
 31
0.0
  0
LINE
  5
21652
330
18
100
AcDbEntity
  8
01
100
AcDbLine
 10
642.0162468749572
 20
-594.246956193472
 30
0.0
 11
629.2662502458128
 21
-594.246956193472
 31
0.0
  0
LINE
  5
21653
330
18
100
AcDbEntity
  8
01
100
AcDbLine
 10
615.5162526134317
 20
-536.826244049184
 30
0.0
 11
615.5162526134314
 21
-593.2470478417914
 31
0.0
  0
LINE
  5
21654
330
18
100
AcDbEntity
  8
01
100
AcDbLine
 10
643.0162494764467
 20
-593.1860198281217
 30
0.0
 11
643.0162494764468
 21
-536.821322326691
 31
0.0
  0
LINE
  5
21655
330
18
100
AcDbEntity
  8
01
100
AcDbLine
 10
629.2662494764467
 20
-535.8213303512664
 30
0.0
 11
616.7662526134313
 21
-535.8213303512664
 31
0.0
  0
LINE
  5
21656
330
18
100
AcDbEntity
  8
01
100
AcDbLine
 10
629.2662494764467
 20
-535.8213303512664
 30
0.0
 11
641.7662494764469
 21
-535.8213303512664
 31
0.0
  0
ARC
  5
21657
330
18
100
AcDbEntity
  8
01
100
AcDbCircle
 10
739.9970136330046
 20
-691.689773796285
 30
0.0
 40
62.8870060075534
100
AcDbArc
 50
88.58187839364045
 51
150.6394662720937
  0
ARC
  5
21658
330
18
100
AcDbEntity
  8
01
100
AcDbCircle
 10
687.6091448346859
 20
-600.951900307305
 30
0.0
 40
62.88853780351035
100
AcDbArc
 50
269.3617030208231
 51
331.41756382197
  0
ARC
  5
21659
330
18
100
AcDbEntity
  8
01
100
AcDbCircle
 10
686.93083717971
 20
-661.8366597679017
 30
0.0
 40
1.999999999999982
100
AcDbArc
 50
150.6394662720921
 51
269.3617030208257
  0
ARC
  5
2165A
330
18
100
AcDbEntity
  8
01
100
AcDbCircle
 10
741.516241615365
 20
-630.3215698718664
 30
0.0
 40
1.500000000000008
100
AcDbArc
 50
331.417563821967
 51
88.58187839363885
  0
LINE
  5
2165B
330
18
100
AcDbEntity
  8
1CENTER
100
AcDbLine
 10
745.0725160654721
 20
-641.3215698718664
 30
0.0
 11
736.6534034492203
 21
-641.3215698718664
 31
0.0
  0
LINE
  5
2165C
330
18
100
AcDbEntity
  8
01
100
AcDbLine
 10
193.0162447523499
 20
-629.8026600462654
 30
0.0
 11
193.0162447523501
 21
-662.8404792604069
 31
0.0
  0
ARC
  5
2165D
330
18
100
AcDbEntity
  8
01
100
AcDbCircle
 10
166.516248924137
 20
-662.8511997224393
 30
0.0
 40
1.00000103480239
100
AcDbArc
 50
179.999940714825
 51
269.9999407102719
  0
ARC
  5
2165E
330
18
100
AcDbEntity
  8
01
100
AcDbCircle
 10
166.5162484872514
 20
-629.8133805082978
 30
0.0
 40
1.000000597917524
100
AcDbArc
 50
90.0000356648547
 51
180.0000843697633
  0
ARC
  5
2165F
330
18
100
AcDbEntity
  8
01
100
AcDbCircle
 10
192.0162441544345
 20
-629.8133805082971
 30
0.0
 40
1.000000597916775
100
AcDbArc
 50
359.9999156301976
 51
89.99996574197188
  0
LINE
  5
21660
330
18
100
AcDbEntity
  8
01
100
AcDbLine
 10
193.0162447523502
 20
-662.8458959609702
 30
0.0
 11
193.0162447523502
 21
-662.840479260406
 31
0.0
  0
LINE
  5
21661
330
18
100
AcDbEntity
  8
01
100
AcDbLine
 10
193.0162447523502
 20
-662.8505235368787
 30
0.0
 11
193.0162447523502
 21
-662.8500082095507
 31
0.0
  0
ARC
  5
21662
330
18
100
AcDbEntity
  8
01
100
AcDbCircle
 10
192.0162437175481
 20
-662.8511997224393
 30
0.0
 40
1.000001034802589
100
AcDbArc
 50
270.0000592897379
 51
0.0000592851750235
  0
LINE
  5
21663
330
18
100
AcDbEntity
  8
01
100
AcDbLine
 10
192.0323793880768
 20
-663.8510705689703
 30
0.0
 11
166.5162504776418
 21
-663.8510705689703
 31
0.0
  0
LINE
  5
21664
330
18
100
AcDbEntity
  8
01
100
AcDbLine
 10
166.516247889335
 20
-628.8135100988318
 30
0.0
 11
192.0323798325918
 21
-628.8135100988318
 31
0.0
  0
LINE
  5
21665
330
18
100
AcDbEntity
  8
01
100
AcDbLine
 10
165.5162478893348
 20
-629.8133805082978
 30
0.0
 11
165.5162478893351
 21
-662.8511997224393
 31
0.0
  0
LINE
  5
21666
330
18
100
AcDbEntity
  8
01
100
AcDbLine
 10
193.0162447523501
 20
-662.8507632262633
 30
0.0
 11
193.0162447523501
 21
-662.8458959612715
 31
0.0
  0
LINE
  5
21667
330
18
100
AcDbEntity
  8
01
100
AcDbLine
 10
179.2662447602648
 20
-628.8140960612595
 30
0.0
 11
179.2662447622928
 21
-628.8135130520432
 31
0.0
  0
LINE
  5
21668
330
18
100
AcDbEntity
  8
01
100
AcDbLine
 10
179.2662447622928
 20
-628.8135130520432
 30
0.0
 11
179.2662447643325
 21
-628.8139461417068
 31
0.0
  0
ARC
  5
21669
330
18
100
AcDbEntity
  8
01
100
AcDbCircle
 10
166.5163015804979
 20
-593.2577683038273
 30
0.0
 40
1.000045831131242
100
AcDbArc
 50
179.9973746917229
 51
269.9973742501058
  0
LINE
  5
2166A
330
18
100
AcDbEntity
  8
01
100
AcDbLine
 10
165.5162557504165
 20
-593.1967402901594
 30
0.0
 11
165.5162557504165
 21
-593.2570470511669
 31
0.0
  0
LINE
  5
2166B
330
18
100
AcDbEntity
  8
01
100
AcDbLine
 10
165.5162557504165
 20
-536.8320433307067
 30
0.0
 11
165.5162557504166
 21
-536.8369645112195
 31
0.0
  0
ARC
  5
2166C
330
18
100
AcDbEntity
  8
01
100
AcDbCircle
 10
166.5163016271001
 20
-536.8319590716694
 30
0.0
 40
1.000045877735605
100
AcDbArc
 50
90.00263019744106
 51
180.0026279792276
  0
ARC
  5
2166D
330
18
100
AcDbEntity
  8
01
100
AcDbCircle
 10
192.0162060204243
 20
-536.8319576394254
 30
0.0
 40
1.000046594092429
100
AcDbArc
 50
359.9973309965844
 51
89.99732865776572
  0
LINE
  5
2166E
330
18
100
AcDbEntity
  8
01
100
AcDbLine
 10
193.0162526134314
 20
-593.257723206478
 30
0.0
 11
193.0162526134316
 21
-593.1967402901594
 31
0.0
  0
ARC
  5
2166F
330
18
100
AcDbEntity
  8
01
100
AcDbCircle
 10
192.016206058106
 20
-593.2577697537886
 30
0.0
 40
1.000046556408801
100
AcDbArc
 50
270.0026672994875
 51
0.0026668402877084
  0
LINE
  5
21670
330
18
100
AcDbEntity
  8
01
100
AcDbLine
 10
179.2662533827977
 20
-594.2576766555078
 30
0.0
 11
166.5162583519053
 21
-594.2576766555078
 31
0.0
  0
LINE
  5
21671
330
18
100
AcDbEntity
  8
01
100
AcDbLine
 10
166.5162557504165
 20
-535.8320508133022
 30
0.0
 11
166.7662557504162
 21
-535.8320508133022
 31
0.0
  0
LINE
  5
21672
330
18
100
AcDbEntity
  8
01
100
AcDbLine
 10
191.7662526134318
 20
-535.8320508133022
 30
0.0
 11
192.0162526455939
 21
-535.8320508133022
 31
0.0
  0
LINE
  5
21673
330
18
100
AcDbEntity
  8
01
100
AcDbLine
 10
192.0162500119422
 20
-594.2576766555078
 30
0.0
 11
179.2662533827977
 21
-594.2576766555078
 31
0.0
  0
LINE
  5
21674
330
18
100
AcDbEntity
  8
01
100
AcDbLine
 10
165.5162557504165
 20
-587.8576715595541
 30
0.0
 11
165.5162557504165
 21
-593.1967402901594
 31
0.0
  0
LINE
  5
21675
330
18
100
AcDbEntity
  8
01
100
AcDbLine
 10
165.5162557504165
 20
-536.8369645112198
 30
0.0
 11
165.5162557504163
 21
-593.2577683038273
 31
0.0
  0
LINE
  5
21676
330
18
100
AcDbEntity
  8
01
100
AcDbLine
 10
193.0162526134316
 20
-593.1967402901575
 30
0.0
 11
193.0162526134317
 21
-536.8320427887268
 31
0.0
  0
LINE
  5
21677
330
18
100
AcDbEntity
  8
01
100
AcDbLine
 10
179.2662526134316
 20
-535.8320508133022
 30
0.0
 11
166.7662557504163
 21
-535.8320508133022
 31
0.0
  0
LINE
  5
21678
330
18
100
AcDbEntity
  8
01
100
AcDbLine
 10
179.2662526134316
 20
-535.8320508133022
 30
0.0
 11
191.7662526134318
 21
-535.8320508133022
 31
0.0
  0
LINE
  5
21679
330
18
100
AcDbEntity
  8
01
100
AcDbLine
 10
615.5162447523501
 20
-662.4700321328235
 30
0.0
 11
193.0162447523501
 21
-662.4700321328235
 31
0.0
  0
LINE
  5
2167A
330
18
100
AcDbEntity
  8
01
100
AcDbLine
 10
615.5162447523501
 20
-649.170712404932
 30
0.0
 11
193.01624475235
 21
-649.170712404932
 31
0.0
  0
LINE
  5
2167B
330
18
100
AcDbEntity
  8
01
100
AcDbLine
 10
615.5162526134314
 20
-590.5904901486035
 30
0.0
 11
193.0162526134315
 21
-590.5904901486035
 31
0.0
  0
LINE
  5
2167C
330
18
100
AcDbEntity
  8
01
100
AcDbLine
 10
615.5162526134316
 20
-572.3859320162542
 30
0.0
 11
193.0162526134317
 21
-572.3859320162542
 31
0.0
  0
CIRCLE
  5
2167E
330
18
100
AcDbEntity
  8
1PHANTOM
100
AcDbCircle
 10
629.2662418948566
 20
-641.3215692317583
 30
0.0
 40
2.25
  0
LINE
  5
2167F
330
18
100
AcDbEntity
  8
1CENTER
100
AcDbLine
 10
629.2662419429378
 20
-638.2002548657244
 30
0.0
 11
629.2662419429378
 21
-644.4428835977922
 31
0.0
  0
CIRCLE
  5
21680
330
18
100
AcDbEntity
  8
1PHANTOM
100
AcDbCircle
 10
179.2662476098434
 20
-641.3215692317588
 30
0.0
 40
2.249999999999999
  0
LINE
  5
21681
330
18
100
AcDbEntity
  8
1CENTER
100
AcDbLine
 10
179.2662476579243
 20
-644.4428835977926
 30
0.0
 11
179.2662476579243
 21
-638.2002548657249
 31
0.0
  0
ARC
  5
2168B
330
18
100
AcDbEntity
  8
1PHANTOM
100
AcDbCircle
 10
741.0162419501625
 20
-633.0715702066639
 30
0.0
 40
1.000000334797533
100
AcDbArc
 50
90.00001918247763
 51
179.9999805450773
  0
ARC
  5
2168C
330
18
100
AcDbEntity
  8
1PHANTOM
100
AcDbCircle
 10
739.5162415337105
 20
-650.8215699535206
 30
0.0
 40
0.5000000816542713
100
AcDbArc
 50
0.0000099618286523
 51
89.99999064310562
  0
LINE
  5
2168D
330
18
100
AcDbEntity
  8
1PHANTOM
100
AcDbLine
 10
740.0162416153648
 20
-650.8215698665872
 30
0.0
 11
740.0162416153648
 21
-651.0716250554253
 31
0.0
  0
ARC
  5
2168E
330
18
100
AcDbEntity
  8
1PHANTOM
100
AcDbCircle
 10
741.0162128659716
 20
-651.0716367924538
 30
0.0
 40
0.9999712506757286
100
AcDbArc
 50
179.9993274984721
 51
270.0016472662589
  0
LINE
  5
2168F
330
18
100
AcDbEntity
  8
1PHANTOM
100
AcDbLine
 10
741.016241615365
 20
-652.0716080427162
 30
0.0
 11
743.0162416153648
 21
-652.0715698718666
 31
0.0
  0
ARC
  5
21690
330
18
100
AcDbEntity
  8
1PHANTOM
100
AcDbCircle
 10
715.0162426009618
 20
-649.3215688863972
 30
0.0
 40
1.0000009854696
100
AcDbArc
 50
179.9999435192474
 51
270.0
  0
ARC
  5
21691
330
18
100
AcDbEntity
  8
1PHANTOM
100
AcDbCircle
 10
715.0162427551116
 20
-647.3215710114523
 30
0.0
 40
1.000001139586578
100
AcDbArc
 50
90.0
 51
180.0000419113848
  0
LINE
  5
21692
330
18
100
AcDbEntity
  8
1PHANTOM
100
AcDbLine
 10
714.0162416155252
 20
-647.3215718484923
 30
0.0
 11
714.0162416154927
 21
-649.3215679006212
 31
0.0
  0
LINE
  5
21693
330
18
100
AcDbEntity
  8
1PHANTOM
100
AcDbLine
 10
715.0162427551116
 20
-646.3215698718664
 30
0.0
 11
740.0162416153648
 21
-646.3215698718664
 31
0.0
  0
LINE
  5
21694
330
18
100
AcDbEntity
  8
1PHANTOM
100
AcDbLine
 10
743.016241615365
 20
-632.0715698718664
 30
0.0
 11
741.016241615365
 21
-632.0715698718664
 31
0.0
  0
LINE
  5
21695
330
18
100
AcDbEntity
  8
1PHANTOM
100
AcDbLine
 10
740.0162416153648
 20
-633.0715698671113
 30
0.0
 11
740.0162416153648
 21
-646.3215698718664
 31
0.0
  0
LINE
  5
21696
330
18
100
AcDbEntity
  8
1PHANTOM
100
AcDbLine
 10
715.0162426009618
 20
-650.3215698718664
 30
0.0
 11
739.5162416153648
 21
-650.3215698718664
 31
0.0
  0
LINE
  5
21697
330
18
100
AcDbEntity
  8
1PHANTOM
100
AcDbLine
 10
743.0162416153651
 20
-632.0715698718664
 30
0.0
 11
743.0162416153648
 21
-652.0715698718666
 31
0.0
  0
ARC
  5
21698
330
18
100
AcDbEntity
  8
1PHANTOM
100
AcDbCircle
 10
634.1560179907261
 20
-563.821330347881
 30
0.0
 40
1.000000002020284
100
AcDbArc
 50
270.0017375295552
 51
359.9999998054465
  0
ARC
  5
21699
330
18
100
AcDbEntity
  8
1PHANTOM
100
AcDbCircle
 10
624.3764809621609
 20
-563.8213303478935
 30
0.0
 40
1.000000002012906
100
AcDbArc
 50
180.0000017689071
 51
269.9982552736603
  0
ARC
  5
2169A
330
18
100
AcDbEntity
  8
1PHANTOM
100
AcDbCircle
 10
638.2809145094656
 20
-537.8210969240215
 30
0.0
 40
1.000233454432361
100
AcDbArc
 50
269.986641069435
 51
359.9866287271146
  0
ARC
  5
2169B
330
18
100
AcDbEntity
  8
1PHANTOM
100
AcDbCircle
 10
620.2515844435402
 20
-537.8210969239256
 30
0.0
 40
1.000233454528296
100
AcDbArc
 50
180.0133712799889
 51
270.0133589290984
  0
LINE
  5
2169C
330
18
100
AcDbEntity
  8
1PHANTOM
100
AcDbLine
 10
635.1560179942438
 20
-548.8213303512664
 30
0.0
 11
635.1560179942438
 21
-563.8213303512664
 31
0.0
  0
LINE
  5
2169D
330
18
100
AcDbEntity
  8
1PHANTOM
100
AcDbLine
 10
638.1361190088882
 20
-538.8213303512663
 30
0.0
 11
638.1096784959218
 21
-538.8453328949025
 31
0.0
  0
LINE
  5
2169E
330
18
100
AcDbEntity
  8
1PHANTOM
100
AcDbLine
 10
638.1096784959218
 20
-538.8453328949025
 30
0.0
 11
638.0840333318356
 21
-538.8701834157406
 31
0.0
  0
LINE
  5
2169F
330
18
100
AcDbEntity
  8
1PHANTOM
100
AcDbLine
 10
638.131141683239
 20
-538.8213303512664
 30
0.0
 11
638.0439236736513
 21
-538.9117785821801
 31
0.0
  0
LINE
  5
216A0
330
18
100
AcDbEntity
  8
1PHANTOM
100
AcDbLine
 10
638.0439236736513
 20
-538.9117785821801
 30
0.0
 11
638.0048049204953
 21
-538.9543292649784
 31
0.0
  0
LINE
  5
216A1
330
18
100
AcDbEntity
  8
1PHANTOM
100
AcDbLine
 10
638.0048049204953
 20
-538.9543292649784
 30
0.0
 11
637.9667107901442
 21
-538.9977996536109
 31
0.0
  0
LINE
  5
216A2
330
18
100
AcDbEntity
  8
1PHANTOM
100
AcDbLine
 10
637.9667107901442
 20
-538.9977996536109
 30
0.0
 11
637.9296732568938
 21
-539.0421523725976
 31
0.0
  0
LINE
  5
216A3
330
18
100
AcDbEntity
  8
1PHANTOM
100
AcDbLine
 10
637.9296732568938
 20
-539.0421523725976
 30
0.0
 11
637.8761187418826
 21
-539.1088889200046
 31
0.0
  0
LINE
  5
216A4
330
18
100
AcDbEntity
  8
1PHANTOM
100
AcDbLine
 10
637.8761187418826
 20
-539.1088889200046
 30
0.0
 11
637.8198438250023
 21
-539.1824153636902
 31
0.0
  0
LINE
  5
216A5
330
18
100
AcDbEntity
  8
1PHANTOM
100
AcDbLine
 10
637.8198438250023
 20
-539.1824153636902
 30
0.0
 11
637.7611424660984
 21
-539.2624728611833
 31
0.0
  0
LINE
  5
216A6
330
18
100
AcDbEntity
  8
1PHANTOM
100
AcDbLine
 10
637.7611424660984
 20
-539.2624728611833
 30
0.0
 11
637.7003086250159
 21
-539.3488025700126
 31
0.0
  0
LINE
  5
216A7
330
18
100
AcDbEntity
  8
1PHANTOM
100
AcDbLine
 10
637.7003086250159
 20
-539.3488025700126
 30
0.0
 11
637.5734193356964
 21
-539.539243251795
 31
0.0
  0
LINE
  5
216A8
330
18
100
AcDbEntity
  8
1PHANTOM
100
AcDbLine
 10
637.5734193356964
 20
-539.539243251795
 30
0.0
 11
637.4415276358055
 21
-539.7516666692682
 31
0.0
  0
LINE
  5
216A9
330
18
100
AcDbEntity
  8
1PHANTOM
100
AcDbLine
 10
637.4415276358055
 20
-539.7516666692682
 30
0.0
 11
637.3069582719867
 21
-539.9840830025082
 31
0.0
  0
LINE
  5
216AA
330
18
100
AcDbEntity
  8
1PHANTOM
100
AcDbLine
 10
637.3069582719867
 20
-539.9840830025082
 30
0.0
 11
637.1777526977991
 21
-540.2196049770272
 31
0.0
  0
LINE
  5
216AB
330
18
100
AcDbEntity
  8
1PHANTOM
100
AcDbLine
 10
637.1777526977991
 20
-540.2196049770272
 30
0.0
 11
637.0540162663021
 21
-540.4580456958712
 31
0.0
  0
LINE
  5
216AC
330
18
100
AcDbEntity
  8
1PHANTOM
100
AcDbLine
 10
637.0540162663021
 20
-540.4580456958712
 30
0.0
 11
636.9358455964294
 21
-540.6992136009027
 31
0.0
  0
LINE
  5
216AD
330
18
100
AcDbEntity
  8
1PHANTOM
100
AcDbLine
 10
636.9358455964294
 20
-540.6992136009027
 30
0.0
 11
636.7979530512263
 21
-540.995793671734
 31
0.0
  0
LINE
  5
216AE
330
18
100
AcDbEntity
  8
1PHANTOM
100
AcDbLine
 10
636.7979530512263
 20
-540.995793671734
 30
0.0
 11
636.6661052767905
 21
-541.2951842106588
 31
0.0
  0
LINE
  5
216AF
330
18
100
AcDbEntity
  8
1PHANTOM
100
AcDbLine
 10
636.6661052767905
 20
-541.2951842106588
 30
0.0
 11
636.5403863037818
 21
-541.5971995583599
 31
0.0
  0
LINE
  5
216B0
330
18
100
AcDbEntity
  8
1PHANTOM
100
AcDbLine
 10
636.5403863037818
 20
-541.5971995583599
 30
0.0
 11
636.4208725281566
 21
-541.9016507857717
 31
0.0
  0
LINE
  5
216B1
330
18
100
AcDbEntity
  8
1PHANTOM
100
AcDbLine
 10
636.4208725281566
 20
-541.9016507857717
 30
0.0
 11
636.2887127973714
 21
-542.2589761224003
 31
0.0
  0
LINE
  5
216B2
330
18
100
AcDbEntity
  8
1PHANTOM
100
AcDbLine
 10
636.2887127973714
 20
-542.2589761224003
 30
0.0
 11
636.1638692332971
 21
-542.6190074037906
 31
0.0
  0
LINE
  5
216B3
330
18
100
AcDbEntity
  8
1PHANTOM
100
AcDbLine
 10
636.1638692332971
 20
-542.6190074037906
 30
0.0
 11
636.0464226327044
 21
-542.9815191071598
 31
0.0
  0
LINE
  5
216B4
330
18
100
AcDbEntity
  8
1PHANTOM
100
AcDbLine
 10
636.0464226327044
 20
-542.9815191071598
 30
0.0
 11
635.9364444934497
 21
-543.3462825915219
 31
0.0
  0
LINE
  5
216B5
330
18
100
AcDbEntity
  8
1PHANTOM
100
AcDbLine
 10
635.9364444934497
 20
-543.3462825915219
 30
0.0
 11
635.8204825043471
 21
-543.7622119393254
 31
0.0
  0
LINE
  5
216B6
330
18
100
AcDbEntity
  8
1PHANTOM
100
AcDbLine
 10
635.8204825043471
 20
-543.7622119393254
 30
0.0
 11
635.7136861723694
 21
-544.1806966918804
 31
0.0
  0
LINE
  5
216B7
330
18
100
AcDbEntity
  8
1PHANTOM
100
AcDbLine
 10
635.7136861723694
 20
-544.1806966918804
 30
0.0
 11
635.6161366180064
 21
-544.6014329858797
 31
0.0
  0
LINE
  5
216B8
330
18
100
AcDbEntity
  8
1PHANTOM
100
AcDbLine
 10
635.6161366180064
 20
-544.6014329858797
 30
0.0
 11
635.5279014972881
 21
-545.0241136794922
 31
0.0
  0
LINE
  5
216B9
330
18
100
AcDbEntity
  8
1PHANTOM
100
AcDbLine
 10
635.5279014972881
 20
-545.0241136794922
 30
0.0
 11
635.4425339520687
 21
-545.4856101831965
 31
0.0
  0
LINE
  5
216BA
330
18
100
AcDbEntity
  8
1PHANTOM
100
AcDbLine
 10
635.4425339520687
 20
-545.4856101831965
 30
0.0
 11
635.3681582397088
 21
-545.9491399542844
 31
0.0
  0
LINE
  5
216BB
330
18
100
AcDbEntity
  8
1PHANTOM
100
AcDbLine
 10
635.3681582397088
 20
-545.9491399542844
 30
0.0
 11
635.3048423158649
 21
-546.4143094815124
 31
0.0
  0
LINE
  5
216BC
330
18
100
AcDbEntity
  8
1PHANTOM
100
AcDbLine
 10
635.3048423158649
 20
-546.4143094815124
 30
0.0
 11
635.2526353246177
 21
-546.8807224645788
 31
0.0
  0
LINE
  5
216BD
330
18
100
AcDbEntity
  8
1PHANTOM
100
AcDbLine
 10
635.2526353246177
 20
-546.8807224645788
 30
0.0
 11
635.2104085510409
 21
-547.3647493796623
 31
0.0
  0
LINE
  5
216BE
330
18
100
AcDbEntity
  8
1PHANTOM
100
AcDbLine
 10
635.2104085510409
 20
-547.3647493796623
 30
0.0
 11
635.1802114306274
 21
-547.8498257682865
 31
0.0
  0
LINE
  5
216BF
330
18
100
AcDbEntity
  8
1PHANTOM
100
AcDbLine
 10
635.1802114306274
 20
-547.8498257682865
 30
0.0
 11
635.1620775095719
 21
-548.3355027491996
 31
0.0
  0
LINE
  5
216C0
330
18
100
AcDbEntity
  8
1PHANTOM
100
AcDbLine
 10
635.1620775095719
 20
-548.3355027491996
 30
0.0
 11
635.1560179940894
 21
-548.8213303289067
 31
0.0
  0
LINE
  5
216C1
330
18
100
AcDbEntity
  8
1PHANTOM
100
AcDbLine
 10
623.3764809586561
 20
-563.8213303512664
 30
0.0
 11
623.3764809586561
 21
-548.8213303512664
 31
0.0
  0
LINE
  5
216C2
330
18
100
AcDbEntity
  8
1PHANTOM
100
AcDbLine
 10
623.3764809586584
 20
-548.8213303299465
 30
0.0
 11
623.3668101955917
 21
-548.1767635658737
 31
0.0
  0
LINE
  5
216C3
330
18
100
AcDbEntity
  8
1PHANTOM
100
AcDbLine
 10
623.3668101955917
 20
-548.1767635658737
 30
0.0
 11
623.3355859507972
 21
-547.5328809030052
 31
0.0
  0
LINE
  5
216C4
330
18
100
AcDbEntity
  8
1PHANTOM
100
AcDbLine
 10
623.3355859507972
 20
-547.5328809030052
 30
0.0
 11
623.2828431648896
 21
-546.8904028601584
 31
0.0
  0
LINE
  5
216C5
330
18
100
AcDbEntity
  8
1PHANTOM
100
AcDbLine
 10
623.2828431648896
 20
-546.8904028601584
 30
0.0
 11
623.2086408582028
 21
-546.25004838435
 31
0.0
  0
LINE
  5
216C6
330
18
100
AcDbEntity
  8
1PHANTOM
100
AcDbLine
 10
623.2086408582028
 20
-546.25004838435
 30
0.0
 11
623.1130620647447
 21
-545.6125340462785
 31
0.0
  0
LINE
  5
216C7
330
18
100
AcDbEntity
  8
1PHANTOM
100
AcDbLine
 10
623.1130620647447
 20
-545.6125340462785
 30
0.0
 11
622.996213739281
 21
-544.9785732384662
 31
0.0
  0
LINE
  5
216C8
330
18
100
AcDbEntity
  8
1PHANTOM
100
AcDbLine
 10
622.996213739281
 20
-544.9785732384662
 30
0.0
 11
622.8582266376499
 21
-544.3488753769573
 31
0.0
  0
LINE
  5
216C9
330
18
100
AcDbEntity
  8
1PHANTOM
100
AcDbLine
 10
622.8582266376499
 20
-544.3488753769573
 30
0.0
 11
622.6992551704433
 21
-543.7241451074651
 31
0.0
  0
LINE
  5
216CA
330
18
100
AcDbEntity
  8
1PHANTOM
100
AcDbLine
 10
622.6992551704433
 20
-543.7241451074651
 30
0.0
 11
622.5194772302189
 21
-543.1050815168588
 31
0.0
  0
LINE
  5
216CB
330
18
100
AcDbEntity
  8
1PHANTOM
100
AcDbLine
 10
622.5194772302189
 20
-543.1050815168588
 30
0.0
 11
622.3190939924333
 21
-542.4923773508699
 31
0.0
  0
LINE
  5
216CC
330
18
100
AcDbEntity
  8
1PHANTOM
100
AcDbLine
 10
622.3190939924333
 20
-542.4923773508699
 30
0.0
 11
622.0983296903233
 21
-541.886718238894
 31
0.0
  0
LINE
  5
216CD
330
18
100
AcDbEntity
  8
1PHANTOM
100
AcDbLine
 10
621.4970827403921
 20
-540.4798806858779
 30
0.0
 11
621.3901817217029
 21
-540.2639942982431
 31
0.0
  0
LINE
  5
216CE
330
18
100
AcDbEntity
  8
1PHANTOM
100
AcDbLine
 10
621.3901817217029
 20
-540.2639942982431
 30
0.0
 11
621.2760862827107
 21
-540.0518222195808
 31
0.0
  0
LINE
  5
216CF
330
18
100
AcDbEntity
  8
1PHANTOM
100
AcDbLine
 10
621.2760862827107
 20
-540.0518222195808
 30
0.0
 11
621.1549253050523
 21
-539.843604118409
 31
0.0
  0
LINE
  5
216D0
330
18
100
AcDbEntity
  8
1PHANTOM
100
AcDbLine
 10
621.1549253050523
 20
-539.843604118409
 30
0.0
 11
621.0268356515618
 21
-539.6395751968527
 31
0.0
  0
LINE
  5
216D1
330
18
100
AcDbEntity
  8
1PHANTOM
100
AcDbLine
 10
621.0268356515618
 20
-539.6395751968527
 30
0.0
 11
620.8919620116707
 21
-539.4399659249606
 31
0.0
  0
LINE
  5
216D2
330
18
100
AcDbEntity
  8
1PHANTOM
100
AcDbLine
 10
620.8919620116707
 20
-539.4399659249606
 30
0.0
 11
620.7504567379675
 21
-539.2450017803674
 31
0.0
  0
LINE
  5
216D3
330
18
100
AcDbEntity
  8
1PHANTOM
100
AcDbLine
 10
620.7504567379675
 20
-539.2450017803674
 30
0.0
 11
620.6024796741013
 21
-539.0549029935951
 31
0.0
  0
LINE
  5
216D4
330
18
100
AcDbEntity
  8
1PHANTOM
100
AcDbLine
 10
620.6024796741013
 20
-539.0549029935951
 30
0.0
 11
620.4077102512747
 21
-538.8213303512664
 31
0.0
  0
LINE
  5
216D5
330
18
100
AcDbEntity
  8
1PHANTOM
100
AcDbLine
 10
620.448197974223
 20
-538.8698842992818
 30
0.0
 11
620.3970067760329
 21
-538.8213303514733
 31
0.0
  0
LINE
  5
216D6
330
18
100
AcDbEntity
  8
1PHANTOM
100
AcDbLine
 10
639.2802028604675
 20
-535.8213303512664
 30
0.0
 11
639.2802028604676
 21
-537.8213303512664
 31
0.0
  0
LINE
  5
216D7
330
18
100
AcDbEntity
  8
1PHANTOM
100
AcDbLine
 10
619.2522960924256
 20
-537.8213303512663
 30
0.0
 11
619.2522960924256
 21
-535.8213303512663
 31
0.0
  0
LINE
  5
216D8
330
18
100
AcDbEntity
  8
1PHANTOM
100
AcDbLine
 10
639.2669149194813
 20
-537.8213303512496
 30
0.0
 11
639.2808712724801
 21
-537.8213303512399
 31
0.0
  0
LINE
  5
216D9
330
18
100
AcDbEntity
  8
1PHANTOM
100
AcDbLine
 10
619.2514706096109
 20
-537.8213303512662
 30
0.0
 11
619.251364625295
 21
-537.8213303512662
 31
0.0
  0
LINE
  5
216DA
330
18
100
AcDbEntity
  8
1PHANTOM
100
AcDbLine
 10
619.251364625295
 20
-537.8213303512662
 30
0.0
 11
619.2513590036939
 21
-537.8213303512662
 31
0.0
  0
LINE
  5
216DB
330
18
100
AcDbEntity
  8
1PHANTOM
100
AcDbLine
 10
619.2513590036939
 20
-537.8213303512662
 30
0.0
 11
619.2513593200152
 21
-537.8213303512662
 31
0.0
  0
LINE
  5
216DC
330
18
100
AcDbEntity
  8
1PHANTOM
100
AcDbLine
 10
619.2513593200152
 20
-537.8213303512662
 30
0.0
 11
619.2513617201029
 21
-537.8213303512662
 31
0.0
  0
LINE
  5
216DD
330
18
100
AcDbEntity
  8
1PHANTOM
100
AcDbLine
 10
619.2513617201029
 20
-537.8213303512662
 30
0.0
 11
619.2513921433888
 21
-537.8213303512662
 31
0.0
  0
LINE
  5
216DE
330
18
100
AcDbEntity
  8
1PHANTOM
100
AcDbLine
 10
619.2513921433888
 20
-537.8213303512662
 30
0.0
 11
619.2518461788317
 21
-537.8213303512663
 31
0.0
  0
LINE
  5
216DF
330
18
100
AcDbEntity
  8
1PHANTOM
100
AcDbLine
 10
619.2518461788317
 20
-537.8213303512663
 30
0.0
 11
619.2543396909203
 21
-537.8213303512663
 31
0.0
  0
LINE
  5
216E0
330
18
100
AcDbEntity
  8
1PHANTOM
100
AcDbLine
 10
619.2543396909203
 20
-537.8213303512663
 30
0.0
 11
619.2655840333638
 21
-537.8213303512663
 31
0.0
  0
LINE
  5
216E1
330
18
100
AcDbEntity
  8
1PHANTOM
100
AcDbLine
 10
620.2518176550237
 20
-538.8213303512664
 30
0.0
 11
620.4077102512747
 21
-538.8213303512664
 31
0.0
  0
LINE
  5
216E2
330
18
100
AcDbEntity
  8
1PHANTOM
100
AcDbLine
 10
637.2802028604676
 20
-535.8213303512664
 30
0.0
 11
639.2793672504869
 21
-535.8213303512663
 31
0.0
  0
LINE
  5
216E3
330
18
100
AcDbEntity
  8
1PHANTOM
100
AcDbLine
 10
619.2527010770476
 20
-535.8213303512664
 30
0.0
 11
619.2523720336171
 21
-535.8213303512664
 31
0.0
  0
LINE
  5
216E4
330
18
100
AcDbEntity
  8
1PHANTOM
100
AcDbLine
 10
619.2523720336171
 20
-535.8213303512664
 30
0.0
 11
619.2523050352014
 21
-535.8213303512663
 31
0.0
  0
LINE
  5
216E5
330
18
100
AcDbEntity
  8
1PHANTOM
100
AcDbLine
 10
619.2523050352014
 20
-535.8213303512663
 30
0.0
 11
619.2523036335702
 21
-535.8213303512663
 31
0.0
  0
LINE
  5
216E6
330
18
100
AcDbEntity
  8
1PHANTOM
100
AcDbLine
 10
619.2523036335702
 20
-535.8213303512663
 30
0.0
 11
619.2529625673816
 21
-535.8213303512664
 31
0.0
  0
LINE
  5
216E7
330
18
100
AcDbEntity
  8
1PHANTOM
100
AcDbLine
 10
619.2529625673816
 20
-535.8213303512664
 30
0.0
 11
619.2575564351212
 21
-535.8213303512664
 31
0.0
  0
LINE
  5
216E8
330
18
100
AcDbEntity
  8
1PHANTOM
100
AcDbLine
 10
619.2575564351212
 20
-535.8213303512664
 30
0.0
 11
619.2805286126103
 21
-535.8213303512664
 31
0.0
  0
LINE
  5
216E9
330
18
100
AcDbEntity
  8
1PHANTOM
100
AcDbLine
 10
619.2805286126103
 20
-535.8213303512664
 30
0.0
 11
619.3857028911967
 21
-535.8213303512665
 31
0.0
  0
LINE
  5
216EA
330
18
100
AcDbEntity
  8
1PHANTOM
100
AcDbLine
 10
619.3857028911967
 20
-535.8213303512665
 30
0.0
 11
619.8357454576625
 21
-535.8213303512664
 31
0.0
  0
LINE
  5
216EB
330
18
100
AcDbEntity
  8
1PHANTOM
100
AcDbLine
 10
619.8357454576625
 20
-535.8213303512664
 30
0.0
 11
621.2522960924256
 21
-535.8213303512664
 31
0.0
  0
LINE
  5
216EC
330
18
100
AcDbEntity
  8
1PHANTOM
100
AcDbLine
 10
637.2802028604676
 20
-535.8213303512664
 30
0.0
 11
621.2522960924256
 21
-535.8213303512664
 31
0.0
  0
LINE
  5
216ED
330
18
100
AcDbEntity
  8
1PHANTOM
100
AcDbLine
 10
634.1560483170309
 20
-564.821330351107
 30
0.0
 11
624.3764505102496
 21
-564.8213303511047
 31
0.0
  0
LINE
  5
216EE
330
18
100
AcDbEntity
  8
1PHANTOM
100
AcDbLine
 10
638.131141683239
 20
-538.8213303512664
 30
0.0
 11
638.2806812979117
 21
-538.8213303512664
 31
0.0
  0
ARC
  5
216EF
330
18
100
AcDbEntity
  8
1PHANTOM
100
AcDbCircle
 10
184.1560211277111
 20
-563.8320508099168
 30
0.0
 40
1.000000002020284
100
AcDbArc
 50
270.0017375295552
 51
359.9999998054465
  0
ARC
  5
216F0
330
18
100
AcDbEntity
  8
1PHANTOM
100
AcDbCircle
 10
174.3764840991459
 20
-563.8320508099293
 30
0.0
 40
1.000000002012906
100
AcDbArc
 50
180.0000017689071
 51
269.9982552736603
  0
ARC
  5
216F1
330
18
100
AcDbEntity
  8
1PHANTOM
100
AcDbCircle
 10
188.2809176464505
 20
-537.8318173860573
 30
0.0
 40
1.000233454432361
100
AcDbArc
 50
269.986641069435
 51
359.9866287271146
  0
ARC
  5
216F2
330
18
100
AcDbEntity
  8
1PHANTOM
100
AcDbCircle
 10
170.2515875805252
 20
-537.8318173859614
 30
0.0
 40
1.000233454528296
100
AcDbArc
 50
180.0133712799889
 51
270.0133589290984
  0
LINE
  5
216F3
330
18
100
AcDbEntity
  8
1PHANTOM
100
AcDbLine
 10
185.1560211312288
 20
-548.8320508133022
 30
0.0
 11
185.1560211312288
 21
-563.8320508133022
 31
0.0
  0
LINE
  5
216F4
330
18
100
AcDbEntity
  8
1PHANTOM
100
AcDbLine
 10
188.1361221458731
 20
-538.8320508133021
 30
0.0
 11
188.1096816329068
 21
-538.8560533569383
 31
0.0
  0
LINE
  5
216F5
330
18
100
AcDbEntity
  8
1PHANTOM
100
AcDbLine
 10
188.1096816329068
 20
-538.8560533569383
 30
0.0
 11
188.0840364688206
 21
-538.8809038777764
 31
0.0
  0
LINE
  5
216F6
330
18
100
AcDbEntity
  8
1PHANTOM
100
AcDbLine
 10
188.1311448202239
 20
-538.8320508133022
 30
0.0
 11
188.0439268106363
 21
-538.9224990442159
 31
0.0
  0
LINE
  5
216F7
330
18
100
AcDbEntity
  8
1PHANTOM
100
AcDbLine
 10
188.0439268106363
 20
-538.9224990442159
 30
0.0
 11
188.0048080574803
 21
-538.9650497270142
 31
0.0
  0
LINE
  5
216F8
330
18
100
AcDbEntity
  8
1PHANTOM
100
AcDbLine
 10
188.0048080574803
 20
-538.9650497270142
 30
0.0
 11
187.9667139271292
 21
-539.0085201156467
 31
0.0
  0
LINE
  5
216F9
330
18
100
AcDbEntity
  8
1PHANTOM
100
AcDbLine
 10
187.9667139271292
 20
-539.0085201156467
 30
0.0
 11
187.9296763938788
 21
-539.0528728346334
 31
0.0
  0
LINE
  5
216FA
330
18
100
AcDbEntity
  8
1PHANTOM
100
AcDbLine
 10
187.9296763938788
 20
-539.0528728346334
 30
0.0
 11
187.8761218788675
 21
-539.1196093820404
 31
0.0
  0
LINE
  5
216FB
330
18
100
AcDbEntity
  8
1PHANTOM
100
AcDbLine
 10
187.8761218788675
 20
-539.1196093820404
 30
0.0
 11
187.8198469619873
 21
-539.193135825726
 31
0.0
  0
LINE
  5
216FC
330
18
100
AcDbEntity
  8
1PHANTOM
100
AcDbLine
 10
187.8198469619873
 20
-539.193135825726
 30
0.0
 11
187.7611456030833
 21
-539.2731933232191
 31
0.0
  0
LINE
  5
216FD
330
18
100
AcDbEntity
  8
1PHANTOM
100
AcDbLine
 10
187.7611456030833
 20
-539.2731933232191
 30
0.0
 11
187.7003117620008
 21
-539.3595230320484
 31
0.0
  0
LINE
  5
216FE
330
18
100
AcDbEntity
  8
1PHANTOM
100
AcDbLine
 10
187.7003117620008
 20
-539.3595230320484
 30
0.0
 11
187.5734224726813
 21
-539.5499637138308
 31
0.0
  0
LINE
  5
216FF
330
18
100
AcDbEntity
  8
1PHANTOM
100
AcDbLine
 10
187.5734224726813
 20
-539.5499637138308
 30
0.0
 11
187.4415307727905
 21
-539.762387131304
 31
0.0
  0
LINE
  5
21700
330
18
100
AcDbEntity
  8
1PHANTOM
100
AcDbLine
 10
187.4415307727905
 20
-539.762387131304
 30
0.0
 11
187.3069614089716
 21
-539.994803464544
 31
0.0
  0
LINE
  5
21701
330
18
100
AcDbEntity
  8
1PHANTOM
100
AcDbLine
 10
187.3069614089716
 20
-539.994803464544
 30
0.0
 11
187.177755834784
 21
-540.230325439063
 31
0.0
  0
LINE
  5
21702
330
18
100
AcDbEntity
  8
1PHANTOM
100
AcDbLine
 10
187.177755834784
 20
-540.230325439063
 30
0.0
 11
187.0540194032871
 21
-540.468766157907
 31
0.0
  0
LINE
  5
21703
330
18
100
AcDbEntity
  8
1PHANTOM
100
AcDbLine
 10
187.0540194032871
 20
-540.468766157907
 30
0.0
 11
186.9358487334144
 21
-540.7099340629385
 31
0.0
  0
LINE
  5
21704
330
18
100
AcDbEntity
  8
1PHANTOM
100
AcDbLine
 10
186.9358487334144
 20
-540.7099340629385
 30
0.0
 11
186.7979561882112
 21
-541.0065141337698
 31
0.0
  0
LINE
  5
21705
330
18
100
AcDbEntity
  8
1PHANTOM
100
AcDbLine
 10
186.7979561882112
 20
-541.0065141337698
 30
0.0
 11
186.6661084137755
 21
-541.3059046726946
 31
0.0
  0
LINE
  5
21706
330
18
100
AcDbEntity
  8
1PHANTOM
100
AcDbLine
 10
186.6661084137755
 20
-541.3059046726946
 30
0.0
 11
186.5403894407668
 21
-541.6079200203957
 31
0.0
  0
LINE
  5
21707
330
18
100
AcDbEntity
  8
1PHANTOM
100
AcDbLine
 10
186.5403894407668
 20
-541.6079200203957
 30
0.0
 11
186.4208756651415
 21
-541.9123712478075
 31
0.0
  0
LINE
  5
21708
330
18
100
AcDbEntity
  8
1PHANTOM
100
AcDbLine
 10
186.4208756651415
 20
-541.9123712478075
 30
0.0
 11
186.2887159343564
 21
-542.2696965844361
 31
0.0
  0
LINE
  5
21709
330
18
100
AcDbEntity
  8
1PHANTOM
100
AcDbLine
 10
186.2887159343564
 20
-542.2696965844361
 30
0.0
 11
186.163872370282
 21
-542.6297278658265
 31
0.0
  0
LINE
  5
2170A
330
18
100
AcDbEntity
  8
1PHANTOM
100
AcDbLine
 10
186.163872370282
 20
-542.6297278658265
 30
0.0
 11
186.0464257696894
 21
-542.9922395691956
 31
0.0
  0
LINE
  5
2170B
330
18
100
AcDbEntity
  8
1PHANTOM
100
AcDbLine
 10
186.0464257696894
 20
-542.9922395691956
 30
0.0
 11
185.9364476304347
 21
-543.3570030535577
 31
0.0
  0
LINE
  5
2170C
330
18
100
AcDbEntity
  8
1PHANTOM
100
AcDbLine
 10
185.9364476304347
 20
-543.3570030535577
 30
0.0
 11
185.820485641332
 21
-543.7729324013612
 31
0.0
  0
LINE
  5
2170D
330
18
100
AcDbEntity
  8
1PHANTOM
100
AcDbLine
 10
185.820485641332
 20
-543.7729324013612
 30
0.0
 11
185.7136893093544
 21
-544.1914171539162
 31
0.0
  0
LINE
  5
2170E
330
18
100
AcDbEntity
  8
1PHANTOM
100
AcDbLine
 10
185.7136893093544
 20
-544.1914171539162
 30
0.0
 11
185.6161397549914
 21
-544.6121534479155
 31
0.0
  0
LINE
  5
2170F
330
18
100
AcDbEntity
  8
1PHANTOM
100
AcDbLine
 10
185.6161397549914
 20
-544.6121534479155
 30
0.0
 11
185.5279046342731
 21
-545.034834141528
 31
0.0
  0
LINE
  5
21710
330
18
100
AcDbEntity
  8
1PHANTOM
100
AcDbLine
 10
185.5279046342731
 20
-545.034834141528
 30
0.0
 11
185.4425370890537
 21
-545.4963306452323
 31
0.0
  0
LINE
  5
21711
330
18
100
AcDbEntity
  8
1PHANTOM
100
AcDbLine
 10
185.4425370890537
 20
-545.4963306452323
 30
0.0
 11
185.3681613766938
 21
-545.9598604163202
 31
0.0
  0
LINE
  5
21712
330
18
100
AcDbEntity
  8
1PHANTOM
100
AcDbLine
 10
185.3681613766938
 20
-545.9598604163202
 30
0.0
 11
185.3048454528499
 21
-546.4250299435482
 31
0.0
  0
LINE
  5
21713
330
18
100
AcDbEntity
  8
1PHANTOM
100
AcDbLine
 10
185.3048454528499
 20
-546.4250299435482
 30
0.0
 11
185.2526384616027
 21
-546.8914429266146
 31
0.0
  0
LINE
  5
21714
330
18
100
AcDbEntity
  8
1PHANTOM
100
AcDbLine
 10
185.2526384616027
 20
-546.8914429266146
 30
0.0
 11
185.2104116880259
 21
-547.3754698416981
 31
0.0
  0
LINE
  5
21715
330
18
100
AcDbEntity
  8
1PHANTOM
100
AcDbLine
 10
185.2104116880259
 20
-547.3754698416981
 30
0.0
 11
185.1802145676124
 21
-547.8605462303223
 31
0.0
  0
LINE
  5
21716
330
18
100
AcDbEntity
  8
1PHANTOM
100
AcDbLine
 10
185.1802145676124
 20
-547.8605462303223
 30
0.0
 11
185.1620806465568
 21
-548.3462232112354
 31
0.0
  0
LINE
  5
21717
330
18
100
AcDbEntity
  8
1PHANTOM
100
AcDbLine
 10
185.1620806465568
 20
-548.3462232112354
 30
0.0
 11
185.1560211310744
 21
-548.8320507909425
 31
0.0
  0
LINE
  5
21718
330
18
100
AcDbEntity
  8
1PHANTOM
100
AcDbLine
 10
173.376484095641
 20
-563.8320508133022
 30
0.0
 11
173.376484095641
 21
-548.8320508133022
 31
0.0
  0
LINE
  5
21719
330
18
100
AcDbEntity
  8
1PHANTOM
100
AcDbLine
 10
173.3764840956433
 20
-548.8320507919823
 30
0.0
 11
173.3668133325767
 21
-548.1874840279095
 31
0.0
  0
LINE
  5
2171A
330
18
100
AcDbEntity
  8
1PHANTOM
100
AcDbLine
 10
173.3668133325767
 20
-548.1874840279095
 30
0.0
 11
173.3355890877821
 21
-547.543601365041
 31
0.0
  0
LINE
  5
2171B
330
18
100
AcDbEntity
  8
1PHANTOM
100
AcDbLine
 10
173.3355890877821
 20
-547.543601365041
 30
0.0
 11
173.2828463018746
 21
-546.9011233221942
 31
0.0
  0
LINE
  5
2171C
330
18
100
AcDbEntity
  8
1PHANTOM
100
AcDbLine
 10
173.2828463018746
 20
-546.9011233221942
 30
0.0
 11
173.2086439951877
 21
-546.2607688463858
 31
0.0
  0
LINE
  5
2171D
330
18
100
AcDbEntity
  8
1PHANTOM
100
AcDbLine
 10
173.2086439951877
 20
-546.2607688463858
 30
0.0
 11
173.1130652017296
 21
-545.6232545083143
 31
0.0
  0
LINE
  5
2171E
330
18
100
AcDbEntity
  8
1PHANTOM
100
AcDbLine
 10
173.1130652017296
 20
-545.6232545083143
 30
0.0
 11
172.9962168762659
 21
-544.989293700502
 31
0.0
  0
LINE
  5
2171F
330
18
100
AcDbEntity
  8
1PHANTOM
100
AcDbLine
 10
172.9962168762659
 20
-544.989293700502
 30
0.0
 11
172.8582297746348
 21
-544.3595958389931
 31
0.0
  0
LINE
  5
21720
330
18
100
AcDbEntity
  8
1PHANTOM
100
AcDbLine
 10
172.8582297746348
 20
-544.3595958389931
 30
0.0
 11
172.6992583074282
 21
-543.7348655695009
 31
0.0
  0
LINE
  5
21721
330
18
100
AcDbEntity
  8
1PHANTOM
100
AcDbLine
 10
172.6992583074282
 20
-543.7348655695009
 30
0.0
 11
172.5194803672038
 21
-543.1158019788946
 31
0.0
  0
LINE
  5
21722
330
18
100
AcDbEntity
  8
1PHANTOM
100
AcDbLine
 10
172.5194803672038
 20
-543.1158019788946
 30
0.0
 11
172.3190971294183
 21
-542.5030978129057
 31
0.0
  0
LINE
  5
21723
330
18
100
AcDbEntity
  8
1PHANTOM
100
AcDbLine
 10
172.3190971294183
 20
-542.5030978129057
 30
0.0
 11
172.0983328273083
 21
-541.8974387009298
 31
0.0
  0
LINE
  5
21724
330
18
100
AcDbEntity
  8
1PHANTOM
100
AcDbLine
 10
171.4970858773771
 20
-540.4906011479137
 30
0.0
 11
171.3901848586879
 21
-540.2747147602789
 31
0.0
  0
LINE
  5
21725
330
18
100
AcDbEntity
  8
1PHANTOM
100
AcDbLine
 10
171.3901848586879
 20
-540.2747147602789
 30
0.0
 11
171.2760894196957
 21
-540.0625426816166
 31
0.0
  0
LINE
  5
21726
330
18
100
AcDbEntity
  8
1PHANTOM
100
AcDbLine
 10
171.2760894196957
 20
-540.0625426816166
 30
0.0
 11
171.1549284420373
 21
-539.8543245804448
 31
0.0
  0
LINE
  5
21727
330
18
100
AcDbEntity
  8
1PHANTOM
100
AcDbLine
 10
171.1549284420373
 20
-539.8543245804448
 30
0.0
 11
171.0268387885467
 21
-539.6502956588885
 31
0.0
  0
LINE
  5
21728
330
18
100
AcDbEntity
  8
1PHANTOM
100
AcDbLine
 10
171.0268387885467
 20
-539.6502956588885
 30
0.0
 11
170.8919651486556
 21
-539.4506863869964
 31
0.0
  0
LINE
  5
21729
330
18
100
AcDbEntity
  8
1PHANTOM
100
AcDbLine
 10
170.8919651486556
 20
-539.4506863869964
 30
0.0
 11
170.7504598749525
 21
-539.2557222424032
 31
0.0
  0
LINE
  5
2172A
330
18
100
AcDbEntity
  8
1PHANTOM
100
AcDbLine
 10
170.7504598749525
 20
-539.2557222424032
 30
0.0
 11
170.6024828110863
 21
-539.0656234556309
 31
0.0
  0
LINE
  5
2172B
330
18
100
AcDbEntity
  8
1PHANTOM
100
AcDbLine
 10
170.6024828110863
 20
-539.0656234556309
 30
0.0
 11
170.4077133882597
 21
-538.8320508133022
 31
0.0
  0
LINE
  5
2172C
330
18
100
AcDbEntity
  8
1PHANTOM
100
AcDbLine
 10
170.448201111208
 20
-538.8806047613176
 30
0.0
 11
170.3970099130178
 21
-538.8320508135091
 31
0.0
  0
LINE
  5
2172D
330
18
100
AcDbEntity
  8
1PHANTOM
100
AcDbLine
 10
189.2802059974525
 20
-535.8320508133022
 30
0.0
 11
189.2802059974526
 21
-537.8320508133022
 31
0.0
  0
LINE
  5
2172E
330
18
100
AcDbEntity
  8
1PHANTOM
100
AcDbLine
 10
169.2522992294105
 20
-537.8320508133021
 30
0.0
 11
169.2522992294105
 21
-535.8320508133021
 31
0.0
  0
LINE
  5
2172F
330
18
100
AcDbEntity
  8
1PHANTOM
100
AcDbLine
 10
189.2669180564663
 20
-537.8320508132854
 30
0.0
 11
189.2808744094651
 21
-537.8320508132757
 31
0.0
  0
LINE
  5
21730
330
18
100
AcDbEntity
  8
1PHANTOM
100
AcDbLine
 10
169.2514737465959
 20
-537.832050813302
 30
0.0
 11
169.2513677622799
 21
-537.832050813302
 31
0.0
  0
LINE
  5
21731
330
18
100
AcDbEntity
  8
1PHANTOM
100
AcDbLine
 10
169.2513677622799
 20
-537.832050813302
 30
0.0
 11
169.2513621406789
 21
-537.832050813302
 31
0.0
  0
LINE
  5
21732
330
18
100
AcDbEntity
  8
1PHANTOM
100
AcDbLine
 10
169.2513621406789
 20
-537.832050813302
 30
0.0
 11
169.2513624570002
 21
-537.832050813302
 31
0.0
  0
LINE
  5
21733
330
18
100
AcDbEntity
  8
1PHANTOM
100
AcDbLine
 10
169.2513624570002
 20
-537.832050813302
 30
0.0
 11
169.2513648570878
 21
-537.832050813302
 31
0.0
  0
LINE
  5
21734
330
18
100
AcDbEntity
  8
1PHANTOM
100
AcDbLine
 10
169.2513648570878
 20
-537.832050813302
 30
0.0
 11
169.2513952803737
 21
-537.832050813302
 31
0.0
  0
LINE
  5
21735
330
18
100
AcDbEntity
  8
1PHANTOM
100
AcDbLine
 10
169.2513952803737
 20
-537.832050813302
 30
0.0
 11
169.2518493158166
 21
-537.8320508133021
 31
0.0
  0
LINE
  5
21736
330
18
100
AcDbEntity
  8
1PHANTOM
100
AcDbLine
 10
169.2518493158166
 20
-537.8320508133021
 30
0.0
 11
169.2543428279053
 21
-537.8320508133021
 31
0.0
  0
LINE
  5
21737
330
18
100
AcDbEntity
  8
1PHANTOM
100
AcDbLine
 10
169.2543428279053
 20
-537.8320508133021
 30
0.0
 11
169.2655871703487
 21
-537.8320508133021
 31
0.0
  0
LINE
  5
21738
330
18
100
AcDbEntity
  8
1PHANTOM
100
AcDbLine
 10
170.2518207920087
 20
-538.8320508133022
 30
0.0
 11
170.4077133882597
 21
-538.8320508133022
 31
0.0
  0
LINE
  5
21739
330
18
100
AcDbEntity
  8
1PHANTOM
100
AcDbLine
 10
187.2802059974526
 20
-535.8320508133022
 30
0.0
 11
189.2793703874718
 21
-535.8320508133021
 31
0.0
  0
LINE
  5
2173A
330
18
100
AcDbEntity
  8
1PHANTOM
100
AcDbLine
 10
169.2527042140326
 20
-535.8320508133022
 30
0.0
 11
169.2523751706021
 21
-535.8320508133022
 31
0.0
  0
LINE
  5
2173B
330
18
100
AcDbEntity
  8
1PHANTOM
100
AcDbLine
 10
169.2523751706021
 20
-535.8320508133022
 30
0.0
 11
169.2523081721864
 21
-535.8320508133021
 31
0.0
  0
LINE
  5
2173C
330
18
100
AcDbEntity
  8
1PHANTOM
100
AcDbLine
 10
169.2523081721864
 20
-535.8320508133021
 30
0.0
 11
169.2523067705552
 21
-535.8320508133021
 31
0.0
  0
LINE
  5
2173D
330
18
100
AcDbEntity
  8
1PHANTOM
100
AcDbLine
 10
169.2523067705552
 20
-535.8320508133021
 30
0.0
 11
169.2529657043665
 21
-535.8320508133022
 31
0.0
  0
LINE
  5
2173E
330
18
100
AcDbEntity
  8
1PHANTOM
100
AcDbLine
 10
169.2529657043665
 20
-535.8320508133022
 30
0.0
 11
169.2575595721061
 21
-535.8320508133022
 31
0.0
  0
LINE
  5
2173F
330
18
100
AcDbEntity
  8
1PHANTOM
100
AcDbLine
 10
169.2575595721061
 20
-535.8320508133022
 30
0.0
 11
169.2805317495952
 21
-535.8320508133022
 31
0.0
  0
LINE
  5
21740
330
18
100
AcDbEntity
  8
1PHANTOM
100
AcDbLine
 10
169.2805317495952
 20
-535.8320508133022
 30
0.0
 11
169.3857060281817
 21
-535.8320508133023
 31
0.0
  0
LINE
  5
21741
330
18
100
AcDbEntity
  8
1PHANTOM
100
AcDbLine
 10
169.3857060281817
 20
-535.8320508133023
 30
0.0
 11
169.8357485946474
 21
-535.8320508133022
 31
0.0
  0
LINE
  5
21742
330
18
100
AcDbEntity
  8
1PHANTOM
100
AcDbLine
 10
169.8357485946474
 20
-535.8320508133022
 30
0.0
 11
171.2522992294105
 21
-535.8320508133022
 31
0.0
  0
LINE
  5
21743
330
18
100
AcDbEntity
  8
1PHANTOM
100
AcDbLine
 10
187.2802059974526
 20
-535.8320508133022
 30
0.0
 11
171.2522992294105
 21
-535.8320508133022
 31
0.0
  0
LINE
  5
21744
330
18
100
AcDbEntity
  8
1PHANTOM
100
AcDbLine
 10
184.1560514540159
 20
-564.8320508131428
 30
0.0
 11
174.3764536472345
 21
-564.8320508131405
 31
0.0
  0
LINE
  5
21745
330
18
100
AcDbEntity
  8
1PHANTOM
100
AcDbLine
 10
188.1311448202239
 20
-538.8320508133022
 30
0.0
 11
188.2806844348966
 21
-538.8320508133022
 31
0.0
  0
LINE
  5
21746
330
18
100
AcDbEntity
  8
1CENTER
100
AcDbLine
 10
626.1449275288228
 20
-641.3215691836773
 30
0.0
 11
632.3875562608905
 21
-641.3215691836773
 31
0.0
  0
LINE
  5
21747
330
18
100
AcDbEntity
  8
1CENTER
100
AcDbLine
 10
182.3875619758773
 20
-641.3215691836779
 30
0.0
 11
176.1449332438096
 21
-641.3215691836779
 31
0.0
  0
TEXT
  5
21AA6
330
18
100
AcDbEntity
  8
1TEXT
100
AcDbText
 10
535.0228496706493
 20
-471.7202789373773
 30
0.0
 40
4.0
  1
表面処理:脚部
 72
     1
 11
549.7571089299086
 21
-471.7202789373773
 31
0.0
100
AcDbText
  0
TEXT
  5
21AAE
330
18
100
AcDbEntity
  8
1TEXT
100
AcDbText
 10
575.5304422632423
 20
-485.9346359210267
 30
0.0
 40
4.0
  1
ヘアライン
 41
0.8
 72
     1
 11
584.757108929909
 21
-485.9346359210267
 31
0.0
100
AcDbText
  0
TEXT
  5
21AAF
330
18
100
AcDbEntity
  8
1TEXT
100
AcDbText
 10
581.2904422632423
 20
-478.9346359210267
 30
0.0
 40
4.0
  1
鏡面
 41
0.8
 72
     1
 11
584.757108929909
 21
-478.9346359210267
 31
0.0
100
AcDbText
  0
TEXT
  5
21AB0
330
18
100
AcDbEntity
  8
1TEXT
100
AcDbText
 10
570.9963681891678
 20
-471.7202789373773
 30
0.0
 40
4.0
  1
表面処理:レール
 41
0.8
 72
     1
 11
584.7571089299086
 21
-471.7202789373773
 31
0.0
100
AcDbText
  0
LINE
  5
21AB9
330
18
100
AcDbEntity
  8
1DIM
100
AcDbLine
 10
567.3571089299085
 20
-494.2202789373773
 30
0.0
 11
567.3571089299085
 21
-466.2202789373773
 31
0.0
  0
TEXT
  5
21ABC
330
18
100
AcDbEntity
  8
1TEXT
100
AcDbText
 10
568.4904422632419
 20
-492.5555675969015
 30
0.0
 40
4.0
  1
マットブラック
 72
     1
 11
584.7571089299086
 21
-492.5555675969015
 31
0.0
100
AcDbText
  0
TEXT
  5
21CFA
330
18
100
AcDbEntity
  8
01
  6
CONTINUOUS
100
AcDbText
 10
762.8891752713527
 20
-598.3365224252085
 30
0.0
 40
3.5
  1
合板9mm以上
100
AcDbText
  0
TEXT
  5
21CFB
330
18
100
AcDbEntity
  8
01
  6
CONTINUOUS
100
AcDbText
 10
749.7537571261875
 20
-598.3365224252085
 30
0.0
 40
3.5
  1
PB
100
AcDbText
  0
LINE
  5
21CFC
330
18
100
AcDbEntity
  8
1DIM1
100
AcDbLine
 10
179.2662476579243
 20
-644.4428835977926
 30
0.0
 11
179.2662476579243
 21
-704.4213303512677
 31
0.0
1001
ACAD
1000
DSTYLE
1002
{
1070
    40
1040
3.0
1070
    45
1040
0.5
1002
}
  0
LINE
  5
21CFD
330
18
100
AcDbEntity
  8
1DIM1
100
AcDbLine
 10
629.2662419429378
 20
-644.4428835977922
 30
0.0
 11
629.2662419429378
 21
-704.4213303512677
 31
0.0
1001
ACAD
1000
DSTYLE
1002
{
1070
    40
1040
3.0
1070
    45
1040
0.5
1002
}
  0
LINE
  5
21CFE
330
18
100
AcDbEntity
  8
1DIM1
100
AcDbLine
 10
185.2662476579243
 20
-701.4213303512677
 30
0.0
 11
623.2662419429378
 21
-701.4213303512677
 31
0.0
1001
ACAD
1000
DSTYLE
1002
{
1070
    40
1040
3.0
1070
    45
1040
0.5
1002
}
  0
TEXT
  5
21D02
330
18
100
AcDbEntity
  8
1DIM
  6
CONTINUOUS
100
AcDbText
 10
571.9791683503801
 20
-634.3718227606332
 30
0.0
 40
3.5
  1
材質：ステンレス
100
AcDbText
  0
TEXT
  5
21D03
330
18
100
AcDbEntity
  8
1DIM
  6
CONTINUOUS
100
AcDbText
 10
572.0958350170467
 20
-640.2051560939666
 30
0.0
 40
3.5
  1
仕上げ：各種仕上げ
100
AcDbText
  0
SOLID
  5
21D04
330
18
100
AcDbEntity
  8
1DIM
100
AcDbTrace
 10
566.6996966280935
 20
-653.1168384461939
 30
0.0
 11
565.8763711889641
 21
-654.9697405840288
 31
0.0
 12
566.0542513164104
 22
-652.9499708517646
 32
0.0
 13
566.0542513164104
 23
-652.9499708517646
 33
0.0
1001
ACAD
1000
DSTYLE
1002
{
1070
    45
1040
0.5
1002
}
  0
LINE
  5
21D05
330
18
100
AcDbEntity
  8
1DIM
100
AcDbLine
 10
566.3769739722519
 20
-653.0334046489793
 30
0.0
 11
569.5125016837134
 21
-640.9051560939666
 31
0.0
1001
ACAD
1000
DSTYLE
1002
{
1070
    45
1040
0.5
1002
}
  0
LINE
  5
21D06
330
18
100
AcDbEntity
  8
1DIM
100
AcDbLine
 10
569.5125016837134
 20
-640.9051560939666
 30
0.0
 11
609.1958350170466
 21
-640.9051560939666
 31
0.0
1001
ACAD
1000
DSTYLE
1002
{
1070
    45
1040
0.5
1002
}
  0
TEXT
  5
21D07
330
18
100
AcDbEntity
  8
1DIM
  6
CONTINUOUS
100
AcDbText
 10
554.4816362272538
 20
-674.856789341019
 30
0.0
 40
3.5
  1
材質：亜鉛ダイキャスト
100
AcDbText
1001
ACADANNOTATIVE
1000
AnnotativeData
1002
{
1070
     1
1070
     0
1002
}
  0
TEXT
  5
21D08
330
18
100
AcDbEntity
  8
1DIM
  6
CONTINUOUS
100
AcDbText
 10
562.1816362272539
 20
-680.6901226743523
 30
0.0
 40
3.5
  1
仕上げ：各種仕上げ
100
AcDbText
1001
ACADANNOTATIVE
1000
AnnotativeData
1002
{
1070
     1
1070
     0
1002
}
  0
SOLID
  5
21D09
330
18
100
AcDbEntity
  8
1DIM
100
AcDbTrace
 10
617.2393418625549
 20
-662.8993386508643
 30
0.0
 11
618.7877042201083
 21
-661.5902606849575
 31
0.0
 12
617.7476029519058
 22
-663.3307492551569
 32
0.0
 13
617.7476029519058
 23
-663.3307492551569
 33
0.0
1001
ACAD
1000
DSTYLE
1002
{
1070
    45
1040
0.5
1002
}
  0
LINE
  5
21D0A
330
18
100
AcDbEntity
  8
1DIM
100
AcDbLine
 10
617.4934724072303
 20
-663.1150439530105
 30
0.0
 11
601.981636227254
 21
-681.3901226743524
 31
0.0
1001
ACAD
1000
DSTYLE
1002
{
1070
    45
1040
0.5
1002
}
  0
LINE
  5
21D0B
330
18
100
AcDbEntity
  8
1DIM
100
AcDbLine
 10
601.981636227254
 20
-681.3901226743524
 30
0.0
 11
554.7149695605873
 21
-681.3901226743524
 31
0.0
1001
ACAD
1000
DSTYLE
1002
{
1070
    45
1040
0.5
1002
}
  0
LINE
  5
21D0C
330
18
100
AcDbEntity
  8
1DIM
100
AcDbLine
 10
684.93083717971
 20
-661.8366597679017
 30
0.0
 11
684.93083717971
 21
-690.2406680819477
 31
0.0
1001
ACAD
1000
DSTYLE
1002
{
1070
    45
1040
0.5
1002
}
  0
LINE
  5
21D0D
330
18
100
AcDbEntity
  8
1DIM
100
AcDbLine
 10
743.016241615365
 20
-679.9957650576096
 30
0.0
 11
743.016241615365
 21
-690.2406680819477
 31
0.0
1001
ACAD
1000
DSTYLE
1002
{
1070
    45
1040
0.5
1002
}
  0
LINE
  5
21D0E
330
18
100
AcDbEntity
  8
1DIM
100
AcDbLine
 10
686.93083717971
 20
-689.2406680819477
 30
0.0
 11
741.016241615365
 21
-689.2406680819477
 31
0.0
1001
ACAD
1000
DSTYLE
1002
{
1070
    45
1040
0.5
1002
}
  0
LINE
  5
21D12
330
18
100
AcDbEntity
  8
1DIM
100
AcDbLine
 10
743.016241615365
 20
-679.9957650576096
 30
0.0
 11
743.016241615365
 21
-682.109722080378
 31
0.0
1001
ACAD
1000
DSTYLE
1002
{
1070
    45
1040
0.5
1002
}
  0
LINE
  5
21D13
330
18
100
AcDbEntity
  8
1DIM
100
AcDbLine
 10
719.0165622713502
 20
-655.8110075349908
 30
0.0
 11
719.0165622713502
 21
-682.109722080378
 31
0.0
1001
ACAD
1000
DSTYLE
1002
{
1070
    45
1040
0.5
1002
}
  0
LINE
  5
21D14
330
18
100
AcDbEntity
  8
1DIM
100
AcDbLine
 10
741.016241615365
 20
-681.109722080378
 30
0.0
 11
721.0165622713502
 21
-681.109722080378
 31
0.0
1001
ACAD
1000
DSTYLE
1002
{
1070
    45
1040
0.5
1002
}
  0
LINE
  5
21D18
330
18
100
AcDbEntity
  8
1DIM
100
AcDbLine
 10
775.447036532668
 20
-641.3215698718664
 30
0.0
 11
785.516241615365
 21
-641.3215698718664
 31
0.0
1001
ACAD
1000
DSTYLE
1002
{
1070
    45
1040
0.5
1070
   271
1070
     0
1002
}
  0
LINE
  5
21D19
330
18
100
AcDbEntity
  8
1DIM
100
AcDbLine
 10
739.9970136330046
 20
-628.8027677887316
 30
0.0
 11
785.516241615365
 21
-628.8027677887316
 31
0.0
1001
ACAD
1000
DSTYLE
1002
{
1070
    45
1040
0.5
1070
   271
1070
     0
1002
}
  0
LINE
  5
21D1A
330
18
100
AcDbEntity
  8
1DIM
100
AcDbLine
 10
784.516241615365
 20
-639.3215698718664
 30
0.0
 11
784.516241615365
 21
-630.8027677887316
 31
0.0
1001
ACAD
1000
DSTYLE
1002
{
1070
    45
1040
0.5
1070
   271
1070
     0
1002
}
  0
LINE
  5
21D1E
330
18
100
AcDbEntity
  8
1DIM1
100
AcDbLine
 10
165.516247889335
 20
-655.8213303512663
 30
0.0
 11
165.516247889335
 21
-734.4213303512677
 31
0.0
1001
ACAD
1000
DSTYLE
1002
{
1070
    40
1040
3.0
1070
    45
1040
0.5
1002
}
  0
LINE
  5
21D1F
330
18
100
AcDbEntity
  8
1DIM1
100
AcDbLine
 10
643.0162416153653
 20
-655.8213303512664
 30
0.0
 11
643.0162416153653
 21
-734.4213303512677
 31
0.0
1001
ACAD
1000
DSTYLE
1002
{
1070
    40
1040
3.0
1070
    45
1040
0.5
1002
}
  0
LINE
  5
21D20
330
18
100
AcDbEntity
  8
1DIM1
100
AcDbLine
 10
171.516247889335
 20
-731.4213303512677
 30
0.0
 11
637.0162416153653
 21
-731.4213303512677
 31
0.0
1001
ACAD
1000
DSTYLE
1002
{
1070
    40
1040
3.0
1070
    45
1040
0.5
1002
}
  0
LINE
  5
21D24
330
18
100
AcDbEntity
  8
1DIM
100
AcDbLine
 10
687.6091448346859
 20
-663.8404381108153
 30
0.0
 11
795.516241615365
 21
-663.8404381108153
 31
0.0
1001
ACAD
1000
DSTYLE
1002
{
1070
    45
1040
0.5
1002
}
  0
LINE
  5
21D25
330
18
100
AcDbEntity
  8
1DIM
100
AcDbLine
 10
739.9970136330046
 20
-628.8027677887316
 30
0.0
 11
795.516241615365
 21
-628.8027677887316
 31
0.0
1001
ACAD
1000
DSTYLE
1002
{
1070
    45
1040
0.5
1002
}
  0
LINE
  5
21D26
330
18
100
AcDbEntity
  8
1DIM
100
AcDbLine
 10
794.516241615365
 20
-661.8404381108153
 30
0.0
 11
794.516241615365
 21
-630.8027677887316
 31
0.0
1001
ACAD
1000
DSTYLE
1002
{
1070
    45
1040
0.5
1002
}
  0
LINE
  5
21D2A
330
18
100
AcDbEntity
  8
1DIM
100
AcDbLine
 10
643.0162494764468
 20
-536.821322326691
 30
0.0
 11
643.0162494764468
 21
-499.8213303512664
 31
0.0
1001
ACAD
1000
DSTYLE
1002
{
1070
    45
1040
0.5
1002
}
  0
LINE
  5
21D2B
330
18
100
AcDbEntity
  8
1DIM
100
AcDbLine
 10
615.5162526123796
 20
-536.8212386096336
 30
0.0
 11
615.5162526123796
 21
-499.8213303512664
 31
0.0
1001
ACAD
1000
DSTYLE
1002
{
1070
    45
1040
0.5
1002
}
  0
LINE
  5
21D2C
330
18
100
AcDbEntity
  8
1DIM
100
AcDbLine
 10
641.0162494764468
 20
-500.8213303512664
 30
0.0
 11
617.5162526123796
 21
-500.8213303512664
 31
0.0
1001
ACAD
1000
DSTYLE
1002
{
1070
    45
1040
0.5
1002
}
  0
SOLID
  5
21D30
330
18
100
AcDbEntity
  8
1DIM
100
AcDbTrace
 10
746.6708479197653
 20
-611.8816903348928
 30
0.0
 11
745.9299131930724
 21
-613.769050089124
 31
0.0
 12
746.0186807169501
 22
-611.7434066264643
 32
0.0
 13
746.0186807169501
 23
-611.7434066264643
 33
0.0
1001
ACAD
1000
DSTYLE
1002
{
1070
    45
1040
0.5
1002
}
  0
LINE
  5
21D31
330
18
100
AcDbEntity
  8
1DIM
100
AcDbLine
 10
746.3447643183576
 20
-611.8125484806785
 30
0.0
 11
749.0537571261874
 21
-599.0365224252085
 31
0.0
1001
ACAD
1000
DSTYLE
1002
{
1070
    45
1040
0.5
1002
}
  0
SOLID
  5
21D32
330
18
100
AcDbEntity
  8
1DIM
100
AcDbTrace
 10
759.8062660649305
 20
-611.8816903348928
 30
0.0
 11
759.0653313382376
 21
-613.769050089124
 31
0.0
 12
759.1540988621153
 22
-611.7434066264643
 32
0.0
 13
759.1540988621153
 23
-611.7434066264643
 33
0.0
1001
ACAD
1000
DSTYLE
1002
{
1070
    45
1040
0.5
1002
}
  0
LINE
  5
21D33
330
18
100
AcDbEntity
  8
1DIM
100
AcDbLine
 10
759.4801824635229
 20
-611.8125484806785
 30
0.0
 11
762.1891752713526
 21
-599.0365224252085
 31
0.0
1001
ACAD
1000
DSTYLE
1002
{
1070
    45
1040
0.5
1002
}
  0
LINE
  5
21D34
330
18
100
AcDbEntity
  8
0
100
AcDbLine
 10
629.2662960123446
 20
-504.8213303514287
 30
0.0
 11
627.7662960123446
 21
-510.1213268612904
 31
0.0
  0
LINE
  5
21D35
330
18
100
AcDbEntity
  8
0
100
AcDbLine
 10
627.7662960123446
 20
-510.1213268612904
 30
0.0
 11
627.7662960123448
 21
-539.8213268611823
 31
0.0
  0
LINE
  5
21D36
330
18
100
AcDbEntity
  8
0
100
AcDbLine
 10
629.2662960123446
 20
-504.8213303514287
 30
0.0
 11
630.7662960123447
 21
-510.1213338416741
 31
0.0
  0
LINE
  5
21D37
330
18
100
AcDbEntity
  8
0
100
AcDbLine
 10
625.7662494764468
 20
-539.8213222074842
 30
0.0
 11
632.7662494764467
 21
-539.8213384950486
 31
0.0
  0
LINE
  5
21D38
330
18
100
AcDbEntity
  8
0
100
AcDbLine
 10
630.7662960123447
 20
-510.1213338416741
 30
0.0
 11
630.7662960123448
 21
-539.821333841567
 31
0.0
  0
LINE
  5
21D39
330
18
100
AcDbEntity
  8
0
100
AcDbLine
 10
625.7662494764468
 20
-539.8213222074842
 30
0.0
 11
625.7662494764467
 21
-540.9213256976795
 31
0.0
  0
ARC
  5
21D3A
330
18
100
AcDbEntity
  8
0
100
AcDbCircle
 10
627.2662494764467
 20
-540.9213256976795
 30
0.0
 40
1.5
100
AcDbArc
 50
180.0
 51
269.9998666844662
  0
LINE
  5
21D3B
330
18
100
AcDbEntity
  8
0
100
AcDbLine
 10
632.7662494764467
 20
-539.8213384950486
 30
0.0
 11
632.7662494764467
 21
-540.9213350048592
 31
0.0
  0
LINE
  5
21D3C
330
18
100
AcDbEntity
  8
0
100
AcDbLine
 10
627.2662459862543
 20
-542.4213256976755
 30
0.0
 11
631.2662459862543
 21
-542.4213350048551
 31
0.0
  0
ARC
  5
21D3D
330
18
100
AcDbEntity
  8
0
100
AcDbCircle
 10
631.2662494764467
 20
-540.9213350048592
 30
0.0
 40
1.5
100
AcDbArc
 50
269.9998666844662
 51
0.0
  0
LINE
  5
21D3E
330
18
100
AcDbEntity
  8
1CENTER
100
AcDbLine
 10
629.2662494764467
 20
-503.3905354339634
 30
0.0
 11
629.2662494764467
 21
-543.4916067605752
 31
0.0
  0
LINE
  5
21D3F
330
18
100
AcDbEntity
  8
0
100
AcDbLine
 10
628.1719256624516
 20
-506.9213278051066
 30
0.0
 11
630.134260751327
 21
-506.1213323710556
 31
0.0
  0
LINE
  5
21D40
330
18
100
AcDbEntity
  8
0
100
AcDbLine
 10
630.134260751327
 20
-506.1213323710556
 30
0.0
 11
629.5459841762846
 21
-505.8095625148035
 31
0.0
  0
LINE
  5
21D41
330
18
100
AcDbEntity
  8
0
100
AcDbLine
 10
627.2662960123446
 20
-529.3213256978966
 30
0.0
 11
631.2662960123446
 21
-528.5213350050783
 31
0.0
  0
LINE
  5
21D42
330
18
100
AcDbEntity
  8
0
100
AcDbLine
 10
627.2662960123446
 20
-518.1213256978922
 30
0.0
 11
631.2662960123446
 21
-517.3213350050696
 31
0.0
  0
LINE
  5
21D43
330
18
100
AcDbEntity
  8
0
100
AcDbLine
 10
627.2662960123446
 20
-514.9213256978921
 30
0.0
 11
631.2662960123446
 21
-514.1213350050696
 31
0.0
  0
LINE
  5
21D44
330
18
100
AcDbEntity
  8
0
100
AcDbLine
 10
631.2662960123446
 20
-514.1213350050696
 30
0.0
 11
630.7662960123446
 21
-514.0213338416723
 31
0.0
  0
LINE
  5
21D45
330
18
100
AcDbEntity
  8
0
100
AcDbLine
 10
627.7662960123446
 20
-513.4213268612893
 30
0.0
 11
627.2662960123446
 21
-513.3213256978921
 31
0.0
  0
LINE
  5
21D46
330
18
100
AcDbEntity
  8
0
100
AcDbLine
 10
631.2662960123446
 20
-517.3213350050696
 30
0.0
 11
630.7662960123446
 21
-517.2213338416724
 31
0.0
  0
LINE
  5
21D47
330
18
100
AcDbEntity
  8
0
100
AcDbLine
 10
631.2662960123446
 20
-515.7213350050695
 30
0.0
 11
630.7662960123446
 21
-515.6213338416724
 31
0.0
  0
LINE
  5
21D48
330
18
100
AcDbEntity
  8
0
100
AcDbLine
 10
627.7662960123446
 20
-515.0213268612893
 30
0.0
 11
627.2662960123446
 21
-514.9213256978921
 31
0.0
  0
LINE
  5
21D49
330
18
100
AcDbEntity
  8
0
100
AcDbLine
 10
627.7662960123446
 20
-516.6213268612892
 30
0.0
 11
627.2662960123446
 21
-516.521325697892
 31
0.0
  0
LINE
  5
21D4A
330
18
100
AcDbEntity
  8
0
100
AcDbLine
 10
627.2662960123446
 20
-516.521325697892
 30
0.0
 11
631.2662960123446
 21
-515.7213350050695
 31
0.0
  0
LINE
  5
21D4B
330
18
100
AcDbEntity
  8
0
100
AcDbLine
 10
630.5870748557338
 20
-507.7213334246612
 30
0.0
 11
630.0353253919305
 21
-507.5385692820332
 31
0.0
  0
LINE
  5
21D4C
330
18
100
AcDbEntity
  8
0
100
AcDbLine
 10
631.2662960123446
 20
-510.9213350050695
 30
0.0
 11
630.7662960123446
 21
-510.8213338416724
 31
0.0
  0
LINE
  5
21D4D
330
18
100
AcDbEntity
  8
0
100
AcDbLine
 10
631.2662960123446
 20
-512.5213350050695
 30
0.0
 11
630.7662960123446
 21
-512.4213338416725
 31
0.0
  0
LINE
  5
21D4E
330
18
100
AcDbEntity
  8
0
100
AcDbLine
 10
631.0398889601406
 20
-509.3213344782669
 30
0.0
 11
630.5032952248695
 21
-509.192063780637
 31
0.0
  0
LINE
  5
21D4F
330
18
100
AcDbEntity
  8
0
100
AcDbLine
 10
628.1872106095533
 20
-508.6340962638524
 30
0.0
 11
627.7191121544033
 21
-508.5213267515023
 31
0.0
  0
LINE
  5
21D50
330
18
100
AcDbEntity
  8
0
100
AcDbLine
 10
627.7662960123446
 20
-511.8213268612892
 30
0.0
 11
627.2662960123446
 21
-511.7213256978921
 31
0.0
  0
LINE
  5
21D51
330
18
100
AcDbEntity
  8
0
100
AcDbLine
 10
627.7662960123446
 20
-510.2213268612893
 30
0.0
 11
627.2662960123446
 21
-510.1213256978922
 31
0.0
  0
LINE
  5
21D52
330
18
100
AcDbEntity
  8
0
100
AcDbLine
 10
628.6290975030827
 20
-507.072763601547
 30
0.0
 11
628.1719256624516
 21
-506.9213278051066
 31
0.0
  0
LINE
  5
21D53
330
18
100
AcDbEntity
  8
0
100
AcDbLine
 10
627.7191121544033
 20
-508.5213267515023
 30
0.0
 11
630.5870748557338
 21
-507.7213334246612
 31
0.0
  0
LINE
  5
21D54
330
18
100
AcDbEntity
  8
0
100
AcDbLine
 10
627.2662960123446
 20
-511.7213256978921
 30
0.0
 11
631.2662960123446
 21
-510.9213350050695
 31
0.0
  0
LINE
  5
21D55
330
18
100
AcDbEntity
  8
0
100
AcDbLine
 10
627.2662960123446
 20
-510.1213256978922
 30
0.0
 11
631.0398889601406
 21
-509.3213344782669
 31
0.0
  0
LINE
  5
21D56
330
18
100
AcDbEntity
  8
0
100
AcDbLine
 10
627.2662960123446
 20
-513.3213256978921
 30
0.0
 11
631.2662960123446
 21
-512.5213350050695
 31
0.0
  0
LINE
  5
21D57
330
18
100
AcDbEntity
  8
0
100
AcDbLine
 10
627.2662960123446
 20
-526.1213256978965
 30
0.0
 11
631.2662960123446
 21
-525.3213350050783
 31
0.0
  0
LINE
  5
21D58
330
18
100
AcDbEntity
  8
0
100
AcDbLine
 10
631.2662960123446
 20
-525.3213350050783
 30
0.0
 11
630.7662960123446
 21
-525.2213338416806
 31
0.0
  0
LINE
  5
21D59
330
18
100
AcDbEntity
  8
0
100
AcDbLine
 10
627.7662960123446
 20
-524.6213268612898
 30
0.0
 11
627.2662960123446
 21
-524.5213256978922
 31
0.0
  0
LINE
  5
21D5A
330
18
100
AcDbEntity
  8
0
100
AcDbLine
 10
631.2662960123446
 20
-526.9213350050784
 30
0.0
 11
630.7662960123446
 21
-526.8213338416807
 31
0.0
  0
LINE
  5
21D5B
330
18
100
AcDbEntity
  8
0
100
AcDbLine
 10
631.2662960123446
 20
-528.5213350050783
 30
0.0
 11
630.7662960123446
 21
-528.4213338416806
 31
0.0
  0
LINE
  5
21D5C
330
18
100
AcDbEntity
  8
0
100
AcDbLine
 10
627.7662960123446
 20
-526.2213268612942
 30
0.0
 11
627.2662960123446
 21
-526.1213256978965
 31
0.0
  0
LINE
  5
21D5D
330
18
100
AcDbEntity
  8
0
100
AcDbLine
 10
627.7662960123446
 20
-527.8213268612943
 30
0.0
 11
627.2662960123446
 21
-527.7213256978966
 31
0.0
  0
LINE
  5
21D5E
330
18
100
AcDbEntity
  8
0
100
AcDbLine
 10
627.2662960123446
 20
-527.7213256978966
 30
0.0
 11
631.2662960123446
 21
-526.9213350050784
 31
0.0
  0
LINE
  5
21D5F
330
18
100
AcDbEntity
  8
0
100
AcDbLine
 10
631.2662960123446
 20
-520.5213350050739
 30
0.0
 11
630.7662960123446
 21
-520.4213338416762
 31
0.0
  0
LINE
  5
21D60
330
18
100
AcDbEntity
  8
0
100
AcDbLine
 10
631.2662960123446
 20
-518.9213350050695
 30
0.0
 11
630.7662960123446
 21
-518.8213338416724
 31
0.0
  0
LINE
  5
21D61
330
18
100
AcDbEntity
  8
0
100
AcDbLine
 10
631.2662960123446
 20
-523.7213350050739
 30
0.0
 11
630.7662960123446
 21
-523.6213338416762
 31
0.0
  0
LINE
  5
21D62
330
18
100
AcDbEntity
  8
0
100
AcDbLine
 10
631.2662960123446
 20
-522.121335005074
 30
0.0
 11
630.7662960123446
 21
-522.0213338416763
 31
0.0
  0
LINE
  5
21D63
330
18
100
AcDbEntity
  8
0
100
AcDbLine
 10
627.7662960123446
 20
-518.2213268612893
 30
0.0
 11
627.2662960123446
 21
-518.1213256978922
 31
0.0
  0
LINE
  5
21D64
330
18
100
AcDbEntity
  8
0
100
AcDbLine
 10
627.7662960123446
 20
-519.8213268612899
 30
0.0
 11
627.2662960123446
 21
-519.7213256978921
 31
0.0
  0
LINE
  5
21D65
330
18
100
AcDbEntity
  8
0
100
AcDbLine
 10
627.7662960123446
 20
-523.0213268612899
 30
0.0
 11
627.2662960123446
 21
-522.9213256978923
 31
0.0
  0
LINE
  5
21D66
330
18
100
AcDbEntity
  8
0
100
AcDbLine
 10
627.7662960123446
 20
-521.4213268612898
 30
0.0
 11
627.2662960123446
 21
-521.3213256978921
 31
0.0
  0
LINE
  5
21D67
330
18
100
AcDbEntity
  8
0
100
AcDbLine
 10
627.2662960123446
 20
-521.3213256978921
 30
0.0
 11
631.2662960123446
 21
-520.5213350050739
 31
0.0
  0
LINE
  5
21D68
330
18
100
AcDbEntity
  8
0
100
AcDbLine
 10
627.2662960123446
 20
-519.7213256978921
 30
0.0
 11
631.2662960123446
 21
-518.9213350050695
 31
0.0
  0
LINE
  5
21D69
330
18
100
AcDbEntity
  8
0
100
AcDbLine
 10
627.2662960123446
 20
-522.9213256978923
 30
0.0
 11
631.2662960123446
 21
-522.121335005074
 31
0.0
  0
LINE
  5
21D6A
330
18
100
AcDbEntity
  8
0
100
AcDbLine
 10
627.2662960123446
 20
-524.5213256978922
 30
0.0
 11
631.2662960123446
 21
-523.7213350050739
 31
0.0
  0
LINE
  5
21D6B
330
18
100
AcDbEntity
  8
0
100
AcDbLine
 10
627.7662960123446
 20
-534.2213268612984
 30
0.0
 11
627.2662960123446
 21
-534.1213256979007
 31
0.0
  0
LINE
  5
21D6C
330
18
100
AcDbEntity
  8
0
100
AcDbLine
 10
627.2662960123446
 20
-534.1213256979007
 30
0.0
 11
631.2662960123446
 21
-533.3213350050825
 31
0.0
  0
LINE
  5
21D6D
330
18
100
AcDbEntity
  8
0
100
AcDbLine
 10
631.2662960123446
 20
-533.3213350050825
 30
0.0
 11
630.7662960123446
 21
-533.2213338416848
 31
0.0
  0
LINE
  5
21D6E
330
18
100
AcDbEntity
  8
0
100
AcDbLine
 10
627.7662960123446
 20
-532.6213268612985
 30
0.0
 11
627.2662960123446
 21
-532.5213256979008
 31
0.0
  0
LINE
  5
21D6F
330
18
100
AcDbEntity
  8
0
100
AcDbLine
 10
627.7662960123446
 20
-531.0213268612986
 30
0.0
 11
627.2662960123446
 21
-530.9213256979009
 31
0.0
  0
LINE
  5
21D70
330
18
100
AcDbEntity
  8
0
100
AcDbLine
 10
627.2662960123446
 20
-530.9213256979009
 30
0.0
 11
631.2662960123446
 21
-530.1213350050826
 31
0.0
  0
LINE
  5
21D71
330
18
100
AcDbEntity
  8
0
100
AcDbLine
 10
631.2662960123446
 20
-531.7213350050826
 30
0.0
 11
630.7662960123446
 21
-531.6213338416849
 31
0.0
  0
LINE
  5
21D72
330
18
100
AcDbEntity
  8
0
100
AcDbLine
 10
631.2662960123446
 20
-530.1213350050826
 30
0.0
 11
630.7662960123446
 21
-530.021333841685
 31
0.0
  0
LINE
  5
21D73
330
18
100
AcDbEntity
  8
0
100
AcDbLine
 10
627.2662960123446
 20
-532.5213256979008
 30
0.0
 11
631.2662960123446
 21
-531.7213350050826
 31
0.0
  0
LINE
  5
21D74
330
18
100
AcDbEntity
  8
0
100
AcDbLine
 10
627.7662960123446
 20
-529.4213268612942
 30
0.0
 11
627.2662960123446
 21
-529.3213256978966
 31
0.0
  0
LINE
  5
21D75
330
18
100
AcDbEntity
  8
0
100
AcDbLine
 10
627.7662960123446
 20
-535.8213268612983
 30
0.0
 11
627.2662960123446
 21
-535.7213256979006
 31
0.0
  0
LINE
  5
21D76
330
18
100
AcDbEntity
  8
0
100
AcDbLine
 10
627.2662960123446
 20
-535.7213256979006
 30
0.0
 11
631.2662960123446
 21
-534.9213350050824
 31
0.0
  0
LINE
  5
21D77
330
18
100
AcDbEntity
  8
0
100
AcDbLine
 10
631.2662960123446
 20
-534.9213350050824
 30
0.0
 11
630.7662960123446
 21
-534.8213338416847
 31
0.0
  0
LINE
  5
21D78
330
18
100
AcDbEntity
  8
0
100
AcDbLine
 10
627.7662960123446
 20
-537.4213268612982
 30
0.0
 11
627.2662960123446
 21
-537.3213256979005
 31
0.0
  0
LINE
  5
21D79
330
18
100
AcDbEntity
  8
0
100
AcDbLine
 10
627.2662960123446
 20
-537.3213256979005
 30
0.0
 11
631.2662960123446
 21
-536.5213350050823
 31
0.0
  0
LINE
  5
21D7A
330
18
100
AcDbEntity
  8
0
100
AcDbLine
 10
631.2662960123446
 20
-536.5213350050823
 30
0.0
 11
630.7662960123446
 21
-536.4213338416846
 31
0.0
  0
LINE
  5
21D7B
330
18
100
AcDbEntity
  8
0
100
AcDbLine
 10
627.7662960123446
 20
-539.0213268612981
 30
0.0
 11
627.2662960123446
 21
-538.9213256979004
 31
0.0
  0
LINE
  5
21D7C
330
18
100
AcDbEntity
  8
0
100
AcDbLine
 10
627.2662960123446
 20
-538.9213256979004
 30
0.0
 11
631.2662960123446
 21
-538.1213350050822
 31
0.0
  0
LINE
  5
21D7D
330
18
100
AcDbEntity
  8
0
100
AcDbLine
 10
631.2662960123446
 20
-538.1213350050822
 30
0.0
 11
630.7662960123446
 21
-538.0213338416845
 31
0.0
  0
LINE
  5
21D7E
330
18
100
AcDbEntity
  8
0
100
AcDbLine
 10
179.2662991491884
 20
-504.821329137101
 30
0.0
 11
177.7662991491884
 21
-510.1213256469626
 31
0.0
  0
LINE
  5
21D7F
330
18
100
AcDbEntity
  8
0
100
AcDbLine
 10
177.7662991491884
 20
-510.1213256469626
 30
0.0
 11
177.7662991491886
 21
-539.8213256468546
 31
0.0
  0
LINE
  5
21D80
330
18
100
AcDbEntity
  8
0
100
AcDbLine
 10
179.2662991491884
 20
-504.821329137101
 30
0.0
 11
180.7662991491885
 21
-510.1213326273463
 31
0.0
  0
LINE
  5
21D81
330
18
100
AcDbEntity
  8
0
100
AcDbLine
 10
175.7662526132906
 20
-539.8213209931564
 30
0.0
 11
182.7662526132905
 21
-539.8213372807209
 31
0.0
  0
LINE
  5
21D82
330
18
100
AcDbEntity
  8
0
100
AcDbLine
 10
180.7662991491885
 20
-510.1213326273463
 30
0.0
 11
180.7662991491886
 21
-539.8213326272393
 31
0.0
  0
LINE
  5
21D83
330
18
100
AcDbEntity
  8
0
100
AcDbLine
 10
175.7662526132906
 20
-539.8213209931564
 30
0.0
 11
175.7662526132905
 21
-540.9213244833518
 31
0.0
  0
ARC
  5
21D84
330
18
100
AcDbEntity
  8
0
100
AcDbCircle
 10
177.2662526132905
 20
-540.9213244833518
 30
0.0
 40
1.5
100
AcDbArc
 50
180.0
 51
269.9998666844684
  0
LINE
  5
21D85
330
18
100
AcDbEntity
  8
0
100
AcDbLine
 10
182.7662526132905
 20
-539.8213372807209
 30
0.0
 11
182.7662526132905
 21
-540.9213337905314
 31
0.0
  0
LINE
  5
21D86
330
18
100
AcDbEntity
  8
0
100
AcDbLine
 10
177.2662491230981
 20
-542.4213244833477
 30
0.0
 11
181.2662491230981
 21
-542.4213337905273
 31
0.0
  0
ARC
  5
21D87
330
18
100
AcDbEntity
  8
0
100
AcDbCircle
 10
181.2662526132905
 20
-540.9213337905314
 30
0.0
 40
1.5
100
AcDbArc
 50
269.9998666844684
 51
0.0
  0
LINE
  5
21D88
330
18
100
AcDbEntity
  8
1CENTER
100
AcDbLine
 10
179.2662526132905
 20
-503.3905342196356
 30
0.0
 11
179.2662526132905
 21
-543.4916055462475
 31
0.0
  0
LINE
  5
21D89
330
18
100
AcDbEntity
  8
0
100
AcDbLine
 10
178.1719287992954
 20
-506.9213265907788
 30
0.0
 11
180.1342638881708
 21
-506.1213311567278
 31
0.0
  0
LINE
  5
21D8A
330
18
100
AcDbEntity
  8
0
100
AcDbLine
 10
180.1342638881708
 20
-506.1213311567278
 30
0.0
 11
179.5459873131284
 21
-505.8095613004757
 31
0.0
  0
LINE
  5
21D8B
330
18
100
AcDbEntity
  8
0
100
AcDbLine
 10
177.2662991491884
 20
-529.3213244835688
 30
0.0
 11
181.2662991491884
 21
-528.5213337907505
 31
0.0
  0
LINE
  5
21D8C
330
18
100
AcDbEntity
  8
0
100
AcDbLine
 10
177.2662991491884
 20
-518.1213244835644
 30
0.0
 11
181.2662991491884
 21
-517.3213337907418
 31
0.0
  0
LINE
  5
21D8D
330
18
100
AcDbEntity
  8
0
100
AcDbLine
 10
177.2662991491884
 20
-514.9213244835644
 30
0.0
 11
181.2662991491884
 21
-514.1213337907418
 31
0.0
  0
LINE
  5
21D8E
330
18
100
AcDbEntity
  8
0
100
AcDbLine
 10
181.2662991491884
 20
-514.1213337907418
 30
0.0
 11
180.7662991491884
 21
-514.0213326273446
 31
0.0
  0
LINE
  5
21D8F
330
18
100
AcDbEntity
  8
0
100
AcDbLine
 10
177.7662991491884
 20
-513.4213256469616
 30
0.0
 11
177.2662991491884
 21
-513.3213244835644
 31
0.0
  0
LINE
  5
21D90
330
18
100
AcDbEntity
  8
0
100
AcDbLine
 10
181.2662991491884
 20
-517.3213337907418
 30
0.0
 11
180.7662991491884
 21
-517.2213326273446
 31
0.0
  0
LINE
  5
21D91
330
18
100
AcDbEntity
  8
0
100
AcDbLine
 10
181.2662991491884
 20
-515.7213337907417
 30
0.0
 11
180.7662991491884
 21
-515.6213326273446
 31
0.0
  0
LINE
  5
21D92
330
18
100
AcDbEntity
  8
0
100
AcDbLine
 10
177.7662991491884
 20
-515.0213256469615
 30
0.0
 11
177.2662991491884
 21
-514.9213244835644
 31
0.0
  0
LINE
  5
21D93
330
18
100
AcDbEntity
  8
0
100
AcDbLine
 10
177.7662991491884
 20
-516.6213256469614
 30
0.0
 11
177.2662991491884
 21
-516.5213244835643
 31
0.0
  0
LINE
  5
21D94
330
18
100
AcDbEntity
  8
0
100
AcDbLine
 10
177.2662991491884
 20
-516.5213244835643
 30
0.0
 11
181.2662991491884
 21
-515.7213337907417
 31
0.0
  0
LINE
  5
21D95
330
18
100
AcDbEntity
  8
0
100
AcDbLine
 10
180.5870779925776
 20
-507.7213322103335
 30
0.0
 11
180.0353285287744
 21
-507.5385680677055
 31
0.0
  0
LINE
  5
21D96
330
18
100
AcDbEntity
  8
0
100
AcDbLine
 10
181.2662991491884
 20
-510.9213337907418
 30
0.0
 11
180.7662991491884
 21
-510.8213326273446
 31
0.0
  0
LINE
  5
21D97
330
18
100
AcDbEntity
  8
0
100
AcDbLine
 10
181.2662991491884
 20
-512.5213337907418
 30
0.0
 11
180.7662991491884
 21
-512.4213326273448
 31
0.0
  0
LINE
  5
21D98
330
18
100
AcDbEntity
  8
0
100
AcDbLine
 10
181.0398920969844
 20
-509.3213332639391
 30
0.0
 11
180.5032983617133
 21
-509.1920625663092
 31
0.0
  0
LINE
  5
21D99
330
18
100
AcDbEntity
  8
0
100
AcDbLine
 10
178.1872137463971
 20
-508.6340950495246
 30
0.0
 11
177.7191152912471
 21
-508.5213255371746
 31
0.0
  0
LINE
  5
21D9A
330
18
100
AcDbEntity
  8
0
100
AcDbLine
 10
177.7662991491884
 20
-511.8213256469614
 30
0.0
 11
177.2662991491884
 21
-511.7213244835643
 31
0.0
  0
LINE
  5
21D9B
330
18
100
AcDbEntity
  8
0
100
AcDbLine
 10
177.7662991491884
 20
-510.2213256469615
 30
0.0
 11
177.2662991491884
 21
-510.1213244835644
 31
0.0
  0
LINE
  5
21D9C
330
18
100
AcDbEntity
  8
0
100
AcDbLine
 10
178.6291006399265
 20
-507.0727623872192
 30
0.0
 11
178.1719287992954
 21
-506.9213265907788
 31
0.0
  0
LINE
  5
21D9D
330
18
100
AcDbEntity
  8
0
100
AcDbLine
 10
177.7191152912471
 20
-508.5213255371746
 30
0.0
 11
180.5870779925776
 21
-507.7213322103335
 31
0.0
  0
LINE
  5
21D9E
330
18
100
AcDbEntity
  8
0
100
AcDbLine
 10
177.2662991491884
 20
-511.7213244835643
 30
0.0
 11
181.2662991491884
 21
-510.9213337907418
 31
0.0
  0
LINE
  5
21D9F
330
18
100
AcDbEntity
  8
0
100
AcDbLine
 10
177.2662991491884
 20
-510.1213244835644
 30
0.0
 11
181.0398920969844
 21
-509.3213332639391
 31
0.0
  0
LINE
  5
21DA0
330
18
100
AcDbEntity
  8
0
100
AcDbLine
 10
177.2662991491884
 20
-513.3213244835644
 30
0.0
 11
181.2662991491884
 21
-512.5213337907418
 31
0.0
  0
LINE
  5
21DA1
330
18
100
AcDbEntity
  8
0
100
AcDbLine
 10
177.2662991491884
 20
-526.1213244835687
 30
0.0
 11
181.2662991491884
 21
-525.3213337907505
 31
0.0
  0
LINE
  5
21DA2
330
18
100
AcDbEntity
  8
0
100
AcDbLine
 10
181.2662991491884
 20
-525.3213337907505
 30
0.0
 11
180.7662991491884
 21
-525.2213326273528
 31
0.0
  0
LINE
  5
21DA3
330
18
100
AcDbEntity
  8
0
100
AcDbLine
 10
177.7662991491884
 20
-524.6213256469621
 30
0.0
 11
177.2662991491884
 21
-524.5213244835644
 31
0.0
  0
LINE
  5
21DA4
330
18
100
AcDbEntity
  8
0
100
AcDbLine
 10
181.2662991491884
 20
-526.9213337907506
 30
0.0
 11
180.7662991491884
 21
-526.821332627353
 31
0.0
  0
LINE
  5
21DA5
330
18
100
AcDbEntity
  8
0
100
AcDbLine
 10
181.2662991491884
 20
-528.5213337907505
 30
0.0
 11
180.7662991491884
 21
-528.4213326273529
 31
0.0
  0
LINE
  5
21DA6
330
18
100
AcDbEntity
  8
0
100
AcDbLine
 10
177.7662991491884
 20
-526.2213256469664
 30
0.0
 11
177.2662991491884
 21
-526.1213244835687
 31
0.0
  0
LINE
  5
21DA7
330
18
100
AcDbEntity
  8
0
100
AcDbLine
 10
177.7662991491884
 20
-527.8213256469666
 30
0.0
 11
177.2662991491884
 21
-527.7213244835689
 31
0.0
  0
LINE
  5
21DA8
330
18
100
AcDbEntity
  8
0
100
AcDbLine
 10
177.2662991491884
 20
-527.7213244835689
 30
0.0
 11
181.2662991491884
 21
-526.9213337907506
 31
0.0
  0
LINE
  5
21DA9
330
18
100
AcDbEntity
  8
0
100
AcDbLine
 10
181.2662991491884
 20
-520.5213337907461
 30
0.0
 11
180.7662991491884
 21
-520.4213326273484
 31
0.0
  0
LINE
  5
21DAA
330
18
100
AcDbEntity
  8
0
100
AcDbLine
 10
181.2662991491884
 20
-518.9213337907418
 30
0.0
 11
180.7662991491884
 21
-518.8213326273446
 31
0.0
  0
LINE
  5
21DAB
330
18
100
AcDbEntity
  8
0
100
AcDbLine
 10
181.2662991491884
 20
-523.7213337907461
 30
0.0
 11
180.7662991491884
 21
-523.6213326273485
 31
0.0
  0
LINE
  5
21DAC
330
18
100
AcDbEntity
  8
0
100
AcDbLine
 10
181.2662991491884
 20
-522.1213337907462
 30
0.0
 11
180.7662991491884
 21
-522.0213326273486
 31
0.0
  0
LINE
  5
21DAD
330
18
100
AcDbEntity
  8
0
100
AcDbLine
 10
177.7662991491884
 20
-518.2213256469615
 30
0.0
 11
177.2662991491884
 21
-518.1213244835644
 31
0.0
  0
LINE
  5
21DAE
330
18
100
AcDbEntity
  8
0
100
AcDbLine
 10
177.7662991491884
 20
-519.8213256469621
 30
0.0
 11
177.2662991491884
 21
-519.7213244835643
 31
0.0
  0
LINE
  5
21DAF
330
18
100
AcDbEntity
  8
0
100
AcDbLine
 10
177.7662991491884
 20
-523.0213256469622
 30
0.0
 11
177.2662991491884
 21
-522.9213244835645
 31
0.0
  0
LINE
  5
21DB0
330
18
100
AcDbEntity
  8
0
100
AcDbLine
 10
177.7662991491884
 20
-521.421325646962
 30
0.0
 11
177.2662991491884
 21
-521.3213244835644
 31
0.0
  0
LINE
  5
21DB1
330
18
100
AcDbEntity
  8
0
100
AcDbLine
 10
177.2662991491884
 20
-521.3213244835644
 30
0.0
 11
181.2662991491884
 21
-520.5213337907461
 31
0.0
  0
LINE
  5
21DB2
330
18
100
AcDbEntity
  8
0
100
AcDbLine
 10
177.2662991491884
 20
-519.7213244835643
 30
0.0
 11
181.2662991491884
 21
-518.9213337907418
 31
0.0
  0
LINE
  5
21DB3
330
18
100
AcDbEntity
  8
0
100
AcDbLine
 10
177.2662991491884
 20
-522.9213244835645
 30
0.0
 11
181.2662991491884
 21
-522.1213337907462
 31
0.0
  0
LINE
  5
21DB4
330
18
100
AcDbEntity
  8
0
100
AcDbLine
 10
177.2662991491884
 20
-524.5213244835644
 30
0.0
 11
181.2662991491884
 21
-523.7213337907461
 31
0.0
  0
LINE
  5
21DB5
330
18
100
AcDbEntity
  8
0
100
AcDbLine
 10
177.7662991491884
 20
-534.2213256469706
 30
0.0
 11
177.2662991491884
 21
-534.121324483573
 31
0.0
  0
LINE
  5
21DB6
330
18
100
AcDbEntity
  8
0
100
AcDbLine
 10
177.2662991491884
 20
-534.121324483573
 30
0.0
 11
181.2662991491884
 21
-533.3213337907547
 31
0.0
  0
LINE
  5
21DB7
330
18
100
AcDbEntity
  8
0
100
AcDbLine
 10
181.2662991491884
 20
-533.3213337907547
 30
0.0
 11
180.7662991491884
 21
-533.221332627357
 31
0.0
  0
LINE
  5
21DB8
330
18
100
AcDbEntity
  8
0
100
AcDbLine
 10
177.7662991491884
 20
-532.6213256469707
 30
0.0
 11
177.2662991491884
 21
-532.521324483573
 31
0.0
  0
LINE
  5
21DB9
330
18
100
AcDbEntity
  8
0
100
AcDbLine
 10
177.7662991491884
 20
-531.0213256469708
 30
0.0
 11
177.2662991491884
 21
-530.9213244835731
 31
0.0
  0
LINE
  5
21DBA
330
18
100
AcDbEntity
  8
0
100
AcDbLine
 10
177.2662991491884
 20
-530.9213244835731
 30
0.0
 11
181.2662991491884
 21
-530.1213337907549
 31
0.0
  0
LINE
  5
21DBB
330
18
100
AcDbEntity
  8
0
100
AcDbLine
 10
181.2662991491884
 20
-531.7213337907548
 30
0.0
 11
180.7662991491884
 21
-531.6213326273571
 31
0.0
  0
LINE
  5
21DBC
330
18
100
AcDbEntity
  8
0
100
AcDbLine
 10
181.2662991491884
 20
-530.1213337907549
 30
0.0
 11
180.7662991491884
 21
-530.0213326273572
 31
0.0
  0
LINE
  5
21DBD
330
18
100
AcDbEntity
  8
0
100
AcDbLine
 10
177.2662991491884
 20
-532.521324483573
 30
0.0
 11
181.2662991491884
 21
-531.7213337907548
 31
0.0
  0
LINE
  5
21DBE
330
18
100
AcDbEntity
  8
0
100
AcDbLine
 10
177.7662991491884
 20
-529.4213256469665
 30
0.0
 11
177.2662991491884
 21
-529.3213244835688
 31
0.0
  0
LINE
  5
21DBF
330
18
100
AcDbEntity
  8
0
100
AcDbLine
 10
177.7662991491884
 20
-535.8213256469705
 30
0.0
 11
177.2662991491884
 21
-535.7213244835729
 31
0.0
  0
LINE
  5
21DC0
330
18
100
AcDbEntity
  8
0
100
AcDbLine
 10
177.2662991491884
 20
-535.7213244835729
 30
0.0
 11
181.2662991491884
 21
-534.9213337907546
 31
0.0
  0
LINE
  5
21DC1
330
18
100
AcDbEntity
  8
0
100
AcDbLine
 10
181.2662991491884
 20
-534.9213337907546
 30
0.0
 11
180.7662991491884
 21
-534.8213326273569
 31
0.0
  0
LINE
  5
21DC2
330
18
100
AcDbEntity
  8
0
100
AcDbLine
 10
177.7662991491884
 20
-537.4213256469704
 30
0.0
 11
177.2662991491884
 21
-537.3213244835728
 31
0.0
  0
LINE
  5
21DC3
330
18
100
AcDbEntity
  8
0
100
AcDbLine
 10
177.2662991491884
 20
-537.3213244835728
 30
0.0
 11
181.2662991491884
 21
-536.5213337907545
 31
0.0
  0
LINE
  5
21DC4
330
18
100
AcDbEntity
  8
0
100
AcDbLine
 10
181.2662991491884
 20
-536.5213337907545
 30
0.0
 11
180.7662991491884
 21
-536.4213326273568
 31
0.0
  0
LINE
  5
21DC5
330
18
100
AcDbEntity
  8
0
100
AcDbLine
 10
177.7662991491884
 20
-539.0213256469704
 30
0.0
 11
177.2662991491884
 21
-538.9213244835727
 31
0.0
  0
LINE
  5
21DC6
330
18
100
AcDbEntity
  8
0
100
AcDbLine
 10
177.2662991491884
 20
-538.9213244835727
 30
0.0
 11
181.2662991491884
 21
-538.1213337907544
 31
0.0
  0
LINE
  5
21DC7
330
18
100
AcDbEntity
  8
0
100
AcDbLine
 10
181.2662991491884
 20
-538.1213337907544
 30
0.0
 11
180.7662991491884
 21
-538.0213326273567
 31
0.0
  0
LINE
  5
21DC8
330
18
100
AcDbEntity
  8
0
100
AcDbLine
 10
774.0162416152026
 20
-641.3216164077643
 30
0.0
 11
768.7162451053409
 21
-639.8216164077643
 31
0.0
  0
LINE
  5
21DC9
330
18
100
AcDbEntity
  8
0
100
AcDbLine
 10
768.7162451053409
 20
-639.8216164077643
 30
0.0
 11
739.016245105449
 21
-639.8216164077645
 31
0.0
  0
LINE
  5
21DCA
330
18
100
AcDbEntity
  8
0
100
AcDbLine
 10
774.0162416152026
 20
-641.3216164077643
 30
0.0
 11
768.7162381249573
 21
-642.8216164077644
 31
0.0
  0
LINE
  5
21DCB
330
18
100
AcDbEntity
  8
0
100
AcDbLine
 10
739.0162497591472
 20
-637.8215698718665
 30
0.0
 11
739.0162334715827
 21
-644.8215698718664
 31
0.0
  0
LINE
  5
21DCC
330
18
100
AcDbEntity
  8
0
100
AcDbLine
 10
768.7162381249573
 20
-642.8216164077644
 30
0.0
 11
739.0162381250643
 21
-642.8216164077645
 31
0.0
  0
LINE
  5
21DCD
330
18
100
AcDbEntity
  8
0
100
AcDbLine
 10
739.0162497591472
 20
-637.8215698718665
 30
0.0
 11
737.9162462689518
 21
-637.8215698718664
 31
0.0
  0
ARC
  5
21DCE
330
18
100
AcDbEntity
  8
0
100
AcDbCircle
 10
737.9162462689518
 20
-639.3215698718664
 30
0.0
 40
1.5
100
AcDbArc
 50
90.0
 51
179.9998666844663
  0
LINE
  5
21DCF
330
18
100
AcDbEntity
  8
0
100
AcDbLine
 10
739.0162334715827
 20
-644.8215698718664
 30
0.0
 11
737.9162369617721
 21
-644.8215698718664
 31
0.0
  0
LINE
  5
21DD0
330
18
100
AcDbEntity
  8
0
100
AcDbLine
 10
736.4162462689559
 20
-639.321566381674
 30
0.0
 11
736.4162369617762
 21
-643.321566381674
 31
0.0
  0
ARC
  5
21DD1
330
18
100
AcDbEntity
  8
0
100
AcDbCircle
 10
737.9162369617721
 20
-643.3215698718664
 30
0.0
 40
1.5
100
AcDbArc
 50
179.9998666844663
 51
270.0
  0
LINE
  5
21DD2
330
18
100
AcDbEntity
  8
1CENTER
100
AcDbLine
 10
775.447036532668
 20
-641.3215698718664
 30
0.0
 11
735.3459652060561
 21
-641.3215698718664
 31
0.0
  0
LINE
  5
21DD3
330
18
100
AcDbEntity
  8
0
100
AcDbLine
 10
771.9162441615248
 20
-640.2272460578713
 30
0.0
 11
772.7162395955758
 21
-642.1895811467467
 31
0.0
  0
LINE
  5
21DD4
330
18
100
AcDbEntity
  8
0
100
AcDbLine
 10
772.7162395955758
 20
-642.1895811467467
 30
0.0
 11
773.0280094518279
 21
-641.6013045717043
 31
0.0
  0
LINE
  5
21DD5
330
18
100
AcDbEntity
  8
0
100
AcDbLine
 10
749.5162462687348
 20
-639.3216164077643
 30
0.0
 11
750.316236961553
 21
-643.3216164077643
 31
0.0
  0
LINE
  5
21DD6
330
18
100
AcDbEntity
  8
0
100
AcDbLine
 10
760.7162462687392
 20
-639.3216164077643
 30
0.0
 11
761.5162369615617
 21
-643.3216164077643
 31
0.0
  0
LINE
  5
21DD7
330
18
100
AcDbEntity
  8
0
100
AcDbLine
 10
763.9162462687392
 20
-639.3216164077643
 30
0.0
 11
764.7162369615618
 21
-643.3216164077643
 31
0.0
  0
LINE
  5
21DD8
330
18
100
AcDbEntity
  8
0
100
AcDbLine
 10
764.7162369615618
 20
-643.3216164077643
 30
0.0
 11
764.816238124959
 21
-642.8216164077643
 31
0.0
  0
LINE
  5
21DD9
330
18
100
AcDbEntity
  8
0
100
AcDbLine
 10
765.416245105342
 20
-639.8216164077643
 30
0.0
 11
765.5162462687392
 21
-639.3216164077643
 31
0.0
  0
LINE
  5
21DDA
330
18
100
AcDbEntity
  8
0
100
AcDbLine
 10
761.5162369615617
 20
-643.3216164077643
 30
0.0
 11
761.616238124959
 21
-642.8216164077643
 31
0.0
  0
LINE
  5
21DDB
330
18
100
AcDbEntity
  8
0
100
AcDbLine
 10
763.1162369615619
 20
-643.3216164077643
 30
0.0
 11
763.216238124959
 21
-642.8216164077643
 31
0.0
  0
LINE
  5
21DDC
330
18
100
AcDbEntity
  8
0
100
AcDbLine
 10
763.8162451053421
 20
-639.8216164077643
 30
0.0
 11
763.9162462687392
 21
-639.3216164077643
 31
0.0
  0
LINE
  5
21DDD
330
18
100
AcDbEntity
  8
0
100
AcDbLine
 10
762.2162451053422
 20
-639.8216164077643
 30
0.0
 11
762.3162462687393
 21
-639.3216164077643
 31
0.0
  0
LINE
  5
21DDE
330
18
100
AcDbEntity
  8
0
100
AcDbLine
 10
762.3162462687393
 20
-639.3216164077643
 30
0.0
 11
763.1162369615619
 21
-643.3216164077643
 31
0.0
  0
LINE
  5
21DDF
330
18
100
AcDbEntity
  8
0
100
AcDbLine
 10
771.1162385419701
 20
-642.6423952511535
 30
0.0
 11
771.2990026845981
 21
-642.0906457873502
 31
0.0
  0
LINE
  5
21DE0
330
18
100
AcDbEntity
  8
0
100
AcDbLine
 10
767.9162369615618
 20
-643.3216164077643
 30
0.0
 11
768.0162381249589
 21
-642.8216164077643
 31
0.0
  0
LINE
  5
21DE1
330
18
100
AcDbEntity
  8
0
100
AcDbLine
 10
766.3162369615618
 20
-643.3216164077643
 30
0.0
 11
766.4162381249588
 21
-642.8216164077643
 31
0.0
  0
LINE
  5
21DE2
330
18
100
AcDbEntity
  8
0
100
AcDbLine
 10
769.5162374883645
 20
-643.0952093555603
 30
0.0
 11
769.6455081859943
 21
-642.5586156202892
 31
0.0
  0
LINE
  5
21DE3
330
18
100
AcDbEntity
  8
0
100
AcDbLine
 10
770.203475702779
 20
-640.242531004973
 30
0.0
 11
770.316245215129
 21
-639.774432549823
 31
0.0
  0
LINE
  5
21DE4
330
18
100
AcDbEntity
  8
0
100
AcDbLine
 10
767.0162451053421
 20
-639.8216164077643
 30
0.0
 11
767.1162462687392
 21
-639.3216164077643
 31
0.0
  0
LINE
  5
21DE5
330
18
100
AcDbEntity
  8
0
100
AcDbLine
 10
768.616245105342
 20
-639.8216164077643
 30
0.0
 11
768.7162462687392
 21
-639.3216164077643
 31
0.0
  0
LINE
  5
21DE6
330
18
100
AcDbEntity
  8
0
100
AcDbLine
 10
771.7648083650844
 20
-640.6844178985024
 30
0.0
 11
771.9162441615248
 21
-640.2272460578713
 31
0.0
  0
LINE
  5
21DE7
330
18
100
AcDbEntity
  8
0
100
AcDbLine
 10
770.316245215129
 20
-639.774432549823
 30
0.0
 11
771.1162385419701
 21
-642.6423952511535
 31
0.0
  0
LINE
  5
21DE8
330
18
100
AcDbEntity
  8
0
100
AcDbLine
 10
767.1162462687392
 20
-639.3216164077643
 30
0.0
 11
767.9162369615618
 21
-643.3216164077643
 31
0.0
  0
LINE
  5
21DE9
330
18
100
AcDbEntity
  8
0
100
AcDbLine
 10
768.7162462687392
 20
-639.3216164077643
 30
0.0
 11
769.5162374883645
 21
-643.0952093555603
 31
0.0
  0
LINE
  5
21DEA
330
18
100
AcDbEntity
  8
0
100
AcDbLine
 10
765.5162462687392
 20
-639.3216164077643
 30
0.0
 11
766.3162369615618
 21
-643.3216164077643
 31
0.0
  0
LINE
  5
21DEB
330
18
100
AcDbEntity
  8
0
100
AcDbLine
 10
752.7162462687348
 20
-639.3216164077643
 30
0.0
 11
753.5162369615531
 21
-643.3216164077643
 31
0.0
  0
LINE
  5
21DEC
330
18
100
AcDbEntity
  8
0
100
AcDbLine
 10
753.5162369615531
 20
-643.3216164077643
 30
0.0
 11
753.6162381249508
 21
-642.8216164077643
 31
0.0
  0
LINE
  5
21DED
330
18
100
AcDbEntity
  8
0
100
AcDbLine
 10
754.2162451053415
 20
-639.8216164077643
 30
0.0
 11
754.3162462687392
 21
-639.3216164077643
 31
0.0
  0
LINE
  5
21DEE
330
18
100
AcDbEntity
  8
0
100
AcDbLine
 10
751.916236961553
 20
-643.3216164077643
 30
0.0
 11
752.0162381249506
 21
-642.8216164077643
 31
0.0
  0
LINE
  5
21DEF
330
18
100
AcDbEntity
  8
0
100
AcDbLine
 10
750.316236961553
 20
-643.3216164077643
 30
0.0
 11
750.4162381249507
 21
-642.8216164077643
 31
0.0
  0
LINE
  5
21DF0
330
18
100
AcDbEntity
  8
0
100
AcDbLine
 10
752.6162451053372
 20
-639.8216164077643
 30
0.0
 11
752.7162462687348
 21
-639.3216164077643
 31
0.0
  0
LINE
  5
21DF1
330
18
100
AcDbEntity
  8
0
100
AcDbLine
 10
751.016245105337
 20
-639.8216164077643
 30
0.0
 11
751.1162462687347
 21
-639.3216164077643
 31
0.0
  0
LINE
  5
21DF2
330
18
100
AcDbEntity
  8
0
100
AcDbLine
 10
751.1162462687347
 20
-639.3216164077643
 30
0.0
 11
751.916236961553
 21
-643.3216164077643
 31
0.0
  0
LINE
  5
21DF3
330
18
100
AcDbEntity
  8
0
100
AcDbLine
 10
758.3162369615575
 20
-643.3216164077643
 30
0.0
 11
758.4162381249552
 21
-642.8216164077643
 31
0.0
  0
LINE
  5
21DF4
330
18
100
AcDbEntity
  8
0
100
AcDbLine
 10
759.9162369615618
 20
-643.3216164077643
 30
0.0
 11
760.0162381249589
 21
-642.8216164077643
 31
0.0
  0
LINE
  5
21DF5
330
18
100
AcDbEntity
  8
0
100
AcDbLine
 10
755.1162369615574
 20
-643.3216164077643
 30
0.0
 11
755.2162381249551
 21
-642.8216164077643
 31
0.0
  0
LINE
  5
21DF6
330
18
100
AcDbEntity
  8
0
100
AcDbLine
 10
756.7162369615573
 20
-643.3216164077643
 30
0.0
 11
756.816238124955
 21
-642.8216164077643
 31
0.0
  0
LINE
  5
21DF7
330
18
100
AcDbEntity
  8
0
100
AcDbLine
 10
760.616245105342
 20
-639.8216164077643
 30
0.0
 11
760.7162462687392
 21
-639.3216164077643
 31
0.0
  0
LINE
  5
21DF8
330
18
100
AcDbEntity
  8
0
100
AcDbLine
 10
759.0162451053415
 20
-639.8216164077643
 30
0.0
 11
759.1162462687392
 21
-639.3216164077643
 31
0.0
  0
LINE
  5
21DF9
330
18
100
AcDbEntity
  8
0
100
AcDbLine
 10
755.8162451053414
 20
-639.8216164077643
 30
0.0
 11
755.9162462687391
 21
-639.3216164077643
 31
0.0
  0
LINE
  5
21DFA
330
18
100
AcDbEntity
  8
0
100
AcDbLine
 10
757.4162451053415
 20
-639.8216164077643
 30
0.0
 11
757.5162462687392
 21
-639.3216164077643
 31
0.0
  0
LINE
  5
21DFB
330
18
100
AcDbEntity
  8
0
100
AcDbLine
 10
757.5162462687392
 20
-639.3216164077643
 30
0.0
 11
758.3162369615575
 21
-643.3216164077643
 31
0.0
  0
LINE
  5
21DFC
330
18
100
AcDbEntity
  8
0
100
AcDbLine
 10
759.1162462687392
 20
-639.3216164077643
 30
0.0
 11
759.9162369615618
 21
-643.3216164077643
 31
0.0
  0
LINE
  5
21DFD
330
18
100
AcDbEntity
  8
0
100
AcDbLine
 10
755.9162462687391
 20
-639.3216164077643
 30
0.0
 11
756.7162369615573
 21
-643.3216164077643
 31
0.0
  0
LINE
  5
21DFE
330
18
100
AcDbEntity
  8
0
100
AcDbLine
 10
754.3162462687392
 20
-639.3216164077643
 30
0.0
 11
755.1162369615574
 21
-643.3216164077643
 31
0.0
  0
LINE
  5
21DFF
330
18
100
AcDbEntity
  8
0
100
AcDbLine
 10
744.616245105333
 20
-639.8216164077643
 30
0.0
 11
744.7162462687306
 21
-639.3216164077643
 31
0.0
  0
LINE
  5
21E00
330
18
100
AcDbEntity
  8
0
100
AcDbLine
 10
744.7162462687306
 20
-639.3216164077643
 30
0.0
 11
745.5162369615489
 21
-643.3216164077643
 31
0.0
  0
LINE
  5
21E01
330
18
100
AcDbEntity
  8
0
100
AcDbLine
 10
745.5162369615489
 20
-643.3216164077643
 30
0.0
 11
745.6162381249466
 21
-642.8216164077643
 31
0.0
  0
LINE
  5
21E02
330
18
100
AcDbEntity
  8
0
100
AcDbLine
 10
746.2162451053329
 20
-639.8216164077643
 30
0.0
 11
746.3162462687305
 21
-639.3216164077643
 31
0.0
  0
LINE
  5
21E03
330
18
100
AcDbEntity
  8
0
100
AcDbLine
 10
747.8162451053328
 20
-639.8216164077643
 30
0.0
 11
747.9162462687304
 21
-639.3216164077643
 31
0.0
  0
LINE
  5
21E04
330
18
100
AcDbEntity
  8
0
100
AcDbLine
 10
747.9162462687304
 20
-639.3216164077643
 30
0.0
 11
748.7162369615487
 21
-643.3216164077643
 31
0.0
  0
LINE
  5
21E05
330
18
100
AcDbEntity
  8
0
100
AcDbLine
 10
747.1162369615488
 20
-643.3216164077643
 30
0.0
 11
747.2162381249465
 21
-642.8216164077643
 31
0.0
  0
LINE
  5
21E06
330
18
100
AcDbEntity
  8
0
100
AcDbLine
 10
748.7162369615487
 20
-643.3216164077643
 30
0.0
 11
748.8162381249464
 21
-642.8216164077643
 31
0.0
  0
LINE
  5
21E07
330
18
100
AcDbEntity
  8
0
100
AcDbLine
 10
746.3162462687305
 20
-639.3216164077643
 30
0.0
 11
747.1162369615488
 21
-643.3216164077643
 31
0.0
  0
LINE
  5
21E08
330
18
100
AcDbEntity
  8
0
100
AcDbLine
 10
749.4162451053371
 20
-639.8216164077643
 30
0.0
 11
749.5162462687348
 21
-639.3216164077643
 31
0.0
  0
LINE
  5
21E09
330
18
100
AcDbEntity
  8
0
100
AcDbLine
 10
743.016245105333
 20
-639.8216164077643
 30
0.0
 11
743.1162462687307
 21
-639.3216164077643
 31
0.0
  0
LINE
  5
21E0A
330
18
100
AcDbEntity
  8
0
100
AcDbLine
 10
743.1162462687307
 20
-639.3216164077643
 30
0.0
 11
743.916236961549
 21
-643.3216164077643
 31
0.0
  0
LINE
  5
21E0B
330
18
100
AcDbEntity
  8
0
100
AcDbLine
 10
743.916236961549
 20
-643.3216164077643
 30
0.0
 11
744.0162381249467
 21
-642.8216164077643
 31
0.0
  0
LINE
  5
21E0C
330
18
100
AcDbEntity
  8
0
100
AcDbLine
 10
741.4162451053331
 20
-639.8216164077643
 30
0.0
 11
741.5162462687308
 21
-639.3216164077643
 31
0.0
  0
LINE
  5
21E0D
330
18
100
AcDbEntity
  8
0
100
AcDbLine
 10
741.5162462687308
 20
-639.3216164077643
 30
0.0
 11
742.3162369615491
 21
-643.3216164077643
 31
0.0
  0
LINE
  5
21E0E
330
18
100
AcDbEntity
  8
0
100
AcDbLine
 10
742.3162369615491
 20
-643.3216164077643
 30
0.0
 11
742.4162381249467
 21
-642.8216164077643
 31
0.0
  0
LINE
  5
21E0F
330
18
100
AcDbEntity
  8
0
100
AcDbLine
 10
739.8162451053332
 20
-639.8216164077643
 30
0.0
 11
739.9162462687309
 21
-639.3216164077643
 31
0.0
  0
LINE
  5
21E10
330
18
100
AcDbEntity
  8
0
100
AcDbLine
 10
739.9162462687309
 20
-639.3216164077643
 30
0.0
 11
740.7162369615492
 21
-643.3216164077643
 31
0.0
  0
LINE
  5
21E11
330
18
100
AcDbEntity
  8
0
100
AcDbLine
 10
740.7162369615492
 20
-643.3216164077643
 30
0.0
 11
740.8162381249468
 21
-642.8216164077643
 31
0.0
  0
LINE
  5
21E13
330
18
100
AcDbEntity
  8
1HATCH
100
AcDbLine
 10
720.6668130044249
 20
-645.8712669957309
 30
0.0
 11
720.6666049888518
 21
-651.2212787451816
 31
0.0
  0
LINE
  5
21E14
330
18
100
AcDbEntity
  8
1HATCH
100
AcDbLine
 10
717.3668130044812
 20
-645.8712455892179
 30
0.0
 11
717.3666049892284
 21
-651.2212229020023
 31
0.0
  0
LINE
  5
21E15
330
18
100
AcDbEntity
  8
1HATCH
100
AcDbLine
 10
721.0168103348955
 20
-646.2212702532336
 30
0.0
 11
717.0168103349827
 21
-646.2212423316948
 31
0.0
  0
LINE
  5
21E16
330
18
100
AcDbEntity
  8
0
100
AcDbLine
 10
723.0165831170307
 20
-653.5712842131051
 30
0.0
 11
715.0165831172038
 21
-653.5712283700276
 31
0.0
  0
LINE
  5
21E17
330
18
100
AcDbEntity
  8
1HATCH
100
AcDbLine
 10
720.6666049888518
 20
-651.2212787451816
 30
0.0
 11
721.0166017313464
 21
-651.5712795595533
 31
0.0
  0
LINE
  5
21E18
330
18
100
AcDbEntity
  8
1HATCH
100
AcDbLine
 10
717.3666049892284
 20
-651.2212229020023
 30
0.0
 11
717.016601731693
 21
-651.571223716389
 31
0.0
  0
LINE
  5
21E19
330
18
100
AcDbEntity
  8
1CENTER
100
AcDbLine
 10
719.0168312603477
 20
-643.9097711331119
 30
0.0
 11
719.0165622713502
 21
-655.8110075349908
 31
0.0
  0
TEXT
  5
21E1A
330
18
100
AcDbEntity
  8
1DIM
  6
CONTINUOUS
100
AcDbText
 10
539.6419457203422
 20
-564.6208555850083
 30
0.0
 40
3.5
  1
20×10楕円パイプ
100
AcDbText
1001
ACADANNOTATIVE
1000
AnnotativeData
1002
{
1070
     1
1070
     0
1002
}
  0
SOLID
  5
21E1B
330
18
100
AcDbEntity
  8
1DIM
100
AcDbTrace
 10
534.1291406647223
 20
-577.5325379372356
 30
0.0
 11
533.3058152255928
 21
-579.3854400750705
 31
0.0
 12
533.4836953530391
 22
-577.3656703428062
 32
0.0
 13
533.4836953530391
 23
-577.3656703428062
 33
0.0
1001
ACAD
1000
DSTYLE
1002
{
1070
    45
1040
0.5
1002
}
  0
LINE
  5
21E1C
330
18
100
AcDbEntity
  8
1DIM
100
AcDbLine
 10
533.8064180088807
 20
-577.449104140021
 30
0.0
 11
536.9419457203421
 21
-565.3208555850083
 31
0.0
1001
ACAD
1000
DSTYLE
1002
{
1070
    45
1040
0.5
1002
}
  0
LINE
  5
21E1D
330
18
100
AcDbEntity
  8
1DIM
100
AcDbLine
 10
536.9419457203421
 20
-565.3208555850083
 30
0.0
 11
576.9752790536754
 21
-565.3208555850083
 31
0.0
1001
ACAD
1000
DSTYLE
1002
{
1070
    45
1040
0.5
1002
}
  0
LINE
  5
21E1E
330
18
100
AcDbEntity
  8
0
  6
BYBLOCK
100
AcDbLine
 10
185.2662476579243
 20
-703.0290254912677
 30
0.0
 11
179.2662476579243
 21
-701.4213303512677
 31
0.0
  0
LINE
  5
21E1F
330
18
100
AcDbEntity
  8
0
  6
BYBLOCK
100
AcDbLine
 10
179.2662476579243
 20
-701.4213303512677
 30
0.0
 11
185.2662476579243
 21
-699.8136352112676
 31
0.0
  0
LINE
  5
21E20
330
18
100
AcDbEntity
  8
0
  6
BYBLOCK
100
AcDbLine
 10
179.2662476579243
 20
-701.4213303512677
 30
0.0
 11
185.2662476579243
 21
-701.4213303512677
 31
0.0
  0
LINE
  5
21E21
330
18
100
AcDbEntity
  8
0
  6
BYBLOCK
100
AcDbLine
 10
623.2662419429378
 20
-699.8136352112676
 30
0.0
 11
629.2662419429378
 21
-701.4213303512677
 31
0.0
  0
LINE
  5
21E22
330
18
100
AcDbEntity
  8
0
  6
BYBLOCK
100
AcDbLine
 10
629.2662419429378
 20
-701.4213303512677
 30
0.0
 11
623.2662419429378
 21
-703.0290254912677
 31
0.0
  0
LINE
  5
21E23
330
18
100
AcDbEntity
  8
0
  6
BYBLOCK
100
AcDbLine
 10
629.2662419429378
 20
-701.4213303512677
 30
0.0
 11
623.2662419429378
 21
-701.4213303512677
 31
0.0
  0
TEXT
  5
21E24
330
18
100
AcDbEntity
  8
1DIM1
  6
CONTINUOUS
100
AcDbText
 10
385.6360364670978
 20
-699.3213303512676
 30
0.0
 40
10.5
  1
P450
100
AcDbText
1001
ACAD
1000
DSTYLE
1002
{
1070
    40
1040
3.0
1070
    45
1040
0.5
1002
}
  0
LINE
  5
21E25
330
18
100
AcDbEntity
  8
0
  6
BYBLOCK
100
AcDbLine
 10
686.93083717971
 20
-689.7765664619477
 30
0.0
 11
684.93083717971
 21
-689.2406680819477
 31
0.0
  0
LINE
  5
21E26
330
18
100
AcDbEntity
  8
0
  6
BYBLOCK
100
AcDbLine
 10
684.93083717971
 20
-689.2406680819477
 30
0.0
 11
686.93083717971
 21
-688.7047697019476
 31
0.0
  0
LINE
  5
21E27
330
18
100
AcDbEntity
  8
0
  6
BYBLOCK
100
AcDbLine
 10
684.93083717971
 20
-689.2406680819477
 30
0.0
 11
686.93083717971
 21
-689.2406680819477
 31
0.0
  0
LINE
  5
21E28
330
18
100
AcDbEntity
  8
0
  6
BYBLOCK
100
AcDbLine
 10
741.016241615365
 20
-688.7047697019476
 30
0.0
 11
743.016241615365
 21
-689.2406680819477
 31
0.0
  0
LINE
  5
21E29
330
18
100
AcDbEntity
  8
0
  6
BYBLOCK
100
AcDbLine
 10
743.016241615365
 20
-689.2406680819477
 30
0.0
 11
741.016241615365
 21
-689.7765664619477
 31
0.0
  0
LINE
  5
21E2A
330
18
100
AcDbEntity
  8
0
  6
BYBLOCK
100
AcDbLine
 10
743.016241615365
 20
-689.2406680819477
 30
0.0
 11
741.016241615365
 21
-689.2406680819477
 31
0.0
  0
TEXT
  5
21E2B
330
18
100
AcDbEntity
  8
1DIM
  6
CONTINUOUS
100
AcDbText
 10
711.044719953093
 20
-688.5406680819477
 30
0.0
 40
3.5
  1
58
100
AcDbText
1001
ACAD
1000
DSTYLE
1002
{
1070
    45
1040
0.5
1002
}
  0
LINE
  5
21E2C
330
18
100
AcDbEntity
  8
0
  6
BYBLOCK
100
AcDbLine
 10
741.016241615365
 20
-680.573823700378
 30
0.0
 11
743.016241615365
 21
-681.109722080378
 31
0.0
  0
LINE
  5
21E2D
330
18
100
AcDbEntity
  8
0
  6
BYBLOCK
100
AcDbLine
 10
743.016241615365
 20
-681.109722080378
 30
0.0
 11
741.016241615365
 21
-681.645620460378
 31
0.0
  0
LINE
  5
21E2E
330
18
100
AcDbEntity
  8
0
  6
BYBLOCK
100
AcDbLine
 10
743.016241615365
 20
-681.109722080378
 30
0.0
 11
741.016241615365
 21
-681.109722080378
 31
0.0
  0
LINE
  5
21E2F
330
18
100
AcDbEntity
  8
0
  6
BYBLOCK
100
AcDbLine
 10
721.0165622713502
 20
-681.645620460378
 30
0.0
 11
719.0165622713502
 21
-681.109722080378
 31
0.0
  0
LINE
  5
21E30
330
18
100
AcDbEntity
  8
0
  6
BYBLOCK
100
AcDbLine
 10
719.0165622713502
 20
-681.109722080378
 30
0.0
 11
721.0165622713502
 21
-680.573823700378
 31
0.0
  0
LINE
  5
21E31
330
18
100
AcDbEntity
  8
0
  6
BYBLOCK
100
AcDbLine
 10
719.0165622713502
 20
-681.109722080378
 30
0.0
 11
721.0165622713502
 21
-681.109722080378
 31
0.0
  0
TEXT
  5
21E32
330
18
100
AcDbEntity
  8
1DIM
  6
CONTINUOUS
100
AcDbText
 10
728.0997352766909
 20
-680.409722080378
 30
0.0
 40
3.5
  1
24
100
AcDbText
1001
ACAD
1000
DSTYLE
1002
{
1070
    45
1040
0.5
1002
}
  0
LINE
  5
21E33
330
18
100
AcDbEntity
  8
0
  6
BYBLOCK
100
AcDbLine
 10
785.052139995365
 20
-639.3215698718664
 30
0.0
 11
784.516241615365
 21
-641.3215698718664
 31
0.0
  0
LINE
  5
21E34
330
18
100
AcDbEntity
  8
0
  6
BYBLOCK
100
AcDbLine
 10
784.516241615365
 20
-641.3215698718664
 30
0.0
 11
783.9803432353649
 21
-639.3215698718664
 31
0.0
  0
LINE
  5
21E35
330
18
100
AcDbEntity
  8
0
  6
BYBLOCK
100
AcDbLine
 10
784.516241615365
 20
-641.3215698718664
 30
0.0
 11
784.516241615365
 21
-639.3215698718664
 31
0.0
  0
LINE
  5
21E36
330
18
100
AcDbEntity
  8
0
  6
BYBLOCK
100
AcDbLine
 10
783.9803432353649
 20
-630.8027677887316
 30
0.0
 11
784.516241615365
 21
-628.8027677887316
 31
0.0
  0
LINE
  5
21E37
330
18
100
AcDbEntity
  8
0
  6
BYBLOCK
100
AcDbLine
 10
784.516241615365
 20
-628.8027677887316
 30
0.0
 11
785.052139995365
 21
-630.8027677887316
 31
0.0
  0
LINE
  5
21E38
330
18
100
AcDbEntity
  8
0
  6
BYBLOCK
100
AcDbLine
 10
784.516241615365
 20
-628.8027677887316
 30
0.0
 11
784.516241615365
 21
-630.8027677887316
 31
0.0
  0
TEXT
  5
21E39
330
18
100
AcDbEntity
  8
1DIM
  6
CONTINUOUS
100
AcDbText
 10
783.8162416153649
 20
-637.3955021636325
 30
0.0
 40
3.5
  1
13
 50
90.0
100
AcDbText
1001
ACAD
1000
DSTYLE
1002
{
1070
    45
1040
0.5
1070
   271
1070
     0
1002
}
  0
LINE
  5
21E3A
330
18
100
AcDbEntity
  8
0
  6
BYBLOCK
100
AcDbLine
 10
171.516247889335
 20
-733.0290254912677
 30
0.0
 11
165.516247889335
 21
-731.4213303512677
 31
0.0
  0
LINE
  5
21E3B
330
18
100
AcDbEntity
  8
0
  6
BYBLOCK
100
AcDbLine
 10
165.516247889335
 20
-731.4213303512677
 30
0.0
 11
171.516247889335
 21
-729.8136352112676
 31
0.0
  0
LINE
  5
21E3C
330
18
100
AcDbEntity
  8
0
  6
BYBLOCK
100
AcDbLine
 10
165.516247889335
 20
-731.4213303512677
 30
0.0
 11
171.516247889335
 21
-731.4213303512677
 31
0.0
  0
LINE
  5
21E3D
330
18
100
AcDbEntity
  8
0
  6
BYBLOCK
100
AcDbLine
 10
637.0162416153653
 20
-729.8136352112676
 30
0.0
 11
643.0162416153653
 21
-731.4213303512677
 31
0.0
  0
LINE
  5
21E3E
330
18
100
AcDbEntity
  8
0
  6
BYBLOCK
100
AcDbLine
 10
643.0162416153653
 20
-731.4213303512677
 30
0.0
 11
637.0162416153653
 21
-733.0290254912677
 31
0.0
  0
LINE
  5
21E3F
330
18
100
AcDbEntity
  8
0
  6
BYBLOCK
100
AcDbLine
 10
643.0162416153653
 20
-731.4213303512677
 30
0.0
 11
637.0162416153653
 21
-731.4213303512677
 31
0.0
  0
TEXT
  5
21E40
330
18
100
AcDbEntity
  8
1DIM1
  6
CONTINUOUS
100
AcDbText
 10
383.2662447523501
 20
-729.3213303512676
 30
0.0
 40
10.5
  1
477.5
100
AcDbText
1001
ACAD
1000
DSTYLE
1002
{
1070
    40
1040
3.0
1070
    45
1040
0.5
1002
}
  0
LINE
  5
21E41
330
18
100
AcDbEntity
  8
0
  6
BYBLOCK
100
AcDbLine
 10
795.052139995365
 20
-661.8404381108153
 30
0.0
 11
794.516241615365
 21
-663.8404381108153
 31
0.0
  0
LINE
  5
21E42
330
18
100
AcDbEntity
  8
0
  6
BYBLOCK
100
AcDbLine
 10
794.516241615365
 20
-663.8404381108153
 30
0.0
 11
793.9803432353649
 21
-661.8404381108153
 31
0.0
  0
LINE
  5
21E43
330
18
100
AcDbEntity
  8
0
  6
BYBLOCK
100
AcDbLine
 10
794.516241615365
 20
-663.8404381108153
 30
0.0
 11
794.516241615365
 21
-661.8404381108153
 31
0.0
  0
LINE
  5
21E44
330
18
100
AcDbEntity
  8
0
  6
BYBLOCK
100
AcDbLine
 10
793.9803432353649
 20
-630.8027677887316
 30
0.0
 11
794.516241615365
 21
-628.8027677887316
 31
0.0
  0
LINE
  5
21E45
330
18
100
AcDbEntity
  8
0
  6
BYBLOCK
100
AcDbLine
 10
794.516241615365
 20
-628.8027677887316
 30
0.0
 11
795.052139995365
 21
-630.8027677887316
 31
0.0
  0
LINE
  5
21E46
330
18
100
AcDbEntity
  8
0
  6
BYBLOCK
100
AcDbLine
 10
794.516241615365
 20
-628.8027677887316
 30
0.0
 11
794.516241615365
 21
-630.8027677887316
 31
0.0
  0
TEXT
  5
21E47
330
18
100
AcDbEntity
  8
1DIM
  6
CONTINUOUS
100
AcDbText
 10
793.816241615365
 20
-649.2382696164402
 30
0.0
 40
3.5
  1
35
 50
90.0
100
AcDbText
1001
ACAD
1000
DSTYLE
1002
{
1070
    45
1040
0.5
1002
}
  0
LINE
  5
21E48
330
18
100
AcDbEntity
  8
0
  6
BYBLOCK
100
AcDbLine
 10
641.0162494764468
 20
-500.2854319712664
 30
0.0
 11
643.0162494764468
 21
-500.8213303512664
 31
0.0
  0
LINE
  5
21E49
330
18
100
AcDbEntity
  8
0
  6
BYBLOCK
100
AcDbLine
 10
643.0162494764468
 20
-500.8213303512664
 30
0.0
 11
641.0162494764468
 21
-501.3572287312664
 31
0.0
  0
LINE
  5
21E4A
330
18
100
AcDbEntity
  8
0
  6
BYBLOCK
100
AcDbLine
 10
643.0162494764468
 20
-500.8213303512664
 30
0.0
 11
641.0162494764468
 21
-500.8213303512664
 31
0.0
  0
LINE
  5
21E4B
330
18
100
AcDbEntity
  8
0
  6
BYBLOCK
100
AcDbLine
 10
617.5162526123796
 20
-501.3572287312664
 30
0.0
 11
615.5162526123796
 21
-500.8213303512664
 31
0.0
  0
LINE
  5
21E4C
330
18
100
AcDbEntity
  8
0
  6
BYBLOCK
100
AcDbLine
 10
615.5162526123796
 20
-500.8213303512664
 30
0.0
 11
617.5162526123796
 21
-500.2854319712664
 31
0.0
  0
LINE
  5
21E4D
330
18
100
AcDbEntity
  8
0
  6
BYBLOCK
100
AcDbLine
 10
615.5162526123796
 20
-500.8213303512664
 30
0.0
 11
617.5162526123796
 21
-500.8213303512664
 31
0.0
  0
TEXT
  5
21E4E
330
18
100
AcDbEntity
  8
1DIM
  6
CONTINUOUS
100
AcDbText
 10
624.0162510444131
 20
-500.1213303512664
 30
0.0
 40
3.5
  1
27.5
100
AcDbText
1001
ACAD
1000
DSTYLE
1002
{
1070
    45
1040
0.5
1002
}
  0
LINE
  5
21E4F
330
18
100
AcDbEntity
  8
0
100
AcDbLine
 10
721.0166017313464
 20
-651.5712795595533
 30
0.0
 11
721.0168103348955
 21
-646.2212702532336
 31
0.0
  0
LINE
  5
21E50
330
18
100
AcDbEntity
  8
0
100
AcDbLine
 10
721.0168103348955
 20
-646.2212702532336
 30
0.0
 11
720.6668130044183
 21
-645.8712678101092
 31
0.0
  0
LINE
  5
21E51
330
18
100
AcDbEntity
  8
0
100
AcDbLine
 10
720.6668130044183
 20
-645.8712678101092
 30
0.0
 11
717.3668130044879
 21
-645.8712447748396
 31
0.0
  0
LINE
  5
21E52
330
18
100
AcDbEntity
  8
0
100
AcDbLine
 10
717.3668130044879
 20
-645.8712447748396
 30
0.0
 11
717.0168103349827
 21
-646.2212423316948
 31
0.0
  0
LINE
  5
21E53
330
18
100
AcDbEntity
  8
0
100
AcDbLine
 10
717.0168103349827
 20
-646.2212423316948
 30
0.0
 11
717.016601731693
 21
-651.571223716389
 31
0.0
  0
LINE
  5
21E54
330
18
100
AcDbEntity
  8
0
100
AcDbLine
 10
717.016601731693
 20
-651.571223716389
 30
0.0
 11
715.0165831172038
 21
-653.5712283700276
 31
0.0
  0
LINE
  5
21E55
330
18
100
AcDbEntity
  8
0
100
AcDbLine
 10
715.0165831172038
 20
-653.5712283700276
 30
0.0
 11
715.01658032505
 21
-653.8712283700154
 31
0.0
  0
LINE
  5
21E56
330
18
100
AcDbEntity
  8
0
100
AcDbLine
 10
715.01658032505
 20
-653.8712283700154
 30
0.0
 11
723.0165803248768
 21
-653.871284213093
 31
0.0
  0
LINE
  5
21E57
330
18
100
AcDbEntity
  8
0
100
AcDbLine
 10
723.0165803248768
 20
-653.871284213093
 30
0.0
 11
723.0165831170307
 21
-653.5712842131051
 31
0.0
  0
LINE
  5
21E58
330
18
100
AcDbEntity
  8
0
100
AcDbLine
 10
723.0165831170307
 20
-653.5712842131051
 30
0.0
 11
721.0166017313464
 21
-651.5712795595533
 31
0.0
  0
VIEWPORT
  5
57
330
15
100
AcDbEntity
 67
     1
  8
0
100
AcDbViewport
 68
     1
 10
0.0
 20
0.0
 30
0.0
 40
547.8363136176066
 41
297.0
 68
     1
 69
     1
1001
ACAD
1000
MVIEW
1002
{
1070
    16
1010
0.0
1020
0.0
1030
0.0
1010
0.0
1020
0.0
1030
1.0
1040
0.0
1040
297.0
1040
-4.171999999925333
1040
12.83903210976956
1040
50.0
1040
0.0
1040
0.0
1070
    16
1070
   100
1070
     0
1070
     1
1070
     0
1070
     0
1070
     0
1070
     0
1040
0.0
1040
0.0
1040
0.0
1040
10.0
1040
10.0
1040
10.0
1040
10.0
1070
     0
1002
{
1002
}
1002
}
  0
ENDSEC
  0
SECTION
  2
OBJECTS
  0
DICTIONARY
  5
C
330
0
100
AcDbDictionary
  3
ACAD_COLOR
350
2D0
  3
ACAD_GROUP
350
D
  3
ACAD_LAYOUT
350
2D1
  3
ACAD_MATERIAL
350
2CF
  3
ACAD_MLEADERSTYLE
350
19E18
  3
ACAD_MLINESTYLE
350
1B
  3
ACAD_PLOTSETTINGS
350
2D2
  3
ACAD_SCALELIST
350
19DF6
  3
ACAD_VISUALSTYLE
350
19DE5
  3
ACDBHEADERROUNDTRIPXREC
350
21E59
  3
ACDBVARIABLEDICTIONARY
350
37
  3
CONTENTDICTIONARY
350
D8
  3
DRAWINGVARIABLESDICT
350
20
  3
DWGPROPS
350
21E5C
1001
ACAD
1000
TREAT_AS_HARD
1070
     0
  0
DICTIONARY
  5
18FE8
330
2
100
AcDbDictionary
  3
ACAD_LAYERSTATES
360
18FE9
1001
ACAD
1000
TREAT_AS_HARD
1070
     1
  0
DICTIONARY
  5
1A20A
330
E
100
AcDbDictionary
  3
ADSK_XREC_LAYER_RECONCILED
360
1A20B
1001
ACAD
1000
TREAT_AS_HARD
1070
     1
  0
DICTIONARY
  5
1A20C
330
29
100
AcDbDictionary
  3
ADSK_XREC_LAYER_RECONCILED
360
1A20D
1001
ACAD
1000
TREAT_AS_HARD
1070
     1
  0
DICTIONARY
  5
1A20E
330
31
100
AcDbDictionary
  3
ADSK_XREC_LAYER_RECONCILED
360
1A20F
1001
ACAD
1000
TREAT_AS_HARD
1070
     1
  0
DICTIONARY
  5
1A218
330
101
100
AcDbDictionary
  3
ADSK_XREC_LAYER_RECONCILED
360
1A219
1001
ACAD
1000
TREAT_AS_HARD
1070
     1
  0
DICTIONARY
  5
1A21C
330
103
100
AcDbDictionary
  3
ADSK_XREC_LAYER_RECONCILED
360
1A21D
1001
ACAD
1000
TREAT_AS_HARD
1070
     1
  0
DICTIONARY
  5
1A220
330
25F
100
AcDbDictionary
  3
ADSK_XREC_LAYER_RECONCILED
360
1A221
1001
ACAD
1000
TREAT_AS_HARD
1070
     1
  0
DICTIONARY
  5
1A236
330
26A
100
AcDbDictionary
  3
ADSK_XREC_LAYER_RECONCILED
360
1A237
1001
ACAD
1000
TREAT_AS_HARD
1070
     1
  0
DICTIONARY
  5
1A23C
330
26D
100
AcDbDictionary
  3
ADSK_XREC_LAYER_RECONCILED
360
1A23D
1001
ACAD
1000
TREAT_AS_HARD
1070
     1
  0
DICTIONARY
  5
6E9
330
18
100
AcDbDictionary
  3
ACAD_SORTENTS
360
6EA
1001
ACAD
1000
TREAT_AS_HARD
1070
     1
  0
DICTIONARY
  5
59B
330
15
100
AcDbDictionary
  3
ACAD_SORTENTS
360
59C
1001
ACAD
1000
TREAT_AS_HARD
1070
     1
  0
DICTIONARY
  5
20B2E
330
20B2D
100
AcDbDictionary
  3
ACAD_SORTENTS
360
20B2F
1001
ACAD
1000
TREAT_AS_HARD
1070
     1
  0
DICTIONARY
  5
2D0
102
{ACAD_REACTORS
330
C
102
}
330
C
100
AcDbDictionary
1001
ACAD
1000
TREAT_AS_HARD
1070
     0
  0
DICTIONARY
  5
D
102
{ACAD_REACTORS
330
C
102
}
330
C
100
AcDbDictionary
  3
*A1
350
1EDFD
1001
ACAD
1000
TREAT_AS_HARD
1070
     0
  0
DICTIONARY
  5
2D1
102
{ACAD_REACTORS
330
C
102
}
330
C
100
AcDbDictionary
1001
ACAD
1000
TREAT_AS_HARD
1070
     0
  0
DICTIONARY
  5
2CF
102
{ACAD_REACTORS
330
C
102
}
330
C
100
AcDbDictionary
  3
BYBLOCK
350
19DD5
  3
BYLAYER
350
19DCD
  3
GLOBAL
350
19DDD
1001
ACAD
1000
TREAT_AS_HARD
1070
     0
  0
DICTIONARY
  5
19E18
102
{ACAD_REACTORS
330
C
102
}
330
C
100
AcDbDictionary
  3
BALLOONA
350
20B2C
  3
STANDARD
350
19E19
1001
ACAD
1000
TREAT_AS_HARD
1070
     0
  0
DICTIONARY
  5
1B
102
{ACAD_REACTORS
330
C
102
}
330
C
100
AcDbDictionary
  3
STANDARD
350
1C
1001
ACAD
1000
TREAT_AS_HARD
1070
     0
  0
DICTIONARY
  5
2D2
102
{ACAD_REACTORS
330
C
102
}
330
C
100
AcDbDictionary
1001
ACAD
1000
TREAT_AS_HARD
1070
     0
  0
DICTIONARY
  5
19DF6
102
{ACAD_REACTORS
330
C
102
}
330
C
100
AcDbDictionary
  3
A0
350
19DF7
  3
A1
350
19DF8
  3
A2
350
19DF9
  3
A3
350
19DFA
  3
A4
350
19DFB
  3
A5
350
19DFC
  3
A6
350
19DFD
  3
A7
350
19DFE
  3
A8
350
19DFF
  3
A9
350
19E00
  3
B0
350
19E01
  3
B1
350
19E02
  3
B2
350
19E03
  3
B3
350
19E04
  3
B4
350
19E05
  3
B5
350
19E06
  3
B6
350
19E07
  3
B7
350
19E08
  3
B8
350
19E09
  3
B9
350
19E0A
  3
C0
350
19E0B
  3
C1
350
19E0C
  3
C2
350
19E0D
  3
C3
350
19E0E
  3
C4
350
19E0F
  3
C5
350
19E10
  3
C6
350
19E11
  3
C7
350
19E12
  3
C8
350
19E13
  3
C9
350
19E14
  3
D0
350
19E15
  3
D1
350
19E16
  3
D2
350
19E17
1001
ACAD
1000
TREAT_AS_HARD
1070
     0
  0
DICTIONARY
  5
19DE5
102
{ACAD_REACTORS
330
C
102
}
330
C
100
AcDbDictionary
  3
2DWIREFRAME
350
19DEB
  3
3D_HIDDEN
350
19DED
  3
3DWIREFRAME
350
19DEC
  3
BASIC
350
19DEA
  3
BRIGHTEN
350
19DF1
  3
COLORCHANGE
350
19DF5
  3
CONCEPTUAL
350
19DEE
  3
DIM
350
19DF0
  3
EDGECOLOROFF
350
1E02A
  3
FACEPATTERN
350
19DF4
  3
FLAT
350
19DE6
  3
FLATWITHEDGES
350
19DE7
  3
GOURAUD
350
19DE8
  3
GOURAUDWITHEDGES
350
19DE9
  3
HIDDEN
350
1F381
  3
JITTEROFF
350
1E028
  3
LINEPATTERN
350
19DF3
  3
MODELING
350
1F387
  3
OVERHANGOFF
350
1E029
  3
REALISTIC
350
19DEF
  3
SHADED
350
1F386
  3
SHADED_WITH_EDGES
350
1F385
  3
SHADES_OF_GRAY
350
1F382
  3
SKETCHY
350
1F383
  3
THICKEN
350
19DF2
  3
WIREFRAME
350
1F380
  3
X-RAY
350
1F384
1001
ACAD
1000
TREAT_AS_HARD
1070
     0
  0
DICTIONARY
  5
21E59
102
{ACAD_REACTORS
330
C
102
}
330
C
100
AcDbDictionary
  3
COLORDICT
350
21E5A
  3
MATERIALDICT
350
21E5B
1001
ACAD
1000
TREAT_AS_HARD
1070
     0
  0
DICTIONARY
  5
37
102
{ACAD_REACTORS
330
C
102
}
330
C
100
AcDbDictionary
  3
CANNOSCALE
350
20A45
  3
CMLEADERSTYLE
350
1AC19
  3
CTABLESTYLE
350
4F1
  3
DIMADEC
350
38
  3
DIMASSOC
350
408
  3
HIDETEXT
350
1891
  3
INDEXCTL
350
1AC1C
  3
INTERSECTIONCOLOR
350
1895
  3
INTERSECTIONDISPLAY
350
1894
  3
MSLTSCALE
350
20A9B
  3
OBSCOLOR
350
1892
  3
OBSLTYPE
350
1893
  3
PROJECTNAME
350
409
  3
SORTENTS
350
1AC1B
  3
XCLIPFRAME
350
1F37F
1001
ACAD
1000
TREAT_AS_HARD
1070
     0
  0
DICTIONARY
  5
D8
102
{ACAD_REACTORS
330
C
102
}
330
C
100
AcDbDictionary
1001
CONTENTTABDATA
1070
    11
1000
Child
1000
D:\ACLT\TABset\CHILDREN.dwg
1070
     0
1070
     0
1070
     1
1000
PK
1000
D:\ACLT\TABset\PK.dwg
1070
     0
1070
     0
1070
     1
1000
Lev1
1000
D:\ACLT\TABset\Lever01.dwg
1070
     0
1070
     0
1070
     1
1000
Lev2
1000
D:\ACLT\TABset\Lever02.dwg
1070
     0
1070
     0
1070
     1
1000
L3
1000
D:\Aclt\TABset\Lever03.dwg
1070
     0
1070
     0
1070
     1
1000
Form
1000
D:\ACLT\FORMAT
1070
     1
1070
     0
1070
     1
1000
Jnt
1000
D:\ACLT\TABset\JOINTPARTS.dwg
1070
     0
1070
     0
1070
     1
1000
ISO
1000
D:\ACLT\TABset\Isome01.dwg
1070
     0
1070
     0
1070
     1
1000
R
1000
D:\ACLT\TABset\REGION.dwg
1070
     0
1070
     0
1070
     1
1000
std
1000
D:\ACLT\TABset\std_sym_all.dwg
1070
     0
1070
     0
1070
     1
1000
丸
1000
D:\Aclt\TABset\MARU.dwg
1070
     0
1070
     0
1070
     1
1001
CONTENTCURRENTTAB
1070
     0
1001
ACAD
1000
TREAT_AS_HARD
1070
     0
  0
DICTIONARY
  5
20
102
{ACAD_REACTORS
330
C
102
}
330
C
100
AcDbDictionary
1001
DRAWINGVARIABLESXDATA
1000
POLARANG
1000
0.261799387799149410000000
1000
POLARMODE
1000
1
1000
POLARSTYLE
1000
1
1001
ACAD
1000
TREAT_AS_HARD
1070
     0
  0
XRECORD
  5
21E5C
102
{ACAD_REACTORS
330
C
102
}
330
C
100
AcDbXrecord
  1
DWGPROPS COOKIE
  2

  3

  4

  6

  7

  8
3684
  9

300
=
301
=
302
=
303
=
304
=
305
=
306
=
307
=
308
=
309
=
 40
0.0
 41
2453033.357663484
 42
2459305.354495683
  1

 90
        0
  0
DICTIONARY
  5
18FE9
102
{ACAD_REACTORS
330
18FE8
102
}
330
18FE8
100
AcDbDictionary
1001
ACAD
1000
TREAT_AS_HARD
1070
     0
  0
ACAD_PROXY_OBJECT
  5
1A20B
102
{ACAD_REACTORS
330
1A20A
102
}
330
1A20A
100
AcDbZombieObject
 90
      499
 91
      519
 93
       34
310
40C8804040
  0
ACAD_PROXY_OBJECT
  5
1A20D
102
{ACAD_REACTORS
330
1A20C
102
}
330
1A20C
100
AcDbZombieObject
 90
      499
 91
      519
 93
       34
310
40C8804040
  0
ACAD_PROXY_OBJECT
  5
1A20F
102
{ACAD_REACTORS
330
1A20E
102
}
330
1A20E
100
AcDbZombieObject
 90
      499
 91
      519
 93
       34
310
40C8804040
  0
ACAD_PROXY_OBJECT
  5
1A219
102
{ACAD_REACTORS
330
1A218
102
}
330
1A218
100
AcDbZombieObject
 90
      499
 91
      519
 93
       34
310
40C8804040
  0
ACAD_PROXY_OBJECT
  5
1A21D
102
{ACAD_REACTORS
330
1A21C
102
}
330
1A21C
100
AcDbZombieObject
 90
      499
 91
      519
 93
       34
310
40C8804040
  0
ACAD_PROXY_OBJECT
  5
1A221
102
{ACAD_REACTORS
330
1A220
102
}
330
1A220
100
AcDbZombieObject
 90
      499
 91
      519
 93
       34
310
40C8804040
  0
ACAD_PROXY_OBJECT
  5
1A237
102
{ACAD_REACTORS
330
1A236
102
}
330
1A236
100
AcDbZombieObject
 90
      499
 91
      519
 93
       34
310
40C8804040
  0
ACAD_PROXY_OBJECT
  5
1A23D
102
{ACAD_REACTORS
330
1A23C
102
}
330
1A23C
100
AcDbZombieObject
 90
      499
 91
      519
 93
       34
310
40C8804040
  0
SORTENTSTABLE
  5
6EA
102
{ACAD_REACTORS
330
6E9
102
}
330
6E9
100
AcDbSortentsTable
330
18
331
0
  5
99AB
331
0
  5
AB53
331
0
  5
AB54
331
0
  5
ECB5
331
1DB94
  5
1DB98
331
1DB95
  5
1DB99
331
1DB96
  5
1DB9A
331
1DB97
  5
1DB9B
331
1DB98
  5
1DB9C
331
1DB99
  5
1DB9D
331
1DB9A
  5
1DB9E
331
1DB9B
  5
1DB9F
331
1DB9C
  5
1DBA0
331
1DB9D
  5
1DBA1
331
1DB9E
  5
1DBA2
331
1DB9F
  5
1DBA6
331
1DBA5
  5
1DF13
331
0
  5
1E7B8
331
1EE4F
  5
211C5
331
211C5
  5
211C6
331
211C6
  5
211C7
331
211C7
  5
21601
331
0
  5
21603
331
0
  5
21604
331
0
  5
21605
331
0
  5
21606
331
0
  5
21608
331
21608
  5
2163F
331
21609
  5
21640
331
0
  5
21618
331
21618
  5
21657
331
2161A
  5
21658
331
0
  5
2161C
331
0
  5
2161D
331
0
  5
2161E
331
0
  5
2161F
331
0
  5
21621
331
0
  5
21624
331
0
  5
21625
331
21624
  5
2169D
331
21625
  5
2169E
331
21626
  5
2169F
331
21627
  5
216A0
331
21628
  5
216A1
331
0
  5
2162B
331
2162A
  5
216EC
331
2162B
  5
216ED
331
2162C
  5
216EE
331
2162D
  5
216EF
331
2162E
  5
216F0
331
0
  5
21631
331
21630
  5
2173B
331
21631
  5
2173C
331
21632
  5
2173D
331
21633
  5
2173E
331
21634
  5
2173F
331
0
  5
21638
331
21637
  5
21D36
331
21638
  5
21D37
331
21639
  5
21D38
331
2163A
  5
21D39
331
2163B
  5
21D3A
331
2163C
  5
21D3B
331
2163D
  5
21D3C
331
2163E
  5
21D3D
331
2163F
  5
21D3E
331
21640
  5
21D3F
331
21641
  5
21D40
331
21642
  5
21D41
331
21643
  5
21D42
331
21644
  5
21D43
331
21645
  5
21D44
331
21646
  5
21D45
331
21647
  5
21D46
331
21648
  5
21D47
331
21649
  5
21D48
331
2164A
  5
21D49
331
2164B
  5
21D4A
331
2164C
  5
21D4C
331
2164D
  5
21D4D
331
2164E
  5
21D4E
331
2164F
  5
21D4F
331
21650
  5
21D50
331
21651
  5
21D51
331
21652
  5
21D52
331
21653
  5
21D53
331
21654
  5
21D54
331
21655
  5
21D55
331
21656
  5
21D56
331
21657
  5
21D57
331
21658
  5
21D58
331
21659
  5
21D59
331
2165A
  5
21D5A
331
2165B
  5
21D5B
331
2165C
  5
21D5C
331
2165D
  5
21D5D
331
2165E
  5
21D5E
331
2165F
  5
21D5F
331
21660
  5
21D60
331
21661
  5
21D61
331
21662
  5
21D62
331
21663
  5
21D63
331
21664
  5
21D64
331
21665
  5
21D65
331
21666
  5
21D66
331
21667
  5
21D67
331
21668
  5
21D68
331
21669
  5
21D69
331
2166A
  5
21D6A
331
2166B
  5
21D6B
331
2166C
  5
21D6C
331
2166D
  5
21D6D
331
2166E
  5
21D6E
331
2166F
  5
21D6F
331
21670
  5
21D70
331
21671
  5
21D71
331
21672
  5
21D72
331
21673
  5
21D73
331
21674
  5
21D74
331
21675
  5
21D75
331
21676
  5
21D76
331
21677
  5
21D77
331
21678
  5
21D78
331
21679
  5
21D79
331
2167A
  5
21D7A
331
2167B
  5
21D7B
331
2167C
  5
21D7C
331
0
  5
2167F
331
2167E
  5
21D8E
331
2167F
  5
21D8F
331
21680
  5
21D90
331
21681
  5
21D91
331
2168B
  5
21D92
331
2168C
  5
21D93
331
2168D
  5
21D94
331
2168E
  5
21D95
331
2168F
  5
21D96
331
21690
  5
21D97
331
21691
  5
21D98
331
21692
  5
21D99
331
21693
  5
21D9A
331
21694
  5
21D9B
331
21695
  5
21D9C
331
21696
  5
21D9D
331
21697
  5
21D9E
331
21698
  5
21D9F
331
21699
  5
21DA0
331
2169A
  5
21DA1
331
2169B
  5
21DA2
331
2169C
  5
21DA3
331
2169D
  5
21DA4
331
2169E
  5
21DA5
331
2169F
  5
21DA6
331
216A0
  5
21DA7
331
216A1
  5
21DA8
331
216A2
  5
21DA9
331
216A3
  5
21DAA
331
216A4
  5
21DAB
331
216A5
  5
21DAC
331
216A6
  5
21DAD
331
216A7
  5
21DAE
331
216A8
  5
21DAF
331
216A9
  5
21DB0
331
216AA
  5
21DB1
331
216AB
  5
21DB2
331
216AC
  5
21DB3
331
216AD
  5
21DB4
331
216AE
  5
21DB5
331
216AF
  5
21DB6
331
216B0
  5
21DB7
331
216B1
  5
21DB8
331
216B2
  5
21DB9
331
216B3
  5
21DBA
331
216B4
  5
21DBB
331
216B5
  5
21DBC
331
216B6
  5
21DBD
331
216B7
  5
21DBE
331
216B8
  5
21DBF
331
216B9
  5
21DC0
331
216BA
  5
21DC1
331
216BB
  5
21DC2
331
216BC
  5
21DC3
331
216BD
  5
21DC4
331
216BE
  5
21DC5
331
216BF
  5
21DC6
331
216C0
  5
21DC7
331
216C1
  5
21DC8
331
216C2
  5
21DC9
331
216C3
  5
21DCA
331
216C4
  5
21DCB
331
216C5
  5
21DCC
331
216C6
  5
21DCD
331
216C7
  5
21DCE
331
216C8
  5
21DCF
331
216C9
  5
21DD0
331
216CA
  5
21DD1
331
216CB
  5
21DD2
331
216CC
  5
21DD3
331
216CD
  5
21DD4
331
216CE
  5
21DD5
331
216CF
  5
21DD6
331
216D0
  5
21DD7
331
216D1
  5
21DD8
331
216D2
  5
21DD9
331
216D3
  5
21DDA
331
216D4
  5
21DDB
331
216D5
  5
21DDC
331
216D6
  5
21DDD
331
216D7
  5
21DDE
331
216D8
  5
21DDF
331
216D9
  5
21DE0
331
216DA
  5
21DE1
331
216DB
  5
21DE2
331
216DC
  5
21DE3
331
216DD
  5
21DE4
331
216DE
  5
21DE5
331
216DF
  5
21DE6
331
216E0
  5
21DE7
331
216E1
  5
21DE8
331
216E2
  5
21DE9
331
216E3
  5
21DEA
331
216E4
  5
21DEB
331
216E5
  5
21DEC
331
216E6
  5
21DED
331
216E7
  5
21DEE
331
216E8
  5
21DEF
331
216E9
  5
21DF0
331
216EA
  5
21DF1
331
216EB
  5
21DF2
331
216EC
  5
21DF3
331
216ED
  5
21DF4
331
216EE
  5
21DF5
331
216EF
  5
21DF6
331
216F0
  5
21DF7
331
216F1
  5
21DF8
331
216F2
  5
21DF9
331
216F3
  5
21DFA
331
216F4
  5
21DFB
331
216F5
  5
21DFC
331
216F6
  5
21DFD
331
216F7
  5
21DFE
331
216F8
  5
21DFF
331
216F9
  5
21E00
331
216FA
  5
21E01
331
216FB
  5
21E02
331
216FC
  5
21E03
331
216FD
  5
21E04
331
216FE
  5
21E05
331
216FF
  5
21E06
331
21700
  5
21E07
331
21701
  5
21E08
331
21702
  5
21E09
331
21703
  5
21E0A
331
21704
  5
21E0B
331
21705
  5
21E0C
331
21706
  5
21E0D
331
21707
  5
21E0E
331
21708
  5
21E0F
331
21709
  5
21E10
331
2170A
  5
21E11
331
2170B
  5
21E12
331
2170C
  5
21E13
331
2170D
  5
21E14
331
2170E
  5
21E15
331
2170F
  5
21E16
331
21710
  5
21E17
331
21711
  5
21E18
331
21712
  5
21E19
331
21713
  5
21E1A
331
21714
  5
21E1B
331
21715
  5
21E1C
331
21716
  5
21E1D
331
21717
  5
21E1E
331
21718
  5
21E1F
331
21719
  5
21E20
331
2171A
  5
21E21
331
2171B
  5
21E22
331
2171C
  5
21E23
331
2171D
  5
21E24
331
2171E
  5
21E25
331
2171F
  5
21E26
331
21720
  5
21E27
331
21721
  5
21E28
331
21722
  5
21E29
331
21723
  5
21E2A
331
21724
  5
21E2B
331
21725
  5
21E2C
331
21726
  5
21E2D
331
21727
  5
21E2E
331
21728
  5
21E2F
331
21729
  5
21E30
331
2172A
  5
21E31
331
2172B
  5
21E32
331
2172C
  5
21E33
331
2172D
  5
21E34
331
2172E
  5
21E35
331
2172F
  5
21E36
331
21730
  5
21E37
331
21731
  5
21E38
331
21732
  5
21E39
331
21733
  5
21E3A
331
21734
  5
21E3B
331
21735
  5
21E3C
331
21736
  5
21E3D
331
21737
  5
21E3E
331
21738
  5
21E3F
331
21739
  5
21E40
331
2173A
  5
21E41
331
2173B
  5
21E42
331
2173C
  5
21E43
331
2173D
  5
21E44
331
2173E
  5
21E45
331
2173F
  5
21E46
331
21740
  5
21E47
331
21741
  5
21E48
331
21742
  5
21E49
331
21743
  5
21E4A
331
21744
  5
21E4B
331
21745
  5
21E4C
331
21746
  5
21E4D
331
21747
  5
21E4E
331
0
  5
21AA6
331
0
  5
21AAE
331
21AA6
  5
21E53
331
21AAE
  5
21E54
331
21AAF
  5
21E55
331
21AB0
  5
21E56
331
21AB9
  5
21E57
331
21ABC
  5
21E58
331
21CFA
  5
1EE4F
331
21CFB
  5
21698
331
21CFC
  5
21609
331
21CFD
  5
2160A
331
21CFE
  5
2161A
331
0
  5
2161B
331
0
  5
21623
331
0
  5
21626
331
21D02
  5
2162F
331
21D03
  5
21630
331
21D04
  5
21632
331
21D05
  5
21633
331
21D06
  5
21634
331
21D07
  5
21635
331
21D08
  5
21637
331
21D09
  5
21639
331
21D0A
  5
2163D
331
21D0B
  5
2163E
331
21D0C
  5
21641
331
21D0D
  5
21645
331
21D0E
  5
21646
331
0
  5
2163A
331
0
  5
2163B
331
0
  5
2163C
331
21D12
  5
21659
331
21D13
  5
2165D
331
21D14
  5
2165E
331
0
  5
21642
331
0
  5
21643
331
0
  5
21644
331
21D18
  5
21666
331
21D19
  5
21667
331
21D1A
  5
21668
331
0
  5
21648
331
0
  5
21649
331
0
  5
2164A
331
21D1E
  5
21670
331
21D1F
  5
21671
331
21D20
  5
21672
331
0
  5
2164E
331
0
  5
2164F
331
0
  5
21650
331
21D24
  5
2167A
331
21D25
  5
2167B
331
21D26
  5
2167C
331
0
  5
21654
331
0
  5
21655
331
0
  5
21656
331
21D2A
  5
2168E
331
21D2B
  5
2168F
331
21D2C
  5
21690
331
0
  5
2165A
331
0
  5
2165B
331
0
  5
2165C
331
21D30
  5
21699
331
21D31
  5
2169A
331
21D32
  5
2169B
331
21D33
  5
2169C
331
21D34
  5
216A2
331
21D35
  5
216A3
331
21D36
  5
216A4
331
21D37
  5
216A5
331
21D38
  5
216A6
331
21D39
  5
216A7
331
21D3A
  5
216A8
331
21D3B
  5
216A9
331
21D3C
  5
216AA
331
21D3D
  5
216AB
331
21D3E
  5
216AC
331
21D3F
  5
216AD
331
21D40
  5
216AE
331
21D41
  5
216AF
331
21D42
  5
216B0
331
21D43
  5
216B1
331
21D44
  5
216B2
331
21D45
  5
216B3
331
21D46
  5
216B4
331
21D47
  5
216B5
331
21D48
  5
216B6
331
21D49
  5
216B7
331
21D4A
  5
216B8
331
21D4B
  5
216B9
331
21D4C
  5
216BA
331
21D4D
  5
216BB
331
21D4E
  5
216BC
331
21D4F
  5
216BD
331
21D50
  5
216BE
331
21D51
  5
216BF
331
21D52
  5
216C0
331
21D53
  5
216C1
331
21D54
  5
216C2
331
21D55
  5
216C3
331
21D56
  5
216C4
331
21D57
  5
216C5
331
21D58
  5
216C6
331
21D59
  5
216C7
331
21D5A
  5
216C8
331
21D5B
  5
216C9
331
21D5C
  5
216CA
331
21D5D
  5
216CB
331
21D5E
  5
216CC
331
21D5F
  5
216CD
331
21D60
  5
216CE
331
21D61
  5
216CF
331
21D62
  5
216D0
331
21D63
  5
216D1
331
21D64
  5
216D2
331
21D65
  5
216D3
331
21D66
  5
216D4
331
21D67
  5
216D5
331
21D68
  5
216D6
331
21D69
  5
216D7
331
21D6A
  5
216D8
331
21D6B
  5
216D9
331
21D6C
  5
216DA
331
21D6D
  5
216DB
331
21D6E
  5
216DC
331
21D6F
  5
216DD
331
21D70
  5
216DE
331
21D71
  5
216DF
331
21D72
  5
216E0
331
21D73
  5
216E1
331
21D74
  5
216E2
331
21D75
  5
216E3
331
21D76
  5
216E4
331
21D77
  5
216E5
331
21D78
  5
216E6
331
21D79
  5
216E7
331
21D7A
  5
216E8
331
21D7B
  5
216E9
331
21D7C
  5
216EA
331
21D7D
  5
216EB
331
21D7E
  5
216F1
331
21D7F
  5
216F2
331
21D80
  5
216F3
331
21D81
  5
216F4
331
21D82
  5
216F5
331
21D83
  5
216F6
331
21D84
  5
216F7
331
21D85
  5
216F8
331
21D86
  5
216F9
331
21D87
  5
216FA
331
21D88
  5
216FB
331
21D89
  5
216FC
331
21D8A
  5
216FD
331
21D8B
  5
216FE
331
21D8C
  5
216FF
331
21D8D
  5
21700
331
21D8E
  5
21701
331
21D8F
  5
21702
331
21D90
  5
21703
331
21D91
  5
21704
331
21D92
  5
21705
331
21D93
  5
21706
331
21D94
  5
21707
331
21D95
  5
21708
331
21D96
  5
21709
331
21D97
  5
2170A
331
21D98
  5
2170B
331
21D99
  5
2170C
331
21D9A
  5
2170D
331
21D9B
  5
2170E
331
21D9C
  5
2170F
331
21D9D
  5
21710
331
21D9E
  5
21711
331
21D9F
  5
21712
331
21DA0
  5
21713
331
21DA1
  5
21714
331
21DA2
  5
21715
331
21DA3
  5
21716
331
21DA4
  5
21717
331
21DA5
  5
21718
331
21DA6
  5
21719
331
21DA7
  5
2171A
331
21DA8
  5
2171B
331
21DA9
  5
2171C
331
21DAA
  5
2171D
331
21DAB
  5
2171E
331
21DAC
  5
2171F
331
21DAD
  5
21720
331
21DAE
  5
21721
331
21DAF
  5
21722
331
21DB0
  5
21723
331
21DB1
  5
21724
331
21DB2
  5
21725
331
21DB3
  5
21726
331
21DB4
  5
21727
331
21DB5
  5
21728
331
21DB6
  5
21729
331
21DB7
  5
2172A
331
21DB8
  5
2172B
331
21DB9
  5
2172C
331
21DBA
  5
2172D
331
21DBB
  5
2172E
331
21DBC
  5
2172F
331
21DBD
  5
21730
331
21DBE
  5
21731
331
21DBF
  5
21732
331
21DC0
  5
21733
331
21DC1
  5
21734
331
21DC2
  5
21735
331
21DC3
  5
21736
331
21DC4
  5
21737
331
21DC5
  5
21738
331
21DC6
  5
21739
331
21DC7
  5
2173A
331
21DC8
  5
21740
331
21DC9
  5
21741
331
21DCA
  5
21742
331
21DCB
  5
21743
331
21DCC
  5
21744
331
21DCD
  5
21745
331
21DCE
  5
21746
331
21DCF
  5
21747
331
21DD0
  5
2189E
331
21DD1
  5
2189F
331
21DD2
  5
21AAF
331
21DD3
  5
21AB0
331
21DD4
  5
21AB9
331
21DD5
  5
21ABC
331
21DD6
  5
21CFA
331
21DD7
  5
21CFB
331
21DD8
  5
21CFC
331
21DD9
  5
21CFD
331
21DDA
  5
21CFE
331
21DDB
  5
21CFF
331
21DDC
  5
21D00
331
21DDD
  5
21D01
331
21DDE
  5
21D02
331
21DDF
  5
21D03
331
21DE0
  5
21D04
331
21DE1
  5
21D05
331
21DE2
  5
21D06
331
21DE3
  5
21D07
331
21DE4
  5
21D08
331
21DE5
  5
21D09
331
21DE6
  5
21D0A
331
21DE7
  5
21D0B
331
21DE8
  5
21D0C
331
21DE9
  5
21D0D
331
21DEA
  5
21D0E
331
21DEB
  5
21D0F
331
21DEC
  5
21D10
331
21DED
  5
21D11
331
21DEE
  5
21D12
331
21DEF
  5
21D13
331
21DF0
  5
21D14
331
21DF1
  5
21D15
331
21DF2
  5
21D16
331
21DF3
  5
21D17
331
21DF4
  5
21D18
331
21DF5
  5
21D19
331
21DF6
  5
21D1A
331
21DF7
  5
21D1B
331
21DF8
  5
21D1C
331
21DF9
  5
21D1D
331
21DFA
  5
21D1E
331
21DFB
  5
21D1F
331
21DFC
  5
21D20
331
21DFD
  5
21D21
331
21DFE
  5
21D22
331
21DFF
  5
21D23
331
21E00
  5
21D24
331
21E01
  5
21D25
331
21E02
  5
21D26
331
21E03
  5
21D27
331
21E04
  5
21D28
331
21E05
  5
21D29
331
21E06
  5
21D2A
331
21E07
  5
21D2B
331
21E08
  5
21D2C
331
21E09
  5
21D2D
331
21E0A
  5
21D2E
331
21E0B
  5
21D2F
331
21E0C
  5
21D30
331
21E0D
  5
21D31
331
21E0E
  5
21D32
331
21E0F
  5
21D33
331
21E10
  5
21D34
331
21E11
  5
21D35
331
0
  5
21D4B
331
21E13
  5
21D87
331
21E14
  5
21D88
331
21E15
  5
21D89
331
21E16
  5
21D8A
331
21E17
  5
21D8B
331
21E18
  5
21D8C
331
21E19
  5
21D8D
331
21E1A
  5
21E4F
331
21E1B
  5
21E50
331
21E1C
  5
21E51
331
21E1D
  5
21E52
331
21E1E
  5
21627
331
21E1F
  5
21628
331
21E20
  5
21629
331
21E21
  5
2162A
331
21E22
  5
2162C
331
21E23
  5
2162D
331
21E24
  5
2162E
331
21E25
  5
21647
331
21E26
  5
2164B
331
21E27
  5
2164C
331
21E28
  5
2164D
331
21E29
  5
21651
331
21E2A
  5
21652
331
21E2B
  5
21653
331
21E2C
  5
2165F
331
21E2D
  5
21660
331
21E2E
  5
21661
331
21E2F
  5
21662
331
21E30
  5
21663
331
21E31
  5
21664
331
21E32
  5
21665
331
21E33
  5
21669
331
21E34
  5
2166A
331
21E35
  5
2166B
331
21E36
  5
2166C
331
21E37
  5
2166D
331
21E38
  5
2166E
331
21E39
  5
2166F
331
21E3A
  5
21673
331
21E3B
  5
21674
331
21E3C
  5
21675
331
21E3D
  5
21676
331
21E3E
  5
21677
331
21E3F
  5
21678
331
21E40
  5
21679
331
21E41
  5
2167D
331
21E42
  5
2167E
331
21E43
  5
21680
331
21E44
  5
21681
331
21E45
  5
2168B
331
21E46
  5
2168C
331
21E47
  5
2168D
331
21E48
  5
21691
331
21E49
  5
21692
331
21E4A
  5
21693
331
21E4B
  5
21694
331
21E4C
  5
21695
331
21E4D
  5
21696
331
21E4E
  5
21697
331
21E4F
  5
21D7D
331
21E50
  5
21D7E
331
21E51
  5
21D7F
331
21E52
  5
21D80
331
21E53
  5
21D81
331
21E54
  5
21D82
331
21E55
  5
21D83
331
21E56
  5
21D84
331
21E57
  5
21D85
331
21E58
  5
21D86
  0
SORTENTSTABLE
  5
59C
102
{ACAD_REACTORS
330
59B
102
}
330
59B
100
AcDbSortentsTable
330
15
331
57
  5
57
331
0
  5
70
  0
SORTENTSTABLE
  5
20B2F
102
{ACAD_REACTORS
330
20B2E
102
}
330
20B2E
100
AcDbSortentsTable
330
20B2D
331
20B31
  5
20B32
331
20B32
  5
20B31
  0
GROUP
  5
1EDFD
102
{ACAD_REACTORS
330
D
102
}
330
D
100
AcDbGroup
300

 70
     1
 71
     1
340
1DBA5
  0
MATERIAL
  5
19DD5
102
{ACAD_REACTORS
330
2CF
102
}
102
{ACAD_XDICTIONARY
360
21FF7
102
}
330
2CF
100
AcDbMaterial
  1
BYBLOCK
 72
     0
 73
     2
 43
0.0208333333333333
 43
0.0
 43
0.0
 43
0.0
 43
0.0
 43
0.0208333333333333
 43
0.0
 43
0.0
 43
0.0
 43
0.0
 43
1.0
 43
0.0
 43
0.0
 43
0.0
 43
0.0
 43
1.0
 77
     0
 78
     2
 47
0.0208333333333333
 47
0.0
 47
0.0
 47
0.0
 47
0.0
 47
0.0208333333333333
 47
0.0
 47
0.0
 47
0.0
 47
0.0
 47
1.0
 47
0.0
 47
0.0
 47
0.0
 47
0.0
 47
1.0
171
     0
172
     2
 49
0.0208333333333333
 49
0.0
 49
0.0
 49
0.0
 49
0.0
 49
0.0208333333333333
 49
0.0
 49
0.0
 49
0.0
 49
0.0
 49
1.0
 49
0.0
 49
0.0
 49
0.0
 49
0.0
 49
1.0
175
     0
176
     2
142
0.0208333333333333
142
0.0
142
0.0
142
0.0
142
0.0
142
0.0208333333333333
142
0.0
142
0.0
142
0.0
142
0.0
142
1.0
142
0.0
142
0.0
142
0.0
142
0.0
142
1.0
179
     0
270
     2
144
0.0208333333333333
144
0.0
144
0.0
144
0.0
144
0.0
144
0.0208333333333333
144
0.0
144
0.0
144
0.0
144
0.0
144
1.0
144
0.0
144
0.0
144
0.0
144
0.0
144
1.0
274
     2
147
0.0208333333333333
147
0.0
147
0.0
147
0.0
147
0.0
147
0.0208333333333333
147
0.0
147
0.0
147
0.0
147
0.0
147
1.0
147
0.0
147
0.0
147
0.0
147
0.0
147
1.0
  0
MATERIAL
  5
19DCD
102
{ACAD_REACTORS
330
2CF
102
}
102
{ACAD_XDICTIONARY
360
21FF9
102
}
330
2CF
100
AcDbMaterial
  1
BYLAYER
 72
     0
 73
     2
 43
0.0208333333333333
 43
0.0
 43
0.0
 43
0.0
 43
0.0
 43
0.0208333333333333
 43
0.0
 43
0.0
 43
0.0
 43
0.0
 43
1.0
 43
0.0
 43
0.0
 43
0.0
 43
0.0
 43
1.0
 77
     0
 78
     2
 47
0.0208333333333333
 47
0.0
 47
0.0
 47
0.0
 47
0.0
 47
0.0208333333333333
 47
0.0
 47
0.0
 47
0.0
 47
0.0
 47
1.0
 47
0.0
 47
0.0
 47
0.0
 47
0.0
 47
1.0
171
     0
172
     2
 49
0.0208333333333333
 49
0.0
 49
0.0
 49
0.0
 49
0.0
 49
0.0208333333333333
 49
0.0
 49
0.0
 49
0.0
 49
0.0
 49
1.0
 49
0.0
 49
0.0
 49
0.0
 49
0.0
 49
1.0
175
     0
176
     2
142
0.0208333333333333
142
0.0
142
0.0
142
0.0
142
0.0
142
0.0208333333333333
142
0.0
142
0.0
142
0.0
142
0.0
142
1.0
142
0.0
142
0.0
142
0.0
142
0.0
142
1.0
179
     0
270
     2
144
0.0208333333333333
144
0.0
144
0.0
144
0.0
144
0.0
144
0.0208333333333333
144
0.0
144
0.0
144
0.0
144
0.0
144
1.0
144
0.0
144
0.0
144
0.0
144
0.0
144
1.0
274
     2
147
0.0208333333333333
147
0.0
147
0.0
147
0.0
147
0.0
147
0.0208333333333333
147
0.0
147
0.0
147
0.0
147
0.0
147
1.0
147
0.0
147
0.0
147
0.0
147
0.0
147
1.0
  0
MATERIAL
  5
19DDD
102
{ACAD_REACTORS
330
2CF
102
}
102
{ACAD_XDICTIONARY
360
21FFB
102
}
330
2CF
100
AcDbMaterial
  1
GLOBAL
 72
     0
 73
     2
 43
0.0208333333333333
 43
0.0
 43
0.0
 43
0.0
 43
0.0
 43
0.0208333333333333
 43
0.0
 43
0.0
 43
0.0
 43
0.0
 43
1.0
 43
0.0
 43
0.0
 43
0.0
 43
0.0
 43
1.0
 77
     0
 78
     2
 47
0.0208333333333333
 47
0.0
 47
0.0
 47
0.0
 47
0.0
 47
0.0208333333333333
 47
0.0
 47
0.0
 47
0.0
 47
0.0
 47
1.0
 47
0.0
 47
0.0
 47
0.0
 47
0.0
 47
1.0
171
     0
172
     2
 49
0.0208333333333333
 49
0.0
 49
0.0
 49
0.0
 49
0.0
 49
0.0208333333333333
 49
0.0
 49
0.0
 49
0.0
 49
0.0
 49
1.0
 49
0.0
 49
0.0
 49
0.0
 49
0.0
 49
1.0
175
     0
176
     2
142
0.0208333333333333
142
0.0
142
0.0
142
0.0
142
0.0
142
0.0208333333333333
142
0.0
142
0.0
142
0.0
142
0.0
142
1.0
142
0.0
142
0.0
142
0.0
142
0.0
142
1.0
179
     0
270
     2
144
0.0208333333333333
144
0.0
144
0.0
144
0.0
144
0.0
144
0.0208333333333333
144
0.0
144
0.0
144
0.0
144
0.0
144
1.0
144
0.0
144
0.0
144
0.0
144
0.0
144
1.0
274
     2
147
0.0208333333333333
147
0.0
147
0.0
147
0.0
147
0.0
147
0.0208333333333333
147
0.0
147
0.0
147
0.0
147
0.0
147
1.0
147
0.0
147
0.0
147
0.0
147
0.0
147
1.0
  0
ACAD_PROXY_OBJECT
  5
20B2C
102
{ACAD_REACTORS
330
19E18
102
}
330
19E18
100
AcDbZombieObject
 90
      499
 91
      512
 93
      546
310
40501902A4063FBFFFFFE0000000000000020000000000000020408000000000000004090140501A0000000000000410000000000000004102575016000000000000039000
340
12
340
42
340
F
340
20B2D
 94
        0
1001
ACAD_MLEADERVER
1070
     2
  0
ACAD_PROXY_OBJECT
  5
19E19
102
{ACAD_REACTORS
330
19E18
102
}
330
19E18
100
AcDbZombieObject
 90
      499
 91
      512
 93
      610
310
40901902A4063FBFFFFFE000000000000002040AD7A3703D0AD73F4214DD185B99185C990000000000000104090141901A00000000000004100000000000000041025764000000000000300FC0
340
12
340
0
340
F
340
0
 94
        0
1001
ACAD_MLEADERVER
1070
     2
  0
MLINESTYLE
  5
1C
102
{ACAD_REACTORS
330
1B
102
}
330
1B
100
AcDbMlineStyle
  2
STANDARD
 70
     0
  3

 62
   256
 51
90.0
 52
90.0
 71
     2
 49
0.5
 62
   256
  6
BYLAYER
 49
-0.5
 62
   256
  6
BYLAYER
  0
ACAD_PROXY_OBJECT
  5
19DF7
102
{ACAD_REACTORS
330
19DF6
102
}
330
19DF6
100
AcDbZombieObject
 90
      499
 91
      511
 93
       41
310
903313A31580
  0
ACAD_PROXY_OBJECT
  5
19DF8
102
{ACAD_REACTORS
330
19DF6
102
}
330
19DF6
100
AcDbZombieObject
 90
      499
 91
      511
 93
      105
310
903313A324000000000000004000
  0
ACAD_PROXY_OBJECT
  5
19DF9
102
{ACAD_REACTORS
330
19DF6
102
}
330
19DF6
100
AcDbZombieObject
 90
      499
 91
      511
 93
      105
310
903313A344000000000000104000
  0
ACAD_PROXY_OBJECT
  5
19DFA
102
{ACAD_REACTORS
330
19DF6
102
}
330
19DF6
100
AcDbZombieObject
 90
      499
 91
      511
 93
      105
310
903313A354000000000000144000
  0
ACAD_PROXY_OBJECT
  5
19DFB
102
{ACAD_REACTORS
330
19DF6
102
}
330
19DF6
100
AcDbZombieObject
 90
      499
 91
      511
 93
      105
310
903313A384000000000000204000
  0
ACAD_PROXY_OBJECT
  5
19DFC
102
{ACAD_REACTORS
330
19DF6
102
}
330
19DF6
100
AcDbZombieObject
 90
      499
 91
      511
 93
      113
310
904313A31304000000000000244000
  0
ACAD_PROXY_OBJECT
  5
19DFD
102
{ACAD_REACTORS
330
19DF6
102
}
330
19DF6
100
AcDbZombieObject
 90
      499
 91
      511
 93
      113
310
904313A31364000000000000304000
  0
ACAD_PROXY_OBJECT
  5
19DFE
102
{ACAD_REACTORS
330
19DF6
102
}
330
19DF6
100
AcDbZombieObject
 90
      499
 91
      511
 93
      113
310
904313A32304000000000000344000
  0
ACAD_PROXY_OBJECT
  5
19DFF
102
{ACAD_REACTORS
330
19DF6
102
}
330
19DF6
100
AcDbZombieObject
 90
      499
 91
      511
 93
      113
310
904313A333040000000000003E4000
  0
ACAD_PROXY_OBJECT
  5
19E00
102
{ACAD_REACTORS
330
19DF6
102
}
330
19DF6
100
AcDbZombieObject
 90
      499
 91
      511
 93
      113
310
904313A34304000000000000444000
  0
ACAD_PROXY_OBJECT
  5
19E01
102
{ACAD_REACTORS
330
19DF6
102
}
330
19DF6
100
AcDbZombieObject
 90
      499
 91
      511
 93
      113
310
904313A35304000000000000494000
  0
ACAD_PROXY_OBJECT
  5
19E02
102
{ACAD_REACTORS
330
19DF6
102
}
330
19DF6
100
AcDbZombieObject
 90
      499
 91
      511
 93
      121
310
905313A3130304000000000000594000
  0
ACAD_PROXY_OBJECT
  5
19E03
102
{ACAD_REACTORS
330
19DF6
102
}
330
19DF6
100
AcDbZombieObject
 90
      499
 91
      511
 93
      105
310
903323A310000000000000010100
  0
ACAD_PROXY_OBJECT
  5
19E04
102
{ACAD_REACTORS
330
19DF6
102
}
330
19DF6
100
AcDbZombieObject
 90
      499
 91
      511
 93
      105
310
903343A310000000000000410100
  0
ACAD_PROXY_OBJECT
  5
19E05
102
{ACAD_REACTORS
330
19DF6
102
}
330
19DF6
100
AcDbZombieObject
 90
      499
 91
      511
 93
      105
310
903383A310000000000000810100
  0
ACAD_PROXY_OBJECT
  5
19E06
102
{ACAD_REACTORS
330
19DF6
102
}
330
19DF6
100
AcDbZombieObject
 90
      499
 91
      511
 93
      113
310
90431303A310000000000000910100
  0
ACAD_PROXY_OBJECT
  5
19E07
102
{ACAD_REACTORS
330
19DF6
102
}
330
19DF6
100
AcDbZombieObject
 90
      499
 91
      511
 93
      121
310
9053130303A310000000000001650100
  0
ACAD_PROXY_OBJECT
  5
19E08
102
{ACAD_REACTORS
330
19DF6
102
}
330
19DF6
100
AcDbZombieObject
 90
      499
 91
      511
 93
      257
310
90E312F31323822203D2031272D3022000000000000200FC000000000000284000
  0
ACAD_PROXY_OBJECT
  5
19E09
102
{ACAD_REACTORS
330
19DF6
102
}
330
19DF6
100
AcDbZombieObject
 90
      499
 91
      511
 93
      249
310
90D312F363422203D2031272D3022000000000000240FC000000000000284000
  0
ACAD_PROXY_OBJECT
  5
19E0A
102
{ACAD_REACTORS
330
19DF6
102
}
330
19DF6
100
AcDbZombieObject
 90
      499
 91
      511
 93
      249
310
90D312F333222203D2031272D3022000000000000280FC000000000000284000
  0
ACAD_PROXY_OBJECT
  5
19E0B
102
{ACAD_REACTORS
330
19DF6
102
}
330
19DF6
100
AcDbZombieObject
 90
      499
 91
      511
 93
      249
310
90D312F313622203D2031272D30220000000000002C0FC000000000000284000
  0
ACAD_PROXY_OBJECT
  5
19E0C
102
{ACAD_REACTORS
330
19DF6
102
}
330
19DF6
100
AcDbZombieObject
 90
      499
 91
      511
 93
      249
310
90D332F333222203D2031272D30220000000000002E0FC000000000000284000
  0
ACAD_PROXY_OBJECT
  5
19E0D
102
{ACAD_REACTORS
330
19DF6
102
}
330
19DF6
100
AcDbZombieObject
 90
      499
 91
      511
 93
      241
310
90C312F3822203D2031272D3022000000000000300FC000000000000284000
  0
ACAD_PROXY_OBJECT
  5
19E0E
102
{ACAD_REACTORS
330
19DF6
102
}
330
19DF6
100
AcDbZombieObject
 90
      499
 91
      511
 93
      249
310
90D332F313622203D2031272D3022000000000000320FC000000000000284000
  0
ACAD_PROXY_OBJECT
  5
19E0F
102
{ACAD_REACTORS
330
19DF6
102
}
330
19DF6
100
AcDbZombieObject
 90
      499
 91
      511
 93
      241
310
90C312F3422203D2031272D3022000000000000340FC000000000000284000
  0
ACAD_PROXY_OBJECT
  5
19E10
102
{ACAD_REACTORS
330
19DF6
102
}
330
19DF6
100
AcDbZombieObject
 90
      499
 91
      511
 93
      241
310
90C332F3822203D2031272D3022000000000000360FC000000000000284000
  0
ACAD_PROXY_OBJECT
  5
19E11
102
{ACAD_REACTORS
330
19DF6
102
}
330
19DF6
100
AcDbZombieObject
 90
      499
 91
      511
 93
      241
310
90C312F3222203D2031272D3022000000000000380FC000000000000284000
  0
ACAD_PROXY_OBJECT
  5
19E12
102
{ACAD_REACTORS
330
19DF6
102
}
330
19DF6
100
AcDbZombieObject
 90
      499
 91
      511
 93
      241
310
90C332F3422203D2031272D30220000000000003A0FC000000000000284000
  0
ACAD_PROXY_OBJECT
  5
19E13
102
{ACAD_REACTORS
330
19DF6
102
}
330
19DF6
100
AcDbZombieObject
 90
      499
 91
      511
 93
      161
310
90A3122203D2031272D30224000000000000284000
  0
ACAD_PROXY_OBJECT
  5
19E14
102
{ACAD_REACTORS
330
19DF6
102
}
330
19DF6
100
AcDbZombieObject
 90
      499
 91
      511
 93
      257
310
90E312D312F3222203D2031272D30220000000000003E0FC000000000000284000
  0
ACAD_PROXY_OBJECT
  5
19E15
102
{ACAD_REACTORS
330
19DF6
102
}
330
19DF6
100
AcDbZombieObject
 90
      499
 91
      511
 93
      225
310
90A3322203D2031272D302200000000000002100000000000000284000
  0
ACAD_PROXY_OBJECT
  5
19E16
102
{ACAD_REACTORS
330
19DF6
102
}
330
19DF6
100
AcDbZombieObject
 90
      499
 91
      511
 93
      225
310
90A3622203D2031272D302200000000000006100000000000000284000
  0
ACAD_PROXY_OBJECT
  5
19E17
102
{ACAD_REACTORS
330
19DF6
102
}
330
19DF6
100
AcDbZombieObject
 90
      499
 91
      511
 93
      249
310
90D31272D3022203D2031272D30220000000000000A100000000000000284000
  0
ACAD_PROXY_OBJECT
  5
19DEB
102
{ACAD_REACTORS
330
19DE5
102
}
330
19DE5
100
AcDbZombieObject
 90
      499
 91
      510
 93
      436
310
42CC9915DA5C99599C985B595049028333333333333E3BF0000000000000FB0107901411070040501600405405064090741402480A0340
1001
ACAD
1000
AcDbSavedByObjectVersion
1070
     0
  0
ACAD_PROXY_OBJECT
  5
19DED
102
{ACAD_REACTORS
330
19DE5
102
}
330
19DE5
100
AcDbZombieObject
 90
      499
 91
      510
 93
      500
310
424CD108121A5919195B90640502408333333333333E3BF0000000000000FB01079024090700405020000000000001110200405405064090740C02480A0340
1001
ACAD
1000
AcDbSavedByObjectVersion
1070
     0
  0
ACAD_PROXY_OBJECT
  5
19DEC
102
{ACAD_REACTORS
330
19DE5
102
}
330
19DE5
100
AcDbZombieObject
 90
      499
 91
      510
 93
      436
310
42CCD915DA5C99599C985B595059028333333333333E3BF0000000000000FB0107901411070040501600405405064090741402480A0340
1001
ACAD
1000
AcDbSavedByObjectVersion
1070
     0
  0
ACAD_PROXY_OBJECT
  5
19DEA
102
{ACAD_REACTORS
330
19DE5
102
}
330
19DE5
100
AcDbZombieObject
 90
      499
 91
      510
 93
      388
310
4150985CDA58D07406404333333333333E3BF0000000000000FB0107A41107004050150841D405064090741402480A0350
1001
ACAD
1000
AcDbSavedByObjectVersion
1070
     0
  0
ACAD_PROXY_OBJECT
  5
19DF1
102
{ACAD_REACTORS
330
19DE5
102
}
330
19DE5
100
AcDbZombieObject
 90
      499
 91
      510
 93
      428
310
42109C9A59DA1D195B90C409028333333333333E3BF0000000000000FB010790141107004050150841D405064090741402480A029950
1001
ACAD
1000
AcDbSavedByObjectVersion
1070
     0
  0
ACAD_PROXY_OBJECT
  5
19DF5
102
{ACAD_REACTORS
330
19DE5
102
}
330
19DE5
100
AcDbZombieObject
 90
      499
 91
      510
 93
      452
310
42D0DBDB1BDC90DA185B99D95104090240C333333333333E3BF0000000000000FB0108901411070040501508421405064090741402480A0350
1001
ACAD
1000
AcDbSavedByObjectVersion
1070
     0
  0
ACAD_PROXY_OBJECT
  5
19DEE
102
{ACAD_REACTORS
330
19DE5
102
}
330
19DE5
100
AcDbZombieObject
 90
      499
 91
      510
 93
      500
310
4290DBDB98D95C1D1D585B10940D028333333333333E3BF0000000000000FB0107902409070040501000000000000111010841D405064090740C02480A0340
1001
ACAD
1000
AcDbSavedByObjectVersion
1070
     0
  0
ACAD_PROXY_OBJECT
  5
19DF0
102
{ACAD_REACTORS
330
19DE5
102
}
330
19DE5
100
AcDbZombieObject
 90
      499
 91
      510
 93
      412
310
40D11A5B50B409028333333333333E3BF0000000000000FB010790141107004050150841D405064090741402480A02677FFFFFD0
1001
ACAD
1000
AcDbSavedByObjectVersion
1070
     0
  0
ACAD_PROXY_OBJECT
  5
1E02A
102
{ACAD_REACTORS
330
19DE5
102
}
330
19DE5
100
AcDbZombieObject
 90
      499
 91
      510
 93
      452
310
43115919D950DBDB1BDC93D999916409028333333333333E3BF0000000000000FB010790141107004050150841D405064090741402480A0350
1001
ACAD
1000
AcDbSavedByObjectVersion
1070
     0
  0
ACAD_PROXY_OBJECT
  5
19DF4
102
{ACAD_REACTORS
330
19DE5
102
}
330
19DE5
100
AcDbZombieObject
 90
      499
 91
      510
 93
      444
310
42D19858D95C185D1D195C9B90F409028333333333333E3BF0000000000000FB010790141107004050150841D405064090741402480A0350
1001
ACAD
1000
AcDbSavedByObjectVersion
1070
     0
  0
ACAD_PROXY_OBJECT
  5
19DE6
102
{ACAD_REACTORS
330
19DE5
102
}
330
19DE5
100
AcDbZombieObject
 90
      499
 91
      510
 93
      388
310
41119B185D240901404333333333333E3BF0000000000000F9010740A41107004050150841D405064090741402480A1B50
1001
ACAD
1000
AcDbSavedByObjectVersion
1070
     0
  0
ACAD_PROXY_OBJECT
  5
19DE7
102
{ACAD_REACTORS
330
19DE5
102
}
330
19DE5
100
AcDbZombieObject
 90
      499
 91
      510
 93
      476
310
43519B185D15DA5D1A115919D95CD0140901404333333333333E3BF0000000000000F9010740901411070040501600405405064090741402480A1B50
1001
ACAD
1000
AcDbSavedByObjectVersion
1070
     0
  0
ACAD_PROXY_OBJECT
  5
19DE8
102
{ACAD_REACTORS
330
19DE5
102
}
330
19DE5
100
AcDbZombieObject
 90
      499
 91
      510
 93
      412
310
41D1DBDD5C985D5910240902404333333333333E3BF0000000000000F9010740A411070040501641D405064090741402480A1B50
1001
ACAD
1000
AcDbSavedByObjectVersion
1070
     0
  0
ACAD_PROXY_OBJECT
  5
19DE9
102
{ACAD_REACTORS
330
19DE5
102
}
330
19DE5
100
AcDbZombieObject
 90
      499
 91
      510
 93
      500
310
4411DBDD5C985D5915DA5D1A115919D95CD0340902404333333333333E3BF0000000000000F9010740901411070040501600405405064090741402480A1B50
1001
ACAD
1000
AcDbSavedByObjectVersion
1070
     0
  0
ACAD_PROXY_OBJECT
  5
1F381
102
{ACAD_REACTORS
330
19DE5
102
}
330
19DE5
100
AcDbZombieObject
 90
      499
 91
      510
 93
      476
310
41921A5919195B90640502408333333333333E33F0000000000000F901079024090700405020000000000001110200405405064090740C02480A0340
1001
ACAD
1000
AcDbSavedByObjectVersion
1070
     0
  0
ACAD_PROXY_OBJECT
  5
1E028
102
{ACAD_REACTORS
330
19DE5
102
}
330
19DE5
100
AcDbZombieObject
 90
      499
 91
      510
 93
      428
310
42529A5D1D195C93D999914409028333333333333E3BF0000000000000FB010790141107004050150A41D405064090741402480A0350
1001
ACAD
1000
AcDbSavedByObjectVersion
1070
     0
  0
ACAD_PROXY_OBJECT
  5
19DF3
102
{ACAD_REACTORS
330
19DE5
102
}
330
19DE5
100
AcDbZombieObject
 90
      499
 91
      510
 93
      444
310
42D31A5B995C185D1D195C9B90E409028333333333333E3BF0000000000000FB010790141107004050750841D405064090741402483A0350
1001
ACAD
1000
AcDbSavedByObjectVersion
1070
     0
  0
ACAD_PROXY_OBJECT
  5
1F387
102
{ACAD_REACTORS
330
19DE5
102
}
330
19DE5
100
AcDbZombieObject
 90
      499
 91
      510
 93
      484
310
42135BD9195B1A5B99D0A409038333333333333E33F0000000000000F901074090290700405010000000000201990108421405064090741402480A1B40
1001
ACAD
1000
AcDbSavedByObjectVersion
1070
     0
  0
ACAD_PROXY_OBJECT
  5
1E029
102
{ACAD_REACTORS
330
19DE5
102
}
330
19DE5
100
AcDbZombieObject
 90
      499
 91
      510
 93
      444
310
42D3DD995C9A185B99D3D999915409028333333333333E3BF0000000000000FB010790141107004050150941D405064090741402480A0350
1001
ACAD
1000
AcDbSavedByObjectVersion
1070
     0
  0
ACAD_PROXY_OBJECT
  5
19DEF
102
{ACAD_REACTORS
330
19DE5
102
}
330
19DE5
100
AcDbZombieObject
 90
      499
 91
      510
 93
      420
310
425499585B1A5CDD1A58D08409028333333333333E3BF0000000000000FB01079019070040501508421405064090741402480A1B40
1001
ACAD
1000
AcDbSavedByObjectVersion
1070
     0
  0
ACAD_PROXY_OBJECT
  5
1F386
102
{ACAD_REACTORS
330
19DE5
102
}
330
19DE5
100
AcDbZombieObject
 90
      499
 91
      510
 93
      420
310
4194DA1859195911B40902404333333333333E33F0000000000000F9010740A41107004050150800405405064090840C02480A0B40
1001
ACAD
1000
AcDbSavedByObjectVersion
1070
     0
  0
ACAD_PROXY_OBJECT
  5
1F385
102
{ACAD_REACTORS
330
19DE5
102
}
330
19DE5
100
AcDbZombieObject
 90
      499
 91
      510
 93
      516
310
4454DA18591959081DDA5D1A08195919D95CD1A40902404333333333333E33F0000000000000F901074090142907004050250800405405064090740C02480A0B40
1001
ACAD
1000
AcDbSavedByObjectVersion
1070
     0
  0
ACAD_PROXY_OBJECT
  5
1F382
102
{ACAD_REACTORS
330
19DE5
102
}
330
19DE5
100
AcDbZombieObject
 90
      499
 91
      510
 93
      532
310
4394DA1859195CC81BD98811DC985E5174090240C333333333333E33F0000000000000F901079024090741D01000000000000111010841D405064090740C02480A0340
1001
ACAD
1000
AcDbSavedByObjectVersion
1070
     0
  0
ACAD_PROXY_OBJECT
  5
1F383
102
{ACAD_REACTORS
330
19DE5
102
}
330
19DE5
100
AcDbZombieObject
 90
      499
 91
      510
 93
      476
310
41D4DAD95D18DA1E51840502408333333333333E33F0000000000000F901079024090741D01000000000000111010B41D405064090741802480A0340
1001
ACAD
1000
AcDbSavedByObjectVersion
1070
     0
  0
ACAD_PROXY_OBJECT
  5
19DF2
102
{ACAD_REACTORS
330
19DE5
102
}
330
19DE5
100
AcDbZombieObject
 90
      499
 91
      510
 93
      412
310
41D51A1A58DAD95B90D409028333333333333E3BF0000000000000FB010790141107004050150C41D405064090741402480A0350
1001
ACAD
1000
AcDbSavedByObjectVersion
1070
     0
  0
ACAD_PROXY_OBJECT
  5
1F380
102
{ACAD_REACTORS
330
19DE5
102
}
330
19DE5
100
AcDbZombieObject
 90
      499
 91
      510
 93
      420
310
4255DA5C99599C985B595059028333333333333E33F0000000000000F90107901411070040501600405405064090740C02480A0340
1001
ACAD
1000
AcDbSavedByObjectVersion
1070
     0
  0
ACAD_PROXY_OBJECT
  5
1F384
102
{ACAD_REACTORS
330
19DE5
102
}
330
19DE5
100
AcDbZombieObject
 90
      499
 91
      510
 93
      404
310
41560B54985E51940902404000000000000E03F0000000000000F9010740501907004050150841D405064090740C02480A1B40
1001
ACAD
1000
AcDbSavedByObjectVersion
1070
     0
  0
XRECORD
  5
21E5A
102
{ACAD_REACTORS
330
21E59
102
}
330
21E59
100
AcDbXrecord
340
2D0
  0
XRECORD
  5
21E5B
102
{ACAD_REACTORS
330
21E59
102
}
330
21E59
100
AcDbXrecord
340
2CF
  0
DICTIONARYVAR
  5
20A45
102
{ACAD_REACTORS
330
37
102
}
330
37
100
DictionaryVariables
280
     0
  1
1:1
  0
DICTIONARYVAR
  5
1AC19
102
{ACAD_REACTORS
330
37
102
}
330
37
100
DictionaryVariables
280
     0
  1
Standard
  0
DICTIONARYVAR
  5
4F1
102
{ACAD_REACTORS
330
37
102
}
330
37
100
DictionaryVariables
280
     0
  1
Standard
  0
DICTIONARYVAR
  5
38
102
{ACAD_REACTORS
330
37
102
}
330
37
100
DictionaryVariables
280
     0
  1
-1
  0
DICTIONARYVAR
  5
408
102
{ACAD_REACTORS
330
37
102
}
330
37
100
DictionaryVariables
280
     0
  1
2
  0
DICTIONARYVAR
  5
1891
102
{ACAD_REACTORS
330
37
102
}
330
37
100
DictionaryVariables
280
     0
  1
1
  0
DICTIONARYVAR
  5
1AC1C
102
{ACAD_REACTORS
330
37
102
}
330
37
100
DictionaryVariables
280
     0
  1
0
  0
DICTIONARYVAR
  5
1895
102
{ACAD_REACTORS
330
37
102
}
330
37
100
DictionaryVariables
280
     0
  1
8
  0
DICTIONARYVAR
  5
1894
102
{ACAD_REACTORS
330
37
102
}
330
37
100
DictionaryVariables
280
     0
  1
1
  0
DICTIONARYVAR
  5
20A9B
102
{ACAD_REACTORS
330
37
102
}
330
37
100
DictionaryVariables
280
     0
  1
0
  0
DICTIONARYVAR
  5
1892
102
{ACAD_REACTORS
330
37
102
}
330
37
100
DictionaryVariables
280
     0
  1
8
  0
DICTIONARYVAR
  5
1893
102
{ACAD_REACTORS
330
37
102
}
330
37
100
DictionaryVariables
280
     0
  1
2
  0
DICTIONARYVAR
  5
409
102
{ACAD_REACTORS
330
37
102
}
330
37
100
DictionaryVariables
280
     0
  1

  0
DICTIONARYVAR
  5
1AC1B
102
{ACAD_REACTORS
330
37
102
}
330
37
100
DictionaryVariables
280
     0
  1
127
  0
DICTIONARYVAR
  5
1F37F
102
{ACAD_REACTORS
330
37
102
}
330
37
100
DictionaryVariables
280
     0
  1
2
  0
DICTIONARY
  5
21FF7
330
19DD5
100
AcDbDictionary
  3
ACAD_XREC_ROUNDTRIP
360
21FF8
1001
ACAD
1000
TREAT_AS_HARD
1070
     1
  0
DICTIONARY
  5
21FF9
330
19DCD
100
AcDbDictionary
  3
ACAD_XREC_ROUNDTRIP
360
21FFA
1001
ACAD
1000
TREAT_AS_HARD
1070
     1
  0
DICTIONARY
  5
21FFB
330
19DDD
100
AcDbDictionary
  3
ACAD_XREC_ROUNDTRIP
360
21FFC
1001
ACAD
1000
TREAT_AS_HARD
1070
     1
  0
XRECORD
  5
21FF8
102
{ACAD_REACTORS
330
21FF7
102
}
330
21FF7
100
AcDbXrecord
102
MATERIAL
148
0.0
149
0.0
149
0.0
 93
        0
 94
      127
282
     0
 72
     0
 77
     0
171
     0
175
     0
179
     0
273
     0
  0
XRECORD
  5
21FFA
102
{ACAD_REACTORS
330
21FF9
102
}
330
21FF9
100
AcDbXrecord
102
MATERIAL
148
0.0
149
0.0
149
0.0
 93
        0
 94
      127
282
     0
 72
     0
 77
     0
171
     0
175
     0
179
     0
273
     0
  0
XRECORD
  5
21FFC
102
{ACAD_REACTORS
330
21FFB
102
}
330
21FFB
100
AcDbXrecord
102
MATERIAL
148
0.0
149
0.0
149
0.0
 93
        0
 94
      127
282
     0
 72
     0
 77
     0
171
     0
175
     0
179
     0
273
     0
  0
ENDSEC
  0
EOF
