  0
SECTION
  2
HEADER
  9
$ACADVER
  1
AC1012
  9
$DWGCODEPAGE
  3
ansi_932
  9
$INSBASE
 10
0.0
 20
0.0
 30
0.0
  9
$EXTMIN
 10
400.01646191413
 20
-713.3562495504368
 30
0.0
  9
$EXTMAX
 10
765.516241615365
 20
-523.3905354339634
 30
0.0
  9
$LIMMIN
 10
0.0
 20
0.0
  9
$LIMMAX
 10
420.0
 20
297.0
  9
$ORTHOMODE
 70
     0
  9
$REGENMODE
 70
     1
  9
$FILLMODE
 70
     1
  9
$QTEXTMODE
 70
     0
  9
$MIRRTEXT
 70
     0
  9
$DRAGMODE
 70
     2
  9
$LTSCALE
 40
0.5
  9
$OSMODE
 70
 12415
  9
$ATTMODE
 70
     1
  9
$TEXTSIZE
 40
4.0
  9
$TRACEWID
 40
1.0
  9
$TEXTSTYLE
  7
STANDARD
  9
$CLAYER
  8
1TEXT
  9
$CELTYPE
  6
BYLAYER
  9
$CECOLOR
 62
   256
  9
$CELTSCALE
 40
1.0
  9
$DELOBJ
 70
     1
  9
$DISPSILH
 70
     0
  9
$DIMSCALE
 40
1.0
  9
$DIMASZ
 40
2.0
  9
$DIMEXO
 40
0.0
  9
$DIMDLI
 40
7.0
  9
$DIMRND
 40
0.0
  9
$DIMDLE
 40
0.0
  9
$DIMEXE
 40
1.0
  9
$DIMTP
 40
0.0
  9
$DIMTM
 40
0.0
  9
$DIMTXT
 40
3.5
  9
$DIMCEN
 40
0.0
  9
$DIMTSZ
 40
0.0
  9
$DIMTOL
 70
     0
  9
$DIMLIM
 70
     0
  9
$DIMTIH
 70
     0
  9
$DIMTOH
 70
     0
  9
$DIMSE1
 70
     0
  9
$DIMSE2
 70
     0
  9
$DIMTAD
 70
     1
  9
$DIMZIN
 70
     8
  9
$DIMBLK
  1

  9
$DIMASO
 70
     1
  9
$DIMSHO
 70
     1
  9
$DIMPOST
  1
 
  9
$DIMAPOST
  1

  9
$DIMALT
 70
     0
  9
$DIMALTD
 70
     2
  9
$DIMALTF
 40
25.4
  9
$DIMLFAC
 40
1.0
  9
$DIMTOFL
 70
     1
  9
$DIMTVP
 40
0.0
  9
$DIMTIX
 70
     0
  9
$DIMSOXD
 70
     0
  9
$DIMSAH
 70
     1
  9
$DIMBLK1
  1
OPEN30
  9
$DIMBLK2
  1
OPEN30
  9
$DIMSTYLE
  2
NEWX10
  9
$DIMCLRD
 70
   256
  9
$DIMCLRE
 70
   256
  9
$DIMCLRT
 70
   201
  9
$DIMTFAC
 40
0.7
  9
$DIMGAP
 40
0.7
  9
$DIMJUST
 70
     0
  9
$DIMSD1
 70
     0
  9
$DIMSD2
 70
     0
  9
$DIMTOLJ
 70
     1
  9
$DIMTZIN
 70
     8
  9
$DIMALTZ
 70
     0
  9
$DIMALTTZ
 70
     0
  9
$DIMFIT
 70
     2
  9
$DIMUPT
 70
     0
  9
$DIMUNIT
 70
     2
  9
$DIMDEC
 70
     2
  9
$DIMTDEC
 70
     4
  9
$DIMALTU
 70
     2
  9
$DIMALTTD
 70
     2
  9
$DIMTXSTY
  7
STANDARD
  9
$DIMAUNIT
 70
     0
  9
$LUNITS
 70
     2
  9
$LUPREC
 70
     4
  9
$SKETCHINC
 40
1.0
  9
$FILLETRAD
 40
0.5
  9
$AUNITS
 70
     0
  9
$AUPREC
 70
     2
  9
$MENU
  1
acad
  9
$ELEVATION
 40
0.0
  9
$PELEVATION
 40
0.0
  9
$THICKNESS
 40
0.0
  9
$LIMCHECK
 70
     0
  9
$CHAMFERA
 40
1.0
  9
$CHAMFERB
 40
1.0
  9
$CHAMFERC
 40
20.0
  9
$CHAMFERD
 40
0.0
  9
$SKPOLY
 70
     0
  9
$TDCREATE
 40
2453033.732663484
  9
$TDUPDATE
 40
2459426.38145566
  9
$TDINDWG
 40
2.6741564352
  9
$TDUSRTIMER
 40
2.6741564352
  9
$USRTIMER
 70
     1
  9
$ANGBASE
 50
0.0
  9
$ANGDIR
 70
     0
  9
$PDMODE
 70
     0
  9
$PDSIZE
 40
0.0
  9
$PLINEWID
 40
0.0
  9
$COORDS
 70
     2
  9
$SPLFRAME
 70
     0
  9
$SPLINETYPE
 70
     6
  9
$SPLINESEGS
 70
     8
  9
$ATTDIA
 70
     0
  9
$ATTREQ
 70
     1
  9
$HANDLING
 70
     1
  9
$HANDSEED
  5
21A46
  9
$SURFTAB1
 70
     6
  9
$SURFTAB2
 70
     6
  9
$SURFTYPE
 70
     6
  9
$SURFU
 70
     6
  9
$SURFV
 70
     6
  9
$UCSNAME
  2

  9
$UCSORG
 10
0.0
 20
0.0
 30
0.0
  9
$UCSXDIR
 10
1.0
 20
0.0
 30
0.0
  9
$UCSYDIR
 10
0.0
 20
1.0
 30
0.0
  9
$PUCSNAME
  2

  9
$PUCSORG
 10
0.0
 20
0.0
 30
0.0
  9
$PUCSXDIR
 10
1.0
 20
0.0
 30
0.0
  9
$PUCSYDIR
 10
0.0
 20
1.0
 30
0.0
  9
$USERI1
 70
     0
  9
$USERI2
 70
     0
  9
$USERI3
 70
     0
  9
$USERI4
 70
     0
  9
$USERI5
 70
     0
  9
$USERR1
 40
0.0
  9
$USERR2
 40
0.0
  9
$USERR3
 40
0.0
  9
$USERR4
 40
0.0
  9
$USERR5
 40
0.0
  9
$WORLDVIEW
 70
     1
  9
$SHADEDGE
 70
     3
  9
$SHADEDIF
 70
    70
  9
$TILEMODE
 70
     1
  9
$MAXACTVP
 70
    48
  9
$PINSBASE
 10
0.0
 20
0.0
 30
0.0
  9
$PLIMCHECK
 70
     0
  9
$PEXTMIN
 10
1.000000000000000E+20
 20
1.000000000000000E+20
 30
1.000000000000000E+20
  9
$PEXTMAX
 10
-1.000000000000000E+20
 20
-1.000000000000000E+20
 30
-1.000000000000000E+20
  9
$PLIMMIN
 10
0.0
 20
0.0
  9
$PLIMMAX
 10
420.0
 20
297.0
  9
$UNITMODE
 70
     0
  9
$VISRETAIN
 70
     1
  9
$PLINEGEN
 70
     0
  9
$PSLTSCALE
 70
     1
  9
$TREEDEPTH
 70
  3020
  9
$PICKSTYLE
 70
     1
  9
$CMLSTYLE
  2
STANDARD
  9
$CMLJUST
 70
     0
  9
$CMLSCALE
 40
20.0
  9
$SAVEIMAGES
 70
     1
  0
ENDSEC
  0
SECTION
  2
CLASSES
  0
CLASS
  1
DICTIONARYVAR
  2
AcDbDictionaryVar
  3
ObjectDBX Classes
 90
        0
280
     0
281
     0
  0
CLASS
  1
IDBUFFER
  2
AcDbIdBuffer
  3
ObjectDBX Classes
 90
    32768
280
     0
281
     0
  0
CLASS
  1
LWPOLYLINE
  2
AcDbPolyline
  3
ObjectDBX Classes
 90
    32768
280
     0
281
     1
  0
CLASS
  1
ACDBDICTIONARYWDFLT
  2
AcDbDictionaryWithDefault
  3
ObjectDBX Classes
 90
    32768
280
     0
281
     0
  0
CLASS
  1
ACDBPLACEHOLDER
  2
AcDbPlaceHolder
  3
ObjectDBX Classes
 90
        0
280
     0
281
     0
  0
CLASS
  1
LAYOUT
  2
AcDbLayout
  3
ObjectDBX Classes
 90
        0
280
     0
281
     0
  0
CLASS
  1
TABLESTYLE
  2
AcDbTableStyle
  3
ObjectDBX Classes
 90
     4095
280
     0
281
     0
  0
CLASS
  1
SORTENTSTABLE
  2
AcDbSortentsTable
  3
ObjectDBX Classes
 90
    32768
280
     0
281
     0
  0
CLASS
  1
DIMASSOC
  2
AcDbDimAssoc
  3
"AcDbDimAssoc|Product Desc:     AcDim ARX App For Dimension|Company:          Autodesk, Inc.|WEB Address:      www.autodesk.com"
 90
        0
280
     0
281
     0
  0
CLASS
  1
MATERIAL
  2
AcDbMaterial
  3
ObjectDBX Classes
 90
     1153
280
     0
281
     0
  0
CLASS
  1
VISUALSTYLE
  2
AcDbVisualStyle
  3
ObjectDBX Classes
 90
     4095
280
     0
281
     0
  0
CLASS
  1
SCALE
  2
AcDbScale
  3
ObjectDBX Classes
 90
     1153
280
     0
281
     0
  0
CLASS
  1
MLEADERSTYLE
  2
AcDbMLeaderStyle
  3
ACDB_MLEADERSTYLE_CLASS
 90
     4095
280
     0
281
     0
  0
CLASS
  1
CELLSTYLEMAP
  2
AcDbCellStyleMap
  3
ObjectDBX Classes
 90
     1152
280
     0
281
     0
  0
CLASS
  1
EXACXREFPANELOBJECT
  2
ExAcXREFPanelObject
  3
EXAC_ESW
 90
     1025
280
     1
281
     0
  0
CLASS
  1
NPOCOLLECTION
  2
AcDbImpNonPersistentObjectsCollection
  3
ObjectDBX Classes
 90
     1153
280
     1
281
     0
  0
CLASS
  1
SUN
  2
AcDbSun
  3
SCENEOE
 90
     1153
280
     0
281
     0
  0
CLASS
  1
XRECORD
  2
AcDbXrecord
  3
ObjectDBX Classes
 90
    32768
280
     0
281
     0
  0
CLASS
  1
HATCH
  2
AcDbHatch
  3
ObjectDBX Classes
 90
    32768
280
     0
281
     1
  0
ENDSEC
  0
SECTION
  2
TABLES
  0
TABLE
  2
VPORT
  5
8
330
0
100
AcDbSymbolTable
 70
     1
  0
VPORT
  5
19DC2
330
8
100
AcDbSymbolTableRecord
100
AcDbViewportTableRecord
  2
*ACTIVE
 70
     0
 10
0.0
 20
0.0
 11
1.0
 21
1.0
 12
582.7663517647475
 22
-618.3733924922001
 13
0.0
 23
0.0
 14
10.0
 24
10.0
 15
10.0
 25
10.0
 16
0.0
 26
0.0
 36
1.0
 17
0.0
 27
0.0
 37
0.0
 40
211.1939667200949
 41
1.858156028368794
 42
50.0
 43
0.0
 44
0.0
 50
0.0
 51
0.0
 71
    16
 72
   100
 73
     1
 74
     1
 75
     0
 76
     0
 77
     0
 78
     0
  0
ENDTAB
  0
TABLE
  2
LTYPE
  5
5
330
0
100
AcDbSymbolTable
 70
     4
  0
LTYPE
  5
12
330
5
100
AcDbSymbolTableRecord
100
AcDbLinetypeTableRecord
  2
BYBLOCK
 70
     0
  3

 72
    65
 73
     0
 40
0.0
  0
LTYPE
  5
13
330
5
100
AcDbSymbolTableRecord
100
AcDbLinetypeTableRecord
  2
BYLAYER
 70
     0
  3

 72
    65
 73
     0
 40
0.0
  0
LTYPE
  5
14
330
5
100
AcDbSymbolTableRecord
100
AcDbLinetypeTableRecord
  2
CONTINUOUS
 70
     0
  3
Solid line
 72
    65
 73
     0
 40
0.0
  0
LTYPE
  5
26
330
5
100
AcDbSymbolTableRecord
100
AcDbLinetypeTableRecord
  2
CENTER2
 70
     0
  3
Center (.5x) ___ _ ___ _ ___ _ ___ _ ___ _ ___
 72
    65
 73
     4
 40
28.575
 49
19.05
 74
     0
 49
-3.175
 74
     0
 49
3.175
 74
     0
 49
-3.175
 74
     0
  0
LTYPE
  5
100
330
5
100
AcDbSymbolTableRecord
100
AcDbLinetypeTableRecord
  2
PHANTOM2
 70
     0
  3
Phantom (0.5x) ___ _ _ ___ _ _ ___ _ _ ___ _ _
 72
    65
 73
     6
 40
31.75
 49
15.875
 74
     0
 49
-3.175
 74
     0
 49
3.175
 74
     0
 49
-3.175
 74
     0
 49
3.175
 74
     0
 49
-3.175
 74
     0
  0
LTYPE
  5
206DE
330
5
100
AcDbSymbolTableRecord
100
AcDbLinetypeTableRecord
  2
PHANTOM
 70
     0
  3
Phantom ______  __  __  ______  __  __  ______
 72
    65
 73
     6
 40
12.7
 49
6.35
 74
     0
 49
-1.27
 74
     0
 49
1.27
 74
     0
 49
-1.27
 74
     0
 49
1.27
 74
     0
 49
-1.27
 74
     0
  0
ENDTAB
  0
TABLE
  2
LAYER
  5
2
102
{ACAD_XDICTIONARY
360
18FE8
102
}
330
0
100
AcDbSymbolTable
 70
     6
  0
LAYER
  5
E
102
{ACAD_XDICTIONARY
360
1A20A
102
}
330
2
100
AcDbSymbolTableRecord
100
AcDbLayerTableRecord
  2
0
 70
     0
 62
     7
  6
CONTINUOUS
  0
LAYER
  5
29
102
{ACAD_XDICTIONARY
360
1A20C
102
}
330
2
100
AcDbSymbolTableRecord
100
AcDbLayerTableRecord
  2
1CENTER
 70
     0
 62
     7
  6
CENTER2
  0
LAYER
  5
31
102
{ACAD_XDICTIONARY
360
1A20E
102
}
330
2
100
AcDbSymbolTableRecord
100
AcDbLayerTableRecord
  2
1TEXT
 70
     0
 62
     7
  6
CONTINUOUS
  0
LAYER
  5
101
102
{ACAD_XDICTIONARY
360
1A218
102
}
330
2
100
AcDbSymbolTableRecord
100
AcDbLayerTableRecord
  2
1DIM
 70
     0
 62
     7
  6
CONTINUOUS
  0
LAYER
  5
103
102
{ACAD_XDICTIONARY
360
1A21C
102
}
330
2
100
AcDbSymbolTableRecord
100
AcDbLayerTableRecord
  2
1PHANTOM
 70
     0
 62
     7
  6
PHANTOM2
  0
LAYER
  5
25F
102
{ACAD_XDICTIONARY
360
1A220
102
}
330
2
100
AcDbSymbolTableRecord
100
AcDbLayerTableRecord
  2
01
 70
     0
 62
     1
  6
CONTINUOUS
  0
ENDTAB
  0
TABLE
  2
STYLE
  5
3
330
0
100
AcDbSymbolTable
 70
     1
  0
STYLE
  5
F
330
3
100
AcDbSymbolTableRecord
100
AcDbTextStyleTableRecord
  2
STANDARD
 70
     0
 40
0.0
 41
1.0
 50
0.0
 71
     0
 42
4.0
  3
txt.shx
  4
extfont.shx
  0
ENDTAB
  0
TABLE
  2
VIEW
  5
6
330
0
100
AcDbSymbolTable
 70
     0
  0
ENDTAB
  0
TABLE
  2
UCS
  5
7
330
0
100
AcDbSymbolTable
 70
     0
  0
ENDTAB
  0
TABLE
  2
APPID
  5
9
330
0
100
AcDbSymbolTable
 70
    17
  0
APPID
  5
10
330
9
100
AcDbSymbolTableRecord
100
AcDbRegAppTableRecord
  2
ACAD
 70
     0
  0
APPID
  5
21
330
9
100
AcDbSymbolTableRecord
100
AcDbRegAppTableRecord
  2
DRAWINGVARIABLESXDATA
 70
     0
  0
APPID
  5
64
330
9
100
AcDbSymbolTableRecord
100
AcDbRegAppTableRecord
  2
CONTENTTABDATA
 70
     0
  0
APPID
  5
65
330
9
100
AcDbSymbolTableRecord
100
AcDbRegAppTableRecord
  2
CONTENTCURRENTTAB
 70
     0
  0
APPID
  5
66
330
9
100
AcDbSymbolTableRecord
100
AcDbRegAppTableRecord
  2
CONTENTBLOCKDESCRIPTION
 70
     0
  0
APPID
  5
67
330
9
100
AcDbSymbolTableRecord
100
AcDbRegAppTableRecord
  2
CONTENTBLOCKICON
 70
     0
  0
APPID
  5
68
330
9
100
AcDbSymbolTableRecord
100
AcDbRegAppTableRecord
  2
CONTENTLONGBLOCKNAME
 70
     0
  0
APPID
  5
5A9
330
9
100
AcDbSymbolTableRecord
100
AcDbRegAppTableRecord
  2
ACAD_PSEXT
 70
     0
  0
APPID
  5
18AC
330
9
100
AcDbSymbolTableRecord
100
AcDbRegAppTableRecord
  2
ACAD_DSTYLE_DIMTEXT_FILL
 70
     0
  0
APPID
  5
19E1A
330
9
100
AcDbSymbolTableRecord
100
AcDbRegAppTableRecord
  2
ACAD_MLEADERVER
 70
     0
  0
APPID
  5
1A2FA
330
9
100
AcDbSymbolTableRecord
100
AcDbRegAppTableRecord
  2
ACAD_DSTYLE_DIMRADIAL_EXTE
 70
     0
  0
APPID
  5
1DBC1
330
9
100
AcDbSymbolTableRecord
100
AcDbRegAppTableRecord
  2
ACADANNOTATIVE
 70
     0
  0
APPID
  5
1E991
330
9
100
AcDbSymbolTableRecord
100
AcDbRegAppTableRecord
  2
ACAD_EXEMPT_FROM_CAD_STAND
 70
     0
  0
APPID
  5
1FE7A
330
9
100
AcDbSymbolTableRecord
100
AcDbRegAppTableRecord
  2
ACDBBLOCKREPETAG
 70
     0
  0
APPID
  5
20672
330
9
100
AcDbSymbolTableRecord
100
AcDbRegAppTableRecord
  2
ACAD_OBJECT_CHANGE_GUID
 70
     0
  0
APPID
  5
209C3
330
9
100
AcDbSymbolTableRecord
100
AcDbRegAppTableRecord
  2
ACLAYERTOOLS
 70
     0
  0
APPID
  5
209C4
330
9
100
AcDbSymbolTableRecord
100
AcDbRegAppTableRecord
  2
ACAD_NAV_VCDISPLAY
 70
     0
  0
ENDTAB
  0
TABLE
  2
DIMSTYLE
  5
A
330
0
100
AcDbSymbolTable
 70
     2
  0
DIMSTYLE
105
48
330
A
100
AcDbSymbolTableRecord
100
AcDbDimStyleTableRecord
  2
NEWX10
 70
     0
  3
 
  4

  5

  6
OPEN30
  7
OPEN30
 40
1.0
 41
2.0
 42
0.0
 43
7.0
 44
1.0
 45
0.0
 46
0.0
 47
0.0
 48
0.0
140
3.5
141
0.0
142
0.0
143
25.4
144
1.0
145
0.0
146
0.7
147
0.7
 71
     0
 72
     0
 73
     0
 74
     0
 75
     0
 76
     0
 77
     1
 78
     8
170
     0
171
     2
172
     1
173
     1
174
     0
175
     0
176
   256
177
   256
178
   201
179
     2
270
     2
271
     2
272
     4
273
     2
274
     2
340
F
275
     0
280
     0
281
     0
282
     0
283
     1
284
     8
285
     0
286
     0
287
     2
288
     0
  0
DIMSTYLE
105
206DF
330
A
100
AcDbSymbolTableRecord
100
AcDbDimStyleTableRecord
  2
ISO-25
 70
     0
  3

  4

  5

  6

  7

 40
1.0
 41
2.5
 42
0.625
 43
3.75
 44
1.25
 45
0.0
 46
0.0
 47
0.0
 48
0.0
140
2.5
141
2.5
142
0.0
143
0.03937007874016
144
1.0
145
0.0
146
1.0
147
0.625
 71
     0
 72
     0
 73
     0
 74
     0
 75
     0
 76
     0
 77
     1
 78
     8
170
     0
171
     3
172
     1
173
     0
174
     0
175
     0
176
     0
177
     0
178
     0
270
     2
271
     2
272
     2
273
     2
274
     3
340
F
275
     0
280
     0
281
     0
282
     0
283
     0
284
     8
285
     0
286
     0
287
     3
288
     0
  0
ENDTAB
  0
TABLE
  2
BLOCK_RECORD
  5
1
330
0
100
AcDbSymbolTable
 70
     8
  0
BLOCK_RECORD
  5
18
102
{ACAD_XDICTIONARY
360
6E9
102
}
330
1
100
AcDbSymbolTableRecord
100
AcDbBlockTableRecord
  2
*MODEL_SPACE
  0
BLOCK_RECORD
  5
15
102
{ACAD_XDICTIONARY
360
59B
102
}
330
1
100
AcDbSymbolTableRecord
100
AcDbBlockTableRecord
  2
*PAPER_SPACE
  0
BLOCK_RECORD
  5
42
330
1
100
AcDbSymbolTableRecord
100
AcDbBlockTableRecord
  2
_OPEN30
  0
BLOCK_RECORD
  5
1FEC9
330
1
100
AcDbSymbolTableRecord
100
AcDbBlockTableRecord
  2
A3WAKUKAWAJUN2017_HYOUDAI_
  0
BLOCK_RECORD
  5
218A6
330
1
100
AcDbSymbolTableRecord
100
AcDbBlockTableRecord
  2
*X51
  0
BLOCK_RECORD
  5
218F4
330
1
100
AcDbSymbolTableRecord
100
AcDbBlockTableRecord
  2
*X52
  0
BLOCK_RECORD
  5
21946
330
1
100
AcDbSymbolTableRecord
100
AcDbBlockTableRecord
  2
*X53
  0
BLOCK_RECORD
  5
21997
330
1
100
AcDbSymbolTableRecord
100
AcDbBlockTableRecord
  2
*X54
  0
BLOCK_RECORD
  5
219D4
330
1
100
AcDbSymbolTableRecord
100
AcDbBlockTableRecord
  2
*X55
  0
BLOCK_RECORD
  5
21A14
330
1
100
AcDbSymbolTableRecord
100
AcDbBlockTableRecord
  2
*X56
  0
ENDTAB
  0
ENDSEC
  0
SECTION
  2
BLOCKS
  0
BLOCK
  5
19
330
18
100
AcDbEntity
  8
0
100
AcDbBlockBegin
  2
*MODEL_SPACE
 70
     0
 10
0.0
 20
0.0
 30
0.0
  3
*MODEL_SPACE
  1

  0
ENDBLK
  5
1A
330
18
100
AcDbEntity
  8
0
100
AcDbBlockEnd
  0
BLOCK
  5
16
330
15
100
AcDbEntity
 67
     1
  8
0
100
AcDbBlockBegin
  2
*PAPER_SPACE
 70
     0
 10
0.0
 20
0.0
 30
0.0
  3
*PAPER_SPACE
  1

  0
ENDBLK
  5
17
330
15
100
AcDbEntity
 67
     1
  8
0
100
AcDbBlockEnd
  0
BLOCK
  5
43
330
42
100
AcDbEntity
  8
0
100
AcDbBlockBegin
  2
_OPEN30
 70
     0
 10
0.0
 20
0.0
 30
0.0
  3
_OPEN30
  1

  0
LINE
  5
44
330
42
100
AcDbEntity
  8
0
  6
BYBLOCK
 62
     0
100
AcDbLine
 10
-1.0
 20
0.26794919
 30
0.0
 11
0.0
 21
0.0
 31
0.0
  0
LINE
  5
45
330
42
100
AcDbEntity
  8
0
  6
BYBLOCK
 62
     0
100
AcDbLine
 10
0.0
 20
0.0
 30
0.0
 11
-1.0
 21
-0.26794919
 31
0.0
  0
LINE
  5
46
330
42
100
AcDbEntity
  8
0
  6
BYBLOCK
 62
     0
100
AcDbLine
 10
0.0
 20
0.0
 30
0.0
 11
-1.0
 21
0.0
 31
0.0
  0
ENDBLK
  5
47
330
42
100
AcDbEntity
  8
0
100
AcDbBlockEnd
  0
BLOCK
  5
205D5
330
1FEC9
100
AcDbEntity
  8
0
100
AcDbBlockBegin
  2
A3WAKUKAWAJUN2017_HYOUDAI_
 70
     0
 10
0.0
 20
0.0
 30
0.0
  3
A3WAKUKAWAJUN2017_HYOUDAI_
  1

  0
LINE
  5
1FECB
330
1FEC9
100
AcDbEntity
  8
0
100
AcDbLine
 10
13.26299999998673
 20
-0.0001000000000317
 30
0.0
 11
9.236999999990758
 21
8.999899999990987
 31
0.0
1001
ACAD
1000
ASC_BOUNDS
1002
{
1070
    19
1005
1FF0C
1002
}
  0
LINE
  5
1FECC
330
1FEC9
100
AcDbEntity
  8
0
100
AcDbLine
 10
5.657999999994331
 20
0.9999999999989768
 30
0.0
 11
9.236999999990758
 21
8.999999999991019
 31
0.0
1001
ACAD
1000
ASC_BOUNDS
1002
{
1070
    19
1005
1FF0C
1002
}
  0
LINE
  5
1FECD
330
1FEC9
100
AcDbEntity
  8
0
100
AcDbLine
 10
18.59199999998134
 20
-0.2368999999997641
 30
0.0
 11
16.46099999998353
 21
5.432899999994561
 31
0.0
1001
ACAD
1000
ASC_BOUNDS
1002
{
1070
    19
1005
1FF0D
1002
}
  0
LINE
  5
1FECE
330
1FEC9
100
AcDbEntity
  8
0
100
AcDbLine
 10
18.59199999998134
 20
-0.2368999999997641
 30
0.0
 11
22.38199999997767
 21
8.763099999991255
 31
0.0
1001
ACAD
1000
ASC_BOUNDS
1002
{
1070
    19
1005
1FF0D
1002
}
  0
LINE
  5
1FECF
330
1FEC9
100
AcDbEntity
  8
0
100
AcDbLine
 10
14.32899999998563
 20
-0.2368999999997641
 30
0.0
 11
16.46099999998353
 21
5.432899999994561
 31
0.0
1001
ACAD
1000
ASC_BOUNDS
1002
{
1070
    19
1005
1FF0D
1002
}
  0
LINE
  5
1FED0
330
1FEC9
100
AcDbEntity
  8
0
100
AcDbLine
 10
14.32899999998563
 20
-0.2368999999997641
 30
0.0
 11
10.53899999998941
 21
8.763099999991255
 31
0.0
1001
ACAD
1000
ASC_BOUNDS
1002
{
1070
    19
1005
1FF0D
1002
}
  0
LINE
  5
1FED1
330
1FEC9
100
AcDbEntity
  8
0
100
AcDbLine
 10
19.53899999998043
 20
-0.0001000000000317
 30
0.0
 11
23.56599999997638
 21
8.999899999990987
 31
0.0
1001
ACAD
1000
ASC_BOUNDS
1002
{
1070
    19
1005
1FF0E
1002
}
  0
LINE
  5
1FED2
330
1FEC9
100
AcDbEntity
  8
0
100
AcDbLine
 10
26.97358892824991
 20
1.383099999991202
 30
0.0
 11
23.56599999997638
 21
8.999899999990987
 31
0.0
1001
ACAD
1000
ASC_BOUNDS
1002
{
1070
    19
1005
1FF0E
1002
}
  0
LINE
  5
1FED3
330
1FEC9
100
AcDbEntity
  8
0
100
AcDbLine
 10
5.657999999994331
 20
0.9999999999989768
 30
0.0
 11
3.181999999996833
 21
4.668599999995308
 31
0.0
1001
ACAD
1000
ASC_BOUNDS
1002
{
1070
    19
1005
1FF0C
1002
}
  0
LINE
  5
1FED4
330
1FEC9
100
AcDbEntity
  8
0
100
AcDbLine
 10
4.617999999995391
 20
-0.0001000000000317
 30
0.0
 11
1.420999999998571
 21
4.736799999995242
 31
0.0
1001
ACAD
1000
ASC_BOUNDS
1002
{
1070
    19
1005
1FF0C
1002
}
  0
LINE
  5
1FED5
330
1FEC9
100
AcDbEntity
  8
0
100
AcDbLine
 10
1.420999999998571
 20
8.763099999991255
 30
0.0
 11
1.420999999998571
 21
0.0
 31
0.0
1001
ACAD
1000
ASC_BOUNDS
1002
{
1070
    19
1005
1FF11
1002
}
  0
LINE
  5
1FED6
330
1FEC9
100
AcDbEntity
  8
0
100
AcDbLine
 10
0.0
 20
8.763099999991255
 30
0.0
 11
0.0
 21
0.0
 31
0.0
1001
ACAD
1000
ASC_BOUNDS
1002
{
1070
    19
1005
1FF11
1002
}
  0
LINE
  5
1FED7
330
1FEC9
100
AcDbEntity
  8
0
100
AcDbLine
 10
6.766999999993232
 20
-0.0001000000000317
 30
0.0
 11
7.826999999992154
 21
2.368399999997621
 31
0.0
1001
ACAD
1000
ASC_BOUNDS
1002
{
1070
    19
1005
1FF0C
1002
}
  0
LINE
  5
1FED8
330
1FEC9
100
AcDbEntity
  8
0
100
AcDbLine
 10
0.0
 20
0.0
 30
0.0
 11
1.420999999998571
 21
0.0
 31
0.0
1001
ACAD
1000
ASC_BOUNDS
1002
{
1070
    19
1005
1FF11
1002
}
  0
LINE
  5
1FED9
330
1FEC9
100
AcDbEntity
  8
0
100
AcDbLine
 10
4.617999999995391
 20
0.0
 30
0.0
 11
6.766999999993232
 21
0.0
 31
0.0
1001
ACAD
1000
ASC_BOUNDS
1002
{
1070
    19
1005
1FF0C
1002
}
  0
LINE
  5
1FEDA
330
1FEC9
100
AcDbEntity
  8
0
100
AcDbLine
 10
11.70599999998831
 20
-0.0001000000000317
 30
0.0
 11
10.64699999998936
 21
2.368399999997621
 31
0.0
1001
ACAD
1000
ASC_BOUNDS
1002
{
1070
    19
1005
1FF0C
1002
}
  0
LINE
  5
1FEDB
330
1FEC9
100
AcDbEntity
  8
0
100
AcDbLine
 10
7.826999999992154
 20
2.368399999997621
 30
0.0
 11
10.64699999998936
 21
2.368399999997621
 31
0.0
1001
ACAD
1000
ASC_BOUNDS
1002
{
1070
    19
1005
1FF0C
1002
}
  0
LINE
  5
1FEDC
330
1FEC9
100
AcDbEntity
  8
0
100
AcDbLine
 10
11.70599999998831
 20
0.0
 30
0.0
 11
13.26299999998673
 21
0.0
 31
0.0
1001
ACAD
1000
ASC_BOUNDS
1002
{
1070
    19
1005
1FF0C
1002
}
  0
LINE
  5
1FEDD
330
1FEC9
100
AcDbEntity
  8
0
100
AcDbLine
 10
22.15599999997789
 20
2.368399999997621
 30
0.0
 11
24.97599999997499
 21
2.368399999997621
 31
0.0
1001
ACAD
1000
ASC_BOUNDS
1002
{
1070
    19
1005
1FF0E
1002
}
  0
LINE
  5
1FEDE
330
1FEC9
100
AcDbEntity
  8
0
100
AcDbLine
 10
19.53899999998043
 20
0.0
 30
0.0
 11
21.09599999997886
 21
0.0
 31
0.0
1001
ACAD
1000
ASC_BOUNDS
1002
{
1070
    19
1005
1FF0E
1002
}
  0
LINE
  5
1FEDF
330
1FEC9
100
AcDbEntity
  8
0
100
AcDbLine
 10
21.09599999997886
 20
-0.0001000000000317
 30
0.0
 11
22.15599999997789
 21
2.368399999997621
 31
0.0
1001
ACAD
1000
ASC_BOUNDS
1002
{
1070
    19
1005
1FF0E
1002
}
  0
LINE
  5
1FEE0
330
1FEC9
100
AcDbEntity
  8
0
100
AcDbLine
 10
26.02015566812236
 20
0.0330999999912365
 30
0.0
 11
24.97599999997499
 21
2.368399999997621
 31
0.0
1001
ACAD
1000
ASC_BOUNDS
1002
{
1070
    19
1005
1FF0E
1002
}
  0
LINE
  5
1FEE1
330
1FEC9
100
AcDbEntity
  8
0
100
AcDbLine
 10
14.32399999998563
 20
3.315799999996671
 30
0.0
 11
16.46099999998353
 21
8.999899999990987
 31
0.0
1001
ACAD
1000
ASC_BOUNDS
1002
{
1070
    19
1005
1FF0D
1002
}
  0
LINE
  5
1FEE2
330
1FEC9
100
AcDbEntity
  8
0
100
AcDbLine
 10
6.432999999993513
 20
8.763099999991255
 30
0.0
 11
3.181999999996833
 21
4.668599999995308
 31
0.0
1001
ACAD
1000
ASC_BOUNDS
1002
{
1070
    19
1005
1FF0C
1002
}
  0
LINE
  5
1FEE3
330
1FEC9
100
AcDbEntity
  8
0
100
AcDbLine
 10
4.617999999995391
 20
8.763099999991255
 30
0.0
 11
1.420999999998571
 21
4.736799999995242
 31
0.0
1001
ACAD
1000
ASC_BOUNDS
1002
{
1070
    19
1005
1FF0C
1002
}
  0
LINE
  5
1FEE4
330
1FEC9
100
AcDbEntity
  8
0
100
AcDbLine
 10
0.0
 20
8.763099999991255
 30
0.0
 11
1.420999999998571
 21
8.763099999991255
 31
0.0
1001
ACAD
1000
ASC_BOUNDS
1002
{
1070
    19
1005
1FF11
1002
}
  0
LINE
  5
1FEE5
330
1FEC9
100
AcDbEntity
  8
0
100
AcDbLine
 10
4.617999999995391
 20
8.763099999991255
 30
0.0
 11
6.432999999993513
 21
8.763099999991255
 31
0.0
1001
ACAD
1000
ASC_BOUNDS
1002
{
1070
    19
1005
1FF0C
1002
}
  0
LINE
  5
1FEE6
330
1FEC9
100
AcDbEntity
  8
0
100
AcDbLine
 10
14.32399999998563
 20
3.315799999996671
 30
0.0
 11
12.02999999998792
 21
8.763099999991255
 31
0.0
1001
ACAD
1000
ASC_BOUNDS
1002
{
1070
    19
1005
1FF0D
1002
}
  0
LINE
  5
1FEE7
330
1FEC9
100
AcDbEntity
  8
0
100
AcDbLine
 10
10.06399999998996
 20
3.670999999996297
 30
0.0
 11
9.236999999990758
 21
5.5200999999945
 31
0.0
1001
ACAD
1000
ASC_BOUNDS
1002
{
1070
    19
1005
1FF0C
1002
}
  0
LINE
  5
1FEE8
330
1FEC9
100
AcDbEntity
  8
0
100
AcDbLine
 10
8.409999999991555
 20
3.670999999996297
 30
0.0
 11
9.236999999990758
 21
5.5200999999945
 31
0.0
1001
ACAD
1000
ASC_BOUNDS
1002
{
1070
    19
1005
1FF0C
1002
}
  0
LINE
  5
1FEE9
330
1FEC9
100
AcDbEntity
  8
0
100
AcDbLine
 10
8.409999999991555
 20
3.670999999996297
 30
0.0
 11
10.06399999998996
 21
3.670999999996297
 31
0.0
1001
ACAD
1000
ASC_BOUNDS
1002
{
1070
    19
1005
1FF0C
1002
}
  0
LINE
  5
1FEEA
330
1FEC9
100
AcDbEntity
  8
0
100
AcDbLine
 10
10.53899999998941
 20
8.763099999991255
 30
0.0
 11
12.02999999998792
 21
8.763099999991255
 31
0.0
1001
ACAD
1000
ASC_BOUNDS
1002
{
1070
    19
1005
1FF0D
1002
}
  0
LINE
  5
1FEEB
330
1FEC9
100
AcDbEntity
  8
0
100
AcDbLine
 10
22.7389999999773
 20
3.670999999996297
 30
0.0
 11
23.56599999997638
 21
5.5200999999945
 31
0.0
1001
ACAD
1000
ASC_BOUNDS
1002
{
1070
    19
1005
1FF0E
1002
}
  0
LINE
  5
1FEEC
330
1FEC9
100
AcDbEntity
  8
0
100
AcDbLine
 10
22.7389999999773
 20
3.670999999996297
 30
0.0
 11
24.39299999997559
 21
3.670999999996297
 31
0.0
1001
ACAD
1000
ASC_BOUNDS
1002
{
1070
    19
1005
1FF0E
1002
}
  0
LINE
  5
1FEED
330
1FEC9
100
AcDbEntity
  8
0
100
AcDbLine
 10
18.59799999998143
 20
3.315799999996671
 30
0.0
 11
20.89099999997916
 21
8.763099999991255
 31
0.0
1001
ACAD
1000
ASC_BOUNDS
1002
{
1070
    19
1005
1FF0D
1002
}
  0
LINE
  5
1FEEE
330
1FEC9
100
AcDbEntity
  8
0
100
AcDbLine
 10
18.59799999998143
 20
3.315799999996671
 30
0.0
 11
16.46099999998353
 21
8.999899999990987
 31
0.0
1001
ACAD
1000
ASC_BOUNDS
1002
{
1070
    19
1005
1FF0D
1002
}
  0
LINE
  5
1FEEF
330
1FEC9
100
AcDbEntity
  8
0
100
AcDbLine
 10
20.89099999997916
 20
8.763099999991255
 30
0.0
 11
22.38199999997767
 21
8.763099999991255
 31
0.0
1001
ACAD
1000
ASC_BOUNDS
1002
{
1070
    19
1005
1FF0D
1002
}
  0
LINE
  5
1FEF0
330
1FEC9
100
AcDbEntity
  8
0
100
AcDbLine
 10
24.39299999997559
 20
3.670999999996297
 30
0.0
 11
23.56599999997638
 21
5.5200999999945
 31
0.0
1001
ACAD
1000
ASC_BOUNDS
1002
{
1070
    19
1005
1FF0E
1002
}
  0
LINE
  5
1FEF1
330
1FEC9
100
AcDbEntity
  8
0
100
AcDbLine
 10
44.99999999995498
 20
-0.2368999999997641
 30
0.0
 11
40.02599999995994
 21
5.341799999994635
 31
0.0
1001
ACAD
1000
ASC_BOUNDS
1002
{
1070
    19
1005
1FF10
1002
}
  0
LINE
  5
1FEF2
330
1FEC9
100
AcDbEntity
  8
0
100
AcDbLine
 10
40.02599999995994
 20
5.341799999994635
 30
0.0
 11
40.02599999995994
 21
0.0
 31
0.0
1001
ACAD
1000
ASC_BOUNDS
1002
{
1070
    19
1005
1FF10
1002
}
  0
LINE
  5
1FEF3
330
1FEC9
100
AcDbEntity
  8
0
100
AcDbLine
 10
38.60499999996136
 20
8.999999999991019
 30
0.0
 11
38.60499999996136
 21
0.0
 31
0.0
1001
ACAD
1000
ASC_BOUNDS
1002
{
1070
    19
1005
1FF10
1002
}
  0
LINE
  5
1FEF4
330
1FEC9
100
AcDbEntity
  8
0
100
AcDbLine
 10
44.99999999995498
 20
8.763099999991255
 30
0.0
 11
44.99999999995498
 21
-0.2368999999997641
 31
0.0
1001
ACAD
1000
ASC_BOUNDS
1002
{
1070
    19
1005
1FF10
1002
}
  0
LINE
  5
1FEF5
330
1FEC9
100
AcDbEntity
  8
0
100
AcDbLine
 10
38.60499999996136
 20
0.0
 30
0.0
 11
40.02599999995994
 21
0.0
 31
0.0
1001
ACAD
1000
ASC_BOUNDS
1002
{
1070
    19
1005
1FF10
1002
}
  0
LINE
  5
1FEF6
330
1FEC9
100
AcDbEntity
  8
0
100
AcDbLine
 10
43.57899999995641
 20
3.421199999996588
 30
0.0
 11
38.60499999996136
 21
8.999899999990987
 31
0.0
1001
ACAD
1000
ASC_BOUNDS
1002
{
1070
    19
1005
1FF10
1002
}
  0
LINE
  5
1FEF7
330
1FEC9
100
AcDbEntity
  8
0
100
AcDbLine
 10
43.57899999995641
 20
8.763099999991255
 30
0.0
 11
43.57899999995641
 21
3.421199999996588
 31
0.0
1001
ACAD
1000
ASC_BOUNDS
1002
{
1070
    19
1005
1FF10
1002
}
  0
LINE
  5
1FEF8
330
1FEC9
100
AcDbEntity
  8
0
100
AcDbLine
 10
43.57899999995641
 20
8.763099999991255
 30
0.0
 11
44.99999999995498
 21
8.763099999991255
 31
0.0
1001
ACAD
1000
ASC_BOUNDS
1002
{
1070
    19
1005
1FF10
1002
}
  0
LINE
  5
1FEF9
330
1FEC9
100
AcDbEntity
  8
0
100
AcDbLine
 10
37.67199999996831
 20
8.763099999991255
 30
0.0
 11
36.23199999996837
 21
8.763099999991255
 31
0.0
  0
LINE
  5
1FEFA
330
1FEC9
100
AcDbEntity
  8
0
100
AcDbLine
 10
31.64199999996833
 20
8.763099999991255
 30
0.0
 11
31.64199999996833
 21
2.481619422925121
 31
0.0
  0
LINE
  5
1FEFB
330
1FEC9
100
AcDbEntity
  8
0
100
AcDbLine
 10
37.67199999996831
 20
8.763099999991255
 30
0.0
 11
37.67199999996831
 21
2.481619422925121
 31
0.0
  0
LINE
  5
1FEFC
330
1FEC9
100
AcDbEntity
  8
0
100
AcDbLine
 10
36.23199999996837
 20
8.763099999991255
 30
0.0
 11
36.23199999996837
 21
2.481619422925064
 31
0.0
  0
LINE
  5
1FEFD
330
1FEC9
100
AcDbEntity
  8
0
100
AcDbLine
 10
33.08199999996839
 20
8.763099999991255
 30
0.0
 11
33.08199999996839
 21
2.481619422925121
 31
0.0
  0
ARC
  5
1FEFE
330
1FEC9
100
AcDbEntity
  8
0
100
AcDbCircle
 10
34.65699999996832
 20
3.183099999991214
 30
0.0
 40
3.420000000000007
100
AcDbArc
 50
240.0000000000255
 51
299.9999999999766
  0
ARC
  5
1FEFF
330
1FEC9
100
AcDbEntity
  8
0
100
AcDbCircle
 10
34.65699999996832
 20
3.183099999991214
 30
0.0
 40
1.97999999999999
100
AcDbArc
 50
240.000000000026
 51
299.9999999999703
  0
LINE
  5
1FF00
330
1FEC9
100
AcDbEntity
  8
0
100
AcDbLine
 10
33.08199999996828
 20
8.763099999991255
 30
0.0
 11
31.64199999996833
 21
8.763099999991255
 31
0.0
  0
ARC
  5
1FF01
330
1FEC9
100
AcDbEntity
  8
0
100
AcDbCircle
 10
35.06199999996829
 20
2.481619422925064
 30
0.0
 40
1.17
100
AcDbArc
 50
299.9999999999699
 51
0.0
  0
ARC
  5
1FF02
330
1FEC9
100
AcDbEntity
  8
0
100
AcDbCircle
 10
34.25199999996835
 20
2.481619422925121
 30
0.0
 40
1.17
100
AcDbArc
 50
180.0
 51
240.0000000000238
  0
ARC
  5
1FF03
330
1FEC9
100
AcDbEntity
  8
0
100
AcDbCircle
 10
35.06199999996841
 20
2.481619422925121
 30
0.0
 40
2.61
100
AcDbArc
 50
299.9999999999756
 51
0.0
  0
ARC
  5
1FF04
330
1FEC9
100
AcDbEntity
  8
0
100
AcDbCircle
 10
34.25199999996835
 20
2.481619422925121
 30
0.0
 40
2.61
100
AcDbArc
 50
180.0
 51
240.0000000000244
  0
LINE
  5
1FF05
330
1FEC9
100
AcDbEntity
  8
0
100
AcDbLine
 10
29.30199999996933
 20
8.763099999991255
 30
0.0
 11
30.74199999996927
 21
8.763099999991255
 31
0.0
1001
ACAD
1000
ASC_BOUNDS
1002
{
1070
    19
1005
1FF0E
1002
}
  0
LINE
  5
1FF06
330
1FEC9
100
AcDbEntity
  8
0
100
AcDbLine
 10
30.74199999996927
 20
8.763099999991255
 30
0.0
 11
30.74199999996927
 21
2.373099999991211
 31
0.0
1001
ACAD
1000
ASC_BOUNDS
1002
{
1070
    19
1005
1FF0E
1002
}
  0
LINE
  5
1FF07
330
1FEC9
100
AcDbEntity
  8
0
100
AcDbLine
 10
26.02015566812236
 20
0.0330999999912365
 30
0.0
 11
28.40199999996923
 21
0.0330999999912365
 31
0.0
1001
ACAD
1000
ASC_BOUNDS
1002
{
1070
    19
1005
1FF0E
1002
}
  0
LINE
  5
1FF08
330
1FEC9
100
AcDbEntity
  8
0
100
AcDbLine
 10
29.30199999996933
 20
8.763099999991255
 30
0.0
 11
29.30199999996933
 21
2.283099999991236
 31
0.0
1001
ACAD
1000
ASC_BOUNDS
1002
{
1070
    19
1005
1FF0E
1002
}
  0
LINE
  5
1FF09
330
1FEC9
100
AcDbEntity
  8
0
100
AcDbLine
 10
26.97358892824991
 20
1.383099999991202
 30
0.0
 11
28.40199999996923
 21
1.383099999991202
 31
0.0
1001
ACAD
1000
ASC_BOUNDS
1002
{
1070
    19
1005
1FF0E
1002
}
  0
ARC
  5
1FF0A
330
1FEC9
100
AcDbEntity
  8
0
100
AcDbCircle
 10
28.40199999996923
 20
2.283099999991236
 30
0.0
 40
0.9
100
AcDbArc
 50
270.0
 51
0.0
1001
ACAD
1000
ASC_BOUNDS
1002
{
1070
    19
1005
1FF0E
1002
}
  0
ARC
  5
1FF0B
330
1FEC9
100
AcDbEntity
  8
0
100
AcDbCircle
 10
28.40199999996923
 20
2.373099999991211
 30
0.0
 40
2.34
100
AcDbArc
 50
270.0
 51
0.0
1001
ACAD
1000
ASC_BOUNDS
1002
{
1070
    19
1005
1FF0E
1002
}
  0
INSERT
  5
1FF0C
330
1FEC9
100
AcDbEntity
  8
0
100
AcDbBlockReference
  2
*X51
 10
0.0
 20
0.0
 30
0.0
1001
ACAD
1000
HATCH
1002
{
1070
    19
1000
ANSI37
1040
0.15
1040
0.0
1000
ASC_BOUNDS
1070
     2
1070
     2
1070
    12
1005
1FECB
1005
1FECC
1005
1FED3
1005
1FEE2
1005
1FEE5
1005
1FEE3
1005
1FED4
1005
1FED9
1005
1FED7
1005
1FEDB
1005
1FEDA
1005
1FEDC
1070
     2
1070
     3
1005
1FEE7
1005
1FEE9
1005
1FEE8
1000
ASC_SEEDPOINT
1011
3.614004224891801
1021
2.996669441146025
1031
0.0
1000
R14_HATCH_DATA
1000
1FF0C
1011
1.0
1021
0.0
1031
0.0
1011
0.0
1021
1.0
1031
0.0
1011
0.0
1021
0.0
1031
1.0
1040
0.0
1010
0.0
1020
0.0
1030
1.0
1000
ANSI37
1070
     0
1070
     1
1071
        2
1071
        7
1070
     0
1070
     1
1071
       17
1040
13.26299999998673
1040
-0.0001000000000317
1040
9.236999999990758
1040
8.999899999990987
1040
9.236999999990758
1040
8.999999999991019
1040
5.657999999994331
1040
0.9999999999989768
1040
3.181999999996833
1040
4.668599999995308
1040
6.432999999993513
1040
8.763099999991255
1040
4.617999999995391
1040
8.763099999991255
1040
1.420999999998571
1040
4.736799999995242
1040
4.617999999995391
1040
-0.0001000000000317
1040
4.617999999995391
1040
0.0
1040
6.766999999993232
1040
0.0
1040
6.766999999993232
1040
-0.0001000000000317
1040
7.826999999992154
1040
2.368399999997621
1040
10.64699999998936
1040
2.368399999997621
1040
11.70599999998831
1040
-0.0001000000000317
1040
11.70599999998831
1040
0.0
1040
13.26299999998673
1040
0.0
1071
       12
1005
1FECB
1005
1FECC
1005
1FED3
1005
1FEE2
1005
1FEE5
1005
1FEE3
1005
1FED4
1005
1FED9
1005
1FED7
1005
1FEDB
1005
1FEDA
1005
1FEDC
1071
       22
1070
     0
1070
     1
1071
        3
1040
9.236999999990758
1040
5.5200999999945
1040
10.06399999998996
1040
3.670999999996297
1040
8.409999999991555
1040
3.670999999996297
1071
        3
1005
1FEE7
1005
1FEE9
1005
1FEE8
1070
     0
1070
     1
1040
0.0
1040
0.15
1070
     0
1070
     2
1040
0.7853981633974483
1040
49.29960901727088
1040
-10.17736998311392
1040
-0.3367596045400932
1040
0.3367596045400932
1070
     0
1040
2.356194490192345
1040
49.29960901727088
1040
-10.17736998311392
1040
-0.3367596045400932
1040
-0.3367596045400932
1070
     0
1040
0.0110235143455945
1071
        2
1040
3.614004224891801
1040
2.996669441146025
1040
0.0
1040
3.614004224891801
1040
2.996669441146025
1040
0.0
1002
}
  0
INSERT
  5
1FF0D
330
1FEC9
100
AcDbEntity
  8
0
100
AcDbBlockReference
  2
*X52
 10
0.0
 20
0.0
 30
0.0
1001
ACAD
1000
HATCH
1002
{
1070
    19
1000
ANSI37
1040
0.15
1040
0.0
1000
ASC_BOUNDS
1070
     1
1070
     2
1070
    10
1005
1FECD
1005
1FECE
1005
1FEEF
1005
1FEED
1005
1FEEE
1005
1FEE1
1005
1FEE6
1005
1FEEA
1005
1FED0
1005
1FECF
1000
ASC_SEEDPOINT
1011
14.73245321214324
1021
2.798246178283421
1031
0.0
1000
R14_HATCH_DATA
1000
1FF0D
1011
1.0
1021
0.0
1031
0.0
1011
0.0
1021
1.0
1031
0.0
1011
0.0
1021
0.0
1031
1.0
1040
0.0
1010
0.0
1020
0.0
1030
1.0
1000
ANSI37
1070
     0
1070
     1
1071
        1
1071
        7
1070
     0
1070
     1
1071
       10
1040
16.46099999998353
1040
5.432899999994561
1040
18.59199999998134
1040
-0.2368999999997641
1040
22.38199999997767
1040
8.763099999991255
1040
20.89099999997916
1040
8.763099999991255
1040
18.59799999998143
1040
3.315799999996671
1040
16.46099999998353
1040
8.999899999990987
1040
14.32399999998563
1040
3.315799999996671
1040
12.02999999998792
1040
8.763099999991255
1040
10.53899999998941
1040
8.763099999991255
1040
14.32899999998563
1040
-0.2368999999997641
1071
       10
1005
1FECD
1005
1FECE
1005
1FEEF
1005
1FEED
1005
1FEEE
1005
1FEE1
1005
1FEE6
1005
1FEEA
1005
1FED0
1005
1FECF
1070
     0
1070
     1
1040
0.0
1040
0.15
1070
     0
1070
     2
1040
0.7853981633974483
1040
49.29960901727088
1040
-10.17736998311392
1040
-0.3367596045400932
1040
0.3367596045400932
1070
     0
1040
2.356194490192345
1040
49.29960901727088
1040
-10.17736998311392
1040
-0.3367596045400932
1040
-0.3367596045400932
1070
     0
1040
0.0110235143455945
1071
        1
1040
14.73245321214324
1040
2.798246178283421
1040
0.0
1002
}
  0
INSERT
  5
1FF0E
330
1FEC9
100
AcDbEntity
  8
0
100
AcDbBlockReference
  2
*X53
 10
0.0
 20
0.0
 30
0.0
1001
ACAD
1000
HATCH
1002
{
1070
    19
1000
ANSI37
1040
0.15
1040
0.0
1000
ASC_BOUNDS
1070
     2
1070
     2
1070
    13
1005
1FED1
1005
1FEDE
1005
1FEDF
1005
1FEDD
1005
1FEE0
1005
1FF07
1005
1FF0B
1005
1FF06
1005
1FF05
1005
1FF08
1005
1FF0A
1005
1FF09
1005
1FED2
1070
     2
1070
     3
1005
1FEEB
1005
1FEF0
1005
1FEEC
1000
ASC_SEEDPOINT
1011
21.97929957367762
1021
3.294304244259308
1031
0.0
1000
R14_HATCH_DATA
1000
1FF0E
1011
1.0
1021
0.0
1031
0.0
1011
0.0
1021
1.0
1031
0.0
1011
0.0
1021
0.0
1031
1.0
1040
0.0
1010
0.0
1020
0.0
1030
1.0
1000
ANSI37
1070
     0
1070
     1
1071
        2
1071
        7
1070
     1
1070
     1
1071
       15
1040
23.56599999997638
1040
8.999899999990987
1040
0.0
1040
19.53899999998043
1040
-0.0001000000000317
1040
0.0
1040
19.53899999998043
1040
0.0
1040
0.0
1040
21.09599999997886
1040
0.0
1040
0.0
1040
21.09599999997886
1040
-0.0001000000000317
1040
0.0
1040
22.15599999997789
1040
2.368399999997621
1040
0.0
1040
24.97599999997499
1040
2.368399999997621
1040
0.0
1040
26.02015566812236
1040
0.0330999999912365
1040
0.0
1040
28.40199999996923
1040
0.0330999999912365
1040
0.414213562373095
1040
30.74199999996923
1040
2.373099999991211
1040
0.0
1040
30.74199999996927
1040
8.763099999991255
1040
0.0
1040
29.30199999996933
1040
8.763099999991255
1040
0.0
1040
29.30199999996933
1040
2.283099999991236
1040
-0.414213562373095
1040
28.40199999996923
1040
1.383099999991237
1040
0.0
1040
26.97358892824991
1040
1.383099999991202
1040
0.0
1071
       13
1005
1FED1
1005
1FEDE
1005
1FEDF
1005
1FEDD
1005
1FEE0
1005
1FF07
1005
1FF0B
1005
1FF06
1005
1FF05
1005
1FF08
1005
1FF0A
1005
1FF09
1005
1FED2
1071
       22
1070
     0
1070
     1
1071
        3
1040
22.7389999999773
1040
3.670999999996297
1040
23.56599999997638
1040
5.5200999999945
1040
24.39299999997559
1040
3.670999999996297
1071
        3
1005
1FEEB
1005
1FEF0
1005
1FEEC
1070
     0
1070
     1
1040
0.0
1040
0.15
1070
     0
1070
     2
1040
0.7853981633974483
1040
49.29960901727088
1040
-10.17736998311392
1040
-0.3367596045400932
1040
0.3367596045400932
1070
     0
1040
2.356194490192345
1040
49.29960901727088
1040
-10.17736998311392
1040
-0.3367596045400932
1040
-0.3367596045400932
1070
     0
1040
0.0110235143455945
1071
        2
1040
21.97929957367762
1040
3.294304244259308
1040
0.0
1040
21.97929957367762
1040
3.294304244259308
1040
0.0
1002
}
  0
INSERT
  5
1FF0F
330
1FEC9
100
AcDbEntity
  8
0
100
AcDbBlockReference
  2
*X54
 10
0.0
 20
0.0
 30
0.0
1001
ACAD
1000
HATCH
1002
{
1070
    19
1000
ANSI37
1040
0.15
1040
0.0
1000
R14_HATCH_DATA
1000
1FF0F
1011
1.0
1021
0.0
1031
0.0
1011
0.0
1021
1.0
1031
0.0
1011
0.0
1021
0.0
1031
1.0
1040
0.0
1010
0.0
1020
0.0
1030
1.0
1000
ANSI37
1070
     0
1070
     1
1071
        1
1071
        7
1070
     1
1070
     1
1071
       12
1040
31.64199999996833
1040
2.481619422925121
1040
0.2679491924310942
1040
32.94699999997067
1040
0.2212931190493919
1040
0.2679491924301353
1040
36.36699999995983
1040
0.2212931190459813
1040
0.2679491924321411
1040
37.67199999996831
1040
2.481619422928361
1040
0.0
1040
37.67199999996831
1040
8.763099999991255
1040
0.0
1040
36.23199999996837
1040
8.763099999991255
1040
0.0
1040
36.23199999996837
1040
2.481619422925064
1040
-0.2679491924310291
1040
35.64699999996708
1040
1.468369700498386
1040
-0.267949192430519
1040
33.66699999997093
1040
1.468369700497703
1040
-0.267949192431809
1040
33.08199999996839
1040
2.481619422926997
1040
0.0
1040
33.08199999996839
1040
8.763099999991255
1040
0.0
1040
31.64199999996833
1040
8.763099999991255
1040
0.0
1071
        0
1070
     0
1070
     1
1040
0.0
1040
0.15
1070
     0
1070
     2
1040
0.7853981633974483
1040
49.29960901727088
1040
-10.17736998311392
1040
-0.3367596045400932
1040
0.3367596045400932
1070
     0
1040
2.356194490192345
1040
49.29960901727088
1040
-10.17736998311392
1040
-0.3367596045400932
1040
-0.3367596045400932
1070
     0
1040
0.0110235143455945
1071
        1
1040
32.30357378967278
1040
3.988785755459219
1040
0.0
1002
}
  0
INSERT
  5
1FF10
330
1FEC9
100
AcDbEntity
  8
0
100
AcDbBlockReference
  2
*X55
 10
0.0
 20
0.0
 30
0.0
1001
ACAD
1000
HATCH
1002
{
1070
    19
1000
ANSI37
1040
0.15
1040
0.0
1000
ASC_BOUNDS
1070
     1
1070
     2
1070
     8
1005
1FEF1
1005
1FEF4
1005
1FEF8
1005
1FEF7
1005
1FEF6
1005
1FEF3
1005
1FEF5
1005
1FEF2
1000
ASC_SEEDPOINT
1011
39.74896370716704
1021
4.484843821435049
1031
0.0
1000
R14_HATCH_DATA
1000
1FF10
1011
1.0
1021
0.0
1031
0.0
1011
0.0
1021
1.0
1031
0.0
1011
0.0
1021
0.0
1031
1.0
1040
0.0
1010
0.0
1020
0.0
1030
1.0
1000
ANSI37
1070
     0
1070
     1
1071
        1
1071
        7
1070
     0
1070
     1
1071
        9
1040
40.02599999995994
1040
5.341799999994635
1040
44.99999999995498
1040
-0.2368999999997641
1040
44.99999999995498
1040
8.763099999991255
1040
43.57899999995641
1040
8.763099999991255
1040
43.57899999995641
1040
3.421199999996588
1040
38.60499999996136
1040
8.999899999990987
1040
38.60499999996136
1040
8.999999999991019
1040
38.60499999996136
1040
0.0
1040
40.02599999995994
1040
0.0
1071
        8
1005
1FEF1
1005
1FEF4
1005
1FEF8
1005
1FEF7
1005
1FEF6
1005
1FEF3
1005
1FEF5
1005
1FEF2
1070
     0
1070
     1
1040
0.0
1040
0.15
1070
     0
1070
     2
1040
0.7853981633974483
1040
49.29960901727088
1040
-10.17736998311392
1040
-0.3367596045400932
1040
0.3367596045400932
1070
     0
1040
2.356194490192345
1040
49.29960901727088
1040
-10.17736998311392
1040
-0.3367596045400932
1040
-0.3367596045400932
1070
     0
1040
0.0110235143455945
1071
        1
1040
39.74896370716704
1040
4.484843821435049
1040
0.0
1002
}
  0
INSERT
  5
1FF11
330
1FEC9
100
AcDbEntity
  8
0
100
AcDbBlockReference
  2
*X56
 10
0.0
 20
0.0
 30
0.0
1001
ACAD
1000
HATCH
1002
{
1070
    19
1000
ANSI37
1040
0.15
1040
0.0
1000
ASC_BOUNDS
1070
     1
1070
     2
1070
     4
1005
1FED5
1005
1FEE4
1005
1FED6
1005
1FED8
1000
ASC_SEEDPOINT
1011
1.079051535452663
1021
4.148538732891836
1031
0.0
1000
R14_HATCH_DATA
1000
1FF11
1011
1.0
1021
0.0
1031
0.0
1011
0.0
1021
1.0
1031
0.0
1011
0.0
1021
0.0
1031
1.0
1040
0.0
1010
0.0
1020
0.0
1030
1.0
1000
ANSI37
1070
     0
1070
     1
1071
        1
1071
        7
1070
     0
1070
     1
1071
        4
1040
1.420999999998571
1040
0.0
1040
1.420999999998571
1040
8.763099999991255
1040
0.0
1040
8.763099999991255
1040
0.0
1040
0.0
1071
        4
1005
1FED5
1005
1FEE4
1005
1FED6
1005
1FED8
1070
     0
1070
     1
1040
0.0
1040
0.15
1070
     0
1070
     2
1040
0.7853981633974483
1040
49.29960901727088
1040
-10.17736998311392
1040
-0.3367596045400932
1040
0.3367596045400932
1070
     0
1040
2.356194490192345
1040
49.29960901727088
1040
-10.17736998311392
1040
-0.3367596045400932
1040
-0.3367596045400932
1070
     0
1040
0.0053004257112761
1071
        1
1040
1.079051535452663
1040
4.148538732891836
1040
0.0
1002
}
  0
ENDBLK
  5
205D6
330
1FEC9
100
AcDbEntity
  8
0
100
AcDbBlockEnd
  0
BLOCK
  5
21A34
330
218A6
100
AcDbEntity
  8
0
100
AcDbBlockBegin
  2
*X51
 70
     1
 10
0.0
 20
0.0
 30
0.0
  3
*X51
  1

  0
LINE
  5
218A7
330
218A6
100
AcDbEntity
  8
0
  6
CONTINUOUS
100
AcDbLine
 10
3.418023043697893
 20
7.251849696850613
 30
0.0
 11
4.929273346838536
 21
8.763099999991255
 31
0.0
  0
LINE
  5
218A8
330
218A6
100
AcDbEntity
  8
0
  6
CONTINUOUS
100
AcDbLine
 10
1.483656411257782
 20
4.643963855330318
 30
0.0
 11
5.60279255591872
 21
8.763099999991255
 31
0.0
  0
LINE
  5
218A9
330
218A6
100
AcDbEntity
  8
0
  6
CONTINUOUS
100
AcDbLine
 10
1.755053947328235
 20
4.241842182320584
 30
0.0
 11
6.276311764998907
 21
8.763099999991255
 31
0.0
  0
LINE
  5
218AA
330
218A6
100
AcDbEntity
  8
0
  6
CONTINUOUS
100
AcDbLine
 10
2.026451483398688
 20
3.839720509310849
 30
0.0
 11
4.441040904851878
 21
6.254309930764039
 31
0.0
  0
LINE
  5
218AB
330
218A6
100
AcDbEntity
  8
0
  6
CONTINUOUS
100
AcDbLine
 10
2.297849019469139
 20
3.437598836301114
 30
0.0
 11
3.321765168359338
 21
4.461514985191313
 31
0.0
  0
LINE
  5
218AC
330
218A6
100
AcDbEntity
  8
0
  6
CONTINUOUS
100
AcDbLine
 10
2.569246555539591
 20
3.03547716329138
 30
0.0
 11
3.593163397972743
 21
4.059394005724531
 31
0.0
  0
LINE
  5
218AD
330
218A6
100
AcDbEntity
  8
0
  6
CONTINUOUS
100
AcDbLine
 10
2.840644091610043
 20
2.633355490281646
 30
0.0
 11
3.864561627586149
 21
3.657273026257751
 31
0.0
  0
LINE
  5
218AE
330
218A6
100
AcDbEntity
  8
0
  6
CONTINUOUS
100
AcDbLine
 10
3.112041627680496
 20
2.231233817271911
 30
0.0
 11
4.135959857199554
 21
3.25515204679097
 31
0.0
  0
LINE
  5
218AF
330
218A6
100
AcDbEntity
  8
0
  6
CONTINUOUS
100
AcDbLine
 10
3.383439163750948
 20
1.829112144262177
 30
0.0
 11
4.40735808681296
 21
2.853031067324189
 31
0.0
  0
LINE
  5
218B0
330
218A6
100
AcDbEntity
  8
0
  6
CONTINUOUS
100
AcDbLine
 10
3.654836699821399
 20
1.426990471252442
 30
0.0
 11
4.678756316426365
 21
2.450910087857407
 31
0.0
  0
LINE
  5
218B1
330
218A6
100
AcDbEntity
  8
0
  6
CONTINUOUS
100
AcDbLine
 10
3.926234235891853
 20
1.024868798242709
 30
0.0
 11
4.95015454603977
 21
2.048789108390626
 31
0.0
  0
LINE
  5
218B2
330
218A6
100
AcDbEntity
  8
0
  6
CONTINUOUS
100
AcDbLine
 10
4.197631771962304
 20
0.6227471252329737
 30
0.0
 11
5.221552775653176
 21
1.646668128923846
 31
0.0
  0
LINE
  5
218B3
330
218A6
100
AcDbEntity
  8
0
  6
CONTINUOUS
100
AcDbLine
 10
8.715877546767851
 20
7.835069736359266
 30
0.0
 11
9.435953450375058
 21
8.555145639966472
 31
0.0
  0
LINE
  5
218B4
330
218A6
100
AcDbEntity
  8
0
  6
CONTINUOUS
100
AcDbLine
 10
8.170620868422267
 20
6.616293848933497
 30
0.0
 11
9.644120833743461
 21
8.08979381425469
 31
0.0
  0
LINE
  5
218B5
330
218A6
100
AcDbEntity
  8
0
  6
CONTINUOUS
100
AcDbLine
 10
7.625364190076684
 20
5.397517961507727
 30
0.0
 11
9.852288217111864
 21
7.624441988542907
 31
0.0
  0
LINE
  5
218B6
330
218A6
100
AcDbEntity
  8
0
  6
CONTINUOUS
100
AcDbLine
 10
7.080107511731101
 20
4.178742074081957
 30
0.0
 11
10.06045560048027
 21
7.159090162831124
 31
0.0
  0
LINE
  5
218B7
330
218A6
100
AcDbEntity
  8
0
  6
CONTINUOUS
100
AcDbLine
 10
6.534850833385518
 20
2.959966186656187
 30
0.0
 11
10.26862298384867
 21
6.693738337119342
 31
0.0
  0
LINE
  5
218B8
330
218A6
100
AcDbEntity
  8
0
  6
CONTINUOUS
100
AcDbLine
 10
4.469029308032756
 20
0.2206254522232385
 30
0.0
 11
5.492951005266582
 21
1.244547149457064
 31
0.0
  0
LINE
  5
218B9
330
218A6
100
AcDbEntity
  8
0
  6
CONTINUOUS
100
AcDbLine
 10
5.989594155039935
 20
1.741190299230417
 30
0.0
 11
8.806950407233131
 21
4.558546551423613
 31
0.0
  0
LINE
  5
218BA
330
218A6
100
AcDbEntity
  8
0
  6
CONTINUOUS
100
AcDbLine
 10
9.401251593263643
 20
5.152847737454126
 30
0.0
 11
10.47679036721708
 21
6.228386511407559
 31
0.0
  0
LINE
  5
218BB
330
218A6
100
AcDbEntity
  8
0
  6
CONTINUOUS
100
AcDbLine
 10
4.921837203428691
 20
-0.0000858614610131
 30
0.0
 11
8.592923064886001
 21
3.670999999996297
 31
0.0
  0
LINE
  5
218BC
330
218A6
100
AcDbEntity
  8
0
  6
CONTINUOUS
100
AcDbLine
 10
9.609390446785305
 20
4.6874673818956
 30
0.0
 11
10.68495775058548
 21
5.763034685695775
 31
0.0
  0
LINE
  5
218BD
330
218A6
100
AcDbEntity
  8
0
  6
CONTINUOUS
100
AcDbLine
 10
5.595387755019432
 20
-0.0000545189504582
 30
0.0
 11
7.716137258923768
 21
2.120694984953879
 31
0.0
  0
LINE
  5
218BE
330
218A6
100
AcDbEntity
  8
0
  6
CONTINUOUS
100
AcDbLine
 10
6.268938306610172
 20
-0.000023176439905
 30
0.0
 11
7.170485805526503
 21
0.9015243224764267
 31
0.0
  0
LINE
  5
218BF
330
218A6
100
AcDbEntity
  8
0
  6
CONTINUOUS
100
AcDbLine
 10
7.963842273967511
 20
2.368399999997621
 30
0.0
 11
9.266442273966188
 21
3.670999999996297
 31
0.0
  0
LINE
  5
218C0
330
218A6
100
AcDbEntity
  8
0
  6
CONTINUOUS
100
AcDbLine
 10
8.637361483047696
 20
2.368399999997621
 30
0.0
 11
9.939961483046375
 21
3.670999999996297
 31
0.0
  0
LINE
  5
218C1
330
218A6
100
AcDbEntity
  8
0
  6
CONTINUOUS
100
AcDbLine
 10
9.817529300306965
 20
4.222087026337075
 30
0.0
 11
10.89312513395388
 21
5.297682859983993
 31
0.0
  0
LINE
  5
218C2
330
218A6
100
AcDbEntity
  8
0
  6
CONTINUOUS
100
AcDbLine
 10
10.02566815382863
 20
3.756706670778549
 30
0.0
 11
11.10129251732229
 21
4.832331034272211
 31
0.0
  0
LINE
  5
218C3
330
218A6
100
AcDbEntity
  8
0
  6
CONTINUOUS
100
AcDbLine
 10
9.310880692127883
 20
2.368399999997621
 30
0.0
 11
11.30945990069069
 21
4.366979208560428
 31
0.0
  0
LINE
  5
218C4
330
218A6
100
AcDbEntity
  8
0
  6
CONTINUOUS
100
AcDbLine
 10
9.98439990120807
 20
2.36839999999762
 30
0.0
 11
11.5176272840591
 21
3.901627382848645
 31
0.0
  0
LINE
  5
218C5
330
218A6
100
AcDbEntity
  8
0
  6
CONTINUOUS
100
AcDbLine
 10
10.65037369446246
 20
2.36085458417182
 30
0.0
 11
11.7257946674275
 21
3.436275557136862
 31
0.0
  0
LINE
  5
218C6
330
218A6
100
AcDbEntity
  8
0
  6
CONTINUOUS
100
AcDbLine
 10
10.85847197087848
 20
1.895433651507656
 30
0.0
 11
11.9339620507959
 21
2.97092373142508
 31
0.0
  0
LINE
  5
218C7
330
218A6
100
AcDbEntity
  8
0
  6
CONTINUOUS
100
AcDbLine
 10
11.0665702472945
 20
1.430012718843491
 30
0.0
 11
12.14212943416431
 21
2.505571905713296
 31
0.0
  0
LINE
  5
218C8
330
218A6
100
AcDbEntity
  8
0
  6
CONTINUOUS
100
AcDbLine
 10
11.27466852371052
 20
0.9645917861793256
 30
0.0
 11
12.35029681753271
 21
2.040220080001513
 31
0.0
  0
LINE
  5
218C9
330
218A6
100
AcDbEntity
  8
0
  6
CONTINUOUS
100
AcDbLine
 10
11.48276680012654
 20
0.4991708535151611
 30
0.0
 11
12.55846420090111
 21
1.57486825428973
 31
0.0
  0
LINE
  5
218CA
330
218A6
100
AcDbEntity
  8
0
  6
CONTINUOUS
100
AcDbLine
 10
11.69086507654257
 20
0.0337499208509957
 30
0.0
 11
12.76663158426952
 21
1.109516428577947
 31
0.0
  0
LINE
  5
218CB
330
218A6
100
AcDbEntity
  8
0
  6
CONTINUOUS
100
AcDbLine
 10
12.33057447873954
 20
-0.0000598860322123
 30
0.0
 11
12.97479896763792
 21
0.6441646028661663
 31
0.0
  0
LINE
  5
218CC
330
218A6
100
AcDbEntity
  8
0
  6
CONTINUOUS
100
AcDbLine
 10
13.00413694809395
 20
-0.0000166257579952
 30
0.0
 11
13.18296635100632
 21
0.1788127771543824
 31
0.0
  0
LINE
  5
218CD
330
218A6
100
AcDbEntity
  8
0
  6
CONTINUOUS
100
AcDbLine
 10
4.772852165289667
 20
-0.000092794222212
 30
0.0
 11
4.296495091028902
 21
0.4762642800385528
 31
0.0
  0
LINE
  5
218CE
330
218A6
100
AcDbEntity
  8
0
  6
CONTINUOUS
100
AcDbLine
 10
5.446340034776103
 20
-0.0000614546284616
 30
0.0
 11
2.898195908335625
 21
2.548082671812017
 31
0.0
  0
LINE
  5
218CF
330
218A6
100
AcDbEntity
  8
0
  6
CONTINUOUS
100
AcDbLine
 10
6.119827904262539
 20
-0.0000301150347113
 30
0.0
 11
1.499896725642348
 21
4.61990106358548
 31
0.0
  0
LINE
  5
218D0
330
218A6
100
AcDbEntity
  8
0
  6
CONTINUOUS
100
AcDbLine
 10
6.775136745476159
 20
0.0181802528318542
 30
0.0
 11
5.699826040202669
 21
1.093490958105344
 31
0.0
  0
LINE
  5
218D1
330
218A6
100
AcDbEntity
  8
0
  6
CONTINUOUS
100
AcDbLine
 10
6.983376846288489
 20
0.4834593610997118
 30
0.0
 11
5.908008617934405
 21
1.558827589453796
 31
0.0
  0
LINE
  5
218D2
330
218A6
100
AcDbEntity
  8
0
  6
CONTINUOUS
100
AcDbLine
 10
5.377063484962296
 20
1.416253513345719
 30
0.0
 11
1.702276957014131
 21
5.091040041293883
 31
0.0
  0
LINE
  5
218D3
330
218A6
100
AcDbEntity
  8
0
  6
CONTINUOUS
100
AcDbLine
 10
3.978745891735324
 20
3.488090315652877
 30
0.0
 11
2.000373521109399
 21
5.466462686278803
 31
0.0
  0
LINE
  5
218D4
330
218A6
100
AcDbEntity
  8
0
  6
CONTINUOUS
100
AcDbLine
 10
7.191616947100819
 20
0.948738469367568
 30
0.0
 11
6.11619119566614
 21
2.024164220802247
 31
0.0
  0
LINE
  5
218D5
330
218A6
100
AcDbEntity
  8
0
  6
CONTINUOUS
100
AcDbLine
 10
7.399857047913149
 20
1.414017577635424
 30
0.0
 11
6.324373773397875
 21
2.489500852150698
 31
0.0
  0
LINE
  5
218D6
330
218A6
100
AcDbEntity
  8
0
  6
CONTINUOUS
100
AcDbLine
 10
7.608097148725479
 20
1.879296685903281
 30
0.0
 11
6.53255635112961
 21
2.95483748349915
 31
0.0
  0
LINE
  5
218D7
330
218A6
100
AcDbEntity
  8
0
  6
CONTINUOUS
100
AcDbLine
 10
7.816337249537808
 20
2.344575794171138
 30
0.0
 11
6.740738928861345
 21
3.420174114847601
 31
0.0
  0
LINE
  5
218D8
330
218A6
100
AcDbEntity
  8
0
  6
CONTINUOUS
100
AcDbLine
 10
3.310241080789734
 20
4.830114335678653
 30
0.0
 11
2.298470085204666
 21
5.84188533126372
 31
0.0
  0
LINE
  5
218D9
330
218A6
100
AcDbEntity
  8
0
  6
CONTINUOUS
100
AcDbLine
 10
3.60832983563551
 20
5.205544789913063
 30
0.0
 11
2.596566649299935
 21
6.217307976248638
 31
0.0
  0
LINE
  5
218DA
330
218A6
100
AcDbEntity
  8
0
  6
CONTINUOUS
100
AcDbLine
 10
3.906418590481286
 20
5.580975244147473
 30
0.0
 11
2.894663213395203
 21
6.592730621233557
 31
0.0
  0
LINE
  5
218DB
330
218A6
100
AcDbEntity
  8
0
  6
CONTINUOUS
100
AcDbLine
 10
4.204507345327062
 20
5.956405698381884
 30
0.0
 11
3.192759777490472
 21
6.968153266218474
 31
0.0
  0
LINE
  5
218DC
330
218A6
100
AcDbEntity
  8
0
  6
CONTINUOUS
100
AcDbLine
 10
8.466032252791512
 20
2.368399999997621
 30
0.0
 11
6.948921506593081
 21
3.885510746196053
 31
0.0
  0
LINE
  5
218DD
330
218A6
100
AcDbEntity
  8
0
  6
CONTINUOUS
100
AcDbLine
 10
9.139551461871699
 20
2.36839999999762
 30
0.0
 11
7.157104084324816
 21
4.350847377544504
 31
0.0
  0
LINE
  5
218DE
330
218A6
100
AcDbEntity
  8
0
  6
CONTINUOUS
100
AcDbLine
 10
4.502596100172839
 20
6.331836152616295
 30
0.0
 11
3.49085634158574
 21
7.343575911203393
 31
0.0
  0
LINE
  5
218DF
330
218A6
100
AcDbEntity
  8
0
  6
CONTINUOUS
100
AcDbLine
 10
4.800684855018615
 20
6.707266606850705
 30
0.0
 11
3.788952905681008
 21
7.718998556188312
 31
0.0
  0
LINE
  5
218E0
330
218A6
100
AcDbEntity
  8
0
  6
CONTINUOUS
100
AcDbLine
 10
12.18154012887317
 20
-0.0000694579236642
 30
0.0
 11
11.32140332908496
 21
0.8600673418645499
 31
0.0
  0
LINE
  5
218E1
330
218A6
100
AcDbEntity
  8
0
  6
CONTINUOUS
100
AcDbLine
 10
12.85501608323566
 20
-0.0000262032059659
 30
0.0
 11
10.77672456435345
 21
2.078265315676246
 31
0.0
  0
LINE
  5
218E2
330
218A6
100
AcDbEntity
  8
0
  6
CONTINUOUS
100
AcDbLine
 10
9.813070670951886
 20
2.36839999999762
 30
0.0
 11
8.51047067095321
 21
3.670999999996297
 31
0.0
  0
LINE
  5
218E3
330
218A6
100
AcDbEntity
  8
0
  6
CONTINUOUS
100
AcDbLine
 10
10.48658988003207
 20
2.36839999999762
 30
0.0
 11
9.183989880033396
 21
3.670999999996297
 31
0.0
  0
LINE
  5
218E4
330
218A6
100
AcDbEntity
  8
0
  6
CONTINUOUS
100
AcDbLine
 10
8.441048632286794
 20
3.740422038662712
 30
0.0
 11
7.365286662056551
 21
4.816184008892956
 31
0.0
  0
LINE
  5
218E5
330
218A6
100
AcDbEntity
  8
0
  6
CONTINUOUS
100
AcDbLine
 10
8.649187485808454
 20
4.205802394221237
 30
0.0
 11
7.573469239788285
 21
5.281520640241407
 31
0.0
  0
LINE
  5
218E6
330
218A6
100
AcDbEntity
  8
0
  6
CONTINUOUS
100
AcDbLine
 10
5.098773609864391
 20
7.082697061085115
 30
0.0
 11
4.087049469776277
 21
8.09442120117323
 31
0.0
  0
LINE
  5
218E7
330
218A6
100
AcDbEntity
  8
0
  6
CONTINUOUS
100
AcDbLine
 10
5.396862364710167
 20
7.458127515319526
 30
0.0
 11
4.385146033871544
 21
8.469843846158149
 31
0.0
  0
LINE
  5
218E8
330
218A6
100
AcDbEntity
  8
0
  6
CONTINUOUS
100
AcDbLine
 10
13.04801363231285
 20
0.4804954567970334
 30
0.0
 11
9.85750908911358
 21
3.670999999996297
 31
0.0
  0
LINE
  5
218E9
330
218A6
100
AcDbEntity
  8
0
  6
CONTINUOUS
100
AcDbLine
 10
8.857326339330116
 20
4.671182749779763
 30
0.0
 11
7.781651817520021
 21
5.746857271589858
 31
0.0
  0
LINE
  5
218EA
330
218A6
100
AcDbEntity
  8
0
  6
CONTINUOUS
100
AcDbLine
 10
5.694951119555943
 20
7.833557969553937
 30
0.0
 11
4.765409089118624
 21
8.763099999991255
 31
0.0
  0
LINE
  5
218EB
330
218A6
100
AcDbEntity
  8
0
  6
CONTINUOUS
100
AcDbLine
 10
12.50286117236978
 20
1.699167125820288
 30
0.0
 11
9.68611877250287
 21
4.515909525687196
 31
0.0
  0
LINE
  5
218EC
330
218A6
100
AcDbEntity
  8
0
  6
CONTINUOUS
100
AcDbLine
 10
9.065465192851777
 20
5.136563105338288
 30
0.0
 11
7.989834395251757
 21
6.21219390293831
 31
0.0
  0
LINE
  5
218ED
330
218A6
100
AcDbEntity
  8
0
  6
CONTINUOUS
100
AcDbLine
 10
5.993039874401719
 20
8.208988423788346
 30
0.0
 11
5.43892829819881
 21
8.763099999991255
 31
0.0
  0
LINE
  5
218EE
330
218A6
100
AcDbEntity
  8
0
  6
CONTINUOUS
100
AcDbLine
 10
11.95770871242671
 20
2.917838794843543
 30
0.0
 11
8.19801697298349
 21
6.677530534286761
 31
0.0
  0
LINE
  5
218EF
330
218A6
100
AcDbEntity
  8
0
  6
CONTINUOUS
100
AcDbLine
 10
6.291128629247495
 20
8.584418878022756
 30
0.0
 11
6.112447507278997
 21
8.763099999991255
 31
0.0
  0
LINE
  5
218F0
330
218A6
100
AcDbEntity
  8
0
  6
CONTINUOUS
100
AcDbLine
 10
11.41255625248364
 20
4.136510463866797
 30
0.0
 11
8.406199550715227
 21
7.142867165635211
 31
0.0
  0
LINE
  5
218F1
330
218A6
100
AcDbEntity
  8
0
  6
CONTINUOUS
100
AcDbLine
 10
10.86740379254057
 20
5.355182132890051
 30
0.0
 11
8.614382128446962
 21
7.608203796983664
 31
0.0
  0
LINE
  5
218F2
330
218A6
100
AcDbEntity
  8
0
  6
CONTINUOUS
100
AcDbLine
 10
10.3222513325975
 20
6.573853801913305
 30
0.0
 11
8.822564706178696
 21
8.073540428332114
 31
0.0
  0
LINE
  5
218F3
330
218A6
100
AcDbEntity
  8
0
  6
CONTINUOUS
100
AcDbLine
 10
9.777098872654436
 20
7.792525470936562
 30
0.0
 11
9.030747283910433
 21
8.538877059680566
 31
0.0
  0
ENDBLK
  5
21A35
330
218A6
100
AcDbEntity
  8
0
100
AcDbBlockEnd
  0
BLOCK
  5
21A36
330
218F4
100
AcDbEntity
  8
0
100
AcDbBlockBegin
  2
*X52
 70
     1
 10
0.0
 20
0.0
 30
0.0
  3
*X52
  1

  0
LINE
  5
218F5
330
218F4
100
AcDbEntity
  8
0
  6
CONTINUOUS
100
AcDbLine
 10
10.67292308101235
 20
8.445076852443387
 30
0.0
 11
10.99094622856022
 21
8.763099999991255
 31
0.0
  0
LINE
  5
218F6
330
218F4
100
AcDbEntity
  8
0
  6
CONTINUOUS
100
AcDbLine
 10
10.87250383178748
 20
7.971138394138331
 30
0.0
 11
11.6644654376404
 21
8.763099999991255
 31
0.0
  0
LINE
  5
218F7
330
218F4
100
AcDbEntity
  8
0
  6
CONTINUOUS
100
AcDbLine
 10
11.07208458256261
 20
7.497199935833273
 30
0.0
 11
12.12126590876355
 21
8.546381262034211
 31
0.0
  0
LINE
  5
218F8
330
218F4
100
AcDbEntity
  8
0
  6
CONTINUOUS
100
AcDbLine
 10
11.27166533333774
 20
7.023261477528216
 30
0.0
 11
12.32085164573666
 21
8.072447789927136
 31
0.0
  0
LINE
  5
218F9
330
218F4
100
AcDbEntity
  8
0
  6
CONTINUOUS
100
AcDbLine
 10
11.47124608411287
 20
6.549323019223158
 30
0.0
 11
12.52043738270977
 21
7.59851431782006
 31
0.0
  0
LINE
  5
218FA
330
218F4
100
AcDbEntity
  8
0
  6
CONTINUOUS
100
AcDbLine
 10
11.670826834888
 20
6.075384560918101
 30
0.0
 11
12.72002311968288
 21
7.124580845712984
 31
0.0
  0
LINE
  5
218FB
330
218F4
100
AcDbEntity
  8
0
  6
CONTINUOUS
100
AcDbLine
 10
11.87040758566313
 20
5.601446102613043
 30
0.0
 11
12.91960885665599
 21
6.650647373605907
 31
0.0
  0
LINE
  5
218FC
330
218F4
100
AcDbEntity
  8
0
  6
CONTINUOUS
100
AcDbLine
 10
12.06998833643825
 20
5.127507644307986
 30
0.0
 11
13.1191945936291
 21
6.176713901498832
 31
0.0
  0
LINE
  5
218FD
330
218F4
100
AcDbEntity
  8
0
  6
CONTINUOUS
100
AcDbLine
 10
12.26956908721338
 20
4.65356918600293
 30
0.0
 11
13.31878033060221
 21
5.702780429391757
 31
0.0
  0
LINE
  5
218FE
330
218F4
100
AcDbEntity
  8
0
  6
CONTINUOUS
100
AcDbLine
 10
12.46914983798851
 20
4.179630727697873
 30
0.0
 11
13.51836606757532
 21
5.228846957284683
 31
0.0
  0
LINE
  5
218FF
330
218F4
100
AcDbEntity
  8
0
  6
CONTINUOUS
100
AcDbLine
 10
12.66873058876364
 20
3.705692269392816
 30
0.0
 11
13.71795180454843
 21
4.754913485177607
 31
0.0
  0
LINE
  5
21900
330
218F4
100
AcDbEntity
  8
0
  6
CONTINUOUS
100
AcDbLine
 10
12.86831133953877
 20
3.231753811087759
 30
0.0
 11
13.91753754152154
 21
4.280980013070531
 31
0.0
  0
LINE
  5
21901
330
218F4
100
AcDbEntity
  8
0
  6
CONTINUOUS
100
AcDbLine
 10
13.0678920903139
 20
2.757815352782702
 30
0.0
 11
14.11712327849465
 21
3.807046540963456
 31
0.0
  0
LINE
  5
21902
330
218F4
100
AcDbEntity
  8
0
  6
CONTINUOUS
100
AcDbLine
 10
13.26747284108903
 20
2.283876894477644
 30
0.0
 11
14.31670901546777
 21
3.333113068856379
 31
0.0
  0
LINE
  5
21903
330
218F4
100
AcDbEntity
  8
0
  6
CONTINUOUS
100
AcDbLine
 10
16.36767838827179
 20
8.751678487061342
 30
0.0
 11
16.50332410898388
 21
8.887324207773432
 31
0.0
  0
LINE
  5
21904
330
218F4
100
AcDbEntity
  8
0
  6
CONTINUOUS
100
AcDbLine
 10
15.96190732182191
 20
7.67238821153127
 30
0.0
 11
16.68735328004734
 21
8.397834169756699
 31
0.0
  0
LINE
  5
21905
330
218F4
100
AcDbEntity
  8
0
  6
CONTINUOUS
100
AcDbLine
 10
15.55613625537202
 20
6.593097936001196
 30
0.0
 11
16.87138245111079
 21
7.908344131739965
 31
0.0
  0
LINE
  5
21906
330
218F4
100
AcDbEntity
  8
0
  6
CONTINUOUS
100
AcDbLine
 10
15.15036518892213
 20
5.513807660471122
 30
0.0
 11
17.05541162217424
 21
7.418854093723231
 31
0.0
  0
LINE
  5
21907
330
218F4
100
AcDbEntity
  8
0
  6
CONTINUOUS
100
AcDbLine
 10
14.74459412247225
 20
4.434517384941048
 30
0.0
 11
17.2394407932377
 21
6.929364055706499
 31
0.0
  0
LINE
  5
21908
330
218F4
100
AcDbEntity
  8
0
  6
CONTINUOUS
100
AcDbLine
 10
14.33882305602236
 20
3.355227109410975
 30
0.0
 11
17.42346996430115
 21
6.439874017689766
 31
0.0
  0
LINE
  5
21909
330
218F4
100
AcDbEntity
  8
0
  6
CONTINUOUS
100
AcDbLine
 10
13.46705359186416
 20
1.809938436172586
 30
0.0
 11
16.0819338255367
 21
4.424818669845129
 31
0.0
  0
LINE
  5
2190A
330
218F4
100
AcDbEntity
  8
0
  6
CONTINUOUS
100
AcDbLine
 10
16.63283254238972
 20
4.975717386698149
 30
0.0
 11
17.60749913536461
 21
5.950383979673033
 31
0.0
  0
LINE
  5
2190B
330
218F4
100
AcDbEntity
  8
0
  6
CONTINUOUS
100
AcDbLine
 10
13.66663434263929
 20
1.335999977867529
 30
0.0
 11
15.67604797733754
 21
3.345413612565779
 31
0.0
  0
LINE
  5
2190C
330
218F4
100
AcDbEntity
  8
0
  6
CONTINUOUS
100
AcDbLine
 10
13.86621509341442
 20
0.8620615195624723
 30
0.0
 11
15.27016212913838
 21
2.26600855528643
 31
0.0
  0
LINE
  5
2190D
330
218F4
100
AcDbEntity
  8
0
  6
CONTINUOUS
100
AcDbLine
 10
16.81682257348267
 20
4.486188208710908
 30
0.0
 11
17.79152830642806
 21
5.460893941656299
 31
0.0
  0
LINE
  5
2190E
330
218F4
100
AcDbEntity
  8
0
  6
CONTINUOUS
100
AcDbLine
 10
17.00081260457561
 20
3.996659030723667
 30
0.0
 11
17.97555747749151
 21
4.971403903639565
 31
0.0
  0
LINE
  5
2190F
330
218F4
100
AcDbEntity
  8
0
  6
CONTINUOUS
100
AcDbLine
 10
20.74362343514722
 20
8.412989070375462
 30
0.0
 11
21.09373436476302
 21
8.763099999991256
 31
0.0
  0
LINE
  5
21910
330
218F4
100
AcDbEntity
  8
0
  6
CONTINUOUS
100
AcDbLine
 10
20.25401257174777
 20
7.249858997895826
 30
0.0
 11
21.7672535738432
 21
8.763099999991255
 31
0.0
  0
LINE
  5
21911
330
218F4
100
AcDbEntity
  8
0
  6
CONTINUOUS
100
AcDbLine
 10
14.06579584418955
 20
0.3881230612574149
 30
0.0
 11
14.86427628093921
 21
1.186603498007082
 31
0.0
  0
LINE
  5
21912
330
218F4
100
AcDbEntity
  8
0
  6
CONTINUOUS
100
AcDbLine
 10
14.26537659496467
 20
-0.0858153970476412
 30
0.0
 11
14.45839043274005
 21
0.1071984407277329
 31
0.0
  0
LINE
  5
21913
330
218F4
100
AcDbEntity
  8
0
  6
CONTINUOUS
100
AcDbLine
 10
17.18480263566856
 20
3.507129852736426
 30
0.0
 11
18.15958664855496
 21
4.481913865622833
 31
0.0
  0
LINE
  5
21914
330
218F4
100
AcDbEntity
  8
0
  6
CONTINUOUS
100
AcDbLine
 10
17.3687926667615
 20
3.017600674749186
 30
0.0
 11
18.34361581961842
 21
3.9924238276061
 31
0.0
  0
LINE
  5
21915
330
218F4
100
AcDbEntity
  8
0
  6
CONTINUOUS
100
AcDbLine
 10
19.76440170834832
 20
6.086728925416191
 30
0.0
 11
22.33924590259489
 21
8.661573119662755
 31
0.0
  0
LINE
  5
21916
330
218F4
100
AcDbEntity
  8
0
  6
CONTINUOUS
100
AcDbLine
 10
19.27479084494887
 20
4.923598852936555
 30
0.0
 11
21.84929622842713
 21
7.498104236414807
 31
0.0
  0
LINE
  5
21917
330
218F4
100
AcDbEntity
  8
0
  6
CONTINUOUS
100
AcDbLine
 10
17.55278269785445
 20
2.528071496761945
 30
0.0
 11
18.52764499068187
 21
3.502933789589366
 31
0.0
  0
LINE
  5
21918
330
218F4
100
AcDbEntity
  8
0
  6
CONTINUOUS
100
AcDbLine
 10
18.78517998154942
 20
3.760468780456919
 30
0.0
 11
21.35934655425936
 21
6.33463535316686
 31
0.0
  0
LINE
  5
21919
330
218F4
100
AcDbEntity
  8
0
  6
CONTINUOUS
100
AcDbLine
 10
17.73677272894739
 20
2.038542318774704
 30
0.0
 11
20.8693968800916
 21
5.171166469918914
 31
0.0
  0
LINE
  5
2191A
330
218F4
100
AcDbEntity
  8
0
  6
CONTINUOUS
100
AcDbLine
 10
17.92076276004034
 20
1.549013140787464
 30
0.0
 11
20.37944720592384
 21
4.007697586670968
 31
0.0
  0
LINE
  5
2191B
330
218F4
100
AcDbEntity
  8
0
  6
CONTINUOUS
100
AcDbLine
 10
18.10475279113329
 20
1.059483962800223
 30
0.0
 11
19.88949753175608
 21
2.84422870342302
 31
0.0
  0
LINE
  5
2191C
330
218F4
100
AcDbEntity
  8
0
  6
CONTINUOUS
100
AcDbLine
 10
18.28874282222623
 20
0.5699547848129822
 30
0.0
 11
19.39954785758832
 21
1.680759820175074
 31
0.0
  0
LINE
  5
2191D
330
218F4
100
AcDbEntity
  8
0
  6
CONTINUOUS
100
AcDbLine
 10
18.47273285331918
 20
0.0804256068257416
 30
0.0
 11
18.90959818342056
 21
0.517290936927127
 31
0.0
  0
LINE
  5
2191E
330
218F4
100
AcDbEntity
  8
0
  6
CONTINUOUS
100
AcDbLine
 10
14.3590401358224
 20
-0.1570118376323384
 30
0.0
 11
14.24903296539946
 21
-0.0470046672093929
 31
0.0
  0
LINE
  5
2191F
330
218F4
100
AcDbEntity
  8
0
  6
CONTINUOUS
100
AcDbLine
 10
14.54309291258661
 20
0.332454594683643
 30
0.0
 11
13.75908329123172
 21
1.116464216038529
 31
0.0
  0
LINE
  5
21920
330
218F4
100
AcDbEntity
  8
0
  6
CONTINUOUS
100
AcDbLine
 10
14.72714568935081
 20
0.8219210269996244
 30
0.0
 11
13.26913361706399
 21
2.27993309928645
 31
0.0
  0
LINE
  5
21921
330
218F4
100
AcDbEntity
  8
0
  6
CONTINUOUS
100
AcDbLine
 10
14.91119846611502
 20
1.311387459315606
 30
0.0
 11
12.77918394289625
 21
3.443401982534371
 31
0.0
  0
LINE
  5
21922
330
218F4
100
AcDbEntity
  8
0
  6
CONTINUOUS
100
AcDbLine
 10
15.09525124287922
 20
1.800853891631587
 30
0.0
 11
12.28923426872852
 21
4.606870865782293
 31
0.0
  0
LINE
  5
21923
330
218F4
100
AcDbEntity
  8
0
  6
CONTINUOUS
100
AcDbLine
 10
15.27930401964343
 20
2.290320323947569
 30
0.0
 11
11.79928459456078
 21
5.770339749030213
 31
0.0
  0
LINE
  5
21924
330
218F4
100
AcDbEntity
  8
0
  6
CONTINUOUS
100
AcDbLine
 10
15.46335679640763
 20
2.77978675626355
 30
0.0
 11
14.48885470994921
 21
3.754288842721972
 31
0.0
  0
LINE
  5
21925
330
218F4
100
AcDbEntity
  8
0
  6
CONTINUOUS
100
AcDbLine
 10
13.88507249233704
 20
4.358071060334137
 30
0.0
 11
11.30933492039305
 21
6.933808632278135
 31
0.0
  0
LINE
  5
21926
330
218F4
100
AcDbEntity
  8
0
  6
CONTINUOUS
100
AcDbLine
 10
18.75840522805855
 20
0.1582575336928151
 30
0.0
 11
18.25383727664818
 21
0.6628254851031863
 31
0.0
  0
LINE
  5
21927
330
218F4
100
AcDbEntity
  8
0
  6
CONTINUOUS
100
AcDbLine
 10
15.64740957317184
 20
3.269253188579531
 30
0.0
 11
14.67288388101266
 21
4.243778880738705
 31
0.0
  0
LINE
  5
21928
330
218F4
100
AcDbEntity
  8
0
  6
CONTINUOUS
100
AcDbLine
 10
13.39509276772158
 20
5.521569994029786
 30
0.0
 11
10.81938524622531
 21
8.097277515526056
 31
0.0
  0
LINE
  5
21929
330
218F4
100
AcDbEntity
  8
0
  6
CONTINUOUS
100
AcDbLine
 10
18.95798597883369
 20
0.6321959919978686
 30
0.0
 11
17.84825644852853
 21
1.741925522303024
 31
0.0
  0
LINE
  5
2192A
330
218F4
100
AcDbEntity
  8
0
  6
CONTINUOUS
100
AcDbLine
 10
19.15756672960882
 20
1.106134450302922
 30
0.0
 11
17.44267562040888
 21
2.821025559502861
 31
0.0
  0
LINE
  5
2192B
330
218F4
100
AcDbEntity
  8
0
  6
CONTINUOUS
100
AcDbLine
 10
15.83146234993604
 20
3.758719620895513
 30
0.0
 11
14.85691305207612
 21
4.733268918755439
 31
0.0
  0
LINE
  5
2192C
330
218F4
100
AcDbEntity
  8
0
  6
CONTINUOUS
100
AcDbLine
 10
16.01551512670025
 20
4.248186053211494
 30
0.0
 11
15.04094222313957
 21
5.222758956772172
 31
0.0
  0
LINE
  5
2192D
330
218F4
100
AcDbEntity
  8
0
  6
CONTINUOUS
100
AcDbLine
 10
12.90511304310612
 20
6.685068927725435
 30
0.0
 11
10.8270819708403
 21
8.763099999991255
 31
0.0
  0
LINE
  5
2192E
330
218F4
100
AcDbEntity
  8
0
  6
CONTINUOUS
100
AcDbLine
 10
12.41513331849066
 20
7.848567861421083
 30
0.0
 11
11.50060117992049
 21
8.763099999991255
 31
0.0
  0
LINE
  5
2192F
330
218F4
100
AcDbEntity
  8
0
  6
CONTINUOUS
100
AcDbLine
 10
19.35714748038395
 20
1.580072908607975
 30
0.0
 11
17.03709479228923
 21
3.900125596702697
 31
0.0
  0
LINE
  5
21930
330
218F4
100
AcDbEntity
  8
0
  6
CONTINUOUS
100
AcDbLine
 10
19.55672823115909
 20
2.054011366913028
 30
0.0
 11
16.63151396416958
 21
4.979225633902534
 31
0.0
  0
LINE
  5
21931
330
218F4
100
AcDbEntity
  8
0
  6
CONTINUOUS
100
AcDbLine
 10
16.19956790346445
 20
4.737652485527476
 30
0.0
 11
15.22497139420302
 21
5.712248994788904
 31
0.0
  0
LINE
  5
21932
330
218F4
100
AcDbEntity
  8
0
  6
CONTINUOUS
100
AcDbLine
 10
16.38362068022866
 20
5.227118917843457
 30
0.0
 11
15.40900056526648
 21
6.201739032805637
 31
0.0
  0
LINE
  5
21933
330
218F4
100
AcDbEntity
  8
0
  6
CONTINUOUS
100
AcDbLine
 10
19.75630898193422
 20
2.527949825218081
 30
0.0
 11
18.70774536448286
 21
3.576513442669441
 31
0.0
  0
LINE
  5
21934
330
218F4
100
AcDbEntity
  8
0
  6
CONTINUOUS
100
AcDbLine
 10
19.95588973270936
 20
3.001888283523134
 30
0.0
 11
18.90726987211446
 21
4.050508144118028
 31
0.0
  0
LINE
  5
21935
330
218F4
100
AcDbEntity
  8
0
  6
CONTINUOUS
100
AcDbLine
 10
20.15547048348449
 20
3.475826741828186
 30
0.0
 11
19.10679437974606
 21
4.524502845566614
 31
0.0
  0
LINE
  5
21936
330
218F4
100
AcDbEntity
  8
0
  6
CONTINUOUS
100
AcDbLine
 10
20.35505123425962
 20
3.94976520013324
 30
0.0
 11
19.30631888737766
 21
4.998497547015201
 31
0.0
  0
LINE
  5
21937
330
218F4
100
AcDbEntity
  8
0
  6
CONTINUOUS
100
AcDbLine
 10
20.55463198503475
 20
4.423703658438292
 30
0.0
 11
19.50584339500926
 21
5.472492248463787
 31
0.0
  0
LINE
  5
21938
330
218F4
100
AcDbEntity
  8
0
  6
CONTINUOUS
100
AcDbLine
 10
18.37481191085755
 20
3.909446896294752
 30
0.0
 11
15.59302973632993
 21
6.691229070822371
 31
0.0
  0
LINE
  5
21939
330
218F4
100
AcDbEntity
  8
0
  6
CONTINUOUS
100
AcDbLine
 10
17.96904084440766
 20
4.988737171824825
 30
0.0
 11
15.77705890739338
 21
7.180719108839104
 31
0.0
  0
LINE
  5
2193A
330
218F4
100
AcDbEntity
  8
0
  6
CONTINUOUS
100
AcDbLine
 10
17.56326977795777
 20
6.068027447354899
 30
0.0
 11
15.96108807845684
 21
7.670209146855838
 31
0.0
  0
LINE
  5
2193B
330
218F4
100
AcDbEntity
  8
0
  6
CONTINUOUS
100
AcDbLine
 10
17.15749871150789
 20
7.147317722884972
 30
0.0
 11
16.14511724952029
 21
8.15969918487257
 31
0.0
  0
LINE
  5
2193C
330
218F4
100
AcDbEntity
  8
0
  6
CONTINUOUS
100
AcDbLine
 10
16.751727645058
 20
8.226607998415046
 30
0.0
 11
16.32914642058374
 21
8.649189222889303
 31
0.0
  0
LINE
  5
2193D
330
218F4
100
AcDbEntity
  8
0
  6
CONTINUOUS
100
AcDbLine
 10
20.75421273580989
 20
4.897642116743345
 30
0.0
 11
19.70536790264086
 21
5.946486949912374
 31
0.0
  0
LINE
  5
2193E
330
218F4
100
AcDbEntity
  8
0
  6
CONTINUOUS
100
AcDbLine
 10
20.95379348658502
 20
5.371580575048398
 30
0.0
 11
19.90489241027246
 21
6.42048165136096
 31
0.0
  0
LINE
  5
2193F
330
218F4
100
AcDbEntity
  8
0
  6
CONTINUOUS
100
AcDbLine
 10
21.15337423736015
 20
5.845519033353452
 30
0.0
 11
20.10441691790406
 21
6.894476352809547
 31
0.0
  0
LINE
  5
21940
330
218F4
100
AcDbEntity
  8
0
  6
CONTINUOUS
100
AcDbLine
 10
21.35295498813529
 20
6.319457491658505
 30
0.0
 11
20.30394142553566
 21
7.368471054258134
 31
0.0
  0
LINE
  5
21941
330
218F4
100
AcDbEntity
  8
0
  6
CONTINUOUS
100
AcDbLine
 10
21.55253573891042
 20
6.793395949963558
 30
0.0
 11
20.50346593316726
 21
7.842465755706721
 31
0.0
  0
LINE
  5
21942
330
218F4
100
AcDbEntity
  8
0
  6
CONTINUOUS
100
AcDbLine
 10
21.75211648968556
 20
7.267334408268612
 30
0.0
 11
20.70299044079886
 21
8.316460457155308
 31
0.0
  0
LINE
  5
21943
330
218F4
100
AcDbEntity
  8
0
  6
CONTINUOUS
100
AcDbLine
 10
21.95169724046069
 20
7.741272866573663
 30
0.0
 11
20.9298701070431
 21
8.763099999991256
 31
0.0
  0
LINE
  5
21944
330
218F4
100
AcDbEntity
  8
0
  6
CONTINUOUS
100
AcDbLine
 10
22.15127799123582
 20
8.215211324878716
 30
0.0
 11
21.60338931612328
 21
8.763099999991256
 31
0.0
  0
LINE
  5
21945
330
218F4
100
AcDbEntity
  8
0
  6
CONTINUOUS
100
AcDbLine
 10
22.35085874201096
 20
8.689149783183769
 30
0.0
 11
22.27690852520347
 21
8.763099999991255
 31
0.0
  0
ENDBLK
  5
21A37
330
218F4
100
AcDbEntity
  8
0
100
AcDbBlockEnd
  0
BLOCK
  5
21A38
330
21946
100
AcDbEntity
  8
0
100
AcDbBlockBegin
  2
*X53
 70
     1
 10
0.0
 20
0.0
 30
0.0
  3
*X53
  1

  0
LINE
  5
21947
330
21946
100
AcDbEntity
  8
0
  6
CONTINUOUS
100
AcDbLine
 10
23.19462913593892
 20
8.169917934846424
 30
0.0
 11
23.70775465517246
 21
8.683043454079957
 31
0.0
  0
LINE
  5
21948
330
21946
100
AcDbEntity
  8
0
  6
CONTINUOUS
100
AcDbLine
 10
22.64923161835078
 20
6.951001208178088
 30
0.0
 11
23.9159364069932
 21
8.217705996820516
 31
0.0
  0
LINE
  5
21949
330
21946
100
AcDbEntity
  8
0
  6
CONTINUOUS
100
AcDbLine
 10
22.10383410076263
 20
5.732084481509751
 30
0.0
 11
24.12411815881395
 21
7.752368539561078
 31
0.0
  0
LINE
  5
2194A
330
21946
100
AcDbEntity
  8
0
  6
CONTINUOUS
100
AcDbLine
 10
21.55843658317447
 20
4.513167754841414
 30
0.0
 11
24.3322999106347
 21
7.287031082301639
 31
0.0
  0
LINE
  5
2194B
330
21946
100
AcDbEntity
  8
0
  6
CONTINUOUS
100
AcDbLine
 10
21.01303906558632
 20
3.294251028173077
 30
0.0
 11
24.54048166245544
 21
6.821693625042199
 31
0.0
  0
LINE
  5
2194C
330
21946
100
AcDbEntity
  8
0
  6
CONTINUOUS
100
AcDbLine
 10
20.46764154799817
 20
2.075334301504738
 30
0.0
 11
23.28571549467848
 21
4.89340824818505
 31
0.0
  0
LINE
  5
2194D
330
21946
100
AcDbEntity
  8
0
  6
CONTINUOUS
100
AcDbLine
 10
19.92224403041002
 20
0.8564175748364002
 30
0.0
 11
22.74075865492779
 21
3.674932199354171
 31
0.0
  0
LINE
  5
2194E
330
21946
100
AcDbEntity
  8
0
  6
CONTINUOUS
100
AcDbLine
 10
23.67305085490148
 20
5.280743608408048
 30
0.0
 11
24.74866341427619
 21
6.356356167782759
 31
0.0
  0
LINE
  5
2194F
330
21946
100
AcDbEntity
  8
0
  6
CONTINUOUS
100
AcDbLine
 10
23.88118970842314
 20
4.815363252849522
 30
0.0
 11
24.95684516609694
 21
5.89101871052332
 31
0.0
  0
LINE
  5
21950
330
21946
100
AcDbEntity
  8
0
  6
CONTINUOUS
100
AcDbLine
 10
19.73925852647308
 20
-0.0000871381807288
 30
0.0
 11
23.4103456646501
 21
3.670999999996297
 31
0.0
  0
LINE
  5
21951
330
21946
100
AcDbEntity
  8
0
  6
CONTINUOUS
100
AcDbLine
 10
24.0893285619448
 20
4.349982897290997
 30
0.0
 11
25.16502691791769
 21
5.42568125326388
 31
0.0
  0
LINE
  5
21952
330
21946
100
AcDbEntity
  8
0
  6
CONTINUOUS
100
AcDbLine
 10
20.41282099582748
 20
-0.0000438779065108
 30
0.0
 11
21.64944178675636
 21
1.236576913022366
 31
0.0
  0
LINE
  5
21953
330
21946
100
AcDbEntity
  8
0
  6
CONTINUOUS
100
AcDbLine
 10
22.78126487373161
 20
2.36839999999762
 30
0.0
 11
24.08386487373029
 21
3.670999999996297
 31
0.0
  0
LINE
  5
21954
330
21946
100
AcDbEntity
  8
0
  6
CONTINUOUS
100
AcDbLine
 10
24.29746741546646
 20
3.884602541732471
 30
0.0
 11
25.37320866973843
 21
4.960343796004441
 31
0.0
  0
LINE
  5
21955
330
21946
100
AcDbEntity
  8
0
  6
CONTINUOUS
100
AcDbLine
 10
21.08638346518189
 20
-0.0000006176322938
 30
0.0
 11
21.10379033335899
 21
0.0174062505448083
 31
0.0
  0
LINE
  5
21956
330
21946
100
AcDbEntity
  8
0
  6
CONTINUOUS
100
AcDbLine
 10
23.4547840828118
 20
2.36839999999762
 30
0.0
 11
25.58139042155918
 21
4.495006338745002
 31
0.0
  0
LINE
  5
21957
330
21946
100
AcDbEntity
  8
0
  6
CONTINUOUS
100
AcDbLine
 10
29.30199999996933
 20
8.215615917155148
 30
0.0
 11
29.84948408280543
 21
8.763099999991255
 31
0.0
  0
LINE
  5
21958
330
21946
100
AcDbEntity
  8
0
  6
CONTINUOUS
100
AcDbLine
 10
24.12830329189199
 20
2.36839999999762
 30
0.0
 11
25.78957217337993
 21
4.029668881485562
 31
0.0
  0
LINE
  5
21959
330
21946
100
AcDbEntity
  8
0
  6
CONTINUOUS
100
AcDbLine
 10
29.30199999996933
 20
7.54209670807496
 30
0.0
 11
30.52300329188562
 21
8.763099999991255
 31
0.0
  0
LINE
  5
2195A
330
21946
100
AcDbEntity
  8
0
  6
CONTINUOUS
100
AcDbLine
 10
24.80182250097217
 20
2.36839999999762
 30
0.0
 11
25.99775392520067
 21
3.564331424226122
 31
0.0
  0
LINE
  5
2195B
330
21946
100
AcDbEntity
  8
0
  6
CONTINUOUS
100
AcDbLine
 10
29.30199999996933
 20
6.868577498994774
 30
0.0
 11
30.74199999996926
 21
8.308577498994712
 31
0.0
  0
LINE
  5
2195C
330
21946
100
AcDbEntity
  8
0
  6
CONTINUOUS
100
AcDbLine
 10
25.13028238392013
 20
2.023340673865392
 30
0.0
 11
26.20593567702142
 21
3.098993966966683
 31
0.0
  0
LINE
  5
2195D
330
21946
100
AcDbEntity
  8
0
  6
CONTINUOUS
100
AcDbLine
 10
25.33838066033617
 20
1.557919741201244
 30
0.0
 11
26.41411742884217
 21
2.633656509707244
 31
0.0
  0
LINE
  5
2195E
330
21946
100
AcDbEntity
  8
0
  6
CONTINUOUS
100
AcDbLine
 10
25.54647893675221
 20
1.092498808537098
 30
0.0
 11
26.62229918066291
 21
2.168319052447804
 31
0.0
  0
LINE
  5
2195F
330
21946
100
AcDbEntity
  8
0
  6
CONTINUOUS
100
AcDbLine
 10
25.75457721316825
 20
0.62707787587295
 30
0.0
 11
26.83048093248366
 21
1.702981595188365
 31
0.0
  0
LINE
  5
21960
330
21946
100
AcDbEntity
  8
0
  6
CONTINUOUS
100
AcDbLine
 10
29.30199999996933
 20
6.195058289914587
 30
0.0
 11
30.74199999996926
 21
7.635058289914522
 31
0.0
  0
LINE
  5
21961
330
21946
100
AcDbEntity
  8
0
  6
CONTINUOUS
100
AcDbLine
 10
29.30199999996933
 20
5.521539080834401
 30
0.0
 11
30.74199999996926
 21
6.961539080834331
 31
0.0
  0
LINE
  5
21962
330
21946
100
AcDbEntity
  8
0
  6
CONTINUOUS
100
AcDbLine
 10
29.30199999996933
 20
4.848019871754214
 30
0.0
 11
30.74199999996925
 21
6.288019871754143
 31
0.0
  0
LINE
  5
21963
330
21946
100
AcDbEntity
  8
0
  6
CONTINUOUS
100
AcDbLine
 10
29.30199999996933
 20
4.174500662674028
 30
0.0
 11
30.74199999996925
 21
5.614500662673953
 31
0.0
  0
LINE
  5
21964
330
21946
100
AcDbEntity
  8
0
  6
CONTINUOUS
100
AcDbLine
 10
25.96267548958429
 20
0.1616569432088024
 30
0.0
 11
27.18411854636669
 21
1.383099999991207
 31
0.0
  0
LINE
  5
21965
330
21946
100
AcDbEntity
  8
0
  6
CONTINUOUS
100
AcDbLine
 10
29.30199999996933
 20
3.500981453593841
 30
0.0
 11
30.74199999996925
 21
4.940981453593762
 31
0.0
  0
LINE
  5
21966
330
21946
100
AcDbEntity
  8
0
  6
CONTINUOUS
100
AcDbLine
 10
26.50763775544691
 20
0.0330999999912356
 30
0.0
 11
27.85763775544689
 21
1.383099999991223
 31
0.0
  0
LINE
  5
21967
330
21946
100
AcDbEntity
  8
0
  6
CONTINUOUS
100
AcDbLine
 10
29.30199999996933
 20
2.827462244513656
 30
0.0
 11
30.74199999996925
 21
4.267462244513574
 31
0.0
  0
LINE
  5
21968
330
21946
100
AcDbEntity
  8
0
  6
CONTINUOUS
100
AcDbLine
 10
27.18115696452709
 20
0.0330999999912356
 30
0.0
 11
28.6224847300034
 21
1.474427765467545
 31
0.0
  0
LINE
  5
21969
330
21946
100
AcDbEntity
  8
0
  6
CONTINUOUS
100
AcDbLine
 10
29.21067223449293
 20
2.062615269957069
 30
0.0
 11
30.74199999996924
 21
3.593943035433383
 31
0.0
  0
LINE
  5
2196A
330
21946
100
AcDbEntity
  8
0
  6
CONTINUOUS
100
AcDbLine
 10
27.85467617360728
 20
0.0330999999912356
 30
0.0
 11
30.74199999996924
 21
2.920423826353195
 31
0.0
  0
LINE
  5
2196B
330
21946
100
AcDbEntity
  8
0
  6
CONTINUOUS
100
AcDbLine
 10
28.57438609860264
 20
0.0792907159064073
 30
0.0
 11
30.69580928405405
 21
2.200713901357819
 31
0.0
  0
LINE
  5
2196C
330
21946
100
AcDbEntity
  8
0
  6
CONTINUOUS
100
AcDbLine
 10
29.49443044814297
 20
0.3258158563665496
 30
0.0
 11
30.44928414359389
 21
1.280669551817477
 31
0.0
  0
LINE
  5
2196D
330
21946
100
AcDbEntity
  8
0
  6
CONTINUOUS
100
AcDbLine
 10
19.59027867740337
 20
-0.0000967065718083
 30
0.0
 11
19.55485265190471
 21
0.035329318926844
 31
0.0
  0
LINE
  5
2196E
330
21946
100
AcDbEntity
  8
0
  6
CONTINUOUS
100
AcDbLine
 10
20.26375463176586
 20
-0.0000534518541091
 30
0.0
 11
19.76305575737534
 21
0.5006454225364014
 31
0.0
  0
LINE
  5
2196F
330
21946
100
AcDbEntity
  8
0
  6
CONTINUOUS
100
AcDbLine
 10
20.93723058612834
 20
-0.0000101971364099
 30
0.0
 11
19.97125886284597
 21
0.965961526145958
 31
0.0
  0
LINE
  5
21970
330
21946
100
AcDbEntity
  8
0
  6
CONTINUOUS
100
AcDbLine
 10
21.25514828313686
 20
0.355591314935257
 30
0.0
 11
20.1794619683166
 21
1.431277629755512
 31
0.0
  0
LINE
  5
21971
330
21946
100
AcDbEntity
  8
0
  6
CONTINUOUS
100
AcDbLine
 10
21.46338838394921
 20
0.8208704232030986
 30
0.0
 11
20.38766507378723
 21
1.896593733365069
 31
0.0
  0
LINE
  5
21972
330
21946
100
AcDbEntity
  8
0
  6
CONTINUOUS
100
AcDbLine
 10
21.67162848476155
 20
1.28614953147094
 30
0.0
 11
20.59586817925786
 21
2.361909836974626
 31
0.0
  0
LINE
  5
21973
330
21946
100
AcDbEntity
  8
0
  6
CONTINUOUS
100
AcDbLine
 10
21.8798685855739
 20
1.751428639738782
 30
0.0
 11
20.80407128472849
 21
2.827225940584183
 31
0.0
  0
LINE
  5
21974
330
21946
100
AcDbEntity
  8
0
  6
CONTINUOUS
100
AcDbLine
 10
22.08810868638624
 20
2.216707748006623
 30
0.0
 11
21.01227439019912
 21
3.292542044193739
 31
0.0
  0
LINE
  5
21975
330
21946
100
AcDbEntity
  8
0
  6
CONTINUOUS
100
AcDbLine
 10
22.60993564347543
 20
2.36839999999762
 30
0.0
 11
21.22047749566975
 21
3.757858147803296
 31
0.0
  0
LINE
  5
21976
330
21946
100
AcDbEntity
  8
0
  6
CONTINUOUS
100
AcDbLine
 10
23.28345485255561
 20
2.36839999999762
 30
0.0
 11
21.42868060114038
 21
4.223174251412853
 31
0.0
  0
LINE
  5
21977
330
21946
100
AcDbEntity
  8
0
  6
CONTINUOUS
100
AcDbLine
 10
26.29227406164219
 20
0.0330999999912356
 30
0.0
 11
25.80009199592872
 21
0.5252820657046957
 31
0.0
  0
LINE
  5
21978
330
21946
100
AcDbEntity
  8
0
  6
CONTINUOUS
100
AcDbLine
 10
23.9569740616358
 20
2.36839999999762
 30
0.0
 11
21.63688370661101
 21
4.688490355022409
 31
0.0
  0
LINE
  5
21979
330
21946
100
AcDbEntity
  8
0
  6
CONTINUOUS
100
AcDbLine
 10
26.96579327072237
 20
0.0330999999912356
 30
0.0
 11
25.2554132311971
 21
1.743480039516508
 31
0.0
  0
LINE
  5
2197A
330
21946
100
AcDbEntity
  8
0
  6
CONTINUOUS
100
AcDbLine
 10
24.63049327071599
 20
2.36839999999762
 30
0.0
 11
23.32789327071731
 21
3.670999999996297
 31
0.0
  0
LINE
  5
2197B
330
21946
100
AcDbEntity
  8
0
  6
CONTINUOUS
100
AcDbLine
 10
22.92098674744635
 20
4.077906523267254
 30
0.0
 11
21.84508681208164
 21
5.153806458631966
 31
0.0
  0
LINE
  5
2197C
330
21946
100
AcDbEntity
  8
0
  6
CONTINUOUS
100
AcDbLine
 10
27.63931247980256
 20
0.0330999999912356
 30
0.0
 11
24.0014124797975
 21
3.670999999996297
 31
0.0
  0
LINE
  5
2197D
330
21946
100
AcDbEntity
  8
0
  6
CONTINUOUS
100
AcDbLine
 10
23.129125600968
 20
4.5432868788258
 30
0.0
 11
22.05328991755227
 21
5.619122562241522
 31
0.0
  0
LINE
  5
2197E
330
21946
100
AcDbEntity
  8
0
  6
CONTINUOUS
100
AcDbLine
 10
28.31283168888275
 20
0.0330999999912356
 30
0.0
 11
24.16488385994816
 21
4.181047828925828
 31
0.0
  0
LINE
  5
2197F
330
21946
100
AcDbEntity
  8
0
  6
CONTINUOUS
100
AcDbLine
 10
23.33726445448964
 20
5.008667234384345
 30
0.0
 11
22.2614930230229
 21
6.084438665851079
 31
0.0
  0
LINE
  5
21980
330
21946
100
AcDbEntity
  8
0
  6
CONTINUOUS
100
AcDbLine
 10
28.86286302309502
 20
0.1565878748591523
 30
0.0
 11
27.63635089796295
 21
1.383099999991217
 31
0.0
  0
LINE
  5
21981
330
21946
100
AcDbEntity
  8
0
  6
CONTINUOUS
100
AcDbLine
 10
26.43704649509776
 20
2.582404402856405
 30
0.0
 11
23.61992702019732
 21
5.399523877756844
 31
0.0
  0
LINE
  5
21982
330
21946
100
AcDbEntity
  8
0
  6
CONTINUOUS
100
AcDbLine
 10
23.54540330801128
 20
5.47404758994289
 30
0.0
 11
22.46969612849353
 21
6.549754769460635
 31
0.0
  0
LINE
  5
21983
330
21946
100
AcDbEntity
  8
0
  6
CONTINUOUS
100
AcDbLine
 10
29.39405087596853
 20
0.2989192310658284
 30
0.0
 11
28.30987010704312
 21
1.383099999991234
 31
0.0
  0
LINE
  5
21984
330
21946
100
AcDbEntity
  8
0
  6
CONTINUOUS
100
AcDbLine
 10
25.89179548232307
 20
3.801174624711282
 30
0.0
 11
22.67789923396416
 21
7.015070873070191
 31
0.0
  0
LINE
  5
21985
330
21946
100
AcDbEntity
  8
0
  6
CONTINUOUS
100
AcDbLine
 10
29.79594438047407
 20
0.570544935640473
 30
0.0
 11
28.81310432793121
 21
1.553384988183336
 31
0.0
  0
LINE
  5
21986
330
21946
100
AcDbEntity
  8
0
  6
CONTINUOUS
100
AcDbLine
 10
25.34654446954838
 20
5.01994484656616
 30
0.0
 11
22.88610233943479
 21
7.480386976679748
 31
0.0
  0
LINE
  5
21987
330
21946
100
AcDbEntity
  8
0
  6
CONTINUOUS
100
AcDbLine
 10
30.13270398501416
 20
0.9073045401805646
 30
0.0
 11
29.14234640337737
 21
1.897662121817355
 31
0.0
  0
LINE
  5
21988
330
21946
100
AcDbEntity
  8
0
  6
CONTINUOUS
100
AcDbLine
 10
24.80129345677369
 20
6.238715068421037
 30
0.0
 11
23.09430544490542
 21
7.945703080289305
 31
0.0
  0
LINE
  5
21989
330
21946
100
AcDbEntity
  8
0
  6
CONTINUOUS
100
AcDbLine
 10
30.44581292956759
 20
1.26771480470732
 30
0.0
 11
29.30199999996933
 21
2.411527734305588
 31
0.0
  0
LINE
  5
2198A
330
21946
100
AcDbEntity
  8
0
  6
CONTINUOUS
100
AcDbLine
 10
30.58814428577427
 20
1.798902657580827
 30
0.0
 11
29.30199999996933
 21
3.085046943385775
 31
0.0
  0
LINE
  5
2198B
330
21946
100
AcDbEntity
  8
0
  6
CONTINUOUS
100
AcDbLine
 10
24.256042443999
 20
7.457485290275915
 30
0.0
 11
23.30250855037605
 21
8.411019183898862
 31
0.0
  0
LINE
  5
2198C
330
21946
100
AcDbEntity
  8
0
  6
CONTINUOUS
100
AcDbLine
 10
23.71079143122431
 20
8.676255512130794
 30
0.0
 11
23.51071165584668
 21
8.876335287508418
 31
0.0
  0
LINE
  5
2198D
330
21946
100
AcDbEntity
  8
0
  6
CONTINUOUS
100
AcDbLine
 10
30.73047564198095
 20
2.330090510454333
 30
0.0
 11
29.30199999996933
 21
3.758566152465961
 31
0.0
  0
LINE
  5
2198E
330
21946
100
AcDbEntity
  8
0
  6
CONTINUOUS
100
AcDbLine
 10
30.74199999996924
 20
2.992085361546236
 30
0.0
 11
29.30199999996933
 21
4.432085361546148
 31
0.0
  0
LINE
  5
2198F
330
21946
100
AcDbEntity
  8
0
  6
CONTINUOUS
100
AcDbLine
 10
30.74199999996924
 20
3.665604570626419
 30
0.0
 11
29.30199999996933
 21
5.105604570626333
 31
0.0
  0
LINE
  5
21990
330
21946
100
AcDbEntity
  8
0
  6
CONTINUOUS
100
AcDbLine
 10
30.74199999996925
 20
4.339123779706602
 30
0.0
 11
29.30199999996933
 21
5.77912377970652
 31
0.0
  0
LINE
  5
21991
330
21946
100
AcDbEntity
  8
0
  6
CONTINUOUS
100
AcDbLine
 10
30.74199999996925
 20
5.012642988786785
 30
0.0
 11
29.30199999996933
 21
6.452642988786707
 31
0.0
  0
LINE
  5
21992
330
21946
100
AcDbEntity
  8
0
  6
CONTINUOUS
100
AcDbLine
 10
30.74199999996925
 20
5.68616219786697
 30
0.0
 11
29.30199999996933
 21
7.126162197866894
 31
0.0
  0
LINE
  5
21993
330
21946
100
AcDbEntity
  8
0
  6
CONTINUOUS
100
AcDbLine
 10
30.74199999996925
 20
6.359681406947153
 30
0.0
 11
29.30199999996933
 21
7.799681406947081
 31
0.0
  0
LINE
  5
21994
330
21946
100
AcDbEntity
  8
0
  6
CONTINUOUS
100
AcDbLine
 10
30.74199999996926
 20
7.033200616027337
 30
0.0
 11
29.30199999996933
 21
8.473200616027269
 31
0.0
  0
LINE
  5
21995
330
21946
100
AcDbEntity
  8
0
  6
CONTINUOUS
100
AcDbLine
 10
30.74199999996926
 20
7.706719825107518
 30
0.0
 11
29.68561982508552
 21
8.763099999991255
 31
0.0
  0
LINE
  5
21996
330
21946
100
AcDbEntity
  8
0
  6
CONTINUOUS
100
AcDbLine
 10
30.74199999996926
 20
8.380239034187703
 30
0.0
 11
30.35913903416571
 21
8.763099999991255
 31
0.0
  0
ENDBLK
  5
21A39
330
21946
100
AcDbEntity
  8
0
100
AcDbBlockEnd
  0
BLOCK
  5
21A3A
330
21997
100
AcDbEntity
  8
0
100
AcDbBlockBegin
  2
*X54
 70
     1
 10
0.0
 20
0.0
 30
0.0
  3
*X54
  1

  0
LINE
  5
21998
330
21997
100
AcDbEntity
  8
0
  6
CONTINUOUS
100
AcDbLine
 10
31.64199999996833
 20
8.5350582899136
 30
0.0
 11
31.87004171004599
 21
8.763099999991255
 31
0.0
  0
LINE
  5
21999
330
21997
100
AcDbEntity
  8
0
  6
CONTINUOUS
100
AcDbLine
 10
31.64199999996833
 20
7.861539080833413
 30
0.0
 11
32.54356091912618
 21
8.763099999991255
 31
0.0
  0
LINE
  5
2199A
330
21997
100
AcDbEntity
  8
0
  6
CONTINUOUS
100
AcDbLine
 10
31.64199999996833
 20
7.188019871753227
 30
0.0
 11
33.08199999996839
 21
8.628019871753281
 31
0.0
  0
LINE
  5
2199B
330
21997
100
AcDbEntity
  8
0
  6
CONTINUOUS
100
AcDbLine
 10
31.64199999996833
 20
6.514500662673041
 30
0.0
 11
33.08199999996839
 21
7.954500662673095
 31
0.0
  0
LINE
  5
2199C
330
21997
100
AcDbEntity
  8
0
  6
CONTINUOUS
100
AcDbLine
 10
31.64199999996833
 20
5.840981453592855
 30
0.0
 11
33.08199999996839
 21
7.28098145359291
 31
0.0
  0
LINE
  5
2199D
330
21997
100
AcDbEntity
  8
0
  6
CONTINUOUS
100
AcDbLine
 10
31.64199999996833
 20
5.167462244512668
 30
0.0
 11
33.08199999996839
 21
6.607462244512723
 31
0.0
  0
LINE
  5
2199E
330
21997
100
AcDbEntity
  8
0
  6
CONTINUOUS
100
AcDbLine
 10
31.64199999996833
 20
4.493943035432482
 30
0.0
 11
33.08199999996839
 21
5.933943035432536
 31
0.0
  0
LINE
  5
2199F
330
21997
100
AcDbEntity
  8
0
  6
CONTINUOUS
100
AcDbLine
 10
31.64199999996833
 20
3.820423826352294
 30
0.0
 11
33.08199999996839
 21
5.260423826352349
 31
0.0
  0
LINE
  5
219A0
330
21997
100
AcDbEntity
  8
0
  6
CONTINUOUS
100
AcDbLine
 10
31.64199999996833
 20
3.146904617272108
 30
0.0
 11
33.08199999996839
 21
4.586904617272163
 31
0.0
  0
LINE
  5
219A1
330
21997
100
AcDbEntity
  8
0
  6
CONTINUOUS
100
AcDbLine
 10
36.23199999996837
 20
8.410423826352327
 30
0.0
 11
36.58467617360729
 21
8.763099999991255
 31
0.0
  0
LINE
  5
219A2
330
21997
100
AcDbEntity
  8
0
  6
CONTINUOUS
100
AcDbLine
 10
36.23199999996837
 20
7.73690461727214
 30
0.0
 11
37.25819538268748
 21
8.763099999991255
 31
0.0
  0
LINE
  5
219A3
330
21997
100
AcDbEntity
  8
0
  6
CONTINUOUS
100
AcDbLine
 10
31.64323424774199
 20
2.474619655965573
 30
0.0
 11
33.08199999996839
 21
3.913385408191976
 31
0.0
  0
LINE
  5
219A4
330
21997
100
AcDbEntity
  8
0
  6
CONTINUOUS
100
AcDbLine
 10
31.74419223861915
 20
1.902058437762552
 30
0.0
 11
33.08199999996839
 21
3.239866199111789
 31
0.0
  0
LINE
  5
219A5
330
21997
100
AcDbEntity
  8
0
  6
CONTINUOUS
100
AcDbLine
 10
36.23199999996837
 20
7.063385408191953
 30
0.0
 11
37.67199999996831
 21
8.503385408191894
 31
0.0
  0
LINE
  5
219A6
330
21997
100
AcDbEntity
  8
0
  6
CONTINUOUS
100
AcDbLine
 10
36.23199999996837
 20
6.389866199111767
 30
0.0
 11
37.67199999996831
 21
7.829866199111708
 31
0.0
  0
LINE
  5
219A7
330
21997
100
AcDbEntity
  8
0
  6
CONTINUOUS
100
AcDbLine
 10
31.91111233414976
 20
1.39545932421297
 30
0.0
 11
33.08199999996839
 21
2.566346990031603
 31
0.0
  0
LINE
  5
219A8
330
21997
100
AcDbEntity
  8
0
  6
CONTINUOUS
100
AcDbLine
 10
36.23199999996837
 20
5.71634699003158
 30
0.0
 11
37.67199999996831
 21
7.156346990031522
 31
0.0
  0
LINE
  5
219A9
330
21997
100
AcDbEntity
  8
0
  6
CONTINUOUS
100
AcDbLine
 10
32.1576374746103
 20
0.9684652555933289
 30
0.0
 11
33.20642631446081
 21
2.017254095443838
 31
0.0
  0
LINE
  5
219AA
330
21997
100
AcDbEntity
  8
0
  6
CONTINUOUS
100
AcDbLine
 10
36.23199999996837
 20
5.042827780951393
 30
0.0
 11
37.67199999996831
 21
6.482827780951334
 31
0.0
  0
LINE
  5
219AB
330
21997
100
AcDbEntity
  8
0
  6
CONTINUOUS
100
AcDbLine
 10
32.47774023927325
 20
0.6150488111760914
 30
0.0
 11
33.49903056428258
 21
1.636339136185419
 31
0.0
  0
LINE
  5
219AC
330
21997
100
AcDbEntity
  8
0
  6
CONTINUOUS
100
AcDbLine
 10
36.23199999996837
 20
4.369308571871207
 30
0.0
 11
37.67199999996831
 21
5.809308571871148
 31
0.0
  0
LINE
  5
219AD
330
21997
100
AcDbEntity
  8
0
  6
CONTINUOUS
100
AcDbLine
 10
32.84396249154443
 20
0.3077518543670883
 30
0.0
 11
33.93324121824649
 21
1.397030581069146
 31
0.0
  0
LINE
  5
219AE
330
21997
100
AcDbEntity
  8
0
  6
CONTINUOUS
100
AcDbLine
 10
36.23199999996837
 20
3.695789362791021
 30
0.0
 11
37.67199999996831
 21
5.135789362790963
 31
0.0
  0
LINE
  5
219AF
330
21997
100
AcDbEntity
  8
0
  6
CONTINUOUS
100
AcDbLine
 10
33.30186329036846
 20
0.0921334441109263
 30
0.0
 11
34.46442907112041
 21
1.254699224862875
 31
0.0
  0
LINE
  5
219B0
330
21997
100
AcDbEntity
  8
0
  6
CONTINUOUS
100
AcDbLine
 10
36.23199999996837
 20
3.022270153710834
 30
0.0
 11
37.67199999996831
 21
4.462270153710776
 31
0.0
  0
LINE
  5
219B1
330
21997
100
AcDbEntity
  8
0
  6
CONTINUOUS
100
AcDbLine
 10
33.79565647746294
 20
-0.0875925778747773
 30
0.0
 11
35.24350171668284
 21
1.360252661345124
 31
0.0
  0
LINE
  5
219B2
330
21997
100
AcDbEntity
  8
0
  6
CONTINUOUS
100
AcDbLine
 10
36.18336676155003
 20
2.300117706212308
 30
0.0
 11
37.67199999996831
 21
3.788750944630589
 31
0.0
  0
LINE
  5
219B3
330
21997
100
AcDbEntity
  8
0
  6
CONTINUOUS
100
AcDbLine
 10
34.37182574910968
 20
-0.184942515308224
 30
0.0
 11
37.67199999996831
 21
3.115231735550402
 31
0.0
  0
LINE
  5
219B4
330
21997
100
AcDbEntity
  8
0
  6
CONTINUOUS
100
AcDbLine
 10
35.0453449581892
 20
-0.1849425153088955
 30
0.0
 11
37.66345697088136
 21
2.433169497383271
 31
0.0
  0
LINE
  5
219B5
330
21997
100
AcDbEntity
  8
0
  6
CONTINUOUS
100
AcDbLine
 10
35.98667157609191
 20
0.0828648935136398
 30
0.0
 11
37.51927401744566
 21
1.615467334867382
 31
0.0
  0
LINE
  5
219B6
330
21997
100
AcDbEntity
  8
0
  6
CONTINUOUS
100
AcDbLine
 10
32.27747408544484
 20
0.7830920669904482
 30
0.0
 11
32.24716210471949
 21
0.8134040477157893
 31
0.0
  0
LINE
  5
219B7
330
21997
100
AcDbEntity
  8
0
  6
CONTINUOUS
100
AcDbLine
 10
33.83656881101902
 20
-0.1024834495035494
 30
0.0
 11
31.72538911593758
 21
2.008696245577891
 31
0.0
  0
LINE
  5
219B8
330
21997
100
AcDbEntity
  8
0
  6
CONTINUOUS
100
AcDbLine
 10
34.5925470859041
 20
-0.1849425153084434
 30
0.0
 11
31.64199999996833
 21
2.765604570627322
 31
0.0
  0
LINE
  5
219B9
330
21997
100
AcDbEntity
  8
0
  6
CONTINUOUS
100
AcDbLine
 10
35.26201302775981
 20
-0.1808892480839752
 30
0.0
 11
31.64199999996833
 21
3.439123779707508
 31
0.0
  0
LINE
  5
219BA
330
21997
100
AcDbEntity
  8
0
  6
CONTINUOUS
100
AcDbLine
 10
35.75580621485512
 20
-0.0011632260990879
 30
0.0
 11
34.51294304365551
 21
1.241699945100514
 31
0.0
  0
LINE
  5
219BB
330
21997
100
AcDbEntity
  8
0
  6
CONTINUOUS
100
AcDbLine
 10
33.08199999996839
 20
2.672642988787641
 30
0.0
 11
31.64199999996833
 21
4.112642988787695
 31
0.0
  0
LINE
  5
219BC
330
21997
100
AcDbEntity
  8
0
  6
CONTINUOUS
100
AcDbLine
 10
36.24959940195042
 20
0.1785627958857976
 30
0.0
 11
35.10501653033629
 21
1.323145667499924
 31
0.0
  0
LINE
  5
219BD
330
21997
100
AcDbEntity
  8
0
  6
CONTINUOUS
100
AcDbLine
 10
33.08199999996839
 20
3.346162197867827
 30
0.0
 11
31.64199999996833
 21
4.786162197867881
 31
0.0
  0
LINE
  5
219BE
330
21997
100
AcDbEntity
  8
0
  6
CONTINUOUS
100
AcDbLine
 10
36.64615197150552
 20
0.4555294354108876
 30
0.0
 11
35.6362043832099
 21
1.465477023706505
 31
0.0
  0
LINE
  5
219BF
330
21997
100
AcDbEntity
  8
0
  6
CONTINUOUS
100
AcDbLine
 10
33.08199999996839
 20
4.019681406948013
 30
0.0
 11
31.64199999996833
 21
5.459681406948068
 31
0.0
  0
LINE
  5
219C0
330
21997
100
AcDbEntity
  8
0
  6
CONTINUOUS
100
AcDbLine
 10
37.0123742237774
 20
0.7628263922191891
 30
0.0
 11
35.97691545773309
 21
1.798285158263504
 31
0.0
  0
LINE
  5
219C1
330
21997
100
AcDbEntity
  8
0
  6
CONTINUOUS
100
AcDbLine
 10
33.08199999996839
 20
4.6932006160282
 30
0.0
 11
31.64199999996833
 21
6.133200616028255
 31
0.0
  0
LINE
  5
219C2
330
21997
100
AcDbEntity
  8
0
  6
CONTINUOUS
100
AcDbLine
 10
37.27491524157143
 20
1.173804583505349
 30
0.0
 11
36.17602012811361
 21
2.272699696963169
 31
0.0
  0
LINE
  5
219C3
330
21997
100
AcDbEntity
  8
0
  6
CONTINUOUS
100
AcDbLine
 10
33.08199999996839
 20
5.366719825108387
 30
0.0
 11
31.64199999996833
 21
6.806719825108441
 31
0.0
  0
LINE
  5
219C4
330
21997
100
AcDbEntity
  8
0
  6
CONTINUOUS
100
AcDbLine
 10
37.51739996707661
 20
1.604839067080355
 30
0.0
 11
36.23199999996837
 21
2.890239034188595
 31
0.0
  0
LINE
  5
219C5
330
21997
100
AcDbEntity
  8
0
  6
CONTINUOUS
100
AcDbLine
 10
37.6183579579535
 20
2.177400285283649
 30
0.0
 11
36.23199999996837
 21
3.563758243268782
 31
0.0
  0
LINE
  5
219C6
330
21997
100
AcDbEntity
  8
0
  6
CONTINUOUS
100
AcDbLine
 10
33.08199999996839
 20
6.040239034188573
 30
0.0
 11
31.64199999996833
 21
7.480239034188628
 31
0.0
  0
LINE
  5
219C7
330
21997
100
AcDbEntity
  8
0
  6
CONTINUOUS
100
AcDbLine
 10
33.08199999996839
 20
6.713758243268759
 30
0.0
 11
31.64199999996833
 21
8.153758243268815
 31
0.0
  0
LINE
  5
219C8
330
21997
100
AcDbEntity
  8
0
  6
CONTINUOUS
100
AcDbLine
 10
37.67199999996831
 20
2.797277452349027
 30
0.0
 11
36.23199999996837
 21
4.237277452348969
 31
0.0
  0
LINE
  5
219C9
330
21997
100
AcDbEntity
  8
0
  6
CONTINUOUS
100
AcDbLine
 10
37.67199999996831
 20
3.470796661429214
 30
0.0
 11
36.23199999996837
 21
4.910796661429155
 31
0.0
  0
LINE
  5
219CA
330
21997
100
AcDbEntity
  8
0
  6
CONTINUOUS
100
AcDbLine
 10
37.67199999996831
 20
4.1443158705094
 30
0.0
 11
36.23199999996837
 21
5.584315870509341
 31
0.0
  0
LINE
  5
219CB
330
21997
100
AcDbEntity
  8
0
  6
CONTINUOUS
100
AcDbLine
 10
33.08199999996839
 20
7.387277452348946
 30
0.0
 11
31.70617745232608
 21
8.763099999991255
 31
0.0
  0
LINE
  5
219CC
330
21997
100
AcDbEntity
  8
0
  6
CONTINUOUS
100
AcDbLine
 10
33.08199999996839
 20
8.060796661429134
 30
0.0
 11
32.37969666140626
 21
8.763099999991255
 31
0.0
  0
LINE
  5
219CD
330
21997
100
AcDbEntity
  8
0
  6
CONTINUOUS
100
AcDbLine
 10
33.08199999996839
 20
8.734315870509318
 30
0.0
 11
33.05321587048645
 21
8.763099999991255
 31
0.0
  0
LINE
  5
219CE
330
21997
100
AcDbEntity
  8
0
  6
CONTINUOUS
100
AcDbLine
 10
37.67199999996831
 20
4.817835079589586
 30
0.0
 11
36.23199999996837
 21
6.257835079589528
 31
0.0
  0
LINE
  5
219CF
330
21997
100
AcDbEntity
  8
0
  6
CONTINUOUS
100
AcDbLine
 10
37.67199999996831
 20
5.491354288669772
 30
0.0
 11
36.23199999996837
 21
6.931354288669715
 31
0.0
  0
LINE
  5
219D0
330
21997
100
AcDbEntity
  8
0
  6
CONTINUOUS
100
AcDbLine
 10
37.67199999996831
 20
6.164873497749959
 30
0.0
 11
36.23199999996837
 21
7.6048734977499
 31
0.0
  0
LINE
  5
219D1
330
21997
100
AcDbEntity
  8
0
  6
CONTINUOUS
100
AcDbLine
 10
37.67199999996831
 20
6.838392706830145
 30
0.0
 11
36.23199999996837
 21
8.278392706830086
 31
0.0
  0
LINE
  5
219D2
330
21997
100
AcDbEntity
  8
0
  6
CONTINUOUS
100
AcDbLine
 10
37.67199999996831
 20
7.511911915910333
 30
0.0
 11
36.42081191588738
 21
8.763099999991255
 31
0.0
  0
LINE
  5
219D3
330
21997
100
AcDbEntity
  8
0
  6
CONTINUOUS
100
AcDbLine
 10
37.67199999996831
 20
8.185431124990519
 30
0.0
 11
37.09433112496757
 21
8.763099999991255
 31
0.0
  0
ENDBLK
  5
21A3B
330
21997
100
AcDbEntity
  8
0
100
AcDbBlockEnd
  0
BLOCK
  5
21A3C
330
219D4
100
AcDbEntity
  8
0
100
AcDbBlockBegin
  2
*X55
 70
     1
 10
0.0
 20
0.0
 30
0.0
  3
*X55
  1

  0
LINE
  5
219D5
330
219D4
100
AcDbEntity
  8
0
  6
CONTINUOUS
100
AcDbLine
 10
38.60499999996136
 20
8.762866199104765
 30
0.0
 11
38.71672554182345
 21
8.874591740966855
 31
0.0
  0
LINE
  5
219D6
330
219D4
100
AcDbEntity
  8
0
  6
CONTINUOUS
100
AcDbLine
 10
38.60499999996136
 20
8.089346990024577
 30
0.0
 11
39.03418785440363
 21
8.518534844466847
 31
0.0
  0
LINE
  5
219D7
330
219D4
100
AcDbEntity
  8
0
  6
CONTINUOUS
100
AcDbLine
 10
38.60499999996136
 20
7.41582778094439
 30
0.0
 11
39.35165016698382
 21
8.16247794796684
 31
0.0
  0
LINE
  5
219D8
330
219D4
100
AcDbEntity
  8
0
  6
CONTINUOUS
100
AcDbLine
 10
38.60499999996136
 20
6.742308571864204
 30
0.0
 11
39.66911247956399
 21
7.806421051466834
 31
0.0
  0
LINE
  5
219D9
330
219D4
100
AcDbEntity
  8
0
  6
CONTINUOUS
100
AcDbLine
 10
38.60499999996136
 20
6.068789362784018
 30
0.0
 11
39.98657479214418
 21
7.450364154966827
 31
0.0
  0
LINE
  5
219DA
330
219D4
100
AcDbEntity
  8
0
  6
CONTINUOUS
100
AcDbLine
 10
38.60499999996136
 20
5.395270153703832
 30
0.0
 11
40.30403710472435
 21
7.09430725846682
 31
0.0
  0
LINE
  5
219DB
330
219D4
100
AcDbEntity
  8
0
  6
CONTINUOUS
100
AcDbLine
 10
38.60499999996136
 20
4.721750944623645
 30
0.0
 11
40.62149941730453
 21
6.738250361966813
 31
0.0
  0
LINE
  5
219DC
330
219D4
100
AcDbEntity
  8
0
  6
CONTINUOUS
100
AcDbLine
 10
38.60499999996136
 20
4.048231735543458
 30
0.0
 11
40.93896172988471
 21
6.382193465466806
 31
0.0
  0
LINE
  5
219DD
330
219D4
100
AcDbEntity
  8
0
  6
CONTINUOUS
100
AcDbLine
 10
38.60499999996136
 20
3.374712526463272
 30
0.0
 11
40.02599999995994
 21
4.795712526461843
 31
0.0
  0
LINE
  5
219DE
330
219D4
100
AcDbEntity
  8
0
  6
CONTINUOUS
100
AcDbLine
 10
38.60499999996136
 20
2.701193317383085
 30
0.0
 11
40.02599999995994
 21
4.122193317381657
 31
0.0
  0
LINE
  5
219DF
330
219D4
100
AcDbEntity
  8
0
  6
CONTINUOUS
100
AcDbLine
 10
40.28339754687704
 20
5.053110073378947
 30
0.0
 11
41.25642404246489
 21
6.026136568966799
 31
0.0
  0
LINE
  5
219E0
330
219D4
100
AcDbEntity
  8
0
  6
CONTINUOUS
100
AcDbLine
 10
40.60085985945722
 20
4.697053176878939
 30
0.0
 11
41.57388635504507
 21
5.670079672466793
 31
0.0
  0
LINE
  5
219E1
330
219D4
100
AcDbEntity
  8
0
  6
CONTINUOUS
100
AcDbLine
 10
43.57899999995641
 20
8.348712526458318
 30
0.0
 11
43.99338747348935
 21
8.763099999991255
 31
0.0
  0
LINE
  5
219E2
330
219D4
100
AcDbEntity
  8
0
  6
CONTINUOUS
100
AcDbLine
 10
43.57899999995641
 20
7.675193317378131
 30
0.0
 11
44.66690668256953
 21
8.763099999991255
 31
0.0
  0
LINE
  5
219E3
330
219D4
100
AcDbEntity
  8
0
  6
CONTINUOUS
100
AcDbLine
 10
38.60499999996136
 20
2.027674108302898
 30
0.0
 11
40.02599999995994
 21
3.44867410830147
 31
0.0
  0
LINE
  5
219E4
330
219D4
100
AcDbEntity
  8
0
  6
CONTINUOUS
100
AcDbLine
 10
38.60499999996136
 20
1.354154899222712
 30
0.0
 11
40.02599999995994
 21
2.775154899221284
 31
0.0
  0
LINE
  5
219E5
330
219D4
100
AcDbEntity
  8
0
  6
CONTINUOUS
100
AcDbLine
 10
38.60499999996136
 20
0.6806356901425255
 30
0.0
 11
40.02599999995994
 21
2.101635690141098
 31
0.0
  0
LINE
  5
219E6
330
219D4
100
AcDbEntity
  8
0
  6
CONTINUOUS
100
AcDbLine
 10
38.60499999996136
 20
0.0071164810623383
 30
0.0
 11
40.02599999995994
 21
1.428116481060911
 31
0.0
  0
LINE
  5
219E7
330
219D4
100
AcDbEntity
  8
0
  6
CONTINUOUS
100
AcDbLine
 10
40.9183221720374
 20
4.340996280378933
 30
0.0
 11
41.89134866762525
 21
5.314022775966786
 31
0.0
  0
LINE
  5
219E8
330
219D4
100
AcDbEntity
  8
0
  6
CONTINUOUS
100
AcDbLine
 10
41.23578448461758
 20
3.984939383878926
 30
0.0
 11
42.20881098020543
 21
4.957965879466778
 31
0.0
  0
LINE
  5
219E9
330
219D4
100
AcDbEntity
  8
0
  6
CONTINUOUS
100
AcDbLine
 10
41.55324679719776
 20
3.628882487378919
 30
0.0
 11
42.52627329278561
 21
4.601908982966772
 31
0.0
  0
LINE
  5
219EA
330
219D4
100
AcDbEntity
  8
0
  6
CONTINUOUS
100
AcDbLine
 10
41.87070910977793
 20
3.272825590878912
 30
0.0
 11
42.84373560536579
 21
4.245852086466765
 31
0.0
  0
LINE
  5
219EB
330
219D4
100
AcDbEntity
  8
0
  6
CONTINUOUS
100
AcDbLine
 10
43.57899999995641
 20
7.001674108297943
 30
0.0
 11
44.99999999995498
 21
8.422674108296516
 31
0.0
  0
LINE
  5
219EC
330
219D4
100
AcDbEntity
  8
0
  6
CONTINUOUS
100
AcDbLine
 10
43.57899999995641
 20
6.328154899217758
 30
0.0
 11
44.99999999995498
 21
7.749154899216329
 31
0.0
  0
LINE
  5
219ED
330
219D4
100
AcDbEntity
  8
0
  6
CONTINUOUS
100
AcDbLine
 10
43.57899999995641
 20
5.654635690137571
 30
0.0
 11
44.99999999995498
 21
7.075635690136142
 31
0.0
  0
LINE
  5
219EE
330
219D4
100
AcDbEntity
  8
0
  6
CONTINUOUS
100
AcDbLine
 10
43.57899999995641
 20
4.981116481057384
 30
0.0
 11
44.99999999995498
 21
6.402116481055955
 31
0.0
  0
LINE
  5
219EF
330
219D4
100
AcDbEntity
  8
0
  6
CONTINUOUS
100
AcDbLine
 10
39.27140272797921
 20
-0.0000000000000009
 30
0.0
 11
40.02599999995994
 21
0.7545972719807246
 31
0.0
  0
LINE
  5
219F0
330
219D4
100
AcDbEntity
  8
0
  6
CONTINUOUS
100
AcDbLine
 10
39.9449219370594
 20
-0.0000000000000009
 30
0.0
 11
40.02599999995994
 21
0.0810780629005379
 31
0.0
  0
LINE
  5
219F1
330
219D4
100
AcDbEntity
  8
0
  6
CONTINUOUS
100
AcDbLine
 10
42.18817142235812
 20
2.916768694378905
 30
0.0
 11
43.16119791794597
 21
3.889795189966758
 31
0.0
  0
LINE
  5
219F2
330
219D4
100
AcDbEntity
  8
0
  6
CONTINUOUS
100
AcDbLine
 10
42.50563373493829
 20
2.560711797878898
 30
0.0
 11
43.47866023052615
 21
3.533738293466751
 31
0.0
  0
LINE
  5
219F3
330
219D4
100
AcDbEntity
  8
0
  6
CONTINUOUS
100
AcDbLine
 10
43.57899999995641
 20
4.307597271977198
 30
0.0
 11
44.99999999995498
 21
5.728597271975769
 31
0.0
  0
LINE
  5
219F4
330
219D4
100
AcDbEntity
  8
0
  6
CONTINUOUS
100
AcDbLine
 10
43.57899999995641
 20
3.634078062897011
 30
0.0
 11
44.99999999995498
 21
5.055078062895582
 31
0.0
  0
LINE
  5
219F5
330
219D4
100
AcDbEntity
  8
0
  6
CONTINUOUS
100
AcDbLine
 10
42.82309604751848
 20
2.204654901378891
 30
0.0
 11
44.99999999995498
 21
4.381558853815395
 31
0.0
  0
LINE
  5
219F6
330
219D4
100
AcDbEntity
  8
0
  6
CONTINUOUS
100
AcDbLine
 10
43.14055836009865
 20
1.848598004878885
 30
0.0
 11
44.99999999995498
 21
3.70803964473521
 31
0.0
  0
LINE
  5
219F7
330
219D4
100
AcDbEntity
  8
0
  6
CONTINUOUS
100
AcDbLine
 10
43.45802067267883
 20
1.492541108378878
 30
0.0
 11
44.99999999995498
 21
3.034520435655023
 31
0.0
  0
LINE
  5
219F8
330
219D4
100
AcDbEntity
  8
0
  6
CONTINUOUS
100
AcDbLine
 10
43.77548298525902
 20
1.136484211878871
 30
0.0
 11
44.99999999995498
 21
2.361001226574837
 31
0.0
  0
LINE
  5
219F9
330
219D4
100
AcDbEntity
  8
0
  6
CONTINUOUS
100
AcDbLine
 10
44.09294529783919
 20
0.7804273153788639
 30
0.0
 11
44.99999999995498
 21
1.687482017494649
 31
0.0
  0
LINE
  5
219FA
330
219D4
100
AcDbEntity
  8
0
  6
CONTINUOUS
100
AcDbLine
 10
44.41040761041938
 20
0.4243704188788566
 30
0.0
 11
44.99999999995498
 21
1.013962808414463
 31
0.0
  0
LINE
  5
219FB
330
219D4
100
AcDbEntity
  8
0
  6
CONTINUOUS
100
AcDbLine
 10
44.72786992299955
 20
0.0683135223788494
 30
0.0
 11
44.99999999995498
 21
0.340443599334276
 31
0.0
  0
LINE
  5
219FC
330
219D4
100
AcDbEntity
  8
0
  6
CONTINUOUS
100
AcDbLine
 10
39.12223903415696
 20
-0.0000000000000009
 30
0.0
 11
38.60499999996136
 21
0.5172390341955961
 31
0.0
  0
LINE
  5
219FD
330
219D4
100
AcDbEntity
  8
0
  6
CONTINUOUS
100
AcDbLine
 10
39.79575824323715
 20
-0.0000000000000009
 30
0.0
 11
38.60499999996136
 21
1.190758243275783
 31
0.0
  0
LINE
  5
219FE
330
219D4
100
AcDbEntity
  8
0
  6
CONTINUOUS
100
AcDbLine
 10
40.02599999995994
 20
0.443277452357397
 30
0.0
 11
38.60499999996136
 21
1.864277452355969
 31
0.0
  0
LINE
  5
219FF
330
219D4
100
AcDbEntity
  8
0
  6
CONTINUOUS
100
AcDbLine
 10
40.02599999995994
 20
1.116796661437583
 30
0.0
 11
38.60499999996136
 21
2.537796661436155
 31
0.0
  0
LINE
  5
21A00
330
219D4
100
AcDbEntity
  8
0
  6
CONTINUOUS
100
AcDbLine
 10
40.02599999995994
 20
1.79031587051777
 30
0.0
 11
38.60499999996136
 21
3.211315870516341
 31
0.0
  0
LINE
  5
21A01
330
219D4
100
AcDbEntity
  8
0
  6
CONTINUOUS
100
AcDbLine
 10
40.02599999995994
 20
2.463835079597956
 30
0.0
 11
38.60499999996136
 21
3.884835079596527
 31
0.0
  0
LINE
  5
21A02
330
219D4
100
AcDbEntity
  8
0
  6
CONTINUOUS
100
AcDbLine
 10
40.02599999995994
 20
3.137354288678143
 30
0.0
 11
38.60499999996136
 21
4.558354288676714
 31
0.0
  0
LINE
  5
21A03
330
219D4
100
AcDbEntity
  8
0
  6
CONTINUOUS
100
AcDbLine
 10
40.02599999995994
 20
3.810873497758329
 30
0.0
 11
38.60499999996136
 21
5.2318734977569
 31
0.0
  0
LINE
  5
21A04
330
219D4
100
AcDbEntity
  8
0
  6
CONTINUOUS
100
AcDbLine
 10
40.02599999995994
 20
4.484392706838515
 30
0.0
 11
38.60499999996136
 21
5.905392706837086
 31
0.0
  0
LINE
  5
21A05
330
219D4
100
AcDbEntity
  8
0
  6
CONTINUOUS
100
AcDbLine
 10
44.99999999995498
 20
0.183911915923658
 30
0.0
 11
41.53858364506288
 21
3.64532827081576
 31
0.0
  0
LINE
  5
21A06
330
219D4
100
AcDbEntity
  8
0
  6
CONTINUOUS
100
AcDbLine
 10
40.02599999995994
 20
5.157911915918703
 30
0.0
 11
38.60499999996136
 21
6.578911915917274
 31
0.0
  0
LINE
  5
21A07
330
219D4
100
AcDbEntity
  8
0
  6
CONTINUOUS
100
AcDbLine
 10
44.99999999995498
 20
0.8574311250038447
 30
0.0
 11
38.60499999996136
 21
7.25243112499746
 31
0.0
  0
LINE
  5
21A08
330
219D4
100
AcDbEntity
  8
0
  6
CONTINUOUS
100
AcDbLine
 10
44.99999999995498
 20
1.530950334084031
 30
0.0
 11
38.60499999996136
 21
7.925950334077647
 31
0.0
  0
LINE
  5
21A09
330
219D4
100
AcDbEntity
  8
0
  6
CONTINUOUS
100
AcDbLine
 10
44.99999999995498
 20
2.204469543164218
 30
0.0
 11
43.57899999995641
 21
3.625469543162789
 31
0.0
  0
LINE
  5
21A0A
330
219D4
100
AcDbEntity
  8
0
  6
CONTINUOUS
100
AcDbLine
 10
41.89876730984767
 20
5.305702233271528
 30
0.0
 11
38.60499999996136
 21
8.599469543157834
 31
0.0
  0
LINE
  5
21A0B
330
219D4
100
AcDbEntity
  8
0
  6
CONTINUOUS
100
AcDbLine
 10
44.99999999995498
 20
2.877988752244405
 30
0.0
 11
43.57899999995641
 21
4.298988752242975
 31
0.0
  0
LINE
  5
21A0C
330
219D4
100
AcDbEntity
  8
0
  6
CONTINUOUS
100
AcDbLine
 10
44.99999999995498
 20
3.551507961324591
 30
0.0
 11
43.57899999995641
 21
4.972507961323163
 31
0.0
  0
LINE
  5
21A0D
330
219D4
100
AcDbEntity
  8
0
  6
CONTINUOUS
100
AcDbLine
 10
44.99999999995498
 20
4.225027170404777
 30
0.0
 11
43.57899999995641
 21
5.646027170403348
 31
0.0
  0
LINE
  5
21A0E
330
219D4
100
AcDbEntity
  8
0
  6
CONTINUOUS
100
AcDbLine
 10
44.99999999995498
 20
4.898546379484964
 30
0.0
 11
43.57899999995641
 21
6.319546379483535
 31
0.0
  0
LINE
  5
21A0F
330
219D4
100
AcDbEntity
  8
0
  6
CONTINUOUS
100
AcDbLine
 10
44.99999999995498
 20
5.572065588565151
 30
0.0
 11
43.57899999995641
 21
6.993065588563722
 31
0.0
  0
LINE
  5
21A10
330
219D4
100
AcDbEntity
  8
0
  6
CONTINUOUS
100
AcDbLine
 10
44.99999999995498
 20
6.245584797645336
 30
0.0
 11
43.57899999995641
 21
7.666584797643908
 31
0.0
  0
LINE
  5
21A11
330
219D4
100
AcDbEntity
  8
0
  6
CONTINUOUS
100
AcDbLine
 10
44.99999999995498
 20
6.919104006725522
 30
0.0
 11
43.57899999995641
 21
8.340104006724093
 31
0.0
  0
LINE
  5
21A12
330
219D4
100
AcDbEntity
  8
0
  6
CONTINUOUS
100
AcDbLine
 10
44.99999999995498
 20
7.592623215805709
 30
0.0
 11
43.82952321576943
 21
8.763099999991255
 31
0.0
  0
LINE
  5
21A13
330
219D4
100
AcDbEntity
  8
0
  6
CONTINUOUS
100
AcDbLine
 10
44.99999999995498
 20
8.266142424885896
 30
0.0
 11
44.50304242484962
 21
8.763099999991255
 31
0.0
  0
ENDBLK
  5
21A3D
330
219D4
100
AcDbEntity
  8
0
100
AcDbBlockEnd
  0
BLOCK
  5
21A3E
330
21A14
100
AcDbEntity
  8
0
100
AcDbBlockBegin
  2
*X56
 70
     1
 10
0.0
 20
0.0
 30
0.0
  3
*X56
  1

  0
LINE
  5
21A15
330
21A14
100
AcDbEntity
  8
0
  6
CONTINUOUS
100
AcDbLine
 10
0.0
 20
8.548461116714023
 30
0.0
 11
0.2146388832772324
 21
8.763099999991255
 31
0.0
  0
LINE
  5
21A16
330
21A14
100
AcDbEntity
  8
0
  6
CONTINUOUS
100
AcDbLine
 10
-0.0000000000000002
 20
7.874941907633837
 30
0.0
 11
0.8881580923574184
 21
8.763099999991255
 31
0.0
  0
LINE
  5
21A17
330
21A14
100
AcDbEntity
  8
0
  6
CONTINUOUS
100
AcDbLine
 10
0.0
 20
7.20142269855365
 30
0.0
 11
1.420999999998572
 21
8.622422698552223
 31
0.0
  0
LINE
  5
21A18
330
21A14
100
AcDbEntity
  8
0
  6
CONTINUOUS
100
AcDbLine
 10
-0.0000000000000001
 20
6.527903489473465
 30
0.0
 11
1.420999999998571
 21
7.948903489472036
 31
0.0
  0
LINE
  5
21A19
330
21A14
100
AcDbEntity
  8
0
  6
CONTINUOUS
100
AcDbLine
 10
-0.0000000000000002
 20
5.854384280393278
 30
0.0
 11
1.420999999998571
 21
7.275384280391849
 31
0.0
  0
LINE
  5
21A1A
330
21A14
100
AcDbEntity
  8
0
  6
CONTINUOUS
100
AcDbLine
 10
-0.0000000000000002
 20
5.180865071313091
 30
0.0
 11
1.420999999998571
 21
6.601865071311663
 31
0.0
  0
LINE
  5
21A1B
330
21A14
100
AcDbEntity
  8
0
  6
CONTINUOUS
100
AcDbLine
 10
0.0
 20
4.507345862232905
 30
0.0
 11
1.420999999998571
 21
5.928345862231477
 31
0.0
  0
LINE
  5
21A1C
330
21A14
100
AcDbEntity
  8
0
  6
CONTINUOUS
100
AcDbLine
 10
-0.0000000000000003
 20
3.833826653152718
 30
0.0
 11
1.420999999998571
 21
5.25482665315129
 31
0.0
  0
LINE
  5
21A1D
330
21A14
100
AcDbEntity
  8
0
  6
CONTINUOUS
100
AcDbLine
 10
-0.0000000000000002
 20
3.160307444072532
 30
0.0
 11
1.420999999998571
 21
4.581307444071103
 31
0.0
  0
LINE
  5
21A1E
330
21A14
100
AcDbEntity
  8
0
  6
CONTINUOUS
100
AcDbLine
 10
-0.0000000000000001
 20
2.486788234992345
 30
0.0
 11
1.420999999998571
 21
3.907788234990917
 31
0.0
  0
LINE
  5
21A1F
330
21A14
100
AcDbEntity
  8
0
  6
CONTINUOUS
100
AcDbLine
 10
-0.0000000000000006
 20
1.813269025912159
 30
0.0
 11
1.420999999998571
 21
3.234269025910731
 31
0.0
  0
LINE
  5
21A20
330
21A14
100
AcDbEntity
  8
0
  6
CONTINUOUS
100
AcDbLine
 10
0.0
 20
1.139749816831973
 30
0.0
 11
1.420999999998571
 21
2.560749816830544
 31
0.0
  0
LINE
  5
21A21
330
21A14
100
AcDbEntity
  8
0
  6
CONTINUOUS
100
AcDbLine
 10
0.0000000000000002
 20
0.466230607751787
 30
0.0
 11
1.420999999998571
 21
1.887230607750358
 31
0.0
  0
LINE
  5
21A22
330
21A14
100
AcDbEntity
  8
0
  6
CONTINUOUS
100
AcDbLine
 10
0.2072886013284003
 20
-0.0000000000000009
 30
0.0
 11
1.420999999998571
 21
1.213711398670171
 31
0.0
  0
LINE
  5
21A23
330
21A14
100
AcDbEntity
  8
0
  6
CONTINUOUS
100
AcDbLine
 10
0.8808078104085864
 20
-0.0000000000000009
 30
0.0
 11
1.420999999998571
 21
0.5401921895899839
 31
0.0
  0
LINE
  5
21A24
330
21A14
100
AcDbEntity
  8
0
  6
CONTINUOUS
100
AcDbLine
 10
0.0581249075061505
 20
-0.0000000000000009
 30
0.0
 11
-0.0000000000000002
 21
0.0581249075061496
 31
0.0
  0
LINE
  5
21A25
330
21A14
100
AcDbEntity
  8
0
  6
CONTINUOUS
100
AcDbLine
 10
0.7316441165863372
 20
-0.0000000000000009
 30
0.0
 11
-0.0000000000000002
 21
0.7316441165863363
 31
0.0
  0
LINE
  5
21A26
330
21A14
100
AcDbEntity
  8
0
  6
CONTINUOUS
100
AcDbLine
 10
1.405163325666523
 20
-0.0000000000000009
 30
0.0
 11
-0.0000000000000002
 21
1.405163325666523
 31
0.0
  0
LINE
  5
21A27
330
21A14
100
AcDbEntity
  8
0
  6
CONTINUOUS
100
AcDbLine
 10
1.420999999998572
 20
0.6576825347481381
 30
0.0
 11
-0.0000000000000001
 21
2.07868253474671
 31
0.0
  0
LINE
  5
21A28
330
21A14
100
AcDbEntity
  8
0
  6
CONTINUOUS
100
AcDbLine
 10
1.420999999998571
 20
1.331201743828324
 30
0.0
 11
-0.0000000000000001
 21
2.752201743826896
 31
0.0
  0
LINE
  5
21A29
330
21A14
100
AcDbEntity
  8
0
  6
CONTINUOUS
100
AcDbLine
 10
1.420999999998571
 20
2.004720952908511
 30
0.0
 11
-0.0000000000000002
 21
3.425720952907082
 31
0.0
  0
LINE
  5
21A2A
330
21A14
100
AcDbEntity
  8
0
  6
CONTINUOUS
100
AcDbLine
 10
1.420999999998571
 20
2.678240161988697
 30
0.0
 11
-0.0000000000000001
 21
4.099240161987269
 31
0.0
  0
LINE
  5
21A2B
330
21A14
100
AcDbEntity
  8
0
  6
CONTINUOUS
100
AcDbLine
 10
1.420999999998572
 20
3.351759371068884
 30
0.0
 11
0.0
 21
4.772759371067455
 31
0.0
  0
LINE
  5
21A2C
330
21A14
100
AcDbEntity
  8
0
  6
CONTINUOUS
100
AcDbLine
 10
1.420999999998571
 20
4.02527858014907
 30
0.0
 11
-0.0000000000000003
 21
5.446278580147642
 31
0.0
  0
LINE
  5
21A2D
330
21A14
100
AcDbEntity
  8
0
  6
CONTINUOUS
100
AcDbLine
 10
1.420999999998571
 20
4.698797789229257
 30
0.0
 11
0.0
 21
6.119797789227828
 31
0.0
  0
LINE
  5
21A2E
330
21A14
100
AcDbEntity
  8
0
  6
CONTINUOUS
100
AcDbLine
 10
1.420999999998571
 20
5.372316998309444
 30
0.0
 11
-0.0000000000000001
 21
6.793316998308015
 31
0.0
  0
LINE
  5
21A2F
330
21A14
100
AcDbEntity
  8
0
  6
CONTINUOUS
100
AcDbLine
 10
1.420999999998572
 20
6.045836207389629
 30
0.0
 11
-0.0000000000000004
 21
7.466836207388202
 31
0.0
  0
LINE
  5
21A30
330
21A14
100
AcDbEntity
  8
0
  6
CONTINUOUS
100
AcDbLine
 10
1.420999999998571
 20
6.719355416469816
 30
0.0
 11
0.0
 21
8.140355416468388
 31
0.0
  0
LINE
  5
21A31
330
21A14
100
AcDbEntity
  8
0
  6
CONTINUOUS
100
AcDbLine
 10
1.420999999998571
 20
7.392874625550003
 30
0.0
 11
0.0507746255573185
 21
8.763099999991255
 31
0.0
  0
LINE
  5
21A32
330
21A14
100
AcDbEntity
  8
0
  6
CONTINUOUS
100
AcDbLine
 10
1.420999999998571
 20
8.06639383463019
 30
0.0
 11
0.7242938346375052
 21
8.763099999991255
 31
0.0
  0
LINE
  5
21A33
330
21A14
100
AcDbEntity
  8
0
  6
CONTINUOUS
100
AcDbLine
 10
1.420999999998571
 20
8.739913043710375
 30
0.0
 11
1.397813043717691
 21
8.763099999991255
 31
0.0
  0
ENDBLK
  5
21A3F
330
21A14
100
AcDbEntity
  8
0
100
AcDbBlockEnd
  0
ENDSEC
  0
SECTION
  2
ENTITIES
  0
LINE
  5
1D8CA
330
18
100
AcDbEntity
  8
01
100
AcDbLine
 10
713.016241615365
 20
-650.6713303512659
 30
0.0
 11
713.016241615365
 21
-672.8213303512673
 31
0.0
  0
LINE
  5
1D90A
330
18
100
AcDbEntity
  8
01
100
AcDbLine
 10
713.016241615365
 20
-653.1713303512665
 30
0.0
 11
713.016241615365
 21
-670.8213303512659
 31
0.0
  0
TEXT
  5
1DB93
330
18
100
AcDbEntity
  8
1TEXT
100
AcDbText
 10
681.9769459223726
 20
-570.3213303512664
 30
0.0
 40
4.0
  1
表面処理
 72
     1
 11
691.2436125890392
 21
-570.3213303512664
 31
0.0
100
AcDbText
  0
LINE
  5
1DB94
330
18
100
AcDbEntity
  8
1DIM
100
AcDbLine
 10
673.8436125890391
 20
-564.8213303512664
 30
0.0
 11
743.8436125890391
 21
-564.8213303512664
 31
0.0
  0
LINE
  5
1DB95
330
18
100
AcDbEntity
  8
1DIM
100
AcDbLine
 10
673.8436125890391
 20
-578.8213303512664
 30
0.0
 11
743.8436125890391
 21
-578.8213303512664
 31
0.0
  0
LINE
  5
1DB96
330
18
100
AcDbEntity
  8
1DIM
100
AcDbLine
 10
673.8436125890391
 20
-571.8213303512664
 30
0.0
 11
743.8436125890391
 21
-571.8213303512664
 31
0.0
  0
LINE
  5
1DB97
330
18
100
AcDbEntity
  8
1DIM
100
AcDbLine
 10
708.8436125890391
 20
-564.8213303512664
 30
0.0
 11
708.8436125890385
 21
-585.8213303512664
 31
0.0
  0
TEXT
  5
1DB98
330
18
100
AcDbEntity
  8
1TEXT
100
AcDbText
 10
719.3769459223726
 20
-570.3213303512664
 30
0.0
 40
4.0
  1
コード
 72
     1
 11
726.2436125890392
 21
-570.3213303512664
 31
0.0
100
AcDbText
  0
LINE
  5
1DB99
330
18
100
AcDbEntity
  8
1DIM
100
AcDbLine
 10
673.8436125890391
 20
-585.8213303512664
 30
0.0
 11
673.8436125890391
 21
-564.8213303512664
 31
0.0
  0
LINE
  5
1DB9A
330
18
100
AcDbEntity
  8
1DIM
100
AcDbLine
 10
743.8436125890388
 20
-585.8213303512664
 30
0.0
 11
743.8436125890391
 21
-564.8213303512664
 31
0.0
  0
TEXT
  5
1DB9B
330
18
100
AcDbEntity
  8
1TEXT
100
AcDbText
 10
673.8436125890391
 20
-559.8213303512664
 30
0.0
 40
8.0
  1
SE-260-X
100
AcDbText
  0
TEXT
  5
1DB9C
330
18
100
AcDbEntity
  8
1TEXT
100
AcDbText
 10
681.7769459223725
 20
-577.1566190107907
 30
0.0
 40
4.0
  1
クローム
 72
     1
 11
691.2436125890392
 21
-577.1566190107907
 31
0.0
100
AcDbText
  0
TEXT
  5
1DB9D
330
18
100
AcDbEntity
  8
1TEXT
100
AcDbText
 10
711.7818070334839
 20
-577.5356873349157
 30
0.0
 40
4.0
  1
SE-260-XC
 41
0.85
 72
     1
 11
726.2436125890395
 21
-577.5356873349157
 31
0.0
100
AcDbText
  0
LINE
  5
1DB9E
330
18
100
AcDbEntity
  8
1DIM
100
AcDbLine
 10
673.8436125890391
 20
-585.8213303512664
 30
0.0
 11
743.8436125890391
 21
-585.8213303512664
 31
0.0
  0
TEXT
  5
1DB9F
330
18
100
AcDbEntity
  8
1TEXT
100
AcDbText
 10
674.9769459223726
 20
-584.1566190107907
 30
0.0
 40
4.0
  1
マットブラック
 72
     1
 11
691.2436125890392
 21
-584.1566190107907
 31
0.0
100
AcDbText
  0
LINE
  5
1DBA4
102
{ACAD_REACTORS
330
1EDFD
102
}
330
18
100
AcDbEntity
  8
01
100
AcDbLine
 10
725.516241615365
 20
-618.5931567659845
 30
0.0
 11
725.516241615365
 21
-693.0495039365483
 31
0.0
  0
LINE
  5
1DBA5
102
{ACAD_REACTORS
330
1EDFD
102
}
330
18
100
AcDbEntity
  8
01
100
AcDbLine
 10
734.516241615365
 20
-618.5931567659845
 30
0.0
 11
734.516241615365
 21
-693.0495039365483
 31
0.0
  0
LINE
  5
1DBA6
102
{ACAD_REACTORS
330
1EDFD
102
}
330
18
100
AcDbEntity
  8
01
100
AcDbLine
 10
713.016241615365
 20
-618.5931567659845
 30
0.0
 11
713.016241615365
 21
-693.0495039365483
 31
0.0
  0
LINE
  5
1E7B5
102
{ACAD_REACTORS
330
1E7BB
102
}
330
18
100
AcDbEntity
  8
01
100
AcDbLine
 10
550.5162414684686
 20
-559.8213303512665
 30
0.0
 11
549.5162417684686
 21
-558.8213303512665
 31
0.0
  0
LINE
  5
1E7B6
102
{ACAD_REACTORS
330
1E7BB
102
}
330
18
100
AcDbEntity
  8
01
100
AcDbLine
 10
553.8162416184686
 20
-559.8213303512665
 30
0.0
 11
553.8162416184686
 21
-558.8213303512665
 31
0.0
  0
LINE
  5
1E7B7
102
{ACAD_REACTORS
330
1E7BB
102
}
330
18
100
AcDbEntity
  8
01
100
AcDbLine
 10
553.8162416184686
 20
-558.8213303512665
 30
0.0
 11
546.2162416184686
 21
-558.8213303512665
 31
0.0
  0
LINE
  5
1E7B8
102
{ACAD_REACTORS
330
1E7BB
102
}
330
18
100
AcDbEntity
  8
01
100
AcDbLine
 10
553.8162416184686
 20
-559.8213303512665
 30
0.0
 11
546.2162416184686
 21
-559.8213303512665
 31
0.0
  0
LINE
  5
1E7B9
102
{ACAD_REACTORS
330
1E7BB
102
}
330
18
100
AcDbEntity
  8
01
100
AcDbLine
 10
546.2162416184686
 20
-559.8213303512665
 30
0.0
 11
546.2162416184686
 21
-558.8213303512665
 31
0.0
  0
LINE
  5
1E9D4
102
{ACAD_REACTORS
330
1E9DA
102
}
330
18
100
AcDbEntity
  8
01
100
AcDbLine
 10
450.5162414684686
 20
-559.8213303512664
 30
0.0
 11
449.5162417684686
 21
-558.8213303512664
 31
0.0
  0
LINE
  5
1E9D5
102
{ACAD_REACTORS
330
1E9DA
102
}
330
18
100
AcDbEntity
  8
01
100
AcDbLine
 10
453.8162416184686
 20
-559.8213303512664
 30
0.0
 11
453.8162416184686
 21
-558.8213303512664
 31
0.0
  0
LINE
  5
1E9D6
102
{ACAD_REACTORS
330
1E9DA
102
}
330
18
100
AcDbEntity
  8
01
100
AcDbLine
 10
453.8162416184686
 20
-558.8213303512664
 30
0.0
 11
446.2162416184686
 21
-558.8213303512664
 31
0.0
  0
LINE
  5
1E9D7
102
{ACAD_REACTORS
330
1E9DA
102
}
330
18
100
AcDbEntity
  8
01
100
AcDbLine
 10
453.8162416184686
 20
-559.8213303512664
 30
0.0
 11
446.2162416184686
 21
-559.8213303512664
 31
0.0
  0
LINE
  5
1E9D8
102
{ACAD_REACTORS
330
1E9DA
102
}
330
18
100
AcDbEntity
  8
01
100
AcDbLine
 10
446.2162416184686
 20
-559.8213303512664
 30
0.0
 11
446.2162416184686
 21
-558.8213303512664
 31
0.0
  0
LINE
  5
1EBEF
102
{ACAD_REACTORS
330
1EBF5
102
}
330
18
100
AcDbEntity
  8
01
100
AcDbLine
 10
710.016241615365
 20
-656.321330204371
 30
0.0
 11
711.016241615365
 21
-655.321330504371
 31
0.0
  0
LINE
  5
1EBF0
102
{ACAD_REACTORS
330
1EBF5
102
}
330
18
100
AcDbEntity
  8
01
100
AcDbLine
 10
710.016241615365
 20
-659.6213303543709
 30
0.0
 11
711.016241615365
 21
-659.6213303543709
 31
0.0
  0
LINE
  5
1EBF1
102
{ACAD_REACTORS
330
1EBF5
102
}
330
18
100
AcDbEntity
  8
01
100
AcDbLine
 10
711.016241615365
 20
-659.6213303543709
 30
0.0
 11
711.016241615365
 21
-652.021330354371
 31
0.0
  0
LINE
  5
1EBF2
102
{ACAD_REACTORS
330
1EBF5
102
}
330
18
100
AcDbEntity
  8
01
100
AcDbLine
 10
710.016241615365
 20
-659.6213303543709
 30
0.0
 11
710.016241615365
 21
-652.021330354371
 31
0.0
  0
LINE
  5
1EBF3
102
{ACAD_REACTORS
330
1EBF5
102
}
330
18
100
AcDbEntity
  8
01
100
AcDbLine
 10
710.016241615365
 20
-652.021330354371
 30
0.0
 11
711.016241615365
 21
-652.021330354371
 31
0.0
  0
TEXT
  5
1EE4F
330
18
100
AcDbEntity
  8
1TEXT
100
AcDbText
 10
710.6484737001506
 20
-584.5356873349157
 30
0.0
 40
4.0
  1
SE-260-003
 41
0.85
 72
     1
 11
726.2436125890395
 21
-584.5356873349157
 31
0.0
100
AcDbText
  0
LINE
  5
2085B
330
18
100
AcDbEntity
  8
01
  6
CONTINUOUS
100
AcDbLine
 10
400.0164636426667
 20
-558.3363613678093
 30
0.0
 11
400.0164636426667
 21
-605.3038603259201
 31
0.0
  0
SPLINE
  5
20860
330
18
100
AcDbEntity
  8
01
  6
CONTINUOUS
100
AcDbSpline
210
0.0
220
0.0
230
1.0
 70
     8
 71
     3
 72
    28
 73
    24
 74
     0
 42
0.000000001
 43
0.00000001
 40
0.0
 40
0.0
 40
0.0
 40
0.0
 40
0.0700746294255909
 40
0.1305383329846025
 40
0.1820616988299415
 40
0.2251363635661876
 40
0.263783338988438
 40
0.2926375804092913
 40
0.3176341680294652
 40
0.3434245329689611
 40
0.3700046112841999
 40
0.3973051117745725
 40
0.459971426144299
 40
0.5195131882792955
 40
0.578365930207178
 40
0.6429148106714533
 40
0.7105951163335169
 40
0.7449535278105777
 40
0.7807567125185781
 40
0.822817103080384
 40
0.8730166424301552
 40
0.9319950483922022
 40
1.0
 40
1.0
 40
1.0
 40
1.0
 10
400.670803433011
 20
-555.8214756993058
 30
0.0
 10
400.6420691838716
 20
-555.8702700730487
 30
0.0
 10
400.5885416659529
 20
-555.961166539568
 30
0.0
 10
400.5203393398635
 20
-556.0912084484694
 30
0.0
 10
400.4657714682361
 20
-556.2035462854296
 30
0.0
 10
400.4217458866459
 20
-556.3013069678675
 30
0.0
 10
400.3872167985132
 20
-556.383241071491
 30
0.0
 10
400.3597276976732
 20
-556.4523221050824
 30
0.0
 10
400.3370093569741
 20
-556.5121440372482
 30
0.0
 10
400.3158154848504
 20
-556.5705500048774
 30
0.0
 10
400.2949083995477
 20
-556.6309922276123
 30
0.0
 10
400.265675574278
 20
-556.7198538893253
 30
0.0
 10
400.2310992670405
 20
-556.8345395335341
 30
0.0
 10
400.1938472024195
 20
-556.9741355187153
 30
0.0
 10
400.1604414890306
 20
-557.115783039221
 30
0.0
 10
400.1300141071869
 20
-557.2631190454524
 30
0.0
 10
400.1064251497141
 20
-557.3953737849646
 30
0.0
 10
400.0891684170452
 20
-557.5061194346408
 30
0.0
 10
400.0766821552279
 20
-557.59692572216
 30
0.0
 10
400.0636020759259
 20
-557.6982515144582
 30
0.0
 10
400.0501299902137
 20
-557.8125109601633
 30
0.0
 10
400.0366013693803
 20
-557.9418980339722
 30
0.0
 10
400.0294841382033
 20
-558.0324499260577
 30
0.0
 10
400.0256725602845
 20
-558.0809442890759
 30
0.0
  0
SPLINE
  5
20867
330
18
100
AcDbEntity
  8
01
  6
CONTINUOUS
100
AcDbSpline
210
0.0
220
0.0
230
1.0
 70
     8
 71
     3
 72
    12
 73
     8
 74
     0
 42
0.000000001
 43
0.00000001
 40
0.0
 40
0.0
 40
0.0
 40
0.0
 40
0.0017034000972963
 40
0.0129715874144464
 40
0.0250556164848433
 40
0.0381424160256374
 40
0.0477158041778221
 40
0.0477158041778221
 40
0.0477158041778221
 40
0.0477158041778221
 10
425.0167601757745
 20
-567.0031123427625
 30
0.0
 10
425.0177339185048
 20
-566.9951588549745
 30
0.0
 10
425.0251490812522
 20
-566.9345921318327
 30
0.0
 10
425.0485848687965
 20
-566.8187480196611
 30
0.0
 10
425.0936023452201
 20
-566.6525168174439
 30
0.0
 10
425.1511036572237
 20
-566.4976660870557
 30
0.0
 10
425.1963863009144
 20
-566.3994209641806
 30
0.0
 10
425.2168570329814
 20
-566.3584897493253
 30
0.0
  0
SPLINE
  5
2086E
330
18
100
AcDbEntity
  8
01
  6
CONTINUOUS
100
AcDbSpline
210
0.0
220
0.0
230
1.0
 70
     8
 71
     3
 72
    37
 73
    33
 74
     0
 42
0.000000001
 43
0.00000001
 40
0.0
 40
0.0
 40
0.0
 40
0.0
 40
0.0474529303088068
 40
0.0979472432912081
 40
0.1454189336373397
 40
0.1895586417911726
 40
0.2301338395868462
 40
0.2807867858276945
 40
0.3245153547186512
 40
0.3614304404872723
 40
0.3915243148631219
 40
0.4163461190333123
 40
0.441119166252213
 40
0.5007806274614041
 40
0.5597143010471586
 40
0.5835631559522931
 40
0.6072732481638308
 40
0.6349159134728727
 40
0.6670147200222935
 40
0.7036076476038923
 40
0.7430050637348414
 40
0.7774393333761078
 40
0.7947904472322695
 40
0.810047616651012
 40
0.8232082997134625
 40
0.8342894431100126
 40
0.8456066744904606
 40
0.8615654729345908
 40
0.8869516236915524
 40
0.9191037794391279
 40
0.9580019171792118
 40
1.0
 40
1.0
 40
1.0
 40
1.0
 10
411.8322425537805
 20
-573.6833578539963
 30
0.0
 10
411.8394075252252
 20
-573.6381527630058
 30
0.0
 10
411.8541966899131
 20
-573.5448452682643
 30
0.0
 10
411.8908576015839
 20
-573.411639019394
 30
0.0
 10
411.9362247633373
 20
-573.2840755262011
 30
0.0
 10
411.9878327524043
 20
-573.1683773230338
 30
0.0
 10
412.0490260737001
 20
-573.0526798825683
 30
0.0
 10
412.1191299779722
 20
-572.9406128806988
 30
0.0
 10
412.1962156494859
 20
-572.8351850673498
 30
0.0
 10
412.2674401723801
 20
-572.7492280455468
 30
0.0
 10
412.3304711894962
 20
-572.6802829080261
 30
0.0
 10
412.3874433358461
 20
-572.6226481351146
 30
0.0
 10
412.4695208217627
 20
-572.5451213982088
 30
0.0
 10
412.5855627901964
 20
-572.4472872525116
 30
0.0
 10
412.7128086326978
 20
-572.3560241190967
 30
0.0
 10
412.8144604622429
 20
-572.2908821751548
 30
0.0
 10
412.8888750777639
 20
-572.2463013125931
 30
0.0
 10
412.9740364483004
 20
-572.1989205387106
 30
0.0
 10
413.0760687450052
 20
-572.1469738239755
 30
0.0
 10
413.1952942080408
 20
-572.09243151286
 30
0.0
 10
413.3223482052495
 20
-572.0411732863614
 30
0.0
 10
413.4309125428134
 20
-572.002781349431
 30
0.0
 10
413.5124193612535
 20
-571.9766926387733
 30
0.0
 10
413.5686836359951
 20
-571.9598367375121
 30
0.0
 10
413.617668159388
 20
-571.9460342803591
 30
0.0
 10
413.6619183628802
 20
-571.934226165552
 30
0.0
 10
413.7099895239309
 20
-571.9220471248498
 30
0.0
 10
413.7773102466317
 20
-571.9061254644922
 30
0.0
 10
413.8728612604706
 20
-571.8858863877736
 30
0.0
 10
414.0008910677444
 20
-571.8633055325308
 30
0.0
 10
414.1538683508705
 20
-571.8420177092879
 30
0.0
 10
414.2657117102576
 20
-571.8334030709203
 30
0.0
 10
414.5239212566117
 20
-571.8223741842385
 30
0.0
  0
SPLINE
  5
20873
330
18
100
AcDbEntity
  8
01
  6
CONTINUOUS
100
AcDbSpline
210
0.0
220
0.0
230
1.0
 70
     8
 71
     3
 72
    44
 73
    40
 74
     0
 42
0.000000001
 43
0.00000001
 40
0.0
 40
0.0
 40
0.0
 40
0.0
 40
0.0487055920486238
 40
0.0939379076030604
 40
0.1357059596056409
 40
0.1740121569227999
 40
0.2088621119557197
 40
0.2475816523278775
 40
0.2810364124111768
 40
0.3094048535041675
 40
0.3326170959185178
 40
0.3490029394749956
 40
0.3622394661974306
 40
0.3797645227824992
 40
0.4030293355451784
 40
0.4319365242278816
 40
0.4647552951560869
 40
0.4959976551214916
 40
0.5247818653642866
 40
0.5511689204256663
 40
0.586459774308908
 40
0.6160597361464225
 40
0.6439708175206081
 40
0.6726447196152432
 40
0.7021579086332441
 40
0.7318069778665042
 40
0.7461918423310134
 40
0.760283700058443
 40
0.7735469328575629
 40
0.7850164610206315
 40
0.7946747716038327
 40
0.8060334381531566
 40
0.8241213258795221
 40
0.8489333869127947
 40
0.8803709935106854
 40
0.9082173812969665
 40
0.9397850455079712
 40
0.9751609485131553
 40
1.0
 40
1.0
 40
1.0
 40
1.0
 10
415.217965190957
 20
-595.3954784763928
 30
0.0
 10
415.1360994986555
 20
-595.3941778974129
 30
0.0
 10
414.9782060922558
 20
-595.3916694858955
 30
0.0
 10
414.7513682633689
 20
-595.3727585330728
 30
0.0
 10
414.5443266847613
 20
-595.3461345927631
 30
0.0
 10
414.3575031717279
 20
-595.3132883201716
 30
0.0
 10
414.1793075784008
 20
-595.2742262669876
 30
0.0
 10
414.0133805828663
 20
-595.2302337859691
 30
0.0
 10
413.8628447446491
 20
-595.1831075663331
 30
0.0
 10
413.7412771985228
 20
-595.1399400243945
 30
0.0
 10
413.6472946809644
 20
-595.1033473614291
 30
0.0
 10
413.5750682454964
 20
-595.073237044259
 30
0.0
 10
413.5106446642974
 20
-595.0449689803623
 30
0.0
 10
413.4387416889885
 20
-595.0116916153097
 30
0.0
 10
413.348607161918
 20
-594.9670370801764
 30
0.0
 10
413.2427602443795
 20
-594.9100037626806
 30
0.0
 10
413.132283254326
 20
-594.8443684450842
 30
0.0
 10
413.0277503453534
 20
-594.7757182582748
 30
0.0
 10
412.935689920451
 20
-594.7094186863864
 30
0.0
 10
412.8446378247688
 20
-594.637914207583
 30
0.0
 10
412.7588952637167
 20
-594.5637737189571
 30
0.0
 10
412.6788280471973
 20
-594.4870960879912
 30
0.0
 10
412.610783342313
 20
-594.4154774146534
 30
0.0
 10
412.5487800566875
 20
-594.3436715980768
 30
0.0
 10
412.4916776637219
 20
-594.2704478793323
 30
0.0
 10
412.4487872738366
 20
-594.2090559428176
 30
0.0
 10
412.4173744795025
 20
-594.1600392000317
 30
0.0
 10
412.3960228977206
 20
-594.1246485401192
 30
0.0
 10
412.3772613897343
 20
-594.0916582295665
 30
0.0
 10
412.3616563845384
 20
-594.0625923052329
 30
0.0
 10
412.3479490146109
 20
-594.0357739469598
 30
0.0
 10
412.3318925854567
 20
-594.0027077787432
 30
0.0
 10
412.3103763872298
 20
-593.9548267066072
 30
0.0
 10
412.2840989089112
 20
-593.888470325232
 30
0.0
 10
412.2592105872951
 20
-593.8123967091282
 30
0.0
 10
412.2380874142416
 20
-593.7296703744398
 30
0.0
 10
412.2223960287216
 20
-593.6428539979453
 30
0.0
 10
412.2127552513808
 20
-593.5584537914413
 30
0.0
 10
412.2162156754235
 20
-593.5045807255383
 30
0.0
 10
412.2162156754235
 20
-593.5045807255383
 30
0.0
  0
SPLINE
  5
20875
330
18
100
AcDbEntity
  8
01
  6
CONTINUOUS
100
AcDbSpline
210
0.0
220
0.0
230
1.0
 70
     8
 71
     3
 72
    38
 73
    34
 74
     0
 42
0.000000001
 43
0.00000001
 40
0.0
 40
0.0
 40
0.0
 40
0.0
 40
0.0250752761469946
 40
0.044882040953898
 40
0.0592005021891417
 40
0.0701360829369556
 40
0.0809597558433145
 40
0.0916975862141167
 40
0.1023465065738812
 40
0.1129046310246608
 40
0.1487850380993145
 40
0.1910901815849429
 40
0.2275666237410882
 40
0.2679533701097166
 40
0.3117623201508033
 40
0.3531793697579483
 40
0.3904857284946363
 40
0.4235412546196733
 40
0.452251041667142
 40
0.4765565444110498
 40
0.4964277332719032
 40
0.5119677822030427
 40
0.5329618396349842
 40
0.559404197264018
 40
0.5912522011938626
 40
0.6284210116257405
 40
0.6707706934204879
 40
0.7180909130919576
 40
0.7700847939728791
 40
0.8263588171325145
 40
0.8864156544637516
 40
0.949657194723274
 40
1.0
 40
1.0
 40
1.0
 40
1.0
 10
400.0164636426667
 20
-605.3031301690216
 30
0.0
 10
400.0168980657277
 20
-605.3421189607864
 30
0.0
 10
400.017675636172
 20
-605.4119046946889
 30
0.0
 10
400.0228596842787
 20
-605.5038605426614
 30
0.0
 10
400.0285003321017
 20
-605.5736992290551
 30
0.0
 10
400.0341298832939
 20
-605.6295366155132
 30
0.0
 10
400.0400612664943
 20
-605.6797319075022
 30
0.0
 10
400.046765297536
 20
-605.7293772652421
 30
0.0
 10
400.0542306509062
 20
-605.7784893104763
 30
0.0
 10
400.0690153980759
 20
-605.8659883370183
 30
0.0
 10
400.0969103519738
 20
-606.001100334069
 30
0.0
 10
400.1435195894908
 20
-606.1732292374284
 30
0.0
 10
400.2028192546471
 20
-606.3488157772927
 30
0.0
 10
400.273407466236
 20
-606.5227880368858
 30
0.0
 10
400.3585896299834
 20
-606.6987618739388
 30
0.0
 10
400.4528688722457
 20
-606.8645313284285
 30
0.0
 10
400.5479389054582
 20
-607.0102060299461
 30
0.0
 10
400.6391177898405
 20
-607.134510289937
 30
0.0
 10
400.723405334302
 20
-607.2385509883933
 30
0.0
 10
400.7983097047079
 20
-607.3236391800997
 30
0.0
 10
400.8619673653442
 20
-607.3911428115011
 30
0.0
 10
400.9238186132068
 20
-607.4532098501488
 30
0.0
 10
400.9949041558128
 20
-607.5205692489753
 30
0.0
 10
401.0874717900616
 20
-607.6020348339364
 30
0.0
 10
401.2033004027343
 20
-607.6949754327098
 30
0.0
 10
401.3440766541866
 20
-607.7960226097533
 30
0.0
 10
401.5112535692944
 20
-607.9009949310592
 30
0.0
 10
401.7057273345368
 20
-608.0049708452646
 30
0.0
 10
401.9275423175321
 20
-608.1023022508589
 30
0.0
 10
402.1755696336352
 20
-608.1872774039732
 30
0.0
 10
402.447337647005
 20
-608.2527727950105
 30
0.0
 10
402.7150168477092
 20
-608.293928759191
 30
0.0
 10
402.8917608896671
 20
-608.2981016282447
 30
0.0
 10
402.9700973087052
 20
-608.2999511254902
 30
0.0
  0
LINE
  5
20877
330
18
100
AcDbEntity
  8
01
  6
CONTINUOUS
100
AcDbLine
 10
402.9700973087052
 20
-608.2999511254902
 30
0.0
 11
403.272061889718
 21
-608.3066454721566
 31
0.0
  0
LINE
  5
2087A
330
18
100
AcDbEntity
  8
01
  6
CONTINUOUS
100
AcDbLine
 10
403.272061889718
 20
-608.3066454721566
 30
0.0
 11
500.0162416153649
 21
-608.3068652642842
 31
0.0
  0
LINE
  5
2087D
330
18
100
AcDbEntity
  8
01
  6
CONTINUOUS
100
AcDbLine
 10
408.9746170693139
 20
-606.4788876665707
 30
0.0
 11
408.9564898067216
 21
-605.2526673866387
 31
0.0
  0
LINE
  5
2087E
330
18
100
AcDbEntity
  8
01
  6
CONTINUOUS
100
AcDbLine
 10
408.9565643125276
 20
-573.5446392191525
 30
0.0
 11
408.9752429180841
 21
-572.3086083872195
 31
0.0
  0
SPLINE
  5
20886
330
18
100
AcDbEntity
  8
01
  6
CONTINUOUS
100
AcDbSpline
210
0.0
220
0.0
230
1.0
 70
    24
 71
     3
 72
    17
 73
    13
 74
     0
 42
0.000000001
 43
0.00000001
 40
0.0
 40
0.0
 40
0.0
 40
0.0
 40
0.0613479774310459
 40
0.1224328427770372
 40
0.1835510774010273
 40
0.2449986796530659
 40
0.3724069460801681
 40
0.500073058468952
 40
0.6274810592977276
 40
0.7551469505166254
 40
0.8775069934171441
 40
1.0
 40
1.0
 40
1.0
 40
1.0
 10
400.839865806757
 20
-555.8213255522401
 30
0.0
 10
400.858233584827
 20
-555.8213255522401
 30
0.0
 10
400.8948903643783
 20
-555.8213255522401
 30
0.0
 10
400.9594936604872
 20
-555.8213255522401
 30
0.0
 10
401.0308925921771
 20
-555.8213255522401
 30
0.0
 10
401.1376281917145
 20
-555.8213255522401
 30
0.0
 10
401.2900422612178
 20
-555.8213255522401
 30
0.0
 10
401.4990820810325
 20
-555.8213255522401
 30
0.0
 10
401.7281530113207
 20
-555.8213255522401
 30
0.0
 10
401.9694914318179
 20
-555.8213255522401
 30
0.0
 10
402.2173287866395
 20
-555.8213255522401
 30
0.0
 10
402.3834845203973
 20
-555.8213255522401
 30
0.0
 10
402.4666075014339
 20
-555.8213255522401
 30
0.0
  0
SPLINE
  5
20888
330
18
100
AcDbEntity
  8
01
  6
CONTINUOUS
100
AcDbSpline
210
0.0
220
0.0
230
1.0
 70
     8
 71
     3
 72
    32
 73
    28
 74
     0
 42
0.000000001
 43
0.00000001
 40
0.0
 40
0.0
 40
0.0
 40
0.0
 40
0.0639475443642343
 40
0.1294955063011659
 40
0.1966600203077815
 40
0.2654612250958238
 40
0.3359130141966157
 40
0.4080323306277133
 40
0.4818318614943229
 40
0.5257646079619949
 40
0.5736018176481249
 40
0.6253435979419877
 40
0.6809896160065269
 40
0.7247257087449711
 40
0.7626729774702447
 40
0.7769789298313726
 40
0.7912816709373518
 40
0.8055809991965804
 40
0.8196575876775402
 40
0.8279780684672193
 40
0.8435153860684965
 40
0.8662694071998308
 40
0.9079461046408009
 40
0.9403465525762197
 40
0.9677072973537274
 40
0.9900284872495567
 40
1.0
 40
1.0
 40
1.0
 40
1.0
 10
400.8623578601579
 20
-560.6198423175092
 30
0.0
 10
400.8237693613705
 20
-560.5749339567801
 30
0.0
 10
400.7456266080006
 20
-560.4839933121066
 30
0.0
 10
400.6372910733762
 20
-560.3381651571926
 30
0.0
 10
400.5345101131444
 20
-560.1834855312221
 30
0.0
 10
400.4387739549541
 20
-560.0194913896593
 30
0.0
 10
400.3506875005401
 20
-559.8465013544105
 30
0.0
 10
400.271074073334
 20
-559.6647186725962
 30
0.0
 10
400.2107736985742
 20
-559.5014892052945
 30
0.0
 10
400.1648887546926
 20
-559.3570403733959
 30
0.0
 10
400.1295645653013
 20
-559.2307022702025
 30
0.0
 10
400.0966342617777
 20
-559.092872908202
 30
0.0
 10
400.0701523973474
 20
-558.9576495431276
 30
0.0
 10
400.0507881036934
 20
-558.8340810081422
 30
0.0
 10
400.0399590094643
 20
-558.7474618987774
 30
0.0
 10
400.0336646722366
 20
-558.6873137728171
 30
0.0
 10
400.0300249473298
 20
-558.6485135901275
 30
0.0
 10
400.0268435491582
 20
-558.6098828401438
 30
0.0
 10
400.0244518906965
 20
-558.5766932149584
 30
0.0
 10
400.0223049912364
 20
-558.5422415091979
 30
0.0
 10
400.0200461273422
 20
-558.4998384793414
 30
0.0
 10
400.0172317976772
 20
-558.4270331404618
 30
0.0
 10
400.0160252200127
 20
-558.3387935707697
 30
0.0
 10
400.0171901841144
 20
-558.2463529419367
 30
0.0
 10
400.0202814898814
 20
-558.1716388615622
 30
0.0
 10
400.0224131637484
 20
-558.1172910345181
 30
0.0
 10
400.0255980767227
 20
-558.0880424096185
 30
0.0
 10
400.0265815311174
 20
-558.079010863411
 30
0.0
  0
LINE
  5
2088B
330
18
100
AcDbEntity
  8
01
100
AcDbLine
 10
411.0106744819383
 20
-570.872684997129
 30
0.0
 11
412.4579944663743
 21
-570.8727045549031
 31
0.0
  0
LINE
  5
2088C
330
18
100
AcDbEntity
  8
01
  6
CONTINUOUS
100
AcDbLine
 10
402.4666094237069
 20
-555.8213255522465
 30
0.0
 11
424.5162450724343
 21
-555.8213255522465
 31
0.0
  0
LINE
  5
20890
330
18
100
AcDbEntity
  8
01
  6
CONTINUOUS
100
AcDbLine
 10
425.0162386351327
 20
-570.8466535998459
 30
0.0
 11
425.0072830372552
 21
-570.8512152178164
 31
0.0
  0
SPLINE
  5
20891
330
18
100
AcDbEntity
  8
01
  6
CONTINUOUS
100
AcDbSpline
210
0.0
220
0.0
230
1.0
 70
    24
 71
     3
 72
    16
 73
    12
 74
     0
 42
0.000000001
 43
0.00000001
 40
0.0
 40
0.0
 40
0.0
 40
0.0
 40
0.1111272384576338
 40
0.2222423821097771
 40
0.3333488857890338
 40
0.4444502051340197
 40
0.5555497962671099
 40
0.666651115471963
 40
0.7777576188709678
 40
0.8888727621027659
 40
1.0
 40
1.0
 40
1.0
 40
1.0
 10
425.0162416153619
 20
-555.8214610500759
 30
0.0
 10
425.0162416153619
 20
-556.3782641705966
 30
0.0
 10
425.0162416153619
 20
-557.4918098106051
 30
0.0
 10
425.0162416153619
 20
-559.1620027818403
 30
0.0
 10
425.0162416153619
 20
-560.8319619932765
 30
0.0
 10
425.0162416153619
 20
-562.5016876594859
 30
0.0
 10
425.0162416153619
 20
-564.171178957811
 30
0.0
 10
425.0162416153618
 20
-565.8404389352556
 30
0.0
 10
425.0162416153619
 20
-567.509456196764
 30
0.0
 10
425.0162416153619
 20
-569.1782732506454
 30
0.0
 10
425.0162416153619
 20
-570.2905066366131
 30
0.0
 10
425.0162416153619
 20
-570.8466535940556
 30
0.0
  0
LINE
  5
20892
330
18
100
AcDbEntity
  8
01
  6
CONTINUOUS
100
AcDbLine
 10
424.5162450724343
 20
-555.8213255522465
 30
0.0
 11
425.0162386351327
 21
-555.8213255522465
 31
0.0
  0
SPLINE
  5
20896
330
18
100
AcDbEntity
  8
01
  6
CONTINUOUS
100
AcDbSpline
210
0.0
220
0.0
230
1.0
 70
     8
 71
     3
 72
    20
 73
    16
 74
     0
 42
0.000000001
 43
0.00000001
 40
0.0
 40
0.0
 40
0.0
 40
0.0
 40
0.1250000000000002
 40
0.1250000000000002
 40
0.2500000000000003
 40
0.2500000000000003
 40
0.3750000000000005
 40
0.3750000000000005
 40
0.5000000000000007
 40
0.5000000000000007
 40
0.6250000000000009
 40
0.6250000000000009
 40
0.7500000000000019
 40
0.7500000000000019
 40
1.0
 40
1.0
 40
1.0
 40
1.0
 10
411.0106766212096
 20
-570.8726019850778
 30
0.0
 10
410.8769989750963
 20
-570.8739527118682
 30
0.0
 10
410.7430681029101
 20
-570.878021970366
 30
0.0
 10
410.4783673382892
 20
-570.9054860810209
 30
0.0
 10
410.3477436635061
 20
-570.9271008595229
 30
0.0
 10
410.0946046975774
 20
-570.9873732196188
 30
0.0
 10
409.9717318055052
 20
-571.0266901462169
 30
0.0
 10
409.7429765106309
 20
-571.1231195118169
 30
0.0
 10
409.6376558077848
 20
-571.1796581218119
 30
0.0
 10
409.4451658042946
 20
-571.3131892163944
 30
0.0
 10
409.3575117614658
 20
-571.3907057050712
 30
0.0
 10
409.2116829729376
 20
-571.5567312391886
 30
0.0
 10
409.1538541335009
 20
-571.6450806588346
 30
0.0
 10
409.0175288514404
 20
-571.9203022011752
 30
0.0
 10
408.9807119292629
 20
-572.1150103379791
 30
0.0
 10
408.9746169491974
 20
-572.3090683499828
 30
0.0
  0
LINE
  5
2089F
330
18
100
AcDbEntity
  8
01
  6
CONTINUOUS
100
AcDbLine
 10
414.5239212566117
 20
-571.8223741842385
 30
0.0
 11
424.5162775612457
 21
-571.8216558160789
 31
0.0
  0
SPLINE
  5
208A7
330
18
100
AcDbEntity
  8
01
  6
CONTINUOUS
100
AcDbSpline
210
0.0
220
0.0
230
1.0
 70
    24
 71
     3
 72
    11
 73
     7
 74
     0
 42
0.000000001
 43
0.00000001
 40
0.0
 40
0.0
 40
0.0
 40
0.0
 40
0.1460299552054221
 40
0.3666912304011073
 40
0.6831735291129191
 40
1.0
 40
1.0
 40
1.0
 40
1.0
 10
400.6725319677095
 20
-555.8213255522465
 30
0.0
 10
400.6724818594812
 20
-555.8213255522465
 30
0.0
 10
400.6723560342843
 20
-555.8213255522465
 30
0.0
 10
400.6946312553402
 20
-555.8213255522465
 30
0.0
 10
400.7429860560694
 20
-555.8213255522465
 30
0.0
 10
400.8075600259878
 20
-555.8213255522465
 30
0.0
 10
400.8398645573358
 20
-555.8213255522465
 30
0.0
  0
LINE
  5
208A9
330
18
100
AcDbEntity
  8
01
  6
CONTINUOUS
100
AcDbLine
 10
425.2168570326812
 20
-559.8187673923941
 30
0.0
 11
425.0162386351327
 21
-559.8187707928892
 31
0.0
  0
LINE
  5
208B3
330
18
100
AcDbEntity
  8
01
  6
CONTINUOUS
100
AcDbLine
 10
440.0162429564695
 20
-555.8213488729697
 30
0.0
 11
440.0162429564695
 21
-555.8213421033732
 31
0.0
  0
LINE
  5
208B5
330
18
100
AcDbEntity
  8
01
  6
CONTINUOUS
100
AcDbLine
 10
425.2168570326812
 20
-557.5089041873766
 30
0.0
 11
425.0162386351327
 21
-557.5089038448359
 31
0.0
  0
SPLINE
  5
208CF
330
18
100
AcDbEntity
  8
01
  6
CONTINUOUS
100
AcDbSpline
210
0.0
220
0.0
230
1.0
 70
     8
 71
     3
 72
    11
 73
     7
 74
     0
 42
0.000000001
 43
0.00000001
 40
0.0
 40
0.0
 40
0.0
 40
0.0
 40
0.2727362304145465
 40
0.5443731294023487
 40
0.9708771308526356
 40
1.0
 40
1.0
 40
1.0
 40
1.0
 10
425.0162386351327
 20
-567.1943696780081
 30
0.0
 10
425.0162485871318
 20
-567.1888525123027
 30
0.0
 10
425.0162684510162
 20
-567.1778404192046
 30
0.0
 10
425.0165152473943
 20
-567.1582405338474
 30
0.0
 10
425.0167081919622
 20
-567.1435483941523
 30
0.0
 10
425.0170231652951
 20
-567.1343446951557
 30
0.0
 10
425.0170432978372
 20
-567.1337564108844
 30
0.0
  0
LINE
  5
208DF
330
18
100
AcDbEntity
  8
01
  6
CONTINUOUS
100
AcDbLine
 10
412.2162156754235
 20
-572.8126457525368
 30
0.0
 11
412.2162156754235
 21
-593.5045807255383
 31
0.0
  0
LINE
  5
208E0
330
18
100
AcDbEntity
  8
01
  6
CONTINUOUS
100
AcDbLine
 10
440.0162429564695
 20
-555.8213421033732
 30
0.0
 11
425.0162386351327
 21
-555.8213689902535
 31
0.0
  0
LINE
  5
208E9
330
18
100
AcDbEntity
  8
01
  6
CONTINUOUS
100
AcDbLine
 10
412.6560085468988
 20
-607.9439512086983
 30
0.0
 11
411.0100411825875
 21
-607.9439512086983
 31
0.0
  0
SPLINE
  5
208EA
330
18
100
AcDbEntity
  8
01
  6
CONTINUOUS
100
AcDbSpline
210
0.0
220
0.0
230
1.0
 70
     8
 71
     3
 72
    16
 73
    12
 74
     0
 42
0.000000001
 43
0.00000001
 40
0.0
 40
0.0
 40
0.0
 40
0.0
 40
0.2500000000000046
 40
0.2500000000000046
 40
0.3750000000000049
 40
0.3750000000000049
 40
0.5000000000000052
 40
0.5000000000000052
 40
0.7500000000000026
 40
0.7500000000000026
 40
1.0
 40
1.0
 40
1.0
 40
1.0
 10
408.9739641172134
 20
-606.4793692724927
 30
0.0
 10
408.9785597266173
 20
-606.6745204971007
 30
0.0
 10
409.0152396587752
 20
-606.8702972932672
 30
0.0
 10
409.1474420949653
 20
-607.1477303120487
 30
0.0
 10
409.2039145440693
 20
-607.2370746741544
 30
0.0
 10
409.3446284025658
 20
-607.404535898143
 30
0.0
 10
409.4287688596133
 20
-607.48263048276
 30
0.0
 10
409.7154061353252
 20
-607.6901325237113
 30
0.0
 10
409.9532359807475
 20
-607.7919986061945
 30
0.0
 10
410.4663068486934
 20
-607.9185334570802
 30
0.0
 10
410.7389502601281
 20
-607.9443513234105
 30
0.0
 10
411.0100386423524
 20
-607.9444152995925
 30
0.0
  0
LINE
  5
208ED
330
18
100
AcDbEntity
  8
01
  6
CONTINUOUS
100
AcDbLine
 10
415.217965190957
 20
-595.3954747511025
 30
0.0
 11
500.0162416153649
 21
-595.3954747511025
 31
0.0
  0
SPLINE
  5
208F4
330
18
100
AcDbEntity
  8
01
100
AcDbSpline
210
0.0
220
0.0
230
1.0
 70
     8
 71
     3
 72
     8
 73
     4
 74
     0
 42
0.000000001
 43
0.00000001
 40
0.0
 40
0.0
 40
0.0
 40
0.0
 40
1.0
 40
1.0
 40
1.0
 40
1.0
 10
400.8623590113567
 20
-560.6198425211658
 30
0.0
 10
403.5346099270205
 20
-564.5405914039743
 30
0.0
 10
406.2443872356748
 20
-568.4433288221778
 30
0.0
 10
408.9752066756654
 20
-572.308582613386
 30
0.0
  0
LINE
  5
208F5
330
18
100
AcDbEntity
  8
01
100
AcDbLine
 10
408.9564898067216
 20
-605.2526673866387
 30
0.0
 11
408.9565643125276
 21
-573.5446392191525
 31
0.0
  0
LINE
  5
208FE
330
18
100
AcDbEntity
  8
01
100
AcDbLine
 10
412.5521772557
 20
-570.8727045549031
 30
0.0
 11
424.5162450724343
 21
-570.8717378420706
 31
0.0
  0
LINE
  5
208FF
330
18
100
AcDbEntity
  8
01
100
AcDbLine
 10
412.4579944663743
 20
-570.8727045549031
 30
0.0
 11
412.5521772557
 21
-570.8727045549031
 31
0.0
  0
SPLINE
  5
20901
330
18
100
AcDbEntity
  8
01
100
AcDbSpline
210
0.0
220
0.0
230
1.0
 70
     8
 71
     3
 72
    15
 73
    11
 74
     0
 42
0.000000001
 43
0.00000001
 40
0.0
 40
0.0
 40
0.0
 40
0.0
 40
0.0096027092906656
 40
0.1510889201892862
 40
0.292572129722168
 40
0.4340590428285393
 40
0.5755494516022415
 40
0.7170330482840823
 40
0.8585172568568528
 40
1.0
 40
1.0
 40
1.0
 40
1.0
 10
425.0072830372552
 20
-570.8512152178164
 30
0.0
 10
425.0070793669649
 20
-570.8513258239811
 30
0.0
 10
425.0038748209038
 20
-570.8530661001361
 30
0.0
 10
424.9798415707224
 20
-570.8563077025085
 30
0.0
 10
424.9350133632436
 20
-570.8606805786592
 30
0.0
 10
424.8719815952359
 20
-570.8645041109121
 30
0.0
 10
424.7958417572531
 20
-570.8676469910948
 30
0.0
 10
424.708810201722
 20
-570.8699654726561
 30
0.0
 10
424.6144188395895
 20
-570.8714572919672
 30
0.0
 10
424.5489695485031
 20
-570.8716443256924
 30
0.0
 10
424.5162450724343
 20
-570.8717378420706
 30
0.0
  0
SPLINE
  5
2091D
330
18
100
AcDbEntity
  8
01
  6
PHANTOM
100
AcDbSpline
210
0.0
220
0.0
230
1.0
 70
     8
 71
     3
 72
     9
 73
     5
 74
     0
 42
0.000000001
 43
0.00000001
 40
0.0
 40
0.0
 40
0.0
 40
0.0
 40
0.0158501106264158
 40
0.0199206661641767
 40
0.0199206661641767
 40
0.0199206661641767
 40
0.0199206661641767
 10
425.0162416261248
 20
-564.9765207738934
 30
0.0
 10
425.0687071499999
 20
-564.9262962788673
 30
0.0
 10
425.1346466384285
 20
-564.8631733504374
 30
0.0
 10
425.20283817698
 20
-564.8025174324422
 30
0.0
 10
425.2168570326855
 20
-564.7902180185633
 30
0.0
  0
LINE
  5
20993
330
18
100
AcDbEntity
  8
01
100
AcDbLine
 10
500.0162416153649
 20
-607.9439661098595
 30
0.0
 11
412.6560085468988
 21
-607.9439512086983
 31
0.0
  0
LINE
  5
2099C
330
18
100
AcDbEntity
  8
01
100
AcDbLine
 10
414.8327999764184
 20
-604.5684954715844
 30
0.0
 11
500.0162416153651
 21
-604.5681676460381
 31
0.0
  0
SPLINE
  5
209AB
330
18
100
AcDbEntity
  8
01
  6
PHANTOM
100
AcDbSpline
210
0.0
220
0.0
230
1.0
 70
    24
 71
     3
 72
     8
 73
     4
 74
     0
 42
0.000000001
 43
0.00000001
 40
0.0
 40
0.0
 40
0.0
 40
0.0
 40
1.0
 40
1.0
 40
1.0
 40
1.0
 10
500.0162416153649
 20
-595.3954762532541
 30
0.0
 10
500.0162416153649
 20
-595.3954762532541
 30
0.0
 10
500.0162416153649
 20
-595.4512713602289
 30
0.0
 10
500.0162416153649
 20
-595.5541860318183
 30
0.0
  0
LINE
  5
209B0
330
18
100
AcDbEntity
  8
01
  6
PHANTOM
100
AcDbLine
 10
500.0162416153649
 20
-608.3067162526722
 30
0.0
 11
500.0162416153649
 21
-608.3056657208081
 31
0.0
  0
LINE
  5
20A78
330
18
100
AcDbEntity
  8
01
  6
CONTINUOUS
100
AcDbLine
 10
425.7168570326812
 20
-571.7234073909289
 30
0.0
 11
500.0153154864471
 21
-571.7234073909258
 31
0.0
  0
LINE
  5
20A79
330
18
100
AcDbEntity
  8
01
  6
CONTINUOUS
100
AcDbLine
 10
425.2168570326812
 20
-555.8213303512695
 30
0.0
 11
500.0162416153649
 21
-555.8213303512664
 31
0.0
  0
LINE
  5
20A7A
330
18
100
AcDbEntity
  8
01
100
AcDbLine
 10
425.2168570326812
 20
-555.8213303512695
 30
0.0
 11
425.2168570326812
 21
-571.2234073909289
 31
0.0
  0
ARC
  5
20A7B
330
18
100
AcDbEntity
  8
01
100
AcDbCircle
 10
425.7168570326812
 20
-571.2234073909289
 30
0.0
 40
0.5
100
AcDbArc
 50
180.0
 51
270.0
  0
SPLINE
  5
20D22
330
18
100
AcDbEntity
  8
01
100
AcDbSpline
210
0.0
220
0.0
230
1.0
 70
     8
 71
     3
 72
    10
 73
     6
 74
     0
 42
0.000000001
 43
0.00000001
 40
0.0
 40
0.0
 40
0.0
 40
0.0
 40
0.4087205378179644
 40
0.7019442896439317
 40
1.0
 40
1.0
 40
1.0
 40
1.0
 10
411.8322425537805
 20
-573.6833578539963
 30
0.0
 10
411.8317216587367
 20
-573.727230163899
 30
0.0
 10
411.8249120021767
 20
-573.7783389083835
 30
0.0
 10
411.8220527144741
 20
-573.8451437144142
 30
0.0
 10
411.8218789642424
 20
-573.8831608987098
 30
0.0
 10
411.8217913791799
 20
-573.9023248298045
 30
0.0
  0
LINE
  5
20D2A
330
18
100
AcDbEntity
  8
01
100
AcDbLine
 10
411.8217913791799
 20
-573.9023248298045
 30
0.0
 11
411.8218211815023
 21
-602.478030194151
 31
0.0
  0
SPLINE
  5
20D33
330
18
100
AcDbEntity
  8
01
100
AcDbSpline
210
0.0
220
0.0
230
1.0
 70
     8
 71
     3
 72
     8
 73
     4
 74
     0
 42
0.000000001
 43
0.00000001
 40
0.0
 40
0.0
 40
0.0
 40
0.0
 40
1.0
 40
1.0
 40
1.0
 40
1.0
 10
411.8215909182578
 20
-602.4780307149706
 30
0.0
 10
411.8219186688157
 20
-602.5345659486151
 30
0.0
 10
411.8259496594241
 20
-602.5923783416964
 30
0.0
 10
411.8340576482671
 20
-602.6511586908782
 30
0.0
  0
SPLINE
  5
20D3A
330
18
100
AcDbEntity
  8
01
100
AcDbSpline
210
0.0
220
0.0
230
1.0
 70
     8
 71
     3
 72
    20
 73
    16
 74
     0
 42
0.000000001
 43
0.00000001
 40
0.0
 40
0.0
 40
0.0
 40
0.0
 40
0.0388922682976844
 40
0.0789772470414376
 40
0.1202463765698819
 40
0.1626818227685929
 40
0.2062556981320406
 40
0.2509293895101083
 40
0.3822000588990543
 40
0.500160682069861
 40
0.6311871324611927
 40
0.7506142309239205
 40
0.8375679799281723
 40
0.920776636151146
 40
1.0
 40
1.0
 40
1.0
 40
1.0
 10
411.8342906062425
 20
-602.6511586908782
 30
0.0
 10
411.8401059746493
 20
-602.6834813045604
 30
0.0
 10
411.8519150515532
 20
-602.7491177705607
 30
0.0
 10
411.8808558692842
 20
-602.850173776566
 30
0.0
 10
411.9191646914997
 20
-602.9544300425844
 30
0.0
 10
411.9683320263516
 20
-603.0614420117199
 30
0.0
 10
412.0287708479228
 20
-603.170527690185
 30
0.0
 10
412.147180539451
 20
-603.3514170824596
 30
0.0
 10
412.3503958686605
 20
-603.5851734069748
 30
0.0
 10
412.68664216835
 20
-603.8614048889342
 30
0.0
 10
413.075191068056
 20
-604.0964732107841
 30
0.0
 10
413.4775450713475
 20
-604.2741418078464
 30
0.0
 10
413.8472237506087
 20
-604.3977514057999
 30
0.0
 10
414.1780986991554
 20
-604.4844499371775
 30
0.0
 10
414.3989094472253
 20
-604.5243912964784
 30
0.0
 10
414.506606009937
 20
-604.543871992705
 30
0.0
  0
SPLINE
  5
20D44
330
18
100
AcDbEntity
  8
01
100
AcDbSpline
210
0.0
220
0.0
230
1.0
 70
     8
 71
     3
 72
     9
 73
     5
 74
     0
 42
0.000000001
 43
0.00000001
 40
0.0
 40
0.0
 40
0.0
 40
0.0
 40
0.4998804901172724
 40
1.0
 40
1.0
 40
1.0
 40
1.0
 10
414.5063730519616
 20
-604.543871992705
 30
0.0
 10
414.5604951259398
 20
-604.5515391818384
 30
0.0
 10
414.6687651525725
 20
-604.5668772262009
 30
0.0
 10
414.778111735225
 20
-604.5679558616301
 30
0.0
 10
414.8327980945485
 20
-604.5684953082524
 30
0.0
  0
LINE
  5
20D6B
330
18
100
AcDbEntity
  8
01
  6
CONTINUOUS
100
AcDbLine
 10
600.0160195880632
 20
-558.3363613678093
 30
0.0
 11
600.0160195880632
 21
-605.3038603259201
 31
0.0
  0
SPLINE
  5
20D6E
330
18
100
AcDbEntity
  8
01
  6
CONTINUOUS
100
AcDbSpline
210
0.0
220
0.0
230
1.0
 70
     8
 71
     3
 72
    28
 73
    24
 74
     0
 42
0.000000001
 43
0.00000001
 40
0.0
 40
0.0
 40
0.0
 40
0.0
 40
0.0700746294255909
 40
0.1305383329846025
 40
0.1820616988299415
 40
0.2251363635661876
 40
0.263783338988438
 40
0.2926375804092913
 40
0.3176341680294652
 40
0.3434245329689611
 40
0.3700046112841999
 40
0.3973051117745725
 40
0.459971426144299
 40
0.5195131882792955
 40
0.578365930207178
 40
0.6429148106714533
 40
0.7105951163335169
 40
0.7449535278105777
 40
0.7807567125185781
 40
0.822817103080384
 40
0.8730166424301552
 40
0.9319950483922022
 40
1.0
 40
1.0
 40
1.0
 40
1.0
 10
599.3616797977189
 20
-555.8214756993058
 30
0.0
 10
599.3904140468584
 20
-555.8702700730487
 30
0.0
 10
599.443941564777
 20
-555.961166539568
 30
0.0
 10
599.5121438908664
 20
-556.0912084484694
 30
0.0
 10
599.5667117624938
 20
-556.2035462854296
 30
0.0
 10
599.610737344084
 20
-556.3013069678675
 30
0.0
 10
599.6452664322168
 20
-556.383241071491
 30
0.0
 10
599.6727555330566
 20
-556.4523221050824
 30
0.0
 10
599.6954738737558
 20
-556.5121440372482
 30
0.0
 10
599.7166677458795
 20
-556.5705500048774
 30
0.0
 10
599.7375748311822
 20
-556.6309922276123
 30
0.0
 10
599.7668076564519
 20
-556.7198538893253
 30
0.0
 10
599.8013839636893
 20
-556.8345395335341
 30
0.0
 10
599.8386360283104
 20
-556.9741355187153
 30
0.0
 10
599.8720417416993
 20
-557.115783039221
 30
0.0
 10
599.902469123543
 20
-557.2631190454524
 30
0.0
 10
599.9260580810159
 20
-557.3953737849646
 30
0.0
 10
599.9433148136847
 20
-557.5061194346408
 30
0.0
 10
599.955801075502
 20
-557.59692572216
 30
0.0
 10
599.968881154804
 20
-557.6982515144582
 30
0.0
 10
599.9823532405162
 20
-557.8125109601633
 30
0.0
 10
599.9958818613496
 20
-557.9418980339722
 30
0.0
 10
600.0029990925266
 20
-558.0324499260577
 30
0.0
 10
600.0068106704454
 20
-558.0809442890759
 30
0.0
  0
SPLINE
  5
20D6F
330
18
100
AcDbEntity
  8
01
  6
CONTINUOUS
100
AcDbSpline
210
0.0
220
0.0
230
1.0
 70
     8
 71
     3
 72
    12
 73
     8
 74
     0
 42
0.000000001
 43
0.00000001
 40
0.0
 40
0.0
 40
0.0
 40
0.0
 40
0.0017034000972963
 40
0.0129715874144464
 40
0.0250556164848433
 40
0.0381424160256374
 40
0.0477158041778221
 40
0.0477158041778221
 40
0.0477158041778221
 40
0.0477158041778221
 10
575.0157230549554
 20
-567.0031123427625
 30
0.0
 10
575.0147493122251
 20
-566.9951588549745
 30
0.0
 10
575.0073341494777
 20
-566.9345921318327
 30
0.0
 10
574.9838983619334
 20
-566.8187480196611
 30
0.0
 10
574.9388808855098
 20
-566.6525168174439
 30
0.0
 10
574.8813795735061
 20
-566.4976660870557
 30
0.0
 10
574.8360969298155
 20
-566.3994209641806
 30
0.0
 10
574.8156261977485
 20
-566.3584897493253
 30
0.0
  0
SPLINE
  5
20D70
330
18
100
AcDbEntity
  8
01
  6
CONTINUOUS
100
AcDbSpline
210
0.0
220
0.0
230
1.0
 70
     8
 71
     3
 72
    37
 73
    33
 74
     0
 42
0.000000001
 43
0.00000001
 40
0.0
 40
0.0
 40
0.0
 40
0.0
 40
0.0474529303088068
 40
0.0979472432912081
 40
0.1454189336373397
 40
0.1895586417911726
 40
0.2301338395868462
 40
0.2807867858276945
 40
0.3245153547186512
 40
0.3614304404872723
 40
0.3915243148631219
 40
0.4163461190333123
 40
0.441119166252213
 40
0.5007806274614041
 40
0.5597143010471586
 40
0.5835631559522931
 40
0.6072732481638308
 40
0.6349159134728727
 40
0.6670147200222935
 40
0.7036076476038923
 40
0.7430050637348414
 40
0.7774393333761078
 40
0.7947904472322695
 40
0.810047616651012
 40
0.8232082997134625
 40
0.8342894431100126
 40
0.8456066744904606
 40
0.8615654729345908
 40
0.8869516236915524
 40
0.9191037794391279
 40
0.9580019171792118
 40
1.0
 40
1.0
 40
1.0
 40
1.0
 10
588.2002406769494
 20
-573.6833578539963
 30
0.0
 10
588.1930757055047
 20
-573.6381527630058
 30
0.0
 10
588.1782865408168
 20
-573.5448452682643
 30
0.0
 10
588.141625629146
 20
-573.411639019394
 30
0.0
 10
588.0962584673925
 20
-573.2840755262011
 30
0.0
 10
588.0446504783256
 20
-573.1683773230338
 30
0.0
 10
587.9834571570298
 20
-573.0526798825683
 30
0.0
 10
587.9133532527577
 20
-572.9406128806988
 30
0.0
 10
587.836267581244
 20
-572.8351850673498
 30
0.0
 10
587.7650430583498
 20
-572.7492280455468
 30
0.0
 10
587.7020120412337
 20
-572.6802829080261
 30
0.0
 10
587.6450398948838
 20
-572.6226481351146
 30
0.0
 10
587.5629624089672
 20
-572.5451213982088
 30
0.0
 10
587.4469204405335
 20
-572.4472872525116
 30
0.0
 10
587.3196745980321
 20
-572.3560241190967
 30
0.0
 10
587.218022768487
 20
-572.2908821751548
 30
0.0
 10
587.143608152966
 20
-572.2463013125931
 30
0.0
 10
587.0584467824295
 20
-572.1989205387106
 30
0.0
 10
586.9564144857246
 20
-572.1469738239755
 30
0.0
 10
586.8371890226891
 20
-572.09243151286
 30
0.0
 10
586.7101350254803
 20
-572.0411732863614
 30
0.0
 10
586.6015706879165
 20
-572.002781349431
 30
0.0
 10
586.5200638694764
 20
-571.9766926387733
 30
0.0
 10
586.4637995947348
 20
-571.9598367375121
 30
0.0
 10
586.4148150713419
 20
-571.9460342803591
 30
0.0
 10
586.3705648678497
 20
-571.934226165552
 30
0.0
 10
586.322493706799
 20
-571.9220471248498
 30
0.0
 10
586.2551729840982
 20
-571.9061254644922
 30
0.0
 10
586.1596219702593
 20
-571.8858863877736
 30
0.0
 10
586.0315921629855
 20
-571.8633055325308
 30
0.0
 10
585.8786148798594
 20
-571.8420177092879
 30
0.0
 10
585.7667715204723
 20
-571.8334030709203
 30
0.0
 10
585.5085619741182
 20
-571.8223741842385
 30
0.0
  0
SPLINE
  5
20D72
330
18
100
AcDbEntity
  8
01
  6
CONTINUOUS
100
AcDbSpline
210
0.0
220
0.0
230
1.0
 70
     8
 71
     3
 72
    44
 73
    40
 74
     0
 42
0.000000001
 43
0.00000001
 40
0.0
 40
0.0
 40
0.0
 40
0.0
 40
0.0487055920486238
 40
0.0939379076030604
 40
0.1357059596056409
 40
0.1740121569227999
 40
0.2088621119557197
 40
0.2475816523278775
 40
0.2810364124111768
 40
0.3094048535041675
 40
0.3326170959185178
 40
0.3490029394749956
 40
0.3622394661974306
 40
0.3797645227824992
 40
0.4030293355451784
 40
0.4319365242278816
 40
0.4647552951560869
 40
0.4959976551214916
 40
0.5247818653642866
 40
0.5511689204256663
 40
0.586459774308908
 40
0.6160597361464225
 40
0.6439708175206081
 40
0.6726447196152432
 40
0.7021579086332441
 40
0.7318069778665042
 40
0.7461918423310134
 40
0.760283700058443
 40
0.7735469328575629
 40
0.7850164610206315
 40
0.7946747716038327
 40
0.8060334381531566
 40
0.8241213258795221
 40
0.8489333869127947
 40
0.8803709935106854
 40
0.9082173812969665
 40
0.9397850455079712
 40
0.9751609485131553
 40
1.0
 40
1.0
 40
1.0
 40
1.0
 10
584.8145180397729
 20
-595.3954784763928
 30
0.0
 10
584.8963837320744
 20
-595.3941778974129
 30
0.0
 10
585.054277138474
 20
-595.3916694858955
 30
0.0
 10
585.2811149673611
 20
-595.3727585330728
 30
0.0
 10
585.4881565459685
 20
-595.3461345927631
 30
0.0
 10
585.674980059002
 20
-595.3132883201716
 30
0.0
 10
585.8531756523291
 20
-595.2742262669876
 30
0.0
 10
586.0191026478636
 20
-595.2302337859691
 30
0.0
 10
586.1696384860808
 20
-595.1831075663331
 30
0.0
 10
586.2912060322071
 20
-595.1399400243945
 30
0.0
 10
586.3851885497655
 20
-595.1033473614291
 30
0.0
 10
586.4574149852334
 20
-595.073237044259
 30
0.0
 10
586.5218385664324
 20
-595.0449689803623
 30
0.0
 10
586.5937415417415
 20
-595.0116916153097
 30
0.0
 10
586.6838760688119
 20
-594.9670370801764
 30
0.0
 10
586.7897229863504
 20
-594.9100037626806
 30
0.0
 10
586.900199976404
 20
-594.8443684450842
 30
0.0
 10
587.0047328853765
 20
-594.7757182582748
 30
0.0
 10
587.0967933102789
 20
-594.7094186863864
 30
0.0
 10
587.1878454059612
 20
-594.637914207583
 30
0.0
 10
587.2735879670132
 20
-594.5637737189571
 30
0.0
 10
587.3536551835326
 20
-594.4870960879912
 30
0.0
 10
587.4216998884169
 20
-594.4154774146534
 30
0.0
 10
587.4837031740425
 20
-594.3436715980768
 30
0.0
 10
587.540805567008
 20
-594.2704478793323
 30
0.0
 10
587.5836959568933
 20
-594.2090559428176
 30
0.0
 10
587.6151087512274
 20
-594.1600392000317
 30
0.0
 10
587.6364603330093
 20
-594.1246485401192
 30
0.0
 10
587.6552218409955
 20
-594.0916582295665
 30
0.0
 10
587.6708268461915
 20
-594.0625923052329
 30
0.0
 10
587.684534216119
 20
-594.0357739469598
 30
0.0
 10
587.7005906452731
 20
-594.0027077787432
 30
0.0
 10
587.7221068435001
 20
-593.9548267066072
 30
0.0
 10
587.7483843218187
 20
-593.888470325232
 30
0.0
 10
587.7732726434348
 20
-593.8123967091282
 30
0.0
 10
587.7943958164882
 20
-593.7296703744398
 30
0.0
 10
587.8100872020083
 20
-593.6428539979453
 30
0.0
 10
587.8197279793491
 20
-593.5584537914413
 30
0.0
 10
587.8162675553064
 20
-593.5045807255383
 30
0.0
 10
587.8162675553064
 20
-593.5045807255383
 30
0.0
  0
SPLINE
  5
20D73
330
18
100
AcDbEntity
  8
01
  6
CONTINUOUS
100
AcDbSpline
210
0.0
220
0.0
230
1.0
 70
     8
 71
     3
 72
    38
 73
    34
 74
     0
 42
0.000000001
 43
0.00000001
 40
0.0
 40
0.0
 40
0.0
 40
0.0
 40
0.0250752761469946
 40
0.044882040953898
 40
0.0592005021891417
 40
0.0701360829369556
 40
0.0809597558433145
 40
0.0916975862141167
 40
0.1023465065738812
 40
0.1129046310246608
 40
0.1487850380993145
 40
0.1910901815849429
 40
0.2275666237410882
 40
0.2679533701097166
 40
0.3117623201508033
 40
0.3531793697579483
 40
0.3904857284946363
 40
0.4235412546196733
 40
0.452251041667142
 40
0.4765565444110498
 40
0.4964277332719032
 40
0.5119677822030427
 40
0.5329618396349842
 40
0.559404197264018
 40
0.5912522011938626
 40
0.6284210116257405
 40
0.6707706934204879
 40
0.7180909130919576
 40
0.7700847939728791
 40
0.8263588171325145
 40
0.8864156544637516
 40
0.949657194723274
 40
1.0
 40
1.0
 40
1.0
 40
1.0
 10
600.0160195880632
 20
-605.3031301690216
 30
0.0
 10
600.0155851650021
 20
-605.3421189607864
 30
0.0
 10
600.0148075945579
 20
-605.4119046946889
 30
0.0
 10
600.0096235464513
 20
-605.5038605426614
 30
0.0
 10
600.0039828986282
 20
-605.5736992290551
 30
0.0
 10
599.9983533474359
 20
-605.6295366155132
 30
0.0
 10
599.9924219642356
 20
-605.6797319075022
 30
0.0
 10
599.985717933194
 20
-605.7293772652421
 30
0.0
 10
599.9782525798237
 20
-605.7784893104763
 30
0.0
 10
599.9634678326539
 20
-605.8659883370183
 30
0.0
 10
599.935572878756
 20
-606.001100334069
 30
0.0
 10
599.888963641239
 20
-606.1732292374284
 30
0.0
 10
599.8296639760828
 20
-606.3488157772927
 30
0.0
 10
599.7590757644939
 20
-606.5227880368858
 30
0.0
 10
599.6738936007465
 20
-606.6987618739388
 30
0.0
 10
599.5796143584842
 20
-606.8645313284285
 30
0.0
 10
599.4845443252717
 20
-607.0102060299461
 30
0.0
 10
599.3933654408894
 20
-607.134510289937
 30
0.0
 10
599.309077896428
 20
-607.2385509883933
 30
0.0
 10
599.234173526022
 20
-607.3236391800997
 30
0.0
 10
599.1705158653857
 20
-607.3911428115011
 30
0.0
 10
599.1086646175231
 20
-607.4532098501488
 30
0.0
 10
599.0375790749171
 20
-607.5205692489753
 30
0.0
 10
598.9450114406683
 20
-607.6020348339364
 30
0.0
 10
598.8291828279956
 20
-607.6949754327098
 30
0.0
 10
598.6884065765433
 20
-607.7960226097533
 30
0.0
 10
598.5212296614355
 20
-607.9009949310592
 30
0.0
 10
598.326755896193
 20
-608.0049708452646
 30
0.0
 10
598.1049409131978
 20
-608.1023022508589
 30
0.0
 10
597.8569135970947
 20
-608.1872774039732
 30
0.0
 10
597.5851455837249
 20
-608.2527727950105
 30
0.0
 10
597.3174663830207
 20
-608.293928759191
 30
0.0
 10
597.1407223410628
 20
-608.2981016282447
 30
0.0
 10
597.0623859220246
 20
-608.2999511254902
 30
0.0
  0
LINE
  5
20D74
330
18
100
AcDbEntity
  8
01
100
AcDbLine
 10
597.0623859220246
 20
-608.2999511254902
 30
0.0
 11
596.7604213410119
 21
-608.3066454721566
 31
0.0
  0
LINE
  5
20D75
330
18
100
AcDbEntity
  8
01
  6
CONTINUOUS
100
AcDbLine
 10
596.7242487722139
 20
-608.3068652642842
 30
0.0
 11
500.0162416153649
 21
-608.3068652642842
 31
0.0
  0
LINE
  5
20D76
330
18
100
AcDbEntity
  8
01
  6
CONTINUOUS
100
AcDbLine
 10
591.057866161416
 20
-606.4788876665707
 30
0.0
 11
591.0759934240083
 21
-605.2526673866387
 31
0.0
  0
LINE
  5
20D77
330
18
100
AcDbEntity
  8
01
  6
CONTINUOUS
100
AcDbLine
 10
591.0759189182023
 20
-573.5446392191525
 30
0.0
 11
591.0572403126458
 21
-572.3086083872195
 31
0.0
  0
SPLINE
  5
20D78
330
18
100
AcDbEntity
  8
01
  6
CONTINUOUS
100
AcDbSpline
210
0.0
220
0.0
230
1.0
 70
    24
 71
     3
 72
    17
 73
    13
 74
     0
 42
0.000000001
 43
0.00000001
 40
0.0
 40
0.0
 40
0.0
 40
0.0
 40
0.0613479774310459
 40
0.1224328427770372
 40
0.1835510774010273
 40
0.2449986796530659
 40
0.3724069460801681
 40
0.500073058468952
 40
0.6274810592977276
 40
0.7551469505166254
 40
0.8775069934171441
 40
1.0
 40
1.0
 40
1.0
 40
1.0
 10
599.1926174239729
 20
-555.8213255522401
 30
0.0
 10
599.1742496459029
 20
-555.8213255522401
 30
0.0
 10
599.1375928663516
 20
-555.8213255522401
 30
0.0
 10
599.0729895702427
 20
-555.8213255522401
 30
0.0
 10
599.0015906385528
 20
-555.8213255522401
 30
0.0
 10
598.8948550390154
 20
-555.8213255522401
 30
0.0
 10
598.7424409695121
 20
-555.8213255522401
 30
0.0
 10
598.5334011496974
 20
-555.8213255522401
 30
0.0
 10
598.3043302194092
 20
-555.8213255522401
 30
0.0
 10
598.062991798912
 20
-555.8213255522401
 30
0.0
 10
597.8151544440904
 20
-555.8213255522401
 30
0.0
 10
597.6489987103326
 20
-555.8213255522401
 30
0.0
 10
597.565875729296
 20
-555.8213255522401
 30
0.0
  0
SPLINE
  5
20D79
330
18
100
AcDbEntity
  8
01
  6
CONTINUOUS
100
AcDbSpline
210
0.0
220
0.0
230
1.0
 70
     8
 71
     3
 72
    32
 73
    28
 74
     0
 42
0.000000001
 43
0.00000001
 40
0.0
 40
0.0
 40
0.0
 40
0.0
 40
0.0639475443642343
 40
0.1294955063011659
 40
0.1966600203077815
 40
0.2654612250958238
 40
0.3359130141966157
 40
0.4080323306277133
 40
0.4818318614943229
 40
0.5257646079619949
 40
0.5736018176481249
 40
0.6253435979419877
 40
0.6809896160065269
 40
0.7247257087449711
 40
0.7626729774702447
 40
0.7769789298313726
 40
0.7912816709373518
 40
0.8055809991965804
 40
0.8196575876775402
 40
0.8279780684672193
 40
0.8435153860684965
 40
0.8662694071998308
 40
0.9079461046408009
 40
0.9403465525762197
 40
0.9677072973537274
 40
0.9900284872495567
 40
1.0
 40
1.0
 40
1.0
 40
1.0
 10
599.170125370572
 20
-560.6198423175092
 30
0.0
 10
599.2087138693594
 20
-560.5749339567801
 30
0.0
 10
599.2868566227293
 20
-560.4839933121066
 30
0.0
 10
599.3951921573538
 20
-560.3381651571926
 30
0.0
 10
599.4979731175855
 20
-560.1834855312221
 30
0.0
 10
599.5937092757757
 20
-560.0194913896593
 30
0.0
 10
599.6817957301898
 20
-559.8465013544105
 30
0.0
 10
599.7614091573959
 20
-559.6647186725962
 30
0.0
 10
599.8217095321558
 20
-559.5014892052945
 30
0.0
 10
599.8675944760373
 20
-559.3570403733959
 30
0.0
 10
599.9029186654285
 20
-559.2307022702025
 30
0.0
 10
599.9358489689522
 20
-559.092872908202
 30
0.0
 10
599.9623308333825
 20
-558.9576495431276
 30
0.0
 10
599.9816951270365
 20
-558.8340810081422
 30
0.0
 10
599.9925242212656
 20
-558.7474618987774
 30
0.0
 10
599.9988185584933
 20
-558.6873137728171
 30
0.0
 10
600.0024582834001
 20
-558.6485135901275
 30
0.0
 10
600.0056396815718
 20
-558.6098828401438
 30
0.0
 10
600.0080313400334
 20
-558.5766932149584
 30
0.0
 10
600.0101782394935
 20
-558.5422415091979
 30
0.0
 10
600.0124371033877
 20
-558.4998384793414
 30
0.0
 10
600.0152514330526
 20
-558.4270331404618
 30
0.0
 10
600.0164580107172
 20
-558.3387935707697
 30
0.0
 10
600.0152930466155
 20
-558.2463529419367
 30
0.0
 10
600.0122017408485
 20
-558.1716388615622
 30
0.0
 10
600.0100700669815
 20
-558.1172910345181
 30
0.0
 10
600.0068851540071
 20
-558.0880424096185
 30
0.0
 10
600.0059016996125
 20
-558.079010863411
 30
0.0
  0
LINE
  5
20D7A
330
18
100
AcDbEntity
  8
01
100
AcDbLine
 10
589.0218087487916
 20
-570.872684997129
 30
0.0
 11
587.5744887643556
 21
-570.8727045549031
 31
0.0
  0
LINE
  5
20D7B
330
18
100
AcDbEntity
  8
01
  6
CONTINUOUS
100
AcDbLine
 10
597.565873807023
 20
-555.8213255522465
 30
0.0
 11
575.5162381582956
 21
-555.8213255522465
 31
0.0
  0
LINE
  5
20D7C
330
18
100
AcDbEntity
  8
01
  6
CONTINUOUS
100
AcDbLine
 10
575.0162445955972
 20
-570.8466535998459
 30
0.0
 11
575.0252001934747
 21
-570.8512152178164
 31
0.0
  0
LINE
  5
20D7E
330
18
100
AcDbEntity
  8
01
  6
CONTINUOUS
100
AcDbLine
 10
575.5162381582956
 20
-555.8213255522465
 30
0.0
 11
575.0162445955972
 21
-555.8213255522465
 31
0.0
  0
SPLINE
  5
20D7F
330
18
100
AcDbEntity
  8
01
  6
CONTINUOUS
100
AcDbSpline
210
0.0
220
0.0
230
1.0
 70
     8
 71
     3
 72
    20
 73
    16
 74
     0
 42
0.000000001
 43
0.00000001
 40
0.0
 40
0.0
 40
0.0
 40
0.0
 40
0.1250000000000002
 40
0.1250000000000002
 40
0.2500000000000003
 40
0.2500000000000003
 40
0.3750000000000005
 40
0.3750000000000005
 40
0.5000000000000007
 40
0.5000000000000007
 40
0.6250000000000009
 40
0.6250000000000009
 40
0.7500000000000019
 40
0.7500000000000019
 40
1.0
 40
1.0
 40
1.0
 40
1.0
 10
589.0218066095202
 20
-570.8726019850778
 30
0.0
 10
589.1554842556336
 20
-570.8739527118682
 30
0.0
 10
589.2894151278198
 20
-570.878021970366
 30
0.0
 10
589.5541158924407
 20
-570.9054860810209
 30
0.0
 10
589.6847395672238
 20
-570.9271008595229
 30
0.0
 10
589.9378785331525
 20
-570.9873732196188
 30
0.0
 10
590.0607514252247
 20
-571.0266901462169
 30
0.0
 10
590.289506720099
 20
-571.1231195118169
 30
0.0
 10
590.3948274229451
 20
-571.1796581218119
 30
0.0
 10
590.5873174264353
 20
-571.3131892163944
 30
0.0
 10
590.674971469264
 20
-571.3907057050712
 30
0.0
 10
590.8208002577923
 20
-571.5567312391886
 30
0.0
 10
590.878629097229
 20
-571.6450806588346
 30
0.0
 10
591.0149543792895
 20
-571.9203022011752
 30
0.0
 10
591.051771301467
 20
-572.1150103379791
 30
0.0
 10
591.0578662815325
 20
-572.3090683499828
 30
0.0
  0
LINE
  5
20D81
330
18
100
AcDbEntity
  8
01
  6
CONTINUOUS
100
AcDbLine
 10
585.5085619741182
 20
-571.8223741842385
 30
0.0
 11
575.5110472465028
 21
-571.821628835175
 31
0.0
  0
SPLINE
  5
20D84
330
18
100
AcDbEntity
  8
01
  6
CONTINUOUS
100
AcDbSpline
210
0.0
220
0.0
230
1.0
 70
    24
 71
     3
 72
    11
 73
     7
 74
     0
 42
0.000000001
 43
0.00000001
 40
0.0
 40
0.0
 40
0.0
 40
0.0
 40
0.1460299552054221
 40
0.3666912304011073
 40
0.6831735291129191
 40
1.0
 40
1.0
 40
1.0
 40
1.0
 10
599.3599512630204
 20
-555.8213255522465
 30
0.0
 10
599.3600013712487
 20
-555.8213255522465
 30
0.0
 10
599.3601271964457
 20
-555.8213255522465
 30
0.0
 10
599.3378519753898
 20
-555.8213255522465
 30
0.0
 10
599.2894971746605
 20
-555.8213255522465
 30
0.0
 10
599.2249232047421
 20
-555.8213255522465
 30
0.0
 10
599.1926186733941
 20
-555.8213255522465
 30
0.0
  0
LINE
  5
20D85
330
18
100
AcDbEntity
  8
01
  6
CONTINUOUS
100
AcDbLine
 10
574.8156261980487
 20
-559.8187673923941
 30
0.0
 11
575.0162445955972
 21
-559.8187707928892
 31
0.0
  0
LINE
  5
20D86
330
18
100
AcDbEntity
  8
01
  6
CONTINUOUS
100
AcDbLine
 10
560.0162402742604
 20
-555.8213488729697
 30
0.0
 11
560.0162402742604
 21
-555.8213421033732
 31
0.0
  0
LINE
  5
20D87
330
18
100
AcDbEntity
  8
01
  6
CONTINUOUS
100
AcDbLine
 10
574.8156261980487
 20
-557.5089041873766
 30
0.0
 11
575.0162445955972
 21
-557.5089038448359
 31
0.0
  0
SPLINE
  5
20D88
330
18
100
AcDbEntity
  8
01
  6
CONTINUOUS
100
AcDbSpline
210
0.0
220
0.0
230
1.0
 70
     8
 71
     3
 72
    11
 73
     7
 74
     0
 42
0.000000001
 43
0.00000001
 40
0.0
 40
0.0
 40
0.0
 40
0.0
 40
0.2727362304145465
 40
0.5443731294023487
 40
0.9708771308526356
 40
1.0
 40
1.0
 40
1.0
 40
1.0
 10
575.0162445955972
 20
-567.1943696780081
 30
0.0
 10
575.0162346435981
 20
-567.1888525123027
 30
0.0
 10
575.0162147797137
 20
-567.1778404192046
 30
0.0
 10
575.0159679833356
 20
-567.1582405338474
 30
0.0
 10
575.0157750387677
 20
-567.1435483941523
 30
0.0
 10
575.0154600654348
 20
-567.1343446951557
 30
0.0
 10
575.0154399328927
 20
-567.1337564108844
 30
0.0
  0
LINE
  5
20D8A
330
18
100
AcDbEntity
  8
01
  6
CONTINUOUS
100
AcDbLine
 10
587.8162675553064
 20
-572.8126457525368
 30
0.0
 11
587.8162675553064
 21
-593.5045807255383
 31
0.0
  0
LINE
  5
20D8B
330
18
100
AcDbEntity
  8
01
  6
CONTINUOUS
100
AcDbLine
 10
560.0162402742604
 20
-555.8213421033732
 30
0.0
 11
575.0162445955972
 21
-555.8213689902535
 31
0.0
  0
LINE
  5
20D8C
330
18
100
AcDbEntity
  8
01
  6
CONTINUOUS
100
AcDbLine
 10
587.3764746838311
 20
-607.9439512086983
 30
0.0
 11
589.0224420481424
 21
-607.9439512086983
 31
0.0
  0
SPLINE
  5
20D8D
330
18
100
AcDbEntity
  8
01
  6
CONTINUOUS
100
AcDbSpline
210
0.0
220
0.0
230
1.0
 70
     8
 71
     3
 72
    16
 73
    12
 74
     0
 42
0.000000001
 43
0.00000001
 40
0.0
 40
0.0
 40
0.0
 40
0.0
 40
0.2500000000000046
 40
0.2500000000000046
 40
0.3750000000000049
 40
0.3750000000000049
 40
0.5000000000000052
 40
0.5000000000000052
 40
0.7500000000000026
 40
0.7500000000000026
 40
1.0
 40
1.0
 40
1.0
 40
1.0
 10
591.0585191135166
 20
-606.4793692724927
 30
0.0
 10
591.0539235041126
 20
-606.6745204971007
 30
0.0
 10
591.0172435719547
 20
-606.8702972932672
 30
0.0
 10
590.8850411357646
 20
-607.1477303120487
 30
0.0
 10
590.8285686866606
 20
-607.2370746741544
 30
0.0
 10
590.6878548281641
 20
-607.404535898143
 30
0.0
 10
590.6037143711166
 20
-607.48263048276
 30
0.0
 10
590.3170770954047
 20
-607.6901325237113
 30
0.0
 10
590.0792472499824
 20
-607.7919986061945
 30
0.0
 10
589.5661763820366
 20
-607.9185334570802
 30
0.0
 10
589.2935329706017
 20
-607.9443513234105
 30
0.0
 10
589.0224445883775
 20
-607.9444152995925
 30
0.0
  0
LINE
  5
20D8F
330
18
100
AcDbEntity
  8
01
  6
CONTINUOUS
100
AcDbLine
 10
584.8145180397729
 20
-595.3954747511025
 30
0.0
 11
500.0162416153649
 21
-595.3954747511025
 31
0.0
  0
SPLINE
  5
20D90
330
18
100
AcDbEntity
  8
01
100
AcDbSpline
210
0.0
220
0.0
230
1.0
 70
     8
 71
     3
 72
     8
 73
     4
 74
     0
 42
0.000000001
 43
0.00000001
 40
0.0
 40
0.0
 40
0.0
 40
0.0
 40
1.0
 40
1.0
 40
1.0
 40
1.0
 10
599.1701242193732
 20
-560.6198425211658
 30
0.0
 10
596.4978733037094
 20
-564.5405914039743
 30
0.0
 10
593.7880959950552
 20
-568.4433288221778
 30
0.0
 10
591.0572765550645
 20
-572.308582613386
 30
0.0
  0
LINE
  5
20D91
330
18
100
AcDbEntity
  8
01
100
AcDbLine
 10
591.0759934240083
 20
-605.2526673866387
 30
0.0
 11
591.0759189182023
 21
-573.5446392191525
 31
0.0
  0
LINE
  5
20D92
330
18
100
AcDbEntity
  8
01
100
AcDbLine
 10
587.4803059750299
 20
-570.8727045549031
 30
0.0
 11
575.5162381582956
 21
-570.8717378420706
 31
0.0
  0
LINE
  5
20D93
330
18
100
AcDbEntity
  8
01
100
AcDbLine
 10
587.5744887643556
 20
-570.8727045549031
 30
0.0
 11
587.4803059750299
 21
-570.8727045549031
 31
0.0
  0
SPLINE
  5
20D94
330
18
100
AcDbEntity
  8
01
100
AcDbSpline
210
0.0
220
0.0
230
1.0
 70
     8
 71
     3
 72
    15
 73
    11
 74
     0
 42
0.000000001
 43
0.00000001
 40
0.0
 40
0.0
 40
0.0
 40
0.0
 40
0.0096027092906656
 40
0.1510889201892862
 40
0.292572129722168
 40
0.4340590428285393
 40
0.5755494516022415
 40
0.7170330482840823
 40
0.8585172568568528
 40
1.0
 40
1.0
 40
1.0
 40
1.0
 10
575.0252001934747
 20
-570.8512152178164
 30
0.0
 10
575.025403863765
 20
-570.8513258239811
 30
0.0
 10
575.0286084098261
 20
-570.8530661001361
 30
0.0
 10
575.0526416600075
 20
-570.8563077025085
 30
0.0
 10
575.0974698674863
 20
-570.8606805786592
 30
0.0
 10
575.160501635494
 20
-570.8645041109121
 30
0.0
 10
575.2366414734768
 20
-570.8676469910948
 30
0.0
 10
575.3236730290079
 20
-570.8699654726561
 30
0.0
 10
575.4180643911404
 20
-570.8714572919672
 30
0.0
 10
575.4835136822268
 20
-570.8716443256924
 30
0.0
 10
575.5162381582956
 20
-570.8717378420706
 30
0.0
  0
SPLINE
  5
20D95
330
18
100
AcDbEntity
  8
01
  6
PHANTOM
100
AcDbSpline
210
0.0
220
0.0
230
1.0
 70
     8
 71
     3
 72
     9
 73
     5
 74
     0
 42
0.000000001
 43
0.00000001
 40
0.0
 40
0.0
 40
0.0
 40
0.0
 40
0.0158501106264158
 40
0.0199206661641767
 40
0.0199206661641767
 40
0.0199206661641767
 40
0.0199206661641767
 10
575.016241604605
 20
-564.9765207738934
 30
0.0
 10
574.96377608073
 20
-564.9262962788673
 30
0.0
 10
574.8978365923014
 20
-564.8631733504374
 30
0.0
 10
574.8296450537499
 20
-564.8025174324422
 30
0.0
 10
574.8156261980444
 20
-564.7902180185633
 30
0.0
  0
LINE
  5
20D97
330
18
100
AcDbEntity
  8
01
100
AcDbLine
 10
500.0162416153649
 20
-607.9439661098595
 30
0.0
 11
587.3764746838311
 21
-607.9439512086983
 31
0.0
  0
LINE
  5
20D99
330
18
100
AcDbEntity
  8
01
100
AcDbLine
 10
585.1996832543115
 20
-604.5684954715844
 30
0.0
 11
500.0162416153648
 21
-604.5681676460381
 31
0.0
  0
SPLINE
  5
20D9E
330
18
100
AcDbEntity
  8
01
  6
PHANTOM
100
AcDbSpline
210
0.0
220
0.0
230
1.0
 70
    24
 71
     3
 72
     8
 73
     4
 74
     0
 42
0.000000001
 43
0.00000001
 40
0.0
 40
0.0
 40
0.0
 40
0.0
 40
1.0
 40
1.0
 40
1.0
 40
1.0
 10
500.0162416153649
 20
-595.3954762532541
 30
0.0
 10
500.0162416153649
 20
-595.3954762532541
 30
0.0
 10
500.0162416153649
 20
-595.4512713602289
 30
0.0
 10
500.0162416153649
 20
-595.5541860318183
 30
0.0
  0
LINE
  5
20D9F
330
18
100
AcDbEntity
  8
01
100
AcDbLine
 10
596.7604018758142
 20
-608.3066457212899
 30
0.0
 11
596.7242487722139
 21
-608.3068652642842
 31
0.0
  0
LINE
  5
20DA1
330
18
100
AcDbEntity
  8
01
  6
PHANTOM
100
AcDbLine
 10
500.0162416153649
 20
-608.3067162526722
 30
0.0
 11
500.0162416153649
 21
-608.3056657208081
 31
0.0
  0
LINE
  5
20DA2
330
18
100
AcDbEntity
  8
01
  6
CONTINUOUS
100
AcDbLine
 10
574.3156261980487
 20
-571.7234073909289
 30
0.0
 11
500.0171677442828
 21
-571.7234073909258
 31
0.0
  0
LINE
  5
20DA3
330
18
100
AcDbEntity
  8
01
  6
CONTINUOUS
100
AcDbLine
 10
574.8156261980487
 20
-555.8213303512695
 30
0.0
 11
500.0162416153649
 21
-555.8213303512664
 31
0.0
  0
LINE
  5
20DA4
330
18
100
AcDbEntity
  8
01
100
AcDbLine
 10
574.8156261980487
 20
-555.8213303512695
 30
0.0
 11
574.8156261980487
 21
-571.2234073909289
 31
0.0
  0
ARC
  5
20DA5
330
18
100
AcDbEntity
  8
01
100
AcDbCircle
 10
574.3156261980487
 20
-571.2234073909289
 30
0.0
 40
0.5
100
AcDbArc
 50
270.0
 51
0.0
  0
SPLINE
  5
20DA6
330
18
100
AcDbEntity
  8
01
100
AcDbSpline
210
0.0
220
0.0
230
1.0
 70
     8
 71
     3
 72
    10
 73
     6
 74
     0
 42
0.000000001
 43
0.00000001
 40
0.0
 40
0.0
 40
0.0
 40
0.0
 40
0.4087205378179644
 40
0.7019442896439317
 40
1.0
 40
1.0
 40
1.0
 40
1.0
 10
588.2002406769494
 20
-573.6833578539963
 30
0.0
 10
588.2007615719932
 20
-573.727230163899
 30
0.0
 10
588.2075712285531
 20
-573.7783389083835
 30
0.0
 10
588.2104305162558
 20
-573.8451437144142
 30
0.0
 10
588.2106042664874
 20
-573.8831608987098
 30
0.0
 10
588.21069185155
 20
-573.9023248298045
 30
0.0
  0
LINE
  5
20DA7
330
18
100
AcDbEntity
  8
01
100
AcDbLine
 10
588.21069185155
 20
-573.9023248298045
 30
0.0
 11
588.2106620492276
 21
-602.478030194151
 31
0.0
  0
SPLINE
  5
20DA8
330
18
100
AcDbEntity
  8
01
100
AcDbSpline
210
0.0
220
0.0
230
1.0
 70
     8
 71
     3
 72
     8
 73
     4
 74
     0
 42
0.000000001
 43
0.00000001
 40
0.0
 40
0.0
 40
0.0
 40
0.0
 40
1.0
 40
1.0
 40
1.0
 40
1.0
 10
588.2108923124721
 20
-602.4780307149706
 30
0.0
 10
588.2105645619141
 20
-602.5345659486151
 30
0.0
 10
588.2065335713058
 20
-602.5923783416964
 30
0.0
 10
588.1984255824628
 20
-602.6511586908782
 30
0.0
  0
SPLINE
  5
20DA9
330
18
100
AcDbEntity
  8
01
100
AcDbSpline
210
0.0
220
0.0
230
1.0
 70
     8
 71
     3
 72
    20
 73
    16
 74
     0
 42
0.000000001
 43
0.00000001
 40
0.0
 40
0.0
 40
0.0
 40
0.0
 40
0.0388922682976844
 40
0.0789772470414376
 40
0.1202463765698819
 40
0.1626818227685929
 40
0.2062556981320406
 40
0.2509293895101083
 40
0.3822000588990543
 40
0.500160682069861
 40
0.6311871324611927
 40
0.7506142309239205
 40
0.8375679799281723
 40
0.920776636151146
 40
1.0
 40
1.0
 40
1.0
 40
1.0
 10
588.1981926244874
 20
-602.6511586908782
 30
0.0
 10
588.1923772560806
 20
-602.6834813045604
 30
0.0
 10
588.1805681791767
 20
-602.7491177705607
 30
0.0
 10
588.1516273614458
 20
-602.850173776566
 30
0.0
 10
588.1133185392301
 20
-602.9544300425844
 30
0.0
 10
588.0641512043783
 20
-603.0614420117199
 30
0.0
 10
588.0037123828071
 20
-603.170527690185
 30
0.0
 10
587.885302691279
 20
-603.3514170824596
 30
0.0
 10
587.6820873620694
 20
-603.5851734069748
 30
0.0
 10
587.3458410623799
 20
-603.8614048889342
 30
0.0
 10
586.9572921626739
 20
-604.0964732107841
 30
0.0
 10
586.5549381593825
 20
-604.2741418078464
 30
0.0
 10
586.1852594801211
 20
-604.3977514057999
 30
0.0
 10
585.8543845315745
 20
-604.4844499371775
 30
0.0
 10
585.6335737835046
 20
-604.5243912964784
 30
0.0
 10
585.525877220793
 20
-604.543871992705
 30
0.0
  0
SPLINE
  5
20DAA
330
18
100
AcDbEntity
  8
01
100
AcDbSpline
210
0.0
220
0.0
230
1.0
 70
     8
 71
     3
 72
     9
 73
     5
 74
     0
 42
0.000000001
 43
0.00000001
 40
0.0
 40
0.0
 40
0.0
 40
0.0
 40
0.4998804901172724
 40
1.0
 40
1.0
 40
1.0
 40
1.0
 10
585.5261101787684
 20
-604.543871992705
 30
0.0
 10
585.4719881047901
 20
-604.5515391818384
 30
0.0
 10
585.3637180781574
 20
-604.5668772262009
 30
0.0
 10
585.2543714955049
 20
-604.5679558616301
 30
0.0
 10
585.1996851361813
 20
-604.5684953082524
 30
0.0
  0
LINE
  5
20DAB
330
18
100
AcDbEntity
  8
01
100
AcDbLine
 10
425.0162416153619
 20
-570.8466535940556
 30
0.0
 11
425.0162416153619
 21
-571.321655817371
 31
0.0
  0
ARC
  5
20DAC
330
18
100
AcDbEntity
  8
01
100
AcDbCircle
 10
424.5162416153619
 20
-571.321655817371
 30
0.0
 40
0.5
100
AcDbArc
 50
270.0041190948731
 51
0.0
  0
LINE
  5
20DAD
330
18
100
AcDbEntity
  8
01
100
AcDbLine
 10
575.016241615368
 20
-570.8466535940556
 30
0.0
 11
575.016241615368
 21
-571.321655817371
 31
0.0
  0
ARC
  5
20DAE
330
18
100
AcDbEntity
  8
01
100
AcDbCircle
 10
575.516241615368
 20
-571.321655817371
 30
0.0
 40
0.5
100
AcDbArc
 50
180.0
 51
269.9958809051269
  0
LINE
  5
20DAF
330
18
100
AcDbEntity
  8
01
100
AcDbLine
 10
575.0162445955972
 20
-570.8466535998459
 30
0.0
 11
575.0162445955972
 21
-555.8213255522465
 31
0.0
  0
LINE
  5
21017
330
18
100
AcDbEntity
  8
1DIM
100
AcDbLine
 10
412.5164363435259
 20
-678.3582045153847
 30
0.0
 11
412.5164363435259
 21
-678.3447276320325
 31
0.0
  0
LINE
  5
2104D
330
18
100
AcDbEntity
  8
01
  6
CONTINUOUS
100
AcDbLine
 10
400.7035619073589
 20
-696.9100657784529
 30
0.0
 11
400.9995213204105
 21
-697.2663562678881
 31
0.0
  0
SPLINE
  5
2104E
330
18
100
AcDbEntity
  8
01
  6
CONTINUOUS
100
AcDbSpline
210
0.0
220
0.0
230
1.0
 70
     8
 71
     3
 72
    15
 73
    11
 74
     0
 42
0.000000001
 43
0.00000001
 40
0.0
 40
0.0
 40
0.0
 40
0.0
 40
0.1264125709319853
 40
0.2596101139386991
 40
0.3917757769941563
 40
0.522062997728978
 40
0.6496835863902967
 40
0.7739538129950212
 40
0.8943062814337891
 40
1.0
 40
1.0
 40
1.0
 40
1.0
 10
400.9995213204105
 20
-697.2663562678881
 30
0.0
 10
401.072478341178
 20
-697.3494593999903
 30
0.0
 10
401.2223082222921
 20
-697.5201260784279
 30
0.0
 10
401.4845322081507
 20
-697.7420772308874
 30
0.0
 10
401.7711852929747
 20
-697.9364113937663
 30
0.0
 10
402.0744674967945
 20
-698.0937011793617
 30
0.0
 10
402.3868781630139
 20
-698.2137733759598
 30
0.0
 10
402.7021709899969
 20
-698.2957255870615
 30
0.0
 10
403.0054175757958
 20
-698.3435425580922
 30
0.0
 10
403.2030377017425
 20
-698.3485990631837
 30
0.0
 10
403.3082342843833
 20
-698.3562495493479
 30
0.0
  0
SPLINE
  5
2104F
330
18
100
AcDbEntity
  8
01
  6
CONTINUOUS
100
AcDbSpline
210
0.0
220
0.0
230
1.0
 70
     8
 71
     3
 72
    10
 73
     6
 74
     0
 42
0.000000001
 43
0.00000001
 40
0.0
 40
0.0
 40
0.0
 40
0.0
 40
0.3464058504492775
 40
0.7057771295898778
 40
1.0
 40
1.0
 40
1.0
 40
1.0
 10
400.3684794955929
 20
-696.4083734833785
 30
0.0
 10
400.4024696828774
 20
-696.4696051857904
 30
0.0
 10
400.4717222569453
 20
-696.5943603973783
 30
0.0
 10
400.58539006224
 20
-696.7623528637982
 30
0.0
 10
400.6685999642287
 20
-696.8653068427634
 30
0.0
 10
400.7060578518589
 20
-696.9116527521201
 30
0.0
  0
LINE
  5
21050
330
18
100
AcDbEntity
  8
01
  6
CONTINUOUS
100
AcDbLine
 10
400.01646191413
 20
-648.0328782395609
 30
0.0
 11
400.01646191413
 21
-695.000377663333
 31
0.0
  0
LINE
  5
21051
330
18
100
AcDbEntity
  8
01
  6
CONTINUOUS
100
AcDbLine
 10
403.3082342843833
 20
-698.3562495493479
 30
0.0
 11
500.0162256514383
 21
-698.3562495504368
 31
0.0
  0
SPLINE
  5
21052
330
18
100
AcDbEntity
  8
01
100
AcDbSpline
210
0.0
220
0.0
230
1.0
 70
     8
 71
     3
 72
    41
 73
    37
 74
     0
 42
0.000000001
 43
0.00000001
 40
0.0
 40
0.0
 40
0.0
 40
0.0
 40
0.0167006327059304
 40
0.0393224357982578
 40
0.0607374876929806
 40
0.0808666906813776
 40
0.1226947781822005
 40
0.1572510160311151
 40
0.1845032810856037
 40
0.2045084543190245
 40
0.217317767953956
 40
0.2248364365430652
 40
0.2417285122652407
 40
0.2670370421252836
 40
0.3063512740073032
 40
0.3489010982949176
 40
0.3883175239686992
 40
0.4244616595956262
 40
0.4572823088577291
 40
0.4864607307657702
 40
0.5118000368368125
 40
0.5391399056332848
 40
0.5749099879225148
 40
0.6164838187378434
 40
0.6536748589791813
 40
0.6886467627451479
 40
0.7293876562577053
 40
0.7591251034513027
 40
0.7831349371265361
 40
0.8002009575134141
 40
0.8172708009981223
 40
0.8402554285918298
 40
0.8688540724693387
 40
0.9048904870227661
 40
0.9485577483655856
 40
1.0
 40
1.0
 40
1.0
 40
1.0
 10
414.0971577220638
 20
-682.3109026932307
 30
0.0
 10
414.0752169616741
 20
-682.3089037744242
 30
0.0
 10
414.0235563954558
 20
-682.3041972248086
 30
0.0
 10
413.9445600028254
 20
-682.294494848473
 30
0.0
 10
413.8617616354635
 20
-682.2826443295126
 30
0.0
 10
413.7552505377572
 20
-682.264863449564
 30
0.0
 10
413.6338581912795
 20
-682.2404489039066
 30
0.0
 10
413.5065612944111
 20
-682.2092784477377
 30
0.0
 10
413.4082352027325
 20
-682.1815835270484
 30
0.0
 10
413.3374012860426
 20
-682.1595612925294
 30
0.0
 10
413.2904473590294
 20
-682.1439927501989
 30
0.0
 10
413.2477186040738
 20
-682.1292606599427
 30
0.0
 10
413.1923221010004
 20
-682.1092806421004
 30
0.0
 10
413.1036870813695
 20
-682.0748438353401
 30
0.0
 10
412.9916935948982
 20
-682.0264367495215
 30
0.0
 10
412.8705608339725
 20
-681.9671453444446
 30
0.0
 10
412.7580162288656
 20
-681.9050783927289
 30
0.0
 10
412.6594562178067
 20
-681.8446923052131
 30
0.0
 10
412.5738997892554
 20
-681.7870085757424
 30
0.0
 10
412.5014469380252
 20
-681.7337353627028
 30
0.0
 10
412.437256016448
 20
-681.6828245114363
 30
0.0
 10
412.3722038769828
 20
-681.6273397241596
 30
0.0
 10
412.299637549797
 20
-681.5597270320311
 30
0.0
 10
412.2263343868348
 20
-681.4833517950769
 30
0.0
 10
412.1608461843844
 20
-681.4065728108346
 30
0.0
 10
412.1024132659981
 20
-681.3301878738193
 30
0.0
 10
412.0525719119986
 20
-681.2568497209671
 30
0.0
 10
412.0119982047928
 20
-681.1895724896449
 30
0.0
 10
411.9841712388585
 20
-681.1385350184056
 30
0.0
 10
411.9630964667961
 20
-681.0966039317259
 30
0.0
 10
411.944122481782
 20
-681.0561130197964
 30
0.0
 10
411.9230610919168
 20
-681.0071144458525
 30
0.0
 10
411.8988679560814
 20
-680.9436048207413
 30
0.0
 10
411.8728422475971
 20
-680.8619170693285
 30
0.0
 10
411.8469912694338
 20
-680.7589844729919
 30
0.0
 10
411.8358615258988
 20
-680.6785707888173
 30
0.0
 10
411.8298417382915
 20
-680.6350771271773
 30
0.0
  0
SPLINE
  5
21053
330
18
100
AcDbEntity
  8
01
  6
CONTINUOUS
100
AcDbSpline
210
0.0
220
0.0
230
1.0
 70
     8
 71
     3
 72
    20
 73
    16
 74
     0
 42
0.000000001
 43
0.00000001
 40
0.0
 40
0.0
 40
0.0
 40
0.0
 40
0.095872477618857
 40
0.1793488801791822
 40
0.2498321375715854
 40
0.307124742781513
 40
0.353887689863618
 40
0.4644755513658586
 40
0.5730252416595769
 40
0.6486901439827072
 40
0.7202546094369963
 40
0.7870235399160951
 40
0.8513886186680709
 40
0.9196481904437295
 40
0.9999999999999999
 40
0.9999999999999999
 40
0.9999999999999999
 40
0.9999999999999999
 10
400.619012718745
 20
-646.4866364890859
 30
0.0
 10
400.5795187155728
 20
-646.5352040087414
 30
0.0
 10
400.5120485834608
 20
-646.6188146613415
 30
0.0
 10
400.4288278372472
 20
-646.7433413576796
 30
0.0
 10
400.3644775907661
 20
-646.8514799235024
 30
0.0
 10
400.3161411812333
 20
-646.9422352784327
 30
0.0
 10
400.2623314900098
 20
-647.0524511037854
 30
0.0
 10
400.2034261596577
 20
-647.1909693512898
 30
0.0
 10
400.1503851784938
 20
-647.3433635599442
 30
0.0
 10
400.1131020279412
 20
-647.4705484817202
 30
0.0
 10
400.0859437566957
 20
-647.5779066932791
 30
0.0
 10
400.0638495649321
 20
-647.680185628107
 30
0.0
 10
400.0454325506529
 20
-647.7817626227288
 30
0.0
 10
400.0291820253209
 20
-647.8910138805804
 30
0.0
 10
400.0217238024036
 20
-647.9666609377234
 30
0.0
 10
400.0176912599285
 20
-648.0075620980151
 30
0.0
  0
SPLINE
  5
21054
330
18
100
AcDbEntity
  8
01
  6
CONTINUOUS
100
AcDbSpline
210
0.0
220
0.0
230
1.0
 70
     8
 71
     3
 72
    28
 73
    24
 74
     0
 42
0.000000001
 43
0.00000001
 40
0.0
 40
0.0
 40
0.0
 40
0.0
 40
0.0931084152454125
 40
0.1739456814151605
 40
0.2421049578432134
 40
0.2849519607172092
 40
0.3209985512576118
 40
0.3508577308573642
 40
0.3872788713541367
 40
0.4206954368371843
 40
0.4520680690358542
 40
0.4813634090305361
 40
0.508553364543845
 40
0.5339938685799819
 40
0.5690591549890692
 40
0.6061613252669157
 40
0.6453507478818464
 40
0.6880982166467936
 40
0.7319715334926628
 40
0.7856316025705993
 40
0.8486632903702237
 40
0.9204250114874492
 40
1.0
 40
1.0
 40
1.0
 40
1.0
 10
402.4123749190052
 20
-645.8214173015328
 30
0.0
 10
402.3776493075428
 20
-645.8201073769446
 30
0.0
 10
402.312774718791
 20
-645.817660168231
 30
0.0
 10
402.2258591914043
 20
-645.8124894920797
 30
0.0
 10
402.1538455802903
 20
-645.8091995206606
 30
0.0
 10
402.0924803120089
 20
-645.8079279277165
 30
0.0
 10
402.0400087503907
 20
-645.8083174284022
 30
0.0
 10
401.9815820274455
 20
-645.8103874042199
 30
0.0
 10
401.9047865646381
 20
-645.8162251700626
 30
0.0
 10
401.8277379518923
 20
-645.8257250139469
 30
0.0
 10
401.7562558254295
 20
-645.837446583821
 30
0.0
 10
401.6898532179819
 20
-645.8509571721584
 30
0.0
 10
401.6282070182477
 20
-645.8657810181321
 30
0.0
 10
401.5625874487338
 20
-645.8838398407827
 30
0.0
 10
401.4888658844897
 20
-645.9071310713942
 30
0.0
 10
401.4045555235797
 20
-645.9380062617965
 30
0.0
 10
401.31472993415
 20
-645.975806091738
 30
0.0
 10
401.2205480346579
 20
-646.021222617511
 30
0.0
 10
401.1196046872279
 20
-646.0767479285635
 30
0.0
 10
401.0082159242106
 20
-646.1466577271519
 30
0.0
 10
400.8837639483296
 20
-646.2373873876697
 30
0.0
 10
400.7497248692029
 20
-646.3503875179495
 30
0.0
 10
400.6640577206
 20
-646.4396834312709
 30
0.0
 10
400.619012718745
 20
-646.4866364890859
 30
0.0
  0
LINE
  5
21082
330
18
100
AcDbEntity
  8
01
  6
CONTINUOUS
100
AcDbLine
 10
500.0162398868282
 20
-665.821067237217
 30
0.0
 11
500.0162398868282
 21
-665.8210653745718
 31
0.0
  0
LINE
  5
21083
330
18
100
AcDbEntity
  8
01
100
AcDbLine
 10
408.9746153407772
 20
-681.8353023314066
 30
0.0
 11
408.9584326797207
 21
-680.7627241992541
 31
0.0
  0
LINE
  5
21084
330
18
100
AcDbEntity
  8
01
100
AcDbLine
 10
408.9581644588192
 20
-648.8170178541131
 30
0.0
 11
408.9752411895473
 21
-647.6641770619117
 31
0.0
  0
LINE
  5
21085
330
18
100
AcDbEntity
  8
01
100
AcDbLine
 10
414.0971577220638
 20
-682.3109026932307
 30
0.0
 11
500.0162312205387
 21
-682.3216389818417
 31
0.0
  0
LINE
  5
21086
330
18
100
AcDbEntity
  8
01
  6
CONTINUOUS
100
AcDbLine
 10
400.7053649478634
 20
-696.9124536895342
 30
0.0
 11
400.7066389971454
 21
-696.9117309832163
 31
0.0
  0
LINE
  5
21087
330
18
100
AcDbEntity
  8
01
  6
CONTINUOUS
100
AcDbLine
 10
400.7060205989559
 20
-696.9116825544425
 30
0.0
 11
400.7053649478634
 21
-696.9124536895342
 31
0.0
  0
LINE
  5
21088
330
18
100
AcDbEntity
  8
01
100
AcDbLine
 10
412.656006818362
 20
-683.2712415539809
 30
0.0
 11
411.0100394540508
 21
-683.2712192022391
 31
0.0
  0
SPLINE
  5
21089
330
18
100
AcDbEntity
  8
01
  6
CONTINUOUS
100
AcDbSpline
210
0.0
220
0.0
230
1.0
 70
     8
 71
     3
 72
    12
 73
     8
 74
     0
 42
0.000000001
 43
0.00000001
 40
0.0
 40
0.0
 40
0.0
 40
0.0
 40
0.2182681747199019
 40
0.4450494263848534
 40
0.6793837126161898
 40
0.8594132566593995
 40
1.0
 40
1.0
 40
1.0
 40
1.0
 10
400.0164693647106
 20
-695.0011078202315
 30
0.0
 10
400.0198278599457
 20
-695.107710611011
 30
0.0
 10
400.0266758412412
 20
-695.3250740033075
 30
0.0
 10
400.0822730639032
 20
-695.6531535420124
 30
0.0
 10
400.1676741440076
 20
-695.9547134082588
 30
0.0
 10
400.2655176500847
 20
-696.2080111365838
 30
0.0
 10
400.3380418719597
 20
-696.3468212916932
 30
0.0
 10
400.3698429518421
 20
-696.4076880299635
 30
0.0
  0
SPLINE
  5
2108A
330
18
100
AcDbEntity
  8
01
100
AcDbSpline
210
0.0
220
0.0
230
1.0
 70
     8
 71
     3
 72
    16
 73
    12
 74
     0
 42
0.000000001
 43
0.00000001
 40
0.0
 40
0.0
 40
0.0
 40
0.0
 40
0.2500000000000045
 40
0.2500000000000045
 40
0.3750000000000068
 40
0.3750000000000068
 40
0.500000000000009
 40
0.500000000000009
 40
0.7500000000000044
 40
0.7500000000000044
 40
1.0
 40
1.0
 40
1.0
 40
1.0
 10
408.9739624172313
 20
-681.8348225581158
 30
0.0
 10
408.9785580305605
 20
-682.025972853857
 30
0.0
 10
409.015237965334
 20
-682.2177241300434
 30
0.0
 10
409.1474404002121
 20
-682.4894944594823
 30
0.0
 10
409.2039128480325
 20
-682.5770230963931
 30
0.0
 10
409.3446267018456
 20
-682.7411101593668
 30
0.0
 10
409.4287671556209
 20
-682.81764672242
 30
0.0
 10
409.7154044193509
 20
-683.0210782194124
 30
0.0
 10
409.9532342536246
 20
-683.1210525987062
 30
0.0
 10
410.4663051002691
 20
-683.2454227257185
 30
0.0
 10
410.7389485006191
 20
-683.2709406864867
 30
0.0
 10
411.0100368730798
 20
-683.271194426638
 30
0.0
  0
SPLINE
  5
2108E
330
18
100
AcDbEntity
  8
01
  6
CONTINUOUS
100
AcDbSpline
210
0.0
220
0.0
230
1.0
 70
     8
 71
     3
 72
     8
 73
     4
 74
     0
 42
0.000000001
 43
0.00000001
 40
0.0
 40
0.0
 40
0.0
 40
0.0
 40
1.0
 40
1.0
 40
1.0
 40
1.0
 10
412.2166484500137
 20
-665.9091200613566
 30
0.0
 10
412.2164222363871
 20
-666.0656480948596
 30
0.0
 10
412.2162109433327
 20
-666.372125513577
 30
0.0
 10
412.2162109433278
 20
-666.7226333031429
 30
0.0
  0
LINE
  5
2108F
330
18
100
AcDbEntity
  8
01
  6
CONTINUOUS
100
AcDbLine
 10
412.2162139468868
 20
-666.7226340555735
 30
0.0
 11
412.2162139468868
 21
-681.4700338923521
 31
0.0
  0
SPLINE
  5
21093
330
18
100
AcDbEntity
  8
01
100
AcDbSpline
210
0.0
220
0.0
230
1.0
 70
     8
 71
     3
 72
    20
 73
    16
 74
     0
 42
0.000000001
 43
0.00000001
 40
0.0
 40
0.0
 40
0.0
 40
0.0
 40
0.1250000000000002
 40
0.1250000000000002
 40
0.2500000000000004
 40
0.2500000000000004
 40
0.3750000000000006
 40
0.3750000000000006
 40
0.5000000000000008
 40
0.5000000000000008
 40
0.6250000000000002
 40
0.6250000000000002
 40
0.7499999999999994
 40
0.7499999999999994
 40
1.0
 40
1.0
 40
1.0
 40
1.0
 10
411.0106748562945
 20
-646.199992268047
 30
0.0
 10
410.8769972152119
 20
-646.2012854872199
 30
0.0
 10
410.7430663481317
 20
-646.2053501334226
 30
0.0
 10
410.4783655942571
 20
-646.2331967805678
 30
0.0
 10
410.3477419249838
 20
-646.2551635197703
 30
0.0
 10
410.0946029699098
 20
-646.3164923989218
 30
0.0
 10
409.9717300833059
 20
-646.356527193366
 30
0.0
 10
409.7429747988926
 20
-646.4547604204565
 30
0.0
 10
409.6376541006995
 20
-646.5123732810478
 30
0.0
 10
409.4451641050933
 20
-646.6484694610474
 30
0.0
 10
409.3575100658364
 20
-646.7274870671856
 30
0.0
 10
409.2116812825631
 20
-646.896734013516
 30
0.0
 10
409.153852444559
 20
-646.9868005922528
 30
0.0
 10
409.0175271641878
 20
-647.267374309336
 30
0.0
 10
408.9807102393097
 20
-647.4658709185946
 30
0.0
 10
408.9746152554602
 20
-647.6637161900721
 30
0.0
  0
LINE
  5
21094
330
18
100
AcDbEntity
  8
01
100
AcDbLine
 10
411.0106653028209
 20
-646.1991312731207
 30
0.0
 11
412.4579927378376
 21
-646.1991312731207
 31
0.0
  0
LINE
  5
21097
330
18
100
AcDbEntity
  8
01
  6
CONTINUOUS
100
AcDbLine
 10
425.016236906596
 20
-647.1978235691004
 30
0.0
 11
425.016236906596
 21
-649.0739853521027
 31
0.0
  0
SPLINE
  5
21099
330
18
100
AcDbEntity
  8
01
  6
CONTINUOUS
100
AcDbSpline
210
0.0
220
0.0
230
1.0
 70
    24
 71
     3
 72
     8
 73
     4
 74
     0
 42
0.000000001
 43
0.00000001
 40
0.0
 40
0.0
 40
0.0
 40
0.0
 40
1.0
 40
1.0
 40
1.0
 40
1.0
 10
425.0162398868264
 20
-649.2689030731307
 30
0.0
 10
425.0162398868264
 20
-649.207128333826
 30
0.0
 10
425.0162398868264
 20
-649.141595659574
 30
0.0
 10
425.0162398868264
 20
-649.0739851945686
 30
0.0
  0
SPLINE
  5
2109A
330
18
100
AcDbEntity
  8
01
  6
CONTINUOUS
100
AcDbSpline
210
0.0
220
0.0
230
1.0
 70
    24
 71
     3
 72
    16
 73
    12
 74
     0
 42
0.000000001
 43
0.00000001
 40
0.0
 40
0.0
 40
0.0
 40
0.0
 40
0.0827075141424949
 40
0.1658791433819902
 40
0.2508542980439066
 40
0.3746821301469214
 40
0.500269582135222
 40
0.6229005496601013
 40
0.7494927254076371
 40
0.8745450670442719
 40
1.0
 40
1.0
 40
1.0
 40
1.0
 10
425.0162398868252
 20
-646.6984531221487
 30
0.0
 10
425.0162398868252
 20
-646.7002754990853
 30
0.0
 10
425.0162398868252
 20
-646.7039304792681
 30
0.0
 10
425.0162398868252
 20
-646.7197627443434
 30
0.0
 10
425.0162398868251
 20
-646.7461946874078
 30
0.0
 10
425.0162398868252
 20
-646.7886801737577
 30
0.0
 10
425.0162398868251
 20
-646.8507608918633
 30
0.0
 10
425.0162398868252
 20
-646.9257450039595
 30
0.0
 10
425.0162398868251
 20
-647.0105988232272
 30
0.0
 10
425.0162398868252
 20
-647.1024974834222
 30
0.0
 10
425.0162398868252
 20
-647.1660141593047
 30
0.0
 10
425.0162398868252
 20
-647.1978235362074
 30
0.0
  0
SPLINE
  5
2109B
330
18
100
AcDbEntity
  8
01
  6
CONTINUOUS
100
AcDbSpline
210
0.0
220
0.0
230
1.0
 70
    24
 71
     3
 72
     8
 73
     4
 74
     0
 42
0.000000001
 43
0.00000001
 40
0.0
 40
0.0
 40
0.0
 40
0.0
 40
1.0
 40
1.0
 40
1.0
 40
1.0
 10
425.0162398868264
 20
-665.0602349015368
 30
0.0
 10
425.0162398868264
 20
-659.9251884182368
 30
0.0
 10
425.0162398868264
 20
-654.6530007836354
 30
0.0
 10
425.0162398868264
 20
-649.2689025309905
 30
0.0
  0
LINE
  5
2109D
330
18
100
AcDbEntity
  8
01
  6
CONTINUOUS
100
AcDbLine
 10
402.4123749190052
 20
-645.8214173015328
 30
0.0
 11
424.5162433438976
 21
-645.8213303512817
 31
0.0
  0
ARC
  5
2109E
330
18
100
AcDbEntity
  8
01
  6
CONTINUOUS
100
AcDbCircle
 10
424.5162398868263
 20
-646.3213303512512
 30
0.0
 40
0.5000000000002274
100
AcDbArc
 50
0.0000000077123108
 51
89.99999999972641
  0
SPLINE
  5
2109F
330
18
100
AcDbEntity
  8
01
  6
CONTINUOUS
100
AcDbSpline
210
0.0
220
0.0
230
1.0
 70
    24
 71
     3
 72
     8
 73
     4
 74
     0
 42
0.000000001
 43
0.00000001
 40
0.0
 40
0.0
 40
0.0
 40
0.0
 40
1.0
 40
1.0
 40
1.0
 40
1.0
 10
425.0162398868264
 20
-646.6984531221486
 30
0.0
 10
425.0162398868264
 20
-646.4470896127907
 30
0.0
 10
425.0162398868264
 20
-646.3213292461396
 30
0.0
 10
425.0162398868264
 20
-646.3213303511839
 30
0.0
  0
SPLINE
  5
210A0
330
18
100
AcDbEntity
  8
01
  6
CONTINUOUS
100
AcDbSpline
210
0.0
220
0.0
230
1.0
 70
     8
 71
     3
 72
    11
 73
     7
 74
     0
 42
0.000000001
 43
0.00000001
 40
0.0
 40
0.0
 40
0.0
 40
0.0
 40
0.3634939852257192
 40
0.719422736195962
 40
0.8593956938568387
 40
1.0
 40
1.0
 40
1.0
 40
1.0
 10
425.0188371592243
 20
-649.3554131061919
 30
0.0
 10
425.0181932644635
 20
-649.3512937811993
 30
0.0
 10
425.0169188760295
 20
-649.3431408648428
 30
0.0
 10
425.0164865957508
 20
-649.3333004782862
 30
0.0
 10
425.0162604906189
 20
-649.3259678693905
 30
0.0
 10
425.0162447797211
 20
-649.3228002295643
 30
0.0
 10
425.016236906596
 20
-649.3212128457762
 30
0.0
  0
LINE
  5
210A1
330
18
100
AcDbEntity
  8
01
  6
CONTINUOUS
100
AcDbLine
 10
424.5162433438976
 20
-665.821329870183
 30
0.0
 11
415.2179932647426
 21
-665.821329870183
 31
0.0
  0
SPLINE
  5
210A2
330
18
100
AcDbEntity
  8
01
100
AcDbSpline
210
0.0
220
0.0
230
1.0
 70
     8
 71
     3
 72
    10
 73
     6
 74
     0
 42
0.000000001
 43
0.00000001
 40
0.0
 40
0.0
 40
0.0
 40
0.0
 40
0.5
 40
0.5
 40
1.0
 40
1.0
 40
1.0
 40
1.0
 10
425.0162398868264
 20
-665.3213303172055
 30
0.0
 10
425.0162398868262
 20
-665.4522300111048
 30
0.0
 10
424.962353338631
 20
-665.5823236465865
 30
0.0
 10
424.7772332162083
 20
-665.7674437690091
 30
0.0
 10
424.6471395807265
 20
-665.8213303172042
 30
0.0
 10
424.5162398868273
 20
-665.8213303172045
 30
0.0
  0
SPLINE
  5
210A3
330
18
100
AcDbEntity
  8
01
  6
CONTINUOUS
100
AcDbSpline
210
0.0
220
0.0
230
1.0
 70
    24
 71
     3
 72
    10
 73
     6
 74
     0
 42
0.000000001
 43
0.00000001
 40
0.0
 40
0.0
 40
0.0
 40
0.0
 40
0.5
 40
0.5
 40
1.0
 40
1.0
 40
1.0
 40
1.0
 10
425.0162398868264
 20
-665.3213303172054
 30
0.0
 10
425.0162398868277
 20
-665.3213303172165
 30
0.0
 10
425.0162398868264
 20
-665.3011278590254
 30
0.0
 10
425.0162398868264
 20
-665.2106333987153
 30
0.0
 10
425.0162398868264
 20
-665.1403773007826
 30
0.0
 10
425.0162398868264
 20
-665.0602349014875
 30
0.0
  0
LINE
  5
210A5
330
18
100
AcDbEntity
  8
01
  6
CONTINUOUS
100
AcDbLine
 10
425.016236906596
 20
-656.2944680386372
 30
0.0
 11
425.2149811697057
 21
-656.2944672612387
 31
0.0
  0
LINE
  5
210A8
330
18
100
AcDbEntity
  8
01
  6
CONTINUOUS
100
AcDbLine
 10
465.5162407510956
 20
-665.8210653745718
 30
0.0
 11
440.0162412279327
 21
-665.8210653745718
 31
0.0
  0
LINE
  5
210A9
330
18
100
AcDbEntity
  8
01
  6
CONTINUOUS
100
AcDbLine
 10
500.0162398857038
 20
-665.8210653745718
 30
0.0
 11
465.5162407510956
 21
-665.8210653745718
 31
0.0
  0
LINE
  5
210AA
330
18
100
AcDbEntity
  8
01
  6
CONTINUOUS
100
AcDbLine
 10
500.0162398868282
 20
-665.821067237217
 30
0.0
 11
440.0162412279327
 21
-665.8210653745718
 31
0.0
  0
LINE
  5
210E7
330
18
100
AcDbEntity
  8
01
100
AcDbLine
 10
408.9584326797207
 20
-680.7627241992541
 30
0.0
 11
408.9564880781849
 21
-680.6335683846064
 31
0.0
  0
LINE
  5
210EB
330
18
100
AcDbEntity
  8
01
100
AcDbLine
 10
408.9565625839908
 20
-648.9254400999434
 30
0.0
 11
408.9581644588192
 21
-648.8170178541131
 31
0.0
  0
LINE
  5
210EC
330
18
100
AcDbEntity
  8
01
100
AcDbLine
 10
408.9564880781849
 20
-680.6335683846064
 30
0.0
 11
408.9565625839908
 21
-648.9254400999434
 31
0.0
  0
LINE
  5
210EE
330
18
100
AcDbEntity
  8
01
100
AcDbLine
 10
500.0162308906449
 20
-683.2714725238916
 30
0.0
 11
412.656006818362
 21
-683.2712415539809
 31
0.0
  0
LINE
  5
210FF
330
18
100
AcDbEntity
  8
01
100
AcDbLine
 10
411.8215864949901
 20
-680.4741892897673
 30
0.0
 11
411.8298417382915
 21
-680.6350771271773
 31
0.0
  0
LINE
  5
21102
330
18
100
AcDbEntity
  8
01
100
AcDbLine
 10
411.8215566926677
 20
-651.8976271086522
 30
0.0
 11
411.8215864949901
 21
-680.4741892897673
 31
0.0
  0
SPLINE
  5
21103
330
18
100
AcDbEntity
  8
01
100
AcDbSpline
210
0.0
220
0.0
230
1.0
 70
     8
 71
     3
 72
    21
 73
    17
 74
     0
 42
0.000000001
 43
0.00000001
 40
0.0
 40
0.0
 40
0.0
 40
0.0
 40
0.0409637387866945
 40
0.0815400929166925
 40
0.1216202445682429
 40
0.16110081573848
 40
0.1998852720646824
 40
0.2378851374900637
 40
0.3621982121156856
 40
0.4935401397445938
 40
0.6067510414137383
 40
0.7526986083612678
 40
0.8347348413164005
 40
0.8787918237536549
 40
0.943453169400497
 40
1.0
 40
1.0
 40
1.0
 40
1.0
 10
414.6027808525445
 20
-649.4734707434816
 30
0.0
 10
414.5451055184805
 20
-649.4830217239966
 30
0.0
 10
414.4303002727225
 20
-649.5020333636005
 30
0.0
 10
414.2607216488901
 20
-649.5377928825408
 30
0.0
 10
414.0951544538922
 20
-649.5784469817866
 30
0.0
 10
413.9345928994735
 20
-649.6242319924793
 30
0.0
 10
413.7798161182319
 20
-649.6746817969861
 30
0.0
 10
413.518125299148
 20
-649.7714298080181
 30
0.0
 10
413.1563192787952
 20
-649.942265090262
 30
0.0
 10
412.7570884189632
 20
-650.2064353926048
 30
0.0
 10
412.4016634159774
 20
-650.5283498903822
 30
0.0
 10
412.1573788125073
 20
-650.8360569721538
 30
0.0
 10
412.0140585904616
 20
-651.092908248005
 30
0.0
 10
411.9342953026695
 20
-651.2758010027021
 30
0.0
 10
411.8791639743346
 20
-651.434540803099
 30
0.0
 10
411.8549423037166
 20
-651.5499739111206
 30
0.0
 10
411.8436422516271
 20
-651.603826519146
 30
0.0
  0
SPLINE
  5
21104
330
18
100
AcDbEntity
  8
01
100
AcDbSpline
210
0.0
220
0.0
230
1.0
 70
     8
 71
     3
 72
     9
 73
     5
 74
     0
 42
0.000000001
 43
0.00000001
 40
0.0
 40
0.0
 40
0.0
 40
0.0
 40
0.5107321812041
 40
1.0
 40
1.0
 40
1.0
 40
1.0
 10
414.7553497095579
 20
-649.4619651099097
 30
0.0
 10
414.7292357744474
 20
-649.4621055090356
 30
0.0
 10
414.6781053854262
 20
-649.4623804067828
 30
0.0
 10
414.627527153673
 20
-649.4698272451276
 30
0.0
 10
414.6027808525445
 20
-649.4734707434816
 30
0.0
  0
SPLINE
  5
21106
330
18
100
AcDbEntity
  8
01
100
AcDbSpline
210
0.0
220
0.0
230
1.0
 70
     8
 71
     3
 72
    10
 73
     6
 74
     0
 42
0.000000001
 43
0.00000001
 40
0.0
 40
0.0
 40
0.0
 40
0.0
 40
0.3224427117481629
 40
0.6555723355067381
 40
1.0
 40
1.0
 40
1.0
 40
1.0
 10
411.8436422516271
 20
-651.603826519146
 30
0.0
 10
411.8390384593732
 20
-651.6333195705106
 30
0.0
 10
411.8296782886199
 20
-651.6932831791141
 30
0.0
 10
411.8223707985518
 20
-651.7915916658114
 30
0.0
 10
411.8218321885785
 20
-651.861891066671
 30
0.0
 10
411.8215583930215
 20
-651.8976268765769
 30
0.0
  0
LINE
  5
2110F
330
18
100
AcDbEntity
  8
01
  6
PHANTOM
100
AcDbLine
 10
412.4579927378376
 20
-646.1991312731207
 30
0.0
 11
412.5521755271633
 21
-646.1991312731207
 31
0.0
  0
LINE
  5
21110
330
18
100
AcDbEntity
  8
01
100
AcDbLine
 10
412.5521755271633
 20
-646.1991312731207
 30
0.0
 11
424.5162433438976
 21
-646.1990827279315
 31
0.0
  0
LINE
  5
21113
330
18
100
AcDbEntity
  8
01
100
AcDbLine
 10
424.5162433438976
 20
-649.4638202180304
 30
0.0
 11
414.7553494625766
 21
-649.4620150820501
 31
0.0
  0
SPLINE
  5
21114
330
18
100
AcDbEntity
  8
01
100
AcDbSpline
210
0.0
220
0.0
230
1.0
 70
     8
 71
     3
 72
    14
 73
    10
 74
     0
 42
0.000000001
 43
0.00000001
 40
0.0
 40
0.0
 40
0.0
 40
0.0
 40
0.25
 40
0.25
 40
0.5
 40
0.5
 40
0.75
 40
0.75
 40
1.0
 40
1.0
 40
1.0
 40
1.0
 10
425.0162398868264
 20
-649.2689025309905
 30
0.0
 10
425.0162398868264
 20
-649.291873790145
 30
0.0
 10
425.0055005174196
 20
-649.3166569055892
 30
0.0
 10
424.9567675572954
 20
-649.3646444292328
 30
0.0
 10
424.9186088138885
 20
-649.3877000717441
 30
0.0
 10
424.8209777409505
 20
-649.4257601000904
 30
0.0
 10
424.7618357167991
 20
-649.4406357212633
 30
0.0
 10
424.638738766415
 20
-649.4596335442711
 30
0.0
 10
424.5751654519248
 20
-649.4638201284367
 30
0.0
 10
424.5162398868259
 20
-649.4638201284367
 30
0.0
  0
SPLINE
  5
21115
330
18
100
AcDbEntity
  8
01
100
AcDbSpline
210
0.0
220
0.0
230
1.0
 70
     8
 71
     3
 72
    10
 73
     6
 74
     0
 42
0.000000001
 43
0.00000001
 40
0.0
 40
0.0
 40
0.0
 40
0.0
 40
0.5
 40
0.5
 40
1.0
 40
1.0
 40
1.0
 40
1.0
 10
424.5162398868292
 20
-646.1990827196802
 30
0.0
 10
424.6471395817988
 20
-646.1990827177594
 30
0.0
 10
424.7772332183179
 20
-646.2529014124132
 30
0.0
 10
424.9623533410648
 20
-646.4377884352598
 30
0.0
 10
425.0162398885078
 20
-646.5677182600348
 30
0.0
 10
425.0162398868264
 20
-646.6984531276034
 30
0.0
  0
LINE
  5
2111F
330
18
100
AcDbEntity
  8
01
  6
PHANTOM
100
AcDbLine
 10
456.6516032868107
 20
-648.3212958024033
 30
0.0
 11
456.6515734844883
 21
-648.321625257764
 31
0.0
  0
LINE
  5
21124
330
18
100
AcDbEntity
  8
01
100
AcDbLine
 10
425.0162398868264
 20
-663.271333270628
 30
0.0
 11
425.2149811697057
 21
-663.271333270628
 31
0.0
  0
SPLINE
  5
21137
330
18
100
AcDbEntity
  8
01
  6
CONTINUOUS
100
AcDbSpline
210
0.0
220
0.0
230
1.0
 70
     8
 71
     3
 72
    20
 73
    16
 74
     0
 42
0.000000001
 43
0.00000001
 40
0.0
 40
0.0
 40
0.0
 40
0.0
 40
0.1506267930224947
 40
0.287431570938564
 40
0.4033509678675622
 40
0.4985387313164439
 40
0.5734389724430508
 40
0.6286433513460374
 40
0.6661896976801497
 40
0.7004205824623759
 40
0.7347262954340987
 40
0.7702321778844599
 40
0.8265477524792493
 40
0.9032909501686345
 40
1.0
 40
1.0
 40
1.0
 40
1.0
 10
413.2411674873867
 20
-665.8213214605878
 30
0.0
 10
413.2128984008381
 20
-665.819531364345
 30
0.0
 10
413.0888617855097
 20
-665.820313991268
 30
0.0
 10
412.9239664772357
 20
-665.8250426511167
 30
0.0
 10
412.7872660668046
 20
-665.8315321213896
 30
0.0
 10
412.6796413378194
 20
-665.8389368506812
 30
0.0
 10
412.5983435272691
 20
-665.8461683193426
 30
0.0
 10
412.5402018509301
 20
-665.8523517256838
 30
0.0
 10
412.4984094163079
 20
-665.8573794020843
 30
0.0
 10
412.4663034785947
 20
-665.8616277472851
 30
0.0
 10
412.4376476463059
 20
-665.865760978262
 30
0.0
 10
412.4055439609177
 20
-665.8707719549559
 30
0.0
 10
412.3643394633132
 20
-665.8778816376218
 30
0.0
 10
412.3118148913908
 20
-665.8881969146446
 30
0.0
 10
412.2769986655384
 20
-665.896844572628
 30
0.0
 10
412.2575867284258
 20
-665.90166611169
 30
0.0
  0
SPLINE
  5
21138
330
18
100
AcDbEntity
  8
01
  6
CONTINUOUS
100
AcDbSpline
210
0.0
220
0.0
230
1.0
 70
    24
 71
     3
 72
    16
 73
    12
 74
     0
 42
0.000000001
 43
0.00000001
 40
0.0
 40
0.0
 40
0.0
 40
0.0
 40
0.0847883262233465
 40
0.1688658527668589
 40
0.252411353665719
 40
0.335607032736526
 40
0.4186373967999821
 40
0.501688054484395
 40
0.6685562159266465
 40
0.8341234116498085
 40
1.0
 40
1.0
 40
1.0
 40
1.0
 10
413.2411674873867
 20
-665.8213214605878
 30
0.0
 10
413.2912550341653
 20
-665.8213214656998
 30
0.0
 10
413.3910102325103
 20
-665.8213214758813
 30
0.0
 10
413.545334359973
 20
-665.8213214916323
 30
0.0
 10
413.7021571542012
 20
-665.8213215076382
 30
0.0
 10
413.8618614403432
 20
-665.8213215239382
 30
0.0
 10
414.0243491646268
 20
-665.8213215405224
 30
0.0
 10
414.2450414830149
 20
-665.8213215630471
 30
0.0
 10
414.526585436207
 20
-665.8213215917826
 30
0.0
 10
414.8709479010641
 20
-665.8213216269297
 30
0.0
 10
415.1022460706615
 20
-665.8213216505369
 30
0.0
 10
415.2180031103409
 20
-665.8213216623516
 30
0.0
  0
LINE
  5
21139
330
18
100
AcDbEntity
  8
01
  6
CONTINUOUS
100
AcDbLine
 10
412.2166484500137
 20
-665.9091200613566
 30
0.0
 11
412.2576638961997
 21
-665.9016564422436
 31
0.0
  0
LINE
  5
2120F
330
18
100
AcDbEntity
  8
1DIM
100
AcDbLine
 10
587.5160434301305
 20
-678.3582045153847
 30
0.0
 11
587.5160434301305
 21
-678.3447276320325
 31
0.0
  0
LINE
  5
21210
330
18
100
AcDbEntity
  8
01
  6
CONTINUOUS
100
AcDbLine
 10
599.3289178662975
 20
-696.9100657784529
 30
0.0
 11
599.0329584532459
 21
-697.2663562678881
 31
0.0
  0
SPLINE
  5
21211
330
18
100
AcDbEntity
  8
01
  6
CONTINUOUS
100
AcDbSpline
210
0.0
220
0.0
230
1.0
 70
     8
 71
     3
 72
    15
 73
    11
 74
     0
 42
0.000000001
 43
0.00000001
 40
0.0
 40
0.0
 40
0.0
 40
0.0
 40
0.1264125709319853
 40
0.2596101139386991
 40
0.3917757769941563
 40
0.522062997728978
 40
0.6496835863902967
 40
0.7739538129950212
 40
0.8943062814337891
 40
1.0
 40
1.0
 40
1.0
 40
1.0
 10
599.0329584532459
 20
-697.2663562678881
 30
0.0
 10
598.9600014324784
 20
-697.3494593999903
 30
0.0
 10
598.8101715513643
 20
-697.5201260784279
 30
0.0
 10
598.5479475655058
 20
-697.7420772308874
 30
0.0
 10
598.2612944806817
 20
-697.9364113937663
 30
0.0
 10
597.958012276862
 20
-698.0937011793617
 30
0.0
 10
597.6456016106425
 20
-698.2137733759598
 30
0.0
 10
597.3303087836595
 20
-698.2957255870615
 30
0.0
 10
597.0270621978606
 20
-698.3435425580922
 30
0.0
 10
596.829442071914
 20
-698.3485990631837
 30
0.0
 10
596.7242454892731
 20
-698.3562495493479
 30
0.0
  0
SPLINE
  5
21212
330
18
100
AcDbEntity
  8
01
  6
CONTINUOUS
100
AcDbSpline
210
0.0
220
0.0
230
1.0
 70
     8
 71
     3
 72
    10
 73
     6
 74
     0
 42
0.000000001
 43
0.00000001
 40
0.0
 40
0.0
 40
0.0
 40
0.0
 40
0.3464058504492775
 40
0.7057771295898778
 40
1.0
 40
1.0
 40
1.0
 40
1.0
 10
599.6640002780636
 20
-696.4083734833785
 30
0.0
 10
599.630010090779
 20
-696.4696051857904
 30
0.0
 10
599.5607575167111
 20
-696.5943603973783
 30
0.0
 10
599.4470897114164
 20
-696.7623528637982
 30
0.0
 10
599.3638798094277
 20
-696.8653068427634
 30
0.0
 10
599.3264219217975
 20
-696.9116527521201
 30
0.0
  0
LINE
  5
21213
330
18
100
AcDbEntity
  8
01
  6
CONTINUOUS
100
AcDbLine
 10
600.0160178595264
 20
-648.0328782395609
 30
0.0
 11
600.0160178595264
 21
-695.000377663333
 31
0.0
  0
LINE
  5
21214
330
18
100
AcDbEntity
  8
01
  6
CONTINUOUS
100
AcDbLine
 10
596.7242454892731
 20
-698.3562495493479
 30
0.0
 11
500.0162541222181
 21
-698.3562495504368
 31
0.0
  0
SPLINE
  5
21215
330
18
100
AcDbEntity
  8
01
100
AcDbSpline
210
0.0
220
0.0
230
1.0
 70
     8
 71
     3
 72
    41
 73
    37
 74
     0
 42
0.000000001
 43
0.00000001
 40
0.0
 40
0.0
 40
0.0
 40
0.0
 40
0.0167006327059304
 40
0.0393224357982578
 40
0.0607374876929806
 40
0.0808666906813776
 40
0.1226947781822005
 40
0.1572510160311151
 40
0.1845032810856037
 40
0.2045084543190245
 40
0.217317767953956
 40
0.2248364365430652
 40
0.2417285122652407
 40
0.2670370421252836
 40
0.3063512740073032
 40
0.3489010982949176
 40
0.3883175239686992
 40
0.4244616595956262
 40
0.4572823088577291
 40
0.4864607307657702
 40
0.5118000368368125
 40
0.5391399056332848
 40
0.5749099879225148
 40
0.6164838187378434
 40
0.6536748589791813
 40
0.6886467627451479
 40
0.7293876562577053
 40
0.7591251034513027
 40
0.7831349371265361
 40
0.8002009575134141
 40
0.8172708009981223
 40
0.8402554285918298
 40
0.8688540724693387
 40
0.9048904870227661
 40
0.9485577483655856
 40
1.0
 40
1.0
 40
1.0
 40
1.0
 10
585.9353220515926
 20
-682.3109026932307
 30
0.0
 10
585.9572628119823
 20
-682.3089037744242
 30
0.0
 10
586.0089233782006
 20
-682.3041972248086
 30
0.0
 10
586.087919770831
 20
-682.294494848473
 30
0.0
 10
586.1707181381929
 20
-682.2826443295126
 30
0.0
 10
586.2772292358992
 20
-682.264863449564
 30
0.0
 10
586.3986215823769
 20
-682.2404489039066
 30
0.0
 10
586.5259184792453
 20
-682.2092784477377
 30
0.0
 10
586.6242445709239
 20
-682.1815835270484
 30
0.0
 10
586.6950784876138
 20
-682.1595612925294
 30
0.0
 10
586.742032414627
 20
-682.1439927501989
 30
0.0
 10
586.7847611695826
 20
-682.1292606599427
 30
0.0
 10
586.840157672656
 20
-682.1092806421004
 30
0.0
 10
586.928792692287
 20
-682.0748438353401
 30
0.0
 10
587.0407861787583
 20
-682.0264367495215
 30
0.0
 10
587.1619189396839
 20
-681.9671453444446
 30
0.0
 10
587.2744635447908
 20
-681.9050783927289
 30
0.0
 10
587.3730235558497
 20
-681.8446923052131
 30
0.0
 10
587.458579984401
 20
-681.7870085757424
 30
0.0
 10
587.5310328356312
 20
-681.7337353627028
 30
0.0
 10
587.5952237572084
 20
-681.6828245114363
 30
0.0
 10
587.6602758966736
 20
-681.6273397241596
 30
0.0
 10
587.7328422238594
 20
-681.5597270320311
 30
0.0
 10
587.8061453868216
 20
-681.4833517950769
 30
0.0
 10
587.871633589272
 20
-681.4065728108346
 30
0.0
 10
587.9300665076584
 20
-681.3301878738193
 30
0.0
 10
587.9799078616578
 20
-681.2568497209671
 30
0.0
 10
588.0204815688636
 20
-681.1895724896449
 30
0.0
 10
588.0483085347979
 20
-681.1385350184056
 30
0.0
 10
588.0693833068603
 20
-681.0966039317259
 30
0.0
 10
588.0883572918744
 20
-681.0561130197964
 30
0.0
 10
588.1094186817396
 20
-681.0071144458525
 30
0.0
 10
588.133611817575
 20
-680.9436048207413
 30
0.0
 10
588.1596375260593
 20
-680.8619170693285
 30
0.0
 10
588.1854885042226
 20
-680.7589844729919
 30
0.0
 10
588.1966182477576
 20
-680.6785707888173
 30
0.0
 10
588.2026380353649
 20
-680.6350771271773
 30
0.0
  0
SPLINE
  5
21216
330
18
100
AcDbEntity
  8
01
  6
CONTINUOUS
100
AcDbSpline
210
0.0
220
0.0
230
1.0
 70
     8
 71
     3
 72
    20
 73
    16
 74
     0
 42
0.000000001
 43
0.00000001
 40
0.0
 40
0.0
 40
0.0
 40
0.0
 40
0.095872477618857
 40
0.1793488801791822
 40
0.2498321375715854
 40
0.307124742781513
 40
0.353887689863618
 40
0.4644755513658586
 40
0.5730252416595769
 40
0.6486901439827072
 40
0.7202546094369963
 40
0.7870235399160951
 40
0.8513886186680709
 40
0.9196481904437295
 40
0.9999999999999999
 40
0.9999999999999999
 40
0.9999999999999999
 40
0.9999999999999999
 10
599.4134670549114
 20
-646.4866364890859
 30
0.0
 10
599.4529610580836
 20
-646.5352040087414
 30
0.0
 10
599.5204311901956
 20
-646.6188146613415
 30
0.0
 10
599.6036519364092
 20
-646.7433413576796
 30
0.0
 10
599.6680021828903
 20
-646.8514799235024
 30
0.0
 10
599.7163385924231
 20
-646.9422352784327
 30
0.0
 10
599.7701482836466
 20
-647.0524511037854
 30
0.0
 10
599.8290536139987
 20
-647.1909693512898
 30
0.0
 10
599.8820945951626
 20
-647.3433635599442
 30
0.0
 10
599.9193777457152
 20
-647.4705484817202
 30
0.0
 10
599.9465360169607
 20
-647.5779066932791
 30
0.0
 10
599.9686302087243
 20
-647.680185628107
 30
0.0
 10
599.9870472230035
 20
-647.7817626227288
 30
0.0
 10
600.0032977483355
 20
-647.8910138805804
 30
0.0
 10
600.0107559712528
 20
-647.9666609377234
 30
0.0
 10
600.0147885137279
 20
-648.0075620980151
 30
0.0
  0
SPLINE
  5
21217
330
18
100
AcDbEntity
  8
01
  6
CONTINUOUS
100
AcDbSpline
210
0.0
220
0.0
230
1.0
 70
     8
 71
     3
 72
    28
 73
    24
 74
     0
 42
0.000000001
 43
0.00000001
 40
0.0
 40
0.0
 40
0.0
 40
0.0
 40
0.0931084152454125
 40
0.1739456814151605
 40
0.2421049578432134
 40
0.2849519607172092
 40
0.3209985512576118
 40
0.3508577308573642
 40
0.3872788713541367
 40
0.4206954368371843
 40
0.4520680690358542
 40
0.4813634090305361
 40
0.508553364543845
 40
0.5339938685799819
 40
0.5690591549890692
 40
0.6061613252669157
 40
0.6453507478818464
 40
0.6880982166467936
 40
0.7319715334926628
 40
0.7856316025705993
 40
0.8486632903702237
 40
0.9204250114874492
 40
1.0
 40
1.0
 40
1.0
 40
1.0
 10
597.6201048546512
 20
-645.8214173015328
 30
0.0
 10
597.6548304661136
 20
-645.8201073769446
 30
0.0
 10
597.7197050548654
 20
-645.817660168231
 30
0.0
 10
597.8066205822521
 20
-645.8124894920797
 30
0.0
 10
597.8786341933661
 20
-645.8091995206606
 30
0.0
 10
597.9399994616475
 20
-645.8079279277165
 30
0.0
 10
597.9924710232657
 20
-645.8083174284022
 30
0.0
 10
598.0508977462109
 20
-645.8103874042199
 30
0.0
 10
598.1276932090183
 20
-645.8162251700626
 30
0.0
 10
598.2047418217641
 20
-645.8257250139469
 30
0.0
 10
598.2762239482269
 20
-645.837446583821
 30
0.0
 10
598.3426265556745
 20
-645.8509571721584
 30
0.0
 10
598.4042727554087
 20
-645.8657810181321
 30
0.0
 10
598.4698923249226
 20
-645.8838398407827
 30
0.0
 10
598.5436138891667
 20
-645.9071310713942
 30
0.0
 10
598.6279242500767
 20
-645.9380062617965
 30
0.0
 10
598.7177498395064
 20
-645.975806091738
 30
0.0
 10
598.8119317389985
 20
-646.021222617511
 30
0.0
 10
598.9128750864285
 20
-646.0767479285635
 30
0.0
 10
599.0242638494458
 20
-646.1466577271519
 30
0.0
 10
599.1487158253268
 20
-646.2373873876697
 30
0.0
 10
599.2827549044536
 20
-646.3503875179495
 30
0.0
 10
599.3684220530564
 20
-646.4396834312709
 30
0.0
 10
599.4134670549114
 20
-646.4866364890859
 30
0.0
  0
LINE
  5
21218
330
18
100
AcDbEntity
  8
01
100
AcDbLine
 10
591.0578644328792
 20
-681.8353023314066
 30
0.0
 11
591.0740470939357
 21
-680.7627241992541
 31
0.0
  0
LINE
  5
21219
330
18
100
AcDbEntity
  8
01
100
AcDbLine
 10
591.0743153148372
 20
-648.8170178541131
 30
0.0
 11
591.0572385841091
 21
-647.6641770619117
 31
0.0
  0
LINE
  5
2121A
330
18
100
AcDbEntity
  8
01
100
AcDbLine
 10
585.9353220515926
 20
-682.3109026932307
 30
0.0
 11
500.0162485531177
 21
-682.3216389818417
 31
0.0
  0
LINE
  5
2121B
330
18
100
AcDbEntity
  8
01
  6
CONTINUOUS
100
AcDbLine
 10
599.327114825793
 20
-696.9124536895342
 30
0.0
 11
599.325840776511
 21
-696.9117309832163
 31
0.0
  0
LINE
  5
2121C
330
18
100
AcDbEntity
  8
01
  6
CONTINUOUS
100
AcDbLine
 10
599.3264591747005
 20
-696.9116825544425
 30
0.0
 11
599.327114825793
 21
-696.9124536895342
 31
0.0
  0
LINE
  5
2121D
330
18
100
AcDbEntity
  8
01
100
AcDbLine
 10
587.3764729552944
 20
-683.2712415539809
 30
0.0
 11
589.0224403196056
 21
-683.2712192022391
 31
0.0
  0
SPLINE
  5
2121E
330
18
100
AcDbEntity
  8
01
  6
CONTINUOUS
100
AcDbSpline
210
0.0
220
0.0
230
1.0
 70
     8
 71
     3
 72
    12
 73
     8
 74
     0
 42
0.000000001
 43
0.00000001
 40
0.0
 40
0.0
 40
0.0
 40
0.0
 40
0.2182681747199019
 40
0.4450494263848534
 40
0.6793837126161898
 40
0.8594132566593995
 40
1.0
 40
1.0
 40
1.0
 40
1.0
 10
600.0160104089458
 20
-695.0011078202315
 30
0.0
 10
600.0126519137107
 20
-695.107710611011
 30
0.0
 10
600.0058039324152
 20
-695.3250740033075
 30
0.0
 10
599.9502067097532
 20
-695.6531535420124
 30
0.0
 10
599.8648056296488
 20
-695.9547134082588
 30
0.0
 10
599.7669621235717
 20
-696.2080111365838
 30
0.0
 10
599.6944379016967
 20
-696.3468212916932
 30
0.0
 10
599.6626368218143
 20
-696.4076880299635
 30
0.0
  0
SPLINE
  5
2121F
330
18
100
AcDbEntity
  8
01
100
AcDbSpline
210
0.0
220
0.0
230
1.0
 70
     8
 71
     3
 72
    16
 73
    12
 74
     0
 42
0.000000001
 43
0.00000001
 40
0.0
 40
0.0
 40
0.0
 40
0.0
 40
0.2500000000000045
 40
0.2500000000000045
 40
0.3750000000000068
 40
0.3750000000000068
 40
0.500000000000009
 40
0.500000000000009
 40
0.7500000000000044
 40
0.7500000000000044
 40
1.0
 40
1.0
 40
1.0
 40
1.0
 10
591.0585173564251
 20
-681.8348225581158
 30
0.0
 10
591.0539217430959
 20
-682.025972853857
 30
0.0
 10
591.0172418083224
 20
-682.2177241300434
 30
0.0
 10
590.8850393734443
 20
-682.4894944594823
 30
0.0
 10
590.8285669256239
 20
-682.5770230963931
 30
0.0
 10
590.6878530718108
 20
-682.7411101593668
 30
0.0
 10
590.6037126180355
 20
-682.81764672242
 30
0.0
 10
590.3170753543055
 20
-683.0210782194124
 30
0.0
 10
590.0792455200318
 20
-683.1210525987062
 30
0.0
 10
589.5661746733873
 20
-683.2454227257185
 30
0.0
 10
589.2935312730373
 20
-683.2709406864867
 30
0.0
 10
589.0224429005766
 20
-683.271194426638
 30
0.0
  0
SPLINE
  5
21220
330
18
100
AcDbEntity
  8
01
  6
CONTINUOUS
100
AcDbSpline
210
0.0
220
0.0
230
1.0
 70
     8
 71
     3
 72
     8
 73
     4
 74
     0
 42
0.000000001
 43
0.00000001
 40
0.0
 40
0.0
 40
0.0
 40
0.0
 40
1.0
 40
1.0
 40
1.0
 40
1.0
 10
587.8158313236427
 20
-665.9091200613566
 30
0.0
 10
587.8160575372693
 20
-666.0656480948596
 30
0.0
 10
587.8162688303237
 20
-666.372125513577
 30
0.0
 10
587.8162688303286
 20
-666.7226333031429
 30
0.0
  0
LINE
  5
21221
330
18
100
AcDbEntity
  8
01
  6
CONTINUOUS
100
AcDbLine
 10
587.8162658267696
 20
-666.7226340555735
 30
0.0
 11
587.8162658267696
 21
-681.4700338923521
 31
0.0
  0
SPLINE
  5
21222
330
18
100
AcDbEntity
  8
01
100
AcDbSpline
210
0.0
220
0.0
230
1.0
 70
     8
 71
     3
 72
    20
 73
    16
 74
     0
 42
0.000000001
 43
0.00000001
 40
0.0
 40
0.0
 40
0.0
 40
0.0
 40
0.1250000000000002
 40
0.1250000000000002
 40
0.2500000000000004
 40
0.2500000000000004
 40
0.3750000000000006
 40
0.3750000000000006
 40
0.5000000000000008
 40
0.5000000000000008
 40
0.6250000000000002
 40
0.6250000000000002
 40
0.7499999999999994
 40
0.7499999999999994
 40
1.0
 40
1.0
 40
1.0
 40
1.0
 10
589.0218049173619
 20
-646.199992268047
 30
0.0
 10
589.1554825584445
 20
-646.2012854872199
 30
0.0
 10
589.2894134255247
 20
-646.2053501334226
 30
0.0
 10
589.5541141793993
 20
-646.2331967805678
 30
0.0
 10
589.6847378486726
 20
-646.2551635197703
 30
0.0
 10
589.9378768037466
 20
-646.3164923989218
 30
0.0
 10
590.0607496903505
 20
-646.356527193366
 30
0.0
 10
590.2895049747638
 20
-646.4547604204565
 30
0.0
 10
590.3948256729569
 20
-646.5123732810478
 30
0.0
 10
590.5873156685631
 20
-646.6484694610474
 30
0.0
 10
590.67496970782
 20
-646.7274870671856
 30
0.0
 10
590.8207984910933
 20
-646.896734013516
 30
0.0
 10
590.8786273290974
 20
-646.9868005922528
 30
0.0
 10
591.0149526094687
 20
-647.267374309336
 30
0.0
 10
591.0517695343467
 20
-647.4658709185946
 30
0.0
 10
591.0578645181962
 20
-647.6637161900721
 30
0.0
  0
LINE
  5
21223
330
18
100
AcDbEntity
  8
01
100
AcDbLine
 10
589.0218144708355
 20
-646.1991312731207
 30
0.0
 11
587.5744870358188
 21
-646.1991312731207
 31
0.0
  0
LINE
  5
21224
330
18
100
AcDbEntity
  8
01
  6
CONTINUOUS
100
AcDbLine
 10
575.0162428670604
 20
-647.1978235691004
 30
0.0
 11
575.0162428670604
 21
-649.0739853521027
 31
0.0
  0
SPLINE
  5
21225
330
18
100
AcDbEntity
  8
01
  6
CONTINUOUS
100
AcDbSpline
210
0.0
220
0.0
230
1.0
 70
    24
 71
     3
 72
     8
 73
     4
 74
     0
 42
0.000000001
 43
0.00000001
 40
0.0
 40
0.0
 40
0.0
 40
0.0
 40
1.0
 40
1.0
 40
1.0
 40
1.0
 10
575.01623988683
 20
-649.2689030731307
 30
0.0
 10
575.01623988683
 20
-649.207128333826
 30
0.0
 10
575.01623988683
 20
-649.141595659574
 30
0.0
 10
575.01623988683
 20
-649.0739851945686
 30
0.0
  0
SPLINE
  5
21226
330
18
100
AcDbEntity
  8
01
  6
CONTINUOUS
100
AcDbSpline
210
0.0
220
0.0
230
1.0
 70
    24
 71
     3
 72
    16
 73
    12
 74
     0
 42
0.000000001
 43
0.00000001
 40
0.0
 40
0.0
 40
0.0
 40
0.0
 40
0.0827075141424949
 40
0.1658791433819902
 40
0.2508542980439066
 40
0.3746821301469214
 40
0.500269582135222
 40
0.6229005496601013
 40
0.7494927254076371
 40
0.8745450670442719
 40
1.0
 40
1.0
 40
1.0
 40
1.0
 10
575.0162398868312
 20
-646.6984531221487
 30
0.0
 10
575.0162398868312
 20
-646.7002754990853
 30
0.0
 10
575.0162398868312
 20
-646.7039304792681
 30
0.0
 10
575.0162398868312
 20
-646.7197627443434
 30
0.0
 10
575.0162398868313
 20
-646.7461946874078
 30
0.0
 10
575.0162398868312
 20
-646.7886801737577
 30
0.0
 10
575.0162398868313
 20
-646.8507608918633
 30
0.0
 10
575.0162398868312
 20
-646.9257450039595
 30
0.0
 10
575.0162398868313
 20
-647.0105988232272
 30
0.0
 10
575.0162398868312
 20
-647.1024974834222
 30
0.0
 10
575.0162398868312
 20
-647.1660141593047
 30
0.0
 10
575.0162398868312
 20
-647.1978235362074
 30
0.0
  0
SPLINE
  5
21227
330
18
100
AcDbEntity
  8
01
  6
CONTINUOUS
100
AcDbSpline
210
0.0
220
0.0
230
1.0
 70
    24
 71
     3
 72
     8
 73
     4
 74
     0
 42
0.000000001
 43
0.00000001
 40
0.0
 40
0.0
 40
0.0
 40
0.0
 40
1.0
 40
1.0
 40
1.0
 40
1.0
 10
575.01623988683
 20
-665.0602349015368
 30
0.0
 10
575.01623988683
 20
-659.9251884182368
 30
0.0
 10
575.01623988683
 20
-654.6530007836354
 30
0.0
 10
575.01623988683
 20
-649.2689025309905
 30
0.0
  0
LINE
  5
21229
330
18
100
AcDbEntity
  8
01
  6
CONTINUOUS
100
AcDbLine
 10
597.6201048546512
 20
-645.8214173015328
 30
0.0
 11
575.5162364297588
 21
-645.8213303512817
 31
0.0
  0
ARC
  5
2122A
330
18
100
AcDbEntity
  8
01
  6
CONTINUOUS
100
AcDbCircle
 10
575.5162398868301
 20
-646.3213303512512
 30
0.0
 40
0.5000000000002274
100
AcDbArc
 50
90.00000000027359
 51
179.9999999922877
  0
SPLINE
  5
2122B
330
18
100
AcDbEntity
  8
01
  6
CONTINUOUS
100
AcDbSpline
210
0.0
220
0.0
230
1.0
 70
    24
 71
     3
 72
     8
 73
     4
 74
     0
 42
0.000000001
 43
0.00000001
 40
0.0
 40
0.0
 40
0.0
 40
0.0
 40
1.0
 40
1.0
 40
1.0
 40
1.0
 10
575.01623988683
 20
-646.6984531221486
 30
0.0
 10
575.01623988683
 20
-646.4470896127907
 30
0.0
 10
575.01623988683
 20
-646.3213292461396
 30
0.0
 10
575.01623988683
 20
-646.3213303511839
 30
0.0
  0
SPLINE
  5
2122C
330
18
100
AcDbEntity
  8
01
  6
CONTINUOUS
100
AcDbSpline
210
0.0
220
0.0
230
1.0
 70
     8
 71
     3
 72
    11
 73
     7
 74
     0
 42
0.000000001
 43
0.00000001
 40
0.0
 40
0.0
 40
0.0
 40
0.0
 40
0.3634939852257192
 40
0.719422736195962
 40
0.8593956938568387
 40
1.0
 40
1.0
 40
1.0
 40
1.0
 10
575.0136426144321
 20
-649.3554131061919
 30
0.0
 10
575.0142865091929
 20
-649.3512937811993
 30
0.0
 10
575.0155608976269
 20
-649.3431408648428
 30
0.0
 10
575.0159931779056
 20
-649.3333004782862
 30
0.0
 10
575.0162192830375
 20
-649.3259678693905
 30
0.0
 10
575.0162349939353
 20
-649.3228002295643
 30
0.0
 10
575.0162428670604
 20
-649.3212128457762
 30
0.0
  0
LINE
  5
2122D
330
18
100
AcDbEntity
  8
01
  6
CONTINUOUS
100
AcDbLine
 10
575.5162364297588
 20
-665.821329870183
 30
0.0
 11
584.8144865089138
 21
-665.821329870183
 31
0.0
  0
SPLINE
  5
2122E
330
18
100
AcDbEntity
  8
01
100
AcDbSpline
210
0.0
220
0.0
230
1.0
 70
     8
 71
     3
 72
    10
 73
     6
 74
     0
 42
0.000000001
 43
0.00000001
 40
0.0
 40
0.0
 40
0.0
 40
0.0
 40
0.5
 40
0.5
 40
1.0
 40
1.0
 40
1.0
 40
1.0
 10
575.01623988683
 20
-665.3213303172055
 30
0.0
 10
575.0162398868302
 20
-665.4522300111048
 30
0.0
 10
575.0701264350254
 20
-665.5823236465865
 30
0.0
 10
575.2552465574481
 20
-665.7674437690091
 30
0.0
 10
575.3853401929299
 20
-665.8213303172042
 30
0.0
 10
575.5162398868291
 20
-665.8213303172045
 30
0.0
  0
SPLINE
  5
2122F
330
18
100
AcDbEntity
  8
01
  6
CONTINUOUS
100
AcDbSpline
210
0.0
220
0.0
230
1.0
 70
    24
 71
     3
 72
    10
 73
     6
 74
     0
 42
0.000000001
 43
0.00000001
 40
0.0
 40
0.0
 40
0.0
 40
0.0
 40
0.5
 40
0.5
 40
1.0
 40
1.0
 40
1.0
 40
1.0
 10
575.01623988683
 20
-665.3213303172054
 30
0.0
 10
575.0162398868287
 20
-665.3213303172165
 30
0.0
 10
575.01623988683
 20
-665.3011278590254
 30
0.0
 10
575.01623988683
 20
-665.2106333987153
 30
0.0
 10
575.01623988683
 20
-665.1403773007826
 30
0.0
 10
575.01623988683
 20
-665.0602349014875
 30
0.0
  0
LINE
  5
21231
330
18
100
AcDbEntity
  8
01
  6
CONTINUOUS
100
AcDbLine
 10
575.0162428670604
 20
-656.2944680386372
 30
0.0
 11
574.8196144681683
 21
-656.2944672695149
 31
0.0
  0
LINE
  5
21232
330
18
100
AcDbEntity
  8
01
  6
CONTINUOUS
100
AcDbLine
 10
534.5162390225609
 20
-665.8210653745718
 30
0.0
 11
560.0162385457237
 21
-665.8210653745718
 31
0.0
  0
LINE
  5
21233
330
18
100
AcDbEntity
  8
01
  6
CONTINUOUS
100
AcDbLine
 10
500.0162398879526
 20
-665.8210653745718
 30
0.0
 11
534.5162390225609
 21
-665.8210653745718
 31
0.0
  0
LINE
  5
21234
330
18
100
AcDbEntity
  8
01
  6
CONTINUOUS
100
AcDbLine
 10
500.0162398868282
 20
-665.821067237217
 30
0.0
 11
560.0162385457237
 21
-665.8210653745718
 31
0.0
  0
LINE
  5
21235
330
18
100
AcDbEntity
  8
01
100
AcDbLine
 10
591.0740470939357
 20
-680.7627241992541
 30
0.0
 11
591.0759916954715
 21
-680.6335683846064
 31
0.0
  0
LINE
  5
21236
330
18
100
AcDbEntity
  8
01
100
AcDbLine
 10
591.0759171896656
 20
-648.9254400999434
 30
0.0
 11
591.0743153148372
 21
-648.8170178541131
 31
0.0
  0
LINE
  5
21237
330
18
100
AcDbEntity
  8
01
100
AcDbLine
 10
591.0759916954715
 20
-680.6335683846064
 30
0.0
 11
591.0759171896656
 21
-648.9254400999434
 31
0.0
  0
LINE
  5
21238
330
18
100
AcDbEntity
  8
01
100
AcDbLine
 10
500.0162488830115
 20
-683.2714725238916
 30
0.0
 11
587.3764729552944
 21
-683.2712415539809
 31
0.0
  0
LINE
  5
21239
330
18
100
AcDbEntity
  8
01
100
AcDbLine
 10
588.2108932786663
 20
-680.4741892897673
 30
0.0
 11
588.2026380353649
 21
-680.6350771271773
 31
0.0
  0
LINE
  5
2123A
330
18
100
AcDbEntity
  8
01
100
AcDbLine
 10
588.2109230809887
 20
-651.8976271086522
 30
0.0
 11
588.2108932786663
 21
-680.4741892897673
 31
0.0
  0
SPLINE
  5
2123B
330
18
100
AcDbEntity
  8
01
100
AcDbSpline
210
0.0
220
0.0
230
1.0
 70
     8
 71
     3
 72
    21
 73
    17
 74
     0
 42
0.000000001
 43
0.00000001
 40
0.0
 40
0.0
 40
0.0
 40
0.0
 40
0.0409637387866945
 40
0.0815400929166925
 40
0.1216202445682429
 40
0.16110081573848
 40
0.1998852720646824
 40
0.2378851374900637
 40
0.3621982121156856
 40
0.4935401397445938
 40
0.6067510414137383
 40
0.7526986083612678
 40
0.8347348413164005
 40
0.8787918237536549
 40
0.943453169400497
 40
1.0
 40
1.0
 40
1.0
 40
1.0
 10
585.4296989211119
 20
-649.4734707434816
 30
0.0
 10
585.487374255176
 20
-649.4830217239966
 30
0.0
 10
585.6021795009339
 20
-649.5020333636005
 30
0.0
 10
585.7717581247663
 20
-649.5377928825408
 30
0.0
 10
585.9373253197642
 20
-649.5784469817866
 30
0.0
 10
586.0978868741829
 20
-649.6242319924793
 30
0.0
 10
586.2526636554245
 20
-649.6746817969861
 30
0.0
 10
586.5143544745084
 20
-649.7714298080181
 30
0.0
 10
586.8761604948612
 20
-649.942265090262
 30
0.0
 10
587.2753913546932
 20
-650.2064353926048
 30
0.0
 10
587.630816357679
 20
-650.5283498903822
 30
0.0
 10
587.8751009611491
 20
-650.8360569721538
 30
0.0
 10
588.0184211831948
 20
-651.092908248005
 30
0.0
 10
588.0981844709869
 20
-651.2758010027021
 30
0.0
 10
588.1533157993218
 20
-651.434540803099
 30
0.0
 10
588.1775374699398
 20
-651.5499739111206
 30
0.0
 10
588.1888375220293
 20
-651.603826519146
 30
0.0
  0
SPLINE
  5
2123C
330
18
100
AcDbEntity
  8
01
100
AcDbSpline
210
0.0
220
0.0
230
1.0
 70
     8
 71
     3
 72
     9
 73
     5
 74
     0
 42
0.000000001
 43
0.00000001
 40
0.0
 40
0.0
 40
0.0
 40
0.0
 40
0.5107321812041
 40
1.0
 40
1.0
 40
1.0
 40
1.0
 10
585.2771300640985
 20
-649.4619651099097
 30
0.0
 10
585.303243999209
 20
-649.4621055090356
 30
0.0
 10
585.3543743882302
 20
-649.4623804067828
 30
0.0
 10
585.4049526199834
 20
-649.4698272451276
 30
0.0
 10
585.4296989211119
 20
-649.4734707434816
 30
0.0
  0
SPLINE
  5
2123D
330
18
100
AcDbEntity
  8
01
100
AcDbSpline
210
0.0
220
0.0
230
1.0
 70
     8
 71
     3
 72
    10
 73
     6
 74
     0
 42
0.000000001
 43
0.00000001
 40
0.0
 40
0.0
 40
0.0
 40
0.0
 40
0.3224427117481629
 40
0.6555723355067381
 40
1.0
 40
1.0
 40
1.0
 40
1.0
 10
588.1888375220293
 20
-651.603826519146
 30
0.0
 10
588.1934413142832
 20
-651.6333195705106
 30
0.0
 10
588.2028014850365
 20
-651.6932831791141
 30
0.0
 10
588.2101089751046
 20
-651.7915916658114
 30
0.0
 10
588.2106475850779
 20
-651.861891066671
 30
0.0
 10
588.2109213806349
 20
-651.8976268765769
 30
0.0
  0
LINE
  5
2123F
330
18
100
AcDbEntity
  8
01
  6
PHANTOM
100
AcDbLine
 10
587.5744870358188
 20
-646.1991312731207
 30
0.0
 11
587.4803042464931
 21
-646.1991312731207
 31
0.0
  0
LINE
  5
21240
330
18
100
AcDbEntity
  8
01
100
AcDbLine
 10
587.4803042464931
 20
-646.1991312731207
 30
0.0
 11
575.5162364297588
 21
-646.1990827279315
 31
0.0
  0
LINE
  5
21241
330
18
100
AcDbEntity
  8
01
100
AcDbLine
 10
575.5162364297588
 20
-649.4638202180304
 30
0.0
 11
585.2771303110798
 21
-649.4620150820501
 31
0.0
  0
SPLINE
  5
21242
330
18
100
AcDbEntity
  8
01
100
AcDbSpline
210
0.0
220
0.0
230
1.0
 70
     8
 71
     3
 72
    14
 73
    10
 74
     0
 42
0.000000001
 43
0.00000001
 40
0.0
 40
0.0
 40
0.0
 40
0.0
 40
0.25
 40
0.25
 40
0.5
 40
0.5
 40
0.75
 40
0.75
 40
1.0
 40
1.0
 40
1.0
 40
1.0
 10
575.01623988683
 20
-649.2689025309905
 30
0.0
 10
575.01623988683
 20
-649.291873790145
 30
0.0
 10
575.0269792562368
 20
-649.3166569055892
 30
0.0
 10
575.075712216361
 20
-649.3646444292328
 30
0.0
 10
575.113870959768
 20
-649.3877000717441
 30
0.0
 10
575.2115020327059
 20
-649.4257601000904
 30
0.0
 10
575.2706440568573
 20
-649.4406357212633
 30
0.0
 10
575.3937410072414
 20
-649.4596335442711
 30
0.0
 10
575.4573143217316
 20
-649.4638201284367
 30
0.0
 10
575.5162398868305
 20
-649.4638201284367
 30
0.0
  0
SPLINE
  5
21243
330
18
100
AcDbEntity
  8
01
100
AcDbSpline
210
0.0
220
0.0
230
1.0
 70
     8
 71
     3
 72
    10
 73
     6
 74
     0
 42
0.000000001
 43
0.00000001
 40
0.0
 40
0.0
 40
0.0
 40
0.0
 40
0.5
 40
0.5
 40
1.0
 40
1.0
 40
1.0
 40
1.0
 10
575.5162398868272
 20
-646.1990827196802
 30
0.0
 10
575.3853401918576
 20
-646.1990827177594
 30
0.0
 10
575.2552465553385
 20
-646.2529014124132
 30
0.0
 10
575.0701264325916
 20
-646.4377884352598
 30
0.0
 10
575.0162398851486
 20
-646.5677182600348
 30
0.0
 10
575.01623988683
 20
-646.6984531276034
 30
0.0
  0
LINE
  5
21244
330
18
100
AcDbEntity
  8
01
  6
PHANTOM
100
AcDbLine
 10
543.3808764868458
 20
-648.3212958024033
 30
0.0
 11
543.3809062891681
 21
-648.321625257764
 31
0.0
  0
LINE
  5
21245
330
18
100
AcDbEntity
  8
01
100
AcDbLine
 10
575.01623988683
 20
-663.271333270628
 30
0.0
 11
574.8206395521811
 21
-663.271333270628
 31
0.0
  0
SPLINE
  5
21248
330
18
100
AcDbEntity
  8
01
  6
CONTINUOUS
100
AcDbSpline
210
0.0
220
0.0
230
1.0
 70
     8
 71
     3
 72
    20
 73
    16
 74
     0
 42
0.000000001
 43
0.00000001
 40
0.0
 40
0.0
 40
0.0
 40
0.0
 40
0.1506267930224947
 40
0.287431570938564
 40
0.4033509678675622
 40
0.4985387313164439
 40
0.5734389724430508
 40
0.6286433513460374
 40
0.6661896976801497
 40
0.7004205824623759
 40
0.7347262954340987
 40
0.7702321778844599
 40
0.8265477524792493
 40
0.9032909501686345
 40
1.0
 40
1.0
 40
1.0
 40
1.0
 10
586.7913122862697
 20
-665.8213214605878
 30
0.0
 10
586.8195813728183
 20
-665.819531364345
 30
0.0
 10
586.9436179881467
 20
-665.820313991268
 30
0.0
 10
587.1085132964207
 20
-665.8250426511167
 30
0.0
 10
587.2452137068518
 20
-665.8315321213896
 30
0.0
 10
587.352838435837
 20
-665.8389368506812
 30
0.0
 10
587.4341362463873
 20
-665.8461683193426
 30
0.0
 10
587.4922779227263
 20
-665.8523517256838
 30
0.0
 10
587.5340703573485
 20
-665.8573794020843
 30
0.0
 10
587.5661762950617
 20
-665.8616277472851
 30
0.0
 10
587.5948321273505
 20
-665.865760978262
 30
0.0
 10
587.6269358127387
 20
-665.8707719549559
 30
0.0
 10
587.6681403103432
 20
-665.8778816376218
 30
0.0
 10
587.7206648822656
 20
-665.8881969146446
 30
0.0
 10
587.7554811081179
 20
-665.896844572628
 30
0.0
 10
587.7748930452306
 20
-665.90166611169
 30
0.0
  0
SPLINE
  5
21249
330
18
100
AcDbEntity
  8
01
  6
CONTINUOUS
100
AcDbSpline
210
0.0
220
0.0
230
1.0
 70
    24
 71
     3
 72
    16
 73
    12
 74
     0
 42
0.000000001
 43
0.00000001
 40
0.0
 40
0.0
 40
0.0
 40
0.0
 40
0.0847883262233465
 40
0.1688658527668589
 40
0.252411353665719
 40
0.335607032736526
 40
0.4186373967999821
 40
0.501688054484395
 40
0.6685562159266465
 40
0.8341234116498085
 40
1.0
 40
1.0
 40
1.0
 40
1.0
 10
586.7913122862697
 20
-665.8213214605878
 30
0.0
 10
586.7412247394911
 20
-665.8213214656998
 30
0.0
 10
586.6414695411461
 20
-665.8213214758813
 30
0.0
 10
586.4871454136834
 20
-665.8213214916323
 30
0.0
 10
586.3303226194552
 20
-665.8213215076382
 30
0.0
 10
586.1706183333132
 20
-665.8213215239382
 30
0.0
 10
586.0081306090296
 20
-665.8213215405224
 30
0.0
 10
585.7874382906416
 20
-665.8213215630471
 30
0.0
 10
585.5058943374495
 20
-665.8213215917826
 30
0.0
 10
585.1615318725924
 20
-665.8213216269297
 30
0.0
 10
584.9302337029949
 20
-665.8213216505369
 30
0.0
 10
584.8144766633154
 20
-665.8213216623516
 30
0.0
  0
LINE
  5
2124A
330
18
100
AcDbEntity
  8
01
  6
CONTINUOUS
100
AcDbLine
 10
587.8158313236427
 20
-665.9091200613566
 30
0.0
 11
587.7748158774566
 21
-665.9016564422436
 31
0.0
  0
SPLINE
  5
212F2
330
18
100
AcDbEntity
  8
01
  6
PHANTOM
100
AcDbSpline
210
0.0
220
0.0
230
1.0
 70
    24
 71
     3
 72
    10
 73
     6
 74
     0
 42
0.000000001
 43
0.00000001
 40
0.0
 40
0.0
 40
0.0
 40
0.0
 40
0.5
 40
0.5
 40
1.0
 40
1.0
 40
1.0
 40
1.0
 10
500.0165387346154
 20
-665.1957301296525
 30
0.0
 10
500.0165387346154
 20
-665.3560888203049
 30
0.0
 10
500.0165387346154
 20
-665.4966893868667
 30
0.0
 10
500.0165387346154
 20
-665.6777966945308
 30
0.0
 10
500.0165387346154
 20
-665.7182295442437
 30
0.0
 10
500.0165387346154
 20
-665.718229551414
 30
0.0
  0
LINE
  5
212F4
330
18
100
AcDbEntity
  8
01
  6
CONTINUOUS
100
AcDbLine
 10
500.0162381582937
 20
-645.9213303512663
 30
0.0
 11
425.7149811697057
 21
-645.921330352373
 31
0.0
  0
LINE
  5
212F7
330
18
100
AcDbEntity
  8
01
100
AcDbLine
 10
425.7180048402331
 20
-649.4539687350176
 30
0.0
 11
500.0162381582936
 21
-649.453968735019
 31
0.0
  0
SPLINE
  5
212FC
330
18
100
AcDbEntity
  8
01
  6
CONTINUOUS
100
AcDbSpline
210
0.0
220
0.0
230
1.0
 70
    24
 71
     3
 72
     8
 73
     4
 74
     0
 42
0.000000001
 43
0.00000001
 40
0.0
 40
0.0
 40
0.0
 40
0.0
 40
1.0
 40
1.0
 40
1.0
 40
1.0
 10
425.2148016790577
 20
-647.2909662757168
 30
0.0
 10
425.2147952800301
 20
-647.2909662762729
 30
0.0
 10
425.2174108396973
 20
-647.2909660489534
 30
0.0
 10
425.2231391951119
 20
-647.2909655510991
 30
0.0
  0
SPLINE
  5
21303
330
18
100
AcDbEntity
  8
01
100
AcDbSpline
210
0.0
220
0.0
230
1.0
 70
     8
 71
     3
 72
    14
 73
    10
 74
     0
 42
0.000000001
 43
0.00000001
 40
0.0
 40
0.0
 40
0.0
 40
0.0
 40
0.25
 40
0.25
 40
0.5
 40
0.5
 40
0.75
 40
0.75
 40
1.0
 40
1.0
 40
1.0
 40
1.0
 10
425.2149811697057
 20
-649.257317549487
 30
0.0
 10
425.2149713882769
 20
-649.2803002947401
 30
0.0
 10
425.2257020356774
 20
-649.3050952592629
 30
0.0
 10
425.2744242879045
 20
-649.3531030369608
 30
0.0
 10
425.3125812162549
 20
-649.3761669302519
 30
0.0
 10
425.4102156429556
 20
-649.4142356511642
 30
0.0
 10
425.4693626758578
 20
-649.4291116267262
 30
0.0
 10
425.5924711108065
 20
-649.4481024958714
 30
0.0
 10
425.6560507016319
 20
-649.4522818984395
 30
0.0
 10
425.7149811560373
 20
-649.4522729620294
 30
0.0
  0
LINE
  5
21308
330
18
100
AcDbEntity
  8
01
  6
CONTINUOUS
100
AcDbLine
 10
425.7149811697057
 20
-665.718229551414
 30
0.0
 11
500.0162381582937
 21
-665.718229551414
 31
0.0
  0
LINE
  5
21309
330
18
100
AcDbEntity
  8
01
100
AcDbLine
 10
425.2149811697057
 20
-665.218229551414
 30
0.0
 11
425.2149811697057
 21
-646.4213303523657
 31
0.0
  0
ARC
  5
2130A
330
18
100
AcDbEntity
  8
01
100
AcDbCircle
 10
425.7149811697057
 20
-665.218229551414
 30
0.0
 40
0.5
100
AcDbArc
 50
180.0
 51
270.0
  0
ARC
  5
2130B
330
18
100
AcDbEntity
  8
01
100
AcDbCircle
 10
425.7149811697057
 20
-646.421330352373
 30
0.0
 40
0.5
100
AcDbArc
 50
90.0
 51
179.9999999991532
  0
LINE
  5
2130D
330
18
100
AcDbEntity
  8
01
  6
CONTINUOUS
100
AcDbLine
 10
500.0168325871959
 20
-645.9213303075978
 30
0.0
 11
574.3180887738029
 21
-645.9104135117029
 31
0.0
  0
LINE
  5
21310
330
18
100
AcDbEntity
  8
01
100
AcDbLine
 10
574.315584140235
 20
-649.4430523004736
 30
0.0
 11
500.0173516241233
 21
-649.4539686532203
 31
0.0
  0
SPLINE
  5
21318
330
18
100
AcDbEntity
  8
1DIM
100
AcDbSpline
210
0.0
220
0.0
230
1.0
 70
     8
 71
     3
 72
    14
 73
    10
 74
     0
 42
0.000000001
 43
0.00000001
 40
0.0
 40
0.0
 40
0.0
 40
0.0
 40
0.25
 40
0.25
 40
0.5
 40
0.5
 40
0.75
 40
0.75
 40
1.0
 40
1.0
 40
1.0
 40
1.0
 10
574.8185789121331
 20
-649.2463272097385
 30
0.0
 10
574.8185920703278
 20
-649.2693099533064
 30
0.0
 10
574.8078650660716
 20
-649.2941064941742
 30
0.0
 10
574.759149867968
 20
-649.3421214299265
 30
0.0
 10
574.7209963287182
 20
-649.3651909292189
 30
0.0
 10
574.6233674963618
 20
-649.40327399477
 30
0.0
 10
574.5642226497675
 20
-649.4181586604168
 30
0.0
 10
574.4411170064028
 20
-649.4371676172042
 30
0.0
 10
574.3775380303272
 20
-649.4413563612312
 30
0.0
 10
574.3186075752449
 20
-649.4413560832454
 30
0.0
  0
LINE
  5
2131B
330
18
100
AcDbEntity
  8
01
  6
CONTINUOUS
100
AcDbLine
 10
574.3209974558167
 20
-665.707312497063
 30
0.0
 11
500.0197412692102
 21
-665.7182292940647
 31
0.0
  0
LINE
  5
2131C
330
18
100
AcDbEntity
  8
01
100
AcDbLine
 10
574.8209239873491
 20
-665.2072390393892
 30
0.0
 11
574.8181622314768
 21
-646.4103400432277
 31
0.0
  0
ARC
  5
2131D
330
18
100
AcDbEntity
  8
01
100
AcDbCircle
 10
574.320923992746
 20
-665.2073125024599
 30
0.0
 40
0.5
100
AcDbArc
 50
270.0084182478382
 51
0.0084182478381969
  0
ARC
  5
2131E
330
18
100
AcDbEntity
  8
01
100
AcDbCircle
 10
574.3181622368736
 20
-646.410413506306
 30
0.0
 40
0.5
100
AcDbArc
 50
0.0084182486980153
 51
90.0084182478382
  0
LINE
  5
2133F
330
18
100
AcDbEntity
  8
01
100
AcDbLine
 10
574.818442816108
 20
-648.320038516869
 30
0.0
 11
575.0162428670604
 21
-648.320038516869
 31
0.0
  0
LINE
  5
21342
330
18
100
AcDbEntity
  8
01
100
AcDbLine
 10
425.2149811697057
 20
-648.320038516869
 30
0.0
 11
425.016236906596
 21
-648.320038516869
 31
0.0
  0
LINE
  5
21345
330
18
100
AcDbEntity
  8
01
100
AcDbLine
 10
560.0162385457237
 20
-665.7094142401181
 30
0.0
 11
560.0162385457237
 21
-665.8210653745718
 31
0.0
  0
LINE
  5
21346
330
18
100
AcDbEntity
  8
01
100
AcDbLine
 10
440.0162412279327
 20
-665.8210653745718
 30
0.0
 11
440.0162412279327
 21
-665.718229551414
 31
0.0
  0
LINE
  5
21347
330
18
100
AcDbEntity
  8
01
100
AcDbLine
 10
424.5162433438976
 20
-645.8213303512817
 30
0.0
 11
575.5162398868277
 21
-645.8213303512509
 31
0.0
  0
CIRCLE
  5
21349
330
18
100
AcDbEntity
  8
1PHANTOM
 48
0.5
100
AcDbCircle
 10
450.015997506982
 20
-655.8212219515591
 30
0.0
 40
2.25
  0
CIRCLE
  5
2134B
330
18
100
AcDbEntity
  8
1PHANTOM
 48
0.5
100
AcDbCircle
 10
550.0164857237479
 20
-655.8212219515591
 30
0.0
 40
2.25
  0
LINE
  5
2134C
330
18
100
AcDbEntity
  8
1CENTER
100
AcDbLine
 10
446.765997506982
 20
-655.8212219515591
 30
0.0
 11
453.265997506982
 21
-655.8212219515591
 31
0.0
  0
LINE
  5
2134D
330
18
100
AcDbEntity
  8
1CENTER
100
AcDbLine
 10
450.0159975069821
 20
-652.5712219515591
 30
0.0
 11
450.0159975069821
 21
-659.0712219515591
 31
0.0
  0
LINE
  5
2134E
330
18
100
AcDbEntity
  8
1CENTER
100
AcDbLine
 10
553.2687057412646
 20
-655.8212219515591
 30
0.0
 11
546.7687057412646
 21
-655.8212219515591
 31
0.0
  0
LINE
  5
2134F
330
18
100
AcDbEntity
  8
1CENTER
100
AcDbLine
 10
550.0187057412645
 20
-652.5712219515591
 30
0.0
 11
550.0187057412645
 21
-659.0712219515591
 31
0.0
  0
LINE
  5
215CC
330
18
100
AcDbEntity
  8
01
  6
CONTINUOUS
100
AcDbLine
 10
697.3371642943233
 20
-646.4933631081567
 30
0.0
 11
661.1837850475699
 21
-682.6471938311993
 31
0.0
  0
LINE
  5
215CD
330
18
100
AcDbEntity
  8
1DIM
100
AcDbLine
 10
669.8643236138597
 20
-698.3222943729173
 30
0.0
 11
669.9006042160764
 21
-698.3164940959226
 31
0.0
  0
LINE
  5
215CE
330
18
100
AcDbEntity
  8
01
  6
CONTINUOUS
100
AcDbLine
 10
701.1487410994272
 20
-667.4362867390132
 30
0.0
 11
670.5555004471744
 21
-698.029526194487
 31
0.0
  0
LINE
  5
215CF
330
18
100
AcDbEntity
  8
1DIM
100
AcDbLine
 10
695.3991881289259
 20
-648.8210680893076
 30
0.0
 11
695.2929279484525
 21
-648.9294903351376
 31
0.0
  0
SPLINE
  5
215D0
330
18
100
AcDbEntity
  8
01
  6
PHANTOM
100
AcDbSpline
210
0.0
220
0.0
230
1.0
 70
     8
 71
     3
 72
     9
 73
     5
 74
     0
 42
0.000000001
 43
0.00000001
 40
0.0
 40
0.0
 40
0.0
 40
0.0
 40
0.05078645250673
 40
1.0
 40
1.0
 40
1.0
 40
1.0
 10
704.2123439439312
 20
-664.3726845270407
 30
0.0
 10
704.2129233993373
 20
-664.3723582793536
 30
0.0
 10
704.2243330445783
 20
-664.3659343676418
 30
0.0
 10
704.224348239003
 20
-664.3656189894103
 30
0.0
 10
704.2243626617566
 20
-664.3653196281207
 30
0.0
  0
LINE
  5
215D1
330
18
100
AcDbEntity
  8
01
100
AcDbLine
 10
713.016241615365
 20
-665.8253741160859
 30
0.0
 11
705.0378283154067
 21
-665.8253741160859
 31
0.0
  0
ARC
  5
215D2
330
18
100
AcDbEntity
  8
01
100
AcDbCircle
 10
705.0378283154067
 20
-671.3253741160858
 30
0.0
 40
5.5
100
AcDbArc
 50
90.0
 51
134.9999988133528
  0
LINE
  5
215D3
330
18
100
AcDbEntity
  8
01
100
AcDbLine
 10
701.1487410994272
 20
-667.4362867390132
 30
0.0
 11
713.0162416153656
 21
-655.5687862230748
 31
0.0
  0
SPLINE
  5
215D4
330
18
100
AcDbEntity
  8
01
100
AcDbSpline
210
0.0
220
0.0
230
1.0
 70
     8
 71
     3
 72
     8
 73
     4
 74
     0
 42
0.000000001
 43
0.00000001
 40
0.0616138628569193
 40
0.0616138628569193
 40
0.0616138628569193
 40
0.0616138628569193
 40
1.0
 40
1.0
 40
1.0
 40
1.0
 10
697.9942024812763
 20
-646.2017193450137
 30
0.0
 10
702.9617390607629
 20
-645.9526644186172
 30
0.0
 10
707.9705760183386
 20
-645.8253806509765
 30
0.0
 10
713.016241615365
 20
-645.8253805863224
 30
0.0
  0
ARC
  5
215D5
330
18
100
AcDbEntity
  8
01
  6
CONTINUOUS
100
AcDbCircle
 10
698.0442760917825
 20
-647.2004648742145
 30
0.0
 40
1.000000000834153
100
AcDbArc
 50
92.87020686027432
 51
135.0004064145417
  0
SPLINE
  5
215D6
330
18
100
AcDbEntity
  8
01
100
AcDbSpline
210
0.0
220
0.0
230
1.0
 70
     8
 71
     3
 72
     8
 73
     4
 74
     0
 42
0.000000001
 43
0.00000001
 40
0.0616582581804595
 40
0.0616582581804595
 40
0.0616582581804595
 40
0.0616582581804595
 40
0.8137953311894981
 40
0.8137953311894981
 40
0.8137953311894981
 40
0.8137953311894981
 10
660.8921506083051
 20
-683.3042249170393
 30
0.0
 10
660.6925367722677
 20
-687.2858169767319
 30
0.0
 10
660.571153555318
 20
-691.2939436661645
 30
0.0
 10
660.5308394455769
 20
-695.3262991635157
 30
0.0
  0
SPLINE
  5
215D7
330
18
100
AcDbEntity
  8
01
  6
CONTINUOUS
100
AcDbSpline
210
0.0
220
0.0
230
1.0
 70
     8
 71
     3
 72
     8
 73
     4
 74
     0
 42
0.000000001
 43
0.00000001
 40
0.3057108072549359
 40
0.3057108072549359
 40
0.3057108072549359
 40
0.3057108072549359
 40
0.9581204111065175
 40
0.9581204111065175
 40
0.9581204111065175
 40
0.9581204111065175
 10
663.5149882436489
 20
-698.3562495486457
 30
0.0
 10
665.6431323091374
 20
-698.3673878987822
 30
0.0
 10
667.7598138500837
 20
-698.355821486304
 30
0.0
 10
669.8643236233678
 20
-698.3222925098123
 30
0.0
  0
ARC
  5
215D8
330
18
100
AcDbEntity
  8
01
  6
CONTINUOUS
100
AcDbCircle
 10
661.8908962487827
 20
-683.3542962022567
 30
0.0
 40
1.000000007017884
100
AcDbArc
 50
135.0003577469803
 51
177.1299264126895
  0
ARC
  5
215D9
330
18
100
AcDbEntity
  8
01
  6
CONTINUOUS
100
AcDbCircle
 10
663.5306895274605
 20
-695.3562906372299
 30
0.0
 40
3.000000000783595
100
AcDbArc
 50
179.4271954967375
 51
269.7001262042897
  0
ARC
  5
215DA
330
18
100
AcDbEntity
  8
01
  6
CONTINUOUS
100
AcDbCircle
 10
669.8483936797924
 20
-697.3224193994437
 30
0.0
 40
1.000000000036892
100
AcDbArc
 50
270.9127571426109
 51
314.9999988793207
  0
LINE
  5
215DB
330
18
100
AcDbEntity
  8
01
100
AcDbLine
 10
713.016241615365
 20
-655.5687867146491
 30
0.0
 11
713.016241615365
 21
-665.8253741160859
 31
0.0
  0
LINE
  5
215DC
330
18
100
AcDbEntity
  8
01
100
AcDbLine
 10
713.0162533499712
 20
-645.8253805469569
 30
0.0
 11
713.0162533499712
 21
-655.5687862230748
 31
0.0
  0
LINE
  5
215E0
330
18
100
AcDbEntity
  8
01
100
AcDbLine
 10
713.0162416153648
 20
-645.8253805863225
 30
0.0
 11
661.3868114355148
 21
-697.4548107661725
 31
0.0
  0
LINE
  5
215E2
330
18
100
AcDbEntity
  8
01
100
AcDbLine
 10
409.6615999119085
 20
-682.972424645977
 30
0.0
 11
400.8515416138847
 21
-697.0882110231705
 31
0.0
  0
LINE
  5
215E3
330
18
100
AcDbEntity
  8
01
100
AcDbLine
 10
590.3708798617479
 20
-682.972424645977
 30
0.0
 11
599.0329584532459
 21
-697.2663562678881
 31
0.0
  0
LINE
  5
215E4
330
18
100
AcDbEntity
  8
01
100
AcDbLine
 10
589.0218049173619
 20
-646.199992268047
 30
0.0
 11
597.6201048546512
 21
-645.8214173015328
 31
0.0
  0
LINE
  5
215E5
330
18
100
AcDbEntity
  8
01
100
AcDbLine
 10
411.0106748562945
 20
-646.199992268047
 30
0.0
 11
402.4123749190052
 21
-645.8214173015328
 31
0.0
  0
LINE
  5
215E7
330
18
100
AcDbEntity
  8
01
100
AcDbLine
 10
411.0100411825875
 20
-607.9439512086983
 30
0.0
 11
402.9700973087052
 21
-608.2999511254902
 31
0.0
  0
LINE
  5
215E8
330
18
100
AcDbEntity
  8
01
100
AcDbLine
 10
589.0224445883774
 20
-607.9444152995926
 30
0.0
 11
597.0623859220246
 21
-608.2999511254902
 31
0.0
  0
TEXT
  5
2173F
330
18
100
AcDbEntity
  8
01
  6
CONTINUOUS
100
AcDbText
 10
719.7537571261875
 20
-611.3902613041472
 30
0.0
 40
3.5
  1
PB
100
AcDbText
  0
TEXT
  5
21740
330
18
100
AcDbEntity
  8
01
  6
CONTINUOUS
100
AcDbText
 10
732.8891752713527
 20
-611.3902613041472
 30
0.0
 40
3.5
  1
合板9mm以上
100
AcDbText
  0
LINE
  5
21741
330
18
100
AcDbEntity
  8
1DIM
100
AcDbLine
 10
660.5306895266768
 20
-695.3562906372299
 30
0.0
 11
660.5306895266768
 21
-604.8213303512663
 31
0.0
1001
ACAD
1000
DSTYLE
1002
{
1070
    45
1040
0.5
1002
}
  0
LINE
  5
21742
330
18
100
AcDbEntity
  8
1DIM
100
AcDbLine
 10
713.016241615365
 20
-618.5931567659845
 30
0.0
 11
713.016241615365
 21
-604.8213303512663
 31
0.0
1001
ACAD
1000
DSTYLE
1002
{
1070
    45
1040
0.5
1002
}
  0
LINE
  5
21743
330
18
100
AcDbEntity
  8
1DIM
100
AcDbLine
 10
662.5306895266768
 20
-605.8213303512663
 30
0.0
 11
711.016241615365
 21
-605.8213303512663
 31
0.0
1001
ACAD
1000
DSTYLE
1002
{
1070
    45
1040
0.5
1002
}
  0
LINE
  5
21747
330
18
100
AcDbEntity
  8
1DIM
100
AcDbLine
 10
746.447036532668
 20
-655.8213303512666
 30
0.0
 11
755.516241615365
 21
-655.8213303512666
 31
0.0
1001
ACAD
1000
DSTYLE
1002
{
1070
    45
1040
0.5
1070
   271
1070
     0
1002
}
  0
LINE
  5
21748
330
18
100
AcDbEntity
  8
1DIM
100
AcDbLine
 10
713.0162416153648
 20
-645.8253805863225
 30
0.0
 11
755.516241615365
 21
-645.8253805863225
 31
0.0
1001
ACAD
1000
DSTYLE
1002
{
1070
    45
1040
0.5
1070
   271
1070
     0
1002
}
  0
LINE
  5
21749
330
18
100
AcDbEntity
  8
1DIM
100
AcDbLine
 10
754.516241615365
 20
-653.8213303512666
 30
0.0
 11
754.516241615365
 21
-647.8253805863225
 31
0.0
1001
ACAD
1000
DSTYLE
1002
{
1070
    45
1040
0.5
1070
   271
1070
     0
1002
}
  0
LINE
  5
2174D
330
18
100
AcDbEntity
  8
1DIM
100
AcDbLine
 10
713.016241615365
 20
-665.8253741160859
 30
0.0
 11
765.516241615365
 21
-665.8253741160859
 31
0.0
1001
ACAD
1000
DSTYLE
1002
{
1070
    45
1040
0.5
1002
}
  0
LINE
  5
2174E
330
18
100
AcDbEntity
  8
1DIM
100
AcDbLine
 10
713.0162416153648
 20
-645.8253805863225
 30
0.0
 11
765.516241615365
 21
-645.8253805863225
 31
0.0
1001
ACAD
1000
DSTYLE
1002
{
1070
    45
1040
0.5
1002
}
  0
LINE
  5
2174F
330
18
100
AcDbEntity
  8
1DIM
100
AcDbLine
 10
764.516241615365
 20
-663.8253741160859
 30
0.0
 11
764.516241615365
 21
-647.8253805863225
 31
0.0
1001
ACAD
1000
DSTYLE
1002
{
1070
    45
1040
0.5
1002
}
  0
SOLID
  5
21753
330
18
100
AcDbEntity
  8
1DIM
100
AcDbTrace
 10
716.6708479197653
 20
-624.9354292138315
 30
0.0
 11
715.9299131930724
 21
-626.8227889680627
 31
0.0
 12
716.0186807169501
 22
-624.797145505403
 32
0.0
 13
716.0186807169501
 23
-624.797145505403
 33
0.0
1001
ACAD
1000
DSTYLE
1002
{
1070
    45
1040
0.5
1002
}
  0
LINE
  5
21754
330
18
100
AcDbEntity
  8
1DIM
100
AcDbLine
 10
716.3447643183576
 20
-624.8662873596172
 30
0.0
 11
719.0537571261874
 21
-612.0902613041472
 31
0.0
1001
ACAD
1000
DSTYLE
1002
{
1070
    45
1040
0.5
1002
}
  0
SOLID
  5
21755
330
18
100
AcDbEntity
  8
1DIM
100
AcDbTrace
 10
729.8062660649305
 20
-624.9354292138315
 30
0.0
 11
729.0653313382376
 21
-626.8227889680627
 31
0.0
 12
729.1540988621153
 22
-624.797145505403
 32
0.0
 13
729.1540988621153
 23
-624.797145505403
 33
0.0
1001
ACAD
1000
DSTYLE
1002
{
1070
    45
1040
0.5
1002
}
  0
LINE
  5
21756
330
18
100
AcDbEntity
  8
1DIM
100
AcDbLine
 10
729.4801824635229
 20
-624.8662873596172
 30
0.0
 11
732.1891752713526
 21
-612.0902613041472
 31
0.0
1001
ACAD
1000
DSTYLE
1002
{
1070
    45
1040
0.5
1002
}
  0
LINE
  5
21757
330
18
100
AcDbEntity
  8
0
100
AcDbLine
 10
550.0162881512622
 20
-524.8213303514289
 30
0.0
 11
548.5162881512622
 21
-530.1213268612905
 31
0.0
  0
LINE
  5
21758
330
18
100
AcDbEntity
  8
0
100
AcDbLine
 10
548.5162881512622
 20
-530.1213268612905
 30
0.0
 11
548.5162881512624
 21
-559.8213268611825
 31
0.0
  0
LINE
  5
21759
330
18
100
AcDbEntity
  8
0
100
AcDbLine
 10
550.0162881512622
 20
-524.8213303514289
 30
0.0
 11
551.5162881512623
 21
-530.1213338416742
 31
0.0
  0
LINE
  5
2175A
330
18
100
AcDbEntity
  8
0
100
AcDbLine
 10
546.5162416153644
 20
-559.8213222074843
 30
0.0
 11
553.5162416153643
 21
-559.8213384950487
 31
0.0
  0
LINE
  5
2175B
330
18
100
AcDbEntity
  8
0
100
AcDbLine
 10
551.5162881512623
 20
-530.1213338416742
 30
0.0
 11
551.5162881512624
 21
-559.8213338415671
 31
0.0
  0
LINE
  5
2175C
330
18
100
AcDbEntity
  8
0
100
AcDbLine
 10
546.5162416153644
 20
-559.8213222074843
 30
0.0
 11
546.5162416153643
 21
-560.9213256976797
 31
0.0
  0
ARC
  5
2175D
330
18
100
AcDbEntity
  8
0
100
AcDbCircle
 10
548.0162416153643
 20
-560.9213256976797
 30
0.0
 40
1.5
100
AcDbArc
 50
180.0
 51
269.9998666844662
  0
LINE
  5
2175E
330
18
100
AcDbEntity
  8
0
100
AcDbLine
 10
553.5162416153643
 20
-559.8213384950487
 30
0.0
 11
553.5162416153643
 21
-560.9213350048593
 31
0.0
  0
LINE
  5
2175F
330
18
100
AcDbEntity
  8
0
100
AcDbLine
 10
548.0162381251719
 20
-562.4213256976756
 30
0.0
 11
552.0162381251719
 21
-562.4213350048552
 31
0.0
  0
ARC
  5
21760
330
18
100
AcDbEntity
  8
0
100
AcDbCircle
 10
552.0162416153643
 20
-560.9213350048593
 30
0.0
 40
1.5
100
AcDbArc
 50
269.9998666844662
 51
0.0
  0
LINE
  5
21761
330
18
100
AcDbEntity
  8
1CENTER
100
AcDbLine
 10
550.0162416153643
 20
-523.3905354339635
 30
0.0
 11
550.0162416153643
 21
-563.4916067605753
 31
0.0
  0
LINE
  5
21762
330
18
100
AcDbEntity
  8
0
100
AcDbLine
 10
548.9219178013692
 20
-526.9213278051067
 30
0.0
 11
550.8842528902446
 21
-526.1213323710557
 31
0.0
  0
LINE
  5
21763
330
18
100
AcDbEntity
  8
0
100
AcDbLine
 10
550.8842528902446
 20
-526.1213323710557
 30
0.0
 11
550.2959763152022
 21
-525.8095625148036
 31
0.0
  0
LINE
  5
21764
330
18
100
AcDbEntity
  8
0
100
AcDbLine
 10
548.0162881512622
 20
-549.3213256978967
 30
0.0
 11
552.0162881512622
 21
-548.5213350050784
 31
0.0
  0
LINE
  5
21765
330
18
100
AcDbEntity
  8
0
100
AcDbLine
 10
548.0162881512622
 20
-538.1213256978923
 30
0.0
 11
552.0162881512622
 21
-537.3213350050697
 31
0.0
  0
LINE
  5
21766
330
18
100
AcDbEntity
  8
0
100
AcDbLine
 10
548.0162881512622
 20
-534.9213256978923
 30
0.0
 11
552.0162881512622
 21
-534.1213350050697
 31
0.0
  0
LINE
  5
21767
330
18
100
AcDbEntity
  8
0
100
AcDbLine
 10
552.0162881512622
 20
-534.1213350050697
 30
0.0
 11
551.5162881512622
 21
-534.0213338416725
 31
0.0
  0
LINE
  5
21768
330
18
100
AcDbEntity
  8
0
100
AcDbLine
 10
548.5162881512622
 20
-533.4213268612895
 30
0.0
 11
548.0162881512622
 21
-533.3213256978922
 31
0.0
  0
LINE
  5
21769
330
18
100
AcDbEntity
  8
0
100
AcDbLine
 10
552.0162881512622
 20
-537.3213350050697
 30
0.0
 11
551.5162881512622
 21
-537.2213338416725
 31
0.0
  0
LINE
  5
2176A
330
18
100
AcDbEntity
  8
0
100
AcDbLine
 10
552.0162881512622
 20
-535.7213350050696
 30
0.0
 11
551.5162881512622
 21
-535.6213338416725
 31
0.0
  0
LINE
  5
2176B
330
18
100
AcDbEntity
  8
0
100
AcDbLine
 10
548.5162881512622
 20
-535.0213268612894
 30
0.0
 11
548.0162881512622
 21
-534.9213256978923
 31
0.0
  0
LINE
  5
2176C
330
18
100
AcDbEntity
  8
0
100
AcDbLine
 10
548.5162881512622
 20
-536.6213268612893
 30
0.0
 11
548.0162881512622
 21
-536.5213256978922
 31
0.0
  0
LINE
  5
2176D
330
18
100
AcDbEntity
  8
0
100
AcDbLine
 10
548.0162881512622
 20
-536.5213256978922
 30
0.0
 11
552.0162881512622
 21
-535.7213350050696
 31
0.0
  0
LINE
  5
2176E
330
18
100
AcDbEntity
  8
0
100
AcDbLine
 10
551.3370669946514
 20
-527.7213334246613
 30
0.0
 11
550.7853175308481
 21
-527.5385692820333
 31
0.0
  0
LINE
  5
2176F
330
18
100
AcDbEntity
  8
0
100
AcDbLine
 10
552.0162881512622
 20
-530.9213350050696
 30
0.0
 11
551.5162881512622
 21
-530.8213338416725
 31
0.0
  0
LINE
  5
21770
330
18
100
AcDbEntity
  8
0
100
AcDbLine
 10
552.0162881512622
 20
-532.5213350050697
 30
0.0
 11
551.5162881512622
 21
-532.4213338416727
 31
0.0
  0
LINE
  5
21771
330
18
100
AcDbEntity
  8
0
100
AcDbLine
 10
551.7898810990582
 20
-529.321334478267
 30
0.0
 11
551.2532873637871
 21
-529.1920637806371
 31
0.0
  0
LINE
  5
21772
330
18
100
AcDbEntity
  8
0
100
AcDbLine
 10
548.9372027484709
 20
-528.6340962638525
 30
0.0
 11
548.4691042933209
 21
-528.5213267515024
 31
0.0
  0
LINE
  5
21773
330
18
100
AcDbEntity
  8
0
100
AcDbLine
 10
548.5162881512622
 20
-531.8213268612893
 30
0.0
 11
548.0162881512622
 21
-531.7213256978922
 31
0.0
  0
LINE
  5
21774
330
18
100
AcDbEntity
  8
0
100
AcDbLine
 10
548.5162881512622
 20
-530.2213268612894
 30
0.0
 11
548.0162881512622
 21
-530.1213256978923
 31
0.0
  0
LINE
  5
21775
330
18
100
AcDbEntity
  8
0
100
AcDbLine
 10
549.3790896420003
 20
-527.0727636015471
 30
0.0
 11
548.9219178013692
 21
-526.9213278051067
 31
0.0
  0
LINE
  5
21776
330
18
100
AcDbEntity
  8
0
100
AcDbLine
 10
548.4691042933209
 20
-528.5213267515024
 30
0.0
 11
551.3370669946514
 21
-527.7213334246613
 31
0.0
  0
LINE
  5
21777
330
18
100
AcDbEntity
  8
0
100
AcDbLine
 10
548.0162881512622
 20
-531.7213256978922
 30
0.0
 11
552.0162881512622
 21
-530.9213350050696
 31
0.0
  0
LINE
  5
21778
330
18
100
AcDbEntity
  8
0
100
AcDbLine
 10
548.0162881512622
 20
-530.1213256978923
 30
0.0
 11
551.7898810990582
 21
-529.321334478267
 31
0.0
  0
LINE
  5
21779
330
18
100
AcDbEntity
  8
0
100
AcDbLine
 10
548.0162881512622
 20
-533.3213256978922
 30
0.0
 11
552.0162881512622
 21
-532.5213350050697
 31
0.0
  0
LINE
  5
2177A
330
18
100
AcDbEntity
  8
0
100
AcDbLine
 10
548.0162881512622
 20
-546.1213256978966
 30
0.0
 11
552.0162881512622
 21
-545.3213350050784
 31
0.0
  0
LINE
  5
2177B
330
18
100
AcDbEntity
  8
0
100
AcDbLine
 10
552.0162881512622
 20
-545.3213350050784
 30
0.0
 11
551.5162881512622
 21
-545.2213338416807
 31
0.0
  0
LINE
  5
2177C
330
18
100
AcDbEntity
  8
0
100
AcDbLine
 10
548.5162881512622
 20
-544.62132686129
 30
0.0
 11
548.0162881512622
 21
-544.5213256978923
 31
0.0
  0
LINE
  5
2177D
330
18
100
AcDbEntity
  8
0
100
AcDbLine
 10
552.0162881512622
 20
-546.9213350050785
 30
0.0
 11
551.5162881512622
 21
-546.8213338416808
 31
0.0
  0
LINE
  5
2177E
330
18
100
AcDbEntity
  8
0
100
AcDbLine
 10
552.0162881512622
 20
-548.5213350050784
 30
0.0
 11
551.5162881512622
 21
-548.4213338416807
 31
0.0
  0
LINE
  5
2177F
330
18
100
AcDbEntity
  8
0
100
AcDbLine
 10
548.5162881512622
 20
-546.2213268612943
 30
0.0
 11
548.0162881512622
 21
-546.1213256978966
 31
0.0
  0
LINE
  5
21780
330
18
100
AcDbEntity
  8
0
100
AcDbLine
 10
548.5162881512622
 20
-547.8213268612944
 30
0.0
 11
548.0162881512622
 21
-547.7213256978968
 31
0.0
  0
LINE
  5
21781
330
18
100
AcDbEntity
  8
0
100
AcDbLine
 10
548.0162881512622
 20
-547.7213256978968
 30
0.0
 11
552.0162881512622
 21
-546.9213350050785
 31
0.0
  0
LINE
  5
21782
330
18
100
AcDbEntity
  8
0
100
AcDbLine
 10
552.0162881512622
 20
-540.521335005074
 30
0.0
 11
551.5162881512622
 21
-540.4213338416763
 31
0.0
  0
LINE
  5
21783
330
18
100
AcDbEntity
  8
0
100
AcDbLine
 10
552.0162881512622
 20
-538.9213350050696
 30
0.0
 11
551.5162881512622
 21
-538.8213338416725
 31
0.0
  0
LINE
  5
21784
330
18
100
AcDbEntity
  8
0
100
AcDbLine
 10
552.0162881512622
 20
-543.721335005074
 30
0.0
 11
551.5162881512622
 21
-543.6213338416763
 31
0.0
  0
LINE
  5
21785
330
18
100
AcDbEntity
  8
0
100
AcDbLine
 10
552.0162881512622
 20
-542.1213350050741
 30
0.0
 11
551.5162881512622
 21
-542.0213338416764
 31
0.0
  0
LINE
  5
21786
330
18
100
AcDbEntity
  8
0
100
AcDbLine
 10
548.5162881512622
 20
-538.2213268612894
 30
0.0
 11
548.0162881512622
 21
-538.1213256978923
 31
0.0
  0
LINE
  5
21787
330
18
100
AcDbEntity
  8
0
100
AcDbLine
 10
548.5162881512622
 20
-539.82132686129
 30
0.0
 11
548.0162881512622
 21
-539.7213256978922
 31
0.0
  0
LINE
  5
21788
330
18
100
AcDbEntity
  8
0
100
AcDbLine
 10
548.5162881512622
 20
-543.02132686129
 30
0.0
 11
548.0162881512622
 21
-542.9213256978924
 31
0.0
  0
LINE
  5
21789
330
18
100
AcDbEntity
  8
0
100
AcDbLine
 10
548.5162881512622
 20
-541.4213268612899
 30
0.0
 11
548.0162881512622
 21
-541.3213256978922
 31
0.0
  0
LINE
  5
2178A
330
18
100
AcDbEntity
  8
0
100
AcDbLine
 10
548.0162881512622
 20
-541.3213256978922
 30
0.0
 11
552.0162881512622
 21
-540.521335005074
 31
0.0
  0
LINE
  5
2178B
330
18
100
AcDbEntity
  8
0
100
AcDbLine
 10
548.0162881512622
 20
-539.7213256978922
 30
0.0
 11
552.0162881512622
 21
-538.9213350050696
 31
0.0
  0
LINE
  5
2178C
330
18
100
AcDbEntity
  8
0
100
AcDbLine
 10
548.0162881512622
 20
-542.9213256978924
 30
0.0
 11
552.0162881512622
 21
-542.1213350050741
 31
0.0
  0
LINE
  5
2178D
330
18
100
AcDbEntity
  8
0
100
AcDbLine
 10
548.0162881512622
 20
-544.5213256978923
 30
0.0
 11
552.0162881512622
 21
-543.721335005074
 31
0.0
  0
LINE
  5
2178E
330
18
100
AcDbEntity
  8
0
100
AcDbLine
 10
548.5162881512622
 20
-554.2213268612985
 30
0.0
 11
548.0162881512622
 21
-554.1213256979008
 31
0.0
  0
LINE
  5
2178F
330
18
100
AcDbEntity
  8
0
100
AcDbLine
 10
548.0162881512622
 20
-554.1213256979008
 30
0.0
 11
552.0162881512622
 21
-553.3213350050826
 31
0.0
  0
LINE
  5
21790
330
18
100
AcDbEntity
  8
0
100
AcDbLine
 10
552.0162881512622
 20
-553.3213350050826
 30
0.0
 11
551.5162881512622
 21
-553.2213338416849
 31
0.0
  0
LINE
  5
21791
330
18
100
AcDbEntity
  8
0
100
AcDbLine
 10
548.5162881512622
 20
-552.6213268612986
 30
0.0
 11
548.0162881512622
 21
-552.5213256979009
 31
0.0
  0
LINE
  5
21792
330
18
100
AcDbEntity
  8
0
100
AcDbLine
 10
548.5162881512622
 20
-551.0213268612987
 30
0.0
 11
548.0162881512622
 21
-550.921325697901
 31
0.0
  0
LINE
  5
21793
330
18
100
AcDbEntity
  8
0
100
AcDbLine
 10
548.0162881512622
 20
-550.921325697901
 30
0.0
 11
552.0162881512622
 21
-550.1213350050828
 31
0.0
  0
LINE
  5
21794
330
18
100
AcDbEntity
  8
0
100
AcDbLine
 10
552.0162881512622
 20
-551.7213350050827
 30
0.0
 11
551.5162881512622
 21
-551.621333841685
 31
0.0
  0
LINE
  5
21795
330
18
100
AcDbEntity
  8
0
100
AcDbLine
 10
552.0162881512622
 20
-550.1213350050828
 30
0.0
 11
551.5162881512622
 21
-550.0213338416851
 31
0.0
  0
LINE
  5
21796
330
18
100
AcDbEntity
  8
0
100
AcDbLine
 10
548.0162881512622
 20
-552.5213256979009
 30
0.0
 11
552.0162881512622
 21
-551.7213350050827
 31
0.0
  0
LINE
  5
21797
330
18
100
AcDbEntity
  8
0
100
AcDbLine
 10
548.5162881512622
 20
-549.4213268612943
 30
0.0
 11
548.0162881512622
 21
-549.3213256978967
 31
0.0
  0
LINE
  5
21798
330
18
100
AcDbEntity
  8
0
100
AcDbLine
 10
548.5162881512622
 20
-555.8213268612984
 30
0.0
 11
548.0162881512622
 21
-555.7213256979007
 31
0.0
  0
LINE
  5
21799
330
18
100
AcDbEntity
  8
0
100
AcDbLine
 10
548.0162881512622
 20
-555.7213256979007
 30
0.0
 11
552.0162881512622
 21
-554.9213350050825
 31
0.0
  0
LINE
  5
2179A
330
18
100
AcDbEntity
  8
0
100
AcDbLine
 10
552.0162881512622
 20
-554.9213350050825
 30
0.0
 11
551.5162881512622
 21
-554.8213338416848
 31
0.0
  0
LINE
  5
2179B
330
18
100
AcDbEntity
  8
0
100
AcDbLine
 10
548.5162881512622
 20
-557.4213268612983
 30
0.0
 11
548.0162881512622
 21
-557.3213256979006
 31
0.0
  0
LINE
  5
2179C
330
18
100
AcDbEntity
  8
0
100
AcDbLine
 10
548.0162881512622
 20
-557.3213256979006
 30
0.0
 11
552.0162881512622
 21
-556.5213350050824
 31
0.0
  0
LINE
  5
2179D
330
18
100
AcDbEntity
  8
0
100
AcDbLine
 10
552.0162881512622
 20
-556.5213350050824
 30
0.0
 11
551.5162881512622
 21
-556.4213338416847
 31
0.0
  0
LINE
  5
2179E
330
18
100
AcDbEntity
  8
0
100
AcDbLine
 10
548.5162881512622
 20
-559.0213268612982
 30
0.0
 11
548.0162881512622
 21
-558.9213256979006
 31
0.0
  0
LINE
  5
2179F
330
18
100
AcDbEntity
  8
0
100
AcDbLine
 10
548.0162881512622
 20
-558.9213256979006
 30
0.0
 11
552.0162881512622
 21
-558.1213350050823
 31
0.0
  0
LINE
  5
217A0
330
18
100
AcDbEntity
  8
0
100
AcDbLine
 10
552.0162881512622
 20
-558.1213350050823
 30
0.0
 11
551.5162881512622
 21
-558.0213338416846
 31
0.0
  0
LINE
  5
217A1
330
18
100
AcDbEntity
  8
0
100
AcDbLine
 10
450.0162881512622
 20
-524.8213303514287
 30
0.0
 11
448.5162881512622
 21
-530.1213268612904
 31
0.0
  0
LINE
  5
217A2
330
18
100
AcDbEntity
  8
0
100
AcDbLine
 10
448.5162881512622
 20
-530.1213268612904
 30
0.0
 11
448.5162881512624
 21
-559.8213268611823
 31
0.0
  0
LINE
  5
217A3
330
18
100
AcDbEntity
  8
0
100
AcDbLine
 10
450.0162881512622
 20
-524.8213303514287
 30
0.0
 11
451.5162881512623
 21
-530.1213338416741
 31
0.0
  0
LINE
  5
217A4
330
18
100
AcDbEntity
  8
0
100
AcDbLine
 10
446.5162416153644
 20
-559.8213222074842
 30
0.0
 11
453.5162416153643
 21
-559.8213384950486
 31
0.0
  0
LINE
  5
217A5
330
18
100
AcDbEntity
  8
0
100
AcDbLine
 10
451.5162881512623
 20
-530.1213338416741
 30
0.0
 11
451.5162881512624
 21
-559.821333841567
 31
0.0
  0
LINE
  5
217A6
330
18
100
AcDbEntity
  8
0
100
AcDbLine
 10
446.5162416153644
 20
-559.8213222074842
 30
0.0
 11
446.5162416153643
 21
-560.9213256976795
 31
0.0
  0
ARC
  5
217A7
330
18
100
AcDbEntity
  8
0
100
AcDbCircle
 10
448.0162416153643
 20
-560.9213256976795
 30
0.0
 40
1.5
100
AcDbArc
 50
180.0
 51
269.9998666844684
  0
LINE
  5
217A8
330
18
100
AcDbEntity
  8
0
100
AcDbLine
 10
453.5162416153643
 20
-559.8213384950486
 30
0.0
 11
453.5162416153643
 21
-560.9213350048592
 31
0.0
  0
LINE
  5
217A9
330
18
100
AcDbEntity
  8
0
100
AcDbLine
 10
448.0162381251719
 20
-562.4213256976755
 30
0.0
 11
452.0162381251719
 21
-562.4213350048551
 31
0.0
  0
ARC
  5
217AA
330
18
100
AcDbEntity
  8
0
100
AcDbCircle
 10
452.0162416153643
 20
-560.9213350048592
 30
0.0
 40
1.5
100
AcDbArc
 50
269.9998666844684
 51
0.0
  0
LINE
  5
217AB
330
18
100
AcDbEntity
  8
1CENTER
100
AcDbLine
 10
450.0162416153643
 20
-523.3905354339634
 30
0.0
 11
450.0162416153643
 21
-563.4916067605752
 31
0.0
  0
LINE
  5
217AC
330
18
100
AcDbEntity
  8
0
100
AcDbLine
 10
448.9219178013692
 20
-526.9213278051066
 30
0.0
 11
450.8842528902446
 21
-526.1213323710556
 31
0.0
  0
LINE
  5
217AD
330
18
100
AcDbEntity
  8
0
100
AcDbLine
 10
450.8842528902446
 20
-526.1213323710556
 30
0.0
 11
450.2959763152022
 21
-525.8095625148035
 31
0.0
  0
LINE
  5
217AE
330
18
100
AcDbEntity
  8
0
100
AcDbLine
 10
448.0162881512622
 20
-549.3213256978966
 30
0.0
 11
452.0162881512622
 21
-548.5213350050783
 31
0.0
  0
LINE
  5
217AF
330
18
100
AcDbEntity
  8
0
100
AcDbLine
 10
448.0162881512622
 20
-538.1213256978922
 30
0.0
 11
452.0162881512622
 21
-537.3213350050696
 31
0.0
  0
LINE
  5
217B0
330
18
100
AcDbEntity
  8
0
100
AcDbLine
 10
448.0162881512622
 20
-534.9213256978921
 30
0.0
 11
452.0162881512622
 21
-534.1213350050696
 31
0.0
  0
LINE
  5
217B1
330
18
100
AcDbEntity
  8
0
100
AcDbLine
 10
452.0162881512622
 20
-534.1213350050696
 30
0.0
 11
451.5162881512622
 21
-534.0213338416723
 31
0.0
  0
LINE
  5
217B2
330
18
100
AcDbEntity
  8
0
100
AcDbLine
 10
448.5162881512622
 20
-533.4213268612893
 30
0.0
 11
448.0162881512622
 21
-533.3213256978921
 31
0.0
  0
LINE
  5
217B3
330
18
100
AcDbEntity
  8
0
100
AcDbLine
 10
452.0162881512622
 20
-537.3213350050696
 30
0.0
 11
451.5162881512622
 21
-537.2213338416724
 31
0.0
  0
LINE
  5
217B4
330
18
100
AcDbEntity
  8
0
100
AcDbLine
 10
452.0162881512622
 20
-535.7213350050695
 30
0.0
 11
451.5162881512622
 21
-535.6213338416724
 31
0.0
  0
LINE
  5
217B5
330
18
100
AcDbEntity
  8
0
100
AcDbLine
 10
448.5162881512622
 20
-535.0213268612893
 30
0.0
 11
448.0162881512622
 21
-534.9213256978921
 31
0.0
  0
LINE
  5
217B6
330
18
100
AcDbEntity
  8
0
100
AcDbLine
 10
448.5162881512622
 20
-536.6213268612892
 30
0.0
 11
448.0162881512622
 21
-536.521325697892
 31
0.0
  0
LINE
  5
217B7
330
18
100
AcDbEntity
  8
0
100
AcDbLine
 10
448.0162881512622
 20
-536.521325697892
 30
0.0
 11
452.0162881512622
 21
-535.7213350050695
 31
0.0
  0
LINE
  5
217B8
330
18
100
AcDbEntity
  8
0
100
AcDbLine
 10
451.3370669946514
 20
-527.7213334246612
 30
0.0
 11
450.7853175308481
 21
-527.5385692820332
 31
0.0
  0
LINE
  5
217B9
330
18
100
AcDbEntity
  8
0
100
AcDbLine
 10
452.0162881512622
 20
-530.9213350050695
 30
0.0
 11
451.5162881512622
 21
-530.8213338416724
 31
0.0
  0
LINE
  5
217BA
330
18
100
AcDbEntity
  8
0
100
AcDbLine
 10
452.0162881512622
 20
-532.5213350050695
 30
0.0
 11
451.5162881512622
 21
-532.4213338416725
 31
0.0
  0
LINE
  5
217BB
330
18
100
AcDbEntity
  8
0
100
AcDbLine
 10
451.7898810990582
 20
-529.3213344782669
 30
0.0
 11
451.2532873637871
 21
-529.192063780637
 31
0.0
  0
LINE
  5
217BC
330
18
100
AcDbEntity
  8
0
100
AcDbLine
 10
448.9372027484709
 20
-528.6340962638524
 30
0.0
 11
448.4691042933209
 21
-528.5213267515023
 31
0.0
  0
LINE
  5
217BD
330
18
100
AcDbEntity
  8
0
100
AcDbLine
 10
448.5162881512622
 20
-531.8213268612892
 30
0.0
 11
448.0162881512622
 21
-531.7213256978921
 31
0.0
  0
LINE
  5
217BE
330
18
100
AcDbEntity
  8
0
100
AcDbLine
 10
448.5162881512622
 20
-530.2213268612893
 30
0.0
 11
448.0162881512622
 21
-530.1213256978922
 31
0.0
  0
LINE
  5
217BF
330
18
100
AcDbEntity
  8
0
100
AcDbLine
 10
449.3790896420003
 20
-527.072763601547
 30
0.0
 11
448.9219178013692
 21
-526.9213278051066
 31
0.0
  0
LINE
  5
217C0
330
18
100
AcDbEntity
  8
0
100
AcDbLine
 10
448.4691042933209
 20
-528.5213267515023
 30
0.0
 11
451.3370669946514
 21
-527.7213334246612
 31
0.0
  0
LINE
  5
217C1
330
18
100
AcDbEntity
  8
0
100
AcDbLine
 10
448.0162881512622
 20
-531.7213256978921
 30
0.0
 11
452.0162881512622
 21
-530.9213350050695
 31
0.0
  0
LINE
  5
217C2
330
18
100
AcDbEntity
  8
0
100
AcDbLine
 10
448.0162881512622
 20
-530.1213256978922
 30
0.0
 11
451.7898810990582
 21
-529.3213344782669
 31
0.0
  0
LINE
  5
217C3
330
18
100
AcDbEntity
  8
0
100
AcDbLine
 10
448.0162881512622
 20
-533.3213256978921
 30
0.0
 11
452.0162881512622
 21
-532.5213350050695
 31
0.0
  0
LINE
  5
217C4
330
18
100
AcDbEntity
  8
0
100
AcDbLine
 10
448.0162881512622
 20
-546.1213256978965
 30
0.0
 11
452.0162881512622
 21
-545.3213350050783
 31
0.0
  0
LINE
  5
217C5
330
18
100
AcDbEntity
  8
0
100
AcDbLine
 10
452.0162881512622
 20
-545.3213350050783
 30
0.0
 11
451.5162881512622
 21
-545.2213338416806
 31
0.0
  0
LINE
  5
217C6
330
18
100
AcDbEntity
  8
0
100
AcDbLine
 10
448.5162881512622
 20
-544.6213268612898
 30
0.0
 11
448.0162881512622
 21
-544.5213256978922
 31
0.0
  0
LINE
  5
217C7
330
18
100
AcDbEntity
  8
0
100
AcDbLine
 10
452.0162881512622
 20
-546.9213350050784
 30
0.0
 11
451.5162881512622
 21
-546.8213338416807
 31
0.0
  0
LINE
  5
217C8
330
18
100
AcDbEntity
  8
0
100
AcDbLine
 10
452.0162881512622
 20
-548.5213350050783
 30
0.0
 11
451.5162881512622
 21
-548.4213338416806
 31
0.0
  0
LINE
  5
217C9
330
18
100
AcDbEntity
  8
0
100
AcDbLine
 10
448.5162881512622
 20
-546.2213268612942
 30
0.0
 11
448.0162881512622
 21
-546.1213256978965
 31
0.0
  0
LINE
  5
217CA
330
18
100
AcDbEntity
  8
0
100
AcDbLine
 10
448.5162881512622
 20
-547.8213268612943
 30
0.0
 11
448.0162881512622
 21
-547.7213256978966
 31
0.0
  0
LINE
  5
217CB
330
18
100
AcDbEntity
  8
0
100
AcDbLine
 10
448.0162881512622
 20
-547.7213256978966
 30
0.0
 11
452.0162881512622
 21
-546.9213350050784
 31
0.0
  0
LINE
  5
217CC
330
18
100
AcDbEntity
  8
0
100
AcDbLine
 10
452.0162881512622
 20
-540.5213350050739
 30
0.0
 11
451.5162881512622
 21
-540.4213338416762
 31
0.0
  0
LINE
  5
217CD
330
18
100
AcDbEntity
  8
0
100
AcDbLine
 10
452.0162881512622
 20
-538.9213350050695
 30
0.0
 11
451.5162881512622
 21
-538.8213338416724
 31
0.0
  0
LINE
  5
217CE
330
18
100
AcDbEntity
  8
0
100
AcDbLine
 10
452.0162881512622
 20
-543.7213350050739
 30
0.0
 11
451.5162881512622
 21
-543.6213338416762
 31
0.0
  0
LINE
  5
217CF
330
18
100
AcDbEntity
  8
0
100
AcDbLine
 10
452.0162881512622
 20
-542.121335005074
 30
0.0
 11
451.5162881512622
 21
-542.0213338416763
 31
0.0
  0
LINE
  5
217D0
330
18
100
AcDbEntity
  8
0
100
AcDbLine
 10
448.5162881512622
 20
-538.2213268612893
 30
0.0
 11
448.0162881512622
 21
-538.1213256978922
 31
0.0
  0
LINE
  5
217D1
330
18
100
AcDbEntity
  8
0
100
AcDbLine
 10
448.5162881512622
 20
-539.8213268612899
 30
0.0
 11
448.0162881512622
 21
-539.7213256978921
 31
0.0
  0
LINE
  5
217D2
330
18
100
AcDbEntity
  8
0
100
AcDbLine
 10
448.5162881512622
 20
-543.0213268612899
 30
0.0
 11
448.0162881512622
 21
-542.9213256978923
 31
0.0
  0
LINE
  5
217D3
330
18
100
AcDbEntity
  8
0
100
AcDbLine
 10
448.5162881512622
 20
-541.4213268612898
 30
0.0
 11
448.0162881512622
 21
-541.3213256978921
 31
0.0
  0
LINE
  5
217D4
330
18
100
AcDbEntity
  8
0
100
AcDbLine
 10
448.0162881512622
 20
-541.3213256978921
 30
0.0
 11
452.0162881512622
 21
-540.5213350050739
 31
0.0
  0
LINE
  5
217D5
330
18
100
AcDbEntity
  8
0
100
AcDbLine
 10
448.0162881512622
 20
-539.7213256978921
 30
0.0
 11
452.0162881512622
 21
-538.9213350050695
 31
0.0
  0
LINE
  5
217D6
330
18
100
AcDbEntity
  8
0
100
AcDbLine
 10
448.0162881512622
 20
-542.9213256978923
 30
0.0
 11
452.0162881512622
 21
-542.121335005074
 31
0.0
  0
LINE
  5
217D7
330
18
100
AcDbEntity
  8
0
100
AcDbLine
 10
448.0162881512622
 20
-544.5213256978922
 30
0.0
 11
452.0162881512622
 21
-543.7213350050739
 31
0.0
  0
LINE
  5
217D8
330
18
100
AcDbEntity
  8
0
100
AcDbLine
 10
448.5162881512622
 20
-554.2213268612984
 30
0.0
 11
448.0162881512622
 21
-554.1213256979007
 31
0.0
  0
LINE
  5
217D9
330
18
100
AcDbEntity
  8
0
100
AcDbLine
 10
448.0162881512622
 20
-554.1213256979007
 30
0.0
 11
452.0162881512622
 21
-553.3213350050825
 31
0.0
  0
LINE
  5
217DA
330
18
100
AcDbEntity
  8
0
100
AcDbLine
 10
452.0162881512622
 20
-553.3213350050825
 30
0.0
 11
451.5162881512622
 21
-553.2213338416848
 31
0.0
  0
LINE
  5
217DB
330
18
100
AcDbEntity
  8
0
100
AcDbLine
 10
448.5162881512622
 20
-552.6213268612985
 30
0.0
 11
448.0162881512622
 21
-552.5213256979008
 31
0.0
  0
LINE
  5
217DC
330
18
100
AcDbEntity
  8
0
100
AcDbLine
 10
448.5162881512622
 20
-551.0213268612986
 30
0.0
 11
448.0162881512622
 21
-550.9213256979009
 31
0.0
  0
LINE
  5
217DD
330
18
100
AcDbEntity
  8
0
100
AcDbLine
 10
448.0162881512622
 20
-550.9213256979009
 30
0.0
 11
452.0162881512622
 21
-550.1213350050826
 31
0.0
  0
LINE
  5
217DE
330
18
100
AcDbEntity
  8
0
100
AcDbLine
 10
452.0162881512622
 20
-551.7213350050826
 30
0.0
 11
451.5162881512622
 21
-551.6213338416849
 31
0.0
  0
LINE
  5
217DF
330
18
100
AcDbEntity
  8
0
100
AcDbLine
 10
452.0162881512622
 20
-550.1213350050826
 30
0.0
 11
451.5162881512622
 21
-550.021333841685
 31
0.0
  0
LINE
  5
217E0
330
18
100
AcDbEntity
  8
0
100
AcDbLine
 10
448.0162881512622
 20
-552.5213256979008
 30
0.0
 11
452.0162881512622
 21
-551.7213350050826
 31
0.0
  0
LINE
  5
217E1
330
18
100
AcDbEntity
  8
0
100
AcDbLine
 10
448.5162881512622
 20
-549.4213268612942
 30
0.0
 11
448.0162881512622
 21
-549.3213256978966
 31
0.0
  0
LINE
  5
217E2
330
18
100
AcDbEntity
  8
0
100
AcDbLine
 10
448.5162881512622
 20
-555.8213268612983
 30
0.0
 11
448.0162881512622
 21
-555.7213256979006
 31
0.0
  0
LINE
  5
217E3
330
18
100
AcDbEntity
  8
0
100
AcDbLine
 10
448.0162881512622
 20
-555.7213256979006
 30
0.0
 11
452.0162881512622
 21
-554.9213350050824
 31
0.0
  0
LINE
  5
217E4
330
18
100
AcDbEntity
  8
0
100
AcDbLine
 10
452.0162881512622
 20
-554.9213350050824
 30
0.0
 11
451.5162881512622
 21
-554.8213338416847
 31
0.0
  0
LINE
  5
217E5
330
18
100
AcDbEntity
  8
0
100
AcDbLine
 10
448.5162881512622
 20
-557.4213268612982
 30
0.0
 11
448.0162881512622
 21
-557.3213256979005
 31
0.0
  0
LINE
  5
217E6
330
18
100
AcDbEntity
  8
0
100
AcDbLine
 10
448.0162881512622
 20
-557.3213256979005
 30
0.0
 11
452.0162881512622
 21
-556.5213350050823
 31
0.0
  0
LINE
  5
217E7
330
18
100
AcDbEntity
  8
0
100
AcDbLine
 10
452.0162881512622
 20
-556.5213350050823
 30
0.0
 11
451.5162881512622
 21
-556.4213338416846
 31
0.0
  0
LINE
  5
217E8
330
18
100
AcDbEntity
  8
0
100
AcDbLine
 10
448.5162881512622
 20
-559.0213268612981
 30
0.0
 11
448.0162881512622
 21
-558.9213256979004
 31
0.0
  0
LINE
  5
217E9
330
18
100
AcDbEntity
  8
0
100
AcDbLine
 10
448.0162881512622
 20
-558.9213256979004
 30
0.0
 11
452.0162881512622
 21
-558.1213350050822
 31
0.0
  0
LINE
  5
217EA
330
18
100
AcDbEntity
  8
0
100
AcDbLine
 10
452.0162881512622
 20
-558.1213350050822
 30
0.0
 11
451.5162881512622
 21
-558.0213338416845
 31
0.0
  0
LINE
  5
217EB
330
18
100
AcDbEntity
  8
0
100
AcDbLine
 10
745.0162416152026
 20
-655.8213768871645
 30
0.0
 11
739.7162451053409
 21
-654.3213768871645
 31
0.0
  0
LINE
  5
217EC
330
18
100
AcDbEntity
  8
0
100
AcDbLine
 10
739.7162451053409
 20
-654.3213768871645
 30
0.0
 11
710.016245105449
 21
-654.3213768871648
 31
0.0
  0
LINE
  5
217ED
330
18
100
AcDbEntity
  8
0
100
AcDbLine
 10
745.0162416152026
 20
-655.8213768871645
 30
0.0
 11
739.7162381249573
 21
-657.3213768871647
 31
0.0
  0
LINE
  5
217EE
330
18
100
AcDbEntity
  8
0
100
AcDbLine
 10
710.0162497591472
 20
-652.3213303512667
 30
0.0
 11
710.0162334715827
 21
-659.3213303512666
 31
0.0
  0
LINE
  5
217EF
330
18
100
AcDbEntity
  8
0
100
AcDbLine
 10
739.7162381249573
 20
-657.3213768871647
 30
0.0
 11
710.0162381250643
 21
-657.3213768871648
 31
0.0
  0
LINE
  5
217F0
330
18
100
AcDbEntity
  8
0
100
AcDbLine
 10
710.0162497591472
 20
-652.3213303512667
 30
0.0
 11
708.9162462689518
 21
-652.3213303512666
 31
0.0
  0
ARC
  5
217F1
330
18
100
AcDbEntity
  8
0
100
AcDbCircle
 10
708.9162462689518
 20
-653.8213303512666
 30
0.0
 40
1.5
100
AcDbArc
 50
90.0
 51
179.9998666844663
  0
LINE
  5
217F2
330
18
100
AcDbEntity
  8
0
100
AcDbLine
 10
710.0162334715827
 20
-659.3213303512666
 30
0.0
 11
708.9162369617721
 21
-659.3213303512666
 31
0.0
  0
LINE
  5
217F3
330
18
100
AcDbEntity
  8
0
100
AcDbLine
 10
707.4162462689559
 20
-653.8213268610742
 30
0.0
 11
707.4162369617762
 21
-657.8213268610742
 31
0.0
  0
ARC
  5
217F4
330
18
100
AcDbEntity
  8
0
100
AcDbCircle
 10
708.9162369617721
 20
-657.8213303512666
 30
0.0
 40
1.5
100
AcDbArc
 50
179.9998666844663
 51
270.0
  0
LINE
  5
217F5
330
18
100
AcDbEntity
  8
1CENTER
100
AcDbLine
 10
746.447036532668
 20
-655.8213303512666
 30
0.0
 11
706.3459652060561
 21
-655.8213303512666
 31
0.0
  0
LINE
  5
217F6
330
18
100
AcDbEntity
  8
0
100
AcDbLine
 10
742.9162441615248
 20
-654.7270065372716
 30
0.0
 11
743.7162395955758
 21
-656.689341626147
 31
0.0
  0
LINE
  5
217F7
330
18
100
AcDbEntity
  8
0
100
AcDbLine
 10
743.7162395955758
 20
-656.689341626147
 30
0.0
 11
744.0280094518279
 21
-656.1010650511046
 31
0.0
  0
LINE
  5
217F8
330
18
100
AcDbEntity
  8
0
100
AcDbLine
 10
720.5162462687348
 20
-653.8213768871645
 30
0.0
 11
721.316236961553
 21
-657.8213768871645
 31
0.0
  0
LINE
  5
217F9
330
18
100
AcDbEntity
  8
0
100
AcDbLine
 10
731.7162462687392
 20
-653.8213768871645
 30
0.0
 11
732.5162369615617
 21
-657.8213768871645
 31
0.0
  0
LINE
  5
217FA
330
18
100
AcDbEntity
  8
0
100
AcDbLine
 10
734.9162462687392
 20
-653.8213768871645
 30
0.0
 11
735.7162369615618
 21
-657.8213768871645
 31
0.0
  0
LINE
  5
217FB
330
18
100
AcDbEntity
  8
0
100
AcDbLine
 10
735.7162369615618
 20
-657.8213768871645
 30
0.0
 11
735.816238124959
 21
-657.3213768871645
 31
0.0
  0
LINE
  5
217FC
330
18
100
AcDbEntity
  8
0
100
AcDbLine
 10
736.416245105342
 20
-654.3213768871645
 30
0.0
 11
736.5162462687392
 21
-653.8213768871645
 31
0.0
  0
LINE
  5
217FD
330
18
100
AcDbEntity
  8
0
100
AcDbLine
 10
732.5162369615617
 20
-657.8213768871645
 30
0.0
 11
732.616238124959
 21
-657.3213768871645
 31
0.0
  0
LINE
  5
217FE
330
18
100
AcDbEntity
  8
0
100
AcDbLine
 10
734.1162369615619
 20
-657.8213768871645
 30
0.0
 11
734.216238124959
 21
-657.3213768871645
 31
0.0
  0
LINE
  5
217FF
330
18
100
AcDbEntity
  8
0
100
AcDbLine
 10
734.8162451053421
 20
-654.3213768871645
 30
0.0
 11
734.9162462687392
 21
-653.8213768871645
 31
0.0
  0
LINE
  5
21800
330
18
100
AcDbEntity
  8
0
100
AcDbLine
 10
733.2162451053422
 20
-654.3213768871645
 30
0.0
 11
733.3162462687393
 21
-653.8213768871645
 31
0.0
  0
LINE
  5
21801
330
18
100
AcDbEntity
  8
0
100
AcDbLine
 10
733.3162462687393
 20
-653.8213768871645
 30
0.0
 11
734.1162369615619
 21
-657.8213768871645
 31
0.0
  0
LINE
  5
21802
330
18
100
AcDbEntity
  8
0
100
AcDbLine
 10
742.1162385419701
 20
-657.1421557305538
 30
0.0
 11
742.2990026845981
 21
-656.5904062667505
 31
0.0
  0
LINE
  5
21803
330
18
100
AcDbEntity
  8
0
100
AcDbLine
 10
738.9162369615618
 20
-657.8213768871645
 30
0.0
 11
739.0162381249589
 21
-657.3213768871645
 31
0.0
  0
LINE
  5
21804
330
18
100
AcDbEntity
  8
0
100
AcDbLine
 10
737.3162369615618
 20
-657.8213768871645
 30
0.0
 11
737.4162381249588
 21
-657.3213768871645
 31
0.0
  0
LINE
  5
21805
330
18
100
AcDbEntity
  8
0
100
AcDbLine
 10
740.5162374883645
 20
-657.5949698349606
 30
0.0
 11
740.6455081859943
 21
-657.0583760996894
 31
0.0
  0
LINE
  5
21806
330
18
100
AcDbEntity
  8
0
100
AcDbLine
 10
741.203475702779
 20
-654.7422914843733
 30
0.0
 11
741.316245215129
 21
-654.2741930292233
 31
0.0
  0
LINE
  5
21807
330
18
100
AcDbEntity
  8
0
100
AcDbLine
 10
738.0162451053421
 20
-654.3213768871645
 30
0.0
 11
738.1162462687392
 21
-653.8213768871645
 31
0.0
  0
LINE
  5
21808
330
18
100
AcDbEntity
  8
0
100
AcDbLine
 10
739.616245105342
 20
-654.3213768871645
 30
0.0
 11
739.7162462687392
 21
-653.8213768871645
 31
0.0
  0
LINE
  5
21809
330
18
100
AcDbEntity
  8
0
100
AcDbLine
 10
742.7648083650844
 20
-655.1841783779026
 30
0.0
 11
742.9162441615248
 21
-654.7270065372716
 31
0.0
  0
LINE
  5
2180A
330
18
100
AcDbEntity
  8
0
100
AcDbLine
 10
741.316245215129
 20
-654.2741930292233
 30
0.0
 11
742.1162385419701
 21
-657.1421557305538
 31
0.0
  0
LINE
  5
2180B
330
18
100
AcDbEntity
  8
0
100
AcDbLine
 10
738.1162462687392
 20
-653.8213768871645
 30
0.0
 11
738.9162369615618
 21
-657.8213768871645
 31
0.0
  0
LINE
  5
2180C
330
18
100
AcDbEntity
  8
0
100
AcDbLine
 10
739.7162462687392
 20
-653.8213768871645
 30
0.0
 11
740.5162374883645
 21
-657.5949698349606
 31
0.0
  0
LINE
  5
2180D
330
18
100
AcDbEntity
  8
0
100
AcDbLine
 10
736.5162462687392
 20
-653.8213768871645
 30
0.0
 11
737.3162369615618
 21
-657.8213768871645
 31
0.0
  0
LINE
  5
2180E
330
18
100
AcDbEntity
  8
0
100
AcDbLine
 10
723.7162462687348
 20
-653.8213768871645
 30
0.0
 11
724.5162369615531
 21
-657.8213768871645
 31
0.0
  0
LINE
  5
2180F
330
18
100
AcDbEntity
  8
0
100
AcDbLine
 10
724.5162369615531
 20
-657.8213768871645
 30
0.0
 11
724.6162381249508
 21
-657.3213768871645
 31
0.0
  0
LINE
  5
21810
330
18
100
AcDbEntity
  8
0
100
AcDbLine
 10
725.2162451053415
 20
-654.3213768871645
 30
0.0
 11
725.3162462687392
 21
-653.8213768871645
 31
0.0
  0
LINE
  5
21811
330
18
100
AcDbEntity
  8
0
100
AcDbLine
 10
722.916236961553
 20
-657.8213768871645
 30
0.0
 11
723.0162381249506
 21
-657.3213768871645
 31
0.0
  0
LINE
  5
21812
330
18
100
AcDbEntity
  8
0
100
AcDbLine
 10
721.316236961553
 20
-657.8213768871645
 30
0.0
 11
721.4162381249507
 21
-657.3213768871645
 31
0.0
  0
LINE
  5
21813
330
18
100
AcDbEntity
  8
0
100
AcDbLine
 10
723.6162451053372
 20
-654.3213768871645
 30
0.0
 11
723.7162462687348
 21
-653.8213768871645
 31
0.0
  0
LINE
  5
21814
330
18
100
AcDbEntity
  8
0
100
AcDbLine
 10
722.016245105337
 20
-654.3213768871645
 30
0.0
 11
722.1162462687347
 21
-653.8213768871645
 31
0.0
  0
LINE
  5
21815
330
18
100
AcDbEntity
  8
0
100
AcDbLine
 10
722.1162462687347
 20
-653.8213768871645
 30
0.0
 11
722.916236961553
 21
-657.8213768871645
 31
0.0
  0
LINE
  5
21816
330
18
100
AcDbEntity
  8
0
100
AcDbLine
 10
729.3162369615575
 20
-657.8213768871645
 30
0.0
 11
729.4162381249552
 21
-657.3213768871645
 31
0.0
  0
LINE
  5
21817
330
18
100
AcDbEntity
  8
0
100
AcDbLine
 10
730.9162369615618
 20
-657.8213768871645
 30
0.0
 11
731.0162381249589
 21
-657.3213768871645
 31
0.0
  0
LINE
  5
21818
330
18
100
AcDbEntity
  8
0
100
AcDbLine
 10
726.1162369615574
 20
-657.8213768871645
 30
0.0
 11
726.2162381249551
 21
-657.3213768871645
 31
0.0
  0
LINE
  5
21819
330
18
100
AcDbEntity
  8
0
100
AcDbLine
 10
727.7162369615573
 20
-657.8213768871645
 30
0.0
 11
727.816238124955
 21
-657.3213768871645
 31
0.0
  0
LINE
  5
2181A
330
18
100
AcDbEntity
  8
0
100
AcDbLine
 10
731.616245105342
 20
-654.3213768871645
 30
0.0
 11
731.7162462687392
 21
-653.8213768871645
 31
0.0
  0
LINE
  5
2181B
330
18
100
AcDbEntity
  8
0
100
AcDbLine
 10
730.0162451053415
 20
-654.3213768871645
 30
0.0
 11
730.1162462687392
 21
-653.8213768871645
 31
0.0
  0
LINE
  5
2181C
330
18
100
AcDbEntity
  8
0
100
AcDbLine
 10
726.8162451053414
 20
-654.3213768871645
 30
0.0
 11
726.9162462687391
 21
-653.8213768871645
 31
0.0
  0
LINE
  5
2181D
330
18
100
AcDbEntity
  8
0
100
AcDbLine
 10
728.4162451053415
 20
-654.3213768871645
 30
0.0
 11
728.5162462687392
 21
-653.8213768871645
 31
0.0
  0
LINE
  5
2181E
330
18
100
AcDbEntity
  8
0
100
AcDbLine
 10
728.5162462687392
 20
-653.8213768871645
 30
0.0
 11
729.3162369615575
 21
-657.8213768871645
 31
0.0
  0
LINE
  5
2181F
330
18
100
AcDbEntity
  8
0
100
AcDbLine
 10
730.1162462687392
 20
-653.8213768871645
 30
0.0
 11
730.9162369615618
 21
-657.8213768871645
 31
0.0
  0
LINE
  5
21820
330
18
100
AcDbEntity
  8
0
100
AcDbLine
 10
726.9162462687391
 20
-653.8213768871645
 30
0.0
 11
727.7162369615573
 21
-657.8213768871645
 31
0.0
  0
LINE
  5
21821
330
18
100
AcDbEntity
  8
0
100
AcDbLine
 10
725.3162462687392
 20
-653.8213768871645
 30
0.0
 11
726.1162369615574
 21
-657.8213768871645
 31
0.0
  0
LINE
  5
21822
330
18
100
AcDbEntity
  8
0
100
AcDbLine
 10
715.616245105333
 20
-654.3213768871645
 30
0.0
 11
715.7162462687306
 21
-653.8213768871645
 31
0.0
  0
LINE
  5
21823
330
18
100
AcDbEntity
  8
0
100
AcDbLine
 10
715.7162462687306
 20
-653.8213768871645
 30
0.0
 11
716.5162369615489
 21
-657.8213768871645
 31
0.0
  0
LINE
  5
21824
330
18
100
AcDbEntity
  8
0
100
AcDbLine
 10
716.5162369615489
 20
-657.8213768871645
 30
0.0
 11
716.6162381249466
 21
-657.3213768871645
 31
0.0
  0
LINE
  5
21825
330
18
100
AcDbEntity
  8
0
100
AcDbLine
 10
717.2162451053329
 20
-654.3213768871645
 30
0.0
 11
717.3162462687305
 21
-653.8213768871645
 31
0.0
  0
LINE
  5
21826
330
18
100
AcDbEntity
  8
0
100
AcDbLine
 10
718.8162451053328
 20
-654.3213768871645
 30
0.0
 11
718.9162462687304
 21
-653.8213768871645
 31
0.0
  0
LINE
  5
21827
330
18
100
AcDbEntity
  8
0
100
AcDbLine
 10
718.9162462687304
 20
-653.8213768871645
 30
0.0
 11
719.7162369615487
 21
-657.8213768871645
 31
0.0
  0
LINE
  5
21828
330
18
100
AcDbEntity
  8
0
100
AcDbLine
 10
718.1162369615488
 20
-657.8213768871645
 30
0.0
 11
718.2162381249465
 21
-657.3213768871645
 31
0.0
  0
LINE
  5
21829
330
18
100
AcDbEntity
  8
0
100
AcDbLine
 10
719.7162369615487
 20
-657.8213768871645
 30
0.0
 11
719.8162381249464
 21
-657.3213768871645
 31
0.0
  0
LINE
  5
2182A
330
18
100
AcDbEntity
  8
0
100
AcDbLine
 10
717.3162462687305
 20
-653.8213768871645
 30
0.0
 11
718.1162369615488
 21
-657.8213768871645
 31
0.0
  0
LINE
  5
2182B
330
18
100
AcDbEntity
  8
0
100
AcDbLine
 10
720.4162451053371
 20
-654.3213768871645
 30
0.0
 11
720.5162462687348
 21
-653.8213768871645
 31
0.0
  0
LINE
  5
2182C
330
18
100
AcDbEntity
  8
0
100
AcDbLine
 10
714.016245105333
 20
-654.3213768871645
 30
0.0
 11
714.1162462687307
 21
-653.8213768871645
 31
0.0
  0
LINE
  5
2182D
330
18
100
AcDbEntity
  8
0
100
AcDbLine
 10
714.1162462687307
 20
-653.8213768871645
 30
0.0
 11
714.916236961549
 21
-657.8213768871645
 31
0.0
  0
LINE
  5
2182E
330
18
100
AcDbEntity
  8
0
100
AcDbLine
 10
714.916236961549
 20
-657.8213768871645
 30
0.0
 11
715.0162381249467
 21
-657.3213768871645
 31
0.0
  0
LINE
  5
2182F
330
18
100
AcDbEntity
  8
0
100
AcDbLine
 10
712.4162451053331
 20
-654.3213768871645
 30
0.0
 11
712.5162462687308
 21
-653.8213768871645
 31
0.0
  0
LINE
  5
21830
330
18
100
AcDbEntity
  8
0
100
AcDbLine
 10
712.5162462687308
 20
-653.8213768871645
 30
0.0
 11
713.3162369615491
 21
-657.8213768871645
 31
0.0
  0
LINE
  5
21831
330
18
100
AcDbEntity
  8
0
100
AcDbLine
 10
713.3162369615491
 20
-657.8213768871645
 30
0.0
 11
713.4162381249467
 21
-657.3213768871645
 31
0.0
  0
LINE
  5
21832
330
18
100
AcDbEntity
  8
0
100
AcDbLine
 10
710.8162451053332
 20
-654.3213768871645
 30
0.0
 11
710.9162462687309
 21
-653.8213768871645
 31
0.0
  0
LINE
  5
21833
330
18
100
AcDbEntity
  8
0
100
AcDbLine
 10
710.9162462687309
 20
-653.8213768871645
 30
0.0
 11
711.7162369615492
 21
-657.8213768871645
 31
0.0
  0
LINE
  5
21834
330
18
100
AcDbEntity
  8
0
100
AcDbLine
 10
711.7162369615492
 20
-657.8213768871645
 30
0.0
 11
711.8162381249468
 21
-657.3213768871645
 31
0.0
  0
LINE
  5
21835
330
18
100
AcDbEntity
  8
1DIM
100
AcDbLine
 10
450.0159975069821
 20
-659.0712219515591
 30
0.0
 11
450.0159975069821
 21
-713.3562495504368
 31
0.0
1001
ACAD
1000
DSTYLE
1002
{
1070
    45
1040
0.5
1002
}
  0
LINE
  5
21836
330
18
100
AcDbEntity
  8
1DIM
100
AcDbLine
 10
550.0187057412645
 20
-659.0712219515591
 30
0.0
 11
550.0187057412645
 21
-713.3562495504368
 31
0.0
1001
ACAD
1000
DSTYLE
1002
{
1070
    45
1040
0.5
1002
}
  0
LINE
  5
21837
330
18
100
AcDbEntity
  8
1DIM
100
AcDbLine
 10
452.0159975069821
 20
-712.3562495504368
 30
0.0
 11
548.0187057412645
 21
-712.3562495504368
 31
0.0
1001
ACAD
1000
DSTYLE
1002
{
1070
    45
1040
0.5
1002
}
  0
LINE
  5
2183B
330
18
100
AcDbEntity
  8
1DIM
100
AcDbLine
 10
400.01646191413
 20
-648.0328782395609
 30
0.0
 11
400.01646191413
 21
-628.3713303512664
 31
0.0
1001
ACAD
1000
DSTYLE
1002
{
1070
    45
1040
0.5
1002
}
  0
LINE
  5
2183C
330
18
100
AcDbEntity
  8
1DIM
100
AcDbLine
 10
600.0147885137279
 20
-648.0075620980151
 30
0.0
 11
600.0147885137279
 21
-628.3713303512664
 31
0.0
1001
ACAD
1000
DSTYLE
1002
{
1070
    45
1040
0.5
1002
}
  0
LINE
  5
2183D
330
18
100
AcDbEntity
  8
1DIM
100
AcDbLine
 10
402.01646191413
 20
-629.3713303512664
 30
0.0
 11
598.0147885137279
 21
-629.3713303512664
 31
0.0
1001
ACAD
1000
DSTYLE
1002
{
1070
    45
1040
0.5
1002
}
  0
LINE
  5
21841
330
18
100
AcDbEntity
  8
1DIM
100
AcDbLine
 10
597.6201048546512
 20
-645.8214173015328
 30
0.0
 11
621.0162416153648
 21
-645.8214173015328
 31
0.0
1001
ACAD
1000
DSTYLE
1002
{
1070
    45
1040
0.5
1002
}
  0
LINE
  5
21842
330
18
100
AcDbEntity
  8
1DIM
100
AcDbLine
 10
596.7242454892731
 20
-698.3562495493479
 30
0.0
 11
621.0162416153648
 21
-698.3562495493479
 31
0.0
1001
ACAD
1000
DSTYLE
1002
{
1070
    45
1040
0.5
1002
}
  0
LINE
  5
21843
330
18
100
AcDbEntity
  8
1DIM
100
AcDbLine
 10
620.0162416153648
 20
-647.8214173015328
 30
0.0
 11
620.0162416153648
 21
-696.3562495493479
 31
0.0
1001
ACAD
1000
DSTYLE
1002
{
1070
    45
1040
0.5
1002
}
  0
SOLID
  5
21847
330
18
100
AcDbEntity
  8
1DIM
100
AcDbTrace
 10
597.1106703718906
 20
-584.7714467012744
 30
0.0
 11
595.4487044664163
 21
-585.932902873565
 31
0.0
 12
596.6441458886896
 22
-584.2952121466498
 32
0.0
 13
596.6441458886896
 23
-584.2952121466498
 33
0.0
1001
ACAD
1000
DSTYLE
1002
{
1070
    45
1040
0.5
1002
}
  0
LINE
  5
21848
330
18
100
AcDbEntity
  8
1DIM
100
AcDbLine
 10
596.8774081302902
 20
-584.5333294239621
 30
0.0
 11
615.4505557606503
 21
-566.3388745791241
 31
0.0
1001
ACAD
1000
DSTYLE
1002
{
1070
    45
1040
0.5
1002
}
  0
LINE
  5
21849
330
18
100
AcDbEntity
  8
1DIM
100
AcDbLine
 10
615.4505557606503
 20
-566.3388745791241
 30
0.0
 11
662.717222427317
 21
-566.3388745791241
 31
0.0
1001
ACAD
1000
DSTYLE
1002
{
1070
    45
1040
0.5
1002
}
  0
TEXT
  5
2184A
330
18
100
AcDbEntity
  8
1DIM
  6
CONTINUOUS
100
AcDbText
 10
617.917222427317
 20
-559.8055412457907
 30
0.0
 40
3.5
  1
材質：亜鉛ダイキャスト
100
AcDbText
1001
ACADANNOTATIVE
1000
AnnotativeData
1002
{
1070
     1
1070
     0
1002
}
  0
TEXT
  5
2184B
330
18
100
AcDbEntity
  8
1DIM
  6
CONTINUOUS
100
AcDbText
 10
618.0338890939837
 20
-565.638874579124
 30
0.0
 40
3.5
  1
仕上げ：各種仕上げ
100
AcDbText
1001
ACADANNOTATIVE
1000
AnnotativeData
1002
{
1070
     1
1070
     0
1002
}
  0
TEXT
  5
2184C
330
18
100
AcDbEntity
  8
1DIM
  6
CONTINUOUS
100
AcDbText
 10
584.2647268401604
 20
-536.0826800342228
 30
0.0
 40
3.5
  1
材質：ABS樹脂
100
AcDbText
1001
ACADANNOTATIVE
1000
AnnotativeData
1002
{
1070
     1
1070
     0
1002
}
  0
TEXT
  5
2184D
330
18
100
AcDbEntity
  8
1DIM
  6
CONTINUOUS
100
AcDbText
 10
584.3813935068271
 20
-541.9160133675562
 30
0.0
 40
3.5
  1
仕上げ：各種仕上げ
100
AcDbText
1001
ACADANNOTATIVE
1000
AnnotativeData
1002
{
1070
     1
1070
     0
1002
}
  0
SOLID
  5
2184E
330
18
100
AcDbEntity
  8
1DIM
100
AcDbTrace
 10
563.458174784734
 20
-561.0485854897065
 30
0.0
 11
561.7962088792597
 21
-562.2100416619971
 31
0.0
 12
562.991650301533
 22
-560.5723509350819
 32
0.0
 13
562.991650301533
 23
-560.5723509350819
 33
0.0
1001
ACAD
1000
DSTYLE
1002
{
1070
    45
1040
0.5
1002
}
  0
LINE
  5
2184F
330
18
100
AcDbEntity
  8
1DIM
100
AcDbLine
 10
563.2249125431335
 20
-560.8104682123942
 30
0.0
 11
581.7980601734937
 21
-542.6160133675562
 31
0.0
1001
ACAD
1000
DSTYLE
1002
{
1070
    45
1040
0.5
1002
}
  0
LINE
  5
21850
330
18
100
AcDbEntity
  8
1DIM
100
AcDbLine
 10
581.7980601734937
 20
-542.6160133675562
 30
0.0
 11
621.4813935068271
 21
-542.6160133675562
 31
0.0
1001
ACAD
1000
DSTYLE
1002
{
1070
    45
1040
0.5
1002
}
  0
LINE
  5
21851
330
18
100
AcDbEntity
  8
1DIM
100
AcDbLine
 10
412.2166484500137
 20
-665.9091200613566
 30
0.0
 11
412.2166484500137
 21
-638.4054172829448
 31
0.0
1001
ACAD
1000
DSTYLE
1002
{
1070
    45
1040
0.5
1002
}
  0
LINE
  5
21852
330
18
100
AcDbEntity
  8
1DIM
100
AcDbLine
 10
587.8158313236427
 20
-665.9091200613566
 30
0.0
 11
587.8158313236427
 21
-638.4054172829448
 31
0.0
1001
ACAD
1000
DSTYLE
1002
{
1070
    45
1040
0.5
1002
}
  0
LINE
  5
21853
330
18
100
AcDbEntity
  8
1DIM
100
AcDbLine
 10
414.2166484500137
 20
-639.4054172829448
 30
0.0
 11
585.8158313236427
 21
-639.4054172829448
 31
0.0
1001
ACAD
1000
DSTYLE
1002
{
1070
    45
1040
0.5
1002
}
  0
LINE
  5
21857
330
18
100
AcDbEntity
  8
1DIM
100
AcDbLine
 10
585.5085619741182
 20
-571.8223741842385
 30
0.0
 11
620.7482924253648
 21
-571.8223741842385
 31
0.0
1001
ACAD
1000
DSTYLE
1002
{
1070
    45
1040
0.5
1002
}
  0
LINE
  5
21858
330
18
100
AcDbEntity
  8
1DIM
100
AcDbLine
 10
584.8145180397729
 20
-595.3954747511025
 30
0.0
 11
620.7482924253648
 21
-595.3954747511025
 31
0.0
1001
ACAD
1000
DSTYLE
1002
{
1070
    45
1040
0.5
1002
}
  0
LINE
  5
21859
330
18
100
AcDbEntity
  8
1DIM
100
AcDbLine
 10
619.7482924253648
 20
-573.8223741842385
 30
0.0
 11
619.7482924253648
 21
-593.3954747511025
 31
0.0
1001
ACAD
1000
DSTYLE
1002
{
1070
    45
1040
0.5
1002
}
  0
LINE
  5
2185D
330
18
100
AcDbEntity
  8
1DIM
100
AcDbLine
 10
584.8145180397729
 20
-595.3954747511025
 30
0.0
 11
620.7482924253648
 21
-595.3954747511025
 31
0.0
1001
ACAD
1000
DSTYLE
1002
{
1070
    45
1040
0.5
1002
}
  0
LINE
  5
2185E
330
18
100
AcDbEntity
  8
1DIM
100
AcDbLine
 10
596.7242487722139
 20
-608.3068652642842
 30
0.0
 11
620.7482924253648
 21
-608.3068652642842
 31
0.0
1001
ACAD
1000
DSTYLE
1002
{
1070
    45
1040
0.5
1002
}
  0
LINE
  5
2185F
330
18
100
AcDbEntity
  8
1DIM
100
AcDbLine
 10
619.7482924253648
 20
-597.3954747511025
 30
0.0
 11
619.7482924253648
 21
-606.3068652642842
 31
0.0
1001
ACAD
1000
DSTYLE
1002
{
1070
    45
1040
0.5
1002
}
  0
LINE
  5
21863
330
18
100
AcDbEntity
  8
0
  6
BYBLOCK
100
AcDbLine
 10
662.5306895266768
 20
-606.3572287312663
 30
0.0
 11
660.5306895266768
 21
-605.8213303512663
 31
0.0
  0
LINE
  5
21864
330
18
100
AcDbEntity
  8
0
  6
BYBLOCK
100
AcDbLine
 10
660.5306895266768
 20
-605.8213303512663
 30
0.0
 11
662.5306895266768
 21
-605.2854319712662
 31
0.0
  0
LINE
  5
21865
330
18
100
AcDbEntity
  8
0
  6
BYBLOCK
100
AcDbLine
 10
660.5306895266768
 20
-605.8213303512663
 30
0.0
 11
662.5306895266768
 21
-605.8213303512663
 31
0.0
  0
LINE
  5
21866
330
18
100
AcDbEntity
  8
0
  6
BYBLOCK
100
AcDbLine
 10
711.016241615365
 20
-605.2854319712662
 30
0.0
 11
713.016241615365
 21
-605.8213303512663
 31
0.0
  0
LINE
  5
21867
330
18
100
AcDbEntity
  8
0
  6
BYBLOCK
100
AcDbLine
 10
713.016241615365
 20
-605.8213303512663
 30
0.0
 11
711.016241615365
 21
-606.3572287312663
 31
0.0
  0
LINE
  5
21868
330
18
100
AcDbEntity
  8
0
  6
BYBLOCK
100
AcDbLine
 10
713.016241615365
 20
-605.8213303512663
 30
0.0
 11
711.016241615365
 21
-605.8213303512663
 31
0.0
  0
TEXT
  5
21869
330
18
100
AcDbEntity
  8
1DIM
  6
CONTINUOUS
100
AcDbText
 10
681.5113127932431
 20
-605.1213303512661
 30
0.0
 40
3.5
  1
52.5
100
AcDbText
1001
ACAD
1000
DSTYLE
1002
{
1070
    45
1040
0.5
1002
}
  0
LINE
  5
2186A
330
18
100
AcDbEntity
  8
0
  6
BYBLOCK
100
AcDbLine
 10
755.052139995365
 20
-653.8213303512666
 30
0.0
 11
754.516241615365
 21
-655.8213303512666
 31
0.0
  0
LINE
  5
2186B
330
18
100
AcDbEntity
  8
0
  6
BYBLOCK
100
AcDbLine
 10
754.516241615365
 20
-655.8213303512666
 30
0.0
 11
753.9803432353649
 21
-653.8213303512666
 31
0.0
  0
LINE
  5
2186C
330
18
100
AcDbEntity
  8
0
  6
BYBLOCK
100
AcDbLine
 10
754.516241615365
 20
-655.8213303512666
 30
0.0
 11
754.516241615365
 21
-653.8213303512666
 31
0.0
  0
LINE
  5
2186D
330
18
100
AcDbEntity
  8
0
  6
BYBLOCK
100
AcDbLine
 10
753.9803432353649
 20
-647.8253805863225
 30
0.0
 11
754.516241615365
 21
-645.8253805863225
 31
0.0
  0
LINE
  5
2186E
330
18
100
AcDbEntity
  8
0
  6
BYBLOCK
100
AcDbLine
 10
754.516241615365
 20
-645.8253805863225
 30
0.0
 11
755.052139995365
 21
-647.8253805863225
 31
0.0
  0
LINE
  5
2186F
330
18
100
AcDbEntity
  8
0
  6
BYBLOCK
100
AcDbLine
 10
754.516241615365
 20
-645.8253805863225
 30
0.0
 11
754.516241615365
 21
-647.8253805863225
 31
0.0
  0
TEXT
  5
21870
330
18
100
AcDbEntity
  8
1DIM
  6
CONTINUOUS
100
AcDbText
 10
753.8162416153649
 20
-652.937938802128
 30
0.0
 40
3.5
  1
10
 50
90.0
100
AcDbText
1001
ACAD
1000
DSTYLE
1002
{
1070
    45
1040
0.5
1070
   271
1070
     0
1002
}
  0
LINE
  5
21871
330
18
100
AcDbEntity
  8
0
  6
BYBLOCK
100
AcDbLine
 10
765.052139995365
 20
-663.8253741160859
 30
0.0
 11
764.516241615365
 21
-665.8253741160859
 31
0.0
  0
LINE
  5
21872
330
18
100
AcDbEntity
  8
0
  6
BYBLOCK
100
AcDbLine
 10
764.516241615365
 20
-665.8253741160859
 30
0.0
 11
763.9803432353649
 21
-663.8253741160859
 31
0.0
  0
LINE
  5
21873
330
18
100
AcDbEntity
  8
0
  6
BYBLOCK
100
AcDbLine
 10
764.516241615365
 20
-665.8253741160859
 30
0.0
 11
764.516241615365
 21
-663.8253741160859
 31
0.0
  0
LINE
  5
21874
330
18
100
AcDbEntity
  8
0
  6
BYBLOCK
100
AcDbLine
 10
763.9803432353649
 20
-647.8253805863225
 30
0.0
 11
764.516241615365
 21
-645.8253805863225
 31
0.0
  0
LINE
  5
21875
330
18
100
AcDbEntity
  8
0
  6
BYBLOCK
100
AcDbLine
 10
764.516241615365
 20
-645.8253805863225
 30
0.0
 11
765.052139995365
 21
-647.8253805863225
 31
0.0
  0
LINE
  5
21876
330
18
100
AcDbEntity
  8
0
  6
BYBLOCK
100
AcDbLine
 10
764.516241615365
 20
-645.8253805863225
 30
0.0
 11
764.516241615365
 21
-647.8253805863225
 31
0.0
  0
TEXT
  5
21877
330
18
100
AcDbEntity
  8
1DIM
  6
CONTINUOUS
100
AcDbText
 10
763.8162416153649
 20
-658.523294017871
 30
0.0
 40
3.5
  1
20
 50
90.0
100
AcDbText
1001
ACAD
1000
DSTYLE
1002
{
1070
    45
1040
0.5
1002
}
  0
LINE
  5
21878
330
18
100
AcDbEntity
  8
0
  6
BYBLOCK
100
AcDbLine
 10
452.0159975069821
 20
-712.8921479304369
 30
0.0
 11
450.0159975069821
 21
-712.3562495504368
 31
0.0
  0
LINE
  5
21879
330
18
100
AcDbEntity
  8
0
  6
BYBLOCK
100
AcDbLine
 10
450.0159975069821
 20
-712.3562495504368
 30
0.0
 11
452.0159975069821
 21
-711.8203511704368
 31
0.0
  0
LINE
  5
2187A
330
18
100
AcDbEntity
  8
0
  6
BYBLOCK
100
AcDbLine
 10
450.0159975069821
 20
-712.3562495504368
 30
0.0
 11
452.0159975069821
 21
-712.3562495504368
 31
0.0
  0
LINE
  5
2187B
330
18
100
AcDbEntity
  8
0
  6
BYBLOCK
100
AcDbLine
 10
548.0187057412645
 20
-711.8203511704368
 30
0.0
 11
550.0187057412645
 21
-712.3562495504368
 31
0.0
  0
LINE
  5
2187C
330
18
100
AcDbEntity
  8
0
  6
BYBLOCK
100
AcDbLine
 10
550.0187057412645
 20
-712.3562495504368
 30
0.0
 11
548.0187057412645
 21
-712.8921479304369
 31
0.0
  0
LINE
  5
2187D
330
18
100
AcDbEntity
  8
0
  6
BYBLOCK
100
AcDbLine
 10
550.0187057412645
 20
-712.3562495504368
 30
0.0
 11
548.0187057412645
 21
-712.3562495504368
 31
0.0
  0
TEXT
  5
2187E
330
18
100
AcDbEntity
  8
1DIM
  6
CONTINUOUS
100
AcDbText
 10
494.6933089848505
 20
-711.6562495504368
 30
0.0
 40
3.5
  1
P100
100
AcDbText
1001
ACAD
1000
DSTYLE
1002
{
1070
    45
1040
0.5
1002
}
  0
LINE
  5
2187F
330
18
100
AcDbEntity
  8
0
  6
BYBLOCK
100
AcDbLine
 10
402.01646191413
 20
-629.9072287312664
 30
0.0
 11
400.01646191413
 21
-629.3713303512664
 31
0.0
  0
LINE
  5
21880
330
18
100
AcDbEntity
  8
0
  6
BYBLOCK
100
AcDbLine
 10
400.01646191413
 20
-629.3713303512664
 30
0.0
 11
402.01646191413
 21
-628.8354319712663
 31
0.0
  0
LINE
  5
21881
330
18
100
AcDbEntity
  8
0
  6
BYBLOCK
100
AcDbLine
 10
400.01646191413
 20
-629.3713303512664
 30
0.0
 11
402.01646191413
 21
-629.3713303512664
 31
0.0
  0
LINE
  5
21882
330
18
100
AcDbEntity
  8
0
  6
BYBLOCK
100
AcDbLine
 10
598.0147885137279
 20
-628.8354319712663
 30
0.0
 11
600.0147885137279
 21
-629.3713303512664
 31
0.0
  0
LINE
  5
21883
330
18
100
AcDbEntity
  8
0
  6
BYBLOCK
100
AcDbLine
 10
600.0147885137279
 20
-629.3713303512664
 30
0.0
 11
598.0147885137279
 21
-629.9072287312664
 31
0.0
  0
LINE
  5
21884
330
18
100
AcDbEntity
  8
0
  6
BYBLOCK
100
AcDbLine
 10
600.0147885137279
 20
-629.3713303512664
 30
0.0
 11
598.0147885137279
 21
-629.3713303512664
 31
0.0
  0
TEXT
  5
21885
330
18
100
AcDbEntity
  8
1DIM
  6
CONTINUOUS
100
AcDbText
 10
495.8599916153627
 20
-628.6713303512663
 30
0.0
 40
3.5
  1
200
100
AcDbText
1001
ACAD
1000
DSTYLE
1002
{
1070
    45
1040
0.5
1002
}
  0
LINE
  5
21886
330
18
100
AcDbEntity
  8
0
  6
BYBLOCK
100
AcDbLine
 10
619.4803432353648
 20
-647.8214173015328
 30
0.0
 11
620.0162416153648
 21
-645.8214173015328
 31
0.0
  0
LINE
  5
21887
330
18
100
AcDbEntity
  8
0
  6
BYBLOCK
100
AcDbLine
 10
620.0162416153648
 20
-645.8214173015328
 30
0.0
 11
620.5521399953649
 21
-647.8214173015328
 31
0.0
  0
LINE
  5
21888
330
18
100
AcDbEntity
  8
0
  6
BYBLOCK
100
AcDbLine
 10
620.0162416153648
 20
-645.8214173015328
 30
0.0
 11
620.0162416153648
 21
-647.8214173015328
 31
0.0
  0
LINE
  5
21889
330
18
100
AcDbEntity
  8
0
  6
BYBLOCK
100
AcDbLine
 10
620.5521399953649
 20
-696.3562495493479
 30
0.0
 11
620.0162416153648
 21
-698.3562495493479
 31
0.0
  0
LINE
  5
2188A
330
18
100
AcDbEntity
  8
0
  6
BYBLOCK
100
AcDbLine
 10
620.0162416153648
 20
-698.3562495493479
 30
0.0
 11
619.4803432353648
 21
-696.3562495493479
 31
0.0
  0
LINE
  5
2188B
330
18
100
AcDbEntity
  8
0
  6
BYBLOCK
100
AcDbLine
 10
620.0162416153648
 20
-698.3562495493479
 30
0.0
 11
620.0162416153648
 21
-696.3562495493479
 31
0.0
  0
TEXT
  5
2188C
330
18
100
AcDbEntity
  8
1DIM
  6
CONTINUOUS
100
AcDbText
 10
619.3162416153647
 20
-677.3509862032181
 30
0.0
 40
3.5
  1
52.5
 50
90.0
100
AcDbText
1001
ACAD
1000
DSTYLE
1002
{
1070
    45
1040
0.5
1002
}
  0
LINE
  5
2188D
330
18
100
AcDbEntity
  8
0
  6
BYBLOCK
100
AcDbLine
 10
414.2166484500137
 20
-639.9413156629448
 30
0.0
 11
412.2166484500137
 21
-639.4054172829448
 31
0.0
  0
LINE
  5
2188E
330
18
100
AcDbEntity
  8
0
  6
BYBLOCK
100
AcDbLine
 10
412.2166484500137
 20
-639.4054172829448
 30
0.0
 11
414.2166484500137
 21
-638.8695189029447
 31
0.0
  0
LINE
  5
2188F
330
18
100
AcDbEntity
  8
0
  6
BYBLOCK
100
AcDbLine
 10
412.2166484500137
 20
-639.4054172829448
 30
0.0
 11
414.2166484500137
 21
-639.4054172829448
 31
0.0
  0
LINE
  5
21890
330
18
100
AcDbEntity
  8
0
  6
BYBLOCK
100
AcDbLine
 10
585.8158313236427
 20
-638.8695189029447
 30
0.0
 11
587.8158313236427
 21
-639.4054172829448
 31
0.0
  0
LINE
  5
21891
330
18
100
AcDbEntity
  8
0
  6
BYBLOCK
100
AcDbLine
 10
587.8158313236427
 20
-639.4054172829448
 30
0.0
 11
585.8158313236427
 21
-639.9413156629448
 31
0.0
  0
LINE
  5
21892
330
18
100
AcDbEntity
  8
0
  6
BYBLOCK
100
AcDbLine
 10
587.8158313236427
 20
-639.4054172829448
 30
0.0
 11
585.8158313236427
 21
-639.4054172829448
 31
0.0
  0
TEXT
  5
21893
330
18
100
AcDbEntity
  8
1DIM
  6
CONTINUOUS
100
AcDbText
 10
493.5874204423837
 20
-638.7054172829446
 30
0.0
 40
3.5
  1
175.5
100
AcDbText
1001
ACAD
1000
DSTYLE
1002
{
1070
    45
1040
0.5
1002
}
  0
LINE
  5
21894
330
18
100
AcDbEntity
  8
0
  6
BYBLOCK
100
AcDbLine
 10
619.2123940453647
 20
-573.8223741842385
 30
0.0
 11
619.7482924253648
 21
-571.8223741842385
 31
0.0
  0
LINE
  5
21895
330
18
100
AcDbEntity
  8
0
  6
BYBLOCK
100
AcDbLine
 10
619.7482924253648
 20
-571.8223741842385
 30
0.0
 11
620.2841908053648
 21
-573.8223741842385
 31
0.0
  0
LINE
  5
21896
330
18
100
AcDbEntity
  8
0
  6
BYBLOCK
100
AcDbLine
 10
619.7482924253648
 20
-571.8223741842385
 30
0.0
 11
619.7482924253648
 21
-573.8223741842385
 31
0.0
  0
LINE
  5
21897
330
18
100
AcDbEntity
  8
0
  6
BYBLOCK
100
AcDbLine
 10
620.2841908053648
 20
-593.3954747511025
 30
0.0
 11
619.7482924253648
 21
-595.3954747511025
 31
0.0
  0
LINE
  5
21898
330
18
100
AcDbEntity
  8
0
  6
BYBLOCK
100
AcDbLine
 10
619.7482924253648
 20
-595.3954747511025
 30
0.0
 11
619.2123940453647
 21
-593.3954747511025
 31
0.0
  0
LINE
  5
21899
330
18
100
AcDbEntity
  8
0
  6
BYBLOCK
100
AcDbLine
 10
619.7482924253648
 20
-595.3954747511025
 30
0.0
 11
619.7482924253648
 21
-593.3954747511025
 31
0.0
  0
TEXT
  5
2189A
330
18
100
AcDbEntity
  8
1DIM
  6
CONTINUOUS
100
AcDbText
 10
619.0458618698093
 20
-588.8589244676705
 30
0.0
 40
3.5
  1
23.5
 50
90.0
100
AcDbText
1001
ACAD
1000
DSTYLE
1002
{
1070
    45
1040
0.5
1002
}
  0
LINE
  5
2189B
330
18
100
AcDbEntity
  8
0
  6
BYBLOCK
100
AcDbLine
 10
619.2123940453647
 20
-597.3954747511025
 30
0.0
 11
619.7482924253648
 21
-595.3954747511025
 31
0.0
  0
LINE
  5
2189C
330
18
100
AcDbEntity
  8
0
  6
BYBLOCK
100
AcDbLine
 10
619.7482924253648
 20
-595.3954747511025
 30
0.0
 11
620.2841908053648
 21
-597.3954747511025
 31
0.0
  0
LINE
  5
2189D
330
18
100
AcDbEntity
  8
0
  6
BYBLOCK
100
AcDbLine
 10
619.7482924253648
 20
-595.3954747511025
 30
0.0
 11
619.7482924253648
 21
-597.3954747511025
 31
0.0
  0
LINE
  5
2189E
330
18
100
AcDbEntity
  8
0
  6
BYBLOCK
100
AcDbLine
 10
620.2841908053648
 20
-606.3068652642842
 30
0.0
 11
619.7482924253648
 21
-608.3068652642842
 31
0.0
  0
LINE
  5
2189F
330
18
100
AcDbEntity
  8
0
  6
BYBLOCK
100
AcDbLine
 10
619.7482924253648
 20
-608.3068652642842
 30
0.0
 11
619.2123940453647
 21
-606.3068652642842
 31
0.0
  0
LINE
  5
218A0
330
18
100
AcDbEntity
  8
0
  6
BYBLOCK
100
AcDbLine
 10
619.7482924253648
 20
-608.3068652642842
 30
0.0
 11
619.7482924253648
 21
-606.3068652642842
 31
0.0
  0
TEXT
  5
218A1
330
18
100
AcDbEntity
  8
1DIM
  6
CONTINUOUS
100
AcDbText
 10
619.0482924253647
 20
-604.1845033410267
 30
0.0
 40
3.5
  1
13
 50
90.0
100
AcDbText
1001
ACAD
1000
DSTYLE
1002
{
1070
    45
1040
0.5
1002
}
  0
VIEWPORT
  5
57
330
15
100
AcDbEntity
 67
     1
  8
0
100
AcDbViewport
 68
     1
 10
0.0
 20
0.0
 30
0.0
 40
551.872340425532
 41
297.0000000000001
 68
     1
 69
     1
1001
ACAD
1000
MVIEW
1002
{
1070
    16
1010
0.0
1020
0.0
1030
0.0
1010
0.0
1020
0.0
1030
1.0
1040
0.0
1040
297.0000000000001
1040
-4.171999999925305
1040
12.83903210976956
1040
50.0
1040
0.0
1040
0.0
1070
    16
1070
   100
1070
     0
1070
     1
1070
     0
1070
     0
1070
     0
1070
     0
1040
0.0
1040
0.0
1040
0.0
1040
10.0
1040
10.0
1040
10.0
1040
10.0
1070
     0
1002
{
1002
}
1002
}
  0
ENDSEC
  0
SECTION
  2
OBJECTS
  0
DICTIONARY
  5
C
330
0
100
AcDbDictionary
  3
ACAD_COLOR
350
2D0
  3
ACAD_GROUP
350
D
  3
ACAD_LAYOUT
350
2D1
  3
ACAD_MATERIAL
350
2CF
  3
ACAD_MLEADERSTYLE
350
19E18
  3
ACAD_MLINESTYLE
350
1B
  3
ACAD_PLOTSETTINGS
350
2D2
  3
ACAD_SCALELIST
350
19DF6
  3
ACAD_VISUALSTYLE
350
19DE5
  3
ACDBHEADERROUNDTRIPXREC
350
218A2
  3
ACDBVARIABLEDICTIONARY
350
37
  3
CONTENTDICTIONARY
350
D8
  3
DRAWINGVARIABLESDICT
350
20
  3
DWGPROPS
350
218A5
1001
ACAD
1000
TREAT_AS_HARD
1070
     0
  0
DICTIONARY
  5
18FE8
330
2
100
AcDbDictionary
  3
ACAD_LAYERSTATES
360
18FE9
1001
ACAD
1000
TREAT_AS_HARD
1070
     1
  0
DICTIONARY
  5
1A20A
330
E
100
AcDbDictionary
  3
ADSK_XREC_LAYER_RECONCILED
360
1A20B
1001
ACAD
1000
TREAT_AS_HARD
1070
     1
  0
DICTIONARY
  5
1A20C
330
29
100
AcDbDictionary
  3
ADSK_XREC_LAYER_RECONCILED
360
1A20D
1001
ACAD
1000
TREAT_AS_HARD
1070
     1
  0
DICTIONARY
  5
1A20E
330
31
100
AcDbDictionary
  3
ADSK_XREC_LAYER_RECONCILED
360
1A20F
1001
ACAD
1000
TREAT_AS_HARD
1070
     1
  0
DICTIONARY
  5
1A218
330
101
100
AcDbDictionary
  3
ADSK_XREC_LAYER_RECONCILED
360
1A219
1001
ACAD
1000
TREAT_AS_HARD
1070
     1
  0
DICTIONARY
  5
1A21C
330
103
100
AcDbDictionary
  3
ADSK_XREC_LAYER_RECONCILED
360
1A21D
1001
ACAD
1000
TREAT_AS_HARD
1070
     1
  0
DICTIONARY
  5
1A220
330
25F
100
AcDbDictionary
  3
ADSK_XREC_LAYER_RECONCILED
360
1A221
1001
ACAD
1000
TREAT_AS_HARD
1070
     1
  0
DICTIONARY
  5
6E9
330
18
100
AcDbDictionary
  3
ACAD_SORTENTS
360
6EA
1001
ACAD
1000
TREAT_AS_HARD
1070
     1
  0
DICTIONARY
  5
59B
330
15
100
AcDbDictionary
  3
ACAD_SORTENTS
360
59C
1001
ACAD
1000
TREAT_AS_HARD
1070
     1
  0
DICTIONARY
  5
2D0
102
{ACAD_REACTORS
330
C
102
}
330
C
100
AcDbDictionary
1001
ACAD
1000
TREAT_AS_HARD
1070
     0
  0
DICTIONARY
  5
D
102
{ACAD_REACTORS
330
C
102
}
330
C
100
AcDbDictionary
  3
*A1
350
1EBF5
  3
*A2
350
1E9DA
  3
*A3
350
1EDFD
  3
*A4
350
1E7BB
1001
ACAD
1000
TREAT_AS_HARD
1070
     0
  0
DICTIONARY
  5
2D1
102
{ACAD_REACTORS
330
C
102
}
330
C
100
AcDbDictionary
1001
ACAD
1000
TREAT_AS_HARD
1070
     0
  0
DICTIONARY
  5
2CF
102
{ACAD_REACTORS
330
C
102
}
330
C
100
AcDbDictionary
  3
BYBLOCK
350
19DD5
  3
BYLAYER
350
19DCD
  3
GLOBAL
350
19DDD
1001
ACAD
1000
TREAT_AS_HARD
1070
     0
  0
DICTIONARY
  5
19E18
102
{ACAD_REACTORS
330
C
102
}
330
C
100
AcDbDictionary
  3
STANDARD
350
19E19
1001
ACAD
1000
TREAT_AS_HARD
1070
     0
  0
DICTIONARY
  5
1B
102
{ACAD_REACTORS
330
C
102
}
330
C
100
AcDbDictionary
  3
STANDARD
350
1C
1001
ACAD
1000
TREAT_AS_HARD
1070
     0
  0
DICTIONARY
  5
2D2
102
{ACAD_REACTORS
330
C
102
}
330
C
100
AcDbDictionary
1001
ACAD
1000
TREAT_AS_HARD
1070
     0
  0
DICTIONARY
  5
19DF6
102
{ACAD_REACTORS
330
C
102
}
330
C
100
AcDbDictionary
  3
A0
350
19DF7
  3
A1
350
19DF8
  3
A2
350
19DF9
  3
A3
350
19DFA
  3
A4
350
19DFB
  3
A5
350
19DFC
  3
A6
350
19DFD
  3
A7
350
19DFE
  3
A8
350
19DFF
  3
A9
350
19E00
  3
B0
350
19E01
  3
B1
350
19E02
  3
B2
350
19E03
  3
B3
350
19E04
  3
B4
350
19E05
  3
B5
350
19E06
  3
B6
350
19E07
  3
B7
350
19E08
  3
B8
350
19E09
  3
B9
350
19E0A
  3
C0
350
19E0B
  3
C1
350
19E0C
  3
C2
350
19E0D
  3
C3
350
19E0E
  3
C4
350
19E0F
  3
C5
350
19E10
  3
C6
350
19E11
  3
C7
350
19E12
  3
C8
350
19E13
  3
C9
350
19E14
  3
D0
350
19E15
  3
D1
350
19E16
  3
D2
350
19E17
1001
ACAD
1000
TREAT_AS_HARD
1070
     0
  0
DICTIONARY
  5
19DE5
102
{ACAD_REACTORS
330
C
102
}
330
C
100
AcDbDictionary
  3
2DWIREFRAME
350
19DEB
  3
3D_HIDDEN
350
19DED
  3
3DWIREFRAME
350
19DEC
  3
BASIC
350
19DEA
  3
BRIGHTEN
350
19DF1
  3
COLORCHANGE
350
19DF5
  3
CONCEPTUAL
350
19DEE
  3
DIM
350
19DF0
  3
EDGECOLOROFF
350
1E02A
  3
FACEPATTERN
350
19DF4
  3
FLAT
350
19DE6
  3
FLATWITHEDGES
350
19DE7
  3
GOURAUD
350
19DE8
  3
GOURAUDWITHEDGES
350
19DE9
  3
HIDDEN
350
1FE4A
  3
JITTEROFF
350
1E028
  3
LINEPATTERN
350
19DF3
  3
MODELING
350
1FE50
  3
OVERHANGOFF
350
1E029
  3
REALISTIC
350
19DEF
  3
SHADED
350
1FE4F
  3
SHADED_WITH_EDGES
350
1FE4E
  3
SHADES_OF_GRAY
350
1FE4B
  3
SKETCHY
350
1FE4C
  3
THICKEN
350
19DF2
  3
WIREFRAME
350
1FE49
  3
X-RAY
350
1FE4D
1001
ACAD
1000
TREAT_AS_HARD
1070
     0
  0
DICTIONARY
  5
218A2
102
{ACAD_REACTORS
330
C
102
}
330
C
100
AcDbDictionary
  3
COLORDICT
350
218A3
  3
MATERIALDICT
350
218A4
1001
ACAD
1000
TREAT_AS_HARD
1070
     0
  0
DICTIONARY
  5
37
102
{ACAD_REACTORS
330
C
102
}
330
C
100
AcDbDictionary
  3
CANNOSCALE
350
20611
  3
CMLEADERSTYLE
350
1AC19
  3
CTABLESTYLE
350
4F1
  3
DIMADEC
350
38
  3
DIMASSOC
350
408
  3
HIDETEXT
350
1891
  3
INDEXCTL
350
1AC1C
  3
INTERSECTIONCOLOR
350
1895
  3
INTERSECTIONDISPLAY
350
1894
  3
MSLTSCALE
350
20667
  3
OBSCOLOR
350
1892
  3
OBSLTYPE
350
1893
  3
PROJECTNAME
350
409
  3
SORTENTS
350
1AC1B
  3
XCLIPFRAME
350
1FE48
1001
ACAD
1000
TREAT_AS_HARD
1070
     0
  0
DICTIONARY
  5
D8
102
{ACAD_REACTORS
330
C
102
}
330
C
100
AcDbDictionary
1001
CONTENTTABDATA
1070
    11
1000
Child
1000
D:\ACLT\TABset\CHILDREN.dwg
1070
     0
1070
     0
1070
     1
1000
PK
1000
D:\ACLT\TABset\PK.dwg
1070
     0
1070
     0
1070
     1
1000
Lev1
1000
D:\ACLT\TABset\Lever01.dwg
1070
     0
1070
     0
1070
     1
1000
Lev2
1000
D:\ACLT\TABset\Lever02.dwg
1070
     0
1070
     0
1070
     1
1000
L3
1000
D:\Aclt\TABset\Lever03.dwg
1070
     0
1070
     0
1070
     1
1000
Form
1000
D:\ACLT\FORMAT
1070
     1
1070
     0
1070
     1
1000
Jnt
1000
D:\ACLT\TABset\JOINTPARTS.dwg
1070
     0
1070
     0
1070
     1
1000
ISO
1000
D:\ACLT\TABset\Isome01.dwg
1070
     0
1070
     0
1070
     1
1000
R
1000
D:\ACLT\TABset\REGION.dwg
1070
     0
1070
     0
1070
     1
1000
std
1000
D:\ACLT\TABset\std_sym_all.dwg
1070
     0
1070
     0
1070
     1
1000
丸
1000
D:\Aclt\TABset\MARU.dwg
1070
     0
1070
     0
1070
     1
1001
CONTENTCURRENTTAB
1070
     0
1001
ACAD
1000
TREAT_AS_HARD
1070
     0
  0
DICTIONARY
  5
20
102
{ACAD_REACTORS
330
C
102
}
330
C
100
AcDbDictionary
1001
DRAWINGVARIABLESXDATA
1000
POLARANG
1000
0.261799387799149410000000
1000
POLARMODE
1000
1
1000
POLARSTYLE
1000
1
1001
ACAD
1000
TREAT_AS_HARD
1070
     0
  0
XRECORD
  5
218A5
102
{ACAD_REACTORS
330
C
102
}
330
C
100
AcDbXrecord
  1
DWGPROPS COOKIE
  2

  3

  4

  6

  7

  8
3684
  9

300
=
301
=
302
=
303
=
304
=
305
=
306
=
307
=
308
=
309
=
 40
0.0
 41
2453033.357663484
 42
2459426.00645566
  1

 90
        0
  0
DICTIONARY
  5
18FE9
102
{ACAD_REACTORS
330
18FE8
102
}
330
18FE8
100
AcDbDictionary
1001
ACAD
1000
TREAT_AS_HARD
1070
     0
  0
ACAD_PROXY_OBJECT
  5
1A20B
102
{ACAD_REACTORS
330
1A20A
102
}
330
1A20A
100
AcDbZombieObject
 90
      499
 91
      517
 93
       34
310
40C8804040
  0
ACAD_PROXY_OBJECT
  5
1A20D
102
{ACAD_REACTORS
330
1A20C
102
}
330
1A20C
100
AcDbZombieObject
 90
      499
 91
      517
 93
       34
310
40C8804040
  0
ACAD_PROXY_OBJECT
  5
1A20F
102
{ACAD_REACTORS
330
1A20E
102
}
330
1A20E
100
AcDbZombieObject
 90
      499
 91
      517
 93
       34
310
40C8804040
  0
ACAD_PROXY_OBJECT
  5
1A219
102
{ACAD_REACTORS
330
1A218
102
}
330
1A218
100
AcDbZombieObject
 90
      499
 91
      517
 93
       34
310
40C8804040
  0
ACAD_PROXY_OBJECT
  5
1A21D
102
{ACAD_REACTORS
330
1A21C
102
}
330
1A21C
100
AcDbZombieObject
 90
      499
 91
      517
 93
       34
310
40C8804040
  0
ACAD_PROXY_OBJECT
  5
1A221
102
{ACAD_REACTORS
330
1A220
102
}
330
1A220
100
AcDbZombieObject
 90
      499
 91
      517
 93
       34
310
40C8804040
  0
SORTENTSTABLE
  5
6EA
102
{ACAD_REACTORS
330
6E9
102
}
330
6E9
100
AcDbSortentsTable
330
18
331
0
  5
99AB
331
0
  5
AB53
331
0
  5
AB54
331
0
  5
ECB5
331
1D8CA
  5
1D8CE
331
1D90A
  5
1D910
331
0
  5
1DB93
331
1DB93
  5
1DBA8
331
1DB94
  5
1DF13
331
1DB95
  5
1DFD9
331
1DB96
  5
1E7B7
331
1DB97
  5
1E7ED
331
1DB98
  5
1E9CE
331
1DB99
  5
1E9CF
331
1DB9A
  5
1E9D0
331
1DB9B
  5
1E9D1
331
1DB9C
  5
1E9D9
331
1DB9D
  5
1E9E5
331
1DB9E
  5
1E9E6
331
1DB9F
  5
1EBF2
331
1DBA4
  5
1EBF3
331
1DBA5
  5
1EBF4
331
1DBA6
  5
20867
331
0
  5
1E233
331
0
  5
1E235
331
0
  5
1E7B5
331
0
  5
1E7B6
331
0
  5
1E7BA
331
0
  5
1E7B8
331
1E7B5
  5
208F4
331
1E7B6
  5
208F5
331
1E7B7
  5
208FE
331
1E7B8
  5
208FF
331
1E7B9
  5
20901
331
0
  5
1E9DB
331
1E9D4
  5
21053
331
1E9D5
  5
21054
331
1E9D6
  5
21082
331
1E9D7
  5
21083
331
1E9D8
  5
21084
331
0
  5
1EBF1
331
1EBEF
  5
2122E
331
1EBF0
  5
2122F
331
1EBF1
  5
21231
331
1EBF2
  5
21232
331
1EBF3
  5
21233
331
0
  5
1F3FF
331
1EE4F
  5
2174B
331
0
  5
1FA39
331
0
  5
2085B
331
0
  5
20860
331
2085B
  5
2176A
331
20860
  5
2176B
331
20867
  5
2176C
331
2086E
  5
2176D
331
20873
  5
2176E
331
20875
  5
2176F
331
20877
  5
21770
331
2087A
  5
21771
331
2087D
  5
21772
331
2087E
  5
21773
331
20886
  5
21774
331
20888
  5
21775
331
2088B
  5
21776
331
2088C
  5
21777
331
20890
  5
21778
331
20891
  5
21779
331
20892
  5
2177A
331
20896
  5
2177B
331
2089F
  5
2177C
331
208A7
  5
2177D
331
208A9
  5
2177E
331
208B3
  5
2177F
331
208B5
  5
21780
331
208CF
  5
21781
331
208DF
  5
21782
331
208E0
  5
21783
331
208E9
  5
21784
331
208EA
  5
21785
331
208ED
  5
21786
331
208F4
  5
21787
331
208F5
  5
21788
331
208FE
  5
21789
331
208FF
  5
2178A
331
20901
  5
2178B
331
2091D
  5
2178C
331
20993
  5
2178D
331
2099C
  5
2178E
331
209AB
  5
2178F
331
209B0
  5
21790
331
20A78
  5
21791
331
20A79
  5
21792
331
20A7A
  5
21793
331
20A7B
  5
21794
331
20D22
  5
21795
331
20D2A
  5
21796
331
20D33
  5
21797
331
20D3A
  5
21798
331
20D44
  5
21799
331
20D6B
  5
2179A
331
20D6E
  5
2179B
331
20D6F
  5
2179C
331
20D70
  5
2179D
331
20D72
  5
2179E
331
20D73
  5
2179F
331
20D74
  5
217A0
331
20D75
  5
217A1
331
20D76
  5
217A2
331
20D77
  5
217A3
331
20D78
  5
217A4
331
20D79
  5
217A5
331
20D7A
  5
217A6
331
20D7B
  5
217A7
331
20D7C
  5
217A8
331
20D7E
  5
217A9
331
20D7F
  5
217AA
331
20D81
  5
217AB
331
20D84
  5
217AC
331
20D85
  5
217AD
331
20D86
  5
217AE
331
20D87
  5
217AF
331
20D88
  5
217B0
331
20D8A
  5
217B1
331
20D8B
  5
217B2
331
20D8C
  5
217B3
331
20D8D
  5
217B4
331
20D8F
  5
217B5
331
20D90
  5
217B6
331
20D91
  5
217B7
331
20D92
  5
217B8
331
20D93
  5
217B9
331
20D94
  5
217BA
331
20D95
  5
217BB
331
20D97
  5
217BC
331
20D99
  5
217BD
331
20D9E
  5
217BE
331
20D9F
  5
217BF
331
20DA1
  5
217C0
331
20DA2
  5
217C1
331
20DA3
  5
217C2
331
20DA4
  5
217C3
331
20DA5
  5
217C4
331
20DA6
  5
217C5
331
20DA7
  5
217C6
331
20DA8
  5
217C7
331
20DA9
  5
217C8
331
20DAA
  5
217C9
331
20DAB
  5
217CA
331
20DAC
  5
217CB
331
20DAD
  5
217CC
331
20DAE
  5
217CD
331
20DAF
  5
217CE
331
21017
  5
217CF
331
2104D
  5
217D0
331
2104E
  5
217D1
331
2104F
  5
217D2
331
21050
  5
217D3
331
21051
  5
217D4
331
21052
  5
217D5
331
21053
  5
217D6
331
21054
  5
217D7
331
21082
  5
217D8
331
21083
  5
217D9
331
21084
  5
217DA
331
21085
  5
217DB
331
21086
  5
217DC
331
21087
  5
217DD
331
21088
  5
217DE
331
21089
  5
217DF
331
2108A
  5
217E0
331
2108E
  5
217E1
331
2108F
  5
217E2
331
21093
  5
217E3
331
21094
  5
217E4
331
21097
  5
217E5
331
21099
  5
217E6
331
2109A
  5
217E7
331
2109B
  5
217E8
331
2109D
  5
217E9
331
2109E
  5
217EA
331
2109F
  5
217EB
331
210A0
  5
217EC
331
210A1
  5
217ED
331
210A2
  5
217EE
331
210A3
  5
217EF
331
210A5
  5
217F0
331
210A8
  5
217F1
331
210A9
  5
217F2
331
210AA
  5
217F3
331
210E7
  5
217F4
331
210EB
  5
217F5
331
210EC
  5
217F6
331
210EE
  5
217F7
331
210FF
  5
217F8
331
21102
  5
217F9
331
21103
  5
217FA
331
21104
  5
217FB
331
21106
  5
217FC
331
2110F
  5
217FD
331
21110
  5
217FE
331
21113
  5
217FF
331
21114
  5
21800
331
21115
  5
21801
331
2111F
  5
21802
331
21124
  5
21803
331
21137
  5
21804
331
21138
  5
21805
331
21139
  5
21806
331
2120F
  5
21807
331
21210
  5
21808
331
21211
  5
21809
331
21212
  5
2180A
331
21213
  5
2180B
331
21214
  5
2180C
331
21215
  5
2180D
331
21216
  5
2180E
331
21217
  5
2180F
331
21218
  5
21810
331
21219
  5
21811
331
2121A
  5
21812
331
2121B
  5
21813
331
2121C
  5
21814
331
2121D
  5
21815
331
2121E
  5
21816
331
2121F
  5
21817
331
21220
  5
21818
331
21221
  5
21819
331
21222
  5
2181A
331
21223
  5
2181B
331
21224
  5
2181C
331
21225
  5
2181D
331
21226
  5
2181E
331
21227
  5
2181F
331
21229
  5
21820
331
2122A
  5
21821
331
2122B
  5
21822
331
2122C
  5
21823
331
2122D
  5
21824
331
2122E
  5
21825
331
2122F
  5
21826
331
21231
  5
21827
331
21232
  5
21828
331
21233
  5
21829
331
21234
  5
2182A
331
21235
  5
2182B
331
21236
  5
2182C
331
21237
  5
2182D
331
21238
  5
2182E
331
21239
  5
2182F
331
2123A
  5
21830
331
2123B
  5
21831
331
2123C
  5
21832
331
2123D
  5
21833
331
2123F
  5
21834
331
21240
  5
21835
331
21241
  5
21836
331
21242
  5
21837
331
21243
  5
21838
331
21244
  5
21839
331
21245
  5
2183A
331
21248
  5
2183B
331
21249
  5
2183C
331
2124A
  5
2183D
331
212F2
  5
2183E
331
212F4
  5
2183F
331
212F7
  5
21840
331
212FC
  5
21841
331
21303
  5
21842
331
21308
  5
21843
331
21309
  5
21844
331
2130A
  5
21845
331
2130B
  5
21846
331
2130D
  5
21847
331
21310
  5
21848
331
21318
  5
21849
331
2131B
  5
2184A
331
2131C
  5
2184B
331
2131D
  5
2184C
331
2131E
  5
2184D
331
2133F
  5
2184E
331
21342
  5
2184F
331
21345
  5
21850
331
21346
  5
21851
331
21347
  5
21852
331
21349
  5
21853
331
2134B
  5
21857
331
2134C
  5
21858
331
2134D
  5
21859
331
2134E
  5
2185D
331
2134F
  5
2185E
331
215CC
  5
2185F
331
215CD
  5
21863
331
215CE
  5
21864
331
215CF
  5
21865
331
215D0
  5
21866
331
215D1
  5
21867
331
215D2
  5
21868
331
215D3
  5
21869
331
215D4
  5
2186A
331
215D5
  5
2186B
331
215D6
  5
2186C
331
215D7
  5
2186D
331
215D8
  5
2186E
331
215D9
  5
2186F
331
215DA
  5
21870
331
215DB
  5
21871
331
215DC
  5
21872
331
215E0
  5
21873
331
215E2
  5
21874
331
215E3
  5
21875
331
215E4
  5
21876
331
215E5
  5
21877
331
215E7
  5
21878
331
215E8
  5
21879
331
0
  5
2162B
331
0
  5
2162F
331
0
  5
21630
331
0
  5
21698
331
0
  5
216A7
331
0
  5
2173F
331
0
  5
21740
331
2173F
  5
208E0
331
21740
  5
208ED
331
21741
  5
1DB97
331
21742
  5
1DB98
331
21743
  5
1DB99
331
0
  5
1DB9A
331
0
  5
1DB9B
331
0
  5
1DB9C
331
21747
  5
2086E
331
21748
  5
20873
331
21749
  5
20875
331
0
  5
1E9E7
331
0
  5
1E9E8
331
0
  5
1EBF0
331
2174D
  5
2088C
331
2174E
  5
20890
331
2174F
  5
20891
331
0
  5
1EBF6
331
0
  5
1EE57
331
0
  5
1F400
331
21753
  5
208CF
331
21754
  5
208DF
331
21755
  5
208E9
331
21756
  5
208EA
331
21757
  5
2091D
331
21758
  5
20993
331
21759
  5
2099C
331
2175A
  5
209AB
331
2175B
  5
209B0
331
2175C
  5
20A78
331
2175D
  5
20A79
331
2175E
  5
20A7A
331
2175F
  5
20A7B
331
21760
  5
20D22
331
21761
  5
20D2A
331
21762
  5
20D33
331
21763
  5
20D3A
331
21764
  5
20D44
331
21765
  5
20D6B
331
21766
  5
20D6E
331
21767
  5
20D6F
331
21768
  5
20D70
331
21769
  5
20D72
331
2176A
  5
20D73
331
2176B
  5
20D74
331
2176C
  5
20D75
331
2176D
  5
20D76
331
2176E
  5
20D77
331
2176F
  5
20D78
331
21770
  5
20D79
331
21771
  5
20D7A
331
21772
  5
20D7B
331
21773
  5
20D7C
331
21774
  5
20D7E
331
21775
  5
20D7F
331
21776
  5
20D81
331
21777
  5
20D84
331
21778
  5
20D85
331
21779
  5
20D86
331
2177A
  5
20D87
331
2177B
  5
20D88
331
2177C
  5
20D8A
331
2177D
  5
20D8B
331
2177E
  5
20D8C
331
2177F
  5
20D8D
331
21780
  5
20D8F
331
21781
  5
20D90
331
21782
  5
20D91
331
21783
  5
20D92
331
21784
  5
20D93
331
21785
  5
20D94
331
21786
  5
20D95
331
21787
  5
20D97
331
21788
  5
20D99
331
21789
  5
20D9E
331
2178A
  5
20D9F
331
2178B
  5
20DA1
331
2178C
  5
20DA2
331
2178D
  5
20DA3
331
2178E
  5
20DA4
331
2178F
  5
20DA5
331
21790
  5
20DA6
331
21791
  5
20DA7
331
21792
  5
20DA8
331
21793
  5
20DA9
331
21794
  5
20DAA
331
21795
  5
20DAB
331
21796
  5
20DAC
331
21797
  5
20DAD
331
21798
  5
20DAE
331
21799
  5
20DAF
331
2179A
  5
21017
331
2179B
  5
2104D
331
2179C
  5
2104E
331
2179D
  5
2104F
331
2179E
  5
21050
331
2179F
  5
21051
331
217A0
  5
21052
331
217A1
  5
21085
331
217A2
  5
21086
331
217A3
  5
21087
331
217A4
  5
21088
331
217A5
  5
21089
331
217A6
  5
2108A
331
217A7
  5
2108E
331
217A8
  5
2108F
331
217A9
  5
21093
331
217AA
  5
21094
331
217AB
  5
21097
331
217AC
  5
21099
331
217AD
  5
2109A
331
217AE
  5
2109B
331
217AF
  5
2109D
331
217B0
  5
2109E
331
217B1
  5
2109F
331
217B2
  5
210A0
331
217B3
  5
210A1
331
217B4
  5
210A2
331
217B5
  5
210A3
331
217B6
  5
210A5
331
217B7
  5
210A8
331
217B8
  5
210A9
331
217B9
  5
210AA
331
217BA
  5
210E7
331
217BB
  5
210EB
331
217BC
  5
210EC
331
217BD
  5
210EE
331
217BE
  5
210FF
331
217BF
  5
21102
331
217C0
  5
21103
331
217C1
  5
21104
331
217C2
  5
21106
331
217C3
  5
2110F
331
217C4
  5
21110
331
217C5
  5
21113
331
217C6
  5
21114
331
217C7
  5
21115
331
217C8
  5
2111F
331
217C9
  5
21124
331
217CA
  5
21137
331
217CB
  5
21138
331
217CC
  5
21139
331
217CD
  5
2120F
331
217CE
  5
21210
331
217CF
  5
21211
331
217D0
  5
21212
331
217D1
  5
21213
331
217D2
  5
21214
331
217D3
  5
21215
331
217D4
  5
21216
331
217D5
  5
21217
331
217D6
  5
21218
331
217D7
  5
21219
331
217D8
  5
2121A
331
217D9
  5
2121B
331
217DA
  5
2121C
331
217DB
  5
2121D
331
217DC
  5
2121E
331
217DD
  5
2121F
331
217DE
  5
21220
331
217DF
  5
21221
331
217E0
  5
21222
331
217E1
  5
21223
331
217E2
  5
21224
331
217E3
  5
21225
331
217E4
  5
21226
331
217E5
  5
21227
331
217E6
  5
21229
331
217E7
  5
2122A
331
217E8
  5
2122B
331
217E9
  5
2122C
331
217EA
  5
2122D
331
217EB
  5
21234
331
217EC
  5
21235
331
217ED
  5
21236
331
217EE
  5
21237
331
217EF
  5
21238
331
217F0
  5
21239
331
217F1
  5
2123A
331
217F2
  5
2123B
331
217F3
  5
2123C
331
217F4
  5
2123D
331
217F5
  5
2123F
331
217F6
  5
21240
331
217F7
  5
21241
331
217F8
  5
21242
331
217F9
  5
21243
331
217FA
  5
21244
331
217FB
  5
21245
331
217FC
  5
21248
331
217FD
  5
21249
331
217FE
  5
2124A
331
217FF
  5
212F2
331
21800
  5
212F4
331
21801
  5
212F7
331
21802
  5
212FC
331
21803
  5
21303
331
21804
  5
21308
331
21805
  5
21309
331
21806
  5
2130A
331
21807
  5
2130B
331
21808
  5
2130D
331
21809
  5
21310
331
2180A
  5
21318
331
2180B
  5
2131B
331
2180C
  5
2131C
331
2180D
  5
2131D
331
2180E
  5
2131E
331
2180F
  5
2133F
331
21810
  5
21342
331
21811
  5
21345
331
21812
  5
21346
331
21813
  5
21347
331
21814
  5
21349
331
21815
  5
2134B
331
21816
  5
2134C
331
21817
  5
2134D
331
21818
  5
2134E
331
21819
  5
2134F
331
2181A
  5
215CC
331
2181B
  5
215CD
331
2181C
  5
215CE
331
2181D
  5
215CF
331
2181E
  5
215D0
331
2181F
  5
215D1
331
21820
  5
215D2
331
21821
  5
215D3
331
21822
  5
215D4
331
21823
  5
215D5
331
21824
  5
215D9
331
21825
  5
215DA
331
21826
  5
215DB
331
21827
  5
215E3
331
21828
  5
215E4
331
21829
  5
215E5
331
2182A
  5
215EE
331
2182B
  5
21741
331
2182C
  5
21742
331
2182D
  5
21743
331
2182E
  5
21744
331
2182F
  5
21745
331
21830
  5
21746
331
21831
  5
21747
331
21832
  5
21748
331
21833
  5
21749
331
21834
  5
2174A
331
21835
  5
2174C
331
21836
  5
2174D
331
21837
  5
2174E
331
0
  5
215D6
331
0
  5
215D7
331
0
  5
215D8
331
2183B
  5
21756
331
2183C
  5
21757
331
2183D
  5
21758
331
0
  5
215DC
331
0
  5
215E0
331
0
  5
215E2
331
21841
  5
21760
331
21842
  5
21761
331
21843
  5
21762
331
0
  5
215E7
331
0
  5
215E8
331
0
  5
215ED
331
21847
  5
2187A
331
21848
  5
2187B
331
21849
  5
2187C
331
2184A
  5
2187D
331
2184B
  5
2187E
331
2184C
  5
2187F
331
2184D
  5
21880
331
2184E
  5
21881
331
2184F
  5
21882
331
21850
  5
21883
331
21851
  5
21884
331
21852
  5
21885
331
21853
  5
21886
331
21857
  5
2188E
331
21858
  5
2188F
331
21859
  5
21890
331
2185D
  5
21898
331
2185E
  5
21899
331
2185F
  5
2189A
331
21863
  5
1DB9D
331
21864
  5
1DB9E
331
21865
  5
1DB9F
331
21866
  5
1DBA0
331
21867
  5
1DBA1
331
21868
  5
1DBA2
331
21869
  5
1DBA6
331
2186A
  5
20877
331
2186B
  5
2087A
331
2186C
  5
2087D
331
2186D
  5
2087E
331
2186E
  5
20886
331
2186F
  5
20888
331
21870
  5
2088B
331
21871
  5
20892
331
21872
  5
20896
331
21873
  5
2089F
331
21874
  5
208A7
331
21875
  5
208A9
331
21876
  5
208B3
331
21877
  5
208B5
331
21878
  5
2174F
331
21879
  5
21750
331
2187A
  5
21751
331
2187B
  5
21752
331
2187C
  5
21753
331
2187D
  5
21754
331
2187E
  5
21755
331
2187F
  5
21759
331
21880
  5
2175A
331
21881
  5
2175B
331
21882
  5
2175C
331
21883
  5
2175D
331
21884
  5
2175E
331
21885
  5
2175F
331
21886
  5
21763
331
21887
  5
21764
331
21888
  5
21765
331
21889
  5
21766
331
2188A
  5
21767
331
2188B
  5
21768
331
2188C
  5
21769
331
2188D
  5
21887
331
2188E
  5
21888
331
2188F
  5
21889
331
21890
  5
2188A
331
21891
  5
2188B
331
21892
  5
2188C
331
21893
  5
2188D
331
21894
  5
21891
331
21895
  5
21892
331
21896
  5
21893
331
21897
  5
21894
331
21898
  5
21895
331
21899
  5
21896
331
2189A
  5
21897
  0
SORTENTSTABLE
  5
59C
102
{ACAD_REACTORS
330
59B
102
}
330
59B
100
AcDbSortentsTable
330
15
331
57
  5
57
331
0
  5
70
  0
GROUP
  5
1EBF5
102
{ACAD_REACTORS
330
D
102
}
330
D
100
AcDbGroup
300

 70
     1
 71
     1
340
1EBF3
340
1EBF2
340
1EBF1
340
1EBF0
340
1EBEF
  0
GROUP
  5
1E9DA
102
{ACAD_REACTORS
330
D
102
}
330
D
100
AcDbGroup
300

 70
     1
 71
     1
340
1E9D8
340
1E9D7
340
1E9D6
340
1E9D5
340
1E9D4
  0
GROUP
  5
1EDFD
102
{ACAD_REACTORS
330
D
102
}
330
D
100
AcDbGroup
300

 70
     1
 71
     1
340
1DBA6
340
1DBA5
340
1DBA4
  0
GROUP
  5
1E7BB
102
{ACAD_REACTORS
330
D
102
}
330
D
100
AcDbGroup
300

 70
     1
 71
     1
340
1E7B9
340
1E7B8
340
1E7B7
340
1E7B6
340
1E7B5
  0
MATERIAL
  5
19DD5
102
{ACAD_REACTORS
330
2CF
102
}
102
{ACAD_XDICTIONARY
360
21A40
102
}
330
2CF
100
AcDbMaterial
  1
BYBLOCK
 72
     0
 73
     2
 43
0.0208333333333333
 43
0.0
 43
0.0
 43
0.0
 43
0.0
 43
0.0208333333333333
 43
0.0
 43
0.0
 43
0.0
 43
0.0
 43
1.0
 43
0.0
 43
0.0
 43
0.0
 43
0.0
 43
1.0
 77
     0
 78
     2
 47
0.0208333333333333
 47
0.0
 47
0.0
 47
0.0
 47
0.0
 47
0.0208333333333333
 47
0.0
 47
0.0
 47
0.0
 47
0.0
 47
1.0
 47
0.0
 47
0.0
 47
0.0
 47
0.0
 47
1.0
171
     0
172
     2
 49
0.0208333333333333
 49
0.0
 49
0.0
 49
0.0
 49
0.0
 49
0.0208333333333333
 49
0.0
 49
0.0
 49
0.0
 49
0.0
 49
1.0
 49
0.0
 49
0.0
 49
0.0
 49
0.0
 49
1.0
175
     0
176
     2
142
0.0208333333333333
142
0.0
142
0.0
142
0.0
142
0.0
142
0.0208333333333333
142
0.0
142
0.0
142
0.0
142
0.0
142
1.0
142
0.0
142
0.0
142
0.0
142
0.0
142
1.0
179
     0
270
     2
144
0.0208333333333333
144
0.0
144
0.0
144
0.0
144
0.0
144
0.0208333333333333
144
0.0
144
0.0
144
0.0
144
0.0
144
1.0
144
0.0
144
0.0
144
0.0
144
0.0
144
1.0
274
     2
147
0.0208333333333333
147
0.0
147
0.0
147
0.0
147
0.0
147
0.0208333333333333
147
0.0
147
0.0
147
0.0
147
0.0
147
1.0
147
0.0
147
0.0
147
0.0
147
0.0
147
1.0
  0
MATERIAL
  5
19DCD
102
{ACAD_REACTORS
330
2CF
102
}
102
{ACAD_XDICTIONARY
360
21A42
102
}
330
2CF
100
AcDbMaterial
  1
BYLAYER
 72
     0
 73
     2
 43
0.0208333333333333
 43
0.0
 43
0.0
 43
0.0
 43
0.0
 43
0.0208333333333333
 43
0.0
 43
0.0
 43
0.0
 43
0.0
 43
1.0
 43
0.0
 43
0.0
 43
0.0
 43
0.0
 43
1.0
 77
     0
 78
     2
 47
0.0208333333333333
 47
0.0
 47
0.0
 47
0.0
 47
0.0
 47
0.0208333333333333
 47
0.0
 47
0.0
 47
0.0
 47
0.0
 47
1.0
 47
0.0
 47
0.0
 47
0.0
 47
0.0
 47
1.0
171
     0
172
     2
 49
0.0208333333333333
 49
0.0
 49
0.0
 49
0.0
 49
0.0
 49
0.0208333333333333
 49
0.0
 49
0.0
 49
0.0
 49
0.0
 49
1.0
 49
0.0
 49
0.0
 49
0.0
 49
0.0
 49
1.0
175
     0
176
     2
142
0.0208333333333333
142
0.0
142
0.0
142
0.0
142
0.0
142
0.0208333333333333
142
0.0
142
0.0
142
0.0
142
0.0
142
1.0
142
0.0
142
0.0
142
0.0
142
0.0
142
1.0
179
     0
270
     2
144
0.0208333333333333
144
0.0
144
0.0
144
0.0
144
0.0
144
0.0208333333333333
144
0.0
144
0.0
144
0.0
144
0.0
144
1.0
144
0.0
144
0.0
144
0.0
144
0.0
144
1.0
274
     2
147
0.0208333333333333
147
0.0
147
0.0
147
0.0
147
0.0
147
0.0208333333333333
147
0.0
147
0.0
147
0.0
147
0.0
147
1.0
147
0.0
147
0.0
147
0.0
147
0.0
147
1.0
  0
MATERIAL
  5
19DDD
102
{ACAD_REACTORS
330
2CF
102
}
102
{ACAD_XDICTIONARY
360
21A44
102
}
330
2CF
100
AcDbMaterial
  1
GLOBAL
 72
     0
 73
     2
 43
0.0208333333333333
 43
0.0
 43
0.0
 43
0.0
 43
0.0
 43
0.0208333333333333
 43
0.0
 43
0.0
 43
0.0
 43
0.0
 43
1.0
 43
0.0
 43
0.0
 43
0.0
 43
0.0
 43
1.0
 77
     0
 78
     2
 47
0.0208333333333333
 47
0.0
 47
0.0
 47
0.0
 47
0.0
 47
0.0208333333333333
 47
0.0
 47
0.0
 47
0.0
 47
0.0
 47
1.0
 47
0.0
 47
0.0
 47
0.0
 47
0.0
 47
1.0
171
     0
172
     2
 49
0.0208333333333333
 49
0.0
 49
0.0
 49
0.0
 49
0.0
 49
0.0208333333333333
 49
0.0
 49
0.0
 49
0.0
 49
0.0
 49
1.0
 49
0.0
 49
0.0
 49
0.0
 49
0.0
 49
1.0
175
     0
176
     2
142
0.0208333333333333
142
0.0
142
0.0
142
0.0
142
0.0
142
0.0208333333333333
142
0.0
142
0.0
142
0.0
142
0.0
142
1.0
142
0.0
142
0.0
142
0.0
142
0.0
142
1.0
179
     0
270
     2
144
0.0208333333333333
144
0.0
144
0.0
144
0.0
144
0.0
144
0.0208333333333333
144
0.0
144
0.0
144
0.0
144
0.0
144
1.0
144
0.0
144
0.0
144
0.0
144
0.0
144
1.0
274
     2
147
0.0208333333333333
147
0.0
147
0.0
147
0.0
147
0.0
147
0.0208333333333333
147
0.0
147
0.0
147
0.0
147
0.0
147
1.0
147
0.0
147
0.0
147
0.0
147
0.0
147
1.0
  0
ACAD_PROXY_OBJECT
  5
19E19
102
{ACAD_REACTORS
330
19E18
102
}
330
19E18
100
AcDbZombieObject
 90
      499
 91
      512
 93
      610
310
40901902A4063FBFFFFFE000000000000002040AD7A3703D0AD73F4214DD185B99185C990000000000000104090141901A00000000000004100000000000000041025764000000000000300FC0
340
12
340
0
340
F
340
0
 94
        0
1001
ACAD_MLEADERVER
1070
     2
  0
MLINESTYLE
  5
1C
102
{ACAD_REACTORS
330
1B
102
}
330
1B
100
AcDbMlineStyle
  2
STANDARD
 70
     0
  3

 62
   256
 51
90.0
 52
90.0
 71
     2
 49
0.5
 62
   256
  6
BYLAYER
 49
-0.5
 62
   256
  6
BYLAYER
  0
ACAD_PROXY_OBJECT
  5
19DF7
102
{ACAD_REACTORS
330
19DF6
102
}
330
19DF6
100
AcDbZombieObject
 90
      499
 91
      511
 93
       41
310
903313A31580
  0
ACAD_PROXY_OBJECT
  5
19DF8
102
{ACAD_REACTORS
330
19DF6
102
}
330
19DF6
100
AcDbZombieObject
 90
      499
 91
      511
 93
      105
310
903313A324000000000000004000
  0
ACAD_PROXY_OBJECT
  5
19DF9
102
{ACAD_REACTORS
330
19DF6
102
}
330
19DF6
100
AcDbZombieObject
 90
      499
 91
      511
 93
      105
310
903313A344000000000000104000
  0
ACAD_PROXY_OBJECT
  5
19DFA
102
{ACAD_REACTORS
330
19DF6
102
}
330
19DF6
100
AcDbZombieObject
 90
      499
 91
      511
 93
      105
310
903313A354000000000000144000
  0
ACAD_PROXY_OBJECT
  5
19DFB
102
{ACAD_REACTORS
330
19DF6
102
}
330
19DF6
100
AcDbZombieObject
 90
      499
 91
      511
 93
      105
310
903313A384000000000000204000
  0
ACAD_PROXY_OBJECT
  5
19DFC
102
{ACAD_REACTORS
330
19DF6
102
}
330
19DF6
100
AcDbZombieObject
 90
      499
 91
      511
 93
      113
310
904313A31304000000000000244000
  0
ACAD_PROXY_OBJECT
  5
19DFD
102
{ACAD_REACTORS
330
19DF6
102
}
330
19DF6
100
AcDbZombieObject
 90
      499
 91
      511
 93
      113
310
904313A31364000000000000304000
  0
ACAD_PROXY_OBJECT
  5
19DFE
102
{ACAD_REACTORS
330
19DF6
102
}
330
19DF6
100
AcDbZombieObject
 90
      499
 91
      511
 93
      113
310
904313A32304000000000000344000
  0
ACAD_PROXY_OBJECT
  5
19DFF
102
{ACAD_REACTORS
330
19DF6
102
}
330
19DF6
100
AcDbZombieObject
 90
      499
 91
      511
 93
      113
310
904313A333040000000000003E4000
  0
ACAD_PROXY_OBJECT
  5
19E00
102
{ACAD_REACTORS
330
19DF6
102
}
330
19DF6
100
AcDbZombieObject
 90
      499
 91
      511
 93
      113
310
904313A34304000000000000444000
  0
ACAD_PROXY_OBJECT
  5
19E01
102
{ACAD_REACTORS
330
19DF6
102
}
330
19DF6
100
AcDbZombieObject
 90
      499
 91
      511
 93
      113
310
904313A35304000000000000494000
  0
ACAD_PROXY_OBJECT
  5
19E02
102
{ACAD_REACTORS
330
19DF6
102
}
330
19DF6
100
AcDbZombieObject
 90
      499
 91
      511
 93
      121
310
905313A3130304000000000000594000
  0
ACAD_PROXY_OBJECT
  5
19E03
102
{ACAD_REACTORS
330
19DF6
102
}
330
19DF6
100
AcDbZombieObject
 90
      499
 91
      511
 93
      105
310
903323A310000000000000010100
  0
ACAD_PROXY_OBJECT
  5
19E04
102
{ACAD_REACTORS
330
19DF6
102
}
330
19DF6
100
AcDbZombieObject
 90
      499
 91
      511
 93
      105
310
903343A310000000000000410100
  0
ACAD_PROXY_OBJECT
  5
19E05
102
{ACAD_REACTORS
330
19DF6
102
}
330
19DF6
100
AcDbZombieObject
 90
      499
 91
      511
 93
      105
310
903383A310000000000000810100
  0
ACAD_PROXY_OBJECT
  5
19E06
102
{ACAD_REACTORS
330
19DF6
102
}
330
19DF6
100
AcDbZombieObject
 90
      499
 91
      511
 93
      113
310
90431303A310000000000000910100
  0
ACAD_PROXY_OBJECT
  5
19E07
102
{ACAD_REACTORS
330
19DF6
102
}
330
19DF6
100
AcDbZombieObject
 90
      499
 91
      511
 93
      121
310
9053130303A310000000000001650100
  0
ACAD_PROXY_OBJECT
  5
19E08
102
{ACAD_REACTORS
330
19DF6
102
}
330
19DF6
100
AcDbZombieObject
 90
      499
 91
      511
 93
      257
310
90E312F31323822203D2031272D3022000000000000200FC000000000000284000
  0
ACAD_PROXY_OBJECT
  5
19E09
102
{ACAD_REACTORS
330
19DF6
102
}
330
19DF6
100
AcDbZombieObject
 90
      499
 91
      511
 93
      249
310
90D312F363422203D2031272D3022000000000000240FC000000000000284000
  0
ACAD_PROXY_OBJECT
  5
19E0A
102
{ACAD_REACTORS
330
19DF6
102
}
330
19DF6
100
AcDbZombieObject
 90
      499
 91
      511
 93
      249
310
90D312F333222203D2031272D3022000000000000280FC000000000000284000
  0
ACAD_PROXY_OBJECT
  5
19E0B
102
{ACAD_REACTORS
330
19DF6
102
}
330
19DF6
100
AcDbZombieObject
 90
      499
 91
      511
 93
      249
310
90D312F313622203D2031272D30220000000000002C0FC000000000000284000
  0
ACAD_PROXY_OBJECT
  5
19E0C
102
{ACAD_REACTORS
330
19DF6
102
}
330
19DF6
100
AcDbZombieObject
 90
      499
 91
      511
 93
      249
310
90D332F333222203D2031272D30220000000000002E0FC000000000000284000
  0
ACAD_PROXY_OBJECT
  5
19E0D
102
{ACAD_REACTORS
330
19DF6
102
}
330
19DF6
100
AcDbZombieObject
 90
      499
 91
      511
 93
      241
310
90C312F3822203D2031272D3022000000000000300FC000000000000284000
  0
ACAD_PROXY_OBJECT
  5
19E0E
102
{ACAD_REACTORS
330
19DF6
102
}
330
19DF6
100
AcDbZombieObject
 90
      499
 91
      511
 93
      249
310
90D332F313622203D2031272D3022000000000000320FC000000000000284000
  0
ACAD_PROXY_OBJECT
  5
19E0F
102
{ACAD_REACTORS
330
19DF6
102
}
330
19DF6
100
AcDbZombieObject
 90
      499
 91
      511
 93
      241
310
90C312F3422203D2031272D3022000000000000340FC000000000000284000
  0
ACAD_PROXY_OBJECT
  5
19E10
102
{ACAD_REACTORS
330
19DF6
102
}
330
19DF6
100
AcDbZombieObject
 90
      499
 91
      511
 93
      241
310
90C332F3822203D2031272D3022000000000000360FC000000000000284000
  0
ACAD_PROXY_OBJECT
  5
19E11
102
{ACAD_REACTORS
330
19DF6
102
}
330
19DF6
100
AcDbZombieObject
 90
      499
 91
      511
 93
      241
310
90C312F3222203D2031272D3022000000000000380FC000000000000284000
  0
ACAD_PROXY_OBJECT
  5
19E12
102
{ACAD_REACTORS
330
19DF6
102
}
330
19DF6
100
AcDbZombieObject
 90
      499
 91
      511
 93
      241
310
90C332F3422203D2031272D30220000000000003A0FC000000000000284000
  0
ACAD_PROXY_OBJECT
  5
19E13
102
{ACAD_REACTORS
330
19DF6
102
}
330
19DF6
100
AcDbZombieObject
 90
      499
 91
      511
 93
      161
310
90A3122203D2031272D30224000000000000284000
  0
ACAD_PROXY_OBJECT
  5
19E14
102
{ACAD_REACTORS
330
19DF6
102
}
330
19DF6
100
AcDbZombieObject
 90
      499
 91
      511
 93
      257
310
90E312D312F3222203D2031272D30220000000000003E0FC000000000000284000
  0
ACAD_PROXY_OBJECT
  5
19E15
102
{ACAD_REACTORS
330
19DF6
102
}
330
19DF6
100
AcDbZombieObject
 90
      499
 91
      511
 93
      225
310
90A3322203D2031272D302200000000000002100000000000000284000
  0
ACAD_PROXY_OBJECT
  5
19E16
102
{ACAD_REACTORS
330
19DF6
102
}
330
19DF6
100
AcDbZombieObject
 90
      499
 91
      511
 93
      225
310
90A3622203D2031272D302200000000000006100000000000000284000
  0
ACAD_PROXY_OBJECT
  5
19E17
102
{ACAD_REACTORS
330
19DF6
102
}
330
19DF6
100
AcDbZombieObject
 90
      499
 91
      511
 93
      249
310
90D31272D3022203D2031272D30220000000000000A100000000000000284000
  0
ACAD_PROXY_OBJECT
  5
19DEB
102
{ACAD_REACTORS
330
19DE5
102
}
330
19DE5
100
AcDbZombieObject
 90
      499
 91
      510
 93
      436
310
42CC9915DA5C99599C985B595049028333333333333E3BF0000000000000FB0107901411070040501600405405064090741402480A0340
1001
ACAD
1000
AcDbSavedByObjectVersion
1070
     0
  0
ACAD_PROXY_OBJECT
  5
19DED
102
{ACAD_REACTORS
330
19DE5
102
}
330
19DE5
100
AcDbZombieObject
 90
      499
 91
      510
 93
      500
310
424CD108121A5919195B90640502408333333333333E3BF0000000000000FB01079024090700405020000000000001110200405405064090740C02480A0340
1001
ACAD
1000
AcDbSavedByObjectVersion
1070
     0
  0
ACAD_PROXY_OBJECT
  5
19DEC
102
{ACAD_REACTORS
330
19DE5
102
}
330
19DE5
100
AcDbZombieObject
 90
      499
 91
      510
 93
      436
310
42CCD915DA5C99599C985B595059028333333333333E3BF0000000000000FB0107901411070040501600405405064090741402480A0340
1001
ACAD
1000
AcDbSavedByObjectVersion
1070
     0
  0
ACAD_PROXY_OBJECT
  5
19DEA
102
{ACAD_REACTORS
330
19DE5
102
}
330
19DE5
100
AcDbZombieObject
 90
      499
 91
      510
 93
      388
310
4150985CDA58D07406404333333333333E3BF0000000000000FB0107A41107004050150841D405064090741402480A0350
1001
ACAD
1000
AcDbSavedByObjectVersion
1070
     0
  0
ACAD_PROXY_OBJECT
  5
19DF1
102
{ACAD_REACTORS
330
19DE5
102
}
330
19DE5
100
AcDbZombieObject
 90
      499
 91
      510
 93
      428
310
42109C9A59DA1D195B90C409028333333333333E3BF0000000000000FB010790141107004050150841D405064090741402480A029950
1001
ACAD
1000
AcDbSavedByObjectVersion
1070
     0
  0
ACAD_PROXY_OBJECT
  5
19DF5
102
{ACAD_REACTORS
330
19DE5
102
}
330
19DE5
100
AcDbZombieObject
 90
      499
 91
      510
 93
      452
310
42D0DBDB1BDC90DA185B99D95104090240C333333333333E3BF0000000000000FB0108901411070040501508421405064090741402480A0350
1001
ACAD
1000
AcDbSavedByObjectVersion
1070
     0
  0
ACAD_PROXY_OBJECT
  5
19DEE
102
{ACAD_REACTORS
330
19DE5
102
}
330
19DE5
100
AcDbZombieObject
 90
      499
 91
      510
 93
      500
310
4290DBDB98D95C1D1D585B10940D028333333333333E3BF0000000000000FB0107902409070040501000000000000111010841D405064090740C02480A0340
1001
ACAD
1000
AcDbSavedByObjectVersion
1070
     0
  0
ACAD_PROXY_OBJECT
  5
19DF0
102
{ACAD_REACTORS
330
19DE5
102
}
330
19DE5
100
AcDbZombieObject
 90
      499
 91
      510
 93
      412
310
40D11A5B50B409028333333333333E3BF0000000000000FB010790141107004050150841D405064090741402480A02677FFFFFD0
1001
ACAD
1000
AcDbSavedByObjectVersion
1070
     0
  0
ACAD_PROXY_OBJECT
  5
1E02A
102
{ACAD_REACTORS
330
19DE5
102
}
330
19DE5
100
AcDbZombieObject
 90
      499
 91
      510
 93
      452
310
43115919D950DBDB1BDC93D999916409028333333333333E3BF0000000000000FB010790141107004050150841D405064090741402480A0350
1001
ACAD
1000
AcDbSavedByObjectVersion
1070
     0
  0
ACAD_PROXY_OBJECT
  5
19DF4
102
{ACAD_REACTORS
330
19DE5
102
}
330
19DE5
100
AcDbZombieObject
 90
      499
 91
      510
 93
      444
310
42D19858D95C185D1D195C9B90F409028333333333333E3BF0000000000000FB010790141107004050150841D405064090741402480A0350
1001
ACAD
1000
AcDbSavedByObjectVersion
1070
     0
  0
ACAD_PROXY_OBJECT
  5
19DE6
102
{ACAD_REACTORS
330
19DE5
102
}
330
19DE5
100
AcDbZombieObject
 90
      499
 91
      510
 93
      388
310
41119B185D240901404333333333333E3BF0000000000000F9010740A41107004050150841D405064090741402480A1B50
1001
ACAD
1000
AcDbSavedByObjectVersion
1070
     0
  0
ACAD_PROXY_OBJECT
  5
19DE7
102
{ACAD_REACTORS
330
19DE5
102
}
330
19DE5
100
AcDbZombieObject
 90
      499
 91
      510
 93
      476
310
43519B185D15DA5D1A115919D95CD0140901404333333333333E3BF0000000000000F9010740901411070040501600405405064090741402480A1B50
1001
ACAD
1000
AcDbSavedByObjectVersion
1070
     0
  0
ACAD_PROXY_OBJECT
  5
19DE8
102
{ACAD_REACTORS
330
19DE5
102
}
330
19DE5
100
AcDbZombieObject
 90
      499
 91
      510
 93
      412
310
41D1DBDD5C985D5910240902404333333333333E3BF0000000000000F9010740A411070040501641D405064090741402480A1B50
1001
ACAD
1000
AcDbSavedByObjectVersion
1070
     0
  0
ACAD_PROXY_OBJECT
  5
19DE9
102
{ACAD_REACTORS
330
19DE5
102
}
330
19DE5
100
AcDbZombieObject
 90
      499
 91
      510
 93
      500
310
4411DBDD5C985D5915DA5D1A115919D95CD0340902404333333333333E3BF0000000000000F9010740901411070040501600405405064090741402480A1B50
1001
ACAD
1000
AcDbSavedByObjectVersion
1070
     0
  0
ACAD_PROXY_OBJECT
  5
1FE4A
102
{ACAD_REACTORS
330
19DE5
102
}
330
19DE5
100
AcDbZombieObject
 90
      499
 91
      510
 93
      476
310
41921A5919195B90640502408333333333333E33F0000000000000F901079024090700405020000000000001110200405405064090740C02480A0340
1001
ACAD
1000
AcDbSavedByObjectVersion
1070
     0
  0
ACAD_PROXY_OBJECT
  5
1E028
102
{ACAD_REACTORS
330
19DE5
102
}
330
19DE5
100
AcDbZombieObject
 90
      499
 91
      510
 93
      428
310
42529A5D1D195C93D999914409028333333333333E3BF0000000000000FB010790141107004050150A41D405064090741402480A0350
1001
ACAD
1000
AcDbSavedByObjectVersion
1070
     0
  0
ACAD_PROXY_OBJECT
  5
19DF3
102
{ACAD_REACTORS
330
19DE5
102
}
330
19DE5
100
AcDbZombieObject
 90
      499
 91
      510
 93
      444
310
42D31A5B995C185D1D195C9B90E409028333333333333E3BF0000000000000FB010790141107004050750841D405064090741402483A0350
1001
ACAD
1000
AcDbSavedByObjectVersion
1070
     0
  0
ACAD_PROXY_OBJECT
  5
1FE50
102
{ACAD_REACTORS
330
19DE5
102
}
330
19DE5
100
AcDbZombieObject
 90
      499
 91
      510
 93
      484
310
42135BD9195B1A5B99D0A409038333333333333E33F0000000000000F901074090290700405010000000000201990108421405064090741402480A1B40
1001
ACAD
1000
AcDbSavedByObjectVersion
1070
     0
  0
ACAD_PROXY_OBJECT
  5
1E029
102
{ACAD_REACTORS
330
19DE5
102
}
330
19DE5
100
AcDbZombieObject
 90
      499
 91
      510
 93
      444
310
42D3DD995C9A185B99D3D999915409028333333333333E3BF0000000000000FB010790141107004050150941D405064090741402480A0350
1001
ACAD
1000
AcDbSavedByObjectVersion
1070
     0
  0
ACAD_PROXY_OBJECT
  5
19DEF
102
{ACAD_REACTORS
330
19DE5
102
}
330
19DE5
100
AcDbZombieObject
 90
      499
 91
      510
 93
      420
310
425499585B1A5CDD1A58D08409028333333333333E3BF0000000000000FB01079019070040501508421405064090741402480A1B40
1001
ACAD
1000
AcDbSavedByObjectVersion
1070
     0
  0
ACAD_PROXY_OBJECT
  5
1FE4F
102
{ACAD_REACTORS
330
19DE5
102
}
330
19DE5
100
AcDbZombieObject
 90
      499
 91
      510
 93
      420
310
4194DA1859195911B40902404333333333333E33F0000000000000F9010740A41107004050150800405405064090840C02480A0B40
1001
ACAD
1000
AcDbSavedByObjectVersion
1070
     0
  0
ACAD_PROXY_OBJECT
  5
1FE4E
102
{ACAD_REACTORS
330
19DE5
102
}
330
19DE5
100
AcDbZombieObject
 90
      499
 91
      510
 93
      516
310
4454DA18591959081DDA5D1A08195919D95CD1A40902404333333333333E33F0000000000000F901074090142907004050250800405405064090740C02480A0B40
1001
ACAD
1000
AcDbSavedByObjectVersion
1070
     0
  0
ACAD_PROXY_OBJECT
  5
1FE4B
102
{ACAD_REACTORS
330
19DE5
102
}
330
19DE5
100
AcDbZombieObject
 90
      499
 91
      510
 93
      532
310
4394DA1859195CC81BD98811DC985E5174090240C333333333333E33F0000000000000F901079024090741D01000000000000111010841D405064090740C02480A0340
1001
ACAD
1000
AcDbSavedByObjectVersion
1070
     0
  0
ACAD_PROXY_OBJECT
  5
1FE4C
102
{ACAD_REACTORS
330
19DE5
102
}
330
19DE5
100
AcDbZombieObject
 90
      499
 91
      510
 93
      476
310
41D4DAD95D18DA1E51840502408333333333333E33F0000000000000F901079024090741D01000000000000111010B41D405064090741802480A0340
1001
ACAD
1000
AcDbSavedByObjectVersion
1070
     0
  0
ACAD_PROXY_OBJECT
  5
19DF2
102
{ACAD_REACTORS
330
19DE5
102
}
330
19DE5
100
AcDbZombieObject
 90
      499
 91
      510
 93
      412
310
41D51A1A58DAD95B90D409028333333333333E3BF0000000000000FB010790141107004050150C41D405064090741402480A0350
1001
ACAD
1000
AcDbSavedByObjectVersion
1070
     0
  0
ACAD_PROXY_OBJECT
  5
1FE49
102
{ACAD_REACTORS
330
19DE5
102
}
330
19DE5
100
AcDbZombieObject
 90
      499
 91
      510
 93
      420
310
4255DA5C99599C985B595059028333333333333E33F0000000000000F90107901411070040501600405405064090740C02480A0340
1001
ACAD
1000
AcDbSavedByObjectVersion
1070
     0
  0
ACAD_PROXY_OBJECT
  5
1FE4D
102
{ACAD_REACTORS
330
19DE5
102
}
330
19DE5
100
AcDbZombieObject
 90
      499
 91
      510
 93
      404
310
41560B54985E51940902404000000000000E03F0000000000000F9010740501907004050150841D405064090740C02480A1B40
1001
ACAD
1000
AcDbSavedByObjectVersion
1070
     0
  0
XRECORD
  5
218A3
102
{ACAD_REACTORS
330
218A2
102
}
330
218A2
100
AcDbXrecord
340
2D0
  0
XRECORD
  5
218A4
102
{ACAD_REACTORS
330
218A2
102
}
330
218A2
100
AcDbXrecord
340
2CF
  0
DICTIONARYVAR
  5
20611
102
{ACAD_REACTORS
330
37
102
}
330
37
100
DictionaryVariables
280
     0
  1
1:1
  0
DICTIONARYVAR
  5
1AC19
102
{ACAD_REACTORS
330
37
102
}
330
37
100
DictionaryVariables
280
     0
  1
Standard
  0
DICTIONARYVAR
  5
4F1
102
{ACAD_REACTORS
330
37
102
}
330
37
100
DictionaryVariables
280
     0
  1
Standard
  0
DICTIONARYVAR
  5
38
102
{ACAD_REACTORS
330
37
102
}
330
37
100
DictionaryVariables
280
     0
  1
-1
  0
DICTIONARYVAR
  5
408
102
{ACAD_REACTORS
330
37
102
}
330
37
100
DictionaryVariables
280
     0
  1
2
  0
DICTIONARYVAR
  5
1891
102
{ACAD_REACTORS
330
37
102
}
330
37
100
DictionaryVariables
280
     0
  1
1
  0
DICTIONARYVAR
  5
1AC1C
102
{ACAD_REACTORS
330
37
102
}
330
37
100
DictionaryVariables
280
     0
  1
0
  0
DICTIONARYVAR
  5
1895
102
{ACAD_REACTORS
330
37
102
}
330
37
100
DictionaryVariables
280
     0
  1
8
  0
DICTIONARYVAR
  5
1894
102
{ACAD_REACTORS
330
37
102
}
330
37
100
DictionaryVariables
280
     0
  1
1
  0
DICTIONARYVAR
  5
20667
102
{ACAD_REACTORS
330
37
102
}
330
37
100
DictionaryVariables
280
     0
  1
0
  0
DICTIONARYVAR
  5
1892
102
{ACAD_REACTORS
330
37
102
}
330
37
100
DictionaryVariables
280
     0
  1
8
  0
DICTIONARYVAR
  5
1893
102
{ACAD_REACTORS
330
37
102
}
330
37
100
DictionaryVariables
280
     0
  1
2
  0
DICTIONARYVAR
  5
409
102
{ACAD_REACTORS
330
37
102
}
330
37
100
DictionaryVariables
280
     0
  1

  0
DICTIONARYVAR
  5
1AC1B
102
{ACAD_REACTORS
330
37
102
}
330
37
100
DictionaryVariables
280
     0
  1
127
  0
DICTIONARYVAR
  5
1FE48
102
{ACAD_REACTORS
330
37
102
}
330
37
100
DictionaryVariables
280
     0
  1
2
  0
DICTIONARY
  5
21A40
330
19DD5
100
AcDbDictionary
  3
ACAD_XREC_ROUNDTRIP
360
21A41
1001
ACAD
1000
TREAT_AS_HARD
1070
     1
  0
DICTIONARY
  5
21A42
330
19DCD
100
AcDbDictionary
  3
ACAD_XREC_ROUNDTRIP
360
21A43
1001
ACAD
1000
TREAT_AS_HARD
1070
     1
  0
DICTIONARY
  5
21A44
330
19DDD
100
AcDbDictionary
  3
ACAD_XREC_ROUNDTRIP
360
21A45
1001
ACAD
1000
TREAT_AS_HARD
1070
     1
  0
XRECORD
  5
21A41
102
{ACAD_REACTORS
330
21A40
102
}
330
21A40
100
AcDbXrecord
102
MATERIAL
148
0.0
149
0.0
149
0.0
 93
        0
 94
      127
282
     0
 72
     0
 77
     0
171
     0
175
     0
179
     0
273
     0
  0
XRECORD
  5
21A43
102
{ACAD_REACTORS
330
21A42
102
}
330
21A42
100
AcDbXrecord
102
MATERIAL
148
0.0
149
0.0
149
0.0
 93
        0
 94
      127
282
     0
 72
     0
 77
     0
171
     0
175
     0
179
     0
273
     0
  0
XRECORD
  5
21A45
102
{ACAD_REACTORS
330
21A44
102
}
330
21A44
100
AcDbXrecord
102
MATERIAL
148
0.0
149
0.0
149
0.0
 93
        0
 94
      127
282
     0
 72
     0
 77
     0
171
     0
175
     0
179
     0
273
     0
  0
ENDSEC
  0
EOF
