  0
SECTION
  2
HEADER
  9
$ACADVER
  1
AC1012
  9
$DWGCODEPAGE
  3
ansi_932
  9
$INSBASE
 10
0.0
 20
0.0
 30
0.0
  9
$EXTMIN
 10
20.0
 20
-1214.909415345275
 30
0.0
  9
$EXTMAX
 10
888.8636594485647
 20
-970.874292881186
 30
0.0000000000017296
  9
$LIMMIN
 10
0.0
 20
0.0
  9
$LIMMAX
 10
420.0
 20
297.0
  9
$ORTHOMODE
 70
     0
  9
$REGENMODE
 70
     1
  9
$FILLMODE
 70
     1
  9
$QTEXTMODE
 70
     0
  9
$MIRRTEXT
 70
     0
  9
$DRAGMODE
 70
     2
  9
$LTSCALE
 40
0.5
  9
$OSMODE
 70
 12383
  9
$ATTMODE
 70
     1
  9
$TEXTSIZE
 40
4.0
  9
$TRACEWID
 40
1.0
  9
$TEXTSTYLE
  7
STANDARD
  9
$CLAYER
  8
1TEXT
  9
$CELTYPE
  6
BYLAYER
  9
$CECOLOR
 62
   256
  9
$CELTSCALE
 40
1.0
  9
$DELOBJ
 70
     1
  9
$DISPSILH
 70
     0
  9
$DIMSCALE
 40
1.0
  9
$DIMASZ
 40
2.0
  9
$DIMEXO
 40
0.0
  9
$DIMDLI
 40
7.0
  9
$DIMRND
 40
0.0
  9
$DIMDLE
 40
0.0
  9
$DIMEXE
 40
1.0
  9
$DIMTP
 40
0.0
  9
$DIMTM
 40
0.0
  9
$DIMTXT
 40
3.5
  9
$DIMCEN
 40
0.0
  9
$DIMTSZ
 40
0.0
  9
$DIMTOL
 70
     0
  9
$DIMLIM
 70
     0
  9
$DIMTIH
 70
     0
  9
$DIMTOH
 70
     0
  9
$DIMSE1
 70
     0
  9
$DIMSE2
 70
     0
  9
$DIMTAD
 70
     1
  9
$DIMZIN
 70
     8
  9
$DIMBLK
  1

  9
$DIMASO
 70
     1
  9
$DIMSHO
 70
     1
  9
$DIMPOST
  1
 
  9
$DIMAPOST
  1

  9
$DIMALT
 70
     0
  9
$DIMALTD
 70
     2
  9
$DIMALTF
 40
25.4
  9
$DIMLFAC
 40
1.0
  9
$DIMTOFL
 70
     1
  9
$DIMTVP
 40
0.0
  9
$DIMTIX
 70
     0
  9
$DIMSOXD
 70
     0
  9
$DIMSAH
 70
     1
  9
$DIMBLK1
  1
OPEN30
  9
$DIMBLK2
  1
OPEN30
  9
$DIMSTYLE
  2
NEWX10
  9
$DIMCLRD
 70
   256
  9
$DIMCLRE
 70
   256
  9
$DIMCLRT
 70
   201
  9
$DIMTFAC
 40
0.7
  9
$DIMGAP
 40
0.7
  9
$DIMJUST
 70
     0
  9
$DIMSD1
 70
     0
  9
$DIMSD2
 70
     0
  9
$DIMTOLJ
 70
     1
  9
$DIMTZIN
 70
     8
  9
$DIMALTZ
 70
     0
  9
$DIMALTTZ
 70
     0
  9
$DIMFIT
 70
     2
  9
$DIMUPT
 70
     0
  9
$DIMUNIT
 70
     2
  9
$DIMDEC
 70
     2
  9
$DIMTDEC
 70
     4
  9
$DIMALTU
 70
     2
  9
$DIMALTTD
 70
     2
  9
$DIMTXSTY
  7
STANDARD
  9
$DIMAUNIT
 70
     0
  9
$LUNITS
 70
     2
  9
$LUPREC
 70
     4
  9
$SKETCHINC
 40
1.0
  9
$FILLETRAD
 40
0.0
  9
$AUNITS
 70
     0
  9
$AUPREC
 70
     2
  9
$MENU
  1
acad
  9
$ELEVATION
 40
0.0
  9
$PELEVATION
 40
0.0
  9
$THICKNESS
 40
0.0
  9
$LIMCHECK
 70
     0
  9
$CHAMFERA
 40
1.0
  9
$CHAMFERB
 40
1.0
  9
$CHAMFERC
 40
20.0
  9
$CHAMFERD
 40
0.0
  9
$SKPOLY
 70
     0
  9
$TDCREATE
 40
2453033.732663484
  9
$TDUPDATE
 40
2459359.403800579
  9
$TDINDWG
 40
2.4649463079
  9
$TDUSRTIMER
 40
2.4649463079
  9
$USRTIMER
 70
     1
  9
$ANGBASE
 50
0.0
  9
$ANGDIR
 70
     0
  9
$PDMODE
 70
     0
  9
$PDSIZE
 40
0.0
  9
$PLINEWID
 40
0.0
  9
$COORDS
 70
     2
  9
$SPLFRAME
 70
     0
  9
$SPLINETYPE
 70
     6
  9
$SPLINESEGS
 70
     8
  9
$ATTDIA
 70
     0
  9
$ATTREQ
 70
     1
  9
$HANDLING
 70
     1
  9
$HANDSEED
  5
22B57
  9
$SURFTAB1
 70
     6
  9
$SURFTAB2
 70
     6
  9
$SURFTYPE
 70
     6
  9
$SURFU
 70
     6
  9
$SURFV
 70
     6
  9
$UCSNAME
  2

  9
$UCSORG
 10
0.0
 20
0.0
 30
0.0
  9
$UCSXDIR
 10
1.0
 20
0.0
 30
0.0
  9
$UCSYDIR
 10
0.0
 20
1.0
 30
0.0
  9
$PUCSNAME
  2

  9
$PUCSORG
 10
0.0
 20
0.0
 30
0.0
  9
$PUCSXDIR
 10
1.0
 20
0.0
 30
0.0
  9
$PUCSYDIR
 10
0.0
 20
1.0
 30
0.0
  9
$USERI1
 70
     0
  9
$USERI2
 70
     0
  9
$USERI3
 70
     0
  9
$USERI4
 70
     0
  9
$USERI5
 70
     0
  9
$USERR1
 40
0.0
  9
$USERR2
 40
0.0
  9
$USERR3
 40
0.0
  9
$USERR4
 40
0.0
  9
$USERR5
 40
0.0
  9
$WORLDVIEW
 70
     1
  9
$SHADEDGE
 70
     3
  9
$SHADEDIF
 70
    70
  9
$TILEMODE
 70
     1
  9
$MAXACTVP
 70
    48
  9
$PINSBASE
 10
0.0
 20
0.0
 30
0.0
  9
$PLIMCHECK
 70
     0
  9
$PEXTMIN
 10
1.000000000000000E+20
 20
1.000000000000000E+20
 30
1.000000000000000E+20
  9
$PEXTMAX
 10
-1.000000000000000E+20
 20
-1.000000000000000E+20
 30
-1.000000000000000E+20
  9
$PLIMMIN
 10
0.0
 20
0.0
  9
$PLIMMAX
 10
420.0
 20
297.0
  9
$UNITMODE
 70
     0
  9
$VISRETAIN
 70
     1
  9
$PLINEGEN
 70
     0
  9
$PSLTSCALE
 70
     1
  9
$TREEDEPTH
 70
  3020
  9
$PICKSTYLE
 70
     1
  9
$CMLSTYLE
  2
STANDARD
  9
$CMLJUST
 70
     0
  9
$CMLSCALE
 40
20.0
  9
$SAVEIMAGES
 70
     1
  0
ENDSEC
  0
SECTION
  2
CLASSES
  0
CLASS
  1
DICTIONARYVAR
  2
AcDbDictionaryVar
  3
ObjectDBX Classes
 90
        0
280
     0
281
     0
  0
CLASS
  1
IDBUFFER
  2
AcDbIdBuffer
  3
ObjectDBX Classes
 90
    32768
280
     0
281
     0
  0
CLASS
  1
LWPOLYLINE
  2
AcDbPolyline
  3
ObjectDBX Classes
 90
    32768
280
     0
281
     1
  0
CLASS
  1
ACDBDICTIONARYWDFLT
  2
AcDbDictionaryWithDefault
  3
ObjectDBX Classes
 90
    32768
280
     0
281
     0
  0
CLASS
  1
ACDBPLACEHOLDER
  2
AcDbPlaceHolder
  3
ObjectDBX Classes
 90
        0
280
     0
281
     0
  0
CLASS
  1
LAYOUT
  2
AcDbLayout
  3
ObjectDBX Classes
 90
        0
280
     0
281
     0
  0
CLASS
  1
TABLESTYLE
  2
AcDbTableStyle
  3
ObjectDBX Classes
 90
     4095
280
     0
281
     0
  0
CLASS
  1
SORTENTSTABLE
  2
AcDbSortentsTable
  3
ObjectDBX Classes
 90
    32768
280
     0
281
     0
  0
CLASS
  1
DIMASSOC
  2
AcDbDimAssoc
  3
"AcDbDimAssoc|Product Desc:     AcDim ARX App For Dimension|Company:          Autodesk, Inc.|WEB Address:      www.autodesk.com"
 90
        0
280
     0
281
     0
  0
CLASS
  1
MATERIAL
  2
AcDbMaterial
  3
ObjectDBX Classes
 90
     1153
280
     0
281
     0
  0
CLASS
  1
VISUALSTYLE
  2
AcDbVisualStyle
  3
ObjectDBX Classes
 90
     4095
280
     0
281
     0
  0
CLASS
  1
SCALE
  2
AcDbScale
  3
ObjectDBX Classes
 90
     1153
280
     0
281
     0
  0
CLASS
  1
MLEADERSTYLE
  2
AcDbMLeaderStyle
  3
ACDB_MLEADERSTYLE_CLASS
 90
     4095
280
     0
281
     0
  0
CLASS
  1
CELLSTYLEMAP
  2
AcDbCellStyleMap
  3
ObjectDBX Classes
 90
     1152
280
     0
281
     0
  0
CLASS
  1
EXACXREFPANELOBJECT
  2
ExAcXREFPanelObject
  3
EXAC_ESW
 90
     1025
280
     1
281
     0
  0
CLASS
  1
NPOCOLLECTION
  2
AcDbImpNonPersistentObjectsCollection
  3
ObjectDBX Classes
 90
     1153
280
     1
281
     0
  0
CLASS
  1
SUN
  2
AcDbSun
  3
SCENEOE
 90
     1153
280
     0
281
     0
  0
CLASS
  1
MULTILEADER
  2
AcDbMLeader
  3
ACDB_MLEADER_CLASS
 90
     1025
280
     0
281
     1
  0
CLASS
  1
ACDB_MLEADEROBJECTCONTEXTDATA_CLASS
  2
AcDbMLeaderObjectContextData
  3
ObjectDBX Classes
 90
     1153
280
     0
281
     0
  0
CLASS
  1
XRECORD
  2
AcDbXrecord
  3
ObjectDBX Classes
 90
    32768
280
     0
281
     0
  0
CLASS
  1
HATCH
  2
AcDbHatch
  3
ObjectDBX Classes
 90
    32768
280
     0
281
     1
  0
ENDSEC
  0
SECTION
  2
TABLES
  0
TABLE
  2
VPORT
  5
8
330
0
100
AcDbSymbolTable
 70
     1
  0
VPORT
  5
19DC2
330
8
100
AcDbSymbolTableRecord
100
AcDbViewportTableRecord
  2
*ACTIVE
 70
     0
 10
0.0
 20
0.0
 11
1.0
 21
1.0
 12
454.4318297242824
 22
-1092.891854113231
 13
0.0
 23
0.0
 14
10.0
 24
10.0
 15
10.0
 25
10.0
 16
0.0
 26
0.0
 36
1.0
 17
0.0
 27
0.0
 37
0.0
 40
502.0489011727304
 41
1.858156028368794
 42
50.0
 43
0.0
 44
0.0
 50
0.0
 51
0.0
 71
    16
 72
   100
 73
     1
 74
     1
 75
     0
 76
     0
 77
     0
 78
     0
  0
ENDTAB
  0
TABLE
  2
LTYPE
  5
5
330
0
100
AcDbSymbolTable
 70
     3
  0
LTYPE
  5
12
330
5
100
AcDbSymbolTableRecord
100
AcDbLinetypeTableRecord
  2
BYBLOCK
 70
     0
  3

 72
    65
 73
     0
 40
0.0
  0
LTYPE
  5
13
330
5
100
AcDbSymbolTableRecord
100
AcDbLinetypeTableRecord
  2
BYLAYER
 70
     0
  3

 72
    65
 73
     0
 40
0.0
  0
LTYPE
  5
14
330
5
100
AcDbSymbolTableRecord
100
AcDbLinetypeTableRecord
  2
CONTINUOUS
 70
     0
  3
Solid line
 72
    65
 73
     0
 40
0.0
  0
LTYPE
  5
26
330
5
100
AcDbSymbolTableRecord
100
AcDbLinetypeTableRecord
  2
CENTER2
 70
     0
  3
Center (.5x) ___ _ ___ _ ___ _ ___ _ ___ _ ___
 72
    65
 73
     4
 40
28.575
 49
19.05
 74
     0
 49
-3.175
 74
     0
 49
3.175
 74
     0
 49
-3.175
 74
     0
  0
LTYPE
  5
100
330
5
100
AcDbSymbolTableRecord
100
AcDbLinetypeTableRecord
  2
PHANTOM2
 70
     0
  3
Phantom (0.5x) ___ _ _ ___ _ _ ___ _ _ ___ _ _
 72
    65
 73
     6
 40
31.75
 49
15.875
 74
     0
 49
-3.175
 74
     0
 49
3.175
 74
     0
 49
-3.175
 74
     0
 49
3.175
 74
     0
 49
-3.175
 74
     0
  0
ENDTAB
  0
TABLE
  2
LAYER
  5
2
102
{ACAD_XDICTIONARY
360
18FE8
102
}
330
0
100
AcDbSymbolTable
 70
     8
  0
LAYER
  5
E
102
{ACAD_XDICTIONARY
360
1A20A
102
}
330
2
100
AcDbSymbolTableRecord
100
AcDbLayerTableRecord
  2
0
 70
     0
 62
     7
  6
CONTINUOUS
  0
LAYER
  5
29
102
{ACAD_XDICTIONARY
360
1A20C
102
}
330
2
100
AcDbSymbolTableRecord
100
AcDbLayerTableRecord
  2
1CENTER
 70
     0
 62
     7
  6
CENTER2
  0
LAYER
  5
31
102
{ACAD_XDICTIONARY
360
1A20E
102
}
330
2
100
AcDbSymbolTableRecord
100
AcDbLayerTableRecord
  2
1TEXT
 70
     0
 62
     7
  6
CONTINUOUS
  0
LAYER
  5
101
102
{ACAD_XDICTIONARY
360
1A218
102
}
330
2
100
AcDbSymbolTableRecord
100
AcDbLayerTableRecord
  2
1DIM
 70
     0
 62
     7
  6
CONTINUOUS
  0
LAYER
  5
103
102
{ACAD_XDICTIONARY
360
1A21C
102
}
330
2
100
AcDbSymbolTableRecord
100
AcDbLayerTableRecord
  2
1PHANTOM
 70
     0
 62
     7
  6
PHANTOM2
  0
LAYER
  5
25F
102
{ACAD_XDICTIONARY
360
1A220
102
}
330
2
100
AcDbSymbolTableRecord
100
AcDbLayerTableRecord
  2
01
 70
     0
 62
     1
  6
CONTINUOUS
  0
LAYER
  5
26A
102
{ACAD_XDICTIONARY
360
1A236
102
}
330
2
100
AcDbSymbolTableRecord
100
AcDbLayerTableRecord
  2
1DIM1
 70
     0
 62
     7
  6
CONTINUOUS
  0
LAYER
  5
26D
102
{ACAD_XDICTIONARY
360
1A23C
102
}
330
2
100
AcDbSymbolTableRecord
100
AcDbLayerTableRecord
  2
1HATCH
 70
     0
 62
     7
  6
CONTINUOUS
  0
ENDTAB
  0
TABLE
  2
STYLE
  5
3
330
0
100
AcDbSymbolTable
 70
     2
  0
STYLE
  5
F
330
3
100
AcDbSymbolTableRecord
100
AcDbTextStyleTableRecord
  2
STANDARD
 70
     0
 40
0.0
 41
1.0
 50
0.0
 71
     0
 42
4.0
  3
txt.shx
  4
extfont.shx
  0
STYLE
  5
21E9E
330
3
100
AcDbSymbolTableRecord
100
AcDbTextStyleTableRecord
  2
STANDARD06
 70
     0
 40
0.0
 41
0.6
 50
0.0
 71
     0
 42
4.0
  3
romans.shx
  4
extfont2.shx
1001
ACADANNOTATIVE
1000
AnnotativeData
1002
{
1070
     1
1070
     0
1002
}
  0
ENDTAB
  0
TABLE
  2
VIEW
  5
6
330
0
100
AcDbSymbolTable
 70
     0
  0
ENDTAB
  0
TABLE
  2
UCS
  5
7
330
0
100
AcDbSymbolTable
 70
     0
  0
ENDTAB
  0
TABLE
  2
APPID
  5
9
330
0
100
AcDbSymbolTable
 70
    33
  0
APPID
  5
10
330
9
100
AcDbSymbolTableRecord
100
AcDbRegAppTableRecord
  2
ACAD
 70
     0
  0
APPID
  5
21
330
9
100
AcDbSymbolTableRecord
100
AcDbRegAppTableRecord
  2
DRAWINGVARIABLESXDATA
 70
     0
  0
APPID
  5
64
330
9
100
AcDbSymbolTableRecord
100
AcDbRegAppTableRecord
  2
CONTENTTABDATA
 70
     0
  0
APPID
  5
65
330
9
100
AcDbSymbolTableRecord
100
AcDbRegAppTableRecord
  2
CONTENTCURRENTTAB
 70
     0
  0
APPID
  5
66
330
9
100
AcDbSymbolTableRecord
100
AcDbRegAppTableRecord
  2
CONTENTBLOCKDESCRIPTION
 70
     0
  0
APPID
  5
67
330
9
100
AcDbSymbolTableRecord
100
AcDbRegAppTableRecord
  2
CONTENTBLOCKICON
 70
     0
  0
APPID
  5
68
330
9
100
AcDbSymbolTableRecord
100
AcDbRegAppTableRecord
  2
CONTENTLONGBLOCKNAME
 70
     0
  0
APPID
  5
5A9
330
9
100
AcDbSymbolTableRecord
100
AcDbRegAppTableRecord
  2
ACAD_PSEXT
 70
     0
  0
APPID
  5
18AC
330
9
100
AcDbSymbolTableRecord
100
AcDbRegAppTableRecord
  2
ACAD_DSTYLE_DIMTEXT_FILL
 70
     0
  0
APPID
  5
19E1A
330
9
100
AcDbSymbolTableRecord
100
AcDbRegAppTableRecord
  2
ACAD_MLEADERVER
 70
     0
  0
APPID
  5
1A2FA
330
9
100
AcDbSymbolTableRecord
100
AcDbRegAppTableRecord
  2
ACAD_DSTYLE_DIMRADIAL_EXTE
 70
     0
  0
APPID
  5
1DBC1
330
9
100
AcDbSymbolTableRecord
100
AcDbRegAppTableRecord
  2
ACADANNOTATIVE
 70
     0
  0
APPID
  5
1E991
330
9
100
AcDbSymbolTableRecord
100
AcDbRegAppTableRecord
  2
ACAD_EXEMPT_FROM_CAD_STAND
 70
     0
  0
APPID
  5
202C7
330
9
100
AcDbSymbolTableRecord
100
AcDbRegAppTableRecord
  2
ACDBBLOCKREPETAG
 70
     0
  0
APPID
  5
20AA7
330
9
100
AcDbSymbolTableRecord
100
AcDbRegAppTableRecord
  2
ACAD_OBJECT_CHANGE_GUID
 70
     0
  0
APPID
  5
20B26
330
9
100
AcDbSymbolTableRecord
100
AcDbRegAppTableRecord
  2
ACLAYERTOOLS
 70
     0
  0
APPID
  5
20B27
330
9
100
AcDbSymbolTableRecord
100
AcDbRegAppTableRecord
  2
ACAD_NAV_VCDISPLAY
 70
     0
  0
APPID
  5
21D9A
330
9
100
AcDbSymbolTableRecord
100
AcDbRegAppTableRecord
  2
ACAD_DSTYLE_DIMJAG
 70
     0
  0
APPID
  5
21D9B
330
9
100
AcDbSymbolTableRecord
100
AcDbRegAppTableRecord
  2
ACAD_DSTYLE_DIMTALN
 70
     0
  0
APPID
  5
21E8B
330
9
100
AcDbSymbolTableRecord
100
AcDbRegAppTableRecord
  2
ACDBDYNAMICBLOCKTRUENAME
 70
     0
  0
APPID
  5
21E8C
330
9
100
AcDbSymbolTableRecord
100
AcDbRegAppTableRecord
  2
ACDBDYNAMICBLOCKGUID
 70
     0
  0
APPID
  5
21E8D
330
9
100
AcDbSymbolTableRecord
100
AcDbRegAppTableRecord
  2
ACDBBLOCKREPBTAG
 70
     0
  0
APPID
  5
21E8E
330
9
100
AcDbSymbolTableRecord
100
AcDbRegAppTableRecord
  2
ACAUTHENVIRON
 70
     0
  0
APPID
  5
21E8F
330
9
100
AcDbSymbolTableRecord
100
AcDbRegAppTableRecord
  2
ACADANNOPO
 70
     0
  0
APPID
  5
21E92
330
9
100
AcDbSymbolTableRecord
100
AcDbRegAppTableRecord
  2
ACAECLAYERSTANDARD
 70
     0
  0
APPID
  5
21E93
330
9
100
AcDbSymbolTableRecord
100
AcDbRegAppTableRecord
  2
ACAD_DSTYLE_DIMJOGGED_JOGA
 70
     0
  0
APPID
  5
21E94
330
9
100
AcDbSymbolTableRecord
100
AcDbRegAppTableRecord
  2
ACAD_DSTYLE_DIM_LINETYPE
 70
     0
  0
APPID
  5
21E95
330
9
100
AcDbSymbolTableRecord
100
AcDbRegAppTableRecord
  2
ACAD_DSTYLE_DIM_EXT1_LINET
 70
     0
  0
APPID
  5
21E96
330
9
100
AcDbSymbolTableRecord
100
AcDbRegAppTableRecord
  2
ACAD_DSTYLE_DIM_EXT2_LINET
 70
     0
  0
APPID
  5
21E97
330
9
100
AcDbSymbolTableRecord
100
AcDbRegAppTableRecord
  2
ACAD_DIMASSOC_CALC_DIMLFAC
 70
     0
  0
APPID
  5
21E98
330
9
100
AcDbSymbolTableRecord
100
AcDbRegAppTableRecord
  2
ACAD_DIMASSOC_DIMLFAC
 70
     0
  0
APPID
  5
21E99
330
9
100
AcDbSymbolTableRecord
100
AcDbRegAppTableRecord
  2
ACAD_DIMASSOC_OVERRIDDEN_D
 70
     0
  0
APPID
  5
21E9C
330
9
100
AcDbSymbolTableRecord
100
AcDbRegAppTableRecord
  2
ACADANNOTATIVEDECOMPOSITIO
 70
     0
  0
ENDTAB
  0
TABLE
  2
DIMSTYLE
  5
A
330
0
100
AcDbSymbolTable
 70
     2
  0
DIMSTYLE
105
48
330
A
100
AcDbSymbolTableRecord
100
AcDbDimStyleTableRecord
  2
NEWX10
 70
     0
  3
 
  4

  5

  6
OPEN30
  7
OPEN30
 40
1.0
 41
2.0
 42
0.0
 43
7.0
 44
1.0
 45
0.0
 46
0.0
 47
0.0
 48
0.0
140
3.5
141
0.0
142
0.0
143
25.4
144
1.0
145
0.0
146
0.7
147
0.7
 71
     0
 72
     0
 73
     0
 74
     0
 75
     0
 76
     0
 77
     1
 78
     8
170
     0
171
     2
172
     1
173
     1
174
     0
175
     0
176
   256
177
   256
178
   201
179
     2
270
     2
271
     2
272
     4
273
     2
274
     2
340
F
275
     0
280
     0
281
     0
282
     0
283
     1
284
     8
285
     0
286
     0
287
     2
288
     0
  0
DIMSTYLE
105
2182D
330
A
100
AcDbSymbolTableRecord
100
AcDbDimStyleTableRecord
  2
ISO-25
 70
     0
  3

  4

  5

  6

  7

 40
1.0
 41
2.5
 42
0.625
 43
3.75
 44
1.25
 45
0.0
 46
0.0
 47
0.0
 48
0.0
140
2.5
141
2.5
142
0.0
143
0.03937007874016
144
1.0
145
0.0
146
1.0
147
0.625
 71
     0
 72
     0
 73
     0
 74
     0
 75
     0
 76
     0
 77
     1
 78
     8
170
     0
171
     3
172
     1
173
     0
174
     0
175
     0
176
     0
177
     0
178
     0
270
     2
271
     2
272
     2
273
     2
274
     3
340
F
275
     0
280
     0
281
     0
282
     0
283
     0
284
     8
285
     0
286
     0
287
     3
288
     0
  0
ENDTAB
  0
TABLE
  2
BLOCK_RECORD
  5
1
330
0
100
AcDbSymbolTable
 70
    10
  0
BLOCK_RECORD
  5
18
102
{ACAD_XDICTIONARY
360
6E9
102
}
330
1
100
AcDbSymbolTableRecord
100
AcDbBlockTableRecord
  2
*MODEL_SPACE
  0
BLOCK_RECORD
  5
15
102
{ACAD_XDICTIONARY
360
59B
102
}
330
1
100
AcDbSymbolTableRecord
100
AcDbBlockTableRecord
  2
*PAPER_SPACE
  0
BLOCK_RECORD
  5
42
330
1
100
AcDbSymbolTableRecord
100
AcDbBlockTableRecord
  2
_OPEN30
  0
BLOCK_RECORD
  5
20316
330
1
100
AcDbSymbolTableRecord
100
AcDbBlockTableRecord
  2
A3WAKUKAWAJUN2017_HYOUDAI_
  0
BLOCK_RECORD
  5
20B2D
102
{ACAD_XDICTIONARY
360
20B2E
102
}
330
1
100
AcDbSymbolTableRecord
100
AcDbBlockTableRecord
  2
NOCIRCLE
1001
ACADANNOTATIVE
1000
AnnotativeData
1002
{
1070
     1
1070
     0
1002
}
  0
BLOCK_RECORD
  5
21EDD
102
{ACAD_XDICTIONARY
360
21EDE
102
}
330
1
100
AcDbSymbolTableRecord
100
AcDbBlockTableRecord
  2
NO3CIRCLE
1001
ACADANNOTATIVE
1000
AnnotativeData
1002
{
1070
     1
1070
     0
1002
}
  0
BLOCK_RECORD
  5
229B7
330
1
100
AcDbSymbolTableRecord
100
AcDbBlockTableRecord
  2
*X94
  0
BLOCK_RECORD
  5
22A05
330
1
100
AcDbSymbolTableRecord
100
AcDbBlockTableRecord
  2
*X95
  0
BLOCK_RECORD
  5
22A57
330
1
100
AcDbSymbolTableRecord
100
AcDbBlockTableRecord
  2
*X96
  0
BLOCK_RECORD
  5
22AA8
330
1
100
AcDbSymbolTableRecord
100
AcDbBlockTableRecord
  2
*X97
  0
BLOCK_RECORD
  5
22AE5
330
1
100
AcDbSymbolTableRecord
100
AcDbBlockTableRecord
  2
*X98
  0
BLOCK_RECORD
  5
22B25
330
1
100
AcDbSymbolTableRecord
100
AcDbBlockTableRecord
  2
*X99
  0
ENDTAB
  0
ENDSEC
  0
SECTION
  2
BLOCKS
  0
BLOCK
  5
19
330
18
100
AcDbEntity
  8
0
100
AcDbBlockBegin
  2
*MODEL_SPACE
 70
     0
 10
0.0
 20
0.0
 30
0.0
  3
*MODEL_SPACE
  1

  0
ENDBLK
  5
1A
330
18
100
AcDbEntity
  8
0
100
AcDbBlockEnd
  0
BLOCK
  5
16
330
15
100
AcDbEntity
 67
     1
  8
0
100
AcDbBlockBegin
  2
*PAPER_SPACE
 70
     0
 10
0.0
 20
0.0
 30
0.0
  3
*PAPER_SPACE
  1

  0
ENDBLK
  5
17
330
15
100
AcDbEntity
 67
     1
  8
0
100
AcDbBlockEnd
  0
BLOCK
  5
43
330
42
100
AcDbEntity
  8
0
100
AcDbBlockBegin
  2
_OPEN30
 70
     0
 10
0.0
 20
0.0
 30
0.0
  3
_OPEN30
  1

  0
LINE
  5
44
330
42
100
AcDbEntity
  8
0
  6
BYBLOCK
 62
     0
100
AcDbLine
 10
-1.0
 20
0.26794919
 30
0.0
 11
0.0
 21
0.0
 31
0.0
  0
LINE
  5
45
330
42
100
AcDbEntity
  8
0
  6
BYBLOCK
 62
     0
100
AcDbLine
 10
0.0
 20
0.0
 30
0.0
 11
-1.0
 21
-0.26794919
 31
0.0
  0
LINE
  5
46
330
42
100
AcDbEntity
  8
0
  6
BYBLOCK
 62
     0
100
AcDbLine
 10
0.0
 20
0.0
 30
0.0
 11
-1.0
 21
0.0
 31
0.0
  0
ENDBLK
  5
47
330
42
100
AcDbEntity
  8
0
100
AcDbBlockEnd
  0
BLOCK
  5
20A15
330
20316
100
AcDbEntity
  8
0
100
AcDbBlockBegin
  2
A3WAKUKAWAJUN2017_HYOUDAI_
 70
     0
 10
0.0
 20
0.0
 30
0.0
  3
A3WAKUKAWAJUN2017_HYOUDAI_
  1

  0
LINE
  5
20318
330
20316
100
AcDbEntity
  8
0
100
AcDbLine
 10
13.26299999998673
 20
-0.0001000000000317
 30
0.0
 11
9.236999999990758
 21
8.999899999990987
 31
0.0
1001
ACAD
1000
ASC_BOUNDS
1002
{
1070
    19
1005
20359
1002
}
  0
LINE
  5
20319
330
20316
100
AcDbEntity
  8
0
100
AcDbLine
 10
5.657999999994331
 20
0.9999999999989768
 30
0.0
 11
9.236999999990758
 21
8.999999999991019
 31
0.0
1001
ACAD
1000
ASC_BOUNDS
1002
{
1070
    19
1005
20359
1002
}
  0
LINE
  5
2031A
330
20316
100
AcDbEntity
  8
0
100
AcDbLine
 10
18.59199999998134
 20
-0.2368999999997641
 30
0.0
 11
16.46099999998353
 21
5.432899999994561
 31
0.0
1001
ACAD
1000
ASC_BOUNDS
1002
{
1070
    19
1005
2035A
1002
}
  0
LINE
  5
2031B
330
20316
100
AcDbEntity
  8
0
100
AcDbLine
 10
18.59199999998134
 20
-0.2368999999997641
 30
0.0
 11
22.38199999997767
 21
8.763099999991255
 31
0.0
1001
ACAD
1000
ASC_BOUNDS
1002
{
1070
    19
1005
2035A
1002
}
  0
LINE
  5
2031C
330
20316
100
AcDbEntity
  8
0
100
AcDbLine
 10
14.32899999998563
 20
-0.2368999999997641
 30
0.0
 11
16.46099999998353
 21
5.432899999994561
 31
0.0
1001
ACAD
1000
ASC_BOUNDS
1002
{
1070
    19
1005
2035A
1002
}
  0
LINE
  5
2031D
330
20316
100
AcDbEntity
  8
0
100
AcDbLine
 10
14.32899999998563
 20
-0.2368999999997641
 30
0.0
 11
10.53899999998941
 21
8.763099999991255
 31
0.0
1001
ACAD
1000
ASC_BOUNDS
1002
{
1070
    19
1005
2035A
1002
}
  0
LINE
  5
2031E
330
20316
100
AcDbEntity
  8
0
100
AcDbLine
 10
19.53899999998043
 20
-0.0001000000000317
 30
0.0
 11
23.56599999997638
 21
8.999899999990987
 31
0.0
1001
ACAD
1000
ASC_BOUNDS
1002
{
1070
    19
1005
2035B
1002
}
  0
LINE
  5
2031F
330
20316
100
AcDbEntity
  8
0
100
AcDbLine
 10
26.97358892824991
 20
1.383099999991202
 30
0.0
 11
23.56599999997638
 21
8.999899999990987
 31
0.0
1001
ACAD
1000
ASC_BOUNDS
1002
{
1070
    19
1005
2035B
1002
}
  0
LINE
  5
20320
330
20316
100
AcDbEntity
  8
0
100
AcDbLine
 10
5.657999999994331
 20
0.9999999999989768
 30
0.0
 11
3.181999999996833
 21
4.668599999995308
 31
0.0
1001
ACAD
1000
ASC_BOUNDS
1002
{
1070
    19
1005
20359
1002
}
  0
LINE
  5
20321
330
20316
100
AcDbEntity
  8
0
100
AcDbLine
 10
4.617999999995391
 20
-0.0001000000000317
 30
0.0
 11
1.420999999998571
 21
4.736799999995242
 31
0.0
1001
ACAD
1000
ASC_BOUNDS
1002
{
1070
    19
1005
20359
1002
}
  0
LINE
  5
20322
330
20316
100
AcDbEntity
  8
0
100
AcDbLine
 10
1.420999999998571
 20
8.763099999991255
 30
0.0
 11
1.420999999998571
 21
0.0
 31
0.0
1001
ACAD
1000
ASC_BOUNDS
1002
{
1070
    19
1005
2035E
1002
}
  0
LINE
  5
20323
330
20316
100
AcDbEntity
  8
0
100
AcDbLine
 10
0.0
 20
8.763099999991255
 30
0.0
 11
0.0
 21
0.0
 31
0.0
1001
ACAD
1000
ASC_BOUNDS
1002
{
1070
    19
1005
2035E
1002
}
  0
LINE
  5
20324
330
20316
100
AcDbEntity
  8
0
100
AcDbLine
 10
6.766999999993232
 20
-0.0001000000000317
 30
0.0
 11
7.826999999992154
 21
2.368399999997621
 31
0.0
1001
ACAD
1000
ASC_BOUNDS
1002
{
1070
    19
1005
20359
1002
}
  0
LINE
  5
20325
330
20316
100
AcDbEntity
  8
0
100
AcDbLine
 10
0.0
 20
0.0
 30
0.0
 11
1.420999999998571
 21
0.0
 31
0.0
1001
ACAD
1000
ASC_BOUNDS
1002
{
1070
    19
1005
2035E
1002
}
  0
LINE
  5
20326
330
20316
100
AcDbEntity
  8
0
100
AcDbLine
 10
4.617999999995391
 20
0.0
 30
0.0
 11
6.766999999993232
 21
0.0
 31
0.0
1001
ACAD
1000
ASC_BOUNDS
1002
{
1070
    19
1005
20359
1002
}
  0
LINE
  5
20327
330
20316
100
AcDbEntity
  8
0
100
AcDbLine
 10
11.70599999998831
 20
-0.0001000000000317
 30
0.0
 11
10.64699999998936
 21
2.368399999997621
 31
0.0
1001
ACAD
1000
ASC_BOUNDS
1002
{
1070
    19
1005
20359
1002
}
  0
LINE
  5
20328
330
20316
100
AcDbEntity
  8
0
100
AcDbLine
 10
7.826999999992154
 20
2.368399999997621
 30
0.0
 11
10.64699999998936
 21
2.368399999997621
 31
0.0
1001
ACAD
1000
ASC_BOUNDS
1002
{
1070
    19
1005
20359
1002
}
  0
LINE
  5
20329
330
20316
100
AcDbEntity
  8
0
100
AcDbLine
 10
11.70599999998831
 20
0.0
 30
0.0
 11
13.26299999998673
 21
0.0
 31
0.0
1001
ACAD
1000
ASC_BOUNDS
1002
{
1070
    19
1005
20359
1002
}
  0
LINE
  5
2032A
330
20316
100
AcDbEntity
  8
0
100
AcDbLine
 10
22.15599999997789
 20
2.368399999997621
 30
0.0
 11
24.97599999997499
 21
2.368399999997621
 31
0.0
1001
ACAD
1000
ASC_BOUNDS
1002
{
1070
    19
1005
2035B
1002
}
  0
LINE
  5
2032B
330
20316
100
AcDbEntity
  8
0
100
AcDbLine
 10
19.53899999998043
 20
0.0
 30
0.0
 11
21.09599999997886
 21
0.0
 31
0.0
1001
ACAD
1000
ASC_BOUNDS
1002
{
1070
    19
1005
2035B
1002
}
  0
LINE
  5
2032C
330
20316
100
AcDbEntity
  8
0
100
AcDbLine
 10
21.09599999997886
 20
-0.0001000000000317
 30
0.0
 11
22.15599999997789
 21
2.368399999997621
 31
0.0
1001
ACAD
1000
ASC_BOUNDS
1002
{
1070
    19
1005
2035B
1002
}
  0
LINE
  5
2032D
330
20316
100
AcDbEntity
  8
0
100
AcDbLine
 10
26.02015566812236
 20
0.0330999999912365
 30
0.0
 11
24.97599999997499
 21
2.368399999997621
 31
0.0
1001
ACAD
1000
ASC_BOUNDS
1002
{
1070
    19
1005
2035B
1002
}
  0
LINE
  5
2032E
330
20316
100
AcDbEntity
  8
0
100
AcDbLine
 10
14.32399999998563
 20
3.315799999996671
 30
0.0
 11
16.46099999998353
 21
8.999899999990987
 31
0.0
1001
ACAD
1000
ASC_BOUNDS
1002
{
1070
    19
1005
2035A
1002
}
  0
LINE
  5
2032F
330
20316
100
AcDbEntity
  8
0
100
AcDbLine
 10
6.432999999993513
 20
8.763099999991255
 30
0.0
 11
3.181999999996833
 21
4.668599999995308
 31
0.0
1001
ACAD
1000
ASC_BOUNDS
1002
{
1070
    19
1005
20359
1002
}
  0
LINE
  5
20330
330
20316
100
AcDbEntity
  8
0
100
AcDbLine
 10
4.617999999995391
 20
8.763099999991255
 30
0.0
 11
1.420999999998571
 21
4.736799999995242
 31
0.0
1001
ACAD
1000
ASC_BOUNDS
1002
{
1070
    19
1005
20359
1002
}
  0
LINE
  5
20331
330
20316
100
AcDbEntity
  8
0
100
AcDbLine
 10
0.0
 20
8.763099999991255
 30
0.0
 11
1.420999999998571
 21
8.763099999991255
 31
0.0
1001
ACAD
1000
ASC_BOUNDS
1002
{
1070
    19
1005
2035E
1002
}
  0
LINE
  5
20332
330
20316
100
AcDbEntity
  8
0
100
AcDbLine
 10
4.617999999995391
 20
8.763099999991255
 30
0.0
 11
6.432999999993513
 21
8.763099999991255
 31
0.0
1001
ACAD
1000
ASC_BOUNDS
1002
{
1070
    19
1005
20359
1002
}
  0
LINE
  5
20333
330
20316
100
AcDbEntity
  8
0
100
AcDbLine
 10
14.32399999998563
 20
3.315799999996671
 30
0.0
 11
12.02999999998792
 21
8.763099999991255
 31
0.0
1001
ACAD
1000
ASC_BOUNDS
1002
{
1070
    19
1005
2035A
1002
}
  0
LINE
  5
20334
330
20316
100
AcDbEntity
  8
0
100
AcDbLine
 10
10.06399999998996
 20
3.670999999996297
 30
0.0
 11
9.236999999990758
 21
5.5200999999945
 31
0.0
1001
ACAD
1000
ASC_BOUNDS
1002
{
1070
    19
1005
20359
1002
}
  0
LINE
  5
20335
330
20316
100
AcDbEntity
  8
0
100
AcDbLine
 10
8.409999999991555
 20
3.670999999996297
 30
0.0
 11
9.236999999990758
 21
5.5200999999945
 31
0.0
1001
ACAD
1000
ASC_BOUNDS
1002
{
1070
    19
1005
20359
1002
}
  0
LINE
  5
20336
330
20316
100
AcDbEntity
  8
0
100
AcDbLine
 10
8.409999999991555
 20
3.670999999996297
 30
0.0
 11
10.06399999998996
 21
3.670999999996297
 31
0.0
1001
ACAD
1000
ASC_BOUNDS
1002
{
1070
    19
1005
20359
1002
}
  0
LINE
  5
20337
330
20316
100
AcDbEntity
  8
0
100
AcDbLine
 10
10.53899999998941
 20
8.763099999991255
 30
0.0
 11
12.02999999998792
 21
8.763099999991255
 31
0.0
1001
ACAD
1000
ASC_BOUNDS
1002
{
1070
    19
1005
2035A
1002
}
  0
LINE
  5
20338
330
20316
100
AcDbEntity
  8
0
100
AcDbLine
 10
22.7389999999773
 20
3.670999999996297
 30
0.0
 11
23.56599999997638
 21
5.5200999999945
 31
0.0
1001
ACAD
1000
ASC_BOUNDS
1002
{
1070
    19
1005
2035B
1002
}
  0
LINE
  5
20339
330
20316
100
AcDbEntity
  8
0
100
AcDbLine
 10
22.7389999999773
 20
3.670999999996297
 30
0.0
 11
24.39299999997559
 21
3.670999999996297
 31
0.0
1001
ACAD
1000
ASC_BOUNDS
1002
{
1070
    19
1005
2035B
1002
}
  0
LINE
  5
2033A
330
20316
100
AcDbEntity
  8
0
100
AcDbLine
 10
18.59799999998143
 20
3.315799999996671
 30
0.0
 11
20.89099999997916
 21
8.763099999991255
 31
0.0
1001
ACAD
1000
ASC_BOUNDS
1002
{
1070
    19
1005
2035A
1002
}
  0
LINE
  5
2033B
330
20316
100
AcDbEntity
  8
0
100
AcDbLine
 10
18.59799999998143
 20
3.315799999996671
 30
0.0
 11
16.46099999998353
 21
8.999899999990987
 31
0.0
1001
ACAD
1000
ASC_BOUNDS
1002
{
1070
    19
1005
2035A
1002
}
  0
LINE
  5
2033C
330
20316
100
AcDbEntity
  8
0
100
AcDbLine
 10
20.89099999997916
 20
8.763099999991255
 30
0.0
 11
22.38199999997767
 21
8.763099999991255
 31
0.0
1001
ACAD
1000
ASC_BOUNDS
1002
{
1070
    19
1005
2035A
1002
}
  0
LINE
  5
2033D
330
20316
100
AcDbEntity
  8
0
100
AcDbLine
 10
24.39299999997559
 20
3.670999999996297
 30
0.0
 11
23.56599999997638
 21
5.5200999999945
 31
0.0
1001
ACAD
1000
ASC_BOUNDS
1002
{
1070
    19
1005
2035B
1002
}
  0
LINE
  5
2033E
330
20316
100
AcDbEntity
  8
0
100
AcDbLine
 10
44.99999999995498
 20
-0.2368999999997641
 30
0.0
 11
40.02599999995994
 21
5.341799999994635
 31
0.0
1001
ACAD
1000
ASC_BOUNDS
1002
{
1070
    19
1005
2035D
1002
}
  0
LINE
  5
2033F
330
20316
100
AcDbEntity
  8
0
100
AcDbLine
 10
40.02599999995994
 20
5.341799999994635
 30
0.0
 11
40.02599999995994
 21
0.0
 31
0.0
1001
ACAD
1000
ASC_BOUNDS
1002
{
1070
    19
1005
2035D
1002
}
  0
LINE
  5
20340
330
20316
100
AcDbEntity
  8
0
100
AcDbLine
 10
38.60499999996136
 20
8.999999999991019
 30
0.0
 11
38.60499999996136
 21
0.0
 31
0.0
1001
ACAD
1000
ASC_BOUNDS
1002
{
1070
    19
1005
2035D
1002
}
  0
LINE
  5
20341
330
20316
100
AcDbEntity
  8
0
100
AcDbLine
 10
44.99999999995498
 20
8.763099999991255
 30
0.0
 11
44.99999999995498
 21
-0.2368999999997641
 31
0.0
1001
ACAD
1000
ASC_BOUNDS
1002
{
1070
    19
1005
2035D
1002
}
  0
LINE
  5
20342
330
20316
100
AcDbEntity
  8
0
100
AcDbLine
 10
38.60499999996136
 20
0.0
 30
0.0
 11
40.02599999995994
 21
0.0
 31
0.0
1001
ACAD
1000
ASC_BOUNDS
1002
{
1070
    19
1005
2035D
1002
}
  0
LINE
  5
20343
330
20316
100
AcDbEntity
  8
0
100
AcDbLine
 10
43.57899999995641
 20
3.421199999996588
 30
0.0
 11
38.60499999996136
 21
8.999899999990987
 31
0.0
1001
ACAD
1000
ASC_BOUNDS
1002
{
1070
    19
1005
2035D
1002
}
  0
LINE
  5
20344
330
20316
100
AcDbEntity
  8
0
100
AcDbLine
 10
43.57899999995641
 20
8.763099999991255
 30
0.0
 11
43.57899999995641
 21
3.421199999996588
 31
0.0
1001
ACAD
1000
ASC_BOUNDS
1002
{
1070
    19
1005
2035D
1002
}
  0
LINE
  5
20345
330
20316
100
AcDbEntity
  8
0
100
AcDbLine
 10
43.57899999995641
 20
8.763099999991255
 30
0.0
 11
44.99999999995498
 21
8.763099999991255
 31
0.0
1001
ACAD
1000
ASC_BOUNDS
1002
{
1070
    19
1005
2035D
1002
}
  0
LINE
  5
20346
330
20316
100
AcDbEntity
  8
0
100
AcDbLine
 10
37.67199999996831
 20
8.763099999991255
 30
0.0
 11
36.23199999996837
 21
8.763099999991255
 31
0.0
  0
LINE
  5
20347
330
20316
100
AcDbEntity
  8
0
100
AcDbLine
 10
31.64199999996833
 20
8.763099999991255
 30
0.0
 11
31.64199999996833
 21
2.481619422925121
 31
0.0
  0
LINE
  5
20348
330
20316
100
AcDbEntity
  8
0
100
AcDbLine
 10
37.67199999996831
 20
8.763099999991255
 30
0.0
 11
37.67199999996831
 21
2.481619422925121
 31
0.0
  0
LINE
  5
20349
330
20316
100
AcDbEntity
  8
0
100
AcDbLine
 10
36.23199999996837
 20
8.763099999991255
 30
0.0
 11
36.23199999996837
 21
2.481619422925064
 31
0.0
  0
LINE
  5
2034A
330
20316
100
AcDbEntity
  8
0
100
AcDbLine
 10
33.08199999996839
 20
8.763099999991255
 30
0.0
 11
33.08199999996839
 21
2.481619422925121
 31
0.0
  0
ARC
  5
2034B
330
20316
100
AcDbEntity
  8
0
100
AcDbCircle
 10
34.65699999996832
 20
3.183099999991214
 30
0.0
 40
3.420000000000007
100
AcDbArc
 50
240.0000000000255
 51
299.9999999999766
  0
ARC
  5
2034C
330
20316
100
AcDbEntity
  8
0
100
AcDbCircle
 10
34.65699999996832
 20
3.183099999991214
 30
0.0
 40
1.97999999999999
100
AcDbArc
 50
240.000000000026
 51
299.9999999999703
  0
LINE
  5
2034D
330
20316
100
AcDbEntity
  8
0
100
AcDbLine
 10
33.08199999996828
 20
8.763099999991255
 30
0.0
 11
31.64199999996833
 21
8.763099999991255
 31
0.0
  0
ARC
  5
2034E
330
20316
100
AcDbEntity
  8
0
100
AcDbCircle
 10
35.06199999996829
 20
2.481619422925064
 30
0.0
 40
1.17
100
AcDbArc
 50
299.9999999999699
 51
0.0
  0
ARC
  5
2034F
330
20316
100
AcDbEntity
  8
0
100
AcDbCircle
 10
34.25199999996835
 20
2.481619422925121
 30
0.0
 40
1.17
100
AcDbArc
 50
180.0
 51
240.0000000000238
  0
ARC
  5
20350
330
20316
100
AcDbEntity
  8
0
100
AcDbCircle
 10
35.06199999996841
 20
2.481619422925121
 30
0.0
 40
2.61
100
AcDbArc
 50
299.9999999999756
 51
0.0
  0
ARC
  5
20351
330
20316
100
AcDbEntity
  8
0
100
AcDbCircle
 10
34.25199999996835
 20
2.481619422925121
 30
0.0
 40
2.61
100
AcDbArc
 50
180.0
 51
240.0000000000244
  0
LINE
  5
20352
330
20316
100
AcDbEntity
  8
0
100
AcDbLine
 10
29.30199999996933
 20
8.763099999991255
 30
0.0
 11
30.74199999996927
 21
8.763099999991255
 31
0.0
1001
ACAD
1000
ASC_BOUNDS
1002
{
1070
    19
1005
2035B
1002
}
  0
LINE
  5
20353
330
20316
100
AcDbEntity
  8
0
100
AcDbLine
 10
30.74199999996927
 20
8.763099999991255
 30
0.0
 11
30.74199999996927
 21
2.373099999991211
 31
0.0
1001
ACAD
1000
ASC_BOUNDS
1002
{
1070
    19
1005
2035B
1002
}
  0
LINE
  5
20354
330
20316
100
AcDbEntity
  8
0
100
AcDbLine
 10
26.02015566812236
 20
0.0330999999912365
 30
0.0
 11
28.40199999996923
 21
0.0330999999912365
 31
0.0
1001
ACAD
1000
ASC_BOUNDS
1002
{
1070
    19
1005
2035B
1002
}
  0
LINE
  5
20355
330
20316
100
AcDbEntity
  8
0
100
AcDbLine
 10
29.30199999996933
 20
8.763099999991255
 30
0.0
 11
29.30199999996933
 21
2.283099999991236
 31
0.0
1001
ACAD
1000
ASC_BOUNDS
1002
{
1070
    19
1005
2035B
1002
}
  0
LINE
  5
20356
330
20316
100
AcDbEntity
  8
0
100
AcDbLine
 10
26.97358892824991
 20
1.383099999991202
 30
0.0
 11
28.40199999996923
 21
1.383099999991202
 31
0.0
1001
ACAD
1000
ASC_BOUNDS
1002
{
1070
    19
1005
2035B
1002
}
  0
ARC
  5
20357
330
20316
100
AcDbEntity
  8
0
100
AcDbCircle
 10
28.40199999996923
 20
2.283099999991236
 30
0.0
 40
0.9
100
AcDbArc
 50
270.0
 51
0.0
1001
ACAD
1000
ASC_BOUNDS
1002
{
1070
    19
1005
2035B
1002
}
  0
ARC
  5
20358
330
20316
100
AcDbEntity
  8
0
100
AcDbCircle
 10
28.40199999996923
 20
2.373099999991211
 30
0.0
 40
2.34
100
AcDbArc
 50
270.0
 51
0.0
1001
ACAD
1000
ASC_BOUNDS
1002
{
1070
    19
1005
2035B
1002
}
  0
INSERT
  5
20359
330
20316
100
AcDbEntity
  8
0
100
AcDbBlockReference
  2
*X94
 10
0.0
 20
0.0
 30
0.0
1001
ACAD
1000
HATCH
1002
{
1070
    19
1000
ANSI37
1040
0.15
1040
0.0
1000
ASC_BOUNDS
1070
     2
1070
     2
1070
    12
1005
20318
1005
20319
1005
20320
1005
2032F
1005
20332
1005
20330
1005
20321
1005
20326
1005
20324
1005
20328
1005
20327
1005
20329
1070
     2
1070
     3
1005
20334
1005
20336
1005
20335
1000
ASC_SEEDPOINT
1011
3.614004224891801
1021
2.996669441146025
1031
0.0
1000
R14_HATCH_DATA
1000
20359
1011
1.0
1021
0.0
1031
0.0
1011
0.0
1021
1.0
1031
0.0
1011
0.0
1021
0.0
1031
1.0
1040
0.0
1010
0.0
1020
0.0
1030
1.0
1000
ANSI37
1070
     0
1070
     1
1071
        2
1071
        7
1070
     0
1070
     1
1071
       17
1040
13.26299999998673
1040
-0.0001000000000317
1040
9.236999999990758
1040
8.999899999990987
1040
9.236999999990758
1040
8.999999999991019
1040
5.657999999994331
1040
0.9999999999989768
1040
3.181999999996833
1040
4.668599999995308
1040
6.432999999993513
1040
8.763099999991255
1040
4.617999999995391
1040
8.763099999991255
1040
1.420999999998571
1040
4.736799999995242
1040
4.617999999995391
1040
-0.0001000000000317
1040
4.617999999995391
1040
0.0
1040
6.766999999993232
1040
0.0
1040
6.766999999993232
1040
-0.0001000000000317
1040
7.826999999992154
1040
2.368399999997621
1040
10.64699999998936
1040
2.368399999997621
1040
11.70599999998831
1040
-0.0001000000000317
1040
11.70599999998831
1040
0.0
1040
13.26299999998673
1040
0.0
1071
       12
1005
20318
1005
20319
1005
20320
1005
2032F
1005
20332
1005
20330
1005
20321
1005
20326
1005
20324
1005
20328
1005
20327
1005
20329
1071
       22
1070
     0
1070
     1
1071
        3
1040
9.236999999990758
1040
5.5200999999945
1040
10.06399999998996
1040
3.670999999996297
1040
8.409999999991555
1040
3.670999999996297
1071
        3
1005
20334
1005
20336
1005
20335
1070
     0
1070
     1
1040
0.0
1040
0.15
1070
     0
1070
     2
1040
0.7853981633974483
1040
49.29960901727088
1040
-10.17736998311392
1040
-0.3367596045400932
1040
0.3367596045400932
1070
     0
1040
2.356194490192345
1040
49.29960901727088
1040
-10.17736998311392
1040
-0.3367596045400932
1040
-0.3367596045400932
1070
     0
1040
0.0110235143455945
1071
        2
1040
3.614004224891801
1040
2.996669441146025
1040
0.0
1040
3.614004224891801
1040
2.996669441146025
1040
0.0
1002
}
  0
INSERT
  5
2035A
330
20316
100
AcDbEntity
  8
0
100
AcDbBlockReference
  2
*X95
 10
0.0
 20
0.0
 30
0.0
1001
ACAD
1000
HATCH
1002
{
1070
    19
1000
ANSI37
1040
0.15
1040
0.0
1000
ASC_BOUNDS
1070
     1
1070
     2
1070
    10
1005
2031A
1005
2031B
1005
2033C
1005
2033A
1005
2033B
1005
2032E
1005
20333
1005
20337
1005
2031D
1005
2031C
1000
ASC_SEEDPOINT
1011
14.73245321214324
1021
2.798246178283421
1031
0.0
1000
R14_HATCH_DATA
1000
2035A
1011
1.0
1021
0.0
1031
0.0
1011
0.0
1021
1.0
1031
0.0
1011
0.0
1021
0.0
1031
1.0
1040
0.0
1010
0.0
1020
0.0
1030
1.0
1000
ANSI37
1070
     0
1070
     1
1071
        1
1071
        7
1070
     0
1070
     1
1071
       10
1040
16.46099999998353
1040
5.432899999994561
1040
18.59199999998134
1040
-0.2368999999997641
1040
22.38199999997767
1040
8.763099999991255
1040
20.89099999997916
1040
8.763099999991255
1040
18.59799999998143
1040
3.315799999996671
1040
16.46099999998353
1040
8.999899999990987
1040
14.32399999998563
1040
3.315799999996671
1040
12.02999999998792
1040
8.763099999991255
1040
10.53899999998941
1040
8.763099999991255
1040
14.32899999998563
1040
-0.2368999999997641
1071
       10
1005
2031A
1005
2031B
1005
2033C
1005
2033A
1005
2033B
1005
2032E
1005
20333
1005
20337
1005
2031D
1005
2031C
1070
     0
1070
     1
1040
0.0
1040
0.15
1070
     0
1070
     2
1040
0.7853981633974483
1040
49.29960901727088
1040
-10.17736998311392
1040
-0.3367596045400932
1040
0.3367596045400932
1070
     0
1040
2.356194490192345
1040
49.29960901727088
1040
-10.17736998311392
1040
-0.3367596045400932
1040
-0.3367596045400932
1070
     0
1040
0.0110235143455945
1071
        1
1040
14.73245321214324
1040
2.798246178283421
1040
0.0
1002
}
  0
INSERT
  5
2035B
330
20316
100
AcDbEntity
  8
0
100
AcDbBlockReference
  2
*X96
 10
0.0
 20
0.0
 30
0.0
1001
ACAD
1000
HATCH
1002
{
1070
    19
1000
ANSI37
1040
0.15
1040
0.0
1000
ASC_BOUNDS
1070
     2
1070
     2
1070
    13
1005
2031E
1005
2032B
1005
2032C
1005
2032A
1005
2032D
1005
20354
1005
20358
1005
20353
1005
20352
1005
20355
1005
20357
1005
20356
1005
2031F
1070
     2
1070
     3
1005
20338
1005
2033D
1005
20339
1000
ASC_SEEDPOINT
1011
21.97929957367762
1021
3.294304244259308
1031
0.0
1000
R14_HATCH_DATA
1000
2035B
1011
1.0
1021
0.0
1031
0.0
1011
0.0
1021
1.0
1031
0.0
1011
0.0
1021
0.0
1031
1.0
1040
0.0
1010
0.0
1020
0.0
1030
1.0
1000
ANSI37
1070
     0
1070
     1
1071
        2
1071
        7
1070
     1
1070
     1
1071
       15
1040
23.56599999997638
1040
8.999899999990987
1040
0.0
1040
19.53899999998043
1040
-0.0001000000000317
1040
0.0
1040
19.53899999998043
1040
0.0
1040
0.0
1040
21.09599999997886
1040
0.0
1040
0.0
1040
21.09599999997886
1040
-0.0001000000000317
1040
0.0
1040
22.15599999997789
1040
2.368399999997621
1040
0.0
1040
24.97599999997499
1040
2.368399999997621
1040
0.0
1040
26.02015566812236
1040
0.0330999999912365
1040
0.0
1040
28.40199999996923
1040
0.0330999999912365
1040
0.414213562373095
1040
30.74199999996923
1040
2.373099999991211
1040
0.0
1040
30.74199999996927
1040
8.763099999991255
1040
0.0
1040
29.30199999996933
1040
8.763099999991255
1040
0.0
1040
29.30199999996933
1040
2.283099999991236
1040
-0.414213562373095
1040
28.40199999996923
1040
1.383099999991237
1040
0.0
1040
26.97358892824991
1040
1.383099999991202
1040
0.0
1071
       13
1005
2031E
1005
2032B
1005
2032C
1005
2032A
1005
2032D
1005
20354
1005
20358
1005
20353
1005
20352
1005
20355
1005
20357
1005
20356
1005
2031F
1071
       22
1070
     0
1070
     1
1071
        3
1040
22.7389999999773
1040
3.670999999996297
1040
23.56599999997638
1040
5.5200999999945
1040
24.39299999997559
1040
3.670999999996297
1071
        3
1005
20338
1005
2033D
1005
20339
1070
     0
1070
     1
1040
0.0
1040
0.15
1070
     0
1070
     2
1040
0.7853981633974483
1040
49.29960901727088
1040
-10.17736998311392
1040
-0.3367596045400932
1040
0.3367596045400932
1070
     0
1040
2.356194490192345
1040
49.29960901727088
1040
-10.17736998311392
1040
-0.3367596045400932
1040
-0.3367596045400932
1070
     0
1040
0.0110235143455945
1071
        2
1040
21.97929957367762
1040
3.294304244259308
1040
0.0
1040
21.97929957367762
1040
3.294304244259308
1040
0.0
1002
}
  0
INSERT
  5
2035C
330
20316
100
AcDbEntity
  8
0
100
AcDbBlockReference
  2
*X97
 10
0.0
 20
0.0
 30
0.0
1001
ACAD
1000
HATCH
1002
{
1070
    19
1000
ANSI37
1040
0.15
1040
0.0
1000
R14_HATCH_DATA
1000
2035C
1011
1.0
1021
0.0
1031
0.0
1011
0.0
1021
1.0
1031
0.0
1011
0.0
1021
0.0
1031
1.0
1040
0.0
1010
0.0
1020
0.0
1030
1.0
1000
ANSI37
1070
     0
1070
     1
1071
        1
1071
        7
1070
     1
1070
     1
1071
       12
1040
31.64199999996833
1040
2.481619422925121
1040
0.2679491924310942
1040
32.94699999997067
1040
0.2212931190493919
1040
0.2679491924301353
1040
36.36699999995983
1040
0.2212931190459813
1040
0.2679491924321411
1040
37.67199999996831
1040
2.481619422928361
1040
0.0
1040
37.67199999996831
1040
8.763099999991255
1040
0.0
1040
36.23199999996837
1040
8.763099999991255
1040
0.0
1040
36.23199999996837
1040
2.481619422925064
1040
-0.2679491924310291
1040
35.64699999996708
1040
1.468369700498386
1040
-0.267949192430519
1040
33.66699999997093
1040
1.468369700497703
1040
-0.267949192431809
1040
33.08199999996839
1040
2.481619422926997
1040
0.0
1040
33.08199999996839
1040
8.763099999991255
1040
0.0
1040
31.64199999996833
1040
8.763099999991255
1040
0.0
1071
        0
1070
     0
1070
     1
1040
0.0
1040
0.15
1070
     0
1070
     2
1040
0.7853981633974483
1040
49.29960901727088
1040
-10.17736998311392
1040
-0.3367596045400932
1040
0.3367596045400932
1070
     0
1040
2.356194490192345
1040
49.29960901727088
1040
-10.17736998311392
1040
-0.3367596045400932
1040
-0.3367596045400932
1070
     0
1040
0.0110235143455945
1071
        1
1040
32.30357378967278
1040
3.988785755459219
1040
0.0
1002
}
  0
INSERT
  5
2035D
330
20316
100
AcDbEntity
  8
0
100
AcDbBlockReference
  2
*X98
 10
0.0
 20
0.0
 30
0.0
1001
ACAD
1000
HATCH
1002
{
1070
    19
1000
ANSI37
1040
0.15
1040
0.0
1000
ASC_BOUNDS
1070
     1
1070
     2
1070
     8
1005
2033E
1005
20341
1005
20345
1005
20344
1005
20343
1005
20340
1005
20342
1005
2033F
1000
ASC_SEEDPOINT
1011
39.74896370716704
1021
4.484843821435049
1031
0.0
1000
R14_HATCH_DATA
1000
2035D
1011
1.0
1021
0.0
1031
0.0
1011
0.0
1021
1.0
1031
0.0
1011
0.0
1021
0.0
1031
1.0
1040
0.0
1010
0.0
1020
0.0
1030
1.0
1000
ANSI37
1070
     0
1070
     1
1071
        1
1071
        7
1070
     0
1070
     1
1071
        9
1040
40.02599999995994
1040
5.341799999994635
1040
44.99999999995498
1040
-0.2368999999997641
1040
44.99999999995498
1040
8.763099999991255
1040
43.57899999995641
1040
8.763099999991255
1040
43.57899999995641
1040
3.421199999996588
1040
38.60499999996136
1040
8.999899999990987
1040
38.60499999996136
1040
8.999999999991019
1040
38.60499999996136
1040
0.0
1040
40.02599999995994
1040
0.0
1071
        8
1005
2033E
1005
20341
1005
20345
1005
20344
1005
20343
1005
20340
1005
20342
1005
2033F
1070
     0
1070
     1
1040
0.0
1040
0.15
1070
     0
1070
     2
1040
0.7853981633974483
1040
49.29960901727088
1040
-10.17736998311392
1040
-0.3367596045400932
1040
0.3367596045400932
1070
     0
1040
2.356194490192345
1040
49.29960901727088
1040
-10.17736998311392
1040
-0.3367596045400932
1040
-0.3367596045400932
1070
     0
1040
0.0110235143455945
1071
        1
1040
39.74896370716704
1040
4.484843821435049
1040
0.0
1002
}
  0
INSERT
  5
2035E
330
20316
100
AcDbEntity
  8
0
100
AcDbBlockReference
  2
*X99
 10
0.0
 20
0.0
 30
0.0
1001
ACAD
1000
HATCH
1002
{
1070
    19
1000
ANSI37
1040
0.15
1040
0.0
1000
ASC_BOUNDS
1070
     1
1070
     2
1070
     4
1005
20322
1005
20331
1005
20323
1005
20325
1000
ASC_SEEDPOINT
1011
1.079051535452663
1021
4.148538732891836
1031
0.0
1000
R14_HATCH_DATA
1000
2035E
1011
1.0
1021
0.0
1031
0.0
1011
0.0
1021
1.0
1031
0.0
1011
0.0
1021
0.0
1031
1.0
1040
0.0
1010
0.0
1020
0.0
1030
1.0
1000
ANSI37
1070
     0
1070
     1
1071
        1
1071
        7
1070
     0
1070
     1
1071
        4
1040
1.420999999998571
1040
0.0
1040
1.420999999998571
1040
8.763099999991255
1040
0.0
1040
8.763099999991255
1040
0.0
1040
0.0
1071
        4
1005
20322
1005
20331
1005
20323
1005
20325
1070
     0
1070
     1
1040
0.0
1040
0.15
1070
     0
1070
     2
1040
0.7853981633974483
1040
49.29960901727088
1040
-10.17736998311392
1040
-0.3367596045400932
1040
0.3367596045400932
1070
     0
1040
2.356194490192345
1040
49.29960901727088
1040
-10.17736998311392
1040
-0.3367596045400932
1040
-0.3367596045400932
1070
     0
1040
0.0053004257112761
1071
        1
1040
1.079051535452663
1040
4.148538732891836
1040
0.0
1002
}
  0
ENDBLK
  5
20A16
330
20316
100
AcDbEntity
  8
0
100
AcDbBlockEnd
  0
BLOCK
  5
20D6A
330
20B2D
100
AcDbEntity
  8
0
100
AcDbBlockBegin
  2
NOCIRCLE
 70
     2
 10
0.0
 20
0.0
 30
0.0
  3
NOCIRCLE
  1

  0
CIRCLE
  5
20B31
330
20B2D
100
AcDbEntity
  8
0
  6
BYBLOCK
 62
     0
100
AcDbCircle
 10
0.0
 20
0.0
 30
0.0
 40
4.2
  0
ATTDEF
  5
20B32
330
20B2D
100
AcDbEntity
  8
1TEXT
100
AcDbText
 10
-1.904761904761876
 20
-2.0
 30
0.0
 40
4.0
  1
0
 72
     4
 11
0.0
 21
0.0
 31
0.0
100
AcDbAttributeDefinition
  3
NO.
  2
NO
 70
     0
  0
ENDBLK
  5
20D6B
330
20B2D
100
AcDbEntity
  8
0
100
AcDbBlockEnd
  0
BLOCK
  5
22030
330
21EDD
100
AcDbEntity
  8
0
100
AcDbBlockBegin
  2
NO3CIRCLE
 70
     2
 10
0.0
 20
0.0
 30
0.0
  3
NO3CIRCLE
  1

  0
CIRCLE
  5
21EE1
330
21EDD
100
AcDbEntity
  8
0
  6
BYBLOCK
 62
     0
100
AcDbCircle
 10
0.0
 20
0.0
 30
0.0
 40
4.2
  0
ATTDEF
  5
21EE2
330
21EDD
100
AcDbEntity
  8
1TEXT
100
AcDbText
 10
-3.428571428571428
 20
-2.0
 30
0.0
 40
4.0
  1
000
 41
0.6
  7
STANDARD06
 72
     4
 11
0.0
 21
0.0
 31
0.0
100
AcDbAttributeDefinition
  3
NO3
  2
NO3
 70
     0
  0
ENDBLK
  5
22031
330
21EDD
100
AcDbEntity
  8
0
100
AcDbBlockEnd
  0
BLOCK
  5
22B45
330
229B7
100
AcDbEntity
  8
0
100
AcDbBlockBegin
  2
*X94
 70
     1
 10
0.0
 20
0.0
 30
0.0
  3
*X94
  1

  0
LINE
  5
229B8
330
229B7
100
AcDbEntity
  8
0
  6
CONTINUOUS
100
AcDbLine
 10
3.418023043697893
 20
7.251849696850613
 30
0.0
 11
4.929273346838536
 21
8.763099999991255
 31
0.0
  0
LINE
  5
229B9
330
229B7
100
AcDbEntity
  8
0
  6
CONTINUOUS
100
AcDbLine
 10
1.483656411257782
 20
4.643963855330318
 30
0.0
 11
5.60279255591872
 21
8.763099999991255
 31
0.0
  0
LINE
  5
229BA
330
229B7
100
AcDbEntity
  8
0
  6
CONTINUOUS
100
AcDbLine
 10
1.755053947328235
 20
4.241842182320584
 30
0.0
 11
6.276311764998907
 21
8.763099999991255
 31
0.0
  0
LINE
  5
229BB
330
229B7
100
AcDbEntity
  8
0
  6
CONTINUOUS
100
AcDbLine
 10
2.026451483398688
 20
3.839720509310849
 30
0.0
 11
4.441040904851878
 21
6.254309930764039
 31
0.0
  0
LINE
  5
229BC
330
229B7
100
AcDbEntity
  8
0
  6
CONTINUOUS
100
AcDbLine
 10
2.297849019469139
 20
3.437598836301114
 30
0.0
 11
3.321765168359338
 21
4.461514985191313
 31
0.0
  0
LINE
  5
229BD
330
229B7
100
AcDbEntity
  8
0
  6
CONTINUOUS
100
AcDbLine
 10
2.569246555539591
 20
3.03547716329138
 30
0.0
 11
3.593163397972743
 21
4.059394005724531
 31
0.0
  0
LINE
  5
229BE
330
229B7
100
AcDbEntity
  8
0
  6
CONTINUOUS
100
AcDbLine
 10
2.840644091610043
 20
2.633355490281646
 30
0.0
 11
3.864561627586149
 21
3.657273026257751
 31
0.0
  0
LINE
  5
229BF
330
229B7
100
AcDbEntity
  8
0
  6
CONTINUOUS
100
AcDbLine
 10
3.112041627680496
 20
2.231233817271911
 30
0.0
 11
4.135959857199554
 21
3.25515204679097
 31
0.0
  0
LINE
  5
229C0
330
229B7
100
AcDbEntity
  8
0
  6
CONTINUOUS
100
AcDbLine
 10
3.383439163750948
 20
1.829112144262177
 30
0.0
 11
4.40735808681296
 21
2.853031067324189
 31
0.0
  0
LINE
  5
229C1
330
229B7
100
AcDbEntity
  8
0
  6
CONTINUOUS
100
AcDbLine
 10
3.654836699821399
 20
1.426990471252442
 30
0.0
 11
4.678756316426365
 21
2.450910087857407
 31
0.0
  0
LINE
  5
229C2
330
229B7
100
AcDbEntity
  8
0
  6
CONTINUOUS
100
AcDbLine
 10
3.926234235891853
 20
1.024868798242709
 30
0.0
 11
4.95015454603977
 21
2.048789108390626
 31
0.0
  0
LINE
  5
229C3
330
229B7
100
AcDbEntity
  8
0
  6
CONTINUOUS
100
AcDbLine
 10
4.197631771962304
 20
0.6227471252329737
 30
0.0
 11
5.221552775653176
 21
1.646668128923846
 31
0.0
  0
LINE
  5
229C4
330
229B7
100
AcDbEntity
  8
0
  6
CONTINUOUS
100
AcDbLine
 10
8.715877546767851
 20
7.835069736359266
 30
0.0
 11
9.435953450375058
 21
8.555145639966472
 31
0.0
  0
LINE
  5
229C5
330
229B7
100
AcDbEntity
  8
0
  6
CONTINUOUS
100
AcDbLine
 10
8.170620868422267
 20
6.616293848933497
 30
0.0
 11
9.644120833743461
 21
8.08979381425469
 31
0.0
  0
LINE
  5
229C6
330
229B7
100
AcDbEntity
  8
0
  6
CONTINUOUS
100
AcDbLine
 10
7.625364190076684
 20
5.397517961507727
 30
0.0
 11
9.852288217111864
 21
7.624441988542907
 31
0.0
  0
LINE
  5
229C7
330
229B7
100
AcDbEntity
  8
0
  6
CONTINUOUS
100
AcDbLine
 10
7.080107511731101
 20
4.178742074081957
 30
0.0
 11
10.06045560048027
 21
7.159090162831124
 31
0.0
  0
LINE
  5
229C8
330
229B7
100
AcDbEntity
  8
0
  6
CONTINUOUS
100
AcDbLine
 10
6.534850833385518
 20
2.959966186656187
 30
0.0
 11
10.26862298384867
 21
6.693738337119342
 31
0.0
  0
LINE
  5
229C9
330
229B7
100
AcDbEntity
  8
0
  6
CONTINUOUS
100
AcDbLine
 10
4.469029308032756
 20
0.2206254522232385
 30
0.0
 11
5.492951005266582
 21
1.244547149457064
 31
0.0
  0
LINE
  5
229CA
330
229B7
100
AcDbEntity
  8
0
  6
CONTINUOUS
100
AcDbLine
 10
5.989594155039935
 20
1.741190299230417
 30
0.0
 11
8.806950407233131
 21
4.558546551423613
 31
0.0
  0
LINE
  5
229CB
330
229B7
100
AcDbEntity
  8
0
  6
CONTINUOUS
100
AcDbLine
 10
9.401251593263643
 20
5.152847737454126
 30
0.0
 11
10.47679036721708
 21
6.228386511407559
 31
0.0
  0
LINE
  5
229CC
330
229B7
100
AcDbEntity
  8
0
  6
CONTINUOUS
100
AcDbLine
 10
4.921837203428691
 20
-0.0000858614610131
 30
0.0
 11
8.592923064886001
 21
3.670999999996297
 31
0.0
  0
LINE
  5
229CD
330
229B7
100
AcDbEntity
  8
0
  6
CONTINUOUS
100
AcDbLine
 10
9.609390446785305
 20
4.6874673818956
 30
0.0
 11
10.68495775058548
 21
5.763034685695775
 31
0.0
  0
LINE
  5
229CE
330
229B7
100
AcDbEntity
  8
0
  6
CONTINUOUS
100
AcDbLine
 10
5.595387755019432
 20
-0.0000545189504582
 30
0.0
 11
7.716137258923768
 21
2.120694984953879
 31
0.0
  0
LINE
  5
229CF
330
229B7
100
AcDbEntity
  8
0
  6
CONTINUOUS
100
AcDbLine
 10
6.268938306610172
 20
-0.000023176439905
 30
0.0
 11
7.170485805526503
 21
0.9015243224764267
 31
0.0
  0
LINE
  5
229D0
330
229B7
100
AcDbEntity
  8
0
  6
CONTINUOUS
100
AcDbLine
 10
7.963842273967511
 20
2.368399999997621
 30
0.0
 11
9.266442273966188
 21
3.670999999996297
 31
0.0
  0
LINE
  5
229D1
330
229B7
100
AcDbEntity
  8
0
  6
CONTINUOUS
100
AcDbLine
 10
8.637361483047696
 20
2.368399999997621
 30
0.0
 11
9.939961483046375
 21
3.670999999996297
 31
0.0
  0
LINE
  5
229D2
330
229B7
100
AcDbEntity
  8
0
  6
CONTINUOUS
100
AcDbLine
 10
9.817529300306965
 20
4.222087026337075
 30
0.0
 11
10.89312513395388
 21
5.297682859983993
 31
0.0
  0
LINE
  5
229D3
330
229B7
100
AcDbEntity
  8
0
  6
CONTINUOUS
100
AcDbLine
 10
10.02566815382863
 20
3.756706670778549
 30
0.0
 11
11.10129251732229
 21
4.832331034272211
 31
0.0
  0
LINE
  5
229D4
330
229B7
100
AcDbEntity
  8
0
  6
CONTINUOUS
100
AcDbLine
 10
9.310880692127883
 20
2.368399999997621
 30
0.0
 11
11.30945990069069
 21
4.366979208560428
 31
0.0
  0
LINE
  5
229D5
330
229B7
100
AcDbEntity
  8
0
  6
CONTINUOUS
100
AcDbLine
 10
9.98439990120807
 20
2.36839999999762
 30
0.0
 11
11.5176272840591
 21
3.901627382848645
 31
0.0
  0
LINE
  5
229D6
330
229B7
100
AcDbEntity
  8
0
  6
CONTINUOUS
100
AcDbLine
 10
10.65037369446246
 20
2.36085458417182
 30
0.0
 11
11.7257946674275
 21
3.436275557136862
 31
0.0
  0
LINE
  5
229D7
330
229B7
100
AcDbEntity
  8
0
  6
CONTINUOUS
100
AcDbLine
 10
10.85847197087848
 20
1.895433651507656
 30
0.0
 11
11.9339620507959
 21
2.97092373142508
 31
0.0
  0
LINE
  5
229D8
330
229B7
100
AcDbEntity
  8
0
  6
CONTINUOUS
100
AcDbLine
 10
11.0665702472945
 20
1.430012718843491
 30
0.0
 11
12.14212943416431
 21
2.505571905713296
 31
0.0
  0
LINE
  5
229D9
330
229B7
100
AcDbEntity
  8
0
  6
CONTINUOUS
100
AcDbLine
 10
11.27466852371052
 20
0.9645917861793256
 30
0.0
 11
12.35029681753271
 21
2.040220080001513
 31
0.0
  0
LINE
  5
229DA
330
229B7
100
AcDbEntity
  8
0
  6
CONTINUOUS
100
AcDbLine
 10
11.48276680012654
 20
0.4991708535151611
 30
0.0
 11
12.55846420090111
 21
1.57486825428973
 31
0.0
  0
LINE
  5
229DB
330
229B7
100
AcDbEntity
  8
0
  6
CONTINUOUS
100
AcDbLine
 10
11.69086507654257
 20
0.0337499208509957
 30
0.0
 11
12.76663158426952
 21
1.109516428577947
 31
0.0
  0
LINE
  5
229DC
330
229B7
100
AcDbEntity
  8
0
  6
CONTINUOUS
100
AcDbLine
 10
12.33057447873954
 20
-0.0000598860322123
 30
0.0
 11
12.97479896763792
 21
0.6441646028661663
 31
0.0
  0
LINE
  5
229DD
330
229B7
100
AcDbEntity
  8
0
  6
CONTINUOUS
100
AcDbLine
 10
13.00413694809395
 20
-0.0000166257579952
 30
0.0
 11
13.18296635100632
 21
0.1788127771543824
 31
0.0
  0
LINE
  5
229DE
330
229B7
100
AcDbEntity
  8
0
  6
CONTINUOUS
100
AcDbLine
 10
4.772852165289667
 20
-0.000092794222212
 30
0.0
 11
4.296495091028902
 21
0.4762642800385528
 31
0.0
  0
LINE
  5
229DF
330
229B7
100
AcDbEntity
  8
0
  6
CONTINUOUS
100
AcDbLine
 10
5.446340034776103
 20
-0.0000614546284616
 30
0.0
 11
2.898195908335625
 21
2.548082671812017
 31
0.0
  0
LINE
  5
229E0
330
229B7
100
AcDbEntity
  8
0
  6
CONTINUOUS
100
AcDbLine
 10
6.119827904262539
 20
-0.0000301150347113
 30
0.0
 11
1.499896725642348
 21
4.61990106358548
 31
0.0
  0
LINE
  5
229E1
330
229B7
100
AcDbEntity
  8
0
  6
CONTINUOUS
100
AcDbLine
 10
6.775136745476159
 20
0.0181802528318542
 30
0.0
 11
5.699826040202669
 21
1.093490958105344
 31
0.0
  0
LINE
  5
229E2
330
229B7
100
AcDbEntity
  8
0
  6
CONTINUOUS
100
AcDbLine
 10
6.983376846288489
 20
0.4834593610997118
 30
0.0
 11
5.908008617934405
 21
1.558827589453796
 31
0.0
  0
LINE
  5
229E3
330
229B7
100
AcDbEntity
  8
0
  6
CONTINUOUS
100
AcDbLine
 10
5.377063484962296
 20
1.416253513345719
 30
0.0
 11
1.702276957014131
 21
5.091040041293883
 31
0.0
  0
LINE
  5
229E4
330
229B7
100
AcDbEntity
  8
0
  6
CONTINUOUS
100
AcDbLine
 10
3.978745891735324
 20
3.488090315652877
 30
0.0
 11
2.000373521109399
 21
5.466462686278803
 31
0.0
  0
LINE
  5
229E5
330
229B7
100
AcDbEntity
  8
0
  6
CONTINUOUS
100
AcDbLine
 10
7.191616947100819
 20
0.948738469367568
 30
0.0
 11
6.11619119566614
 21
2.024164220802247
 31
0.0
  0
LINE
  5
229E6
330
229B7
100
AcDbEntity
  8
0
  6
CONTINUOUS
100
AcDbLine
 10
7.399857047913149
 20
1.414017577635424
 30
0.0
 11
6.324373773397875
 21
2.489500852150698
 31
0.0
  0
LINE
  5
229E7
330
229B7
100
AcDbEntity
  8
0
  6
CONTINUOUS
100
AcDbLine
 10
7.608097148725479
 20
1.879296685903281
 30
0.0
 11
6.53255635112961
 21
2.95483748349915
 31
0.0
  0
LINE
  5
229E8
330
229B7
100
AcDbEntity
  8
0
  6
CONTINUOUS
100
AcDbLine
 10
7.816337249537808
 20
2.344575794171138
 30
0.0
 11
6.740738928861345
 21
3.420174114847601
 31
0.0
  0
LINE
  5
229E9
330
229B7
100
AcDbEntity
  8
0
  6
CONTINUOUS
100
AcDbLine
 10
3.310241080789734
 20
4.830114335678653
 30
0.0
 11
2.298470085204666
 21
5.84188533126372
 31
0.0
  0
LINE
  5
229EA
330
229B7
100
AcDbEntity
  8
0
  6
CONTINUOUS
100
AcDbLine
 10
3.60832983563551
 20
5.205544789913063
 30
0.0
 11
2.596566649299935
 21
6.217307976248638
 31
0.0
  0
LINE
  5
229EB
330
229B7
100
AcDbEntity
  8
0
  6
CONTINUOUS
100
AcDbLine
 10
3.906418590481286
 20
5.580975244147473
 30
0.0
 11
2.894663213395203
 21
6.592730621233557
 31
0.0
  0
LINE
  5
229EC
330
229B7
100
AcDbEntity
  8
0
  6
CONTINUOUS
100
AcDbLine
 10
4.204507345327062
 20
5.956405698381884
 30
0.0
 11
3.192759777490472
 21
6.968153266218474
 31
0.0
  0
LINE
  5
229ED
330
229B7
100
AcDbEntity
  8
0
  6
CONTINUOUS
100
AcDbLine
 10
8.466032252791512
 20
2.368399999997621
 30
0.0
 11
6.948921506593081
 21
3.885510746196053
 31
0.0
  0
LINE
  5
229EE
330
229B7
100
AcDbEntity
  8
0
  6
CONTINUOUS
100
AcDbLine
 10
9.139551461871699
 20
2.36839999999762
 30
0.0
 11
7.157104084324816
 21
4.350847377544504
 31
0.0
  0
LINE
  5
229EF
330
229B7
100
AcDbEntity
  8
0
  6
CONTINUOUS
100
AcDbLine
 10
4.502596100172839
 20
6.331836152616295
 30
0.0
 11
3.49085634158574
 21
7.343575911203393
 31
0.0
  0
LINE
  5
229F0
330
229B7
100
AcDbEntity
  8
0
  6
CONTINUOUS
100
AcDbLine
 10
4.800684855018615
 20
6.707266606850705
 30
0.0
 11
3.788952905681008
 21
7.718998556188312
 31
0.0
  0
LINE
  5
229F1
330
229B7
100
AcDbEntity
  8
0
  6
CONTINUOUS
100
AcDbLine
 10
12.18154012887317
 20
-0.0000694579236642
 30
0.0
 11
11.32140332908496
 21
0.8600673418645499
 31
0.0
  0
LINE
  5
229F2
330
229B7
100
AcDbEntity
  8
0
  6
CONTINUOUS
100
AcDbLine
 10
12.85501608323566
 20
-0.0000262032059659
 30
0.0
 11
10.77672456435345
 21
2.078265315676246
 31
0.0
  0
LINE
  5
229F3
330
229B7
100
AcDbEntity
  8
0
  6
CONTINUOUS
100
AcDbLine
 10
9.813070670951886
 20
2.36839999999762
 30
0.0
 11
8.51047067095321
 21
3.670999999996297
 31
0.0
  0
LINE
  5
229F4
330
229B7
100
AcDbEntity
  8
0
  6
CONTINUOUS
100
AcDbLine
 10
10.48658988003207
 20
2.36839999999762
 30
0.0
 11
9.183989880033396
 21
3.670999999996297
 31
0.0
  0
LINE
  5
229F5
330
229B7
100
AcDbEntity
  8
0
  6
CONTINUOUS
100
AcDbLine
 10
8.441048632286794
 20
3.740422038662712
 30
0.0
 11
7.365286662056551
 21
4.816184008892956
 31
0.0
  0
LINE
  5
229F6
330
229B7
100
AcDbEntity
  8
0
  6
CONTINUOUS
100
AcDbLine
 10
8.649187485808454
 20
4.205802394221237
 30
0.0
 11
7.573469239788285
 21
5.281520640241407
 31
0.0
  0
LINE
  5
229F7
330
229B7
100
AcDbEntity
  8
0
  6
CONTINUOUS
100
AcDbLine
 10
5.098773609864391
 20
7.082697061085115
 30
0.0
 11
4.087049469776277
 21
8.09442120117323
 31
0.0
  0
LINE
  5
229F8
330
229B7
100
AcDbEntity
  8
0
  6
CONTINUOUS
100
AcDbLine
 10
5.396862364710167
 20
7.458127515319526
 30
0.0
 11
4.385146033871544
 21
8.469843846158149
 31
0.0
  0
LINE
  5
229F9
330
229B7
100
AcDbEntity
  8
0
  6
CONTINUOUS
100
AcDbLine
 10
13.04801363231285
 20
0.4804954567970334
 30
0.0
 11
9.85750908911358
 21
3.670999999996297
 31
0.0
  0
LINE
  5
229FA
330
229B7
100
AcDbEntity
  8
0
  6
CONTINUOUS
100
AcDbLine
 10
8.857326339330116
 20
4.671182749779763
 30
0.0
 11
7.781651817520021
 21
5.746857271589858
 31
0.0
  0
LINE
  5
229FB
330
229B7
100
AcDbEntity
  8
0
  6
CONTINUOUS
100
AcDbLine
 10
5.694951119555943
 20
7.833557969553937
 30
0.0
 11
4.765409089118624
 21
8.763099999991255
 31
0.0
  0
LINE
  5
229FC
330
229B7
100
AcDbEntity
  8
0
  6
CONTINUOUS
100
AcDbLine
 10
12.50286117236978
 20
1.699167125820288
 30
0.0
 11
9.68611877250287
 21
4.515909525687196
 31
0.0
  0
LINE
  5
229FD
330
229B7
100
AcDbEntity
  8
0
  6
CONTINUOUS
100
AcDbLine
 10
9.065465192851777
 20
5.136563105338288
 30
0.0
 11
7.989834395251757
 21
6.21219390293831
 31
0.0
  0
LINE
  5
229FE
330
229B7
100
AcDbEntity
  8
0
  6
CONTINUOUS
100
AcDbLine
 10
5.993039874401719
 20
8.208988423788346
 30
0.0
 11
5.43892829819881
 21
8.763099999991255
 31
0.0
  0
LINE
  5
229FF
330
229B7
100
AcDbEntity
  8
0
  6
CONTINUOUS
100
AcDbLine
 10
11.95770871242671
 20
2.917838794843543
 30
0.0
 11
8.19801697298349
 21
6.677530534286761
 31
0.0
  0
LINE
  5
22A00
330
229B7
100
AcDbEntity
  8
0
  6
CONTINUOUS
100
AcDbLine
 10
6.291128629247495
 20
8.584418878022756
 30
0.0
 11
6.112447507278997
 21
8.763099999991255
 31
0.0
  0
LINE
  5
22A01
330
229B7
100
AcDbEntity
  8
0
  6
CONTINUOUS
100
AcDbLine
 10
11.41255625248364
 20
4.136510463866797
 30
0.0
 11
8.406199550715227
 21
7.142867165635211
 31
0.0
  0
LINE
  5
22A02
330
229B7
100
AcDbEntity
  8
0
  6
CONTINUOUS
100
AcDbLine
 10
10.86740379254057
 20
5.355182132890051
 30
0.0
 11
8.614382128446962
 21
7.608203796983664
 31
0.0
  0
LINE
  5
22A03
330
229B7
100
AcDbEntity
  8
0
  6
CONTINUOUS
100
AcDbLine
 10
10.3222513325975
 20
6.573853801913305
 30
0.0
 11
8.822564706178696
 21
8.073540428332114
 31
0.0
  0
LINE
  5
22A04
330
229B7
100
AcDbEntity
  8
0
  6
CONTINUOUS
100
AcDbLine
 10
9.777098872654436
 20
7.792525470936562
 30
0.0
 11
9.030747283910433
 21
8.538877059680566
 31
0.0
  0
ENDBLK
  5
22B46
330
229B7
100
AcDbEntity
  8
0
100
AcDbBlockEnd
  0
BLOCK
  5
22B47
330
22A05
100
AcDbEntity
  8
0
100
AcDbBlockBegin
  2
*X95
 70
     1
 10
0.0
 20
0.0
 30
0.0
  3
*X95
  1

  0
LINE
  5
22A06
330
22A05
100
AcDbEntity
  8
0
  6
CONTINUOUS
100
AcDbLine
 10
10.67292308101235
 20
8.445076852443387
 30
0.0
 11
10.99094622856022
 21
8.763099999991255
 31
0.0
  0
LINE
  5
22A07
330
22A05
100
AcDbEntity
  8
0
  6
CONTINUOUS
100
AcDbLine
 10
10.87250383178748
 20
7.971138394138331
 30
0.0
 11
11.6644654376404
 21
8.763099999991255
 31
0.0
  0
LINE
  5
22A08
330
22A05
100
AcDbEntity
  8
0
  6
CONTINUOUS
100
AcDbLine
 10
11.07208458256261
 20
7.497199935833273
 30
0.0
 11
12.12126590876355
 21
8.546381262034211
 31
0.0
  0
LINE
  5
22A09
330
22A05
100
AcDbEntity
  8
0
  6
CONTINUOUS
100
AcDbLine
 10
11.27166533333774
 20
7.023261477528216
 30
0.0
 11
12.32085164573666
 21
8.072447789927136
 31
0.0
  0
LINE
  5
22A0A
330
22A05
100
AcDbEntity
  8
0
  6
CONTINUOUS
100
AcDbLine
 10
11.47124608411287
 20
6.549323019223158
 30
0.0
 11
12.52043738270977
 21
7.59851431782006
 31
0.0
  0
LINE
  5
22A0B
330
22A05
100
AcDbEntity
  8
0
  6
CONTINUOUS
100
AcDbLine
 10
11.670826834888
 20
6.075384560918101
 30
0.0
 11
12.72002311968288
 21
7.124580845712984
 31
0.0
  0
LINE
  5
22A0C
330
22A05
100
AcDbEntity
  8
0
  6
CONTINUOUS
100
AcDbLine
 10
11.87040758566313
 20
5.601446102613043
 30
0.0
 11
12.91960885665599
 21
6.650647373605907
 31
0.0
  0
LINE
  5
22A0D
330
22A05
100
AcDbEntity
  8
0
  6
CONTINUOUS
100
AcDbLine
 10
12.06998833643825
 20
5.127507644307986
 30
0.0
 11
13.1191945936291
 21
6.176713901498832
 31
0.0
  0
LINE
  5
22A0E
330
22A05
100
AcDbEntity
  8
0
  6
CONTINUOUS
100
AcDbLine
 10
12.26956908721338
 20
4.65356918600293
 30
0.0
 11
13.31878033060221
 21
5.702780429391757
 31
0.0
  0
LINE
  5
22A0F
330
22A05
100
AcDbEntity
  8
0
  6
CONTINUOUS
100
AcDbLine
 10
12.46914983798851
 20
4.179630727697873
 30
0.0
 11
13.51836606757532
 21
5.228846957284683
 31
0.0
  0
LINE
  5
22A10
330
22A05
100
AcDbEntity
  8
0
  6
CONTINUOUS
100
AcDbLine
 10
12.66873058876364
 20
3.705692269392816
 30
0.0
 11
13.71795180454843
 21
4.754913485177607
 31
0.0
  0
LINE
  5
22A11
330
22A05
100
AcDbEntity
  8
0
  6
CONTINUOUS
100
AcDbLine
 10
12.86831133953877
 20
3.231753811087759
 30
0.0
 11
13.91753754152154
 21
4.280980013070531
 31
0.0
  0
LINE
  5
22A12
330
22A05
100
AcDbEntity
  8
0
  6
CONTINUOUS
100
AcDbLine
 10
13.0678920903139
 20
2.757815352782702
 30
0.0
 11
14.11712327849465
 21
3.807046540963456
 31
0.0
  0
LINE
  5
22A13
330
22A05
100
AcDbEntity
  8
0
  6
CONTINUOUS
100
AcDbLine
 10
13.26747284108903
 20
2.283876894477644
 30
0.0
 11
14.31670901546777
 21
3.333113068856379
 31
0.0
  0
LINE
  5
22A14
330
22A05
100
AcDbEntity
  8
0
  6
CONTINUOUS
100
AcDbLine
 10
16.36767838827179
 20
8.751678487061342
 30
0.0
 11
16.50332410898388
 21
8.887324207773432
 31
0.0
  0
LINE
  5
22A15
330
22A05
100
AcDbEntity
  8
0
  6
CONTINUOUS
100
AcDbLine
 10
15.96190732182191
 20
7.67238821153127
 30
0.0
 11
16.68735328004734
 21
8.397834169756699
 31
0.0
  0
LINE
  5
22A16
330
22A05
100
AcDbEntity
  8
0
  6
CONTINUOUS
100
AcDbLine
 10
15.55613625537202
 20
6.593097936001196
 30
0.0
 11
16.87138245111079
 21
7.908344131739965
 31
0.0
  0
LINE
  5
22A17
330
22A05
100
AcDbEntity
  8
0
  6
CONTINUOUS
100
AcDbLine
 10
15.15036518892213
 20
5.513807660471122
 30
0.0
 11
17.05541162217424
 21
7.418854093723231
 31
0.0
  0
LINE
  5
22A18
330
22A05
100
AcDbEntity
  8
0
  6
CONTINUOUS
100
AcDbLine
 10
14.74459412247225
 20
4.434517384941048
 30
0.0
 11
17.2394407932377
 21
6.929364055706499
 31
0.0
  0
LINE
  5
22A19
330
22A05
100
AcDbEntity
  8
0
  6
CONTINUOUS
100
AcDbLine
 10
14.33882305602236
 20
3.355227109410975
 30
0.0
 11
17.42346996430115
 21
6.439874017689766
 31
0.0
  0
LINE
  5
22A1A
330
22A05
100
AcDbEntity
  8
0
  6
CONTINUOUS
100
AcDbLine
 10
13.46705359186416
 20
1.809938436172586
 30
0.0
 11
16.0819338255367
 21
4.424818669845129
 31
0.0
  0
LINE
  5
22A1B
330
22A05
100
AcDbEntity
  8
0
  6
CONTINUOUS
100
AcDbLine
 10
16.63283254238972
 20
4.975717386698149
 30
0.0
 11
17.60749913536461
 21
5.950383979673033
 31
0.0
  0
LINE
  5
22A1C
330
22A05
100
AcDbEntity
  8
0
  6
CONTINUOUS
100
AcDbLine
 10
13.66663434263929
 20
1.335999977867529
 30
0.0
 11
15.67604797733754
 21
3.345413612565779
 31
0.0
  0
LINE
  5
22A1D
330
22A05
100
AcDbEntity
  8
0
  6
CONTINUOUS
100
AcDbLine
 10
13.86621509341442
 20
0.8620615195624723
 30
0.0
 11
15.27016212913838
 21
2.26600855528643
 31
0.0
  0
LINE
  5
22A1E
330
22A05
100
AcDbEntity
  8
0
  6
CONTINUOUS
100
AcDbLine
 10
16.81682257348267
 20
4.486188208710908
 30
0.0
 11
17.79152830642806
 21
5.460893941656299
 31
0.0
  0
LINE
  5
22A1F
330
22A05
100
AcDbEntity
  8
0
  6
CONTINUOUS
100
AcDbLine
 10
17.00081260457561
 20
3.996659030723667
 30
0.0
 11
17.97555747749151
 21
4.971403903639565
 31
0.0
  0
LINE
  5
22A20
330
22A05
100
AcDbEntity
  8
0
  6
CONTINUOUS
100
AcDbLine
 10
20.74362343514722
 20
8.412989070375462
 30
0.0
 11
21.09373436476302
 21
8.763099999991256
 31
0.0
  0
LINE
  5
22A21
330
22A05
100
AcDbEntity
  8
0
  6
CONTINUOUS
100
AcDbLine
 10
20.25401257174777
 20
7.249858997895826
 30
0.0
 11
21.7672535738432
 21
8.763099999991255
 31
0.0
  0
LINE
  5
22A22
330
22A05
100
AcDbEntity
  8
0
  6
CONTINUOUS
100
AcDbLine
 10
14.06579584418955
 20
0.3881230612574149
 30
0.0
 11
14.86427628093921
 21
1.186603498007082
 31
0.0
  0
LINE
  5
22A23
330
22A05
100
AcDbEntity
  8
0
  6
CONTINUOUS
100
AcDbLine
 10
14.26537659496467
 20
-0.0858153970476412
 30
0.0
 11
14.45839043274005
 21
0.1071984407277329
 31
0.0
  0
LINE
  5
22A24
330
22A05
100
AcDbEntity
  8
0
  6
CONTINUOUS
100
AcDbLine
 10
17.18480263566856
 20
3.507129852736426
 30
0.0
 11
18.15958664855496
 21
4.481913865622833
 31
0.0
  0
LINE
  5
22A25
330
22A05
100
AcDbEntity
  8
0
  6
CONTINUOUS
100
AcDbLine
 10
17.3687926667615
 20
3.017600674749186
 30
0.0
 11
18.34361581961842
 21
3.9924238276061
 31
0.0
  0
LINE
  5
22A26
330
22A05
100
AcDbEntity
  8
0
  6
CONTINUOUS
100
AcDbLine
 10
19.76440170834832
 20
6.086728925416191
 30
0.0
 11
22.33924590259489
 21
8.661573119662755
 31
0.0
  0
LINE
  5
22A27
330
22A05
100
AcDbEntity
  8
0
  6
CONTINUOUS
100
AcDbLine
 10
19.27479084494887
 20
4.923598852936555
 30
0.0
 11
21.84929622842713
 21
7.498104236414807
 31
0.0
  0
LINE
  5
22A28
330
22A05
100
AcDbEntity
  8
0
  6
CONTINUOUS
100
AcDbLine
 10
17.55278269785445
 20
2.528071496761945
 30
0.0
 11
18.52764499068187
 21
3.502933789589366
 31
0.0
  0
LINE
  5
22A29
330
22A05
100
AcDbEntity
  8
0
  6
CONTINUOUS
100
AcDbLine
 10
18.78517998154942
 20
3.760468780456919
 30
0.0
 11
21.35934655425936
 21
6.33463535316686
 31
0.0
  0
LINE
  5
22A2A
330
22A05
100
AcDbEntity
  8
0
  6
CONTINUOUS
100
AcDbLine
 10
17.73677272894739
 20
2.038542318774704
 30
0.0
 11
20.8693968800916
 21
5.171166469918914
 31
0.0
  0
LINE
  5
22A2B
330
22A05
100
AcDbEntity
  8
0
  6
CONTINUOUS
100
AcDbLine
 10
17.92076276004034
 20
1.549013140787464
 30
0.0
 11
20.37944720592384
 21
4.007697586670968
 31
0.0
  0
LINE
  5
22A2C
330
22A05
100
AcDbEntity
  8
0
  6
CONTINUOUS
100
AcDbLine
 10
18.10475279113329
 20
1.059483962800223
 30
0.0
 11
19.88949753175608
 21
2.84422870342302
 31
0.0
  0
LINE
  5
22A2D
330
22A05
100
AcDbEntity
  8
0
  6
CONTINUOUS
100
AcDbLine
 10
18.28874282222623
 20
0.5699547848129822
 30
0.0
 11
19.39954785758832
 21
1.680759820175074
 31
0.0
  0
LINE
  5
22A2E
330
22A05
100
AcDbEntity
  8
0
  6
CONTINUOUS
100
AcDbLine
 10
18.47273285331918
 20
0.0804256068257416
 30
0.0
 11
18.90959818342056
 21
0.517290936927127
 31
0.0
  0
LINE
  5
22A2F
330
22A05
100
AcDbEntity
  8
0
  6
CONTINUOUS
100
AcDbLine
 10
14.3590401358224
 20
-0.1570118376323384
 30
0.0
 11
14.24903296539946
 21
-0.0470046672093929
 31
0.0
  0
LINE
  5
22A30
330
22A05
100
AcDbEntity
  8
0
  6
CONTINUOUS
100
AcDbLine
 10
14.54309291258661
 20
0.332454594683643
 30
0.0
 11
13.75908329123172
 21
1.116464216038529
 31
0.0
  0
LINE
  5
22A31
330
22A05
100
AcDbEntity
  8
0
  6
CONTINUOUS
100
AcDbLine
 10
14.72714568935081
 20
0.8219210269996244
 30
0.0
 11
13.26913361706399
 21
2.27993309928645
 31
0.0
  0
LINE
  5
22A32
330
22A05
100
AcDbEntity
  8
0
  6
CONTINUOUS
100
AcDbLine
 10
14.91119846611502
 20
1.311387459315606
 30
0.0
 11
12.77918394289625
 21
3.443401982534371
 31
0.0
  0
LINE
  5
22A33
330
22A05
100
AcDbEntity
  8
0
  6
CONTINUOUS
100
AcDbLine
 10
15.09525124287922
 20
1.800853891631587
 30
0.0
 11
12.28923426872852
 21
4.606870865782293
 31
0.0
  0
LINE
  5
22A34
330
22A05
100
AcDbEntity
  8
0
  6
CONTINUOUS
100
AcDbLine
 10
15.27930401964343
 20
2.290320323947569
 30
0.0
 11
11.79928459456078
 21
5.770339749030213
 31
0.0
  0
LINE
  5
22A35
330
22A05
100
AcDbEntity
  8
0
  6
CONTINUOUS
100
AcDbLine
 10
15.46335679640763
 20
2.77978675626355
 30
0.0
 11
14.48885470994921
 21
3.754288842721972
 31
0.0
  0
LINE
  5
22A36
330
22A05
100
AcDbEntity
  8
0
  6
CONTINUOUS
100
AcDbLine
 10
13.88507249233704
 20
4.358071060334137
 30
0.0
 11
11.30933492039305
 21
6.933808632278135
 31
0.0
  0
LINE
  5
22A37
330
22A05
100
AcDbEntity
  8
0
  6
CONTINUOUS
100
AcDbLine
 10
18.75840522805855
 20
0.1582575336928151
 30
0.0
 11
18.25383727664818
 21
0.6628254851031863
 31
0.0
  0
LINE
  5
22A38
330
22A05
100
AcDbEntity
  8
0
  6
CONTINUOUS
100
AcDbLine
 10
15.64740957317184
 20
3.269253188579531
 30
0.0
 11
14.67288388101266
 21
4.243778880738705
 31
0.0
  0
LINE
  5
22A39
330
22A05
100
AcDbEntity
  8
0
  6
CONTINUOUS
100
AcDbLine
 10
13.39509276772158
 20
5.521569994029786
 30
0.0
 11
10.81938524622531
 21
8.097277515526056
 31
0.0
  0
LINE
  5
22A3A
330
22A05
100
AcDbEntity
  8
0
  6
CONTINUOUS
100
AcDbLine
 10
18.95798597883369
 20
0.6321959919978686
 30
0.0
 11
17.84825644852853
 21
1.741925522303024
 31
0.0
  0
LINE
  5
22A3B
330
22A05
100
AcDbEntity
  8
0
  6
CONTINUOUS
100
AcDbLine
 10
19.15756672960882
 20
1.106134450302922
 30
0.0
 11
17.44267562040888
 21
2.821025559502861
 31
0.0
  0
LINE
  5
22A3C
330
22A05
100
AcDbEntity
  8
0
  6
CONTINUOUS
100
AcDbLine
 10
15.83146234993604
 20
3.758719620895513
 30
0.0
 11
14.85691305207612
 21
4.733268918755439
 31
0.0
  0
LINE
  5
22A3D
330
22A05
100
AcDbEntity
  8
0
  6
CONTINUOUS
100
AcDbLine
 10
16.01551512670025
 20
4.248186053211494
 30
0.0
 11
15.04094222313957
 21
5.222758956772172
 31
0.0
  0
LINE
  5
22A3E
330
22A05
100
AcDbEntity
  8
0
  6
CONTINUOUS
100
AcDbLine
 10
12.90511304310612
 20
6.685068927725435
 30
0.0
 11
10.8270819708403
 21
8.763099999991255
 31
0.0
  0
LINE
  5
22A3F
330
22A05
100
AcDbEntity
  8
0
  6
CONTINUOUS
100
AcDbLine
 10
12.41513331849066
 20
7.848567861421083
 30
0.0
 11
11.50060117992049
 21
8.763099999991255
 31
0.0
  0
LINE
  5
22A40
330
22A05
100
AcDbEntity
  8
0
  6
CONTINUOUS
100
AcDbLine
 10
19.35714748038395
 20
1.580072908607975
 30
0.0
 11
17.03709479228923
 21
3.900125596702697
 31
0.0
  0
LINE
  5
22A41
330
22A05
100
AcDbEntity
  8
0
  6
CONTINUOUS
100
AcDbLine
 10
19.55672823115909
 20
2.054011366913028
 30
0.0
 11
16.63151396416958
 21
4.979225633902534
 31
0.0
  0
LINE
  5
22A42
330
22A05
100
AcDbEntity
  8
0
  6
CONTINUOUS
100
AcDbLine
 10
16.19956790346445
 20
4.737652485527476
 30
0.0
 11
15.22497139420302
 21
5.712248994788904
 31
0.0
  0
LINE
  5
22A43
330
22A05
100
AcDbEntity
  8
0
  6
CONTINUOUS
100
AcDbLine
 10
16.38362068022866
 20
5.227118917843457
 30
0.0
 11
15.40900056526648
 21
6.201739032805637
 31
0.0
  0
LINE
  5
22A44
330
22A05
100
AcDbEntity
  8
0
  6
CONTINUOUS
100
AcDbLine
 10
19.75630898193422
 20
2.527949825218081
 30
0.0
 11
18.70774536448286
 21
3.576513442669441
 31
0.0
  0
LINE
  5
22A45
330
22A05
100
AcDbEntity
  8
0
  6
CONTINUOUS
100
AcDbLine
 10
19.95588973270936
 20
3.001888283523134
 30
0.0
 11
18.90726987211446
 21
4.050508144118028
 31
0.0
  0
LINE
  5
22A46
330
22A05
100
AcDbEntity
  8
0
  6
CONTINUOUS
100
AcDbLine
 10
20.15547048348449
 20
3.475826741828186
 30
0.0
 11
19.10679437974606
 21
4.524502845566614
 31
0.0
  0
LINE
  5
22A47
330
22A05
100
AcDbEntity
  8
0
  6
CONTINUOUS
100
AcDbLine
 10
20.35505123425962
 20
3.94976520013324
 30
0.0
 11
19.30631888737766
 21
4.998497547015201
 31
0.0
  0
LINE
  5
22A48
330
22A05
100
AcDbEntity
  8
0
  6
CONTINUOUS
100
AcDbLine
 10
20.55463198503475
 20
4.423703658438292
 30
0.0
 11
19.50584339500926
 21
5.472492248463787
 31
0.0
  0
LINE
  5
22A49
330
22A05
100
AcDbEntity
  8
0
  6
CONTINUOUS
100
AcDbLine
 10
18.37481191085755
 20
3.909446896294752
 30
0.0
 11
15.59302973632993
 21
6.691229070822371
 31
0.0
  0
LINE
  5
22A4A
330
22A05
100
AcDbEntity
  8
0
  6
CONTINUOUS
100
AcDbLine
 10
17.96904084440766
 20
4.988737171824825
 30
0.0
 11
15.77705890739338
 21
7.180719108839104
 31
0.0
  0
LINE
  5
22A4B
330
22A05
100
AcDbEntity
  8
0
  6
CONTINUOUS
100
AcDbLine
 10
17.56326977795777
 20
6.068027447354899
 30
0.0
 11
15.96108807845684
 21
7.670209146855838
 31
0.0
  0
LINE
  5
22A4C
330
22A05
100
AcDbEntity
  8
0
  6
CONTINUOUS
100
AcDbLine
 10
17.15749871150789
 20
7.147317722884972
 30
0.0
 11
16.14511724952029
 21
8.15969918487257
 31
0.0
  0
LINE
  5
22A4D
330
22A05
100
AcDbEntity
  8
0
  6
CONTINUOUS
100
AcDbLine
 10
16.751727645058
 20
8.226607998415046
 30
0.0
 11
16.32914642058374
 21
8.649189222889303
 31
0.0
  0
LINE
  5
22A4E
330
22A05
100
AcDbEntity
  8
0
  6
CONTINUOUS
100
AcDbLine
 10
20.75421273580989
 20
4.897642116743345
 30
0.0
 11
19.70536790264086
 21
5.946486949912374
 31
0.0
  0
LINE
  5
22A4F
330
22A05
100
AcDbEntity
  8
0
  6
CONTINUOUS
100
AcDbLine
 10
20.95379348658502
 20
5.371580575048398
 30
0.0
 11
19.90489241027246
 21
6.42048165136096
 31
0.0
  0
LINE
  5
22A50
330
22A05
100
AcDbEntity
  8
0
  6
CONTINUOUS
100
AcDbLine
 10
21.15337423736015
 20
5.845519033353452
 30
0.0
 11
20.10441691790406
 21
6.894476352809547
 31
0.0
  0
LINE
  5
22A51
330
22A05
100
AcDbEntity
  8
0
  6
CONTINUOUS
100
AcDbLine
 10
21.35295498813529
 20
6.319457491658505
 30
0.0
 11
20.30394142553566
 21
7.368471054258134
 31
0.0
  0
LINE
  5
22A52
330
22A05
100
AcDbEntity
  8
0
  6
CONTINUOUS
100
AcDbLine
 10
21.55253573891042
 20
6.793395949963558
 30
0.0
 11
20.50346593316726
 21
7.842465755706721
 31
0.0
  0
LINE
  5
22A53
330
22A05
100
AcDbEntity
  8
0
  6
CONTINUOUS
100
AcDbLine
 10
21.75211648968556
 20
7.267334408268612
 30
0.0
 11
20.70299044079886
 21
8.316460457155308
 31
0.0
  0
LINE
  5
22A54
330
22A05
100
AcDbEntity
  8
0
  6
CONTINUOUS
100
AcDbLine
 10
21.95169724046069
 20
7.741272866573663
 30
0.0
 11
20.9298701070431
 21
8.763099999991256
 31
0.0
  0
LINE
  5
22A55
330
22A05
100
AcDbEntity
  8
0
  6
CONTINUOUS
100
AcDbLine
 10
22.15127799123582
 20
8.215211324878716
 30
0.0
 11
21.60338931612328
 21
8.763099999991256
 31
0.0
  0
LINE
  5
22A56
330
22A05
100
AcDbEntity
  8
0
  6
CONTINUOUS
100
AcDbLine
 10
22.35085874201096
 20
8.689149783183769
 30
0.0
 11
22.27690852520347
 21
8.763099999991255
 31
0.0
  0
ENDBLK
  5
22B48
330
22A05
100
AcDbEntity
  8
0
100
AcDbBlockEnd
  0
BLOCK
  5
22B49
330
22A57
100
AcDbEntity
  8
0
100
AcDbBlockBegin
  2
*X96
 70
     1
 10
0.0
 20
0.0
 30
0.0
  3
*X96
  1

  0
LINE
  5
22A58
330
22A57
100
AcDbEntity
  8
0
  6
CONTINUOUS
100
AcDbLine
 10
23.19462913593892
 20
8.169917934846424
 30
0.0
 11
23.70775465517246
 21
8.683043454079957
 31
0.0
  0
LINE
  5
22A59
330
22A57
100
AcDbEntity
  8
0
  6
CONTINUOUS
100
AcDbLine
 10
22.64923161835078
 20
6.951001208178088
 30
0.0
 11
23.9159364069932
 21
8.217705996820516
 31
0.0
  0
LINE
  5
22A5A
330
22A57
100
AcDbEntity
  8
0
  6
CONTINUOUS
100
AcDbLine
 10
22.10383410076263
 20
5.732084481509751
 30
0.0
 11
24.12411815881395
 21
7.752368539561078
 31
0.0
  0
LINE
  5
22A5B
330
22A57
100
AcDbEntity
  8
0
  6
CONTINUOUS
100
AcDbLine
 10
21.55843658317447
 20
4.513167754841414
 30
0.0
 11
24.3322999106347
 21
7.287031082301639
 31
0.0
  0
LINE
  5
22A5C
330
22A57
100
AcDbEntity
  8
0
  6
CONTINUOUS
100
AcDbLine
 10
21.01303906558632
 20
3.294251028173077
 30
0.0
 11
24.54048166245544
 21
6.821693625042199
 31
0.0
  0
LINE
  5
22A5D
330
22A57
100
AcDbEntity
  8
0
  6
CONTINUOUS
100
AcDbLine
 10
20.46764154799817
 20
2.075334301504738
 30
0.0
 11
23.28571549467848
 21
4.89340824818505
 31
0.0
  0
LINE
  5
22A5E
330
22A57
100
AcDbEntity
  8
0
  6
CONTINUOUS
100
AcDbLine
 10
19.92224403041002
 20
0.8564175748364002
 30
0.0
 11
22.74075865492779
 21
3.674932199354171
 31
0.0
  0
LINE
  5
22A5F
330
22A57
100
AcDbEntity
  8
0
  6
CONTINUOUS
100
AcDbLine
 10
23.67305085490148
 20
5.280743608408048
 30
0.0
 11
24.74866341427619
 21
6.356356167782759
 31
0.0
  0
LINE
  5
22A60
330
22A57
100
AcDbEntity
  8
0
  6
CONTINUOUS
100
AcDbLine
 10
23.88118970842314
 20
4.815363252849522
 30
0.0
 11
24.95684516609694
 21
5.89101871052332
 31
0.0
  0
LINE
  5
22A61
330
22A57
100
AcDbEntity
  8
0
  6
CONTINUOUS
100
AcDbLine
 10
19.73925852647308
 20
-0.0000871381807288
 30
0.0
 11
23.4103456646501
 21
3.670999999996297
 31
0.0
  0
LINE
  5
22A62
330
22A57
100
AcDbEntity
  8
0
  6
CONTINUOUS
100
AcDbLine
 10
24.0893285619448
 20
4.349982897290997
 30
0.0
 11
25.16502691791769
 21
5.42568125326388
 31
0.0
  0
LINE
  5
22A63
330
22A57
100
AcDbEntity
  8
0
  6
CONTINUOUS
100
AcDbLine
 10
20.41282099582748
 20
-0.0000438779065108
 30
0.0
 11
21.64944178675636
 21
1.236576913022366
 31
0.0
  0
LINE
  5
22A64
330
22A57
100
AcDbEntity
  8
0
  6
CONTINUOUS
100
AcDbLine
 10
22.78126487373161
 20
2.36839999999762
 30
0.0
 11
24.08386487373029
 21
3.670999999996297
 31
0.0
  0
LINE
  5
22A65
330
22A57
100
AcDbEntity
  8
0
  6
CONTINUOUS
100
AcDbLine
 10
24.29746741546646
 20
3.884602541732471
 30
0.0
 11
25.37320866973843
 21
4.960343796004441
 31
0.0
  0
LINE
  5
22A66
330
22A57
100
AcDbEntity
  8
0
  6
CONTINUOUS
100
AcDbLine
 10
21.08638346518189
 20
-0.0000006176322938
 30
0.0
 11
21.10379033335899
 21
0.0174062505448083
 31
0.0
  0
LINE
  5
22A67
330
22A57
100
AcDbEntity
  8
0
  6
CONTINUOUS
100
AcDbLine
 10
23.4547840828118
 20
2.36839999999762
 30
0.0
 11
25.58139042155918
 21
4.495006338745002
 31
0.0
  0
LINE
  5
22A68
330
22A57
100
AcDbEntity
  8
0
  6
CONTINUOUS
100
AcDbLine
 10
29.30199999996933
 20
8.215615917155148
 30
0.0
 11
29.84948408280543
 21
8.763099999991255
 31
0.0
  0
LINE
  5
22A69
330
22A57
100
AcDbEntity
  8
0
  6
CONTINUOUS
100
AcDbLine
 10
24.12830329189199
 20
2.36839999999762
 30
0.0
 11
25.78957217337993
 21
4.029668881485562
 31
0.0
  0
LINE
  5
22A6A
330
22A57
100
AcDbEntity
  8
0
  6
CONTINUOUS
100
AcDbLine
 10
29.30199999996933
 20
7.54209670807496
 30
0.0
 11
30.52300329188562
 21
8.763099999991255
 31
0.0
  0
LINE
  5
22A6B
330
22A57
100
AcDbEntity
  8
0
  6
CONTINUOUS
100
AcDbLine
 10
24.80182250097217
 20
2.36839999999762
 30
0.0
 11
25.99775392520067
 21
3.564331424226122
 31
0.0
  0
LINE
  5
22A6C
330
22A57
100
AcDbEntity
  8
0
  6
CONTINUOUS
100
AcDbLine
 10
29.30199999996933
 20
6.868577498994774
 30
0.0
 11
30.74199999996926
 21
8.308577498994712
 31
0.0
  0
LINE
  5
22A6D
330
22A57
100
AcDbEntity
  8
0
  6
CONTINUOUS
100
AcDbLine
 10
25.13028238392013
 20
2.023340673865392
 30
0.0
 11
26.20593567702142
 21
3.098993966966683
 31
0.0
  0
LINE
  5
22A6E
330
22A57
100
AcDbEntity
  8
0
  6
CONTINUOUS
100
AcDbLine
 10
25.33838066033617
 20
1.557919741201244
 30
0.0
 11
26.41411742884217
 21
2.633656509707244
 31
0.0
  0
LINE
  5
22A6F
330
22A57
100
AcDbEntity
  8
0
  6
CONTINUOUS
100
AcDbLine
 10
25.54647893675221
 20
1.092498808537098
 30
0.0
 11
26.62229918066291
 21
2.168319052447804
 31
0.0
  0
LINE
  5
22A70
330
22A57
100
AcDbEntity
  8
0
  6
CONTINUOUS
100
AcDbLine
 10
25.75457721316825
 20
0.62707787587295
 30
0.0
 11
26.83048093248366
 21
1.702981595188365
 31
0.0
  0
LINE
  5
22A71
330
22A57
100
AcDbEntity
  8
0
  6
CONTINUOUS
100
AcDbLine
 10
29.30199999996933
 20
6.195058289914587
 30
0.0
 11
30.74199999996926
 21
7.635058289914522
 31
0.0
  0
LINE
  5
22A72
330
22A57
100
AcDbEntity
  8
0
  6
CONTINUOUS
100
AcDbLine
 10
29.30199999996933
 20
5.521539080834401
 30
0.0
 11
30.74199999996926
 21
6.961539080834331
 31
0.0
  0
LINE
  5
22A73
330
22A57
100
AcDbEntity
  8
0
  6
CONTINUOUS
100
AcDbLine
 10
29.30199999996933
 20
4.848019871754214
 30
0.0
 11
30.74199999996925
 21
6.288019871754143
 31
0.0
  0
LINE
  5
22A74
330
22A57
100
AcDbEntity
  8
0
  6
CONTINUOUS
100
AcDbLine
 10
29.30199999996933
 20
4.174500662674028
 30
0.0
 11
30.74199999996925
 21
5.614500662673953
 31
0.0
  0
LINE
  5
22A75
330
22A57
100
AcDbEntity
  8
0
  6
CONTINUOUS
100
AcDbLine
 10
25.96267548958429
 20
0.1616569432088024
 30
0.0
 11
27.18411854636669
 21
1.383099999991207
 31
0.0
  0
LINE
  5
22A76
330
22A57
100
AcDbEntity
  8
0
  6
CONTINUOUS
100
AcDbLine
 10
29.30199999996933
 20
3.500981453593841
 30
0.0
 11
30.74199999996925
 21
4.940981453593762
 31
0.0
  0
LINE
  5
22A77
330
22A57
100
AcDbEntity
  8
0
  6
CONTINUOUS
100
AcDbLine
 10
26.50763775544691
 20
0.0330999999912356
 30
0.0
 11
27.85763775544689
 21
1.383099999991223
 31
0.0
  0
LINE
  5
22A78
330
22A57
100
AcDbEntity
  8
0
  6
CONTINUOUS
100
AcDbLine
 10
29.30199999996933
 20
2.827462244513656
 30
0.0
 11
30.74199999996925
 21
4.267462244513574
 31
0.0
  0
LINE
  5
22A79
330
22A57
100
AcDbEntity
  8
0
  6
CONTINUOUS
100
AcDbLine
 10
27.18115696452709
 20
0.0330999999912356
 30
0.0
 11
28.6224847300034
 21
1.474427765467545
 31
0.0
  0
LINE
  5
22A7A
330
22A57
100
AcDbEntity
  8
0
  6
CONTINUOUS
100
AcDbLine
 10
29.21067223449293
 20
2.062615269957069
 30
0.0
 11
30.74199999996924
 21
3.593943035433383
 31
0.0
  0
LINE
  5
22A7B
330
22A57
100
AcDbEntity
  8
0
  6
CONTINUOUS
100
AcDbLine
 10
27.85467617360728
 20
0.0330999999912356
 30
0.0
 11
30.74199999996924
 21
2.920423826353195
 31
0.0
  0
LINE
  5
22A7C
330
22A57
100
AcDbEntity
  8
0
  6
CONTINUOUS
100
AcDbLine
 10
28.57438609860264
 20
0.0792907159064073
 30
0.0
 11
30.69580928405405
 21
2.200713901357819
 31
0.0
  0
LINE
  5
22A7D
330
22A57
100
AcDbEntity
  8
0
  6
CONTINUOUS
100
AcDbLine
 10
29.49443044814297
 20
0.3258158563665496
 30
0.0
 11
30.44928414359389
 21
1.280669551817477
 31
0.0
  0
LINE
  5
22A7E
330
22A57
100
AcDbEntity
  8
0
  6
CONTINUOUS
100
AcDbLine
 10
19.59027867740337
 20
-0.0000967065718083
 30
0.0
 11
19.55485265190471
 21
0.035329318926844
 31
0.0
  0
LINE
  5
22A7F
330
22A57
100
AcDbEntity
  8
0
  6
CONTINUOUS
100
AcDbLine
 10
20.26375463176586
 20
-0.0000534518541091
 30
0.0
 11
19.76305575737534
 21
0.5006454225364014
 31
0.0
  0
LINE
  5
22A80
330
22A57
100
AcDbEntity
  8
0
  6
CONTINUOUS
100
AcDbLine
 10
20.93723058612834
 20
-0.0000101971364099
 30
0.0
 11
19.97125886284597
 21
0.965961526145958
 31
0.0
  0
LINE
  5
22A81
330
22A57
100
AcDbEntity
  8
0
  6
CONTINUOUS
100
AcDbLine
 10
21.25514828313686
 20
0.355591314935257
 30
0.0
 11
20.1794619683166
 21
1.431277629755512
 31
0.0
  0
LINE
  5
22A82
330
22A57
100
AcDbEntity
  8
0
  6
CONTINUOUS
100
AcDbLine
 10
21.46338838394921
 20
0.8208704232030986
 30
0.0
 11
20.38766507378723
 21
1.896593733365069
 31
0.0
  0
LINE
  5
22A83
330
22A57
100
AcDbEntity
  8
0
  6
CONTINUOUS
100
AcDbLine
 10
21.67162848476155
 20
1.28614953147094
 30
0.0
 11
20.59586817925786
 21
2.361909836974626
 31
0.0
  0
LINE
  5
22A84
330
22A57
100
AcDbEntity
  8
0
  6
CONTINUOUS
100
AcDbLine
 10
21.8798685855739
 20
1.751428639738782
 30
0.0
 11
20.80407128472849
 21
2.827225940584183
 31
0.0
  0
LINE
  5
22A85
330
22A57
100
AcDbEntity
  8
0
  6
CONTINUOUS
100
AcDbLine
 10
22.08810868638624
 20
2.216707748006623
 30
0.0
 11
21.01227439019912
 21
3.292542044193739
 31
0.0
  0
LINE
  5
22A86
330
22A57
100
AcDbEntity
  8
0
  6
CONTINUOUS
100
AcDbLine
 10
22.60993564347543
 20
2.36839999999762
 30
0.0
 11
21.22047749566975
 21
3.757858147803296
 31
0.0
  0
LINE
  5
22A87
330
22A57
100
AcDbEntity
  8
0
  6
CONTINUOUS
100
AcDbLine
 10
23.28345485255561
 20
2.36839999999762
 30
0.0
 11
21.42868060114038
 21
4.223174251412853
 31
0.0
  0
LINE
  5
22A88
330
22A57
100
AcDbEntity
  8
0
  6
CONTINUOUS
100
AcDbLine
 10
26.29227406164219
 20
0.0330999999912356
 30
0.0
 11
25.80009199592872
 21
0.5252820657046957
 31
0.0
  0
LINE
  5
22A89
330
22A57
100
AcDbEntity
  8
0
  6
CONTINUOUS
100
AcDbLine
 10
23.9569740616358
 20
2.36839999999762
 30
0.0
 11
21.63688370661101
 21
4.688490355022409
 31
0.0
  0
LINE
  5
22A8A
330
22A57
100
AcDbEntity
  8
0
  6
CONTINUOUS
100
AcDbLine
 10
26.96579327072237
 20
0.0330999999912356
 30
0.0
 11
25.2554132311971
 21
1.743480039516508
 31
0.0
  0
LINE
  5
22A8B
330
22A57
100
AcDbEntity
  8
0
  6
CONTINUOUS
100
AcDbLine
 10
24.63049327071599
 20
2.36839999999762
 30
0.0
 11
23.32789327071731
 21
3.670999999996297
 31
0.0
  0
LINE
  5
22A8C
330
22A57
100
AcDbEntity
  8
0
  6
CONTINUOUS
100
AcDbLine
 10
22.92098674744635
 20
4.077906523267254
 30
0.0
 11
21.84508681208164
 21
5.153806458631966
 31
0.0
  0
LINE
  5
22A8D
330
22A57
100
AcDbEntity
  8
0
  6
CONTINUOUS
100
AcDbLine
 10
27.63931247980256
 20
0.0330999999912356
 30
0.0
 11
24.0014124797975
 21
3.670999999996297
 31
0.0
  0
LINE
  5
22A8E
330
22A57
100
AcDbEntity
  8
0
  6
CONTINUOUS
100
AcDbLine
 10
23.129125600968
 20
4.5432868788258
 30
0.0
 11
22.05328991755227
 21
5.619122562241522
 31
0.0
  0
LINE
  5
22A8F
330
22A57
100
AcDbEntity
  8
0
  6
CONTINUOUS
100
AcDbLine
 10
28.31283168888275
 20
0.0330999999912356
 30
0.0
 11
24.16488385994816
 21
4.181047828925828
 31
0.0
  0
LINE
  5
22A90
330
22A57
100
AcDbEntity
  8
0
  6
CONTINUOUS
100
AcDbLine
 10
23.33726445448964
 20
5.008667234384345
 30
0.0
 11
22.2614930230229
 21
6.084438665851079
 31
0.0
  0
LINE
  5
22A91
330
22A57
100
AcDbEntity
  8
0
  6
CONTINUOUS
100
AcDbLine
 10
28.86286302309502
 20
0.1565878748591523
 30
0.0
 11
27.63635089796295
 21
1.383099999991217
 31
0.0
  0
LINE
  5
22A92
330
22A57
100
AcDbEntity
  8
0
  6
CONTINUOUS
100
AcDbLine
 10
26.43704649509776
 20
2.582404402856405
 30
0.0
 11
23.61992702019732
 21
5.399523877756844
 31
0.0
  0
LINE
  5
22A93
330
22A57
100
AcDbEntity
  8
0
  6
CONTINUOUS
100
AcDbLine
 10
23.54540330801128
 20
5.47404758994289
 30
0.0
 11
22.46969612849353
 21
6.549754769460635
 31
0.0
  0
LINE
  5
22A94
330
22A57
100
AcDbEntity
  8
0
  6
CONTINUOUS
100
AcDbLine
 10
29.39405087596853
 20
0.2989192310658284
 30
0.0
 11
28.30987010704312
 21
1.383099999991234
 31
0.0
  0
LINE
  5
22A95
330
22A57
100
AcDbEntity
  8
0
  6
CONTINUOUS
100
AcDbLine
 10
25.89179548232307
 20
3.801174624711282
 30
0.0
 11
22.67789923396416
 21
7.015070873070191
 31
0.0
  0
LINE
  5
22A96
330
22A57
100
AcDbEntity
  8
0
  6
CONTINUOUS
100
AcDbLine
 10
29.79594438047407
 20
0.570544935640473
 30
0.0
 11
28.81310432793121
 21
1.553384988183336
 31
0.0
  0
LINE
  5
22A97
330
22A57
100
AcDbEntity
  8
0
  6
CONTINUOUS
100
AcDbLine
 10
25.34654446954838
 20
5.01994484656616
 30
0.0
 11
22.88610233943479
 21
7.480386976679748
 31
0.0
  0
LINE
  5
22A98
330
22A57
100
AcDbEntity
  8
0
  6
CONTINUOUS
100
AcDbLine
 10
30.13270398501416
 20
0.9073045401805646
 30
0.0
 11
29.14234640337737
 21
1.897662121817355
 31
0.0
  0
LINE
  5
22A99
330
22A57
100
AcDbEntity
  8
0
  6
CONTINUOUS
100
AcDbLine
 10
24.80129345677369
 20
6.238715068421037
 30
0.0
 11
23.09430544490542
 21
7.945703080289305
 31
0.0
  0
LINE
  5
22A9A
330
22A57
100
AcDbEntity
  8
0
  6
CONTINUOUS
100
AcDbLine
 10
30.44581292956759
 20
1.26771480470732
 30
0.0
 11
29.30199999996933
 21
2.411527734305588
 31
0.0
  0
LINE
  5
22A9B
330
22A57
100
AcDbEntity
  8
0
  6
CONTINUOUS
100
AcDbLine
 10
30.58814428577427
 20
1.798902657580827
 30
0.0
 11
29.30199999996933
 21
3.085046943385775
 31
0.0
  0
LINE
  5
22A9C
330
22A57
100
AcDbEntity
  8
0
  6
CONTINUOUS
100
AcDbLine
 10
24.256042443999
 20
7.457485290275915
 30
0.0
 11
23.30250855037605
 21
8.411019183898862
 31
0.0
  0
LINE
  5
22A9D
330
22A57
100
AcDbEntity
  8
0
  6
CONTINUOUS
100
AcDbLine
 10
23.71079143122431
 20
8.676255512130794
 30
0.0
 11
23.51071165584668
 21
8.876335287508418
 31
0.0
  0
LINE
  5
22A9E
330
22A57
100
AcDbEntity
  8
0
  6
CONTINUOUS
100
AcDbLine
 10
30.73047564198095
 20
2.330090510454333
 30
0.0
 11
29.30199999996933
 21
3.758566152465961
 31
0.0
  0
LINE
  5
22A9F
330
22A57
100
AcDbEntity
  8
0
  6
CONTINUOUS
100
AcDbLine
 10
30.74199999996924
 20
2.992085361546236
 30
0.0
 11
29.30199999996933
 21
4.432085361546148
 31
0.0
  0
LINE
  5
22AA0
330
22A57
100
AcDbEntity
  8
0
  6
CONTINUOUS
100
AcDbLine
 10
30.74199999996924
 20
3.665604570626419
 30
0.0
 11
29.30199999996933
 21
5.105604570626333
 31
0.0
  0
LINE
  5
22AA1
330
22A57
100
AcDbEntity
  8
0
  6
CONTINUOUS
100
AcDbLine
 10
30.74199999996925
 20
4.339123779706602
 30
0.0
 11
29.30199999996933
 21
5.77912377970652
 31
0.0
  0
LINE
  5
22AA2
330
22A57
100
AcDbEntity
  8
0
  6
CONTINUOUS
100
AcDbLine
 10
30.74199999996925
 20
5.012642988786785
 30
0.0
 11
29.30199999996933
 21
6.452642988786707
 31
0.0
  0
LINE
  5
22AA3
330
22A57
100
AcDbEntity
  8
0
  6
CONTINUOUS
100
AcDbLine
 10
30.74199999996925
 20
5.68616219786697
 30
0.0
 11
29.30199999996933
 21
7.126162197866894
 31
0.0
  0
LINE
  5
22AA4
330
22A57
100
AcDbEntity
  8
0
  6
CONTINUOUS
100
AcDbLine
 10
30.74199999996925
 20
6.359681406947153
 30
0.0
 11
29.30199999996933
 21
7.799681406947081
 31
0.0
  0
LINE
  5
22AA5
330
22A57
100
AcDbEntity
  8
0
  6
CONTINUOUS
100
AcDbLine
 10
30.74199999996926
 20
7.033200616027337
 30
0.0
 11
29.30199999996933
 21
8.473200616027269
 31
0.0
  0
LINE
  5
22AA6
330
22A57
100
AcDbEntity
  8
0
  6
CONTINUOUS
100
AcDbLine
 10
30.74199999996926
 20
7.706719825107518
 30
0.0
 11
29.68561982508552
 21
8.763099999991255
 31
0.0
  0
LINE
  5
22AA7
330
22A57
100
AcDbEntity
  8
0
  6
CONTINUOUS
100
AcDbLine
 10
30.74199999996926
 20
8.380239034187703
 30
0.0
 11
30.35913903416571
 21
8.763099999991255
 31
0.0
  0
ENDBLK
  5
22B4A
330
22A57
100
AcDbEntity
  8
0
100
AcDbBlockEnd
  0
BLOCK
  5
22B4B
330
22AA8
100
AcDbEntity
  8
0
100
AcDbBlockBegin
  2
*X97
 70
     1
 10
0.0
 20
0.0
 30
0.0
  3
*X97
  1

  0
LINE
  5
22AA9
330
22AA8
100
AcDbEntity
  8
0
  6
CONTINUOUS
100
AcDbLine
 10
31.64199999996833
 20
8.5350582899136
 30
0.0
 11
31.87004171004599
 21
8.763099999991255
 31
0.0
  0
LINE
  5
22AAA
330
22AA8
100
AcDbEntity
  8
0
  6
CONTINUOUS
100
AcDbLine
 10
31.64199999996833
 20
7.861539080833413
 30
0.0
 11
32.54356091912618
 21
8.763099999991255
 31
0.0
  0
LINE
  5
22AAB
330
22AA8
100
AcDbEntity
  8
0
  6
CONTINUOUS
100
AcDbLine
 10
31.64199999996833
 20
7.188019871753227
 30
0.0
 11
33.08199999996839
 21
8.628019871753281
 31
0.0
  0
LINE
  5
22AAC
330
22AA8
100
AcDbEntity
  8
0
  6
CONTINUOUS
100
AcDbLine
 10
31.64199999996833
 20
6.514500662673041
 30
0.0
 11
33.08199999996839
 21
7.954500662673095
 31
0.0
  0
LINE
  5
22AAD
330
22AA8
100
AcDbEntity
  8
0
  6
CONTINUOUS
100
AcDbLine
 10
31.64199999996833
 20
5.840981453592855
 30
0.0
 11
33.08199999996839
 21
7.28098145359291
 31
0.0
  0
LINE
  5
22AAE
330
22AA8
100
AcDbEntity
  8
0
  6
CONTINUOUS
100
AcDbLine
 10
31.64199999996833
 20
5.167462244512668
 30
0.0
 11
33.08199999996839
 21
6.607462244512723
 31
0.0
  0
LINE
  5
22AAF
330
22AA8
100
AcDbEntity
  8
0
  6
CONTINUOUS
100
AcDbLine
 10
31.64199999996833
 20
4.493943035432482
 30
0.0
 11
33.08199999996839
 21
5.933943035432536
 31
0.0
  0
LINE
  5
22AB0
330
22AA8
100
AcDbEntity
  8
0
  6
CONTINUOUS
100
AcDbLine
 10
31.64199999996833
 20
3.820423826352294
 30
0.0
 11
33.08199999996839
 21
5.260423826352349
 31
0.0
  0
LINE
  5
22AB1
330
22AA8
100
AcDbEntity
  8
0
  6
CONTINUOUS
100
AcDbLine
 10
31.64199999996833
 20
3.146904617272108
 30
0.0
 11
33.08199999996839
 21
4.586904617272163
 31
0.0
  0
LINE
  5
22AB2
330
22AA8
100
AcDbEntity
  8
0
  6
CONTINUOUS
100
AcDbLine
 10
36.23199999996837
 20
8.410423826352327
 30
0.0
 11
36.58467617360729
 21
8.763099999991255
 31
0.0
  0
LINE
  5
22AB3
330
22AA8
100
AcDbEntity
  8
0
  6
CONTINUOUS
100
AcDbLine
 10
36.23199999996837
 20
7.73690461727214
 30
0.0
 11
37.25819538268748
 21
8.763099999991255
 31
0.0
  0
LINE
  5
22AB4
330
22AA8
100
AcDbEntity
  8
0
  6
CONTINUOUS
100
AcDbLine
 10
31.64323424774199
 20
2.474619655965573
 30
0.0
 11
33.08199999996839
 21
3.913385408191976
 31
0.0
  0
LINE
  5
22AB5
330
22AA8
100
AcDbEntity
  8
0
  6
CONTINUOUS
100
AcDbLine
 10
31.74419223861915
 20
1.902058437762552
 30
0.0
 11
33.08199999996839
 21
3.239866199111789
 31
0.0
  0
LINE
  5
22AB6
330
22AA8
100
AcDbEntity
  8
0
  6
CONTINUOUS
100
AcDbLine
 10
36.23199999996837
 20
7.063385408191953
 30
0.0
 11
37.67199999996831
 21
8.503385408191894
 31
0.0
  0
LINE
  5
22AB7
330
22AA8
100
AcDbEntity
  8
0
  6
CONTINUOUS
100
AcDbLine
 10
36.23199999996837
 20
6.389866199111767
 30
0.0
 11
37.67199999996831
 21
7.829866199111708
 31
0.0
  0
LINE
  5
22AB8
330
22AA8
100
AcDbEntity
  8
0
  6
CONTINUOUS
100
AcDbLine
 10
31.91111233414976
 20
1.39545932421297
 30
0.0
 11
33.08199999996839
 21
2.566346990031603
 31
0.0
  0
LINE
  5
22AB9
330
22AA8
100
AcDbEntity
  8
0
  6
CONTINUOUS
100
AcDbLine
 10
36.23199999996837
 20
5.71634699003158
 30
0.0
 11
37.67199999996831
 21
7.156346990031522
 31
0.0
  0
LINE
  5
22ABA
330
22AA8
100
AcDbEntity
  8
0
  6
CONTINUOUS
100
AcDbLine
 10
32.1576374746103
 20
0.9684652555933289
 30
0.0
 11
33.20642631446081
 21
2.017254095443838
 31
0.0
  0
LINE
  5
22ABB
330
22AA8
100
AcDbEntity
  8
0
  6
CONTINUOUS
100
AcDbLine
 10
36.23199999996837
 20
5.042827780951393
 30
0.0
 11
37.67199999996831
 21
6.482827780951334
 31
0.0
  0
LINE
  5
22ABC
330
22AA8
100
AcDbEntity
  8
0
  6
CONTINUOUS
100
AcDbLine
 10
32.47774023927325
 20
0.6150488111760914
 30
0.0
 11
33.49903056428258
 21
1.636339136185419
 31
0.0
  0
LINE
  5
22ABD
330
22AA8
100
AcDbEntity
  8
0
  6
CONTINUOUS
100
AcDbLine
 10
36.23199999996837
 20
4.369308571871207
 30
0.0
 11
37.67199999996831
 21
5.809308571871148
 31
0.0
  0
LINE
  5
22ABE
330
22AA8
100
AcDbEntity
  8
0
  6
CONTINUOUS
100
AcDbLine
 10
32.84396249154443
 20
0.3077518543670883
 30
0.0
 11
33.93324121824649
 21
1.397030581069146
 31
0.0
  0
LINE
  5
22ABF
330
22AA8
100
AcDbEntity
  8
0
  6
CONTINUOUS
100
AcDbLine
 10
36.23199999996837
 20
3.695789362791021
 30
0.0
 11
37.67199999996831
 21
5.135789362790963
 31
0.0
  0
LINE
  5
22AC0
330
22AA8
100
AcDbEntity
  8
0
  6
CONTINUOUS
100
AcDbLine
 10
33.30186329036846
 20
0.0921334441109263
 30
0.0
 11
34.46442907112041
 21
1.254699224862875
 31
0.0
  0
LINE
  5
22AC1
330
22AA8
100
AcDbEntity
  8
0
  6
CONTINUOUS
100
AcDbLine
 10
36.23199999996837
 20
3.022270153710834
 30
0.0
 11
37.67199999996831
 21
4.462270153710776
 31
0.0
  0
LINE
  5
22AC2
330
22AA8
100
AcDbEntity
  8
0
  6
CONTINUOUS
100
AcDbLine
 10
33.79565647746294
 20
-0.0875925778747773
 30
0.0
 11
35.24350171668284
 21
1.360252661345124
 31
0.0
  0
LINE
  5
22AC3
330
22AA8
100
AcDbEntity
  8
0
  6
CONTINUOUS
100
AcDbLine
 10
36.18336676155003
 20
2.300117706212308
 30
0.0
 11
37.67199999996831
 21
3.788750944630589
 31
0.0
  0
LINE
  5
22AC4
330
22AA8
100
AcDbEntity
  8
0
  6
CONTINUOUS
100
AcDbLine
 10
34.37182574910968
 20
-0.184942515308224
 30
0.0
 11
37.67199999996831
 21
3.115231735550402
 31
0.0
  0
LINE
  5
22AC5
330
22AA8
100
AcDbEntity
  8
0
  6
CONTINUOUS
100
AcDbLine
 10
35.0453449581892
 20
-0.1849425153088955
 30
0.0
 11
37.66345697088136
 21
2.433169497383271
 31
0.0
  0
LINE
  5
22AC6
330
22AA8
100
AcDbEntity
  8
0
  6
CONTINUOUS
100
AcDbLine
 10
35.98667157609191
 20
0.0828648935136398
 30
0.0
 11
37.51927401744566
 21
1.615467334867382
 31
0.0
  0
LINE
  5
22AC7
330
22AA8
100
AcDbEntity
  8
0
  6
CONTINUOUS
100
AcDbLine
 10
32.27747408544484
 20
0.7830920669904482
 30
0.0
 11
32.24716210471949
 21
0.8134040477157893
 31
0.0
  0
LINE
  5
22AC8
330
22AA8
100
AcDbEntity
  8
0
  6
CONTINUOUS
100
AcDbLine
 10
33.83656881101902
 20
-0.1024834495035494
 30
0.0
 11
31.72538911593758
 21
2.008696245577891
 31
0.0
  0
LINE
  5
22AC9
330
22AA8
100
AcDbEntity
  8
0
  6
CONTINUOUS
100
AcDbLine
 10
34.5925470859041
 20
-0.1849425153084434
 30
0.0
 11
31.64199999996833
 21
2.765604570627322
 31
0.0
  0
LINE
  5
22ACA
330
22AA8
100
AcDbEntity
  8
0
  6
CONTINUOUS
100
AcDbLine
 10
35.26201302775981
 20
-0.1808892480839752
 30
0.0
 11
31.64199999996833
 21
3.439123779707508
 31
0.0
  0
LINE
  5
22ACB
330
22AA8
100
AcDbEntity
  8
0
  6
CONTINUOUS
100
AcDbLine
 10
35.75580621485512
 20
-0.0011632260990879
 30
0.0
 11
34.51294304365551
 21
1.241699945100514
 31
0.0
  0
LINE
  5
22ACC
330
22AA8
100
AcDbEntity
  8
0
  6
CONTINUOUS
100
AcDbLine
 10
33.08199999996839
 20
2.672642988787641
 30
0.0
 11
31.64199999996833
 21
4.112642988787695
 31
0.0
  0
LINE
  5
22ACD
330
22AA8
100
AcDbEntity
  8
0
  6
CONTINUOUS
100
AcDbLine
 10
36.24959940195042
 20
0.1785627958857976
 30
0.0
 11
35.10501653033629
 21
1.323145667499924
 31
0.0
  0
LINE
  5
22ACE
330
22AA8
100
AcDbEntity
  8
0
  6
CONTINUOUS
100
AcDbLine
 10
33.08199999996839
 20
3.346162197867827
 30
0.0
 11
31.64199999996833
 21
4.786162197867881
 31
0.0
  0
LINE
  5
22ACF
330
22AA8
100
AcDbEntity
  8
0
  6
CONTINUOUS
100
AcDbLine
 10
36.64615197150552
 20
0.4555294354108876
 30
0.0
 11
35.6362043832099
 21
1.465477023706505
 31
0.0
  0
LINE
  5
22AD0
330
22AA8
100
AcDbEntity
  8
0
  6
CONTINUOUS
100
AcDbLine
 10
33.08199999996839
 20
4.019681406948013
 30
0.0
 11
31.64199999996833
 21
5.459681406948068
 31
0.0
  0
LINE
  5
22AD1
330
22AA8
100
AcDbEntity
  8
0
  6
CONTINUOUS
100
AcDbLine
 10
37.0123742237774
 20
0.7628263922191891
 30
0.0
 11
35.97691545773309
 21
1.798285158263504
 31
0.0
  0
LINE
  5
22AD2
330
22AA8
100
AcDbEntity
  8
0
  6
CONTINUOUS
100
AcDbLine
 10
33.08199999996839
 20
4.6932006160282
 30
0.0
 11
31.64199999996833
 21
6.133200616028255
 31
0.0
  0
LINE
  5
22AD3
330
22AA8
100
AcDbEntity
  8
0
  6
CONTINUOUS
100
AcDbLine
 10
37.27491524157143
 20
1.173804583505349
 30
0.0
 11
36.17602012811361
 21
2.272699696963169
 31
0.0
  0
LINE
  5
22AD4
330
22AA8
100
AcDbEntity
  8
0
  6
CONTINUOUS
100
AcDbLine
 10
33.08199999996839
 20
5.366719825108387
 30
0.0
 11
31.64199999996833
 21
6.806719825108441
 31
0.0
  0
LINE
  5
22AD5
330
22AA8
100
AcDbEntity
  8
0
  6
CONTINUOUS
100
AcDbLine
 10
37.51739996707661
 20
1.604839067080355
 30
0.0
 11
36.23199999996837
 21
2.890239034188595
 31
0.0
  0
LINE
  5
22AD6
330
22AA8
100
AcDbEntity
  8
0
  6
CONTINUOUS
100
AcDbLine
 10
37.6183579579535
 20
2.177400285283649
 30
0.0
 11
36.23199999996837
 21
3.563758243268782
 31
0.0
  0
LINE
  5
22AD7
330
22AA8
100
AcDbEntity
  8
0
  6
CONTINUOUS
100
AcDbLine
 10
33.08199999996839
 20
6.040239034188573
 30
0.0
 11
31.64199999996833
 21
7.480239034188628
 31
0.0
  0
LINE
  5
22AD8
330
22AA8
100
AcDbEntity
  8
0
  6
CONTINUOUS
100
AcDbLine
 10
33.08199999996839
 20
6.713758243268759
 30
0.0
 11
31.64199999996833
 21
8.153758243268815
 31
0.0
  0
LINE
  5
22AD9
330
22AA8
100
AcDbEntity
  8
0
  6
CONTINUOUS
100
AcDbLine
 10
37.67199999996831
 20
2.797277452349027
 30
0.0
 11
36.23199999996837
 21
4.237277452348969
 31
0.0
  0
LINE
  5
22ADA
330
22AA8
100
AcDbEntity
  8
0
  6
CONTINUOUS
100
AcDbLine
 10
37.67199999996831
 20
3.470796661429214
 30
0.0
 11
36.23199999996837
 21
4.910796661429155
 31
0.0
  0
LINE
  5
22ADB
330
22AA8
100
AcDbEntity
  8
0
  6
CONTINUOUS
100
AcDbLine
 10
37.67199999996831
 20
4.1443158705094
 30
0.0
 11
36.23199999996837
 21
5.584315870509341
 31
0.0
  0
LINE
  5
22ADC
330
22AA8
100
AcDbEntity
  8
0
  6
CONTINUOUS
100
AcDbLine
 10
33.08199999996839
 20
7.387277452348946
 30
0.0
 11
31.70617745232608
 21
8.763099999991255
 31
0.0
  0
LINE
  5
22ADD
330
22AA8
100
AcDbEntity
  8
0
  6
CONTINUOUS
100
AcDbLine
 10
33.08199999996839
 20
8.060796661429134
 30
0.0
 11
32.37969666140626
 21
8.763099999991255
 31
0.0
  0
LINE
  5
22ADE
330
22AA8
100
AcDbEntity
  8
0
  6
CONTINUOUS
100
AcDbLine
 10
33.08199999996839
 20
8.734315870509318
 30
0.0
 11
33.05321587048645
 21
8.763099999991255
 31
0.0
  0
LINE
  5
22ADF
330
22AA8
100
AcDbEntity
  8
0
  6
CONTINUOUS
100
AcDbLine
 10
37.67199999996831
 20
4.817835079589586
 30
0.0
 11
36.23199999996837
 21
6.257835079589528
 31
0.0
  0
LINE
  5
22AE0
330
22AA8
100
AcDbEntity
  8
0
  6
CONTINUOUS
100
AcDbLine
 10
37.67199999996831
 20
5.491354288669772
 30
0.0
 11
36.23199999996837
 21
6.931354288669715
 31
0.0
  0
LINE
  5
22AE1
330
22AA8
100
AcDbEntity
  8
0
  6
CONTINUOUS
100
AcDbLine
 10
37.67199999996831
 20
6.164873497749959
 30
0.0
 11
36.23199999996837
 21
7.6048734977499
 31
0.0
  0
LINE
  5
22AE2
330
22AA8
100
AcDbEntity
  8
0
  6
CONTINUOUS
100
AcDbLine
 10
37.67199999996831
 20
6.838392706830145
 30
0.0
 11
36.23199999996837
 21
8.278392706830086
 31
0.0
  0
LINE
  5
22AE3
330
22AA8
100
AcDbEntity
  8
0
  6
CONTINUOUS
100
AcDbLine
 10
37.67199999996831
 20
7.511911915910333
 30
0.0
 11
36.42081191588738
 21
8.763099999991255
 31
0.0
  0
LINE
  5
22AE4
330
22AA8
100
AcDbEntity
  8
0
  6
CONTINUOUS
100
AcDbLine
 10
37.67199999996831
 20
8.185431124990519
 30
0.0
 11
37.09433112496757
 21
8.763099999991255
 31
0.0
  0
ENDBLK
  5
22B4C
330
22AA8
100
AcDbEntity
  8
0
100
AcDbBlockEnd
  0
BLOCK
  5
22B4D
330
22AE5
100
AcDbEntity
  8
0
100
AcDbBlockBegin
  2
*X98
 70
     1
 10
0.0
 20
0.0
 30
0.0
  3
*X98
  1

  0
LINE
  5
22AE6
330
22AE5
100
AcDbEntity
  8
0
  6
CONTINUOUS
100
AcDbLine
 10
38.60499999996136
 20
8.762866199104765
 30
0.0
 11
38.71672554182345
 21
8.874591740966855
 31
0.0
  0
LINE
  5
22AE7
330
22AE5
100
AcDbEntity
  8
0
  6
CONTINUOUS
100
AcDbLine
 10
38.60499999996136
 20
8.089346990024577
 30
0.0
 11
39.03418785440363
 21
8.518534844466847
 31
0.0
  0
LINE
  5
22AE8
330
22AE5
100
AcDbEntity
  8
0
  6
CONTINUOUS
100
AcDbLine
 10
38.60499999996136
 20
7.41582778094439
 30
0.0
 11
39.35165016698382
 21
8.16247794796684
 31
0.0
  0
LINE
  5
22AE9
330
22AE5
100
AcDbEntity
  8
0
  6
CONTINUOUS
100
AcDbLine
 10
38.60499999996136
 20
6.742308571864204
 30
0.0
 11
39.66911247956399
 21
7.806421051466834
 31
0.0
  0
LINE
  5
22AEA
330
22AE5
100
AcDbEntity
  8
0
  6
CONTINUOUS
100
AcDbLine
 10
38.60499999996136
 20
6.068789362784018
 30
0.0
 11
39.98657479214418
 21
7.450364154966827
 31
0.0
  0
LINE
  5
22AEB
330
22AE5
100
AcDbEntity
  8
0
  6
CONTINUOUS
100
AcDbLine
 10
38.60499999996136
 20
5.395270153703832
 30
0.0
 11
40.30403710472435
 21
7.09430725846682
 31
0.0
  0
LINE
  5
22AEC
330
22AE5
100
AcDbEntity
  8
0
  6
CONTINUOUS
100
AcDbLine
 10
38.60499999996136
 20
4.721750944623645
 30
0.0
 11
40.62149941730453
 21
6.738250361966813
 31
0.0
  0
LINE
  5
22AED
330
22AE5
100
AcDbEntity
  8
0
  6
CONTINUOUS
100
AcDbLine
 10
38.60499999996136
 20
4.048231735543458
 30
0.0
 11
40.93896172988471
 21
6.382193465466806
 31
0.0
  0
LINE
  5
22AEE
330
22AE5
100
AcDbEntity
  8
0
  6
CONTINUOUS
100
AcDbLine
 10
38.60499999996136
 20
3.374712526463272
 30
0.0
 11
40.02599999995994
 21
4.795712526461843
 31
0.0
  0
LINE
  5
22AEF
330
22AE5
100
AcDbEntity
  8
0
  6
CONTINUOUS
100
AcDbLine
 10
38.60499999996136
 20
2.701193317383085
 30
0.0
 11
40.02599999995994
 21
4.122193317381657
 31
0.0
  0
LINE
  5
22AF0
330
22AE5
100
AcDbEntity
  8
0
  6
CONTINUOUS
100
AcDbLine
 10
40.28339754687704
 20
5.053110073378947
 30
0.0
 11
41.25642404246489
 21
6.026136568966799
 31
0.0
  0
LINE
  5
22AF1
330
22AE5
100
AcDbEntity
  8
0
  6
CONTINUOUS
100
AcDbLine
 10
40.60085985945722
 20
4.697053176878939
 30
0.0
 11
41.57388635504507
 21
5.670079672466793
 31
0.0
  0
LINE
  5
22AF2
330
22AE5
100
AcDbEntity
  8
0
  6
CONTINUOUS
100
AcDbLine
 10
43.57899999995641
 20
8.348712526458318
 30
0.0
 11
43.99338747348935
 21
8.763099999991255
 31
0.0
  0
LINE
  5
22AF3
330
22AE5
100
AcDbEntity
  8
0
  6
CONTINUOUS
100
AcDbLine
 10
43.57899999995641
 20
7.675193317378131
 30
0.0
 11
44.66690668256953
 21
8.763099999991255
 31
0.0
  0
LINE
  5
22AF4
330
22AE5
100
AcDbEntity
  8
0
  6
CONTINUOUS
100
AcDbLine
 10
38.60499999996136
 20
2.027674108302898
 30
0.0
 11
40.02599999995994
 21
3.44867410830147
 31
0.0
  0
LINE
  5
22AF5
330
22AE5
100
AcDbEntity
  8
0
  6
CONTINUOUS
100
AcDbLine
 10
38.60499999996136
 20
1.354154899222712
 30
0.0
 11
40.02599999995994
 21
2.775154899221284
 31
0.0
  0
LINE
  5
22AF6
330
22AE5
100
AcDbEntity
  8
0
  6
CONTINUOUS
100
AcDbLine
 10
38.60499999996136
 20
0.6806356901425255
 30
0.0
 11
40.02599999995994
 21
2.101635690141098
 31
0.0
  0
LINE
  5
22AF7
330
22AE5
100
AcDbEntity
  8
0
  6
CONTINUOUS
100
AcDbLine
 10
38.60499999996136
 20
0.0071164810623383
 30
0.0
 11
40.02599999995994
 21
1.428116481060911
 31
0.0
  0
LINE
  5
22AF8
330
22AE5
100
AcDbEntity
  8
0
  6
CONTINUOUS
100
AcDbLine
 10
40.9183221720374
 20
4.340996280378933
 30
0.0
 11
41.89134866762525
 21
5.314022775966786
 31
0.0
  0
LINE
  5
22AF9
330
22AE5
100
AcDbEntity
  8
0
  6
CONTINUOUS
100
AcDbLine
 10
41.23578448461758
 20
3.984939383878926
 30
0.0
 11
42.20881098020543
 21
4.957965879466778
 31
0.0
  0
LINE
  5
22AFA
330
22AE5
100
AcDbEntity
  8
0
  6
CONTINUOUS
100
AcDbLine
 10
41.55324679719776
 20
3.628882487378919
 30
0.0
 11
42.52627329278561
 21
4.601908982966772
 31
0.0
  0
LINE
  5
22AFB
330
22AE5
100
AcDbEntity
  8
0
  6
CONTINUOUS
100
AcDbLine
 10
41.87070910977793
 20
3.272825590878912
 30
0.0
 11
42.84373560536579
 21
4.245852086466765
 31
0.0
  0
LINE
  5
22AFC
330
22AE5
100
AcDbEntity
  8
0
  6
CONTINUOUS
100
AcDbLine
 10
43.57899999995641
 20
7.001674108297943
 30
0.0
 11
44.99999999995498
 21
8.422674108296516
 31
0.0
  0
LINE
  5
22AFD
330
22AE5
100
AcDbEntity
  8
0
  6
CONTINUOUS
100
AcDbLine
 10
43.57899999995641
 20
6.328154899217758
 30
0.0
 11
44.99999999995498
 21
7.749154899216329
 31
0.0
  0
LINE
  5
22AFE
330
22AE5
100
AcDbEntity
  8
0
  6
CONTINUOUS
100
AcDbLine
 10
43.57899999995641
 20
5.654635690137571
 30
0.0
 11
44.99999999995498
 21
7.075635690136142
 31
0.0
  0
LINE
  5
22AFF
330
22AE5
100
AcDbEntity
  8
0
  6
CONTINUOUS
100
AcDbLine
 10
43.57899999995641
 20
4.981116481057384
 30
0.0
 11
44.99999999995498
 21
6.402116481055955
 31
0.0
  0
LINE
  5
22B00
330
22AE5
100
AcDbEntity
  8
0
  6
CONTINUOUS
100
AcDbLine
 10
39.27140272797921
 20
-0.0000000000000009
 30
0.0
 11
40.02599999995994
 21
0.7545972719807246
 31
0.0
  0
LINE
  5
22B01
330
22AE5
100
AcDbEntity
  8
0
  6
CONTINUOUS
100
AcDbLine
 10
39.9449219370594
 20
-0.0000000000000009
 30
0.0
 11
40.02599999995994
 21
0.0810780629005379
 31
0.0
  0
LINE
  5
22B02
330
22AE5
100
AcDbEntity
  8
0
  6
CONTINUOUS
100
AcDbLine
 10
42.18817142235812
 20
2.916768694378905
 30
0.0
 11
43.16119791794597
 21
3.889795189966758
 31
0.0
  0
LINE
  5
22B03
330
22AE5
100
AcDbEntity
  8
0
  6
CONTINUOUS
100
AcDbLine
 10
42.50563373493829
 20
2.560711797878898
 30
0.0
 11
43.47866023052615
 21
3.533738293466751
 31
0.0
  0
LINE
  5
22B04
330
22AE5
100
AcDbEntity
  8
0
  6
CONTINUOUS
100
AcDbLine
 10
43.57899999995641
 20
4.307597271977198
 30
0.0
 11
44.99999999995498
 21
5.728597271975769
 31
0.0
  0
LINE
  5
22B05
330
22AE5
100
AcDbEntity
  8
0
  6
CONTINUOUS
100
AcDbLine
 10
43.57899999995641
 20
3.634078062897011
 30
0.0
 11
44.99999999995498
 21
5.055078062895582
 31
0.0
  0
LINE
  5
22B06
330
22AE5
100
AcDbEntity
  8
0
  6
CONTINUOUS
100
AcDbLine
 10
42.82309604751848
 20
2.204654901378891
 30
0.0
 11
44.99999999995498
 21
4.381558853815395
 31
0.0
  0
LINE
  5
22B07
330
22AE5
100
AcDbEntity
  8
0
  6
CONTINUOUS
100
AcDbLine
 10
43.14055836009865
 20
1.848598004878885
 30
0.0
 11
44.99999999995498
 21
3.70803964473521
 31
0.0
  0
LINE
  5
22B08
330
22AE5
100
AcDbEntity
  8
0
  6
CONTINUOUS
100
AcDbLine
 10
43.45802067267883
 20
1.492541108378878
 30
0.0
 11
44.99999999995498
 21
3.034520435655023
 31
0.0
  0
LINE
  5
22B09
330
22AE5
100
AcDbEntity
  8
0
  6
CONTINUOUS
100
AcDbLine
 10
43.77548298525902
 20
1.136484211878871
 30
0.0
 11
44.99999999995498
 21
2.361001226574837
 31
0.0
  0
LINE
  5
22B0A
330
22AE5
100
AcDbEntity
  8
0
  6
CONTINUOUS
100
AcDbLine
 10
44.09294529783919
 20
0.7804273153788639
 30
0.0
 11
44.99999999995498
 21
1.687482017494649
 31
0.0
  0
LINE
  5
22B0B
330
22AE5
100
AcDbEntity
  8
0
  6
CONTINUOUS
100
AcDbLine
 10
44.41040761041938
 20
0.4243704188788566
 30
0.0
 11
44.99999999995498
 21
1.013962808414463
 31
0.0
  0
LINE
  5
22B0C
330
22AE5
100
AcDbEntity
  8
0
  6
CONTINUOUS
100
AcDbLine
 10
44.72786992299955
 20
0.0683135223788494
 30
0.0
 11
44.99999999995498
 21
0.340443599334276
 31
0.0
  0
LINE
  5
22B0D
330
22AE5
100
AcDbEntity
  8
0
  6
CONTINUOUS
100
AcDbLine
 10
39.12223903415696
 20
-0.0000000000000009
 30
0.0
 11
38.60499999996136
 21
0.5172390341955961
 31
0.0
  0
LINE
  5
22B0E
330
22AE5
100
AcDbEntity
  8
0
  6
CONTINUOUS
100
AcDbLine
 10
39.79575824323715
 20
-0.0000000000000009
 30
0.0
 11
38.60499999996136
 21
1.190758243275783
 31
0.0
  0
LINE
  5
22B0F
330
22AE5
100
AcDbEntity
  8
0
  6
CONTINUOUS
100
AcDbLine
 10
40.02599999995994
 20
0.443277452357397
 30
0.0
 11
38.60499999996136
 21
1.864277452355969
 31
0.0
  0
LINE
  5
22B10
330
22AE5
100
AcDbEntity
  8
0
  6
CONTINUOUS
100
AcDbLine
 10
40.02599999995994
 20
1.116796661437583
 30
0.0
 11
38.60499999996136
 21
2.537796661436155
 31
0.0
  0
LINE
  5
22B11
330
22AE5
100
AcDbEntity
  8
0
  6
CONTINUOUS
100
AcDbLine
 10
40.02599999995994
 20
1.79031587051777
 30
0.0
 11
38.60499999996136
 21
3.211315870516341
 31
0.0
  0
LINE
  5
22B12
330
22AE5
100
AcDbEntity
  8
0
  6
CONTINUOUS
100
AcDbLine
 10
40.02599999995994
 20
2.463835079597956
 30
0.0
 11
38.60499999996136
 21
3.884835079596527
 31
0.0
  0
LINE
  5
22B13
330
22AE5
100
AcDbEntity
  8
0
  6
CONTINUOUS
100
AcDbLine
 10
40.02599999995994
 20
3.137354288678143
 30
0.0
 11
38.60499999996136
 21
4.558354288676714
 31
0.0
  0
LINE
  5
22B14
330
22AE5
100
AcDbEntity
  8
0
  6
CONTINUOUS
100
AcDbLine
 10
40.02599999995994
 20
3.810873497758329
 30
0.0
 11
38.60499999996136
 21
5.2318734977569
 31
0.0
  0
LINE
  5
22B15
330
22AE5
100
AcDbEntity
  8
0
  6
CONTINUOUS
100
AcDbLine
 10
40.02599999995994
 20
4.484392706838515
 30
0.0
 11
38.60499999996136
 21
5.905392706837086
 31
0.0
  0
LINE
  5
22B16
330
22AE5
100
AcDbEntity
  8
0
  6
CONTINUOUS
100
AcDbLine
 10
44.99999999995498
 20
0.183911915923658
 30
0.0
 11
41.53858364506288
 21
3.64532827081576
 31
0.0
  0
LINE
  5
22B17
330
22AE5
100
AcDbEntity
  8
0
  6
CONTINUOUS
100
AcDbLine
 10
40.02599999995994
 20
5.157911915918703
 30
0.0
 11
38.60499999996136
 21
6.578911915917274
 31
0.0
  0
LINE
  5
22B18
330
22AE5
100
AcDbEntity
  8
0
  6
CONTINUOUS
100
AcDbLine
 10
44.99999999995498
 20
0.8574311250038447
 30
0.0
 11
38.60499999996136
 21
7.25243112499746
 31
0.0
  0
LINE
  5
22B19
330
22AE5
100
AcDbEntity
  8
0
  6
CONTINUOUS
100
AcDbLine
 10
44.99999999995498
 20
1.530950334084031
 30
0.0
 11
38.60499999996136
 21
7.925950334077647
 31
0.0
  0
LINE
  5
22B1A
330
22AE5
100
AcDbEntity
  8
0
  6
CONTINUOUS
100
AcDbLine
 10
44.99999999995498
 20
2.204469543164218
 30
0.0
 11
43.57899999995641
 21
3.625469543162789
 31
0.0
  0
LINE
  5
22B1B
330
22AE5
100
AcDbEntity
  8
0
  6
CONTINUOUS
100
AcDbLine
 10
41.89876730984767
 20
5.305702233271528
 30
0.0
 11
38.60499999996136
 21
8.599469543157834
 31
0.0
  0
LINE
  5
22B1C
330
22AE5
100
AcDbEntity
  8
0
  6
CONTINUOUS
100
AcDbLine
 10
44.99999999995498
 20
2.877988752244405
 30
0.0
 11
43.57899999995641
 21
4.298988752242975
 31
0.0
  0
LINE
  5
22B1D
330
22AE5
100
AcDbEntity
  8
0
  6
CONTINUOUS
100
AcDbLine
 10
44.99999999995498
 20
3.551507961324591
 30
0.0
 11
43.57899999995641
 21
4.972507961323163
 31
0.0
  0
LINE
  5
22B1E
330
22AE5
100
AcDbEntity
  8
0
  6
CONTINUOUS
100
AcDbLine
 10
44.99999999995498
 20
4.225027170404777
 30
0.0
 11
43.57899999995641
 21
5.646027170403348
 31
0.0
  0
LINE
  5
22B1F
330
22AE5
100
AcDbEntity
  8
0
  6
CONTINUOUS
100
AcDbLine
 10
44.99999999995498
 20
4.898546379484964
 30
0.0
 11
43.57899999995641
 21
6.319546379483535
 31
0.0
  0
LINE
  5
22B20
330
22AE5
100
AcDbEntity
  8
0
  6
CONTINUOUS
100
AcDbLine
 10
44.99999999995498
 20
5.572065588565151
 30
0.0
 11
43.57899999995641
 21
6.993065588563722
 31
0.0
  0
LINE
  5
22B21
330
22AE5
100
AcDbEntity
  8
0
  6
CONTINUOUS
100
AcDbLine
 10
44.99999999995498
 20
6.245584797645336
 30
0.0
 11
43.57899999995641
 21
7.666584797643908
 31
0.0
  0
LINE
  5
22B22
330
22AE5
100
AcDbEntity
  8
0
  6
CONTINUOUS
100
AcDbLine
 10
44.99999999995498
 20
6.919104006725522
 30
0.0
 11
43.57899999995641
 21
8.340104006724093
 31
0.0
  0
LINE
  5
22B23
330
22AE5
100
AcDbEntity
  8
0
  6
CONTINUOUS
100
AcDbLine
 10
44.99999999995498
 20
7.592623215805709
 30
0.0
 11
43.82952321576943
 21
8.763099999991255
 31
0.0
  0
LINE
  5
22B24
330
22AE5
100
AcDbEntity
  8
0
  6
CONTINUOUS
100
AcDbLine
 10
44.99999999995498
 20
8.266142424885896
 30
0.0
 11
44.50304242484962
 21
8.763099999991255
 31
0.0
  0
ENDBLK
  5
22B4E
330
22AE5
100
AcDbEntity
  8
0
100
AcDbBlockEnd
  0
BLOCK
  5
22B4F
330
22B25
100
AcDbEntity
  8
0
100
AcDbBlockBegin
  2
*X99
 70
     1
 10
0.0
 20
0.0
 30
0.0
  3
*X99
  1

  0
LINE
  5
22B26
330
22B25
100
AcDbEntity
  8
0
  6
CONTINUOUS
100
AcDbLine
 10
0.0
 20
8.548461116714023
 30
0.0
 11
0.2146388832772324
 21
8.763099999991255
 31
0.0
  0
LINE
  5
22B27
330
22B25
100
AcDbEntity
  8
0
  6
CONTINUOUS
100
AcDbLine
 10
-0.0000000000000002
 20
7.874941907633837
 30
0.0
 11
0.8881580923574184
 21
8.763099999991255
 31
0.0
  0
LINE
  5
22B28
330
22B25
100
AcDbEntity
  8
0
  6
CONTINUOUS
100
AcDbLine
 10
0.0
 20
7.20142269855365
 30
0.0
 11
1.420999999998572
 21
8.622422698552223
 31
0.0
  0
LINE
  5
22B29
330
22B25
100
AcDbEntity
  8
0
  6
CONTINUOUS
100
AcDbLine
 10
-0.0000000000000001
 20
6.527903489473465
 30
0.0
 11
1.420999999998571
 21
7.948903489472036
 31
0.0
  0
LINE
  5
22B2A
330
22B25
100
AcDbEntity
  8
0
  6
CONTINUOUS
100
AcDbLine
 10
-0.0000000000000002
 20
5.854384280393278
 30
0.0
 11
1.420999999998571
 21
7.275384280391849
 31
0.0
  0
LINE
  5
22B2B
330
22B25
100
AcDbEntity
  8
0
  6
CONTINUOUS
100
AcDbLine
 10
-0.0000000000000002
 20
5.180865071313091
 30
0.0
 11
1.420999999998571
 21
6.601865071311663
 31
0.0
  0
LINE
  5
22B2C
330
22B25
100
AcDbEntity
  8
0
  6
CONTINUOUS
100
AcDbLine
 10
0.0
 20
4.507345862232905
 30
0.0
 11
1.420999999998571
 21
5.928345862231477
 31
0.0
  0
LINE
  5
22B2D
330
22B25
100
AcDbEntity
  8
0
  6
CONTINUOUS
100
AcDbLine
 10
-0.0000000000000003
 20
3.833826653152718
 30
0.0
 11
1.420999999998571
 21
5.25482665315129
 31
0.0
  0
LINE
  5
22B2E
330
22B25
100
AcDbEntity
  8
0
  6
CONTINUOUS
100
AcDbLine
 10
-0.0000000000000002
 20
3.160307444072532
 30
0.0
 11
1.420999999998571
 21
4.581307444071103
 31
0.0
  0
LINE
  5
22B2F
330
22B25
100
AcDbEntity
  8
0
  6
CONTINUOUS
100
AcDbLine
 10
-0.0000000000000001
 20
2.486788234992345
 30
0.0
 11
1.420999999998571
 21
3.907788234990917
 31
0.0
  0
LINE
  5
22B30
330
22B25
100
AcDbEntity
  8
0
  6
CONTINUOUS
100
AcDbLine
 10
-0.0000000000000006
 20
1.813269025912159
 30
0.0
 11
1.420999999998571
 21
3.234269025910731
 31
0.0
  0
LINE
  5
22B31
330
22B25
100
AcDbEntity
  8
0
  6
CONTINUOUS
100
AcDbLine
 10
0.0
 20
1.139749816831973
 30
0.0
 11
1.420999999998571
 21
2.560749816830544
 31
0.0
  0
LINE
  5
22B32
330
22B25
100
AcDbEntity
  8
0
  6
CONTINUOUS
100
AcDbLine
 10
0.0000000000000002
 20
0.466230607751787
 30
0.0
 11
1.420999999998571
 21
1.887230607750358
 31
0.0
  0
LINE
  5
22B33
330
22B25
100
AcDbEntity
  8
0
  6
CONTINUOUS
100
AcDbLine
 10
0.2072886013284003
 20
-0.0000000000000009
 30
0.0
 11
1.420999999998571
 21
1.213711398670171
 31
0.0
  0
LINE
  5
22B34
330
22B25
100
AcDbEntity
  8
0
  6
CONTINUOUS
100
AcDbLine
 10
0.8808078104085864
 20
-0.0000000000000009
 30
0.0
 11
1.420999999998571
 21
0.5401921895899839
 31
0.0
  0
LINE
  5
22B35
330
22B25
100
AcDbEntity
  8
0
  6
CONTINUOUS
100
AcDbLine
 10
0.0581249075061505
 20
-0.0000000000000009
 30
0.0
 11
-0.0000000000000002
 21
0.0581249075061496
 31
0.0
  0
LINE
  5
22B36
330
22B25
100
AcDbEntity
  8
0
  6
CONTINUOUS
100
AcDbLine
 10
0.7316441165863372
 20
-0.0000000000000009
 30
0.0
 11
-0.0000000000000002
 21
0.7316441165863363
 31
0.0
  0
LINE
  5
22B37
330
22B25
100
AcDbEntity
  8
0
  6
CONTINUOUS
100
AcDbLine
 10
1.405163325666523
 20
-0.0000000000000009
 30
0.0
 11
-0.0000000000000002
 21
1.405163325666523
 31
0.0
  0
LINE
  5
22B38
330
22B25
100
AcDbEntity
  8
0
  6
CONTINUOUS
100
AcDbLine
 10
1.420999999998572
 20
0.6576825347481381
 30
0.0
 11
-0.0000000000000001
 21
2.07868253474671
 31
0.0
  0
LINE
  5
22B39
330
22B25
100
AcDbEntity
  8
0
  6
CONTINUOUS
100
AcDbLine
 10
1.420999999998571
 20
1.331201743828324
 30
0.0
 11
-0.0000000000000001
 21
2.752201743826896
 31
0.0
  0
LINE
  5
22B3A
330
22B25
100
AcDbEntity
  8
0
  6
CONTINUOUS
100
AcDbLine
 10
1.420999999998571
 20
2.004720952908511
 30
0.0
 11
-0.0000000000000002
 21
3.425720952907082
 31
0.0
  0
LINE
  5
22B3B
330
22B25
100
AcDbEntity
  8
0
  6
CONTINUOUS
100
AcDbLine
 10
1.420999999998571
 20
2.678240161988697
 30
0.0
 11
-0.0000000000000001
 21
4.099240161987269
 31
0.0
  0
LINE
  5
22B3C
330
22B25
100
AcDbEntity
  8
0
  6
CONTINUOUS
100
AcDbLine
 10
1.420999999998572
 20
3.351759371068884
 30
0.0
 11
0.0
 21
4.772759371067455
 31
0.0
  0
LINE
  5
22B3D
330
22B25
100
AcDbEntity
  8
0
  6
CONTINUOUS
100
AcDbLine
 10
1.420999999998571
 20
4.02527858014907
 30
0.0
 11
-0.0000000000000003
 21
5.446278580147642
 31
0.0
  0
LINE
  5
22B3E
330
22B25
100
AcDbEntity
  8
0
  6
CONTINUOUS
100
AcDbLine
 10
1.420999999998571
 20
4.698797789229257
 30
0.0
 11
0.0
 21
6.119797789227828
 31
0.0
  0
LINE
  5
22B3F
330
22B25
100
AcDbEntity
  8
0
  6
CONTINUOUS
100
AcDbLine
 10
1.420999999998571
 20
5.372316998309444
 30
0.0
 11
-0.0000000000000001
 21
6.793316998308015
 31
0.0
  0
LINE
  5
22B40
330
22B25
100
AcDbEntity
  8
0
  6
CONTINUOUS
100
AcDbLine
 10
1.420999999998572
 20
6.045836207389629
 30
0.0
 11
-0.0000000000000004
 21
7.466836207388202
 31
0.0
  0
LINE
  5
22B41
330
22B25
100
AcDbEntity
  8
0
  6
CONTINUOUS
100
AcDbLine
 10
1.420999999998571
 20
6.719355416469816
 30
0.0
 11
0.0
 21
8.140355416468388
 31
0.0
  0
LINE
  5
22B42
330
22B25
100
AcDbEntity
  8
0
  6
CONTINUOUS
100
AcDbLine
 10
1.420999999998571
 20
7.392874625550003
 30
0.0
 11
0.0507746255573185
 21
8.763099999991255
 31
0.0
  0
LINE
  5
22B43
330
22B25
100
AcDbEntity
  8
0
  6
CONTINUOUS
100
AcDbLine
 10
1.420999999998571
 20
8.06639383463019
 30
0.0
 11
0.7242938346375052
 21
8.763099999991255
 31
0.0
  0
LINE
  5
22B44
330
22B25
100
AcDbEntity
  8
0
  6
CONTINUOUS
100
AcDbLine
 10
1.420999999998571
 20
8.739913043710375
 30
0.0
 11
1.397813043717691
 21
8.763099999991255
 31
0.0
  0
ENDBLK
  5
22B50
330
22B25
100
AcDbEntity
  8
0
100
AcDbBlockEnd
  0
ENDSEC
  0
SECTION
  2
ENTITIES
  0
LINE
  5
21AFC
330
18
100
AcDbEntity
  8
01
  6
CONTINUOUS
100
AcDbLine
 10
40.80643327126495
 20
-1108.959653305409
 30
0.0000000000017296
 11
40.80643327126495
 21
-1134.659653885809
 31
0.0000000000017296
  0
LINE
  5
21AFE
330
18
100
AcDbEntity
  8
01
  6
CONTINUOUS
100
AcDbLine
 10
37.12440104374878
 20
-1108.959653305409
 30
0.0000000000017296
 11
40.80643327126495
 21
-1108.959653305409
 31
0.0000000000017296
  0
LINE
  5
21AFF
330
18
100
AcDbEntity
  8
01
  6
CONTINUOUS
100
AcDbLine
 10
40.80643327126495
 20
-1134.659653885809
 30
0.0000000000017296
 11
37.12440104374878
 21
-1134.659653885809
 31
0.0000000000017296
  0
LINE
  5
21B00
330
18
100
AcDbEntity
  8
01
  6
CONTINUOUS
100
AcDbLine
 10
630.1935759294986
 20
-1134.659653885809
 30
0.0000000000017296
 11
630.1935759294986
 21
-1108.959653305409
 31
0.0000000000017296
  0
LINE
  5
21B01
330
18
100
AcDbEntity
  8
01
  6
CONTINUOUS
100
AcDbLine
 10
40.80643327126495
 20
-1108.959653305409
 30
0.0000000000017296
 11
630.1935759294986
 21
-1108.959653305409
 31
0.0000000000017296
  0
LINE
  5
21B02
330
18
100
AcDbEntity
  8
01
  6
CONTINUOUS
100
AcDbLine
 10
40.80643327126495
 20
-1134.659653885809
 30
0.0000000000017296
 11
630.1935759294986
 21
-1134.659653885809
 31
0.0000000000017296
  0
LINE
  5
21B04
330
18
100
AcDbEntity
  8
01
  6
CONTINUOUS
100
AcDbLine
 10
630.1935759294986
 20
-1108.959653305409
 30
0.0000000000017296
 11
633.8755932558536
 21
-1108.959653305409
 31
0.0000000000017296
  0
LINE
  5
21B05
330
18
100
AcDbEntity
  8
01
  6
CONTINUOUS
100
AcDbLine
 10
633.8755932558536
 20
-1134.659653885809
 30
0.0000000000017296
 11
630.1935759294986
 21
-1134.659653885809
 31
0.0000000000017296
  0
LINE
  5
21B07
330
18
100
AcDbEntity
  8
01
  6
CONTINUOUS
100
AcDbLine
 10
26.76162691006652
 20
-1108.959653305409
 30
0.0000000000017296
 11
37.12440104374878
 21
-1108.959653305409
 31
0.0000000000017296
  0
LINE
  5
21B08
330
18
100
AcDbEntity
  8
01
  6
CONTINUOUS
100
AcDbLine
 10
26.76162691006652
 20
-1134.659653885809
 30
0.0000000000017296
 11
37.12440104374878
 21
-1134.659653885809
 31
0.0000000000017296
  0
LINE
  5
21B0A
330
18
100
AcDbEntity
  8
01
  6
CONTINUOUS
100
AcDbLine
 10
633.8755932558536
 20
-1108.959653305409
 30
0.0000000000017296
 11
644.238382290697
 21
-1108.959653305409
 31
0.0000000000017296
  0
LINE
  5
21B0B
330
18
100
AcDbEntity
  8
01
  6
CONTINUOUS
100
AcDbLine
 10
633.8755932558536
 20
-1134.659653885809
 30
0.0000000000017296
 11
644.238382290697
 21
-1134.659653885809
 31
0.0000000000017296
  0
LINE
  5
21B10
330
18
100
AcDbEntity
  8
01
  6
CONTINUOUS
100
AcDbLine
 10
613.0000051964282
 20
-1135.809654027742
 30
0.0000000000017296
 11
613.0000051964282
 21
-1136.309653876868
 31
0.0000000000017296
  0
ARC
  5
21B11
330
18
100
AcDbEntity
  8
01
  6
CONTINUOUS
100
AcDbCircle
 10
612.5
 20
-1136.30965394114
 30
0.0000000000017296
 40
0.5
100
AcDbArc
 50
270.0
 51
0.0
  0
ARC
  5
21B15
330
18
100
AcDbEntity
  8
01
  6
CONTINUOUS
100
AcDbCircle
 10
58.50000000000006
 20
-1136.30965394114
 30
0.0000000000017296
 40
0.5
100
AcDbArc
 50
180.0
 51
270.0
  0
LINE
  5
21B16
330
18
100
AcDbEntity
  8
01
  6
CONTINUOUS
100
AcDbLine
 10
58.00000400433532
 20
-1136.309653876868
 30
0.0000000000017296
 11
58.00000400433532
 21
-1135.809654027742
 31
0.0000000000017296
  0
LINE
  5
21B18
330
18
100
AcDbEntity
  8
01
  6
CONTINUOUS
100
AcDbLine
 10
613.0000051964282
 20
-1135.309653945786
 30
0.0000000000017296
 11
613.0000051964282
 21
-1135.809654027742
 31
0.0000000000017296
  0
LINE
  5
21B1A
330
18
100
AcDbEntity
  8
01
  6
CONTINUOUS
100
AcDbLine
 10
612.4999967325687
 20
-1136.809653958825
 30
0.0000000000017296
 11
40.80643327126495
 21
-1136.809653958825
 31
0.0000000000017296
  0
LINE
  5
21B1B
330
18
100
AcDbEntity
  8
01
  6
CONTINUOUS
100
AcDbLine
 10
58.00000400433532
 20
-1135.809654027742
 30
0.0000000000017296
 11
58.00000400433532
 21
-1135.309653945786
 31
0.0000000000017296
  0
LINE
  5
21B1F
330
18
100
AcDbEntity
  8
01
  6
CONTINUOUS
100
AcDbLine
 10
44.24822897801391
 20
-1134.80965386383
 30
0.0000000000017296
 11
612.4999967325687
 21
-1134.80965386383
 31
0.0000000000017296
  0
LINE
  5
21B22
330
18
100
AcDbEntity
  8
01
  6
CONTINUOUS
100
AcDbLine
 10
58.00000400433532
 20
-1107.809654327628
 30
0.0000000000017296
 11
58.00000400433532
 21
-1107.309653314349
 31
0.0000000000017296
  0
ARC
  5
21B23
330
18
100
AcDbEntity
  8
01
  6
CONTINUOUS
100
AcDbCircle
 10
58.50000000000006
 20
-1107.30965394114
 30
0.0000000000017296
 40
0.5
100
AcDbArc
 50
90.0
 51
180.0
  0
LINE
  5
21B25
330
18
100
AcDbEntity
  8
01
  6
CONTINUOUS
100
AcDbLine
 10
612.4999967325687
 20
-1108.809654491541
 30
0.0000000000017296
 11
44.24822897801391
 21
-1108.809654491541
 31
0.0000000000017296
  0
ARC
  5
21B28
330
18
100
AcDbEntity
  8
01
  6
CONTINUOUS
100
AcDbCircle
 10
612.5
 20
-1108.30965394114
 30
0.0000000000017296
 40
0.5
100
AcDbArc
 50
270.0
 51
0.0
  0
LINE
  5
21B2D
330
18
100
AcDbEntity
  8
01
  6
CONTINUOUS
100
AcDbLine
 10
58.00000400433532
 20
-1108.309653478262
 30
0.0000000000017296
 11
58.00000400433532
 21
-1107.809654327628
 31
0.0000000000017296
  0
LINE
  5
21B2F
330
18
100
AcDbEntity
  8
01
  6
CONTINUOUS
100
AcDbLine
 10
613.0000051964282
 20
-1107.309653314349
 30
0.0000000000017296
 11
613.0000051964282
 21
-1107.809654327628
 31
0.0000000000017296
  0
ARC
  5
21B32
330
18
100
AcDbEntity
  8
01
  6
CONTINUOUS
100
AcDbCircle
 10
612.5
 20
-1107.30965394114
 30
0.0000000000017296
 40
0.5
100
AcDbArc
 50
0.0
 51
90.0
  0
LINE
  5
21B33
330
18
100
AcDbEntity
  8
01
  6
CONTINUOUS
100
AcDbLine
 10
613.0000051964282
 20
-1107.809654327628
 30
0.0000000000017296
 11
613.0000051964282
 21
-1108.309653478262
 31
0.0000000000017296
  0
LINE
  5
21B34
330
18
100
AcDbEntity
  8
01
  6
CONTINUOUS
100
AcDbLine
 10
40.80643327126492
 20
-1106.80965230107
 30
0.0000000000017296
 11
612.4999967325687
 21
-1106.80965230107
 31
0.0000000000017296
  0
ARC
  5
21B35
330
18
100
AcDbEntity
  8
01
  6
CONTINUOUS
100
AcDbCircle
 10
612.5
 20
-1135.30965394114
 30
0.0000000000017296
 40
0.5
100
AcDbArc
 50
0.0
 51
90.0
  0
ARC
  5
21B36
330
18
100
AcDbEntity
  8
01
  6
CONTINUOUS
100
AcDbCircle
 10
58.50000000000006
 20
-1108.30965394114
 30
0.0000000000017296
 40
0.5
100
AcDbArc
 50
180.0
 51
270.0
  0
ARC
  5
21B37
330
18
100
AcDbEntity
  8
01
  6
CONTINUOUS
100
AcDbCircle
 10
58.50000000000006
 20
-1135.30965394114
 30
0.0000000000017296
 40
0.5
100
AcDbArc
 50
90.0
 51
180.0
  0
LINE
  5
21B38
330
18
100
AcDbEntity
  8
01
  6
CONTINUOUS
100
AcDbLine
 10
58.00000400433532
 20
-1135.309653945786
 30
0.0000000000017296
 11
58.00000400433532
 21
-1134.659653885809
 31
0.0000000000017296
  0
LINE
  5
21B39
330
18
100
AcDbEntity
  8
01
  6
CONTINUOUS
100
AcDbLine
 10
58.00000400433532
 20
-1108.959653305409
 30
0.0000000000017296
 11
58.00000400433532
 21
-1108.309653478262
 31
0.0000000000017296
  0
LINE
  5
21B3A
330
18
100
AcDbEntity
  8
01
  6
CONTINUOUS
100
AcDbLine
 10
613.0000051964282
 20
-1135.309653945786
 30
0.0000000000017296
 11
613.0000051964282
 21
-1134.659653885809
 31
0.0000000000017296
  0
LINE
  5
21B3B
330
18
100
AcDbEntity
  8
01
  6
CONTINUOUS
100
AcDbLine
 10
613.0000051964282
 20
-1108.959653305409
 30
0.0000000000017296
 11
613.0000051964282
 21
-1108.309653478262
 31
0.0000000000017296
  0
LINE
  5
21B3C
330
18
100
AcDbEntity
  8
01
  6
CONTINUOUS
100
AcDbLine
 10
630.1935759294986
 20
-1108.309653478262
 30
0.0000000000017296
 11
630.1935759294986
 21
-1107.809654327628
 31
0.0000000000017296
  0
LINE
  5
21B40
330
18
100
AcDbEntity
  8
01
  6
CONTINUOUS
100
AcDbLine
 10
630.1935759294986
 20
-1135.809654027742
 30
0.0000000000017296
 11
630.1935759294986
 21
-1135.309653945786
 31
0.0000000000017296
  0
LINE
  5
21B44
330
18
100
AcDbEntity
  8
01
  6
CONTINUOUS
100
AcDbLine
 10
630.1935759294986
 20
-1134.80965386383
 30
0.0000000000017296
 11
630.1935759294986
 21
-1135.309653945786
 31
0.0000000000017296
  0
LINE
  5
21B46
330
18
100
AcDbEntity
  8
01
  6
CONTINUOUS
100
AcDbLine
 10
613.4999987591266
 20
-1134.80965386383
 30
0.0000000000017296
 11
630.1935759294986
 21
-1134.80965386383
 31
0.0000000000017296
  0
LINE
  5
21B47
330
18
100
AcDbEntity
  8
01
  6
CONTINUOUS
100
AcDbLine
 10
630.1935759294986
 20
-1135.809654027742
 30
0.0000000000017296
 11
630.1935759294986
 21
-1136.809653958825
 31
0.0000000000017296
  0
LINE
  5
21B48
330
18
100
AcDbEntity
  8
01
  6
CONTINUOUS
100
AcDbLine
 10
630.1935759294986
 20
-1136.809653958825
 30
0.0000000000017296
 11
613.4999987591266
 21
-1136.809653958825
 31
0.0000000000017296
  0
LINE
  5
21B4A
330
18
100
AcDbEntity
  8
01
  6
CONTINUOUS
100
AcDbLine
 10
630.1935759294986
 20
-1106.80965230107
 30
0.0000000000017296
 11
630.1935759294986
 21
-1107.809654327628
 31
0.0000000000017296
  0
LINE
  5
21B4C
330
18
100
AcDbEntity
  8
01
  6
CONTINUOUS
100
AcDbLine
 10
613.4999987591266
 20
-1106.80965230107
 30
0.0000000000017296
 11
630.1935759294986
 21
-1106.80965230107
 31
0.0000000000017296
  0
LINE
  5
21B4D
330
18
100
AcDbEntity
  8
01
  6
CONTINUOUS
100
AcDbLine
 10
630.1935759294986
 20
-1108.809654491541
 30
0.0000000000017296
 11
630.1935759294986
 21
-1108.309653478262
 31
0.0000000000017296
  0
LINE
  5
21B4E
330
18
100
AcDbEntity
  8
01
  6
CONTINUOUS
100
AcDbLine
 10
630.1935759294986
 20
-1108.809654491541
 30
0.0000000000017296
 11
613.4999987591266
 21
-1108.809654491541
 31
0.0000000000017296
  0
LINE
  5
21B50
330
18
100
AcDbEntity
  8
01
  6
CONTINUOUS
100
AcDbLine
 10
630.1935759294986
 20
-1106.80965230107
 30
0.0000000000017296
 11
633.4153410900592
 21
-1106.80965230107
 31
0.0000000000017296
  0
LINE
  5
21B53
330
18
100
AcDbEntity
  8
01
  6
CONTINUOUS
100
AcDbLine
 10
630.1935759294986
 20
-1134.80965386383
 30
0.0000000000017296
 11
633.8755932558536
 21
-1134.80965386383
 31
0.0000000000017296
  0
LINE
  5
21B58
330
18
100
AcDbEntity
  8
01
  6
CONTINUOUS
100
AcDbLine
 10
633.8755932558536
 20
-1108.809654491541
 30
0.0000000000017296
 11
630.1935759294986
 21
-1108.809654491541
 31
0.0000000000017296
  0
LINE
  5
21B5C
330
18
100
AcDbEntity
  8
01
  6
CONTINUOUS
100
AcDbLine
 10
633.4153410900592
 20
-1136.809653958825
 30
0.0000000000017296
 11
630.1935759294986
 21
-1136.809653958825
 31
0.0000000000017296
  0
ARC
  5
21B61
330
18
100
AcDbEntity
  8
01
  6
CONTINUOUS
100
AcDbCircle
 10
613.5000000000002
 20
-1108.30965394114
 30
0.0000000000017296
 40
0.5
100
AcDbArc
 50
180.0
 51
270.0
  0
ARC
  5
21B62
330
18
100
AcDbEntity
  8
01
  6
CONTINUOUS
100
AcDbCircle
 10
613.5000000000002
 20
-1107.30965394114
 30
0.0000000000017296
 40
0.5
100
AcDbArc
 50
90.0
 51
180.0
  0
ARC
  5
21B64
330
18
100
AcDbEntity
  8
01
  6
CONTINUOUS
100
AcDbCircle
 10
613.5000000000002
 20
-1136.30965394114
 30
0.0000000000017296
 40
0.5
100
AcDbArc
 50
180.0
 51
270.0
  0
ARC
  5
21B65
330
18
100
AcDbEntity
  8
01
  6
CONTINUOUS
100
AcDbCircle
 10
613.5000000000002
 20
-1135.30965394114
 30
0.0000000000017296
 40
0.5
100
AcDbArc
 50
90.0
 51
180.0
  0
LINE
  5
21B67
330
18
100
AcDbEntity
  8
01
  6
CONTINUOUS
100
AcDbLine
 10
650.7615146149158
 20
-1135.809654027742
 30
0.0000000000017296
 11
650.7615146149158
 21
-1107.809654327628
 31
0.0000000000017296
  0
ARC
  5
21B6C
330
18
100
AcDbEntity
  8
01
  6
CONTINUOUS
100
AcDbCircle
 10
649.7995408565358
 20
-1107.771489277639
 30
0.0000000000017296
 40
0.9627305349121521
100
AcDbArc
 50
357.7280564416639
 51
87.53123182162595
  0
LINE
  5
21B6D
330
18
100
AcDbEntity
  8
01
  6
CONTINUOUS
100
AcDbLine
 10
633.4153410900592
 20
-1106.80965230107
 30
0.0000000000017296
 11
649.841010283327
 21
-1106.80965230107
 31
0.0000000000017296
  0
ARC
  5
21B6E
330
18
100
AcDbEntity
  8
01
  6
CONTINUOUS
100
AcDbCircle
 10
649.7995436943764
 20
-1135.847819674473
 30
0.0000000000017296
 40
0.9627277229589201
100
AcDbArc
 50
272.4686063455213
 51
2.271985740127294
  0
LINE
  5
21B6F
330
18
100
AcDbEntity
  8
01
  6
CONTINUOUS
100
AcDbLine
 10
649.841010283327
 20
-1136.809653958825
 30
0.0000000000017296
 11
633.4153410900592
 21
-1136.809653958825
 31
0.0000000000017296
  0
LINE
  5
21B71
330
18
100
AcDbEntity
  8
01
  6
CONTINUOUS
100
AcDbLine
 10
644.238382290697
 20
-1108.809654491541
 30
0.0000000000017296
 11
633.8755932558536
 21
-1108.809654491541
 31
0.0000000000017296
  0
LINE
  5
21B73
330
18
100
AcDbEntity
  8
01
  6
CONTINUOUS
100
AcDbLine
 10
633.8755932558536
 20
-1134.80965386383
 30
0.0000000000017296
 11
644.238382290697
 21
-1134.80965386383
 31
0.0000000000017296
  0
LINE
  5
21B75
330
18
100
AcDbEntity
  8
01
  6
CONTINUOUS
100
AcDbLine
 10
642.0621571053027
 20
-1134.659653885809
 30
0.0000000000017296
 11
641.2927505482196
 21
-1134.80965386383
 31
0.0000000000017296
  0
ARC
  5
21B79
330
18
100
AcDbEntity
  8
01
  6
CONTINUOUS
100
AcDbCircle
 10
650.0000000000002
 20
-1135.80965394114
 30
0.0000000000017296
 40
1.0
100
AcDbArc
 50
270.0
 51
0.0
  0
LINE
  5
21B7A
330
18
100
AcDbEntity
  8
01
  6
CONTINUOUS
100
AcDbLine
 10
650.0000056732654
 20
-1136.809653958825
 30
0.0000000000017296
 11
649.841010283327
 21
-1136.809653958825
 31
0.0000000000017296
  0
ARC
  5
21B7B
330
18
100
AcDbEntity
  8
01
  6
CONTINUOUS
100
AcDbCircle
 10
650.0000000000002
 20
-1107.80965394114
 30
0.0000000000017296
 40
1.000000000000028
100
AcDbArc
 50
0.0
 51
90.0
  0
LINE
  5
21B7D
330
18
100
AcDbEntity
  8
01
  6
CONTINUOUS
100
AcDbLine
 10
649.841010283327
 20
-1106.80965230107
 30
0.0000000000017296
 11
650.0000056732654
 21
-1106.80965230107
 31
0.0000000000017296
  0
LINE
  5
21B7E
330
18
100
AcDbEntity
  8
01
  6
CONTINUOUS
100
AcDbLine
 10
650.9999927986621
 20
-1107.809654327628
 30
0.0000000000017296
 11
650.9999927986621
 21
-1135.809654027742
 31
0.0000000000017296
  0
LINE
  5
21B7F
330
18
100
AcDbEntity
  8
01
  6
CONTINUOUS
100
AcDbLine
 10
40.80643327126495
 20
-1108.809654491541
 30
0.0000000000017296
 11
40.80643327126495
 21
-1108.309653478262
 31
0.0000000000017296
  0
LINE
  5
21B82
330
18
100
AcDbEntity
  8
01
  6
CONTINUOUS
100
AcDbLine
 10
57.49999554047577
 20
-1108.809654491541
 30
0.0000000000017296
 11
40.80643327126495
 21
-1108.809654491541
 31
0.0000000000017296
  0
LINE
  5
21B83
330
18
100
AcDbEntity
  8
01
  6
CONTINUOUS
100
AcDbLine
 10
40.80643327126495
 20
-1134.80965386383
 30
0.0000000000017296
 11
40.80643327126495
 21
-1135.309653945786
 31
0.0000000000017296
  0
LINE
  5
21B84
330
18
100
AcDbEntity
  8
01
  6
CONTINUOUS
100
AcDbLine
 10
40.80643327126495
 20
-1134.80965386383
 30
0.0000000000017296
 11
57.49999554047577
 21
-1134.80965386383
 31
0.0000000000017296
  0
LINE
  5
21B87
330
18
100
AcDbEntity
  8
01
  6
CONTINUOUS
100
AcDbLine
 10
40.80643327126495
 20
-1136.809653958825
 30
0.0000000000017296
 11
40.80643327126495
 21
-1135.809654027742
 31
0.0000000000017296
  0
LINE
  5
21B8A
330
18
100
AcDbEntity
  8
01
  6
CONTINUOUS
100
AcDbLine
 10
57.49999554047577
 20
-1136.809653958825
 30
0.0000000000017296
 11
40.80643327126495
 21
-1136.809653958825
 31
0.0000000000017296
  0
LINE
  5
21B8B
330
18
100
AcDbEntity
  8
01
  6
CONTINUOUS
100
AcDbLine
 10
40.80643327126495
 20
-1107.809654327628
 30
0.0000000000017296
 11
40.80643327126495
 21
-1108.309653478262
 31
0.0000000000017296
  0
LINE
  5
21B91
330
18
100
AcDbEntity
  8
01
  6
CONTINUOUS
100
AcDbLine
 10
40.80643327126495
 20
-1107.809654327628
 30
0.0000000000017296
 11
40.80643327126495
 21
-1106.80965230107
 31
0.0000000000017296
  0
LINE
  5
21B92
330
18
100
AcDbEntity
  8
01
  6
CONTINUOUS
100
AcDbLine
 10
40.80643327126495
 20
-1106.80965230107
 30
0.0000000000017296
 11
57.49999554047577
 21
-1106.80965230107
 31
0.0000000000017296
  0
ARC
  5
21B94
330
18
100
AcDbEntity
  8
01
  6
CONTINUOUS
100
AcDbCircle
 10
57.50000000000003
 20
-1108.30965394114
 30
0.0000000000017296
 40
0.5000000000000071
100
AcDbArc
 50
270.0000000000032
 51
0.0
  0
ARC
  5
21B96
330
18
100
AcDbEntity
  8
01
  6
CONTINUOUS
100
AcDbCircle
 10
57.50000000000003
 20
-1136.30965394114
 30
0.0000000000017296
 40
0.5000000000000071
100
AcDbArc
 50
270.0000000000032
 51
0.0
  0
LINE
  5
21B98
330
18
100
AcDbEntity
  8
01
  6
CONTINUOUS
100
AcDbLine
 10
40.80643327126495
 20
-1135.309653945786
 30
0.0000000000017296
 11
40.80643327126495
 21
-1135.809654027742
 31
0.0000000000017296
  0
ARC
  5
21B99
330
18
100
AcDbEntity
  8
01
  6
CONTINUOUS
100
AcDbCircle
 10
57.50000000000003
 20
-1135.30965394114
 30
0.0000000000017296
 40
0.5000000000000071
100
AcDbArc
 50
0.0
 51
90.0
  0
ARC
  5
21B9A
330
18
100
AcDbEntity
  8
01
  6
CONTINUOUS
100
AcDbCircle
 10
57.50000000000003
 20
-1107.30965394114
 30
0.0000000000017296
 40
0.5000000000000071
100
AcDbArc
 50
0.0
 51
90.0
  0
LINE
  5
21B9B
330
18
100
AcDbEntity
  8
01
  6
CONTINUOUS
100
AcDbLine
 10
40.80643327126495
 20
-1136.809653958825
 30
0.0000000000017296
 11
37.58465320954315
 21
-1136.809653958825
 31
0.0000000000017296
  0
LINE
  5
21BA0
330
18
100
AcDbEntity
  8
01
  6
CONTINUOUS
100
AcDbLine
 10
37.12440104374878
 20
-1134.80965386383
 30
0.0000000000017296
 11
40.80643327126495
 21
-1134.80965386383
 31
0.0000000000017296
  0
LINE
  5
21BA5
330
18
100
AcDbEntity
  8
01
  6
CONTINUOUS
100
AcDbLine
 10
40.80643327126495
 20
-1108.809654491541
 30
0.0000000000017296
 11
37.12440104374878
 21
-1108.809654491541
 31
0.0000000000017296
  0
LINE
  5
21BA8
330
18
100
AcDbEntity
  8
01
  6
CONTINUOUS
100
AcDbLine
 10
37.58465320954315
 20
-1106.80965230107
 30
0.0000000000017296
 11
40.80643327126495
 21
-1106.80965230107
 31
0.0000000000017296
  0
LINE
  5
21BAB
330
18
100
AcDbEntity
  8
01
  6
CONTINUOUS
100
AcDbLine
 10
26.76162691006652
 20
-1134.80965386383
 30
0.0000000000017296
 11
37.12440104374878
 21
-1134.80965386383
 31
0.0000000000017296
  0
ARC
  5
21BAD
330
18
100
AcDbEntity
  8
01
  6
CONTINUOUS
100
AcDbCircle
 10
21.20047607287989
 20
-1107.771510108438
 30
0.0000000000017296
 40
0.9627523213966808
100
AcDbArc
 50
92.47006028521707
 51
182.2706514514922
  0
LINE
  5
21BAE
330
18
100
AcDbEntity
  8
01
  6
CONTINUOUS
100
AcDbLine
 10
21.15898401627533
 20
-1106.80965230107
 30
0.0000000000017296
 11
37.58465320954315
 21
-1106.80965230107
 31
0.0000000000017296
  0
LINE
  5
21BB0
330
18
100
AcDbEntity
  8
01
  6
CONTINUOUS
100
AcDbLine
 10
20.23847968468658
 20
-1107.809654327628
 30
0.0000000000017296
 11
20.23847968468658
 21
-1135.809654027742
 31
0.0000000000017296
  0
ARC
  5
21BB3
330
18
100
AcDbEntity
  8
01
  6
CONTINUOUS
100
AcDbCircle
 10
21.2004732348633
 20
-1135.847798843792
 30
0.0000000000017296
 40
0.9627495092562033
100
AcDbArc
 50
177.7293063639991
 51
267.5301015503601
  0
LINE
  5
21BB4
330
18
100
AcDbEntity
  8
01
  6
CONTINUOUS
100
AcDbLine
 10
37.58465320954315
 20
-1136.809653958825
 30
0.0000000000017296
 11
21.15898401627533
 21
-1136.809653958825
 31
0.0000000000017296
  0
LINE
  5
21BB6
330
18
100
AcDbEntity
  8
01
  6
CONTINUOUS
100
AcDbLine
 10
37.12440104374878
 20
-1108.809654491541
 30
0.0000000000017296
 11
26.76162691006652
 21
-1108.809654491541
 31
0.0000000000017296
  0
ARC
  5
21BBC
330
18
100
AcDbEntity
  8
01
  6
CONTINUOUS
100
AcDbCircle
 10
21.00000000000003
 20
-1107.80965394114
 30
0.0000000000017296
 40
1.000000000000028
100
AcDbArc
 50
90.0
 51
180.0
  0
LINE
  5
21BBD
330
18
100
AcDbEntity
  8
01
  6
CONTINUOUS
100
AcDbLine
 10
21.00000352749817
 20
-1106.80965230107
 30
0.0000000000017296
 11
21.15898401627533
 21
-1106.80965230107
 31
0.0000000000017296
  0
LINE
  5
21BBF
330
18
100
AcDbEntity
  8
01
  6
CONTINUOUS
100
AcDbLine
 10
20.00000150094024
 20
-1135.809654027742
 30
0.0000000000017296
 11
20.00000150094024
 21
-1107.809654327628
 31
0.0000000000017296
  0
ARC
  5
21BC0
330
18
100
AcDbEntity
  8
01
  6
CONTINUOUS
100
AcDbCircle
 10
21.00000000000003
 20
-1135.80965394114
 30
0.0000000000017296
 40
1.0
100
AcDbArc
 50
180.0
 51
270.0
  0
LINE
  5
21BC1
330
18
100
AcDbEntity
  8
01
  6
CONTINUOUS
100
AcDbLine
 10
21.15898401627533
 20
-1136.809653958825
 30
0.0000000000017296
 11
21.00000352749817
 21
-1136.809653958825
 31
0.0000000000017296
  0
LINE
  5
21BC4
330
18
100
AcDbEntity
  8
01
  6
CONTINUOUS
100
AcDbLine
 10
628.7374195564746
 20
-1134.80965386383
 30
0.0000000000017296
 11
628.7374195564746
 21
-1134.659653885809
 31
0.0000000000017296
  0
LINE
  5
21BC5
330
18
100
AcDbEntity
  8
01
  6
CONTINUOUS
100
AcDbLine
 10
628.7374195564746
 20
-1108.959653305409
 30
0.0000000000017296
 11
628.7374195564746
 21
-1108.809654491541
 31
0.0000000000017296
  0
LINE
  5
21BC6
330
18
100
AcDbEntity
  8
01
  6
CONTINUOUS
100
AcDbLine
 10
631.4989325512408
 20
-1108.809654491541
 30
0.0000000000017296
 11
631.4989325512408
 21
-1108.959653305409
 31
0.0000000000017296
  0
LINE
  5
21BC7
330
18
100
AcDbEntity
  8
01
  6
CONTINUOUS
100
AcDbLine
 10
631.4989325512408
 20
-1134.659653885809
 30
0.0000000000017296
 11
631.4989325512408
 21
-1134.80965386383
 31
0.0000000000017296
  0
LINE
  5
21BCB
330
18
100
AcDbEntity
  8
01
  6
CONTINUOUS
100
AcDbLine
 10
44.24822897801391
 20
-1108.809654491541
 30
0.0000000000017296
 11
44.24822897801391
 21
-1108.959653305409
 31
0.0000000000017296
  0
LINE
  5
21BCC
330
18
100
AcDbEntity
  8
01
  6
CONTINUOUS
100
AcDbLine
 10
44.24822897801391
 20
-1134.659653885809
 30
0.0000000000017296
 11
44.24822897801391
 21
-1134.80965386383
 31
0.0000000000017296
  0
LINE
  5
21BCD
330
18
100
AcDbEntity
  8
01
  6
CONTINUOUS
100
AcDbLine
 10
38.72520298848144
 20
-1134.80965386383
 30
0.0000000000017296
 11
38.72520298848144
 21
-1134.659653885809
 31
0.0000000000017296
  0
LINE
  5
21BCE
330
18
100
AcDbEntity
  8
01
  6
CONTINUOUS
100
AcDbLine
 10
38.72520298848144
 20
-1108.959653305409
 30
0.0000000000017296
 11
38.72520298848144
 21
-1108.809654491541
 31
0.0000000000017296
  0
LINE
  5
21BD8
330
18
100
AcDbEntity
  8
01
  6
CONTINUOUS
100
AcDbLine
 10
681.0155719445552
 20
-1134.659653885809
 30
0.0000000000017296
 11
705.4287552760447
 21
-1134.659653885809
 31
0.0000000000017296
  0
LINE
  5
21BD9
330
18
100
AcDbEntity
  8
01
  6
CONTINUOUS
100
AcDbLine
 10
681.0155719445552
 20
-1108.959653305409
 30
0.0000000000017296
 11
681.0155719445552
 21
-1134.659653885809
 31
0.0000000000017296
  0
LINE
  5
21BDA
330
18
100
AcDbEntity
  8
01
  6
CONTINUOUS
100
AcDbLine
 10
681.0155719445552
 20
-1108.959653305409
 30
0.0000000000017296
 11
705.4287552760447
 21
-1108.959653305409
 31
0.0000000000017296
  0
LINE
  5
21BDF
330
18
100
AcDbEntity
  8
01
  6
CONTINUOUS
100
AcDbLine
 10
679.0784963445271
 20
-1134.659653885809
 30
0.0000000000017296
 11
679.0784963445271
 21
-1108.959653305409
 31
0.0000000000017296
  0
LINE
  5
21BE0
330
18
100
AcDbEntity
  8
01
  6
CONTINUOUS
100
AcDbLine
 10
679.0784963445271
 20
-1108.959653305409
 30
0.0000000000017296
 11
681.0155719445552
 21
-1108.959653305409
 31
0.0000000000017296
  0
LINE
  5
21BE1
330
18
100
AcDbEntity
  8
01
  6
CONTINUOUS
100
AcDbLine
 10
681.0155719445552
 20
-1134.659653885809
 30
0.0000000000017296
 11
679.0784963445271
 21
-1134.659653885809
 31
0.0000000000017296
  0
LINE
  5
21BE3
330
18
100
AcDbEntity
  8
01
  6
CONTINUOUS
100
AcDbLine
 10
720.6888556407298
 20
-1107.809654327628
 30
0.0000000000017296
 11
720.6888556407298
 21
-1135.809654027742
 31
0.0000000000017296
  0
LINE
  5
21BE5
330
18
100
AcDbEntity
  8
01
  6
CONTINUOUS
100
AcDbLine
 10
727.0784959123935
 20
-1135.809654027742
 30
0.0000000000017296
 11
727.0784959123935
 21
-1107.809654327628
 31
0.0000000000017296
  0
LINE
  5
21BE6
330
18
100
AcDbEntity
  8
01
  6
CONTINUOUS
100
AcDbLine
 10
727.0784959123935
 20
-1136.809653958825
 30
0.0000000000017296
 11
720.6888556407298
 21
-1136.809653958825
 31
0.0000000000017296
  0
LINE
  5
21BE7
330
18
100
AcDbEntity
  8
01
  6
CONTINUOUS
100
AcDbLine
 10
720.6888556407298
 20
-1135.809654027742
 30
0.0000000000017296
 11
720.6888556407298
 21
-1136.809653958825
 31
0.0000000000017296
  0
LINE
  5
21BE8
330
18
100
AcDbEntity
  8
01
  6
CONTINUOUS
100
AcDbLine
 10
727.0784959123935
 20
-1135.809654027742
 30
0.0000000000017296
 11
727.0784959123935
 21
-1136.809653958825
 31
0.0000000000017296
  0
LINE
  5
21BE9
330
18
100
AcDbEntity
  8
01
  6
CONTINUOUS
100
AcDbLine
 10
720.6888556407298
 20
-1106.80965230107
 30
0.0000000000017296
 11
720.6888556407298
 21
-1107.809654327628
 31
0.0000000000017296
  0
LINE
  5
21BEA
330
18
100
AcDbEntity
  8
01
  6
CONTINUOUS
100
AcDbLine
 10
720.6888556407298
 20
-1106.80965230107
 30
0.0000000000017296
 11
727.0784959123935
 21
-1106.80965230107
 31
0.0000000000017296
  0
LINE
  5
21BEB
330
18
100
AcDbEntity
  8
01
  6
CONTINUOUS
100
AcDbLine
 10
727.0784959123935
 20
-1106.80965230107
 30
0.0000000000017296
 11
727.0784959123935
 21
-1107.809654327628
 31
0.0000000000017296
  0
LINE
  5
21BEC
330
18
100
AcDbEntity
  8
01
  6
CONTINUOUS
100
AcDbLine
 10
719.9073940442408
 20
-1106.80965230107
 30
0.0000000000017296
 11
720.6888556407298
 21
-1106.80965230107
 31
0.0000000000017296
  0
LINE
  5
21BF1
330
18
100
AcDbEntity
  8
01
  6
CONTINUOUS
100
AcDbLine
 10
720.6888556407298
 20
-1136.809653958825
 30
0.0000000000017296
 11
719.9073940442408
 21
-1136.809653958825
 31
0.0000000000017296
  0
LINE
  5
21BF4
330
18
100
AcDbEntity
  8
01
  6
CONTINUOUS
100
AcDbLine
 10
719.9073940442408
 20
-1136.809653958825
 30
0.0000000000017296
 11
681.2109373436774
 21
-1136.809653958825
 31
0.0000000000017296
  0
LINE
  5
21BF6
330
18
100
AcDbEntity
  8
01
  6
CONTINUOUS
100
AcDbLine
 10
681.2109373436774
 20
-1106.80965230107
 30
0.0000000000017296
 11
719.9073940442408
 21
-1106.80965230107
 31
0.0000000000017296
  0
LINE
  5
21C01
330
18
100
AcDbEntity
  8
01
  6
CONTINUOUS
100
AcDbLine
 10
681.0155719445552
 20
-1134.80965386383
 30
0.0000000000017296
 11
705.4287552760447
 21
-1134.80965386383
 31
0.0000000000017296
  0
LINE
  5
21C03
330
18
100
AcDbEntity
  8
01
  6
CONTINUOUS
100
AcDbLine
 10
705.4287552760447
 20
-1108.809654491541
 30
0.0000000000017296
 11
681.0155719445552
 21
-1108.809654491541
 31
0.0000000000017296
  0
ARC
  5
21C06
330
18
100
AcDbEntity
  8
01
  6
CONTINUOUS
100
AcDbCircle
 10
679.0784969574802
 20
-1107.80965394114
 30
0.0000000000017296
 40
1.000000000000028
100
AcDbArc
 50
90.0
 51
180.0
  0
LINE
  5
21C07
330
18
100
AcDbEntity
  8
01
  6
CONTINUOUS
100
AcDbLine
 10
679.0784973578061
 20
-1106.80965230107
 30
0.0000000000017296
 11
681.2109373436774
 21
-1106.80965230107
 31
0.0000000000017296
  0
LINE
  5
21C09
330
18
100
AcDbEntity
  8
01
  6
CONTINUOUS
100
AcDbLine
 10
678.0784971938933
 20
-1135.809654027742
 30
0.0000000000017296
 11
678.0784971938933
 21
-1135.309653945786
 31
0.0000000000017296
  0
LINE
  5
21C0C
330
18
100
AcDbEntity
  8
01
  6
CONTINUOUS
100
AcDbLine
 10
678.0784971938933
 20
-1108.309653478262
 30
0.0000000000017296
 11
678.0784971938933
 21
-1107.809654327628
 31
0.0000000000017296
  0
ARC
  5
21C0D
330
18
100
AcDbEntity
  8
01
  6
CONTINUOUS
100
AcDbCircle
 10
678.5784969574801
 20
-1108.30965394114
 30
0.0000000000017296
 40
0.5
100
AcDbArc
 50
180.0
 51
270.0
  0
LINE
  5
21C0E
330
18
100
AcDbEntity
  8
01
  6
CONTINUOUS
100
AcDbLine
 10
681.0155719445552
 20
-1108.809654491541
 30
0.0000000000017296
 11
678.5784963445271
 21
-1108.809654491541
 31
0.0000000000017296
  0
ARC
  5
21C0F
330
18
100
AcDbEntity
  8
01
  6
CONTINUOUS
100
AcDbCircle
 10
678.5784969574801
 20
-1135.30965394114
 30
0.0000000000017296
 40
0.5
100
AcDbArc
 50
90.0
 51
180.0
  0
LINE
  5
21C10
330
18
100
AcDbEntity
  8
01
  6
CONTINUOUS
100
AcDbLine
 10
678.5784963445271
 20
-1134.80965386383
 30
0.0000000000017296
 11
681.0155719445552
 21
-1134.80965386383
 31
0.0000000000017296
  0
ARC
  5
21C11
330
18
100
AcDbEntity
  8
01
  6
CONTINUOUS
100
AcDbCircle
 10
679.0784969574802
 20
-1135.80965394114
 30
0.0000000000017296
 40
1.0
100
AcDbArc
 50
180.0
 51
270.0
  0
LINE
  5
21C12
330
18
100
AcDbEntity
  8
01
  6
CONTINUOUS
100
AcDbLine
 10
681.2109373436774
 20
-1136.809653958825
 30
0.0000000000017296
 11
679.0784973578061
 21
-1136.809653958825
 31
0.0000000000017296
  0
LINE
  5
21C13
330
18
100
AcDbEntity
  8
01
  6
CONTINUOUS
100
AcDbLine
 10
681.778496496519
 20
-1134.80965386383
 30
0.0000000000017296
 11
681.778496496519
 21
-1134.659653885809
 31
0.0000000000017296
  0
LINE
  5
21C14
330
18
100
AcDbEntity
  8
01
  6
CONTINUOUS
100
AcDbLine
 10
681.778496496519
 20
-1108.959653305409
 30
0.0000000000017296
 11
681.778496496519
 21
-1108.809654491541
 31
0.0000000000017296
  0
LINE
  5
21C15
330
18
100
AcDbEntity
  8
01
  6
CONTINUOUS
100
AcDbLine
 10
683.6063027308787
 20
-1108.809654491541
 30
0.0000000000017296
 11
683.6063027308787
 21
-1108.959653305409
 31
0.0000000000017296
  0
LINE
  5
21C16
330
18
100
AcDbEntity
  8
01
  6
CONTINUOUS
100
AcDbLine
 10
683.6063027308787
 20
-1134.659653885809
 30
0.0000000000017296
 11
683.6063027308787
 21
-1134.80965386383
 31
0.0000000000017296
  0
LINE
  5
21C17
330
18
100
AcDbEntity
  8
01
  6
CONTINUOUS
100
AcDbLine
 10
613.0000051964282
 20
-1047.074199589832
 30
0.0000000000017296
 11
613.0000051964282
 21
-1059.074199694141
 31
0.0000000000017296
  0
LINE
  5
21C1F
330
18
100
AcDbEntity
  8
01
  6
CONTINUOUS
100
AcDbLine
 10
58.00000400433532
 20
-1059.074199694141
 30
0.0000000000017296
 11
58.00000400433532
 21
-1047.074199589832
 31
0.0000000000017296
  0
LINE
  5
21C22
330
18
100
AcDbEntity
  8
01
  6
CONTINUOUS
100
AcDbLine
 10
58.00000400433532
 20
-1047.074199589832
 30
0.0000000000017296
 11
58.00000400433532
 21
-1046.574198576553
 31
0.0000000000017296
  0
ARC
  5
21C23
330
18
100
AcDbEntity
  8
01
  6
CONTINUOUS
100
AcDbCircle
 10
58.50000000000006
 20
-1046.574200094466
 30
0.0000000000017296
 40
0.5
100
AcDbArc
 50
90.0
 51
180.0
  0
LINE
  5
21C25
330
18
100
AcDbEntity
  8
01
  6
CONTINUOUS
100
AcDbLine
 10
58.49890725217236
 20
-1046.074201288565
 30
0.0000000000017296
 11
612.4999967325687
 21
-1046.074201288565
 31
0.0000000000017296
  0
LINE
  5
21C26
330
18
100
AcDbEntity
  8
01
  6
CONTINUOUS
100
AcDbLine
 10
613.0000051964282
 20
-1046.574198576553
 30
0.0000000000017296
 11
613.0000051964282
 21
-1047.074199589832
 31
0.0000000000017296
  0
ARC
  5
21C27
330
18
100
AcDbEntity
  8
01
  6
CONTINUOUS
100
AcDbCircle
 10
612.5
 20
-1046.574200094466
 30
0.0000000000017296
 40
0.5
100
AcDbArc
 50
0.0
 51
90.0
  0
LINE
  5
21C28
330
18
100
AcDbEntity
  8
01
  6
CONTINUOUS
100
AcDbLine
 10
613.0000051964282
 20
-1059.074199694141
 30
0.0000000000017296
 11
613.0000051964282
 21
-1059.57420070742
 31
0.0000000000017296
  0
ARC
  5
21C29
330
18
100
AcDbEntity
  8
01
  6
CONTINUOUS
100
AcDbCircle
 10
612.5
 20
-1059.574200094466
 30
0.0000000000017296
 40
0.5
100
AcDbArc
 50
270.0
 51
0.0
  0
LINE
  5
21C2B
330
18
100
AcDbEntity
  8
01
  6
CONTINUOUS
100
AcDbLine
 10
612.4999967325687
 20
-1060.074199858053
 30
0.0000000000017296
 11
58.49951377764569
 21
-1060.074199858053
 31
0.0000000000017296
  0
ARC
  5
21C2D
330
18
100
AcDbEntity
  8
01
  6
CONTINUOUS
100
AcDbCircle
 10
58.50000000000006
 20
-1059.574200094466
 30
0.0000000000017296
 40
0.5
100
AcDbArc
 50
180.0
 51
270.0
  0
LINE
  5
21C2E
330
18
100
AcDbEntity
  8
01
  6
CONTINUOUS
100
AcDbLine
 10
58.00000400433532
 20
-1059.57420070742
 30
0.0000000000017296
 11
58.00000400433532
 21
-1059.074199694141
 31
0.0000000000017296
  0
LINE
  5
21C31
330
18
100
AcDbEntity
  8
01
  6
CONTINUOUS
100
AcDbLine
 10
621.0000065077304
 20
-1040.074200305088
 30
0.0000000000017296
 11
621.0000065077304
 21
-1011.074201139553
 31
0.0000000000017296
  0
LINE
  5
21C32
330
18
100
AcDbEntity
  8
01
  6
CONTINUOUS
100
AcDbLine
 10
621.0000065077304
 20
-1011.074201139553
 30
0.0000000000017296
 11
621.9999936331271
 21
-1011.074201139553
 31
0.0000000000017296
  0
LINE
  5
21C3B
330
18
100
AcDbEntity
  8
01
  6
CONTINUOUS
100
AcDbLine
 10
621.9999936331271
 20
-1011.074201139553
 30
0.0000000000017296
 11
650.0000056732654
 21
-1011.074201139553
 31
0.0000000000017296
  0
LINE
  5
21C3C
330
18
100
AcDbEntity
  8
01
  6
CONTINUOUS
100
AcDbLine
 10
650.9999927986621
 20
-1011.074201139553
 30
0.0000000000017296
 11
650.9999927986621
 21
-1017.463841411217
 31
0.0000000000017296
  0
LINE
  5
21C3E
330
18
100
AcDbEntity
  8
01
  6
CONTINUOUS
100
AcDbLine
 10
650.0000056732654
 20
-1011.074201139553
 30
0.0000000000017296
 11
650.9999927986621
 21
-1011.074201139553
 31
0.0000000000017296
  0
ARC
  5
21C3F
330
18
100
AcDbEntity
  8
01
  6
CONTINUOUS
100
AcDbCircle
 10
648.0000000000002
 20
-1017.463843196196
 30
0.0000000000017296
 40
3.0
100
AcDbArc
 50
336.9999999999999
 51
0.0
  0
LINE
  5
21C41
330
18
100
AcDbEntity
  8
01
  6
CONTINUOUS
100
AcDbLine
 10
650.7615146149158
 20
-1018.63603380595
 30
0.0000000000017296
 11
634.335845421648
 21
-1057.332490506514
 31
0.0000000000017296
  0
ARC
  5
21C44
330
18
100
AcDbEntity
  8
01
  6
CONTINUOUS
100
AcDbCircle
 10
615.0000000000002
 20
-1040.074200094467
 30
0.0000000000017296
 40
6.0
100
AcDbArc
 50
270.0
 51
0.0
  0
ARC
  5
21C45
330
18
100
AcDbEntity
  8
01
  6
CONTINUOUS
100
AcDbCircle
 10
613.5000000000002
 20
-1046.574200094467
 30
0.0000000000017296
 40
0.5000000000000568
100
AcDbArc
 50
90.0
 51
180.0
  0
LINE
  5
21C49
330
18
100
AcDbEntity
  8
01
  6
CONTINUOUS
100
AcDbLine
 10
613.4999987591266
 20
-1046.074201288565
 30
0.0000000000017296
 11
614.9999943483829
 21
-1046.074201288565
 31
0.0000000000017296
  0
ARC
  5
21C4A
330
18
100
AcDbEntity
  8
01
  6
CONTINUOUS
100
AcDbCircle
 10
630.1935726938161
 20
-1055.574200094467
 30
0.0000000000017296
 40
4.500000000000057
100
AcDbArc
 50
270.0
 51
337.0000000000002
  0
LINE
  5
21C4C
330
18
100
AcDbEntity
  8
01
  6
CONTINUOUS
100
AcDbLine
 10
630.1935759294986
 20
-1060.074199858053
 30
0.0000000000017296
 11
613.4999987591266
 21
-1060.074199858053
 31
0.0000000000017296
  0
ARC
  5
21C4E
330
18
100
AcDbEntity
  8
01
  6
CONTINUOUS
100
AcDbCircle
 10
613.5000000000002
 20
-1059.574200094467
 30
0.0000000000017296
 40
0.5
100
AcDbArc
 50
180.0
 51
269.999999999987
  0
LINE
  5
21C53
330
18
100
AcDbEntity
  8
01
  6
CONTINUOUS
100
AcDbLine
 10
49.00000066647522
 20
-1011.074201139553
 30
0.0000000000017296
 11
21.00000352749817
 21
-1011.074201139553
 31
0.0000000000017296
  0
LINE
  5
21C5A
330
18
100
AcDbEntity
  8
01
  6
CONTINUOUS
100
AcDbLine
 10
20.00000150094024
 20
-1017.463841411217
 30
0.0000000000017296
 11
20.00000150094024
 21
-1011.074201139553
 31
0.0000000000017296
  0
LINE
  5
21C5B
330
18
100
AcDbEntity
  8
01
  6
CONTINUOUS
100
AcDbLine
 10
20.00000150094024
 20
-1011.074201139553
 30
0.0000000000017296
 11
21.00000352749817
 21
-1011.074201139553
 31
0.0000000000017296
  0
LINE
  5
21C5C
330
18
100
AcDbEntity
  8
01
  6
CONTINUOUS
100
AcDbLine
 10
50.00000269303314
 20
-1011.074201139553
 30
0.0000000000017296
 11
50.00000269303314
 21
-1040.074200305088
 31
0.0000000000017296
  0
LINE
  5
21C5E
330
18
100
AcDbEntity
  8
01
  6
CONTINUOUS
100
AcDbLine
 10
49.00000066647522
 20
-1011.074201139553
 30
0.0000000000017296
 11
50.00000269303314
 21
-1011.074201139553
 31
0.0000000000017296
  0
ARC
  5
21C5F
330
18
100
AcDbEntity
  8
01
  6
CONTINUOUS
100
AcDbCircle
 10
23.00000000000003
 20
-1017.463843196194
 30
0.0000000000017296
 40
3.000000000000004
100
AcDbArc
 50
180.0
 51
203.0000000000003
  0
LINE
  5
21C61
330
18
100
AcDbEntity
  8
01
  6
CONTINUOUS
100
AcDbLine
 10
36.6641488779544
 20
-1057.332490506514
 30
0.0000000000017296
 11
20.23847968468658
 21
-1018.63603380595
 31
0.0000000000017296
  0
ARC
  5
21C63
330
18
100
AcDbEntity
  8
01
  6
CONTINUOUS
100
AcDbCircle
 10
56.00000000000003
 20
-1040.074200094466
 30
0.0000000000017296
 40
6.000000000000007
100
AcDbArc
 50
180.0
 51
270.0000000000008
  0
LINE
  5
21C67
330
18
100
AcDbEntity
  8
01
  6
CONTINUOUS
100
AcDbLine
 10
55.99999995121948
 20
-1046.074201288565
 30
0.0000000000017296
 11
57.49999554047577
 21
-1046.074201288565
 31
0.0000000000017296
  0
ARC
  5
21C69
330
18
100
AcDbEntity
  8
01
  6
CONTINUOUS
100
AcDbCircle
 10
57.50000000000003
 20
-1046.574200094466
 30
0.0000000000017296
 40
0.5000000000000071
100
AcDbArc
 50
0.0
 51
90.0
  0
ARC
  5
21C6A
330
18
100
AcDbEntity
  8
01
  6
CONTINUOUS
100
AcDbCircle
 10
40.80642730618413
 20
-1055.574200094466
 30
0.0000000000017296
 40
4.500000000000004
100
AcDbArc
 50
203.0000000000002
 51
270.0000000000007
  0
LINE
  5
21C6D
330
18
100
AcDbEntity
  8
01
  6
CONTINUOUS
100
AcDbLine
 10
57.49999554047577
 20
-1060.074199858053
 30
0.0000000000017296
 11
40.80643327126495
 21
-1060.074199858053
 31
0.0000000000017296
  0
ARC
  5
21C6E
330
18
100
AcDbEntity
  8
01
  6
CONTINUOUS
100
AcDbCircle
 10
57.50000000000003
 20
-1059.574200094466
 30
0.0000000000017296
 40
0.5000000000000071
100
AcDbArc
 50
270.0000000000032
 51
0.0
  0
SPLINE
  5
21DDF
330
18
100
AcDbEntity
  8
1DIM
  6
PHANTOM2
 48
0.5
100
AcDbSpline
210
0.0
220
0.0
230
1.0
 70
     8
 71
     3
 72
    17
 73
    13
 74
     0
 42
0.000000001
 43
0.00000001
 40
0.0
 40
0.0
 40
0.0
 40
0.0
 40
0.0419381346523033
 40
0.099195463786374
 40
0.2130202376691349
 40
0.3903897917647292
 40
0.5207024636636643
 40
0.6257906616334477
 40
0.7314338988804189
 40
0.8244553423288035
 40
0.9141075887594972
 40
1.0
 40
1.0
 40
1.0
 40
1.0
 10
631.5000054348468
 20
-1020.274528237923
 30
0.0000000000017296
 10
631.5095519408013
 20
-1020.250923782012
 30
0.0000000000017296
 10
631.5321321078391
 20
-1020.195092616153
 30
0.0000000000017296
 10
631.7691424417051
 20
-1019.650137233342
 30
0.0000000000017296
 10
632.3733927205647
 20
-1018.520858954729
 30
0.0000000000017296
 10
633.5038180375857
 20
-1017.072014997196
 30
0.0000000000017296
 10
635.0181992740123
 20
-1015.819727359756
 30
0.0000000000017296
 10
636.4668569329885
 20
-1014.994861116508
 30
0.0000000000017296
 10
637.7668250587601
 20
-1014.503741165115
 30
0.0000000000017296
 10
638.762722987379
 20
-1014.262456364112
 30
0.0000000000017296
 10
639.3886398364176
 20
-1014.165487341852
 30
0.0000000000017296
 10
639.4555839757934
 20
-1014.157916095802
 30
0.0000000000017296
 10
639.4883391369342
 20
-1014.154211553677
 30
0.0000000000017296
  0
LINE
  5
21DE0
330
18
100
AcDbEntity
  8
1DIM
  6
PHANTOM2
 48
0.5
100
AcDbLine
 10
647.7499899376392
 20
-1011.074201139553
 30
0.0000000000017296
 11
647.7499899376392
 21
-1013.074197742088
 31
0.0000000000017296
  0
ARC
  5
21DE1
330
18
100
AcDbEntity
  8
1DIM
  6
PHANTOM2
 48
0.5
100
AcDbCircle
 10
646.7500000000005
 20
-1013.074200094467
 30
0.0000000000017296
 40
1.0
100
AcDbArc
 50
270.0
 51
0.0
  0
LINE
  5
21DE2
330
18
100
AcDbEntity
  8
1DIM
  6
PHANTOM2
 48
0.5
100
AcDbLine
 10
646.7500028122424
 20
-1014.074199768646
 30
0.0000000000017296
 11
640.7499906528949
 21
-1014.074199768646
 31
0.0000000000017296
  0
ARC
  5
21DE3
330
18
100
AcDbEntity
  8
1DIM
  6
PHANTOM2
 48
0.5
100
AcDbCircle
 10
640.7500000000005
 20
-1024.074200094467
 30
0.0000000000017296
 40
10.00000000000006
100
AcDbArc
 50
90.0
 51
97.22591835932812
  0
LINE
  5
21DE4
330
18
100
AcDbEntity
  8
1DIM
  6
PHANTOM2
 48
0.5
100
AcDbLine
 10
630.7500001896381
 20
-1024.074201407774
 30
0.0000000000017296
 11
630.7500001896381
 21
-1034.324199828251
 31
0.0000000000017296
  0
ARC
  5
21DE5
330
18
100
AcDbEntity
  8
1DIM
  6
PHANTOM2
 48
0.5
100
AcDbCircle
 10
629.7500000000005
 20
-1034.324200094467
 30
0.0000000000017296
 40
1.0
100
AcDbArc
 50
270.0
 51
0.0
  0
LINE
  5
21DE6
330
18
100
AcDbEntity
  8
1DIM
  6
PHANTOM2
 48
0.5
100
AcDbLine
 10
629.7499981630801
 20
-1035.324201854809
 30
0.0000000000017296
 11
624.2499944675922
 21
-1035.324201854809
 31
0.0000000000017296
  0
ARC
  5
21DE7
330
18
100
AcDbEntity
  8
1DIM
  6
PHANTOM2
 48
0.5
100
AcDbCircle
 10
624.2500000000005
 20
-1034.324200094467
 30
0.0000000000017296
 40
1.000000000000057
100
AcDbArc
 50
180.0
 51
270.0
  0
LINE
  5
21DE8
330
18
100
AcDbEntity
  8
1DIM
  6
PHANTOM2
 48
0.5
100
AcDbLine
 10
623.2500073421954
 20
-1034.324199828251
 30
0.0000000000017296
 11
623.2500073421954
 21
-1011.074201139553
 31
0.0000000000017296
  0
ARC
  5
21DE9
330
18
100
AcDbEntity
  8
1DIM
  6
PHANTOM2
 48
0.5
100
AcDbCircle
 10
640.7500000000005
 20
-1024.074200094467
 30
0.0000000000017296
 40
10.00000000000024
100
AcDbArc
 50
157.5507277804412
 51
180.0
  0
LINE
  5
21DEC
330
18
100
AcDbEntity
  8
01
100
AcDbLine
 10
724.0784959123935
 20
-1122.309654027685
 30
0.0000000000017296
 11
725.0784959123935
 21
-1121.309654327685
 31
0.0000000000017296
  0
LINE
  5
21DED
330
18
100
AcDbEntity
  8
01
100
AcDbLine
 10
724.0784959123935
 20
-1125.609654177685
 30
0.0000000000017296
 11
725.0784959123935
 21
-1125.609654177685
 31
0.0000000000017296
  0
LINE
  5
21DEE
330
18
100
AcDbEntity
  8
01
100
AcDbLine
 10
725.0784959123935
 20
-1125.609654177685
 30
0.0000000000017296
 11
725.0784959123935
 21
-1118.009654177685
 31
0.0000000000017296
  0
LINE
  5
21DEF
330
18
100
AcDbEntity
  8
01
100
AcDbLine
 10
724.0784959123935
 20
-1125.609654177685
 30
0.0000000000017296
 11
724.0784959123935
 21
-1118.009654177685
 31
0.0000000000017296
  0
LINE
  5
21DF0
330
18
100
AcDbEntity
  8
01
100
AcDbLine
 10
724.0784959123935
 20
-1118.009654177685
 30
0.0000000000017296
 11
725.0784959123935
 21
-1118.009654177685
 31
0.0000000000017296
  0
LINE
  5
21DF2
330
18
100
AcDbEntity
  8
01
  6
CONTINUOUS
100
AcDbLine
 10
637.7360817898273
 20
-1013.074201139553
 30
0.0000000000017296
 11
633.2639303911685
 21
-1013.074201139553
 31
0.0000000000017296
  0
LINE
  5
21DF9
330
18
100
AcDbEntity
  8
01
100
AcDbLine
 10
636.0000059404979
 20
-1014.074201139553
 30
0.0000000000017296
 11
635.0000062404979
 21
-1013.074201139553
 31
0.0000000000017296
  0
LINE
  5
21DFA
330
18
100
AcDbEntity
  8
01
100
AcDbLine
 10
639.3000060904978
 20
-1014.074201139553
 30
0.0000000000017296
 11
639.3000060904978
 21
-1013.074201139553
 31
0.0000000000017296
  0
LINE
  5
21DFB
330
18
100
AcDbEntity
  8
01
100
AcDbLine
 10
639.3000060904978
 20
-1013.074201139553
 30
0.0000000000017296
 11
631.7000060904979
 21
-1013.074201139553
 31
0.0000000000017296
  0
LINE
  5
21DFC
330
18
100
AcDbEntity
  8
01
100
AcDbLine
 10
639.3000060904978
 20
-1014.074201139553
 30
0.0000000000017296
 11
631.7000060904979
 21
-1014.074201139553
 31
0.0000000000017296
  0
LINE
  5
21DFD
330
18
100
AcDbEntity
  8
01
100
AcDbLine
 10
631.7000060904979
 20
-1014.074201139553
 30
0.0000000000017296
 11
631.7000060904979
 21
-1013.074201139553
 31
0.0000000000017296
  0
SPLINE
  5
21DFF
330
18
100
AcDbEntity
  8
1DIM
  6
PHANTOM2
 48
0.5
100
AcDbSpline
210
0.0
220
0.0
230
1.0
 70
     8
 71
     3
 72
    17
 73
    13
 74
     0
 42
0.000000001
 43
0.00000001
 40
0.0
 40
0.0
 40
0.0
 40
0.0
 40
0.0419381346523033
 40
0.099195463786374
 40
0.2130202376691349
 40
0.3903897917647292
 40
0.5207024636636643
 40
0.6257906616334477
 40
0.7314338988804189
 40
0.8244553423288035
 40
0.9141075887594972
 40
1.0
 40
1.0
 40
1.0
 40
1.0
 10
39.49998886475555
 20
-1020.274528237923
 30
0.0000000000017296
 10
39.49044235880103
 20
-1020.250923782012
 30
0.0000000000017296
 10
39.46786219176329
 20
-1020.195092616153
 30
0.0000000000017296
 10
39.23085185789728
 20
-1019.650137233342
 30
0.0000000000017296
 10
38.6266015790377
 20
-1018.520858954729
 30
0.0000000000017296
 10
37.49617626201666
 20
-1017.072014997196
 30
0.0000000000017296
 10
35.98179502559003
 20
-1015.819727359756
 30
0.0000000000017296
 10
34.5331373666138
 20
-1014.994861116508
 30
0.0000000000017296
 10
33.23316924084224
 20
-1014.503741165115
 30
0.0000000000017296
 10
32.23727131222336
 20
-1014.262456364112
 30
0.0000000000017296
 10
31.61135446318474
 20
-1014.165487341852
 30
0.0000000000017296
 10
31.54441032380896
 20
-1014.157916095802
 30
0.0000000000017296
 10
31.51165516266815
 20
-1014.154211553677
 30
0.0000000000017296
  0
LINE
  5
21E00
330
18
100
AcDbEntity
  8
1DIM
  6
PHANTOM2
 48
0.5
100
AcDbLine
 10
23.25000436196319
 20
-1011.074201139553
 30
0.0000000000017296
 11
23.25000436196319
 21
-1013.074197742088
 31
0.0000000000017296
  0
ARC
  5
21E01
330
18
100
AcDbEntity
  8
1DIM
  6
PHANTOM2
 48
0.5
100
AcDbCircle
 10
24.24999429960189
 20
-1013.074200094467
 30
0.0000000000017296
 40
1.0
100
AcDbArc
 50
180.0
 51
270.0
  0
LINE
  5
21E02
330
18
100
AcDbEntity
  8
1DIM
  6
PHANTOM2
 48
0.5
100
AcDbLine
 10
24.24999148735992
 20
-1014.074199768646
 30
0.0000000000017296
 11
30.25000364670746
 21
-1014.074199768646
 31
0.0000000000017296
  0
ARC
  5
21E03
330
18
100
AcDbEntity
  8
1DIM
  6
PHANTOM2
 48
0.5
100
AcDbCircle
 10
30.24999429960189
 20
-1024.074200094467
 30
0.0000000000017296
 40
10.00000000000006
100
AcDbArc
 50
82.7740816406719
 51
90.0
  0
LINE
  5
21E04
330
18
100
AcDbEntity
  8
1DIM
  6
PHANTOM2
 48
0.5
100
AcDbLine
 10
40.24999410996429
 20
-1024.074201407774
 30
0.0000000000017296
 11
40.24999410996429
 21
-1034.324199828251
 31
0.0000000000017296
  0
ARC
  5
21E05
330
18
100
AcDbEntity
  8
1DIM
  6
PHANTOM2
 48
0.5
100
AcDbCircle
 10
41.24999429960189
 20
-1034.324200094467
 30
0.0000000000017296
 40
1.0
100
AcDbArc
 50
180.0
 51
270.0
  0
LINE
  5
21E06
330
18
100
AcDbEntity
  8
1DIM
  6
PHANTOM2
 48
0.5
100
AcDbLine
 10
41.24999613652221
 20
-1035.324201854809
 30
0.0000000000017296
 11
46.74999983201019
 21
-1035.324201854809
 31
0.0000000000017296
  0
ARC
  5
21E07
330
18
100
AcDbEntity
  8
1DIM
  6
PHANTOM2
 48
0.5
100
AcDbCircle
 10
46.74999429960189
 20
-1034.324200094467
 30
0.0000000000017296
 40
1.000000000000057
100
AcDbArc
 50
270.0
 51
0.0
  0
LINE
  5
21E08
330
18
100
AcDbEntity
  8
1DIM
  6
PHANTOM2
 48
0.5
100
AcDbLine
 10
47.74998695740692
 20
-1034.324199828251
 30
0.0000000000017296
 11
47.74998695740692
 21
-1011.074201139553
 31
0.0000000000017296
  0
ARC
  5
21E09
330
18
100
AcDbEntity
  8
1DIM
  6
PHANTOM2
 48
0.5
100
AcDbCircle
 10
30.24999429960189
 20
-1024.074200094467
 30
0.0000000000017296
 40
10.00000000000024
100
AcDbArc
 50
0.0
 51
22.44927221955867
  0
LINE
  5
21E0A
330
18
100
AcDbEntity
  8
01
  6
CONTINUOUS
100
AcDbLine
 10
33.26391250977508
 20
-1013.074201139553
 30
0.0000000000017296
 11
37.73606390843383
 21
-1013.074201139553
 31
0.0000000000017296
  0
LINE
  5
21E0B
330
18
100
AcDbEntity
  8
01
100
AcDbLine
 10
34.99998835910446
 20
-1014.074201139553
 30
0.0000000000017296
 11
35.99998805910445
 21
-1013.074201139553
 31
0.0000000000017296
  0
LINE
  5
21E0C
330
18
100
AcDbEntity
  8
01
100
AcDbLine
 10
31.6999882091045
 20
-1014.074201139553
 30
0.0000000000017296
 11
31.6999882091045
 21
-1013.074201139553
 31
0.0000000000017296
  0
LINE
  5
21E0D
330
18
100
AcDbEntity
  8
01
100
AcDbLine
 10
31.6999882091045
 20
-1013.074201139553
 30
0.0000000000017296
 11
39.29998820910441
 21
-1013.074201139553
 31
0.0000000000017296
  0
LINE
  5
21E0E
330
18
100
AcDbEntity
  8
01
100
AcDbLine
 10
31.6999882091045
 20
-1014.074201139553
 30
0.0000000000017296
 11
39.29998820910441
 21
-1014.074201139553
 31
0.0000000000017296
  0
LINE
  5
21E0F
330
18
100
AcDbEntity
  8
01
100
AcDbLine
 10
39.29998820910441
 20
-1014.074201139553
 30
0.0000000000017296
 11
39.29998820910441
 21
-1013.074201139553
 31
0.0000000000017296
  0
LINE
  5
21E11
102
{ACAD_REACTORS
330
21E18
102
}
330
18
100
AcDbEntity
  8
01
100
AcDbLine
 10
748.5784959123935
 20
-1086.027502192865
 30
0.0000000000017296
 11
748.5784959123935
 21
-1160.483849363429
 31
0.0000000000017296
  0
LINE
  5
21E13
330
18
100
AcDbEntity
  8
01
100
AcDbLine
 10
739.5784959123935
 20
-1086.027502192865
 30
0.0000000000017296
 11
739.5784959123935
 21
-1160.483849363429
 31
0.0000000000017296
  0
LINE
  5
21E14
330
18
100
AcDbEntity
  8
01
100
AcDbLine
 10
727.0784959123935
 20
-1086.027502192865
 30
0.0000000000017296
 11
727.0784959123935
 21
-1160.483849363429
 31
0.0000000000017296
  0
CIRCLE
  5
21E1E
330
18
100
AcDbEntity
  8
1PHANTOM
100
AcDbCircle
 10
635.4999824972219
 20
-1121.809654225766
 30
0.0000000000017296
 40
2.25
  0
LINE
  5
21E1F
330
18
100
AcDbEntity
  8
1CENTER
100
AcDbLine
 10
635.499982545303
 20
-1118.688339859732
 30
0.0000000000017296
 11
635.499982545303
 21
-1124.9309685918
 31
0.0000000000017296
  0
CIRCLE
  5
21E20
330
18
100
AcDbEntity
  8
1PHANTOM
100
AcDbCircle
 10
35.49998821220879
 20
-1121.809654225766
 30
0.0000000000017296
 40
2.249999999999999
  0
LINE
  5
21E21
330
18
100
AcDbEntity
  8
1CENTER
100
AcDbLine
 10
35.49998826028968
 20
-1124.9309685918
 30
0.0000000000017296
 11
35.49998826028968
 21
-1118.688339859732
 31
0.0000000000017296
  0
LINE
  5
21E22
330
18
100
AcDbEntity
  8
1CENTER
100
AcDbLine
 10
632.3786681311881
 20
-1121.809654177685
 30
0.0000000000017296
 11
638.6212968632558
 21
-1121.809654177685
 31
0.0000000000017296
  0
LINE
  5
21E23
330
18
100
AcDbEntity
  8
1CENTER
100
AcDbLine
 10
38.62130257824265
 20
-1121.809654177685
 30
0.0000000000017296
 11
32.37867384617493
 21
-1121.809654177685
 31
0.0000000000017296
  0
LINE
  5
222CC
330
18
100
AcDbEntity
  8
1DIM
  6
PHANTOM2
100
AcDbLine
 10
727.0784959123935
 20
-1135.309654877109
 30
0.0000000000017296
 11
703.8281037399768
 21
-1135.309654877109
 31
0.0000000000017296
  0
LINE
  5
222CD
330
18
100
AcDbEntity
  8
1DIM
  6
PHANTOM2
100
AcDbLine
 10
727.0784959123935
 20
-1109.809654655454
 30
0.0000000000017296
 11
703.8284969574802
 21
-1109.809654954419
 31
0.0000000000017296
  0
ARC
  5
222CE
330
18
100
AcDbEntity
  8
1DIM
  6
PHANTOM2
100
AcDbCircle
 10
703.8284969574802
 20
-1134.309654954419
 30
0.0000000000017296
 40
1.0
100
AcDbArc
 50
180.0
 51
270.0
  0
LINE
  5
222CF
330
18
100
AcDbEntity
  8
1DIM
  6
PHANTOM2
100
AcDbLine
 10
702.8284951971377
 20
-1110.809654819367
 30
0.0000000000017296
 11
702.8284951971377
 21
-1134.309654946027
 31
0.0000000000017296
  0
ARC
  5
222D0
330
18
100
AcDbEntity
  8
1DIM
  6
PHANTOM2
100
AcDbCircle
 10
703.8284969574802
 20
-1110.809654954419
 30
0.0000000000017296
 40
1.0
100
AcDbArc
 50
90.0
 51
180.0
  0
LINE
  5
222D1
330
18
100
AcDbEntity
  8
1DIM
  6
PHANTOM2
100
AcDbLine
 10
727.0784959123935
 20
-1109.809654655454
 30
0.0000000000017296
 11
727.0784959123935
 21
-1135.309654877109
 31
0.0000000000017296
  0
TEXT
  5
22396
330
18
100
AcDbEntity
  8
1TEXT
100
AcDbText
 10
783.8636594485647
 20
-1084.078051618075
 30
0.0
 40
8.0
  1
SE-321-XXL
100
AcDbText
  0
TEXT
  5
22397
330
18
100
AcDbEntity
  8
1TEXT
100
AcDbText
 10
821.3836594485643
 20
-1094.578051618075
 30
0.0
 40
4.0
  1
表面処理：カバー
 41
0.8
 72
     1
 11
836.2636594485643
 21
-1094.578051618075
 31
0.0
100
AcDbText
  0
TEXT
  5
22398
330
18
100
AcDbEntity
  8
1TEXT
100
AcDbText
 10
820.130326115231
 20
-1101.4133402776
 30
0.0
 40
4.0
  1
ヘンプブラック
 72
     1
 11
836.2636594485643
 21
-1101.4133402776
 31
0.0
100
AcDbText
  0
LINE
  5
22399
330
18
100
AcDbEntity
  8
1DIM
100
AcDbLine
 10
783.8636594485647
 20
-1089.078051618075
 30
0.0
 11
888.8636594485647
 21
-1089.078051618075
 31
0.0
  0
LINE
  5
2239A
330
18
100
AcDbEntity
  8
1DIM
100
AcDbLine
 10
783.8636594485647
 20
-1103.078051618075
 30
0.0
 11
888.8636594485647
 21
-1103.078051618075
 31
0.0
  0
LINE
  5
2239B
330
18
100
AcDbEntity
  8
1DIM
100
AcDbLine
 10
783.8636594485647
 20
-1096.078051618075
 30
0.0
 11
888.8636594485647
 21
-1096.078051618075
 31
0.0
  0
LINE
  5
2239C
330
18
100
AcDbEntity
  8
1DIM
100
AcDbLine
 10
853.8636594485647
 20
-1089.078051618075
 30
0.0
 11
853.8636594485647
 21
-1123.792408601724
 31
0.0
  0
TEXT
  5
2239D
330
18
100
AcDbEntity
  8
1TEXT
100
AcDbText
 10
864.3969927818977
 20
-1094.578051618075
 30
0.0
 40
4.0
  1
コード
 72
     1
 11
871.2636594485643
 21
-1094.578051618075
 31
0.0
100
AcDbText
  0
LINE
  5
2239E
330
18
100
AcDbEntity
  8
1DIM
100
AcDbLine
 10
818.8636594485647
 20
-1124.078051618075
 30
0.0
 11
818.8636594485647
 21
-1089.078051618075
 31
0.0
  0
LINE
  5
2239F
330
18
100
AcDbEntity
  8
1DIM
100
AcDbLine
 10
888.8636594485647
 20
-1124.078051618075
 30
0.0
 11
888.8636594485647
 21
-1089.078051618075
 31
0.0
  0
TEXT
  5
223A0
330
18
100
AcDbEntity
  8
1TEXT
100
AcDbText
 10
788.090326115231
 20
-1094.578051618075
 30
0.0
 40
4.0
  1
表面処理：本体
 41
0.8
 72
     1
 11
801.2636594485643
 21
-1094.578051618075
 31
0.0
100
AcDbText
  0
TEXT
  5
223A1
330
18
100
AcDbEntity
  8
1TEXT
100
AcDbText
 10
787.4636594485644
 20
-1101.4133402776
 30
0.0
 40
4.0
  1
ダークグレー
 72
     1
 11
801.2636594485643
 21
-1101.4133402776
 31
0.0
100
AcDbText
  0
LINE
  5
223A2
330
18
100
AcDbEntity
  8
1DIM
100
AcDbLine
 10
783.8636594485647
 20
-1124.078051618075
 30
0.0
 11
783.8636594485647
 21
-1089.078051618075
 31
0.0
  0
TEXT
  5
223A3
330
18
100
AcDbEntity
  8
1TEXT
100
AcDbText
 10
857.5060205596764
 20
-1101.792408601724
 30
0.0
 40
4.0
  1
SE-321-100085L
 41
0.55
 72
     1
 11
871.2636594485652
 21
-1101.792408601724
 31
0.0
100
AcDbText
  0
TEXT
  5
223A4
330
18
100
AcDbEntity
  8
1TEXT
100
AcDbText
 10
819.930326115231
 20
-1108.4133402776
 30
0.0
 40
4.0
  1
ヘンプブラウン
 72
     1
 11
836.2636594485643
 21
-1108.4133402776
 31
0.0
100
AcDbText
  0
LINE
  5
223A5
330
18
100
AcDbEntity
  8
1DIM
100
AcDbLine
 10
783.8636594485647
 20
-1110.078051618075
 30
0.0
 11
888.8636594485647
 21
-1110.078051618075
 31
0.0
  0
TEXT
  5
223A6
330
18
100
AcDbEntity
  8
1TEXT
100
AcDbText
 10
787.1969927818976
 20
-1108.4133402776
 30
0.0
 40
4.0
  1
モカブラウン
 72
     1
 11
801.2636594485643
 21
-1108.4133402776
 31
0.0
100
AcDbText
  0
TEXT
  5
223A7
330
18
100
AcDbEntity
  8
1TEXT
100
AcDbText
 10
857.6893538930096
 20
-1108.792408601724
 30
0.0
 40
4.0
  1
SE-321-101086L
 41
0.55
 72
     1
 11
871.2636594485652
 21
-1108.792408601724
 31
0.0
100
AcDbText
  0
TEXT
  5
223A8
330
18
100
AcDbEntity
  8
1TEXT
100
AcDbText
 10
822.530326115231
 20
-1115.4133402776
 30
0.0
 40
4.0
  1
ヘンプグレー
 72
     1
 11
836.2636594485643
 21
-1115.4133402776
 31
0.0
100
AcDbText
  0
LINE
  5
223A9
330
18
100
AcDbEntity
  8
1DIM
100
AcDbLine
 10
783.8636594485647
 20
-1117.078051618075
 30
0.0
 11
888.8636594485647
 21
-1117.078051618075
 31
0.0
  0
TEXT
  5
223AA
330
18
100
AcDbEntity
  8
1TEXT
100
AcDbText
 10
784.9969927818977
 20
-1115.4133402776
 30
0.0
 40
4.0
  1
サンドベージュ
 72
     1
 11
801.2636594485643
 21
-1115.4133402776
 31
0.0
100
AcDbText
  0
TEXT
  5
223AB
330
18
100
AcDbEntity
  8
1TEXT
100
AcDbText
 10
857.330326115232
 20
-1115.792408601724
 30
0.0
 40
4.0
  1
SE-321-102087L
 41
0.55
 72
     1
 11
871.2636594485652
 21
-1115.792408601724
 31
0.0
100
AcDbText
  0
TEXT
  5
223AC
330
18
100
AcDbEntity
  8
1TEXT
100
AcDbText
 10
820.130326115231
 20
-1122.4133402776
 30
0.0
 40
4.0
  1
ヘンプゴールド
 72
     1
 11
836.2636594485643
 21
-1122.4133402776
 31
0.0
100
AcDbText
  0
LINE
  5
223AD
330
18
100
AcDbEntity
  8
1DIM
100
AcDbLine
 10
783.8636594485647
 20
-1124.078051618075
 30
0.0
 11
888.8636594485647
 21
-1124.078051618075
 31
0.0
  0
TEXT
  5
223AE
330
18
100
AcDbEntity
  8
1TEXT
100
AcDbText
 10
784.2836594485643
 20
-1122.4133402776
 30
0.0
 40
4.0
  1
オリーブグリーン
 41
0.9
 72
     1
 11
801.2636594485643
 21
-1122.4133402776
 31
0.0
100
AcDbText
  0
TEXT
  5
223AF
330
18
100
AcDbEntity
  8
1TEXT
100
AcDbText
 10
857.330326115232
 20
-1122.792408601724
 30
0.0
 40
4.0
  1
SE-321-103088L
 41
0.55
 72
     1
 11
871.2636594485652
 21
-1122.792408601724
 31
0.0
100
AcDbText
  0
LINE
  5
22777
330
18
100
AcDbEntity
  8
01
  6
CONTINUOUS
100
AcDbLine
 10
26.76162691006652
 20
-1134.659653885809
 30
0.0
 11
25.93520851025573
 21
-1134.484396672395
 31
0.0
  0
LINE
  5
22778
330
18
100
AcDbEntity
  8
01
  6
CONTINUOUS
100
AcDbLine
 10
25.93520851025573
 20
-1134.484396672395
 30
0.0
 11
25.13135046849243
 21
-1133.96340551093
 31
0.0
  0
LINE
  5
22779
330
18
100
AcDbEntity
  8
01
  6
CONTINUOUS
100
AcDbLine
 10
25.13135046849243
 20
-1133.96340551093
 30
0.0
 11
24.37194259057037
 21
-1133.110891452578
 31
0.0
  0
LINE
  5
2277A
330
18
100
AcDbEntity
  8
01
  6
CONTINUOUS
100
AcDbLine
 10
24.37194259057037
 20
-1133.110891452578
 30
0.0
 11
23.6777272928714
 21
-1131.950109622029
 31
0.0
  0
LINE
  5
2277B
330
18
100
AcDbEntity
  8
01
  6
CONTINUOUS
100
AcDbLine
 10
23.6777272928714
 20
-1131.950109622029
 30
0.0
 11
23.06762905011169
 21
-1130.51272172719
 31
0.0
  0
LINE
  5
2277C
330
18
100
AcDbEntity
  8
01
  6
CONTINUOUS
100
AcDbLine
 10
23.06762905011169
 20
-1130.51272172719
 30
0.0
 11
22.55830736050598
 21
-1128.837937379775
 31
0.0
  0
LINE
  5
2277D
330
18
100
AcDbEntity
  8
01
  6
CONTINUOUS
100
AcDbLine
 10
22.55830736050598
 20
-1128.837937379775
 30
0.0
 11
22.16362030396454
 21
-1126.971440280375
 31
0.0
  0
LINE
  5
2277E
330
18
100
AcDbEntity
  8
01
  6
CONTINUOUS
100
AcDbLine
 10
22.16362030396454
 20
-1126.971440280375
 30
0.0
 11
21.8943712223529
 21
-1124.964142108855
 31
0.0
  0
LINE
  5
2277F
330
18
100
AcDbEntity
  8
01
  6
CONTINUOUS
100
AcDbLine
 10
21.8943712223529
 20
-1124.964142108855
 30
0.0
 11
21.75787658581726
 21
-1122.870798113343
 31
0.0
  0
LINE
  5
22780
330
18
100
AcDbEntity
  8
01
  6
CONTINUOUS
100
AcDbLine
 10
21.75787658581726
 20
-1122.870798113343
 30
0.0
 11
21.75787658581726
 21
-1120.748509543535
 31
0.0
  0
LINE
  5
22781
330
18
100
AcDbEntity
  8
01
  6
CONTINUOUS
100
AcDbLine
 10
21.75787658581726
 20
-1120.748509543535
 30
0.0
 11
21.8943712223529
 21
-1118.655164616701
 31
0.0
  0
LINE
  5
22782
330
18
100
AcDbEntity
  8
01
  6
CONTINUOUS
100
AcDbLine
 10
21.8943712223529
 20
-1118.655164616701
 30
0.0
 11
22.16362030396454
 21
-1116.647868307826
 31
0.0
  0
LINE
  5
22783
330
18
100
AcDbEntity
  8
01
  6
CONTINUOUS
100
AcDbLine
 10
22.16362030396454
 20
-1116.647868307826
 30
0.0
 11
22.55830736050598
 21
-1114.781369345782
 31
0.0
  0
LINE
  5
22784
330
18
100
AcDbEntity
  8
01
  6
CONTINUOUS
100
AcDbLine
 10
22.55830736050598
 20
-1114.781369345782
 30
0.0
 11
23.06762905011169
 21
-1113.106584998367
 31
0.0
  0
LINE
  5
22785
330
18
100
AcDbEntity
  8
01
  6
CONTINUOUS
100
AcDbLine
 10
23.06762905011169
 20
-1113.106584998367
 30
0.0
 11
23.6777272928714
 21
-1111.669198500511
 31
0.0
  0
LINE
  5
22786
330
18
100
AcDbEntity
  8
01
  6
CONTINUOUS
100
AcDbLine
 10
23.6777272928714
 20
-1111.669198500511
 30
0.0
 11
24.37194259057037
 21
-1110.508416669962
 31
0.0
  0
LINE
  5
22787
330
18
100
AcDbEntity
  8
01
  6
CONTINUOUS
100
AcDbLine
 10
24.37194259057037
 20
-1110.508416669962
 30
0.0
 11
25.13135046849243
 21
-1109.655902611611
 31
0.0
  0
LINE
  5
22788
330
18
100
AcDbEntity
  8
01
  6
CONTINUOUS
100
AcDbLine
 10
25.13135046849243
 20
-1109.655902611611
 30
0.0
 11
25.93520851025573
 21
-1109.134911450145
 31
0.0
  0
LINE
  5
22789
330
18
100
AcDbEntity
  8
01
  6
CONTINUOUS
100
AcDbLine
 10
25.93520851025573
 20
-1109.134911450145
 30
0.0
 11
26.76162691006652
 21
-1108.959653305409
 31
0.0
  0
LINE
  5
2278A
330
18
100
AcDbEntity
  8
01
  6
CONTINUOUS
100
AcDbLine
 10
644.238382290697
 20
-1108.959653305409
 30
0.0
 11
645.0647708881854
 21
-1109.134911450145
 31
0.0
  0
LINE
  5
2278B
330
18
100
AcDbEntity
  8
01
  6
CONTINUOUS
100
AcDbLine
 10
645.0647708881854
 20
-1109.134911450145
 30
0.0
 11
645.8686587322711
 21
-1109.655902611611
 31
0.0
  0
LINE
  5
2278C
330
18
100
AcDbEntity
  8
01
  6
CONTINUOUS
100
AcDbLine
 10
645.8686587322711
 20
-1109.655902611611
 30
0.0
 11
646.628051709032
 21
-1110.508416669962
 31
0.0
  0
LINE
  5
2278D
330
18
100
AcDbEntity
  8
01
  6
CONTINUOUS
100
AcDbLine
 10
646.628051709032
 20
-1110.508416669962
 30
0.0
 11
647.322267006731
 21
-1111.669198500511
 31
0.0
  0
LINE
  5
2278E
330
18
100
AcDbEntity
  8
01
  6
CONTINUOUS
100
AcDbLine
 10
647.322267006731
 20
-1111.669198500511
 30
0.0
 11
647.9323801506519
 21
-1113.106584998367
 31
0.0
  0
LINE
  5
2278F
330
18
100
AcDbEntity
  8
01
  6
CONTINUOUS
100
AcDbLine
 10
647.9323801506519
 20
-1113.106584998367
 30
0.0
 11
648.4417018402576
 21
-1114.781369345782
 31
0.0
  0
LINE
  5
22790
330
18
100
AcDbEntity
  8
01
  6
CONTINUOUS
100
AcDbLine
 10
648.4417018402576
 20
-1114.781369345782
 30
0.0
 11
648.8363739956378
 21
-1116.647868307826
 31
0.0
  0
LINE
  5
22791
330
18
100
AcDbEntity
  8
01
  6
CONTINUOUS
100
AcDbLine
 10
648.8363739956378
 20
-1116.647868307826
 30
0.0
 11
649.1056379784106
 21
-1118.655164616701
 31
0.0
  0
LINE
  5
22792
330
18
100
AcDbEntity
  8
01
  6
CONTINUOUS
100
AcDbLine
 10
649.1056379784106
 20
-1118.655164616701
 30
0.0
 11
649.2421326149463
 21
-1120.748509543535
 31
0.0
  0
LINE
  5
22793
330
18
100
AcDbEntity
  8
01
  6
CONTINUOUS
100
AcDbLine
 10
649.2421326149463
 20
-1120.748509543535
 30
0.0
 11
649.2421326149463
 21
-1122.870798113343
 31
0.0
  0
LINE
  5
22794
330
18
100
AcDbEntity
  8
01
  6
CONTINUOUS
100
AcDbLine
 10
649.2421326149463
 20
-1122.870798113343
 30
0.0
 11
649.1056379784106
 21
-1124.964142108855
 31
0.0
  0
LINE
  5
22795
330
18
100
AcDbEntity
  8
01
  6
CONTINUOUS
100
AcDbLine
 10
649.1056379784106
 20
-1124.964142108855
 30
0.0
 11
648.8363739956378
 21
-1126.971440280375
 31
0.0
  0
LINE
  5
22796
330
18
100
AcDbEntity
  8
01
  6
CONTINUOUS
100
AcDbLine
 10
648.8363739956378
 20
-1126.971440280375
 30
0.0
 11
648.4417018402576
 21
-1128.837937379775
 31
0.0
  0
LINE
  5
22797
330
18
100
AcDbEntity
  8
01
  6
CONTINUOUS
100
AcDbLine
 10
648.4417018402576
 20
-1128.837937379775
 30
0.0
 11
647.9323801506519
 21
-1130.51272172719
 31
0.0
  0
LINE
  5
22798
330
18
100
AcDbEntity
  8
01
  6
CONTINUOUS
100
AcDbLine
 10
647.9323801506519
 20
-1130.51272172719
 30
0.0
 11
647.322267006731
 21
-1131.950109622029
 31
0.0
  0
LINE
  5
22799
330
18
100
AcDbEntity
  8
01
  6
CONTINUOUS
100
AcDbLine
 10
647.322267006731
 20
-1131.950109622029
 30
0.0
 11
646.628051709032
 21
-1133.110891452578
 31
0.0
  0
LINE
  5
2279A
330
18
100
AcDbEntity
  8
01
  6
CONTINUOUS
100
AcDbLine
 10
646.628051709032
 20
-1133.110891452578
 30
0.0
 11
645.8686587322711
 21
-1133.96340551093
 31
0.0
  0
LINE
  5
2279B
330
18
100
AcDbEntity
  8
01
  6
CONTINUOUS
100
AcDbLine
 10
645.8686587322711
 20
-1133.96340551093
 30
0.0
 11
645.0647708881854
 21
-1134.484396672395
 31
0.0
  0
LINE
  5
2279C
330
18
100
AcDbEntity
  8
01
  6
CONTINUOUS
100
AcDbLine
 10
645.0647708881854
 20
-1134.484396672395
 30
0.0
 11
644.238382290697
 21
-1134.659653885809
 31
0.0
  0
LINE
  5
2279D
330
18
100
AcDbEntity
  8
01
  6
CONTINUOUS
100
AcDbLine
 10
644.238382290697
 20
-1134.80965386383
 30
0.0
 11
645.074426840639
 21
-1134.632351000381
 31
0.0
  0
LINE
  5
2279E
330
18
100
AcDbEntity
  8
01
  6
CONTINUOUS
100
AcDbLine
 10
645.074426840639
 20
-1134.632351000381
 30
0.0
 11
645.7620856274127
 21
-1134.210979456601
 31
0.0
  0
LINE
  5
2279F
330
18
100
AcDbEntity
  8
01
  6
CONTINUOUS
100
AcDbLine
 10
645.4593834389209
 20
-1109.190831782815
 30
0.0
 11
645.074426840639
 21
-1108.986957820651
 31
0.0
  0
LINE
  5
227A0
330
18
100
AcDbEntity
  8
01
  6
CONTINUOUS
100
AcDbLine
 10
645.074426840639
 20
-1108.986957820651
 30
0.0
 11
644.238382290697
 21
-1108.809654491541
 31
0.0
  0
LINE
  5
227A1
330
18
100
AcDbEntity
  8
01
  6
CONTINUOUS
100
AcDbLine
 10
26.76162691006652
 20
-1108.809654491541
 30
0.0
 11
25.92556745896331
 21
-1108.986957820651
 31
0.0
  0
LINE
  5
227A2
330
18
100
AcDbEntity
  8
01
  6
CONTINUOUS
100
AcDbLine
 10
25.92556745896331
 20
-1108.986957820651
 30
0.0
 11
25.23792357335083
 21
-1109.408329131601
 31
0.0
  0
LINE
  5
227A3
330
18
100
AcDbEntity
  8
01
  6
CONTINUOUS
100
AcDbLine
 10
25.54061086068145
 20
-1134.428476805386
 30
0.0
 11
25.92556745896331
 21
-1134.632351000381
 31
0.0
  0
LINE
  5
227A4
330
18
100
AcDbEntity
  8
01
  6
CONTINUOUS
100
AcDbLine
 10
25.92556745896331
 20
-1134.632351000381
 30
0.0
 11
26.76162691006652
 21
-1134.80965386383
 31
0.0
  0
LINE
  5
227A5
330
18
100
AcDbEntity
  8
01
  6
CONTINUOUS
100
AcDbLine
 10
645.7620856274127
 20
-1134.210979456601
 30
0.0
 11
645.8876726139545
 21
-1134.105278069672
 31
0.0
  0
LINE
  5
227A6
330
18
100
AcDbEntity
  8
01
  6
CONTINUOUS
100
AcDbLine
 10
645.8876726139545
 20
-1134.105278069672
 30
0.0
 11
646.6559466827869
 21
-1133.242812829611
 31
0.0
  0
LINE
  5
227A7
330
18
100
AcDbEntity
  8
01
  6
CONTINUOUS
100
AcDbLine
 10
646.6559466827869
 20
-1133.242812829611
 30
0.0
 11
647.3582682121753
 21
-1132.068480721262
 31
0.0
  0
LINE
  5
227A8
330
18
100
AcDbEntity
  8
01
  6
CONTINUOUS
100
AcDbLine
 10
647.3582682121753
 20
-1132.068480721262
 30
0.0
 11
647.9754743088245
 21
-1130.614314118919
 31
0.0
  0
LINE
  5
227A9
330
18
100
AcDbEntity
  8
01
  6
CONTINUOUS
100
AcDbLine
 10
647.9754743088245
 20
-1130.614314118919
 30
0.0
 11
648.4907564629077
 21
-1128.91998037934
 31
0.0
  0
LINE
  5
227AA
330
18
100
AcDbEntity
  8
01
  6
CONTINUOUS
100
AcDbLine
 10
648.4907564629077
 20
-1128.91998037934
 30
0.0
 11
648.890047978258
 21
-1127.031694056985
 31
0.0
  0
LINE
  5
227AB
330
18
100
AcDbEntity
  8
01
  6
CONTINUOUS
100
AcDbLine
 10
648.890047978258
 20
-1127.031694056985
 30
0.0
 11
649.1624412048816
 21
-1125.000965672133
 31
0.0
  0
LINE
  5
227AC
330
18
100
AcDbEntity
  8
01
  6
CONTINUOUS
100
AcDbLine
 10
649.1624412048816
 20
-1125.000965672133
 30
0.0
 11
649.3005153645038
 21
-1122.883185634908
 31
0.0
  0
LINE
  5
227AD
330
18
100
AcDbEntity
  8
01
  6
CONTINUOUS
100
AcDbLine
 10
649.3005153645038
 20
-1122.883185634908
 30
0.0
 11
649.3005153645038
 21
-1120.736122953293
 31
0.0
  0
LINE
  5
227AE
330
18
100
AcDbEntity
  8
01
  6
CONTINUOUS
100
AcDbLine
 10
649.3005153645038
 20
-1120.736122953293
 30
0.0
 11
649.1624412048816
 21
-1118.618341984746
 31
0.0
  0
LINE
  5
227AF
330
18
100
AcDbEntity
  8
01
  6
CONTINUOUS
100
AcDbLine
 10
649.1624412048816
 20
-1118.618341984746
 30
0.0
 11
648.890047978258
 21
-1116.587613599894
 31
0.0
  0
LINE
  5
227B0
330
18
100
AcDbEntity
  8
01
  6
CONTINUOUS
100
AcDbLine
 10
648.890047978258
 20
-1116.587613599894
 30
0.0
 11
648.4907564629077
 21
-1114.699327277538
 31
0.0
  0
LINE
  5
227B1
330
18
100
AcDbEntity
  8
01
  6
CONTINUOUS
100
AcDbLine
 10
648.4907564629077
 20
-1114.699327277538
 30
0.0
 11
647.9754743088245
 21
-1113.004992606637
 31
0.0
  0
LINE
  5
227B2
330
18
100
AcDbEntity
  8
01
  6
CONTINUOUS
100
AcDbLine
 10
647.9754743088245
 20
-1113.004992606637
 30
0.0
 11
647.3582682121753
 21
-1111.550827401278
 31
0.0
  0
LINE
  5
227B3
330
18
100
AcDbEntity
  8
01
  6
CONTINUOUS
100
AcDbLine
 10
647.3582682121753
 20
-1111.550827401278
 30
0.0
 11
646.6559466827869
 21
-1110.376494827268
 31
0.0
  0
LINE
  5
227B4
330
18
100
AcDbEntity
  8
01
  6
CONTINUOUS
100
AcDbLine
 10
646.6559466827869
 20
-1110.376494827268
 30
0.0
 11
645.8876726139545
 21
-1109.514030518529
 31
0.0
  0
LINE
  5
227B5
330
18
100
AcDbEntity
  8
01
  6
CONTINUOUS
100
AcDbLine
 10
645.8876726139545
 20
-1109.514030518529
 30
0.0
 11
645.4593834389209
 21
-1109.190831782815
 31
0.0
  0
LINE
  5
227B6
330
18
100
AcDbEntity
  8
01
  6
CONTINUOUS
100
AcDbLine
 10
25.23792357335083
 20
-1109.408329131601
 30
0.0
 11
25.11230678448669
 21
-1109.514030518529
 31
0.0
  0
LINE
  5
227B7
330
18
100
AcDbEntity
  8
01
  6
CONTINUOUS
100
AcDbLine
 10
25.11230678448669
 20
-1109.514030518529
 30
0.0
 11
24.34404761681549
 21
-1110.376494827268
 31
0.0
  0
LINE
  5
227B8
330
18
100
AcDbEntity
  8
01
  6
CONTINUOUS
100
AcDbLine
 10
24.34404761681549
 20
-1110.376494827268
 30
0.0
 11
23.64172608742706
 21
-1111.550827401278
 31
0.0
  0
LINE
  5
227B9
330
18
100
AcDbEntity
  8
01
  6
CONTINUOUS
100
AcDbLine
 10
23.64172608742706
 20
-1111.550827401278
 30
0.0
 11
23.02451999077789
 21
-1113.004992606637
 31
0.0
  0
LINE
  5
227BA
330
18
100
AcDbEntity
  8
01
  6
CONTINUOUS
100
AcDbLine
 10
23.02451999077789
 20
-1113.004992606637
 30
0.0
 11
22.50923783669464
 21
-1114.699327277538
 31
0.0
  0
LINE
  5
227BB
330
18
100
AcDbEntity
  8
01
  6
CONTINUOUS
100
AcDbLine
 10
22.50923783669464
 20
-1114.699327277538
 30
0.0
 11
22.1099463213443
 21
-1116.587613599894
 31
0.0
  0
LINE
  5
227BC
330
18
100
AcDbEntity
  8
01
  6
CONTINUOUS
100
AcDbLine
 10
22.1099463213443
 20
-1116.587613599894
 30
0.0
 11
21.83755309472076
 21
-1118.618341984746
 31
0.0
  0
LINE
  5
227BD
330
18
100
AcDbEntity
  8
01
  6
CONTINUOUS
100
AcDbLine
 10
21.83755309472076
 20
-1118.618341984746
 30
0.0
 11
21.69946403393737
 21
-1120.736122953293
 31
0.0
  0
LINE
  5
227BE
330
18
100
AcDbEntity
  8
01
  6
CONTINUOUS
100
AcDbLine
 10
21.69946403393737
 20
-1120.736122953293
 30
0.0
 11
21.69946403393737
 21
-1122.883185634908
 31
0.0
  0
LINE
  5
227BF
330
18
100
AcDbEntity
  8
01
  6
CONTINUOUS
100
AcDbLine
 10
21.69946403393737
 20
-1122.883185634908
 30
0.0
 11
21.83755309472076
 21
-1125.000965672133
 31
0.0
  0
LINE
  5
227C0
330
18
100
AcDbEntity
  8
01
  6
CONTINUOUS
100
AcDbLine
 10
21.83755309472076
 20
-1125.000965672133
 30
0.0
 11
22.1099463213443
 21
-1127.031694056985
 31
0.0
  0
LINE
  5
227C1
330
18
100
AcDbEntity
  8
01
  6
CONTINUOUS
100
AcDbLine
 10
22.1099463213443
 20
-1127.031694056985
 30
0.0
 11
22.50923783669464
 21
-1128.91998037934
 31
0.0
  0
LINE
  5
227C2
330
18
100
AcDbEntity
  8
01
  6
CONTINUOUS
100
AcDbLine
 10
22.50923783669464
 20
-1128.91998037934
 30
0.0
 11
23.02451999077789
 21
-1130.614314118919
 31
0.0
  0
LINE
  5
227C3
330
18
100
AcDbEntity
  8
01
  6
CONTINUOUS
100
AcDbLine
 10
23.02451999077789
 20
-1130.614314118919
 30
0.0
 11
23.64172608742706
 21
-1132.068480721262
 31
0.0
  0
LINE
  5
227C4
330
18
100
AcDbEntity
  8
01
  6
CONTINUOUS
100
AcDbLine
 10
23.64172608742706
 20
-1132.068480721262
 30
0.0
 11
24.34404761681549
 21
-1133.242812829611
 31
0.0
  0
LINE
  5
227C5
330
18
100
AcDbEntity
  8
01
  6
CONTINUOUS
100
AcDbLine
 10
24.34404761681549
 20
-1133.242812829611
 30
0.0
 11
25.11230678448669
 21
-1134.105278069672
 31
0.0
  0
LINE
  5
227C6
330
18
100
AcDbEntity
  8
01
  6
CONTINUOUS
100
AcDbLine
 10
25.11230678448669
 20
-1134.105278069672
 30
0.0
 11
25.54061086068145
 21
-1134.428476805386
 31
0.0
  0
LINE
  5
227C7
330
18
100
AcDbEntity
  8
01
  6
CONTINUOUS
100
AcDbLine
 10
705.4287552760447
 20
-1108.959653305409
 30
0.0
 11
707.3756590412463
 21
-1109.134911450145
 31
0.0
  0
LINE
  5
227C8
330
18
100
AcDbEntity
  8
01
  6
CONTINUOUS
100
AcDbLine
 10
707.3756590412463
 20
-1109.134911450145
 30
0.0
 11
709.2694587932433
 21
-1109.655902611611
 31
0.0
  0
LINE
  5
227C9
330
18
100
AcDbEntity
  8
01
  6
CONTINUOUS
100
AcDbLine
 10
709.2694587932433
 20
-1109.655902611611
 30
0.0
 11
711.0584922061767
 21
-1110.508416669962
 31
0.0
  0
LINE
  5
227CA
330
18
100
AcDbEntity
  8
01
  6
CONTINUOUS
100
AcDbLine
 10
711.0584922061767
 20
-1110.508416669962
 30
0.0
 11
712.6939617024268
 21
-1111.669198500511
 31
0.0
  0
LINE
  5
227CB
330
18
100
AcDbEntity
  8
01
  6
CONTINUOUS
100
AcDbLine
 10
712.6939617024268
 20
-1111.669198500511
 30
0.0
 11
714.1312569306697
 21
-1113.106584998367
 31
0.0
  0
LINE
  5
227CC
330
18
100
AcDbEntity
  8
01
  6
CONTINUOUS
100
AcDbLine
 10
714.1312569306697
 20
-1113.106584998367
 30
0.0
 11
715.331169210514
 21
-1114.781369345782
 31
0.0
  0
LINE
  5
227CD
330
18
100
AcDbEntity
  8
01
  6
CONTINUOUS
100
AcDbLine
 10
715.331169210514
 20
-1114.781369345782
 30
0.0
 11
716.2609681413974
 21
-1116.647868307826
 31
0.0
  0
LINE
  5
227CE
330
18
100
AcDbEntity
  8
01
  6
CONTINUOUS
100
AcDbLine
 10
716.2609681413974
 20
-1116.647868307826
 30
0.0
 11
716.8952956722583
 21
-1118.655164616701
 31
0.0
  0
LINE
  5
227CF
330
18
100
AcDbEntity
  8
01
  6
CONTINUOUS
100
AcDbLine
 10
716.8952956722583
 20
-1118.655164616701
 30
0.0
 11
717.2168403790797
 21
-1120.748509543535
 31
0.0
  0
LINE
  5
227D0
330
18
100
AcDbEntity
  8
01
  6
CONTINUOUS
100
AcDbLine
 10
717.2168403790797
 20
-1120.748509543535
 30
0.0
 11
717.2168403790797
 21
-1122.870798113343
 31
0.0
  0
LINE
  5
227D1
330
18
100
AcDbEntity
  8
01
  6
CONTINUOUS
100
AcDbLine
 10
717.2168403790797
 20
-1122.870798113343
 30
0.0
 11
716.8952956722583
 21
-1124.964142108855
 31
0.0
  0
LINE
  5
227D2
330
18
100
AcDbEntity
  8
01
  6
CONTINUOUS
100
AcDbLine
 10
716.8952956722583
 20
-1124.964142108855
 30
0.0
 11
716.2609681413974
 21
-1126.971440280375
 31
0.0
  0
LINE
  5
227D3
330
18
100
AcDbEntity
  8
01
  6
CONTINUOUS
100
AcDbLine
 10
716.2609681413974
 20
-1126.971440280375
 30
0.0
 11
715.331169210514
 21
-1128.837937379775
 31
0.0
  0
LINE
  5
227D4
330
18
100
AcDbEntity
  8
01
  6
CONTINUOUS
100
AcDbLine
 10
715.331169210514
 20
-1128.837937379775
 30
0.0
 11
714.1312569306697
 21
-1130.51272172719
 31
0.0
  0
LINE
  5
227D5
330
18
100
AcDbEntity
  8
01
  6
CONTINUOUS
100
AcDbLine
 10
714.1312569306697
 20
-1130.51272172719
 30
0.0
 11
712.6939617024268
 21
-1131.950109622029
 31
0.0
  0
LINE
  5
227D6
330
18
100
AcDbEntity
  8
01
  6
CONTINUOUS
100
AcDbLine
 10
712.6939617024268
 20
-1131.950109622029
 30
0.0
 11
711.0584922061767
 21
-1133.110891452578
 31
0.0
  0
LINE
  5
227D7
330
18
100
AcDbEntity
  8
01
  6
CONTINUOUS
100
AcDbLine
 10
711.0584922061767
 20
-1133.110891452578
 30
0.0
 11
709.2694587932433
 21
-1133.96340551093
 31
0.0
  0
LINE
  5
227D8
330
18
100
AcDbEntity
  8
01
  6
CONTINUOUS
100
AcDbLine
 10
709.2694587932433
 20
-1133.96340551093
 30
0.0
 11
707.3756590412463
 21
-1134.484396672395
 31
0.0
  0
LINE
  5
227D9
330
18
100
AcDbEntity
  8
01
  6
CONTINUOUS
100
AcDbLine
 10
707.3756590412463
 20
-1134.484396672395
 30
0.0
 11
705.4287552760447
 21
-1134.659653885809
 31
0.0
  0
LINE
  5
227DA
330
18
100
AcDbEntity
  8
01
  6
CONTINUOUS
100
AcDbLine
 10
705.4287552760447
 20
-1134.80965386383
 30
0.0
 11
707.3983870373572
 21
-1134.632351000381
 31
0.0
  0
LINE
  5
227DB
330
18
100
AcDbEntity
  8
01
  6
CONTINUOUS
100
AcDbLine
 10
707.3983870373572
 20
-1134.632351000381
 30
0.0
 11
709.3142926619853
 21
-1134.105278069672
 31
0.0
  0
LINE
  5
227DC
330
18
100
AcDbEntity
  8
01
  6
CONTINUOUS
100
AcDbLine
 10
709.3142926619853
 20
-1134.105278069672
 30
0.0
 11
711.1242100523318
 21
-1133.242812829611
 31
0.0
  0
LINE
  5
227DD
330
18
100
AcDbEntity
  8
01
  6
CONTINUOUS
100
AcDbLine
 10
711.1242100523318
 20
-1133.242812829611
 30
0.0
 11
712.7787716613616
 21
-1132.068480721262
 31
0.0
  0
LINE
  5
227DE
330
18
100
AcDbEntity
  8
01
  6
CONTINUOUS
100
AcDbLine
 10
712.7787716613616
 20
-1132.068480721262
 30
0.0
 11
714.2328418718184
 21
-1130.614314118919
 31
0.0
  0
LINE
  5
227DF
330
18
100
AcDbEntity
  8
01
  6
CONTINUOUS
100
AcDbLine
 10
714.2328418718184
 20
-1130.614314118919
 30
0.0
 11
715.4467612431849
 21
-1128.91998037934
 31
0.0
  0
LINE
  5
227E0
330
18
100
AcDbEntity
  8
01
  6
CONTINUOUS
100
AcDbLine
 10
715.4467612431849
 20
-1128.91998037934
 30
0.0
 11
716.3874156699981
 21
-1127.031694056985
 31
0.0
  0
LINE
  5
227E1
330
18
100
AcDbEntity
  8
01
  6
CONTINUOUS
100
AcDbLine
 10
716.3874156699981
 20
-1127.031694056985
 30
0.0
 11
717.029145352682
 21
-1125.000965672133
 31
0.0
  0
LINE
  5
227E2
330
18
100
AcDbEntity
  8
01
  6
CONTINUOUS
100
AcDbLine
 10
717.029145352682
 20
-1125.000965672133
 30
0.0
 11
717.3544451521243
 21
-1122.883185634908
 31
0.0
  0
LINE
  5
227E3
330
18
100
AcDbEntity
  8
01
  6
CONTINUOUS
100
AcDbLine
 10
717.3544451521243
 20
-1122.883185634908
 30
0.0
 11
717.3544451521243
 21
-1120.736122953293
 31
0.0
  0
LINE
  5
227E4
330
18
100
AcDbEntity
  8
01
  6
CONTINUOUS
100
AcDbLine
 10
717.3544451521243
 20
-1120.736122953293
 30
0.0
 11
717.029145352682
 21
-1118.618341984746
 31
0.0
  0
LINE
  5
227E5
330
18
100
AcDbEntity
  8
01
  6
CONTINUOUS
100
AcDbLine
 10
717.029145352682
 20
-1118.618341984746
 30
0.0
 11
716.3874156699981
 21
-1116.587613599894
 31
0.0
  0
LINE
  5
227E6
330
18
100
AcDbEntity
  8
01
  6
CONTINUOUS
100
AcDbLine
 10
716.3874156699981
 20
-1116.587613599894
 30
0.0
 11
715.4467612431849
 21
-1114.699327277538
 31
0.0
  0
LINE
  5
227E7
330
18
100
AcDbEntity
  8
01
  6
CONTINUOUS
100
AcDbLine
 10
715.4467612431849
 20
-1114.699327277538
 30
0.0
 11
714.2328418718184
 21
-1113.004992606637
 31
0.0
  0
LINE
  5
227E8
330
18
100
AcDbEntity
  8
01
  6
CONTINUOUS
100
AcDbLine
 10
714.2328418718184
 20
-1113.004992606637
 30
0.0
 11
712.7787716613616
 21
-1111.550827401278
 31
0.0
  0
LINE
  5
227E9
330
18
100
AcDbEntity
  8
01
  6
CONTINUOUS
100
AcDbLine
 10
712.7787716613616
 20
-1111.550827401278
 30
0.0
 11
711.1242100523318
 21
-1110.376494827268
 31
0.0
  0
LINE
  5
227EA
330
18
100
AcDbEntity
  8
01
  6
CONTINUOUS
100
AcDbLine
 10
711.1242100523318
 20
-1110.376494827268
 30
0.0
 11
709.3142926619853
 21
-1109.514030518529
 31
0.0
  0
LINE
  5
227EB
330
18
100
AcDbEntity
  8
01
  6
CONTINUOUS
100
AcDbLine
 10
709.3142926619853
 20
-1109.514030518529
 30
0.0
 11
707.3983870373572
 21
-1108.986957820651
 31
0.0
  0
LINE
  5
227EC
330
18
100
AcDbEntity
  8
01
  6
CONTINUOUS
100
AcDbLine
 10
707.3983870373572
 20
-1108.986957820651
 30
0.0
 11
705.4287552760447
 21
-1108.809654491541
 31
0.0
  0
TEXT
  5
227ED
330
18
100
AcDbEntity
  8
01
  6
CONTINUOUS
100
AcDbText
 10
746.9514295683812
 20
-1078.824606731027
 30
0.0000000000017296
 40
3.5
  1
合板9mm以上
100
AcDbText
  0
TEXT
  5
227EE
330
18
100
AcDbEntity
  8
01
  6
CONTINUOUS
100
AcDbText
 10
733.816011423216
 20
-1078.824606731027
 30
0.0000000000017296
 40
3.5
  1
PB
100
AcDbText
  0
LINE
  5
227EF
330
18
100
AcDbEntity
  8
1HATCH
100
AcDbLine
 10
712.0784966872538
 20
-1136.25965440139
 30
0.0000000000017296
 11
706.0784966872538
 21
-1136.25965440139
 31
0.0000000000017296
  0
LINE
  5
227F0
330
18
100
AcDbEntity
  8
1HATCH
100
AcDbLine
 10
710.7284966872538
 20
-1134.90965441139
 30
0.0000000000017296
 11
711.0784966872538
 21
-1135.259654237316
 31
0.0000000000017296
  0
LINE
  5
227F1
330
18
100
AcDbEntity
  8
1HATCH
100
AcDbLine
 10
707.0784966872538
 20
-1135.259654237316
 30
0.0000000000017296
 11
707.4284966872539
 21
-1134.90965441139
 31
0.0000000000017296
  0
LINE
  5
227F2
330
18
100
AcDbEntity
  8
1HATCH
100
AcDbLine
 10
711.0784966872538
 20
-1126.90965441139
 30
0.0000000000017296
 11
707.0784966872538
 21
-1126.90965441139
 31
0.0000000000017296
  0
LINE
  5
227F4
330
18
100
AcDbEntity
  8
1CENTER
100
AcDbLine
 10
709.0784966872538
 20
-1124.95797941139
 30
0.0000000000017296
 11
709.0784966872538
 21
-1138.11842331139
 31
0.0000000000017296
  0
LINE
  5
227F5
330
18
100
AcDbEntity
  8
1HATCH
100
AcDbLine
 10
710.7284966872538
 20
-1126.55965441139
 30
0.0000000000017296
 11
710.7284966872538
 21
-1134.90965441139
 31
0.0000000000017296
  0
LINE
  5
227F6
330
18
100
AcDbEntity
  8
1HATCH
100
AcDbLine
 10
707.4284966872539
 20
-1126.55965441139
 30
0.0000000000017296
 11
707.4284966872539
 21
-1134.90965441139
 31
0.0000000000017296
  0
LINE
  5
227F7
330
18
100
AcDbEntity
  8
01
100
AcDbLine
 10
707.0784966872538
 20
-1126.90965441139
 30
0.0000000000017296
 11
707.0784966872538
 21
-1135.259654237316
 31
0.0000000000017296
  0
LINE
  5
227F8
330
18
100
AcDbEntity
  8
01
100
AcDbLine
 10
707.0784966872538
 20
-1135.259654237316
 30
0.0000000000017296
 11
706.0784966872538
 21
-1136.25965431139
 31
0.0000000000017296
  0
LINE
  5
227F9
330
18
100
AcDbEntity
  8
01
100
AcDbLine
 10
706.0784966872538
 20
-1136.25965431139
 30
0.0000000000017296
 11
706.0784966872538
 21
-1136.55965441139
 31
0.0000000000017296
  0
LINE
  5
227FA
330
18
100
AcDbEntity
  8
01
100
AcDbLine
 10
706.0784966872538
 20
-1136.55965441139
 30
0.0000000000017296
 11
712.0784966872538
 21
-1136.55965441139
 31
0.0000000000017296
  0
LINE
  5
227FB
330
18
100
AcDbEntity
  8
01
100
AcDbLine
 10
712.0784966872538
 20
-1136.55965441139
 30
0.0000000000017296
 11
712.0784966872538
 21
-1136.25965440139
 31
0.0000000000017296
  0
LINE
  5
227FC
330
18
100
AcDbEntity
  8
01
100
AcDbLine
 10
712.0784966872538
 20
-1136.25965440139
 30
0.0000000000017296
 11
711.0784966872538
 21
-1135.259654237316
 31
0.0000000000017296
  0
LINE
  5
227FD
330
18
100
AcDbEntity
  8
01
100
AcDbLine
 10
711.0784966872538
 20
-1135.259654237316
 30
0.0000000000017296
 11
711.0784966872538
 21
-1126.90965441139
 31
0.0000000000017296
  0
LINE
  5
227FE
330
18
100
AcDbEntity
  8
01
100
AcDbLine
 10
711.0784966872538
 20
-1126.90965441139
 30
0.0000000000017296
 11
710.7284966872538
 21
-1126.55965441139
 31
0.0000000000017296
  0
LINE
  5
227FF
330
18
100
AcDbEntity
  8
01
100
AcDbLine
 10
710.7284966872538
 20
-1126.55965441139
 30
0.0000000000017296
 11
707.428496687254
 21
-1126.55965441139
 31
0.0000000000017296
  0
LINE
  5
22800
330
18
100
AcDbEntity
  8
01
100
AcDbLine
 10
707.428496687254
 20
-1126.55965441139
 30
0.0000000000017296
 11
707.0784966872538
 21
-1126.90965441139
 31
0.0000000000017296
  0
LINE
  5
22801
330
18
100
AcDbEntity
  8
0
100
AcDbLine
 10
759.0784959122311
 20
-1121.809700710479
 30
0.0000000000017296
 11
753.7784994023694
 21
-1120.309700710479
 31
0.0000000000017296
  0
LINE
  5
22802
330
18
100
AcDbEntity
  8
0
100
AcDbLine
 10
753.7784994023694
 20
-1120.309700710479
 30
0.0000000000017296
 11
724.0784994024775
 21
-1120.309700710479
 31
0.0000000000017296
  0
LINE
  5
22803
330
18
100
AcDbEntity
  8
0
100
AcDbLine
 10
759.0784959122311
 20
-1121.809700710479
 30
0.0000000000017296
 11
753.7784924219858
 21
-1123.309700710479
 31
0.0000000000017296
  0
LINE
  5
22804
330
18
100
AcDbEntity
  8
0
100
AcDbLine
 10
724.0785040561757
 20
-1118.309654174581
 30
0.0000000000017296
 11
724.0784877686112
 21
-1125.309654174581
 31
0.0000000000017296
  0
LINE
  5
22805
330
18
100
AcDbEntity
  8
0
100
AcDbLine
 10
753.7784924219858
 20
-1123.309700710479
 30
0.0000000000017296
 11
724.0784924220928
 21
-1123.309700710479
 31
0.0000000000017296
  0
LINE
  5
22806
330
18
100
AcDbEntity
  8
0
100
AcDbLine
 10
724.0785040561757
 20
-1118.309654174581
 30
0.0000000000017296
 11
722.9785005659803
 21
-1118.309654174581
 31
0.0000000000017296
  0
ARC
  5
22807
330
18
100
AcDbEntity
  8
0
100
AcDbCircle
 10
722.9785005659803
 20
-1119.809654174581
 30
0.0000000000017296
 40
1.5
100
AcDbArc
 50
90.0
 51
179.9998666844663
  0
LINE
  5
22808
330
18
100
AcDbEntity
  8
0
100
AcDbLine
 10
724.0784877686112
 20
-1125.309654174581
 30
0.0000000000017296
 11
722.9784912588007
 21
-1125.309654174581
 31
0.0000000000017296
  0
LINE
  5
22809
330
18
100
AcDbEntity
  8
0
100
AcDbLine
 10
721.4785005659844
 20
-1119.809650684389
 30
0.0000000000017296
 11
721.4784912588048
 21
-1123.809650684389
 31
0.0000000000017296
  0
ARC
  5
2280A
330
18
100
AcDbEntity
  8
0
100
AcDbCircle
 10
722.9784912588007
 20
-1123.809654174581
 30
0.0000000000017296
 40
1.5
100
AcDbArc
 50
179.9998666844663
 51
270.0
  0
LINE
  5
2280B
330
18
100
AcDbEntity
  8
1CENTER
100
AcDbLine
 10
760.5092908296965
 20
-1121.809654174581
 30
0.0000000000017296
 11
720.4082195030846
 21
-1121.809654174581
 31
0.0000000000017296
  0
LINE
  5
2280C
330
18
100
AcDbEntity
  8
0
100
AcDbLine
 10
756.9784984585533
 20
-1120.715330360586
 30
0.0000000000017296
 11
757.7784938926043
 21
-1122.677665449462
 31
0.0000000000017296
  0
LINE
  5
2280D
330
18
100
AcDbEntity
  8
0
100
AcDbLine
 10
757.7784938926043
 20
-1122.677665449462
 30
0.0000000000017296
 11
758.0902637488564
 21
-1122.089388874419
 31
0.0000000000017296
  0
LINE
  5
2280E
330
18
100
AcDbEntity
  8
0
100
AcDbLine
 10
734.5785005657633
 20
-1119.809700710479
 30
0.0000000000017296
 11
735.3784912585816
 21
-1123.809700710479
 31
0.0000000000017296
  0
LINE
  5
2280F
330
18
100
AcDbEntity
  8
0
100
AcDbLine
 10
745.7785005657677
 20
-1119.809700710479
 30
0.0000000000017296
 11
746.5784912585902
 21
-1123.809700710479
 31
0.0000000000017296
  0
LINE
  5
22810
330
18
100
AcDbEntity
  8
0
100
AcDbLine
 10
748.9785005657677
 20
-1119.809700710479
 30
0.0000000000017296
 11
749.7784912585903
 21
-1123.809700710479
 31
0.0000000000017296
  0
LINE
  5
22811
330
18
100
AcDbEntity
  8
0
100
AcDbLine
 10
749.7784912585903
 20
-1123.809700710479
 30
0.0000000000017296
 11
749.8784924219875
 21
-1123.309700710479
 31
0.0000000000017296
  0
LINE
  5
22812
330
18
100
AcDbEntity
  8
0
100
AcDbLine
 10
750.4784994023705
 20
-1120.309700710479
 30
0.0000000000017296
 11
750.5785005657677
 21
-1119.809700710479
 31
0.0000000000017296
  0
LINE
  5
22813
330
18
100
AcDbEntity
  8
0
100
AcDbLine
 10
746.5784912585902
 20
-1123.809700710479
 30
0.0000000000017296
 11
746.6784924219875
 21
-1123.309700710479
 31
0.0000000000017296
  0
LINE
  5
22814
330
18
100
AcDbEntity
  8
0
100
AcDbLine
 10
748.1784912585904
 20
-1123.809700710479
 30
0.0000000000017296
 11
748.2784924219875
 21
-1123.309700710479
 31
0.0000000000017296
  0
LINE
  5
22815
330
18
100
AcDbEntity
  8
0
100
AcDbLine
 10
748.8784994023706
 20
-1120.309700710479
 30
0.0000000000017296
 11
748.9785005657677
 21
-1119.809700710479
 31
0.0000000000017296
  0
LINE
  5
22816
330
18
100
AcDbEntity
  8
0
100
AcDbLine
 10
747.2784994023707
 20
-1120.309700710479
 30
0.0000000000017296
 11
747.3785005657678
 21
-1119.809700710479
 31
0.0000000000017296
  0
LINE
  5
22817
330
18
100
AcDbEntity
  8
0
100
AcDbLine
 10
747.3785005657678
 20
-1119.809700710479
 30
0.0000000000017296
 11
748.1784912585904
 21
-1123.809700710479
 31
0.0000000000017296
  0
LINE
  5
22818
330
18
100
AcDbEntity
  8
0
100
AcDbLine
 10
756.1784928389986
 20
-1123.130479553868
 30
0.0000000000017296
 11
756.3612569816266
 21
-1122.578730090065
 31
0.0000000000017296
  0
LINE
  5
22819
330
18
100
AcDbEntity
  8
0
100
AcDbLine
 10
752.9784912585903
 20
-1123.809700710479
 30
0.0000000000017296
 11
753.0784924219874
 21
-1123.309700710479
 31
0.0000000000017296
  0
LINE
  5
2281A
330
18
100
AcDbEntity
  8
0
100
AcDbLine
 10
751.3784912585903
 20
-1123.809700710479
 30
0.0000000000017296
 11
751.4784924219873
 21
-1123.309700710479
 31
0.0000000000017296
  0
LINE
  5
2281B
330
18
100
AcDbEntity
  8
0
100
AcDbLine
 10
754.578491785393
 20
-1123.583293658275
 30
0.0000000000017296
 11
754.7077624830229
 21
-1123.046699923004
 31
0.0000000000017296
  0
LINE
  5
2281C
330
18
100
AcDbEntity
  8
0
100
AcDbLine
 10
755.2657299998075
 20
-1120.730615307688
 30
0.0000000000017296
 11
755.3784995121575
 21
-1120.262516852538
 31
0.0000000000017296
  0
LINE
  5
2281D
330
18
100
AcDbEntity
  8
0
100
AcDbLine
 10
752.0784994023707
 20
-1120.309700710479
 30
0.0000000000017296
 11
752.1785005657678
 21
-1119.809700710479
 31
0.0000000000017296
  0
LINE
  5
2281E
330
18
100
AcDbEntity
  8
0
100
AcDbLine
 10
753.6784994023706
 20
-1120.309700710479
 30
0.0000000000017296
 11
753.7785005657677
 21
-1119.809700710479
 31
0.0000000000017296
  0
LINE
  5
2281F
330
18
100
AcDbEntity
  8
0
100
AcDbLine
 10
756.8270626621129
 20
-1121.172502201217
 30
0.0000000000017296
 11
756.9784984585533
 21
-1120.715330360586
 31
0.0000000000017296
  0
LINE
  5
22820
330
18
100
AcDbEntity
  8
0
100
AcDbLine
 10
755.3784995121575
 20
-1120.262516852538
 30
0.0000000000017296
 11
756.1784928389986
 21
-1123.130479553868
 31
0.0000000000017296
  0
LINE
  5
22821
330
18
100
AcDbEntity
  8
0
100
AcDbLine
 10
752.1785005657678
 20
-1119.809700710479
 30
0.0000000000017296
 11
752.9784912585903
 21
-1123.809700710479
 31
0.0000000000017296
  0
LINE
  5
22822
330
18
100
AcDbEntity
  8
0
100
AcDbLine
 10
753.7785005657677
 20
-1119.809700710479
 30
0.0000000000017296
 11
754.578491785393
 21
-1123.583293658275
 31
0.0000000000017296
  0
LINE
  5
22823
330
18
100
AcDbEntity
  8
0
100
AcDbLine
 10
750.5785005657677
 20
-1119.809700710479
 30
0.0000000000017296
 11
751.3784912585903
 21
-1123.809700710479
 31
0.0000000000017296
  0
LINE
  5
22824
330
18
100
AcDbEntity
  8
0
100
AcDbLine
 10
737.7785005657634
 20
-1119.809700710479
 30
0.0000000000017296
 11
738.5784912585816
 21
-1123.809700710479
 31
0.0000000000017296
  0
LINE
  5
22825
330
18
100
AcDbEntity
  8
0
100
AcDbLine
 10
738.5784912585816
 20
-1123.809700710479
 30
0.0000000000017296
 11
738.6784924219793
 21
-1123.309700710479
 31
0.0000000000017296
  0
LINE
  5
22826
330
18
100
AcDbEntity
  8
0
100
AcDbLine
 10
739.27849940237
 20
-1120.309700710479
 30
0.0000000000017296
 11
739.3785005657677
 21
-1119.809700710479
 31
0.0000000000017296
  0
LINE
  5
22827
330
18
100
AcDbEntity
  8
0
100
AcDbLine
 10
736.9784912585815
 20
-1123.809700710479
 30
0.0000000000017296
 11
737.0784924219791
 21
-1123.309700710479
 31
0.0000000000017296
  0
LINE
  5
22828
330
18
100
AcDbEntity
  8
0
100
AcDbLine
 10
735.3784912585816
 20
-1123.809700710479
 30
0.0000000000017296
 11
735.4784924219792
 21
-1123.309700710479
 31
0.0000000000017296
  0
LINE
  5
22829
330
18
100
AcDbEntity
  8
0
100
AcDbLine
 10
737.6784994023657
 20
-1120.309700710479
 30
0.0000000000017296
 11
737.7785005657634
 21
-1119.809700710479
 31
0.0000000000017296
  0
LINE
  5
2282A
330
18
100
AcDbEntity
  8
0
100
AcDbLine
 10
736.0784994023655
 20
-1120.309700710479
 30
0.0000000000017296
 11
736.1785005657632
 21
-1119.809700710479
 31
0.0000000000017296
  0
LINE
  5
2282B
330
18
100
AcDbEntity
  8
0
100
AcDbLine
 10
736.1785005657632
 20
-1119.809700710479
 30
0.0000000000017296
 11
736.9784912585815
 21
-1123.809700710479
 31
0.0000000000017296
  0
LINE
  5
2282C
330
18
100
AcDbEntity
  8
0
100
AcDbLine
 10
743.378491258586
 20
-1123.809700710479
 30
0.0000000000017296
 11
743.4784924219837
 21
-1123.309700710479
 31
0.0000000000017296
  0
LINE
  5
2282D
330
18
100
AcDbEntity
  8
0
100
AcDbLine
 10
744.9784912585903
 20
-1123.809700710479
 30
0.0000000000017296
 11
745.0784924219874
 21
-1123.309700710479
 31
0.0000000000017296
  0
LINE
  5
2282E
330
18
100
AcDbEntity
  8
0
100
AcDbLine
 10
740.178491258586
 20
-1123.809700710479
 30
0.0000000000017296
 11
740.2784924219836
 21
-1123.309700710479
 31
0.0000000000017296
  0
LINE
  5
2282F
330
18
100
AcDbEntity
  8
0
100
AcDbLine
 10
741.7784912585859
 20
-1123.809700710479
 30
0.0000000000017296
 11
741.8784924219835
 21
-1123.309700710479
 31
0.0000000000017296
  0
LINE
  5
22830
330
18
100
AcDbEntity
  8
0
100
AcDbLine
 10
745.6784994023706
 20
-1120.309700710479
 30
0.0000000000017296
 11
745.7785005657677
 21
-1119.809700710479
 31
0.0000000000017296
  0
LINE
  5
22831
330
18
100
AcDbEntity
  8
0
100
AcDbLine
 10
744.07849940237
 20
-1120.309700710479
 30
0.0000000000017296
 11
744.1785005657678
 21
-1119.809700710479
 31
0.0000000000017296
  0
LINE
  5
22832
330
18
100
AcDbEntity
  8
0
100
AcDbLine
 10
740.8784994023699
 20
-1120.309700710479
 30
0.0000000000017296
 11
740.9785005657676
 21
-1119.809700710479
 31
0.0000000000017296
  0
LINE
  5
22833
330
18
100
AcDbEntity
  8
0
100
AcDbLine
 10
742.4784994023701
 20
-1120.309700710479
 30
0.0000000000017296
 11
742.5785005657677
 21
-1119.809700710479
 31
0.0000000000017296
  0
LINE
  5
22834
330
18
100
AcDbEntity
  8
0
100
AcDbLine
 10
742.5785005657677
 20
-1119.809700710479
 30
0.0000000000017296
 11
743.378491258586
 21
-1123.809700710479
 31
0.0000000000017296
  0
LINE
  5
22835
330
18
100
AcDbEntity
  8
0
100
AcDbLine
 10
744.1785005657678
 20
-1119.809700710479
 30
0.0000000000017296
 11
744.9784912585903
 21
-1123.809700710479
 31
0.0000000000017296
  0
LINE
  5
22836
330
18
100
AcDbEntity
  8
0
100
AcDbLine
 10
740.9785005657676
 20
-1119.809700710479
 30
0.0000000000017296
 11
741.7784912585859
 21
-1123.809700710479
 31
0.0000000000017296
  0
LINE
  5
22837
330
18
100
AcDbEntity
  8
0
100
AcDbLine
 10
739.3785005657677
 20
-1119.809700710479
 30
0.0000000000017296
 11
740.178491258586
 21
-1123.809700710479
 31
0.0000000000017296
  0
LINE
  5
22838
330
18
100
AcDbEntity
  8
0
100
AcDbLine
 10
729.6784994023615
 20
-1120.309700710479
 30
0.0000000000017296
 11
729.7785005657591
 21
-1119.809700710479
 31
0.0000000000017296
  0
LINE
  5
22839
330
18
100
AcDbEntity
  8
0
100
AcDbLine
 10
729.7785005657591
 20
-1119.809700710479
 30
0.0000000000017296
 11
730.5784912585774
 21
-1123.809700710479
 31
0.0000000000017296
  0
LINE
  5
2283A
330
18
100
AcDbEntity
  8
0
100
AcDbLine
 10
730.5784912585774
 20
-1123.809700710479
 30
0.0000000000017296
 11
730.6784924219751
 21
-1123.309700710479
 31
0.0000000000017296
  0
LINE
  5
2283B
330
18
100
AcDbEntity
  8
0
100
AcDbLine
 10
731.2784994023614
 20
-1120.309700710479
 30
0.0000000000017296
 11
731.378500565759
 21
-1119.809700710479
 31
0.0000000000017296
  0
LINE
  5
2283C
330
18
100
AcDbEntity
  8
0
100
AcDbLine
 10
732.8784994023613
 20
-1120.309700710479
 30
0.0000000000017296
 11
732.978500565759
 21
-1119.809700710479
 31
0.0000000000017296
  0
LINE
  5
2283D
330
18
100
AcDbEntity
  8
0
100
AcDbLine
 10
732.978500565759
 20
-1119.809700710479
 30
0.0000000000017296
 11
733.7784912585772
 21
-1123.809700710479
 31
0.0000000000017296
  0
LINE
  5
2283E
330
18
100
AcDbEntity
  8
0
100
AcDbLine
 10
732.1784912585773
 20
-1123.809700710479
 30
0.0000000000017296
 11
732.278492421975
 21
-1123.309700710479
 31
0.0000000000017296
  0
LINE
  5
2283F
330
18
100
AcDbEntity
  8
0
100
AcDbLine
 10
733.7784912585772
 20
-1123.809700710479
 30
0.0000000000017296
 11
733.8784924219749
 21
-1123.309700710479
 31
0.0000000000017296
  0
LINE
  5
22840
330
18
100
AcDbEntity
  8
0
100
AcDbLine
 10
731.378500565759
 20
-1119.809700710479
 30
0.0000000000017296
 11
732.1784912585773
 21
-1123.809700710479
 31
0.0000000000017296
  0
LINE
  5
22841
330
18
100
AcDbEntity
  8
0
100
AcDbLine
 10
734.4784994023656
 20
-1120.309700710479
 30
0.0000000000017296
 11
734.5785005657633
 21
-1119.809700710479
 31
0.0000000000017296
  0
LINE
  5
22842
330
18
100
AcDbEntity
  8
0
100
AcDbLine
 10
728.0784994023616
 20
-1120.309700710479
 30
0.0000000000017296
 11
728.1785005657592
 21
-1119.809700710479
 31
0.0000000000017296
  0
LINE
  5
22843
330
18
100
AcDbEntity
  8
0
100
AcDbLine
 10
728.1785005657592
 20
-1119.809700710479
 30
0.0000000000017296
 11
728.9784912585775
 21
-1123.809700710479
 31
0.0000000000017296
  0
LINE
  5
22844
330
18
100
AcDbEntity
  8
0
100
AcDbLine
 10
728.9784912585775
 20
-1123.809700710479
 30
0.0000000000017296
 11
729.0784924219752
 21
-1123.309700710479
 31
0.0000000000017296
  0
LINE
  5
22845
330
18
100
AcDbEntity
  8
0
100
AcDbLine
 10
726.4784994023616
 20
-1120.309700710479
 30
0.0000000000017296
 11
726.5785005657593
 21
-1119.809700710479
 31
0.0000000000017296
  0
LINE
  5
22846
330
18
100
AcDbEntity
  8
0
100
AcDbLine
 10
726.5785005657593
 20
-1119.809700710479
 30
0.0000000000017296
 11
727.3784912585776
 21
-1123.809700710479
 31
0.0000000000017296
  0
LINE
  5
22847
330
18
100
AcDbEntity
  8
0
100
AcDbLine
 10
727.3784912585776
 20
-1123.809700710479
 30
0.0000000000017296
 11
727.4784924219753
 21
-1123.309700710479
 31
0.0000000000017296
  0
LINE
  5
22848
330
18
100
AcDbEntity
  8
0
100
AcDbLine
 10
724.8784994023617
 20
-1120.309700710479
 30
0.0000000000017296
 11
724.9785005657594
 21
-1119.809700710479
 31
0.0000000000017296
  0
LINE
  5
22849
330
18
100
AcDbEntity
  8
0
100
AcDbLine
 10
724.9785005657594
 20
-1119.809700710479
 30
0.0000000000017296
 11
725.7784912585777
 21
-1123.809700710479
 31
0.0000000000017296
  0
LINE
  5
2284A
330
18
100
AcDbEntity
  8
0
100
AcDbLine
 10
725.7784912585777
 20
-1123.809700710479
 30
0.0000000000017296
 11
725.8784924219754
 21
-1123.309700710479
 31
0.0000000000017296
  0
LINE
  5
2284B
330
18
100
AcDbEntity
  8
0
100
AcDbLine
 10
635.5000526232915
 20
-979.0742011397156
 30
0.0000000000017296
 11
634.0000526232915
 21
-984.3741976495772
 31
0.0000000000017296
  0
LINE
  5
2284C
330
18
100
AcDbEntity
  8
0
100
AcDbLine
 10
634.0000526232915
 20
-984.3741976495772
 30
0.0000000000017296
 11
634.0000526232917
 21
-1014.074197649469
 31
0.0000000000017296
  0
LINE
  5
2284D
330
18
100
AcDbEntity
  8
0
100
AcDbLine
 10
635.5000526232915
 20
-979.0742011397156
 30
0.0000000000017296
 11
637.0000526232916
 21
-984.3742046299609
 31
0.0000000000017296
  0
LINE
  5
2284E
330
18
100
AcDbEntity
  8
0
100
AcDbLine
 10
632.0000060873937
 20
-1014.074192995771
 30
0.0000000000017296
 11
639.0000060873936
 21
-1014.074209283335
 31
0.0000000000017296
  0
LINE
  5
2284F
330
18
100
AcDbEntity
  8
0
100
AcDbLine
 10
637.0000526232916
 20
-984.3742046299609
 30
0.0000000000017296
 11
637.0000526232917
 21
-1014.074204629854
 31
0.0000000000017296
  0
LINE
  5
22850
330
18
100
AcDbEntity
  8
0
100
AcDbLine
 10
632.0000060873937
 20
-1014.074192995771
 30
0.0000000000017296
 11
632.0000060873936
 21
-1015.174196485966
 31
0.0000000000017296
  0
ARC
  5
22851
330
18
100
AcDbEntity
  8
0
100
AcDbCircle
 10
633.5000060873936
 20
-1015.174196485966
 30
0.0000000000017296
 40
1.5
100
AcDbArc
 50
180.0
 51
269.9998666844662
  0
LINE
  5
22852
330
18
100
AcDbEntity
  8
0
100
AcDbLine
 10
639.0000060873936
 20
-1014.074209283335
 30
0.0000000000017296
 11
639.0000060873936
 21
-1015.174205793146
 31
0.0000000000017296
  0
LINE
  5
22853
330
18
100
AcDbEntity
  8
0
100
AcDbLine
 10
633.5000025972012
 20
-1016.674196485962
 30
0.0000000000017296
 11
637.5000025972012
 21
-1016.674205793142
 31
0.0000000000017296
  0
ARC
  5
22854
330
18
100
AcDbEntity
  8
0
100
AcDbCircle
 10
637.5000060873936
 20
-1015.174205793146
 30
0.0000000000017296
 40
1.5
100
AcDbArc
 50
269.9998666844662
 51
0.0
  0
LINE
  5
22855
330
18
100
AcDbEntity
  8
1CENTER
100
AcDbLine
 10
635.5000060873936
 20
-977.6434062222502
 30
0.0000000000017296
 11
635.5000060873936
 21
-1017.744477548862
 31
0.0000000000017296
  0
LINE
  5
22856
330
18
100
AcDbEntity
  8
0
100
AcDbLine
 10
634.4056822733985
 20
-981.1741985933934
 30
0.0000000000017296
 11
636.3680173622739
 21
-980.3742031593424
 31
0.0000000000017296
  0
LINE
  5
22857
330
18
100
AcDbEntity
  8
0
100
AcDbLine
 10
636.3680173622739
 20
-980.3742031593424
 30
0.0000000000017296
 11
635.7797407872315
 21
-980.0624333030903
 31
0.0000000000017296
  0
LINE
  5
22858
330
18
100
AcDbEntity
  8
0
100
AcDbLine
 10
633.5000526232915
 20
-1003.574196486183
 30
0.0000000000017296
 11
637.5000526232915
 21
-1002.774205793365
 31
0.0000000000017296
  0
LINE
  5
22859
330
18
100
AcDbEntity
  8
0
100
AcDbLine
 10
633.5000526232915
 20
-992.374196486179
 30
0.0000000000017296
 11
637.5000526232915
 21
-991.5742057933564
 31
0.0000000000017296
  0
LINE
  5
2285A
330
18
100
AcDbEntity
  8
0
100
AcDbLine
 10
633.5000526232915
 20
-989.174196486179
 30
0.0000000000017296
 11
637.5000526232915
 21
-988.3742057933564
 31
0.0000000000017296
  0
LINE
  5
2285B
330
18
100
AcDbEntity
  8
0
100
AcDbLine
 10
637.5000526232915
 20
-988.3742057933564
 30
0.0000000000017296
 11
637.0000526232915
 21
-988.2742046299592
 31
0.0000000000017296
  0
LINE
  5
2285C
330
18
100
AcDbEntity
  8
0
100
AcDbLine
 10
634.0000526232915
 20
-987.6741976495762
 30
0.0000000000017296
 11
633.5000526232915
 21
-987.574196486179
 31
0.0000000000017296
  0
LINE
  5
2285D
330
18
100
AcDbEntity
  8
0
100
AcDbLine
 10
637.5000526232915
 20
-991.5742057933564
 30
0.0000000000017296
 11
637.0000526232915
 21
-991.4742046299592
 31
0.0000000000017296
  0
LINE
  5
2285E
330
18
100
AcDbEntity
  8
0
100
AcDbLine
 10
637.5000526232915
 20
-989.9742057933563
 30
0.0000000000017296
 11
637.0000526232915
 21
-989.8742046299592
 31
0.0000000000017296
  0
LINE
  5
2285F
330
18
100
AcDbEntity
  8
0
100
AcDbLine
 10
634.0000526232915
 20
-989.2741976495761
 30
0.0000000000017296
 11
633.5000526232915
 21
-989.174196486179
 31
0.0000000000017296
  0
LINE
  5
22860
330
18
100
AcDbEntity
  8
0
100
AcDbLine
 10
634.0000526232915
 20
-990.874197649576
 30
0.0000000000017296
 11
633.5000526232915
 21
-990.7741964861789
 31
0.0000000000017296
  0
LINE
  5
22861
330
18
100
AcDbEntity
  8
0
100
AcDbLine
 10
633.5000526232915
 20
-990.7741964861789
 30
0.0000000000017296
 11
637.5000526232915
 21
-989.9742057933563
 31
0.0000000000017296
  0
LINE
  5
22862
330
18
100
AcDbEntity
  8
0
100
AcDbLine
 10
636.8208314666807
 20
-981.974204212948
 30
0.0000000000017296
 11
636.2690820028774
 21
-981.79144007032
 31
0.0000000000017296
  0
LINE
  5
22863
330
18
100
AcDbEntity
  8
0
100
AcDbLine
 10
637.5000526232915
 20
-985.1742057933564
 30
0.0000000000017296
 11
637.0000526232915
 21
-985.0742046299592
 31
0.0000000000017296
  0
LINE
  5
22864
330
18
100
AcDbEntity
  8
0
100
AcDbLine
 10
637.5000526232915
 20
-986.7742057933564
 30
0.0000000000017296
 11
637.0000526232915
 21
-986.6742046299594
 31
0.0000000000017296
  0
LINE
  5
22865
330
18
100
AcDbEntity
  8
0
100
AcDbLine
 10
637.2736455710875
 20
-983.5742052665537
 30
0.0000000000017296
 11
636.7370518358164
 21
-983.4449345689238
 31
0.0000000000017296
  0
LINE
  5
22866
330
18
100
AcDbEntity
  8
0
100
AcDbLine
 10
634.4209672205002
 20
-982.8869670521392
 30
0.0000000000017296
 11
633.9528687653502
 21
-982.7741975397892
 31
0.0000000000017296
  0
LINE
  5
22867
330
18
100
AcDbEntity
  8
0
100
AcDbLine
 10
634.0000526232915
 20
-986.074197649576
 30
0.0000000000017296
 11
633.5000526232915
 21
-985.9741964861789
 31
0.0000000000017296
  0
LINE
  5
22868
330
18
100
AcDbEntity
  8
0
100
AcDbLine
 10
634.0000526232915
 20
-984.4741976495761
 30
0.0000000000017296
 11
633.5000526232915
 21
-984.374196486179
 31
0.0000000000017296
  0
LINE
  5
22869
330
18
100
AcDbEntity
  8
0
100
AcDbLine
 10
634.8628541140296
 20
-981.3256343898338
 30
0.0000000000017296
 11
634.4056822733985
 21
-981.1741985933934
 31
0.0000000000017296
  0
LINE
  5
2286A
330
18
100
AcDbEntity
  8
0
100
AcDbLine
 10
633.9528687653502
 20
-982.7741975397892
 30
0.0000000000017296
 11
636.8208314666807
 21
-981.974204212948
 31
0.0000000000017296
  0
LINE
  5
2286B
330
18
100
AcDbEntity
  8
0
100
AcDbLine
 10
633.5000526232915
 20
-985.9741964861789
 30
0.0000000000017296
 11
637.5000526232915
 21
-985.1742057933564
 31
0.0000000000017296
  0
LINE
  5
2286C
330
18
100
AcDbEntity
  8
0
100
AcDbLine
 10
633.5000526232915
 20
-984.374196486179
 30
0.0000000000017296
 11
637.2736455710875
 21
-983.5742052665537
 31
0.0000000000017296
  0
LINE
  5
2286D
330
18
100
AcDbEntity
  8
0
100
AcDbLine
 10
633.5000526232915
 20
-987.574196486179
 30
0.0000000000017296
 11
637.5000526232915
 21
-986.7742057933564
 31
0.0000000000017296
  0
LINE
  5
2286E
330
18
100
AcDbEntity
  8
0
100
AcDbLine
 10
633.5000526232915
 20
-1000.374196486183
 30
0.0000000000017296
 11
637.5000526232915
 21
-999.5742057933651
 31
0.0000000000017296
  0
LINE
  5
2286F
330
18
100
AcDbEntity
  8
0
100
AcDbLine
 10
637.5000526232915
 20
-999.5742057933651
 30
0.0000000000017296
 11
637.0000526232915
 21
-999.4742046299674
 31
0.0000000000017296
  0
LINE
  5
22870
330
18
100
AcDbEntity
  8
0
100
AcDbLine
 10
634.0000526232915
 20
-998.8741976495767
 30
0.0000000000017296
 11
633.5000526232915
 21
-998.774196486179
 31
0.0000000000017296
  0
LINE
  5
22871
330
18
100
AcDbEntity
  8
0
100
AcDbLine
 10
637.5000526232915
 20
-1001.174205793365
 30
0.0000000000017296
 11
637.0000526232915
 21
-1001.074204629968
 31
0.0000000000017296
  0
LINE
  5
22872
330
18
100
AcDbEntity
  8
0
100
AcDbLine
 10
637.5000526232915
 20
-1002.774205793365
 30
0.0000000000017296
 11
637.0000526232915
 21
-1002.674204629967
 31
0.0000000000017296
  0
LINE
  5
22873
330
18
100
AcDbEntity
  8
0
100
AcDbLine
 10
634.0000526232915
 20
-1000.474197649581
 30
0.0000000000017296
 11
633.5000526232915
 21
-1000.374196486183
 31
0.0000000000017296
  0
LINE
  5
22874
330
18
100
AcDbEntity
  8
0
100
AcDbLine
 10
634.0000526232915
 20
-1002.074197649581
 30
0.0000000000017296
 11
633.5000526232915
 21
-1001.974196486183
 31
0.0000000000017296
  0
LINE
  5
22875
330
18
100
AcDbEntity
  8
0
100
AcDbLine
 10
633.5000526232915
 20
-1001.974196486183
 30
0.0000000000017296
 11
637.5000526232915
 21
-1001.174205793365
 31
0.0000000000017296
  0
LINE
  5
22876
330
18
100
AcDbEntity
  8
0
100
AcDbLine
 10
637.5000526232915
 20
-994.7742057933607
 30
0.0000000000017296
 11
637.0000526232915
 21
-994.674204629963
 31
0.0000000000017296
  0
LINE
  5
22877
330
18
100
AcDbEntity
  8
0
100
AcDbLine
 10
637.5000526232915
 20
-993.1742057933564
 30
0.0000000000017296
 11
637.0000526232915
 21
-993.0742046299592
 31
0.0000000000017296
  0
LINE
  5
22878
330
18
100
AcDbEntity
  8
0
100
AcDbLine
 10
637.5000526232915
 20
-997.9742057933607
 30
0.0000000000017296
 11
637.0000526232915
 21
-997.8742046299631
 31
0.0000000000017296
  0
LINE
  5
22879
330
18
100
AcDbEntity
  8
0
100
AcDbLine
 10
637.5000526232915
 20
-996.3742057933608
 30
0.0000000000017296
 11
637.0000526232915
 21
-996.2742046299632
 31
0.0000000000017296
  0
LINE
  5
2287A
330
18
100
AcDbEntity
  8
0
100
AcDbLine
 10
634.0000526232915
 20
-992.4741976495761
 30
0.0000000000017296
 11
633.5000526232915
 21
-992.374196486179
 31
0.0000000000017296
  0
LINE
  5
2287B
330
18
100
AcDbEntity
  8
0
100
AcDbLine
 10
634.0000526232915
 20
-994.0741976495767
 30
0.0000000000017296
 11
633.5000526232915
 21
-993.9741964861789
 31
0.0000000000017296
  0
LINE
  5
2287C
330
18
100
AcDbEntity
  8
0
100
AcDbLine
 10
634.0000526232915
 20
-997.2741976495768
 30
0.0000000000017296
 11
633.5000526232915
 21
-997.1741964861791
 31
0.0000000000017296
  0
LINE
  5
2287D
330
18
100
AcDbEntity
  8
0
100
AcDbLine
 10
634.0000526232915
 20
-995.6741976495766
 30
0.0000000000017296
 11
633.5000526232915
 21
-995.574196486179
 31
0.0000000000017296
  0
LINE
  5
2287E
330
18
100
AcDbEntity
  8
0
100
AcDbLine
 10
633.5000526232915
 20
-995.574196486179
 30
0.0000000000017296
 11
637.5000526232915
 21
-994.7742057933607
 31
0.0000000000017296
  0
LINE
  5
2287F
330
18
100
AcDbEntity
  8
0
100
AcDbLine
 10
633.5000526232915
 20
-993.9741964861789
 30
0.0000000000017296
 11
637.5000526232915
 21
-993.1742057933564
 31
0.0000000000017296
  0
LINE
  5
22880
330
18
100
AcDbEntity
  8
0
100
AcDbLine
 10
633.5000526232915
 20
-997.1741964861791
 30
0.0000000000017296
 11
637.5000526232915
 21
-996.3742057933608
 31
0.0000000000017296
  0
LINE
  5
22881
330
18
100
AcDbEntity
  8
0
100
AcDbLine
 10
633.5000526232915
 20
-998.774196486179
 30
0.0000000000017296
 11
637.5000526232915
 21
-997.9742057933607
 31
0.0000000000017296
  0
LINE
  5
22882
330
18
100
AcDbEntity
  8
0
100
AcDbLine
 10
634.0000526232915
 20
-1008.474197649585
 30
0.0000000000017296
 11
633.5000526232915
 21
-1008.374196486188
 31
0.0000000000017296
  0
LINE
  5
22883
330
18
100
AcDbEntity
  8
0
100
AcDbLine
 10
633.5000526232915
 20
-1008.374196486188
 30
0.0000000000017296
 11
637.5000526232915
 21
-1007.574205793369
 31
0.0000000000017296
  0
LINE
  5
22884
330
18
100
AcDbEntity
  8
0
100
AcDbLine
 10
637.5000526232915
 20
-1007.574205793369
 30
0.0000000000017296
 11
637.0000526232915
 21
-1007.474204629972
 31
0.0000000000017296
  0
LINE
  5
22885
330
18
100
AcDbEntity
  8
0
100
AcDbLine
 10
634.0000526232915
 20
-1006.874197649585
 30
0.0000000000017296
 11
633.5000526232915
 21
-1006.774196486188
 31
0.0000000000017296
  0
LINE
  5
22886
330
18
100
AcDbEntity
  8
0
100
AcDbLine
 10
634.0000526232915
 20
-1005.274197649585
 30
0.0000000000017296
 11
633.5000526232915
 21
-1005.174196486188
 31
0.0000000000017296
  0
LINE
  5
22887
330
18
100
AcDbEntity
  8
0
100
AcDbLine
 10
633.5000526232915
 20
-1005.174196486188
 30
0.0000000000017296
 11
637.5000526232915
 21
-1004.374205793369
 31
0.0000000000017296
  0
LINE
  5
22888
330
18
100
AcDbEntity
  8
0
100
AcDbLine
 10
637.5000526232915
 20
-1005.974205793369
 30
0.0000000000017296
 11
637.0000526232915
 21
-1005.874204629972
 31
0.0000000000017296
  0
LINE
  5
22889
330
18
100
AcDbEntity
  8
0
100
AcDbLine
 10
637.5000526232915
 20
-1004.374205793369
 30
0.0000000000017296
 11
637.0000526232915
 21
-1004.274204629972
 31
0.0000000000017296
  0
LINE
  5
2288A
330
18
100
AcDbEntity
  8
0
100
AcDbLine
 10
633.5000526232915
 20
-1006.774196486188
 30
0.0000000000017296
 11
637.5000526232915
 21
-1005.974205793369
 31
0.0000000000017296
  0
LINE
  5
2288B
330
18
100
AcDbEntity
  8
0
100
AcDbLine
 10
634.0000526232915
 20
-1003.674197649581
 30
0.0000000000017296
 11
633.5000526232915
 21
-1003.574196486183
 31
0.0000000000017296
  0
LINE
  5
2288C
330
18
100
AcDbEntity
  8
0
100
AcDbLine
 10
634.0000526232915
 20
-1010.074197649585
 30
0.0000000000017296
 11
633.5000526232915
 21
-1009.974196486187
 31
0.0000000000017296
  0
LINE
  5
2288D
330
18
100
AcDbEntity
  8
0
100
AcDbLine
 10
633.5000526232915
 20
-1009.974196486187
 30
0.0000000000017296
 11
637.5000526232915
 21
-1009.174205793369
 31
0.0000000000017296
  0
LINE
  5
2288E
330
18
100
AcDbEntity
  8
0
100
AcDbLine
 10
637.5000526232915
 20
-1009.174205793369
 30
0.0000000000017296
 11
637.0000526232915
 21
-1009.074204629972
 31
0.0000000000017296
  0
LINE
  5
2288F
330
18
100
AcDbEntity
  8
0
100
AcDbLine
 10
634.0000526232915
 20
-1011.674197649585
 30
0.0000000000017296
 11
633.5000526232915
 21
-1011.574196486187
 31
0.0000000000017296
  0
LINE
  5
22890
330
18
100
AcDbEntity
  8
0
100
AcDbLine
 10
633.5000526232915
 20
-1011.574196486187
 30
0.0000000000017296
 11
637.5000526232915
 21
-1010.774205793369
 31
0.0000000000017296
  0
LINE
  5
22891
330
18
100
AcDbEntity
  8
0
100
AcDbLine
 10
637.5000526232915
 20
-1010.774205793369
 30
0.0000000000017296
 11
637.0000526232915
 21
-1010.674204629971
 31
0.0000000000017296
  0
LINE
  5
22892
330
18
100
AcDbEntity
  8
0
100
AcDbLine
 10
634.0000526232915
 20
-1013.274197649585
 30
0.0000000000017296
 11
633.5000526232915
 21
-1013.174196486187
 31
0.0000000000017296
  0
LINE
  5
22893
330
18
100
AcDbEntity
  8
0
100
AcDbLine
 10
633.5000526232915
 20
-1013.174196486187
 30
0.0000000000017296
 11
637.5000526232915
 21
-1012.374205793369
 31
0.0000000000017296
  0
LINE
  5
22894
330
18
100
AcDbEntity
  8
0
100
AcDbLine
 10
637.5000526232915
 20
-1012.374205793369
 30
0.0000000000017296
 11
637.0000526232915
 21
-1012.274204629971
 31
0.0000000000017296
  0
LINE
  5
228DF
330
18
100
AcDbEntity
  8
0
100
AcDbLine
 10
35.49994167631088
 20
-979.0742011397156
 30
0.0000000000017296
 11
36.99994167631088
 21
-984.3741976495772
 31
0.0000000000017296
  0
LINE
  5
228E0
330
18
100
AcDbEntity
  8
0
100
AcDbLine
 10
36.99994167631088
 20
-984.3741976495772
 30
0.0000000000017296
 11
36.99994167631064
 21
-1014.074197649469
 31
0.0000000000017296
  0
LINE
  5
228E1
330
18
100
AcDbEntity
  8
0
100
AcDbLine
 10
35.49994167631088
 20
-979.0742011397156
 30
0.0000000000017296
 11
33.99994167631076
 21
-984.3742046299609
 31
0.0000000000017296
  0
LINE
  5
228E2
330
18
100
AcDbEntity
  8
0
100
AcDbLine
 10
38.99998821220868
 20
-1014.074192995771
 30
0.0000000000017296
 11
31.99998821220879
 21
-1014.074209283335
 31
0.0000000000017296
  0
LINE
  5
228E3
330
18
100
AcDbEntity
  8
0
100
AcDbLine
 10
33.99994167631076
 20
-984.3742046299609
 30
0.0000000000017296
 11
33.99994167631064
 21
-1014.074204629854
 31
0.0000000000017296
  0
LINE
  5
228E4
330
18
100
AcDbEntity
  8
0
100
AcDbLine
 10
38.99998821220868
 20
-1014.074192995771
 30
0.0000000000017296
 11
38.99998821220879
 21
-1015.174196485966
 31
0.0000000000017296
  0
ARC
  5
228E5
330
18
100
AcDbEntity
  8
0
100
AcDbCircle
 10
37.49998821220879
 20
-1015.174196485966
 30
0.0000000000017296
 40
1.5
100
AcDbArc
 50
270.0001333155316
 51
0.0
  0
LINE
  5
228E6
330
18
100
AcDbEntity
  8
0
100
AcDbLine
 10
31.99998821220879
 20
-1014.074209283335
 30
0.0000000000017296
 11
31.99998821220879
 21
-1015.174205793146
 31
0.0000000000017296
  0
LINE
  5
228E7
330
18
100
AcDbEntity
  8
0
100
AcDbLine
 10
37.49999170240119
 20
-1016.674196485962
 30
0.0000000000017296
 11
33.49999170240119
 21
-1016.674205793142
 31
0.0000000000017296
  0
ARC
  5
228E8
330
18
100
AcDbEntity
  8
0
100
AcDbCircle
 10
33.49998821220879
 20
-1015.174205793146
 30
0.0000000000017296
 40
1.5
100
AcDbArc
 50
180.0
 51
270.0001333155316
  0
LINE
  5
228E9
330
18
100
AcDbEntity
  8
1CENTER
100
AcDbLine
 10
35.4999882122088
 20
-977.6434062222502
 30
0.0000000000017296
 11
35.49998821220879
 21
-1017.744477548862
 31
0.0000000000017296
  0
LINE
  5
228EA
330
18
100
AcDbEntity
  8
0
100
AcDbLine
 10
36.59431202620386
 20
-981.1741985933934
 30
0.0000000000017296
 11
34.63197693732844
 21
-980.3742031593424
 31
0.0000000000017296
  0
LINE
  5
228EB
330
18
100
AcDbEntity
  8
0
100
AcDbLine
 10
34.63197693732844
 20
-980.3742031593424
 30
0.0000000000017296
 11
35.22025351237085
 21
-980.0624333030903
 31
0.0000000000017296
  0
LINE
  5
228EC
330
18
100
AcDbEntity
  8
0
100
AcDbLine
 10
37.49994167631087
 20
-1003.574196486183
 30
0.0000000000017296
 11
33.49994167631087
 21
-1002.774205793365
 31
0.0000000000017296
  0
LINE
  5
228ED
330
18
100
AcDbEntity
  8
0
100
AcDbLine
 10
37.49994167631088
 20
-992.374196486179
 30
0.0000000000017296
 11
33.49994167631088
 21
-991.5742057933564
 31
0.0000000000017296
  0
LINE
  5
228EE
330
18
100
AcDbEntity
  8
0
100
AcDbLine
 10
37.49994167631088
 20
-989.174196486179
 30
0.0000000000017296
 11
33.49994167631088
 21
-988.3742057933564
 31
0.0000000000017296
  0
LINE
  5
228EF
330
18
100
AcDbEntity
  8
0
100
AcDbLine
 10
33.49994167631088
 20
-988.3742057933564
 30
0.0000000000017296
 11
33.99994167631088
 21
-988.2742046299592
 31
0.0000000000017296
  0
LINE
  5
228F0
330
18
100
AcDbEntity
  8
0
100
AcDbLine
 10
36.99994167631088
 20
-987.6741976495762
 30
0.0000000000017296
 11
37.49994167631088
 21
-987.574196486179
 31
0.0000000000017296
  0
LINE
  5
228F1
330
18
100
AcDbEntity
  8
0
100
AcDbLine
 10
33.49994167631088
 20
-991.5742057933564
 30
0.0000000000017296
 11
33.99994167631088
 21
-991.4742046299592
 31
0.0000000000017296
  0
LINE
  5
228F2
330
18
100
AcDbEntity
  8
0
100
AcDbLine
 10
33.49994167631088
 20
-989.9742057933563
 30
0.0000000000017296
 11
33.99994167631088
 21
-989.8742046299592
 31
0.0000000000017296
  0
LINE
  5
228F3
330
18
100
AcDbEntity
  8
0
100
AcDbLine
 10
36.99994167631088
 20
-989.2741976495761
 30
0.0000000000017296
 11
37.49994167631088
 21
-989.174196486179
 31
0.0000000000017296
  0
LINE
  5
228F4
330
18
100
AcDbEntity
  8
0
100
AcDbLine
 10
36.99994167631088
 20
-990.874197649576
 30
0.0000000000017296
 11
37.49994167631088
 21
-990.7741964861789
 31
0.0000000000017296
  0
LINE
  5
228F5
330
18
100
AcDbEntity
  8
0
100
AcDbLine
 10
37.49994167631088
 20
-990.7741964861789
 30
0.0000000000017296
 11
33.49994167631088
 21
-989.9742057933563
 31
0.0000000000017296
  0
LINE
  5
228F6
330
18
100
AcDbEntity
  8
0
100
AcDbLine
 10
34.17916283292164
 20
-981.974204212948
 30
0.0000000000017296
 11
34.73091229672492
 21
-981.79144007032
 31
0.0000000000017296
  0
LINE
  5
228F7
330
18
100
AcDbEntity
  8
0
100
AcDbLine
 10
33.49994167631088
 20
-985.1742057933564
 30
0.0000000000017296
 11
33.99994167631088
 21
-985.0742046299592
 31
0.0000000000017296
  0
LINE
  5
228F8
330
18
100
AcDbEntity
  8
0
100
AcDbLine
 10
33.49994167631088
 20
-986.7742057933564
 30
0.0000000000017296
 11
33.99994167631088
 21
-986.6742046299594
 31
0.0000000000017296
  0
LINE
  5
228F9
330
18
100
AcDbEntity
  8
0
100
AcDbLine
 10
33.72634872851484
 20
-983.5742052665537
 30
0.0000000000017296
 11
34.26294246378598
 21
-983.4449345689238
 31
0.0000000000017296
  0
LINE
  5
228FA
330
18
100
AcDbEntity
  8
0
100
AcDbLine
 10
36.57902707910217
 20
-982.8869670521392
 30
0.0000000000017296
 11
37.04712553425214
 21
-982.7741975397892
 31
0.0000000000017296
  0
LINE
  5
228FB
330
18
100
AcDbEntity
  8
0
100
AcDbLine
 10
36.99994167631088
 20
-986.074197649576
 30
0.0000000000017296
 11
37.49994167631088
 21
-985.9741964861789
 31
0.0000000000017296
  0
LINE
  5
228FC
330
18
100
AcDbEntity
  8
0
100
AcDbLine
 10
36.99994167631088
 20
-984.4741976495761
 30
0.0000000000017296
 11
37.49994167631088
 21
-984.374196486179
 31
0.0000000000017296
  0
LINE
  5
228FD
330
18
100
AcDbEntity
  8
0
100
AcDbLine
 10
36.13714018557278
 20
-981.3256343898338
 30
0.0000000000017296
 11
36.59431202620386
 21
-981.1741985933934
 31
0.0000000000017296
  0
LINE
  5
228FE
330
18
100
AcDbEntity
  8
0
100
AcDbLine
 10
37.04712553425214
 20
-982.7741975397892
 30
0.0000000000017296
 11
34.17916283292164
 21
-981.974204212948
 31
0.0000000000017296
  0
LINE
  5
228FF
330
18
100
AcDbEntity
  8
0
100
AcDbLine
 10
37.49994167631088
 20
-985.9741964861789
 30
0.0000000000017296
 11
33.49994167631088
 21
-985.1742057933564
 31
0.0000000000017296
  0
LINE
  5
22900
330
18
100
AcDbEntity
  8
0
100
AcDbLine
 10
37.49994167631088
 20
-984.374196486179
 30
0.0000000000017296
 11
33.72634872851484
 21
-983.5742052665537
 31
0.0000000000017296
  0
LINE
  5
22901
330
18
100
AcDbEntity
  8
0
100
AcDbLine
 10
37.49994167631088
 20
-987.574196486179
 30
0.0000000000017296
 11
33.49994167631088
 21
-986.7742057933564
 31
0.0000000000017296
  0
LINE
  5
22902
330
18
100
AcDbEntity
  8
0
100
AcDbLine
 10
37.49994167631088
 20
-1000.374196486183
 30
0.0000000000017296
 11
33.49994167631088
 21
-999.5742057933651
 31
0.0000000000017296
  0
LINE
  5
22903
330
18
100
AcDbEntity
  8
0
100
AcDbLine
 10
33.49994167631088
 20
-999.5742057933651
 30
0.0000000000017296
 11
33.99994167631088
 21
-999.4742046299674
 31
0.0000000000017296
  0
LINE
  5
22904
330
18
100
AcDbEntity
  8
0
100
AcDbLine
 10
36.99994167631088
 20
-998.8741976495767
 30
0.0000000000017296
 11
37.49994167631088
 21
-998.774196486179
 31
0.0000000000017296
  0
LINE
  5
22905
330
18
100
AcDbEntity
  8
0
100
AcDbLine
 10
33.49994167631087
 20
-1001.174205793365
 30
0.0000000000017296
 11
33.99994167631088
 21
-1001.074204629968
 31
0.0000000000017296
  0
LINE
  5
22906
330
18
100
AcDbEntity
  8
0
100
AcDbLine
 10
33.49994167631087
 20
-1002.774205793365
 30
0.0000000000017296
 11
33.99994167631087
 21
-1002.674204629967
 31
0.0000000000017296
  0
LINE
  5
22907
330
18
100
AcDbEntity
  8
0
100
AcDbLine
 10
36.99994167631088
 20
-1000.474197649581
 30
0.0000000000017296
 11
37.49994167631088
 21
-1000.374196486183
 31
0.0000000000017296
  0
LINE
  5
22908
330
18
100
AcDbEntity
  8
0
100
AcDbLine
 10
36.99994167631087
 20
-1002.074197649581
 30
0.0000000000017296
 11
37.49994167631087
 21
-1001.974196486183
 31
0.0000000000017296
  0
LINE
  5
22909
330
18
100
AcDbEntity
  8
0
100
AcDbLine
 10
37.49994167631087
 20
-1001.974196486183
 30
0.0000000000017296
 11
33.49994167631087
 21
-1001.174205793365
 31
0.0000000000017296
  0
LINE
  5
2290A
330
18
100
AcDbEntity
  8
0
100
AcDbLine
 10
33.49994167631088
 20
-994.7742057933607
 30
0.0000000000017296
 11
33.99994167631088
 21
-994.674204629963
 31
0.0000000000017296
  0
LINE
  5
2290B
330
18
100
AcDbEntity
  8
0
100
AcDbLine
 10
33.49994167631088
 20
-993.1742057933564
 30
0.0000000000017296
 11
33.99994167631088
 21
-993.0742046299592
 31
0.0000000000017296
  0
LINE
  5
2290C
330
18
100
AcDbEntity
  8
0
100
AcDbLine
 10
33.49994167631088
 20
-997.9742057933607
 30
0.0000000000017296
 11
33.99994167631088
 21
-997.8742046299631
 31
0.0000000000017296
  0
LINE
  5
2290D
330
18
100
AcDbEntity
  8
0
100
AcDbLine
 10
33.49994167631088
 20
-996.3742057933608
 30
0.0000000000017296
 11
33.99994167631088
 21
-996.2742046299632
 31
0.0000000000017296
  0
LINE
  5
2290E
330
18
100
AcDbEntity
  8
0
100
AcDbLine
 10
36.99994167631088
 20
-992.4741976495761
 30
0.0000000000017296
 11
37.49994167631088
 21
-992.374196486179
 31
0.0000000000017296
  0
LINE
  5
2290F
330
18
100
AcDbEntity
  8
0
100
AcDbLine
 10
36.99994167631088
 20
-994.0741976495767
 30
0.0000000000017296
 11
37.49994167631088
 21
-993.9741964861789
 31
0.0000000000017296
  0
LINE
  5
22910
330
18
100
AcDbEntity
  8
0
100
AcDbLine
 10
36.99994167631088
 20
-997.2741976495768
 30
0.0000000000017296
 11
37.49994167631088
 21
-997.1741964861791
 31
0.0000000000017296
  0
LINE
  5
22911
330
18
100
AcDbEntity
  8
0
100
AcDbLine
 10
36.99994167631088
 20
-995.6741976495766
 30
0.0000000000017296
 11
37.49994167631088
 21
-995.574196486179
 31
0.0000000000017296
  0
LINE
  5
22912
330
18
100
AcDbEntity
  8
0
100
AcDbLine
 10
37.49994167631088
 20
-995.574196486179
 30
0.0000000000017296
 11
33.49994167631088
 21
-994.7742057933607
 31
0.0000000000017296
  0
LINE
  5
22913
330
18
100
AcDbEntity
  8
0
100
AcDbLine
 10
37.49994167631088
 20
-993.9741964861789
 30
0.0000000000017296
 11
33.49994167631088
 21
-993.1742057933564
 31
0.0000000000017296
  0
LINE
  5
22914
330
18
100
AcDbEntity
  8
0
100
AcDbLine
 10
37.49994167631088
 20
-997.1741964861791
 30
0.0000000000017296
 11
33.49994167631088
 21
-996.3742057933608
 31
0.0000000000017296
  0
LINE
  5
22915
330
18
100
AcDbEntity
  8
0
100
AcDbLine
 10
37.49994167631088
 20
-998.774196486179
 30
0.0000000000017296
 11
33.49994167631088
 21
-997.9742057933607
 31
0.0000000000017296
  0
LINE
  5
22916
330
18
100
AcDbEntity
  8
0
100
AcDbLine
 10
36.99994167631087
 20
-1008.474197649585
 30
0.0000000000017296
 11
37.49994167631087
 21
-1008.374196486188
 31
0.0000000000017296
  0
LINE
  5
22917
330
18
100
AcDbEntity
  8
0
100
AcDbLine
 10
37.49994167631087
 20
-1008.374196486188
 30
0.0000000000017296
 11
33.49994167631087
 21
-1007.574205793369
 31
0.0000000000017296
  0
LINE
  5
22918
330
18
100
AcDbEntity
  8
0
100
AcDbLine
 10
33.49994167631087
 20
-1007.574205793369
 30
0.0000000000017296
 11
33.99994167631087
 21
-1007.474204629972
 31
0.0000000000017296
  0
LINE
  5
22919
330
18
100
AcDbEntity
  8
0
100
AcDbLine
 10
36.99994167631087
 20
-1006.874197649585
 30
0.0000000000017296
 11
37.49994167631087
 21
-1006.774196486188
 31
0.0000000000017296
  0
LINE
  5
2291A
330
18
100
AcDbEntity
  8
0
100
AcDbLine
 10
36.99994167631087
 20
-1005.274197649585
 30
0.0000000000017296
 11
37.49994167631087
 21
-1005.174196486188
 31
0.0000000000017296
  0
LINE
  5
2291B
330
18
100
AcDbEntity
  8
0
100
AcDbLine
 10
37.49994167631087
 20
-1005.174196486188
 30
0.0000000000017296
 11
33.49994167631087
 21
-1004.374205793369
 31
0.0000000000017296
  0
LINE
  5
2291C
330
18
100
AcDbEntity
  8
0
100
AcDbLine
 10
33.49994167631087
 20
-1005.974205793369
 30
0.0000000000017296
 11
33.99994167631087
 21
-1005.874204629972
 31
0.0000000000017296
  0
LINE
  5
2291D
330
18
100
AcDbEntity
  8
0
100
AcDbLine
 10
33.49994167631087
 20
-1004.374205793369
 30
0.0000000000017296
 11
33.99994167631087
 21
-1004.274204629972
 31
0.0000000000017296
  0
LINE
  5
2291E
330
18
100
AcDbEntity
  8
0
100
AcDbLine
 10
37.49994167631087
 20
-1006.774196486188
 30
0.0000000000017296
 11
33.49994167631087
 21
-1005.974205793369
 31
0.0000000000017296
  0
LINE
  5
2291F
330
18
100
AcDbEntity
  8
0
100
AcDbLine
 10
36.99994167631087
 20
-1003.674197649581
 30
0.0000000000017296
 11
37.49994167631087
 21
-1003.574196486183
 31
0.0000000000017296
  0
LINE
  5
22920
330
18
100
AcDbEntity
  8
0
100
AcDbLine
 10
36.99994167631087
 20
-1010.074197649585
 30
0.0000000000017296
 11
37.49994167631087
 21
-1009.974196486187
 31
0.0000000000017296
  0
LINE
  5
22921
330
18
100
AcDbEntity
  8
0
100
AcDbLine
 10
37.49994167631087
 20
-1009.974196486187
 30
0.0000000000017296
 11
33.49994167631087
 21
-1009.174205793369
 31
0.0000000000017296
  0
LINE
  5
22922
330
18
100
AcDbEntity
  8
0
100
AcDbLine
 10
33.49994167631087
 20
-1009.174205793369
 30
0.0000000000017296
 11
33.99994167631087
 21
-1009.074204629972
 31
0.0000000000017296
  0
LINE
  5
22923
330
18
100
AcDbEntity
  8
0
100
AcDbLine
 10
36.99994167631087
 20
-1011.674197649585
 30
0.0000000000017296
 11
37.49994167631087
 21
-1011.574196486187
 31
0.0000000000017296
  0
LINE
  5
22924
330
18
100
AcDbEntity
  8
0
100
AcDbLine
 10
37.49994167631087
 20
-1011.574196486187
 30
0.0000000000017296
 11
33.49994167631087
 21
-1010.774205793369
 31
0.0000000000017296
  0
LINE
  5
22925
330
18
100
AcDbEntity
  8
0
100
AcDbLine
 10
33.49994167631087
 20
-1010.774205793369
 30
0.0000000000017296
 11
33.99994167631087
 21
-1010.674204629971
 31
0.0000000000017296
  0
LINE
  5
22926
330
18
100
AcDbEntity
  8
0
100
AcDbLine
 10
36.99994167631087
 20
-1013.274197649585
 30
0.0000000000017296
 11
37.49994167631087
 21
-1013.174196486187
 31
0.0000000000017296
  0
LINE
  5
22927
330
18
100
AcDbEntity
  8
0
100
AcDbLine
 10
37.49994167631087
 20
-1013.174196486187
 30
0.0000000000017296
 11
33.49994167631087
 21
-1012.374205793369
 31
0.0000000000017296
  0
LINE
  5
22928
330
18
100
AcDbEntity
  8
0
100
AcDbLine
 10
33.49994167631087
 20
-1012.374205793369
 30
0.0000000000017296
 11
33.99994167631087
 21
-1012.274204629971
 31
0.0000000000017296
  0
SOLID
  5
22929
330
18
100
AcDbEntity
  8
1DIM
100
AcDbTrace
 10
730.7331022167938
 20
-1092.369774640712
 30
0.0000000000017296
 11
729.9921674901009
 21
-1094.257134394943
 31
0.0000000000017296
 12
730.0809350139787
 22
-1092.231490932283
 32
0.0000000000017296
 13
730.0809350139787
 23
-1092.231490932283
 33
0.0000000000017296
1001
ACAD
1000
DSTYLE
1002
{
1070
    45
1040
0.5
1002
}
  0
LINE
  5
2292A
330
18
100
AcDbEntity
  8
1DIM
100
AcDbLine
 10
730.4070186153862
 20
-1092.300632786498
 30
0.0000000000017296
 11
733.1160114232159
 21
-1079.524606731027
 31
0.0000000000017296
1001
ACAD
1000
DSTYLE
1002
{
1070
    45
1040
0.5
1002
}
  0
SOLID
  5
2292B
330
18
100
AcDbEntity
  8
1DIM
100
AcDbTrace
 10
743.868520361959
 20
-1092.369774640712
 30
0.0000000000017296
 11
743.1275856352661
 21
-1094.257134394943
 31
0.0000000000017296
 12
743.2163531591439
 22
-1092.231490932283
 32
0.0000000000017296
 13
743.2163531591439
 23
-1092.231490932283
 33
0.0000000000017296
1001
ACAD
1000
DSTYLE
1002
{
1070
    45
1040
0.5
1002
}
  0
LINE
  5
2292C
330
18
100
AcDbEntity
  8
1DIM
100
AcDbLine
 10
743.5424367605514
 20
-1092.300632786498
 30
0.0000000000017296
 11
746.2514295683811
 21
-1079.524606731028
 31
0.0000000000017296
1001
ACAD
1000
DSTYLE
1002
{
1070
    45
1040
0.5
1002
}
  0
LINE
  5
2292D
330
18
100
AcDbEntity
  8
1DIM1
100
AcDbLine
 10
35.49998826028968
 20
-1124.9309685918
 30
0.0
 11
35.49998826028968
 21
-1184.909415345275
 31
0.0
1001
ACAD
1000
DSTYLE
1002
{
1070
    40
1040
3.0
1070
    45
1040
0.5
1002
}
  0
LINE
  5
2292E
330
18
100
AcDbEntity
  8
1DIM1
100
AcDbLine
 10
635.499982545303
 20
-1124.9309685918
 30
0.0
 11
635.499982545303
 21
-1184.909415345275
 31
0.0
1001
ACAD
1000
DSTYLE
1002
{
1070
    40
1040
3.0
1070
    45
1040
0.5
1002
}
  0
LINE
  5
2292F
330
18
100
AcDbEntity
  8
1DIM1
100
AcDbLine
 10
41.49998826028968
 20
-1181.909415345275
 30
0.0
 11
629.499982545303
 21
-1181.909415345275
 31
0.0
1001
ACAD
1000
DSTYLE
1002
{
1070
    40
1040
3.0
1070
    45
1040
0.5
1002
}
  0
LINE
  5
22933
330
18
100
AcDbEntity
  8
1DIM1
100
AcDbLine
 10
20.00000150094024
 20
-1135.809654027742
 30
0.0
 11
20.00000150094024
 21
-1214.909415345275
 31
0.0
1001
ACAD
1000
DSTYLE
1002
{
1070
    40
1040
3.0
1070
    45
1040
0.5
1002
}
  0
LINE
  5
22934
330
18
100
AcDbEntity
  8
1DIM1
100
AcDbLine
 10
651.0000000000002
 20
-1135.80965394114
 30
0.0
 11
651.0000000000002
 21
-1214.909415345275
 31
0.0
1001
ACAD
1000
DSTYLE
1002
{
1070
    40
1040
3.0
1070
    45
1040
0.5
1002
}
  0
LINE
  5
22935
330
18
100
AcDbEntity
  8
1DIM1
100
AcDbLine
 10
26.00000150094024
 20
-1211.909415345275
 30
0.0
 11
645.0000000000002
 21
-1211.909415345275
 31
0.0
1001
ACAD
1000
DSTYLE
1002
{
1070
    40
1040
3.0
1070
    45
1040
0.5
1002
}
  0
LINE
  5
22939
330
18
100
AcDbEntity
  8
1DIM
100
AcDbLine
 10
563.9999967325687
 20
-1136.809653958825
 30
0.0
 11
562.9999967325687
 21
-1136.809653958825
 31
0.0
1001
ACAD
1000
DSTYLE
1002
{
1070
    45
1040
0.5
1002
}
  0
LINE
  5
2293A
330
18
100
AcDbEntity
  8
1DIM
100
AcDbLine
 10
563.9999967325687
 20
-1106.80965230107
 30
0.0
 11
562.9999967325687
 21
-1106.80965230107
 31
0.0
1001
ACAD
1000
DSTYLE
1002
{
1070
    45
1040
0.5
1002
}
  0
LINE
  5
2293B
330
18
100
AcDbEntity
  8
1DIM
100
AcDbLine
 10
563.9999967325687
 20
-1106.80965230107
 30
0.0
 11
563.9999967325687
 21
-1096.244026722706
 31
0.0
1001
ACAD
1000
DSTYLE
1002
{
1070
    45
1040
0.5
1002
}
  0
LINE
  5
2293C
330
18
100
AcDbEntity
  8
1DIM
100
AcDbLine
 10
563.9999967325687
 20
-1134.809653958825
 30
0.0
 11
563.9999967325687
 21
-1108.80965230107
 31
0.0
1001
ACAD
1000
DSTYLE
1002
{
1070
    45
1040
0.5
1002
}
  0
LINE
  5
22940
330
18
100
AcDbEntity
  8
1DIM
100
AcDbLine
 10
650.9999927986621
 20
-1011.074201139553
 30
0.0
 11
650.9999927986621
 21
-974.074292881186
 31
0.0
1001
ACAD
1000
DSTYLE
1002
{
1070
    45
1040
0.5
1002
}
  0
LINE
  5
22941
330
18
100
AcDbEntity
  8
1DIM
100
AcDbLine
 10
621.0000065077304
 20
-1011.074201139553
 30
0.0
 11
621.0000065077304
 21
-974.074292881186
 31
0.0
1001
ACAD
1000
DSTYLE
1002
{
1070
    45
1040
0.5
1002
}
  0
LINE
  5
22942
330
18
100
AcDbEntity
  8
1DIM
100
AcDbLine
 10
648.9999927986621
 20
-975.074292881186
 30
0.0
 11
623.0000065077304
 21
-975.074292881186
 31
0.0
1001
ACAD
1000
DSTYLE
1002
{
1070
    45
1040
0.5
1002
}
  0
TEXT
  5
22946
330
18
100
AcDbEntity
  8
1DIM
  6
CONTINUOUS
100
AcDbText
 10
582.7185980853553
 20
-1086.211734477675
 30
0.0000000000017296
 40
3.5
  1
材質：アルミ
100
AcDbText
1001
ACADANNOTATIVE
1000
AnnotativeData
1002
{
1070
     1
1070
     0
1002
}
  0
TEXT
  5
22947
330
18
100
AcDbEntity
  8
1DIM
  6
CONTINUOUS
100
AcDbText
 10
582.835264752022
 20
-1092.045067811008
 30
0.0000000000017296
 40
3.5
  1
仕上げ：各種仕上げ
100
AcDbText
1001
ACADANNOTATIVE
1000
AnnotativeData
1002
{
1070
     1
1070
     0
1002
}
  0
SOLID
  5
22948
330
18
100
AcDbEntity
  8
1DIM
100
AcDbTrace
 10
577.4391263630688
 20
-1104.956750163235
 30
0.0000000000017296
 11
576.6158009239393
 21
-1106.80965230107
 31
0.0000000000017296
 12
576.7936810513856
 22
-1104.789882568806
 32
0.0000000000017296
 13
576.7936810513856
 23
-1104.789882568806
 33
0.0000000000017296
1001
ACAD
1000
DSTYLE
1002
{
1070
    45
1040
0.5
1002
}
  0
LINE
  5
22949
330
18
100
AcDbEntity
  8
1DIM
100
AcDbLine
 10
577.1164037072272
 20
-1104.873316366021
 30
0.0000000000017296
 11
580.2519314186886
 21
-1092.745067811008
 31
0.0000000000017296
1001
ACAD
1000
DSTYLE
1002
{
1070
    45
1040
0.5
1002
}
  0
LINE
  5
2294A
330
18
100
AcDbEntity
  8
1DIM
100
AcDbLine
 10
580.2519314186886
 20
-1092.745067811008
 30
0.0000000000017296
 11
619.935264752022
 21
-1092.745067811008
 31
0.0000000000017296
1001
ACAD
1000
DSTYLE
1002
{
1070
    45
1040
0.5
1002
}
  0
TEXT
  5
2294B
330
18
100
AcDbEntity
  8
1DIM
  6
CONTINUOUS
100
AcDbText
 10
560.7153768296191
 20
-1150.076182614886
 30
0.0000000000017296
 40
3.5
  1
材質：亜鉛ダイキャスト
100
AcDbText
1001
ACADANNOTATIVE
1000
AnnotativeData
1002
{
1070
     1
1070
     0
1002
}
  0
TEXT
  5
2294C
330
18
100
AcDbEntity
  8
1DIM
  6
CONTINUOUS
100
AcDbText
 10
568.4153768296192
 20
-1155.909515948219
 30
0.0000000000017296
 40
3.5
  1
仕上げ：各種仕上げ
100
AcDbText
1001
ACADANNOTATIVE
1000
AnnotativeData
1002
{
1070
     1
1070
     0
1002
}
  0
SOLID
  5
2294D
330
18
100
AcDbEntity
  8
1DIM
100
AcDbTrace
 10
623.4730824649201
 20
-1138.118731924731
 30
0.0000000000017296
 11
625.0214448224735
 21
-1136.809653958825
 31
0.0000000000017296
 12
623.9813435542711
 22
-1138.550142529024
 32
0.0000000000017296
 13
623.9813435542711
 23
-1138.550142529024
 33
0.0000000000017296
1001
ACAD
1000
DSTYLE
1002
{
1070
    45
1040
0.5
1002
}
  0
LINE
  5
2294E
330
18
100
AcDbEntity
  8
1DIM
100
AcDbLine
 10
623.7272130095956
 20
-1138.334437226878
 30
0.0000000000017296
 11
608.2153768296192
 21
-1156.609515948219
 31
0.0000000000017296
1001
ACAD
1000
DSTYLE
1002
{
1070
    45
1040
0.5
1002
}
  0
LINE
  5
2294F
330
18
100
AcDbEntity
  8
1DIM
100
AcDbLine
 10
608.2153768296192
 20
-1156.609515948219
 30
0.0000000000017296
 11
560.9487101629526
 21
-1156.609515948219
 31
0.0000000000017296
1001
ACAD
1000
DSTYLE
1002
{
1070
    45
1040
0.5
1002
}
  0
TEXT
  5
22950
330
18
100
AcDbEntity
  8
1DIM
  6
CONTINUOUS
100
AcDbText
 10
629.7185980853553
 20
-1086.211734477675
 30
0.0000000000017296
 40
3.5
  1
材質：PET樹脂
100
AcDbText
1001
ACADANNOTATIVE
1000
AnnotativeData
1002
{
1070
     1
1070
     0
1002
}
  0
TEXT
  5
22951
330
18
100
AcDbEntity
  8
1DIM
  6
CONTINUOUS
100
AcDbText
 10
629.835264752022
 20
-1092.045067811008
 30
0.0000000000017296
 40
3.5
  1
仕上げ：各種仕上げ
100
AcDbText
1001
ACADANNOTATIVE
1000
AnnotativeData
1002
{
1070
     1
1070
     0
1002
}
  0
SOLID
  5
22952
330
18
100
AcDbEntity
  8
1DIM
100
AcDbTrace
 10
623.045923711241
 20
-1110.17472002963
 30
0.0000000000017296
 11
622.2181780803857
 21
-1112.025651763031
 31
0.0000000000017296
 12
622.400878520362
 22
-1110.006312351158
 32
0.0000000000017296
 13
622.400878520362
 23
-1110.006312351158
 33
0.0000000000017296
1001
ACAD
1000
DSTYLE
1002
{
1070
    45
1040
0.5
1002
}
  0
LINE
  5
22953
330
18
100
AcDbEntity
  8
1DIM
100
AcDbLine
 10
622.7234011158015
 20
-1110.090516190394
 30
0.0000000000017296
 11
627.2519314186886
 21
-1092.745067811008
 31
0.0000000000017296
1001
ACAD
1000
DSTYLE
1002
{
1070
    45
1040
0.5
1002
}
  0
LINE
  5
22954
330
18
100
AcDbEntity
  8
1DIM
100
AcDbLine
 10
627.2519314186886
 20
-1092.745067811008
 30
0.0000000000017296
 11
666.935264752022
 21
-1092.745067811008
 31
0.0000000000017296
1001
ACAD
1000
DSTYLE
1002
{
1070
    45
1040
0.5
1002
}
  0
LINE
  5
22955
330
18
100
AcDbEntity
  8
1DIM
100
AcDbLine
 10
760.5092908296965
 20
-1121.809654174581
 30
0.0
 11
766.7477238947538
 21
-1121.809654174581
 31
0.0
1001
ACAD
1000
DSTYLE
1002
{
1070
    45
1040
0.5
1070
   271
1070
     0
1002
}
  0
LINE
  5
22956
330
18
100
AcDbEntity
  8
1DIM
100
AcDbLine
 10
727.0784959123935
 20
-1106.80965230107
 30
0.0
 11
766.7477238947538
 21
-1106.80965230107
 31
0.0
1001
ACAD
1000
DSTYLE
1002
{
1070
    45
1040
0.5
1070
   271
1070
     0
1002
}
  0
LINE
  5
22957
330
18
100
AcDbEntity
  8
1DIM
100
AcDbLine
 10
765.7477238947538
 20
-1119.809654174581
 30
0.0
 11
765.7477238947538
 21
-1108.80965230107
 31
0.0
1001
ACAD
1000
DSTYLE
1002
{
1070
    45
1040
0.5
1070
   271
1070
     0
1002
}
  0
LINE
  5
2295B
330
18
100
AcDbEntity
  8
1DIM
100
AcDbLine
 10
727.0784959123935
 20
-1136.809653958825
 30
0.0
 11
775.1477238947538
 21
-1136.809653958825
 31
0.0
1001
ACAD
1000
DSTYLE
1002
{
1070
    45
1040
0.5
1002
}
  0
LINE
  5
2295C
330
18
100
AcDbEntity
  8
1DIM
100
AcDbLine
 10
727.0784959123935
 20
-1106.80965230107
 30
0.0
 11
775.1477238947538
 21
-1106.80965230107
 31
0.0
1001
ACAD
1000
DSTYLE
1002
{
1070
    45
1040
0.5
1002
}
  0
LINE
  5
2295D
330
18
100
AcDbEntity
  8
1DIM
100
AcDbLine
 10
774.1477238947538
 20
-1134.809653958825
 30
0.0
 11
774.1477238947538
 21
-1108.80965230107
 31
0.0
1001
ACAD
1000
DSTYLE
1002
{
1070
    45
1040
0.5
1002
}
  0
LINE
  5
22961
330
18
100
AcDbEntity
  8
1DIM
100
AcDbLine
 10
678.0784971938933
 20
-1135.809654027742
 30
0.0
 11
678.0784971938933
 21
-1170.728752387767
 31
0.0
1001
ACAD
1000
DSTYLE
1002
{
1070
    45
1040
0.5
1002
}
  0
LINE
  5
22962
330
18
100
AcDbEntity
  8
1DIM
100
AcDbLine
 10
727.0784959123935
 20
-1160.483849363429
 30
0.0
 11
727.0784959123935
 21
-1170.728752387767
 31
0.0
1001
ACAD
1000
DSTYLE
1002
{
1070
    45
1040
0.5
1002
}
  0
LINE
  5
22963
330
18
100
AcDbEntity
  8
1DIM
100
AcDbLine
 10
680.0784971938933
 20
-1169.728752387767
 30
0.0
 11
725.0784959123935
 21
-1169.728752387767
 31
0.0
1001
ACAD
1000
DSTYLE
1002
{
1070
    45
1040
0.5
1002
}
  0
LINE
  5
22967
330
18
100
AcDbEntity
  8
1DIM
100
AcDbLine
 10
727.0784959123935
 20
-1160.483849363429
 30
0.0
 11
727.0784959123935
 21
-1162.597806386197
 31
0.0
1001
ACAD
1000
DSTYLE
1002
{
1070
    45
1040
0.5
1002
}
  0
LINE
  5
22968
330
18
100
AcDbEntity
  8
1DIM
100
AcDbLine
 10
709.0784966872538
 20
-1138.11842331139
 30
0.0
 11
709.0784966872538
 21
-1162.597806386197
 31
0.0
1001
ACAD
1000
DSTYLE
1002
{
1070
    45
1040
0.5
1002
}
  0
LINE
  5
22969
330
18
100
AcDbEntity
  8
1DIM
100
AcDbLine
 10
725.0784959123935
 20
-1161.597806386197
 30
0.0
 11
711.0784966872538
 21
-1161.597806386197
 31
0.0
1001
ACAD
1000
DSTYLE
1002
{
1070
    45
1040
0.5
1002
}
  0
LINE
  5
2296D
330
18
100
AcDbEntity
  8
1DIM
100
AcDbLine
 10
563.9999967325687
 20
-1060.074199858053
 30
0.0
 11
562.9999967325687
 21
-1060.074199858053
 31
0.0
1001
ACAD
1000
DSTYLE
1002
{
1070
    45
1040
0.5
1002
}
  0
LINE
  5
2296E
330
18
100
AcDbEntity
  8
1DIM
100
AcDbLine
 10
563.9999967325687
 20
-1046.074201288565
 30
0.0
 11
562.9999967325687
 21
-1046.074201288565
 31
0.0
1001
ACAD
1000
DSTYLE
1002
{
1070
    45
1040
0.5
1002
}
  0
LINE
  5
2296F
330
18
100
AcDbEntity
  8
1DIM
100
AcDbLine
 10
563.9999967325687
 20
-1046.074201288565
 30
0.0
 11
563.9999967325687
 21
-1035.675242376867
 31
0.0
1001
ACAD
1000
DSTYLE
1002
{
1070
    45
1040
0.5
1002
}
  0
LINE
  5
22970
330
18
100
AcDbEntity
  8
1DIM
100
AcDbLine
 10
563.9999967325687
 20
-1058.074199858053
 30
0.0
 11
563.9999967325687
 21
-1048.074201288565
 31
0.0
1001
ACAD
1000
DSTYLE
1002
{
1070
    45
1040
0.5
1002
}
  0
LINE
  5
22974
330
18
100
AcDbEntity
  8
0
  6
BYBLOCK
100
AcDbLine
 10
41.49998826028968
 20
-1183.517110485275
 30
0.0
 11
35.49998826028968
 21
-1181.909415345275
 31
0.0
  0
LINE
  5
22975
330
18
100
AcDbEntity
  8
0
  6
BYBLOCK
100
AcDbLine
 10
35.49998826028968
 20
-1181.909415345275
 30
0.0
 11
41.49998826028968
 21
-1180.301720205275
 31
0.0
  0
LINE
  5
22976
330
18
100
AcDbEntity
  8
0
  6
BYBLOCK
100
AcDbLine
 10
35.49998826028968
 20
-1181.909415345275
 30
0.0
 11
41.49998826028968
 21
-1181.909415345275
 31
0.0
  0
LINE
  5
22977
330
18
100
AcDbEntity
  8
0
  6
BYBLOCK
100
AcDbLine
 10
629.499982545303
 20
-1180.301720205275
 30
0.0
 11
635.499982545303
 21
-1181.909415345275
 31
0.0
  0
LINE
  5
22978
330
18
100
AcDbEntity
  8
0
  6
BYBLOCK
100
AcDbLine
 10
635.499982545303
 20
-1181.909415345275
 30
0.0
 11
629.499982545303
 21
-1183.517110485275
 31
0.0
  0
LINE
  5
22979
330
18
100
AcDbEntity
  8
0
  6
BYBLOCK
100
AcDbLine
 10
635.499982545303
 20
-1181.909415345275
 30
0.0
 11
629.499982545303
 21
-1181.909415345275
 31
0.0
  0
TEXT
  5
2297A
330
18
100
AcDbEntity
  8
1DIM1
  6
CONTINUOUS
100
AcDbText
 10
317.7447770694631
 20
-1179.809415345275
 30
0.0
 40
10.5
  1
P600
100
AcDbText
1001
ACAD
1000
DSTYLE
1002
{
1070
    40
1040
3.0
1070
    45
1040
0.5
1002
}
  0
LINE
  5
2297B
330
18
100
AcDbEntity
  8
0
  6
BYBLOCK
100
AcDbLine
 10
26.00000150094024
 20
-1213.517110485275
 30
0.0
 11
20.00000150094024
 21
-1211.909415345275
 31
0.0
  0
LINE
  5
2297C
330
18
100
AcDbEntity
  8
0
  6
BYBLOCK
100
AcDbLine
 10
20.00000150094024
 20
-1211.909415345275
 30
0.0
 11
26.00000150094024
 21
-1210.301720205275
 31
0.0
  0
LINE
  5
2297D
330
18
100
AcDbEntity
  8
0
  6
BYBLOCK
100
AcDbLine
 10
20.00000150094024
 20
-1211.909415345275
 30
0.0
 11
26.00000150094024
 21
-1211.909415345275
 31
0.0
  0
LINE
  5
2297E
330
18
100
AcDbEntity
  8
0
  6
BYBLOCK
100
AcDbLine
 10
645.0000000000002
 20
-1210.301720205275
 30
0.0
 11
651.0000000000002
 21
-1211.909415345275
 31
0.0
  0
LINE
  5
2297F
330
18
100
AcDbEntity
  8
0
  6
BYBLOCK
100
AcDbLine
 10
651.0000000000002
 20
-1211.909415345275
 30
0.0
 11
645.0000000000002
 21
-1213.517110485275
 31
0.0
  0
LINE
  5
22980
330
18
100
AcDbEntity
  8
0
  6
BYBLOCK
100
AcDbLine
 10
651.0000000000002
 20
-1211.909415345275
 30
0.0
 11
645.0000000000002
 21
-1211.909415345275
 31
0.0
  0
TEXT
  5
22981
330
18
100
AcDbEntity
  8
1DIM1
  6
CONTINUOUS
100
AcDbText
 10
323.2135424171369
 20
-1209.809415345275
 30
0.0
 40
10.5
  1
631
100
AcDbText
1001
ACAD
1000
DSTYLE
1002
{
1070
    40
1040
3.0
1070
    45
1040
0.5
1002
}
  0
LINE
  5
22982
330
18
100
AcDbEntity
  8
0
  6
BYBLOCK
100
AcDbLine
 10
564.5358951125687
 20
-1134.809653958825
 30
0.0
 11
563.9999967325687
 21
-1136.809653958825
 31
0.0
  0
LINE
  5
22983
330
18
100
AcDbEntity
  8
0
  6
BYBLOCK
100
AcDbLine
 10
563.9999967325687
 20
-1136.809653958825
 30
0.0
 11
563.4640983525686
 21
-1134.809653958825
 31
0.0
  0
LINE
  5
22984
330
18
100
AcDbEntity
  8
0
  6
BYBLOCK
100
AcDbLine
 10
563.9999967325687
 20
-1136.809653958825
 30
0.0
 11
563.9999967325687
 21
-1134.809653958825
 31
0.0
  0
LINE
  5
22985
330
18
100
AcDbEntity
  8
0
  6
BYBLOCK
100
AcDbLine
 10
563.4640983525686
 20
-1108.80965230107
 30
0.0
 11
563.9999967325687
 21
-1106.80965230107
 31
0.0
  0
LINE
  5
22986
330
18
100
AcDbEntity
  8
0
  6
BYBLOCK
100
AcDbLine
 10
563.9999967325687
 20
-1106.80965230107
 30
0.0
 11
564.5358951125687
 21
-1108.80965230107
 31
0.0
  0
LINE
  5
22987
330
18
100
AcDbEntity
  8
0
  6
BYBLOCK
100
AcDbLine
 10
563.9999967325687
 20
-1106.80965230107
 30
0.0
 11
563.9999967325687
 21
-1108.80965230107
 31
0.0
  0
TEXT
  5
22988
330
18
100
AcDbEntity
  8
1DIM
  6
CONTINUOUS
100
AcDbText
 10
563.2999967325686
 20
-1102.475276722706
 30
0.0
 40
3.5
  1
30
 50
90.0
100
AcDbText
1001
ACAD
1000
DSTYLE
1002
{
1070
    45
1040
0.5
1002
}
  0
LINE
  5
22989
330
18
100
AcDbEntity
  8
0
  6
BYBLOCK
100
AcDbLine
 10
648.9999927986621
 20
-974.538394501186
 30
0.0
 11
650.9999927986621
 21
-975.074292881186
 31
0.0
  0
LINE
  5
2298A
330
18
100
AcDbEntity
  8
0
  6
BYBLOCK
100
AcDbLine
 10
650.9999927986621
 20
-975.074292881186
 30
0.0
 11
648.9999927986621
 21
-975.6101912611861
 31
0.0
  0
LINE
  5
2298B
330
18
100
AcDbEntity
  8
0
  6
BYBLOCK
100
AcDbLine
 10
650.9999927986621
 20
-975.074292881186
 30
0.0
 11
648.9999927986621
 21
-975.074292881186
 31
0.0
  0
LINE
  5
2298C
330
18
100
AcDbEntity
  8
0
  6
BYBLOCK
100
AcDbLine
 10
623.0000065077304
 20
-975.6101912611861
 30
0.0
 11
621.0000065077304
 21
-975.074292881186
 31
0.0
  0
LINE
  5
2298D
330
18
100
AcDbEntity
  8
0
  6
BYBLOCK
100
AcDbLine
 10
621.0000065077304
 20
-975.074292881186
 30
0.0
 11
623.0000065077304
 21
-974.538394501186
 31
0.0
  0
LINE
  5
2298E
330
18
100
AcDbEntity
  8
0
  6
BYBLOCK
100
AcDbLine
 10
621.0000065077304
 20
-975.074292881186
 30
0.0
 11
623.0000065077304
 21
-975.074292881186
 31
0.0
  0
TEXT
  5
2298F
330
18
100
AcDbEntity
  8
1DIM
  6
CONTINUOUS
100
AcDbText
 10
633.3020829865296
 20
-974.374292881186
 30
0.0
 40
3.5
  1
30
100
AcDbText
1001
ACAD
1000
DSTYLE
1002
{
1070
    45
1040
0.5
1002
}
  0
LINE
  5
22990
330
18
100
AcDbEntity
  8
0
  6
BYBLOCK
100
AcDbLine
 10
766.2836222747538
 20
-1119.809654174581
 30
0.0
 11
765.7477238947538
 21
-1121.809654174581
 31
0.0
  0
LINE
  5
22991
330
18
100
AcDbEntity
  8
0
  6
BYBLOCK
100
AcDbLine
 10
765.7477238947538
 20
-1121.809654174581
 30
0.0
 11
765.2118255147537
 21
-1119.809654174581
 31
0.0
  0
LINE
  5
22992
330
18
100
AcDbEntity
  8
0
  6
BYBLOCK
100
AcDbLine
 10
765.7477238947538
 20
-1121.809654174581
 30
0.0
 11
765.7477238947538
 21
-1119.809654174581
 31
0.0
  0
LINE
  5
22993
330
18
100
AcDbEntity
  8
0
  6
BYBLOCK
100
AcDbLine
 10
765.2118255147537
 20
-1108.80965230107
 30
0.0
 11
765.7477238947538
 21
-1106.80965230107
 31
0.0
  0
LINE
  5
22994
330
18
100
AcDbEntity
  8
0
  6
BYBLOCK
100
AcDbLine
 10
765.7477238947538
 20
-1106.80965230107
 30
0.0
 11
766.2836222747538
 21
-1108.80965230107
 31
0.0
  0
LINE
  5
22995
330
18
100
AcDbEntity
  8
0
  6
BYBLOCK
100
AcDbLine
 10
765.7477238947538
 20
-1106.80965230107
 30
0.0
 11
765.7477238947538
 21
-1108.80965230107
 31
0.0
  0
TEXT
  5
22996
330
18
100
AcDbEntity
  8
1DIM
  6
CONTINUOUS
100
AcDbText
 10
765.0477238947537
 20
-1116.642986571159
 30
0.0
 40
3.5
  1
15
 50
90.0
100
AcDbText
1001
ACAD
1000
DSTYLE
1002
{
1070
    45
1040
0.5
1070
   271
1070
     0
1002
}
  0
LINE
  5
22997
330
18
100
AcDbEntity
  8
0
  6
BYBLOCK
100
AcDbLine
 10
774.6836222747538
 20
-1134.809653958825
 30
0.0
 11
774.1477238947538
 21
-1136.809653958825
 31
0.0
  0
LINE
  5
22998
330
18
100
AcDbEntity
  8
0
  6
BYBLOCK
100
AcDbLine
 10
774.1477238947538
 20
-1136.809653958825
 30
0.0
 11
773.6118255147537
 21
-1134.809653958825
 31
0.0
  0
LINE
  5
22999
330
18
100
AcDbEntity
  8
0
  6
BYBLOCK
100
AcDbLine
 10
774.1477238947538
 20
-1136.809653958825
 30
0.0
 11
774.1477238947538
 21
-1134.809653958825
 31
0.0
  0
LINE
  5
2299A
330
18
100
AcDbEntity
  8
0
  6
BYBLOCK
100
AcDbLine
 10
773.6118255147537
 20
-1108.80965230107
 30
0.0
 11
774.1477238947538
 21
-1106.80965230107
 31
0.0
  0
LINE
  5
2299B
330
18
100
AcDbEntity
  8
0
  6
BYBLOCK
100
AcDbLine
 10
774.1477238947538
 20
-1106.80965230107
 30
0.0
 11
774.6836222747538
 21
-1108.80965230107
 31
0.0
  0
LINE
  5
2299C
330
18
100
AcDbEntity
  8
0
  6
BYBLOCK
100
AcDbLine
 10
774.1477238947538
 20
-1106.80965230107
 30
0.0
 11
774.1477238947538
 21
-1108.80965230107
 31
0.0
  0
TEXT
  5
2299D
330
18
100
AcDbEntity
  8
1DIM
  6
CONTINUOUS
100
AcDbText
 10
773.4477238947537
 20
-1127.026404128779
 30
0.0
 40
3.5
  1
30
 50
90.0
100
AcDbText
1001
ACAD
1000
DSTYLE
1002
{
1070
    45
1040
0.5
1002
}
  0
LINE
  5
2299E
330
18
100
AcDbEntity
  8
0
  6
BYBLOCK
100
AcDbLine
 10
680.0784971938933
 20
-1170.264650767767
 30
0.0
 11
678.0784971938933
 21
-1169.728752387767
 31
0.0
  0
LINE
  5
2299F
330
18
100
AcDbEntity
  8
0
  6
BYBLOCK
100
AcDbLine
 10
678.0784971938933
 20
-1169.728752387767
 30
0.0
 11
680.0784971938933
 21
-1169.192854007767
 31
0.0
  0
LINE
  5
229A0
330
18
100
AcDbEntity
  8
0
  6
BYBLOCK
100
AcDbLine
 10
678.0784971938933
 20
-1169.728752387767
 30
0.0
 11
680.0784971938933
 21
-1169.728752387767
 31
0.0
  0
LINE
  5
229A1
330
18
100
AcDbEntity
  8
0
  6
BYBLOCK
100
AcDbLine
 10
725.0784959123935
 20
-1169.192854007767
 30
0.0
 11
727.0784959123935
 21
-1169.728752387767
 31
0.0
  0
LINE
  5
229A2
330
18
100
AcDbEntity
  8
0
  6
BYBLOCK
100
AcDbLine
 10
727.0784959123935
 20
-1169.728752387767
 30
0.0
 11
725.0784959123935
 21
-1170.264650767767
 31
0.0
  0
LINE
  5
229A3
330
18
100
AcDbEntity
  8
0
  6
BYBLOCK
100
AcDbLine
 10
727.0784959123935
 20
-1169.728752387767
 30
0.0
 11
725.0784959123935
 21
-1169.728752387767
 31
0.0
  0
TEXT
  5
229A4
330
18
100
AcDbEntity
  8
1DIM
  6
CONTINUOUS
100
AcDbText
 10
699.6610197012916
 20
-1169.028752387767
 30
0.0
 40
3.5
  1
49
100
AcDbText
1001
ACAD
1000
DSTYLE
1002
{
1070
    45
1040
0.5
1002
}
  0
LINE
  5
229A5
330
18
100
AcDbEntity
  8
0
  6
BYBLOCK
100
AcDbLine
 10
725.0784959123935
 20
-1161.061908006197
 30
0.0
 11
727.0784959123935
 21
-1161.597806386197
 31
0.0
  0
LINE
  5
229A6
330
18
100
AcDbEntity
  8
0
  6
BYBLOCK
100
AcDbLine
 10
727.0784959123935
 20
-1161.597806386197
 30
0.0
 11
725.0784959123935
 21
-1162.133704766197
 31
0.0
  0
LINE
  5
229A7
330
18
100
AcDbEntity
  8
0
  6
BYBLOCK
100
AcDbLine
 10
727.0784959123935
 20
-1161.597806386197
 30
0.0
 11
725.0784959123935
 21
-1161.597806386197
 31
0.0
  0
LINE
  5
229A8
330
18
100
AcDbEntity
  8
0
  6
BYBLOCK
100
AcDbLine
 10
711.0784966872538
 20
-1162.133704766197
 30
0.0
 11
709.0784966872538
 21
-1161.597806386197
 31
0.0
  0
LINE
  5
229A9
330
18
100
AcDbEntity
  8
0
  6
BYBLOCK
100
AcDbLine
 10
709.0784966872538
 20
-1161.597806386197
 30
0.0
 11
711.0784966872538
 21
-1161.061908006197
 31
0.0
  0
LINE
  5
229AA
330
18
100
AcDbEntity
  8
0
  6
BYBLOCK
100
AcDbLine
 10
709.0784966872538
 20
-1161.597806386197
 30
0.0
 11
711.0784966872538
 21
-1161.597806386197
 31
0.0
  0
TEXT
  5
229AB
330
18
100
AcDbEntity
  8
1DIM
  6
CONTINUOUS
100
AcDbText
 10
715.7451629664903
 20
-1160.897806386197
 30
0.0
 40
3.5
  1
18
100
AcDbText
1001
ACAD
1000
DSTYLE
1002
{
1070
    45
1040
0.5
1002
}
  0
LINE
  5
229AC
330
18
100
AcDbEntity
  8
0
  6
BYBLOCK
100
AcDbLine
 10
564.5358951125687
 20
-1058.074199858053
 30
0.0
 11
563.9999967325687
 21
-1060.074199858053
 31
0.0
  0
LINE
  5
229AD
330
18
100
AcDbEntity
  8
0
  6
BYBLOCK
100
AcDbLine
 10
563.9999967325687
 20
-1060.074199858053
 30
0.0
 11
563.4640983525686
 21
-1058.074199858053
 31
0.0
  0
LINE
  5
229AE
330
18
100
AcDbEntity
  8
0
  6
BYBLOCK
100
AcDbLine
 10
563.9999967325687
 20
-1060.074199858053
 30
0.0
 11
563.9999967325687
 21
-1058.074199858053
 31
0.0
  0
LINE
  5
229AF
330
18
100
AcDbEntity
  8
0
  6
BYBLOCK
100
AcDbLine
 10
563.4640983525686
 20
-1048.074201288565
 30
0.0
 11
563.9999967325687
 21
-1046.074201288565
 31
0.0
  0
LINE
  5
229B0
330
18
100
AcDbEntity
  8
0
  6
BYBLOCK
100
AcDbLine
 10
563.9999967325687
 20
-1046.074201288565
 30
0.0
 11
564.5358951125687
 21
-1048.074201288565
 31
0.0
  0
LINE
  5
229B1
330
18
100
AcDbEntity
  8
0
  6
BYBLOCK
100
AcDbLine
 10
563.9999967325687
 20
-1046.074201288565
 30
0.0
 11
563.9999967325687
 21
-1048.074201288565
 31
0.0
  0
TEXT
  5
229B2
330
18
100
AcDbEntity
  8
1DIM
  6
CONTINUOUS
100
AcDbText
 10
563.2999967325686
 20
-1041.375242376867
 30
0.0
 40
3.5
  1
14
 50
90.0
100
AcDbText
1001
ACAD
1000
DSTYLE
1002
{
1070
    45
1040
0.5
1002
}
  0
VIEWPORT
  5
57
330
15
100
AcDbEntity
 67
     1
  8
0
100
AcDbViewport
 68
     1
 10
0.0
 20
0.0
 30
0.0
 40
551.8723404255319
 41
297.0
 68
     1
 69
     1
1001
ACAD
1000
MVIEW
1002
{
1070
    16
1010
0.0
1020
0.0
1030
0.0
1010
0.0
1020
0.0
1030
1.0
1040
0.0
1040
297.0
1040
-4.171999999925333
1040
12.83903210976956
1040
50.0
1040
0.0
1040
0.0
1070
    16
1070
   100
1070
     0
1070
     1
1070
     0
1070
     0
1070
     0
1070
     0
1040
0.0
1040
0.0
1040
0.0
1040
10.0
1040
10.0
1040
10.0
1040
10.0
1070
     0
1002
{
1002
}
1002
}
  0
ENDSEC
  0
SECTION
  2
OBJECTS
  0
DICTIONARY
  5
C
330
0
100
AcDbDictionary
  3
ACAD_COLOR
350
2D0
  3
ACAD_GROUP
350
D
  3
ACAD_LAYOUT
350
2D1
  3
ACAD_MATERIAL
350
2CF
  3
ACAD_MLEADERSTYLE
350
19E18
  3
ACAD_MLINESTYLE
350
1B
  3
ACAD_PLOTSETTINGS
350
2D2
  3
ACAD_SCALELIST
350
19DF6
  3
ACAD_VISUALSTYLE
350
19DE5
  3
ACDBHEADERROUNDTRIPXREC
350
229B3
  3
ACDBVARIABLEDICTIONARY
350
37
  3
CONTENTDICTIONARY
350
D8
  3
DRAWINGVARIABLESDICT
350
20
  3
DWGPROPS
350
229B6
1001
ACAD
1000
TREAT_AS_HARD
1070
     0
  0
DICTIONARY
  5
18FE8
330
2
100
AcDbDictionary
  3
ACAD_LAYERSTATES
360
18FE9
1001
ACAD
1000
TREAT_AS_HARD
1070
     1
  0
DICTIONARY
  5
1A20A
330
E
100
AcDbDictionary
  3
ADSK_XREC_LAYER_RECONCILED
360
1A20B
1001
ACAD
1000
TREAT_AS_HARD
1070
     1
  0
DICTIONARY
  5
1A20C
330
29
100
AcDbDictionary
  3
ADSK_XREC_LAYER_RECONCILED
360
1A20D
1001
ACAD
1000
TREAT_AS_HARD
1070
     1
  0
DICTIONARY
  5
1A20E
330
31
100
AcDbDictionary
  3
ADSK_XREC_LAYER_RECONCILED
360
1A20F
1001
ACAD
1000
TREAT_AS_HARD
1070
     1
  0
DICTIONARY
  5
1A218
330
101
100
AcDbDictionary
  3
ADSK_XREC_LAYER_RECONCILED
360
1A219
1001
ACAD
1000
TREAT_AS_HARD
1070
     1
  0
DICTIONARY
  5
1A21C
330
103
100
AcDbDictionary
  3
ADSK_XREC_LAYER_RECONCILED
360
1A21D
1001
ACAD
1000
TREAT_AS_HARD
1070
     1
  0
DICTIONARY
  5
1A220
330
25F
100
AcDbDictionary
  3
ADSK_XREC_LAYER_RECONCILED
360
1A221
1001
ACAD
1000
TREAT_AS_HARD
1070
     1
  0
DICTIONARY
  5
1A236
330
26A
100
AcDbDictionary
  3
ADSK_XREC_LAYER_RECONCILED
360
1A237
1001
ACAD
1000
TREAT_AS_HARD
1070
     1
  0
DICTIONARY
  5
1A23C
330
26D
100
AcDbDictionary
  3
ADSK_XREC_LAYER_RECONCILED
360
1A23D
1001
ACAD
1000
TREAT_AS_HARD
1070
     1
  0
DICTIONARY
  5
6E9
330
18
100
AcDbDictionary
  3
ACAD_SORTENTS
360
6EA
1001
ACAD
1000
TREAT_AS_HARD
1070
     1
  0
DICTIONARY
  5
59B
330
15
100
AcDbDictionary
  3
ACAD_SORTENTS
360
59C
1001
ACAD
1000
TREAT_AS_HARD
1070
     1
  0
DICTIONARY
  5
20B2E
330
20B2D
100
AcDbDictionary
  3
ACAD_SORTENTS
360
20B2F
1001
ACAD
1000
TREAT_AS_HARD
1070
     1
  0
DICTIONARY
  5
21EDE
330
21EDD
100
AcDbDictionary
  3
ACAD_SORTENTS
360
21EDF
1001
ACAD
1000
TREAT_AS_HARD
1070
     1
  0
DICTIONARY
  5
2D0
102
{ACAD_REACTORS
330
C
102
}
330
C
100
AcDbDictionary
1001
ACAD
1000
TREAT_AS_HARD
1070
     0
  0
DICTIONARY
  5
D
102
{ACAD_REACTORS
330
C
102
}
330
C
100
AcDbDictionary
  3
*A1
350
21E18
1001
ACAD
1000
TREAT_AS_HARD
1070
     0
  0
DICTIONARY
  5
2D1
102
{ACAD_REACTORS
330
C
102
}
330
C
100
AcDbDictionary
1001
ACAD
1000
TREAT_AS_HARD
1070
     0
  0
DICTIONARY
  5
2CF
102
{ACAD_REACTORS
330
C
102
}
330
C
100
AcDbDictionary
  3
BYBLOCK
350
19DD5
  3
BYLAYER
350
19DCD
  3
GLOBAL
350
19DDD
1001
ACAD
1000
TREAT_AS_HARD
1070
     0
  0
DICTIONARY
  5
19E18
102
{ACAD_REACTORS
330
C
102
}
330
C
100
AcDbDictionary
  3
BALLOON3
350
21EDC
  3
BALLOONA
350
20B2C
  3
BALLOONS005
350
21EB5
  3
BALLOONS01
350
21EAC
  3
BALLOONS02
350
21EB2
  3
BALLOONS03
350
21EB4
  3
BALLOONS05
350
21EB6
  3
BALLOONS07
350
21EB3
  3
BALLOONS1
350
21EA4
  3
BALLOONS10
350
21EB1
  3
BALLOONS100
350
21EBD
  3
BALLOONS13
350
21EBF
  3
BALLOONS15
350
21EC0
  3
BALLOONS2
350
21EAD
  3
BALLOONS20
350
21EBA
  3
BALLOONS200
350
21EBE
  3
BALLOONS25
350
21EBB
  3
BALLOONS3
350
21EAF
  3
BALLOONS30
350
21EB8
  3
BALLOONS4
350
21EB0
  3
BALLOONS40
350
21EB9
  3
BALLOONS5
350
21EAE
  3
BALLOONS50
350
21EB7
  3
BALLOONS500
350
21EBC
  3
BALLOONS7
350
21EC1
  3
LEADERMULTI
350
21EC3
  3
LEADERMULTIA
350
21EDB
  3
LEADERMULTIS005
350
21ED5
  3
LEADERMULTIS01
350
21ED6
  3
LEADERMULTIS02
350
21ED7
  3
LEADERMULTIS03
350
21ED8
  3
LEADERMULTIS05
350
21ED9
  3
LEADERMULTIS07
350
21EDA
  3
LEADERMULTIS1
350
21EC8
  3
LEADERMULTIS10
350
21ECA
  3
LEADERMULTIS100
350
21ECB
  3
LEADERMULTIS13
350
21ECC
  3
LEADERMULTIS15
350
21ECD
  3
LEADERMULTIS2
350
21EC4
  3
LEADERMULTIS20
350
21ECE
  3
LEADERMULTIS200
350
21ECF
  3
LEADERMULTIS25
350
21ED0
  3
LEADERMULTIS3
350
21EC5
  3
LEADERMULTIS30
350
21ED1
  3
LEADERMULTIS4
350
21EC6
  3
LEADERMULTIS40
350
21ED2
  3
LEADERMULTIS5
350
21EC7
  3
LEADERMULTIS50
350
21ED3
  3
LEADERMULTIS500
350
21ED4
  3
LEADERMULTIS7
350
21EC9
  3
STANDARD
350
19E19
1001
ACAD
1000
TREAT_AS_HARD
1070
     0
  0
DICTIONARY
  5
1B
102
{ACAD_REACTORS
330
C
102
}
330
C
100
AcDbDictionary
  3
STANDARD
350
1C
1001
ACAD
1000
TREAT_AS_HARD
1070
     0
  0
DICTIONARY
  5
2D2
102
{ACAD_REACTORS
330
C
102
}
330
C
100
AcDbDictionary
1001
ACAD
1000
TREAT_AS_HARD
1070
     0
  0
DICTIONARY
  5
19DF6
102
{ACAD_REACTORS
330
C
102
}
330
C
100
AcDbDictionary
  3
*A1
350
21F05
  3
*A10
350
21F0E
  3
*A11
350
21F0F
  3
*A12
350
21F10
  3
*A13
350
21F11
  3
*A14
350
21F12
  3
*A15
350
21F13
  3
*A16
350
21F14
  3
*A2
350
21F06
  3
*A3
350
21F07
  3
*A4
350
21F08
  3
*A5
350
21F09
  3
*A6
350
21F0A
  3
*A7
350
21F0B
  3
*A8
350
21F0C
  3
*A9
350
21F0D
  3
A0
350
19DF7
  3
A1
350
19DF8
  3
A2
350
19DF9
  3
A3
350
19DFA
  3
A4
350
19DFB
  3
A5
350
19DFC
  3
A6
350
19DFD
  3
A7
350
19DFE
  3
A8
350
19DFF
  3
A9
350
19E00
  3
B0
350
19E01
  3
B1
350
19E02
  3
B2
350
19E03
  3
B3
350
19E04
  3
B4
350
19E05
  3
B5
350
19E06
  3
B6
350
19E07
  3
B7
350
19E08
  3
B8
350
19E09
  3
B9
350
19E0A
  3
C0
350
19E0B
  3
C1
350
19E0C
  3
C2
350
19E0D
  3
C3
350
19E0E
  3
C4
350
19E0F
  3
C5
350
19E10
  3
C6
350
19E11
  3
C7
350
19E12
  3
C8
350
19E13
  3
C9
350
19E14
  3
D0
350
19E15
  3
D1
350
19E16
  3
D2
350
19E17
1001
ACAD
1000
TREAT_AS_HARD
1070
     0
  0
DICTIONARY
  5
19DE5
102
{ACAD_REACTORS
330
C
102
}
330
C
100
AcDbDictionary
  3
2DWIREFRAME
350
19DEB
  3
3D_HIDDEN
350
19DED
  3
3DWIREFRAME
350
19DEC
  3
BASIC
350
19DEA
  3
BRIGHTEN
350
19DF1
  3
COLORCHANGE
350
19DF5
  3
CONCEPTUAL
350
19DEE
  3
DIM
350
19DF0
  3
EDGECOLOROFF
350
1E02A
  3
FACEPATTERN
350
19DF4
  3
FLAT
350
19DE6
  3
FLATWITHEDGES
350
19DE7
  3
GOURAUD
350
19DE8
  3
GOURAUDWITHEDGES
350
19DE9
  3
HIDDEN
350
1F381
  3
JITTEROFF
350
1E028
  3
LINEPATTERN
350
19DF3
  3
MODELING
350
1F387
  3
OVERHANGOFF
350
1E029
  3
REALISTIC
350
19DEF
  3
SHADED
350
1F386
  3
SHADED_WITH_EDGES
350
1F385
  3
SHADES_OF_GRAY
350
1F382
  3
SKETCHY
350
1F383
  3
THICKEN
350
19DF2
  3
WIREFRAME
350
1F380
  3
X-RAY
350
1F384
1001
ACAD
1000
TREAT_AS_HARD
1070
     0
  0
DICTIONARY
  5
229B3
102
{ACAD_REACTORS
330
C
102
}
330
C
100
AcDbDictionary
  3
COLORDICT
350
229B4
  3
MATERIALDICT
350
229B5
1001
ACAD
1000
TREAT_AS_HARD
1070
     0
  0
DICTIONARY
  5
37
102
{ACAD_REACTORS
330
C
102
}
330
C
100
AcDbDictionary
  3
CANNOSCALE
350
20A45
  3
CMLEADERSTYLE
350
1AC19
  3
CTABLESTYLE
350
4F1
  3
DIMADEC
350
38
  3
DIMASSOC
350
408
  3
HIDETEXT
350
1891
  3
INDEXCTL
350
1AC1C
  3
INTERSECTIONCOLOR
350
1895
  3
INTERSECTIONDISPLAY
350
1894
  3
MSLTSCALE
350
20A9B
  3
OBSCOLOR
350
1892
  3
OBSLTYPE
350
1893
  3
PROJECTNAME
350
409
  3
SORTENTS
350
1AC1B
  3
XCLIPFRAME
350
1F37F
1001
ACAD
1000
TREAT_AS_HARD
1070
     0
  0
DICTIONARY
  5
D8
102
{ACAD_REACTORS
330
C
102
}
330
C
100
AcDbDictionary
1001
CONTENTTABDATA
1070
    11
1000
Child
1000
D:\ACLT\TABset\CHILDREN.dwg
1070
     0
1070
     0
1070
     1
1000
PK
1000
D:\ACLT\TABset\PK.dwg
1070
     0
1070
     0
1070
     1
1000
Lev1
1000
D:\ACLT\TABset\Lever01.dwg
1070
     0
1070
     0
1070
     1
1000
Lev2
1000
D:\ACLT\TABset\Lever02.dwg
1070
     0
1070
     0
1070
     1
1000
L3
1000
D:\Aclt\TABset\Lever03.dwg
1070
     0
1070
     0
1070
     1
1000
Form
1000
D:\ACLT\FORMAT
1070
     1
1070
     0
1070
     1
1000
Jnt
1000
D:\ACLT\TABset\JOINTPARTS.dwg
1070
     0
1070
     0
1070
     1
1000
ISO
1000
D:\ACLT\TABset\Isome01.dwg
1070
     0
1070
     0
1070
     1
1000
R
1000
D:\ACLT\TABset\REGION.dwg
1070
     0
1070
     0
1070
     1
1000
std
1000
D:\ACLT\TABset\std_sym_all.dwg
1070
     0
1070
     0
1070
     1
1000
丸
1000
D:\Aclt\TABset\MARU.dwg
1070
     0
1070
     0
1070
     1
1001
CONTENTCURRENTTAB
1070
     0
1001
ACAD
1000
TREAT_AS_HARD
1070
     0
  0
DICTIONARY
  5
20
102
{ACAD_REACTORS
330
C
102
}
330
C
100
AcDbDictionary
1001
DRAWINGVARIABLESXDATA
1000
POLARANG
1000
0.261799387799149410000000
1000
POLARMODE
1000
1
1000
POLARSTYLE
1000
1
1001
ACAD
1000
TREAT_AS_HARD
1070
     0
  0
XRECORD
  5
229B6
102
{ACAD_REACTORS
330
C
102
}
330
C
100
AcDbXrecord
  1
DWGPROPS COOKIE
  2

  3

  4

  6

  7

  8
3684
  9

300
=
301
=
302
=
303
=
304
=
305
=
306
=
307
=
308
=
309
=
 40
0.0
 41
2453033.357663484
 42
2459359.028800579
  1

 90
        0
  0
DICTIONARY
  5
18FE9
102
{ACAD_REACTORS
330
18FE8
102
}
330
18FE8
100
AcDbDictionary
  3
_LAYISO_STATE
350
2202D
1001
ACAD
1000
TREAT_AS_HARD
1070
     0
  0
ACAD_PROXY_OBJECT
  5
1A20B
102
{ACAD_REACTORS
330
1A20A
102
}
330
1A20A
100
AcDbZombieObject
 90
      499
 91
      519
 93
       34
310
40C8804040
  0
ACAD_PROXY_OBJECT
  5
1A20D
102
{ACAD_REACTORS
330
1A20C
102
}
330
1A20C
100
AcDbZombieObject
 90
      499
 91
      519
 93
       34
310
40C8804040
  0
ACAD_PROXY_OBJECT
  5
1A20F
102
{ACAD_REACTORS
330
1A20E
102
}
330
1A20E
100
AcDbZombieObject
 90
      499
 91
      519
 93
       34
310
40C8804040
  0
ACAD_PROXY_OBJECT
  5
1A219
102
{ACAD_REACTORS
330
1A218
102
}
330
1A218
100
AcDbZombieObject
 90
      499
 91
      519
 93
       34
310
40C8804040
  0
ACAD_PROXY_OBJECT
  5
1A21D
102
{ACAD_REACTORS
330
1A21C
102
}
330
1A21C
100
AcDbZombieObject
 90
      499
 91
      519
 93
       34
310
40C8804040
  0
ACAD_PROXY_OBJECT
  5
1A221
102
{ACAD_REACTORS
330
1A220
102
}
330
1A220
100
AcDbZombieObject
 90
      499
 91
      519
 93
       34
310
40C8804040
  0
ACAD_PROXY_OBJECT
  5
1A237
102
{ACAD_REACTORS
330
1A236
102
}
330
1A236
100
AcDbZombieObject
 90
      499
 91
      519
 93
       34
310
40C8804040
  0
ACAD_PROXY_OBJECT
  5
1A23D
102
{ACAD_REACTORS
330
1A23C
102
}
330
1A23C
100
AcDbZombieObject
 90
      499
 91
      519
 93
       34
310
40C8804040
  0
SORTENTSTABLE
  5
6EA
102
{ACAD_REACTORS
330
6E9
102
}
330
6E9
100
AcDbSortentsTable
330
18
331
0
  5
99AB
331
0
  5
AB53
331
0
  5
AB54
331
0
  5
ECB5
331
21B07
  5
21B33
331
21B08
  5
21B34
331
21B0A
  5
21B58
331
21B0B
  5
21B5C
331
21B10
  5
21B61
331
21B11
  5
21B62
331
21B15
  5
21B64
331
21B16
  5
21B65
331
21B18
  5
21B67
331
21B1A
  5
21B6C
331
21B1B
  5
21B6D
331
21B1F
  5
21B6E
331
21B22
  5
21B6F
331
21B23
  5
21B71
331
21B25
  5
21B73
331
21B28
  5
21B75
331
21B2D
  5
21B79
331
21B2F
  5
21B7A
331
21B32
  5
21B7B
331
21B33
  5
21B7D
331
21B34
  5
21B7E
331
21B35
  5
21B7F
331
21B36
  5
21B82
331
21B37
  5
21B83
331
21B38
  5
21B84
331
21B39
  5
21B87
331
21B3A
  5
21B8A
331
21B3B
  5
21B8B
331
21B3C
  5
21B91
331
21B40
  5
21B92
331
21B44
  5
21B94
331
21B46
  5
21B96
331
21B47
  5
21B98
331
21B48
  5
21B99
331
21B4A
  5
21B9A
331
21B4C
  5
21B9B
331
21B4D
  5
21BA0
331
21B4E
  5
21BA5
331
21B50
  5
21BA8
331
21B53
  5
21BAB
331
21B58
  5
21BAD
331
21B5C
  5
21BAE
331
21B61
  5
21BB0
331
21B62
  5
21BB3
331
21B64
  5
21BB4
331
21B65
  5
21BB6
331
21B67
  5
21BBC
331
21B6C
  5
21BBD
331
21B6D
  5
21BBF
331
21B6E
  5
21BC0
331
21B6F
  5
21BC1
331
21B71
  5
21BC4
331
21B73
  5
21BC5
331
21B75
  5
21BC6
331
21B79
  5
21BCE
331
21B7A
  5
21BD8
331
21B7B
  5
21BD9
331
21B7D
  5
21BDA
331
21B7E
  5
21BDF
331
21B7F
  5
21BE0
331
21B82
  5
21BE1
331
21B83
  5
21BE3
331
21B84
  5
21BE5
331
21B87
  5
21BE6
331
21B8A
  5
21BE7
331
21B8B
  5
21BE8
331
21B91
  5
21BE9
331
21B92
  5
21BEA
331
21B94
  5
21BEB
331
21B96
  5
21BEC
331
21B98
  5
21BF1
331
21B99
  5
21BF4
331
21B9A
  5
21BF6
331
21B9B
  5
21C01
331
21BA0
  5
21C03
331
21BA5
  5
21C06
331
21BA8
  5
21C07
331
21BAB
  5
21C09
331
21BAD
  5
21C0C
331
21BAE
  5
21C0D
331
21BB0
  5
21C0E
331
21BB3
  5
21C0F
331
21BB4
  5
21C10
331
21BB6
  5
21C11
331
21BBC
  5
21C16
331
21BBD
  5
21C17
331
21BBF
  5
21C1F
331
21BC0
  5
21C22
331
21BC1
  5
21C23
331
21BC4
  5
21C25
331
21BC5
  5
21C26
331
21BC6
  5
21C27
331
21BC7
  5
21C28
331
21BCB
  5
21C53
331
21BCC
  5
21C5A
331
21BCD
  5
21C5B
331
21BCE
  5
21C5C
331
21BD8
  5
21E02
331
21BD9
  5
21E03
331
21BDA
  5
21E04
331
21BDF
  5
21E05
331
21BE0
  5
21E06
331
21BE1
  5
21E07
331
21BE3
  5
21E08
331
21BE5
  5
21E09
331
21BE6
  5
21E0A
331
21BE7
  5
21E0B
331
21BE8
  5
21E0C
331
21BE9
  5
21E0D
331
21BEA
  5
21E0E
331
21BEB
  5
21E0F
331
21BEC
  5
21E10
331
21BF1
  5
21E11
331
21BF4
  5
21E13
331
21BF6
  5
21E14
331
21C01
  5
222CD
331
21C03
  5
222CE
331
21C06
  5
222CF
331
21C07
  5
222D0
331
21C09
  5
222D1
331
21C0C
  5
22306
331
21C0D
  5
22307
331
21C0E
  5
22320
331
21C0F
  5
22321
331
21C10
  5
2233A
331
21C11
  5
22396
331
21C12
  5
22397
331
21C13
  5
22398
331
21C14
  5
22399
331
21C15
  5
2239A
331
21C16
  5
2239B
331
21C17
  5
2239C
331
21C1F
  5
2239D
331
21C22
  5
2239E
331
21C23
  5
2239F
331
21C25
  5
223A0
331
21C26
  5
223A1
331
21C27
  5
223A2
331
21C28
  5
223A3
331
21C29
  5
223A4
331
21C2B
  5
223A5
331
21C2D
  5
223A6
331
21C2E
  5
223A7
331
21C31
  5
223A8
331
21C32
  5
223A9
331
21C3B
  5
223AA
331
21C3C
  5
223AB
331
21C3E
  5
223AC
331
21C3F
  5
223AD
331
21C41
  5
223AE
331
21C44
  5
223AF
331
21C45
  5
22777
331
21C49
  5
22778
331
21C4A
  5
22779
331
21C4C
  5
2277A
331
21C4E
  5
2277B
331
21C53
  5
2277C
331
21C5A
  5
2277D
331
21C5B
  5
2277E
331
21C5C
  5
2277F
331
21C5E
  5
22780
331
21C5F
  5
22781
331
21C61
  5
22782
331
21C63
  5
22783
331
21C67
  5
22784
331
21C69
  5
22785
331
21C6A
  5
22786
331
21C6D
  5
22787
331
21C6E
  5
22788
331
21DDF
  5
22789
331
21DE0
  5
2278A
331
21DE1
  5
2278B
331
21DE2
  5
2278C
331
21DE3
  5
2278D
331
21DE4
  5
2278E
331
21DE5
  5
2278F
331
21DE6
  5
22790
331
21DE7
  5
22791
331
21DE8
  5
22792
331
21DE9
  5
22793
331
21DEC
  5
22794
331
21DED
  5
22795
331
21DEE
  5
22796
331
21DEF
  5
22797
331
21DF0
  5
22798
331
0
  5
22799
331
21DF2
  5
227F8
331
21DF9
  5
227F9
331
21DFA
  5
227FA
331
21DFB
  5
227FB
331
21DFC
  5
227FC
331
21DFD
  5
227FD
331
0
  5
227A0
331
21DFF
  5
22848
331
21E00
  5
22849
331
21E01
  5
2284A
331
21E02
  5
2284B
331
21E03
  5
2284C
331
21E04
  5
2284D
331
21E05
  5
2284E
331
21E06
  5
2284F
331
21E07
  5
22850
331
21E08
  5
22851
331
21E09
  5
22852
331
21E0A
  5
22853
331
21E0B
  5
22854
331
21E0C
  5
22855
331
21E0D
  5
22856
331
21E0E
  5
22857
331
21E0F
  5
22858
331
0
  5
227B2
331
21E11
  5
228ED
331
21E13
  5
228EF
331
21E14
  5
228F0
331
0
  5
227B8
331
0
  5
227B9
331
0
  5
227BA
331
0
  5
227BB
331
21E1E
  5
22916
331
21E1F
  5
22917
331
21E20
  5
22918
331
21E21
  5
22919
331
21E22
  5
2291A
331
21E23
  5
2291B
331
0
  5
227C2
331
0
  5
227C3
331
0
  5
227C4
331
0
  5
227C5
331
0
  5
227C6
331
0
  5
227C7
331
0
  5
227C8
331
0
  5
227C9
331
222CC
  5
22960
331
222CD
  5
22961
331
222CE
  5
22962
331
222CF
  5
22963
331
222D0
  5
22964
331
222D1
  5
22965
331
0
  5
227E2
331
0
  5
227E3
331
0
  5
227E4
331
0
  5
227E5
331
0
  5
227E6
331
22396
  5
22999
331
22397
  5
2299A
331
22398
  5
2299B
331
22399
  5
2299C
331
2239A
  5
2299D
331
2239B
  5
2299E
331
2239C
  5
2299F
331
2239D
  5
229A0
331
2239E
  5
229A1
331
2239F
  5
229A2
331
223A0
  5
229A3
331
223A1
  5
229A4
331
223A2
  5
229A5
331
223A3
  5
229A6
331
223A4
  5
229A7
331
223A5
  5
229A8
331
223A6
  5
229A9
331
223A7
  5
229AA
331
223A8
  5
229AB
331
223A9
  5
229AC
331
223AA
  5
229AD
331
223AB
  5
229AE
331
223AC
  5
229AF
331
223AD
  5
229B0
331
223AE
  5
229B1
331
223AF
  5
229B2
331
22777
  5
21B07
331
22778
  5
21B08
331
22779
  5
21B0A
331
2277A
  5
21B0B
331
2277B
  5
21B10
331
2277C
  5
21B11
331
2277D
  5
21B15
331
2277E
  5
21B16
331
2277F
  5
21B18
331
22780
  5
21B1A
331
22781
  5
21B1B
331
22782
  5
21B1F
331
22783
  5
21B22
331
22784
  5
21B23
331
22785
  5
21B25
331
22786
  5
21B28
331
22787
  5
21B2D
331
22788
  5
21B2F
331
22789
  5
21B32
331
2278A
  5
21B35
331
2278B
  5
21B36
331
2278C
  5
21B37
331
2278D
  5
21B38
331
2278E
  5
21B39
331
2278F
  5
21B3A
331
22790
  5
21B3B
331
22791
  5
21B3C
331
22792
  5
21B40
331
22793
  5
21B44
331
22794
  5
21B46
331
22795
  5
21B47
331
22796
  5
21B48
331
22797
  5
21B4A
331
22798
  5
21B4C
331
22799
  5
21B4D
331
2279A
  5
21B4E
331
2279B
  5
21B50
331
2279C
  5
21B53
331
2279D
  5
21BC7
331
2279E
  5
21BCB
331
2279F
  5
21BCC
331
227A0
  5
21BCD
331
227A1
  5
21C12
331
227A2
  5
21C13
331
227A3
  5
21C14
331
227A4
  5
21C15
331
227A5
  5
21C29
331
227A6
  5
21C2B
331
227A7
  5
21C2D
331
227A8
  5
21C2E
331
227A9
  5
21C31
331
227AA
  5
21C32
331
227AB
  5
21C3B
331
227AC
  5
21C3C
331
227AD
  5
21C3E
331
227AE
  5
21C3F
331
227AF
  5
21C41
331
227B0
  5
21C44
331
227B1
  5
21C45
331
227B2
  5
21C49
331
227B3
  5
21C4A
331
227B4
  5
21C4C
331
227B5
  5
21C4E
331
227B6
  5
21C5E
331
227B7
  5
21C5F
331
227B8
  5
21C61
331
227B9
  5
21C63
331
227BA
  5
21C67
331
227BB
  5
21C69
331
227BC
  5
21C6A
331
227BD
  5
21C6D
331
227BE
  5
21C6E
331
227BF
  5
21DDF
331
227C0
  5
21DE0
331
227C1
  5
21DE1
331
227C2
  5
21DE2
331
227C3
  5
21DE3
331
227C4
  5
21DE4
331
227C5
  5
21DE5
331
227C6
  5
21DE6
331
227C7
  5
21DE7
331
227C8
  5
21DE8
331
227C9
  5
21DE9
331
227CA
  5
21DEC
331
227CB
  5
21DED
331
227CC
  5
21DEE
331
227CD
  5
21DEF
331
227CE
  5
21DF0
331
227CF
  5
21DF1
331
227D0
  5
21DF2
331
227D1
  5
21DF9
331
227D2
  5
21DFA
331
227D3
  5
21DFB
331
227D4
  5
21DFC
331
227D5
  5
21DFD
331
227D6
  5
21DFE
331
227D7
  5
21DFF
331
227D8
  5
21E00
331
227D9
  5
21E01
331
227DA
  5
21E16
331
227DB
  5
21E17
331
227DC
  5
21E1C
331
227DD
  5
21E1D
331
227DE
  5
21E1E
331
227DF
  5
21E1F
331
227E0
  5
21E20
331
227E1
  5
21E21
331
227E2
  5
21E22
331
227E3
  5
21E23
331
227E4
  5
21E3C
331
227E5
  5
21E5A
331
227E6
  5
21E67
331
227E7
  5
21E68
331
227E8
  5
21E69
331
227E9
  5
21E6A
331
227EA
  5
221F8
331
227EB
  5
221FC
331
227EC
  5
222CC
331
227ED
  5
228EE
331
227EE
  5
228F1
331
227EF
  5
22943
331
227F0
  5
22947
331
227F1
  5
22948
331
227F2
  5
22949
331
0
  5
227CE
331
227F4
  5
2295D
331
227F5
  5
2295E
331
227F6
  5
2295F
331
227F7
  5
2294D
331
227F8
  5
2294E
331
227F9
  5
2294F
331
227FA
  5
22953
331
227FB
  5
22954
331
227FC
  5
22955
331
227FD
  5
22956
331
227FE
  5
2295A
331
227FF
  5
2295B
331
22800
  5
2295C
331
22801
  5
2279A
331
22802
  5
2279B
331
22803
  5
2279C
331
22804
  5
2279D
331
22805
  5
2279E
331
22806
  5
2279F
331
22807
  5
227A1
331
22808
  5
227A2
331
22809
  5
227A3
331
2280A
  5
227A4
331
2280B
  5
227A5
331
2280C
  5
227A6
331
2280D
  5
227A7
331
2280E
  5
227A8
331
2280F
  5
227A9
331
22810
  5
227AA
331
22811
  5
227AB
331
22812
  5
227AC
331
22813
  5
227AD
331
22814
  5
227AE
331
22815
  5
227AF
331
22816
  5
227B0
331
22817
  5
227B1
331
22818
  5
227B3
331
22819
  5
227B4
331
2281A
  5
227B5
331
2281B
  5
227B6
331
2281C
  5
227B7
331
2281D
  5
227BC
331
2281E
  5
227BD
331
2281F
  5
227BE
331
22820
  5
227BF
331
22821
  5
227C0
331
22822
  5
227C1
331
22823
  5
227CA
331
22824
  5
227CB
331
22825
  5
227CC
331
22826
  5
227CD
331
22827
  5
227CF
331
22828
  5
227D0
331
22829
  5
227D1
331
2282A
  5
227D2
331
2282B
  5
227D3
331
2282C
  5
227D4
331
2282D
  5
227D5
331
2282E
  5
227D6
331
2282F
  5
227D7
331
22830
  5
227D8
331
22831
  5
227D9
331
22832
  5
227DA
331
22833
  5
227DB
331
22834
  5
227DC
331
22835
  5
227DD
331
22836
  5
227DE
331
22837
  5
227DF
331
22838
  5
227E0
331
22839
  5
227E1
331
2283A
  5
227E7
331
2283B
  5
227E8
331
2283C
  5
227E9
331
2283D
  5
227EA
331
2283E
  5
227EB
331
2283F
  5
227EC
331
22840
  5
227ED
331
22841
  5
227EE
331
22842
  5
227EF
331
22843
  5
227F0
331
22844
  5
227F1
331
22845
  5
227F2
331
22846
  5
227F3
331
22847
  5
227F4
331
22848
  5
227F5
331
22849
  5
227F6
331
2284A
  5
227F7
331
2284B
  5
227FE
331
2284C
  5
227FF
331
2284D
  5
22800
331
2284E
  5
22801
331
2284F
  5
22802
331
22850
  5
22803
331
22851
  5
22804
331
22852
  5
22805
331
22853
  5
22806
331
22854
  5
22807
331
22855
  5
22808
331
22856
  5
22809
331
22857
  5
2280A
331
22858
  5
2280B
331
22859
  5
2280C
331
2285A
  5
2280D
331
2285B
  5
2280E
331
2285C
  5
2280F
331
2285D
  5
22810
331
2285E
  5
22811
331
2285F
  5
22812
331
22860
  5
22813
331
22861
  5
22814
331
22862
  5
22815
331
22863
  5
22816
331
22864
  5
22817
331
22865
  5
22818
331
22866
  5
22819
331
22867
  5
2281A
331
22868
  5
2281B
331
22869
  5
2281C
331
2286A
  5
2281D
331
2286B
  5
2281E
331
2286C
  5
2281F
331
2286D
  5
22820
331
2286E
  5
22821
331
2286F
  5
22822
331
22870
  5
22823
331
22871
  5
22824
331
22872
  5
22825
331
22873
  5
22826
331
22874
  5
22827
331
22875
  5
22828
331
22876
  5
22829
331
22877
  5
2282A
331
22878
  5
2282B
331
22879
  5
2282C
331
2287A
  5
2282D
331
2287B
  5
2282E
331
2287C
  5
2282F
331
2287D
  5
22830
331
2287E
  5
22831
331
2287F
  5
22832
331
22880
  5
22833
331
22881
  5
22834
331
22882
  5
22835
331
22883
  5
22836
331
22884
  5
22837
331
22885
  5
22838
331
22886
  5
22839
331
22887
  5
2283A
331
22888
  5
2283B
331
22889
  5
2283C
331
2288A
  5
2283D
331
2288B
  5
2283E
331
2288C
  5
2283F
331
2288D
  5
22840
331
2288E
  5
22841
331
2288F
  5
22842
331
22890
  5
22843
331
22891
  5
22844
331
22892
  5
22845
331
22893
  5
22846
331
22894
  5
22847
331
228DF
  5
22859
331
228E0
  5
2285A
331
228E1
  5
2285B
331
228E2
  5
2285C
331
228E3
  5
2285D
331
228E4
  5
2285E
331
228E5
  5
2285F
331
228E6
  5
22860
331
228E7
  5
22861
331
228E8
  5
22862
331
228E9
  5
22863
331
228EA
  5
22864
331
228EB
  5
22865
331
228EC
  5
22866
331
228ED
  5
22867
331
228EE
  5
22868
331
228EF
  5
22869
331
228F0
  5
2286A
331
228F1
  5
2286B
331
228F2
  5
2286C
331
228F3
  5
2286D
331
228F4
  5
2286E
331
228F5
  5
2286F
331
228F6
  5
22870
331
228F7
  5
22871
331
228F8
  5
22872
331
228F9
  5
22873
331
228FA
  5
22874
331
228FB
  5
22875
331
228FC
  5
22876
331
228FD
  5
22877
331
228FE
  5
22878
331
228FF
  5
22879
331
22900
  5
2287A
331
22901
  5
2287B
331
22902
  5
2287C
331
22903
  5
2287D
331
22904
  5
2287E
331
22905
  5
2287F
331
22906
  5
22880
331
22907
  5
22881
331
22908
  5
22882
331
22909
  5
22883
331
2290A
  5
22884
331
2290B
  5
22885
331
2290C
  5
22886
331
2290D
  5
22887
331
2290E
  5
22888
331
2290F
  5
22889
331
22910
  5
2288A
331
22911
  5
2288B
331
22912
  5
2288C
331
22913
  5
2288D
331
22914
  5
2288E
331
22915
  5
2288F
331
22916
  5
22890
331
22917
  5
22891
331
22918
  5
22892
331
22919
  5
22893
331
2291A
  5
22894
331
2291B
  5
228DF
331
2291C
  5
228E0
331
2291D
  5
228E1
331
2291E
  5
228E2
331
2291F
  5
228E3
331
22920
  5
228E4
331
22921
  5
228E5
331
22922
  5
228E6
331
22923
  5
228E7
331
22924
  5
228E8
331
22925
  5
228E9
331
22926
  5
228EA
331
22927
  5
228EB
331
22928
  5
228EC
331
22929
  5
228F2
331
2292A
  5
228F3
331
2292B
  5
228F4
331
2292C
  5
228F5
331
2292D
  5
228F6
331
2292E
  5
228F7
331
2292F
  5
228F8
331
0
  5
228F9
331
0
  5
228FA
331
0
  5
228FB
331
22933
  5
22906
331
22934
  5
22907
331
22935
  5
22908
331
0
  5
228FF
331
0
  5
22900
331
0
  5
22901
331
22939
  5
2291C
331
2293A
  5
2291D
331
2293B
  5
2291E
331
2293C
  5
2291F
331
0
  5
2290C
331
0
  5
2290D
331
0
  5
2290E
331
22940
  5
22927
331
22941
  5
22928
331
22942
  5
22929
331
0
  5
22912
331
0
  5
22913
331
0
  5
22914
331
22946
  5
22931
331
22947
  5
22932
331
22948
  5
22933
331
22949
  5
22934
331
2294A
  5
22935
331
2294B
  5
22936
331
2294C
  5
22937
331
2294D
  5
22938
331
2294E
  5
22939
331
2294F
  5
2293A
331
22950
  5
2293B
331
22951
  5
2293C
331
22952
  5
2293D
331
22953
  5
22941
331
22954
  5
22942
331
22955
  5
22966
331
22956
  5
22967
331
22957
  5
22968
331
0
  5
2293E
331
0
  5
2293F
331
0
  5
22940
331
2295B
  5
22970
331
2295C
  5
22971
331
2295D
  5
22972
331
0
  5
22944
331
0
  5
22945
331
0
  5
22946
331
22961
  5
2297A
331
22962
  5
2297B
331
22963
  5
2297C
331
0
  5
2294A
331
0
  5
2294B
331
0
  5
2294C
331
22967
  5
22984
331
22968
  5
22985
331
22969
  5
22986
331
0
  5
22950
331
0
  5
22951
331
0
  5
22952
331
2296D
  5
2298E
331
2296E
  5
2298F
331
2296F
  5
22990
331
22970
  5
22991
331
0
  5
22957
331
0
  5
22958
331
0
  5
22959
331
22974
  5
228FC
331
22975
  5
228FD
331
22976
  5
228FE
331
22977
  5
22902
331
22978
  5
22903
331
22979
  5
22904
331
2297A
  5
22905
331
2297B
  5
22909
331
2297C
  5
2290A
331
2297D
  5
2290B
331
2297E
  5
2290F
331
2297F
  5
22910
331
22980
  5
22911
331
22981
  5
22915
331
22982
  5
22920
331
22983
  5
22921
331
22984
  5
22922
331
22985
  5
22923
331
22986
  5
22924
331
22987
  5
22925
331
22988
  5
22926
331
22989
  5
2292A
331
2298A
  5
2292B
331
2298B
  5
2292C
331
2298C
  5
2292D
331
2298D
  5
2292E
331
2298E
  5
2292F
331
2298F
  5
22930
331
22990
  5
22969
331
22991
  5
2296A
331
22992
  5
2296B
331
22993
  5
2296C
331
22994
  5
2296D
331
22995
  5
2296E
331
22996
  5
2296F
331
22997
  5
22973
331
22998
  5
22974
331
22999
  5
22975
331
2299A
  5
22976
331
2299B
  5
22977
331
2299C
  5
22978
331
2299D
  5
22979
331
2299E
  5
2297D
331
2299F
  5
2297E
331
229A0
  5
2297F
331
229A1
  5
22980
331
229A2
  5
22981
331
229A3
  5
22982
331
229A4
  5
22983
331
229A5
  5
22987
331
229A6
  5
22988
331
229A7
  5
22989
331
229A8
  5
2298A
331
229A9
  5
2298B
331
229AA
  5
2298C
331
229AB
  5
2298D
331
229AC
  5
22992
331
229AD
  5
22993
331
229AE
  5
22994
331
229AF
  5
22995
331
229B0
  5
22996
331
229B1
  5
22997
331
229B2
  5
22998
  0
SORTENTSTABLE
  5
59C
102
{ACAD_REACTORS
330
59B
102
}
330
59B
100
AcDbSortentsTable
330
15
331
57
  5
57
331
0
  5
70
  0
SORTENTSTABLE
  5
20B2F
102
{ACAD_REACTORS
330
20B2E
102
}
330
20B2E
100
AcDbSortentsTable
330
20B2D
331
20B31
  5
20B32
331
20B32
  5
20B31
  0
SORTENTSTABLE
  5
21EDF
102
{ACAD_REACTORS
330
21EDE
102
}
330
21EDE
100
AcDbSortentsTable
330
21EDD
331
21EE1
  5
21EE2
331
21EE2
  5
21EE1
  0
GROUP
  5
21E18
102
{ACAD_REACTORS
330
D
102
}
330
D
100
AcDbGroup
300

 70
     1
 71
     1
340
21E11
  0
MATERIAL
  5
19DD5
102
{ACAD_REACTORS
330
2CF
102
}
102
{ACAD_XDICTIONARY
360
22B51
102
}
330
2CF
100
AcDbMaterial
  1
BYBLOCK
 72
     0
 73
     2
 43
0.0208333333333333
 43
0.0
 43
0.0
 43
0.0
 43
0.0
 43
0.0208333333333333
 43
0.0
 43
0.0
 43
0.0
 43
0.0
 43
1.0
 43
0.0
 43
0.0
 43
0.0
 43
0.0
 43
1.0
 77
     0
 78
     2
 47
0.0208333333333333
 47
0.0
 47
0.0
 47
0.0
 47
0.0
 47
0.0208333333333333
 47
0.0
 47
0.0
 47
0.0
 47
0.0
 47
1.0
 47
0.0
 47
0.0
 47
0.0
 47
0.0
 47
1.0
171
     0
172
     2
 49
0.0208333333333333
 49
0.0
 49
0.0
 49
0.0
 49
0.0
 49
0.0208333333333333
 49
0.0
 49
0.0
 49
0.0
 49
0.0
 49
1.0
 49
0.0
 49
0.0
 49
0.0
 49
0.0
 49
1.0
175
     0
176
     2
142
0.0208333333333333
142
0.0
142
0.0
142
0.0
142
0.0
142
0.0208333333333333
142
0.0
142
0.0
142
0.0
142
0.0
142
1.0
142
0.0
142
0.0
142
0.0
142
0.0
142
1.0
179
     0
270
     2
144
0.0208333333333333
144
0.0
144
0.0
144
0.0
144
0.0
144
0.0208333333333333
144
0.0
144
0.0
144
0.0
144
0.0
144
1.0
144
0.0
144
0.0
144
0.0
144
0.0
144
1.0
274
     2
147
0.0208333333333333
147
0.0
147
0.0
147
0.0
147
0.0
147
0.0208333333333333
147
0.0
147
0.0
147
0.0
147
0.0
147
1.0
147
0.0
147
0.0
147
0.0
147
0.0
147
1.0
  0
MATERIAL
  5
19DCD
102
{ACAD_REACTORS
330
2CF
102
}
102
{ACAD_XDICTIONARY
360
22B53
102
}
330
2CF
100
AcDbMaterial
  1
BYLAYER
 72
     0
 73
     2
 43
0.0208333333333333
 43
0.0
 43
0.0
 43
0.0
 43
0.0
 43
0.0208333333333333
 43
0.0
 43
0.0
 43
0.0
 43
0.0
 43
1.0
 43
0.0
 43
0.0
 43
0.0
 43
0.0
 43
1.0
 77
     0
 78
     2
 47
0.0208333333333333
 47
0.0
 47
0.0
 47
0.0
 47
0.0
 47
0.0208333333333333
 47
0.0
 47
0.0
 47
0.0
 47
0.0
 47
1.0
 47
0.0
 47
0.0
 47
0.0
 47
0.0
 47
1.0
171
     0
172
     2
 49
0.0208333333333333
 49
0.0
 49
0.0
 49
0.0
 49
0.0
 49
0.0208333333333333
 49
0.0
 49
0.0
 49
0.0
 49
0.0
 49
1.0
 49
0.0
 49
0.0
 49
0.0
 49
0.0
 49
1.0
175
     0
176
     2
142
0.0208333333333333
142
0.0
142
0.0
142
0.0
142
0.0
142
0.0208333333333333
142
0.0
142
0.0
142
0.0
142
0.0
142
1.0
142
0.0
142
0.0
142
0.0
142
0.0
142
1.0
179
     0
270
     2
144
0.0208333333333333
144
0.0
144
0.0
144
0.0
144
0.0
144
0.0208333333333333
144
0.0
144
0.0
144
0.0
144
0.0
144
1.0
144
0.0
144
0.0
144
0.0
144
0.0
144
1.0
274
     2
147
0.0208333333333333
147
0.0
147
0.0
147
0.0
147
0.0
147
0.0208333333333333
147
0.0
147
0.0
147
0.0
147
0.0
147
1.0
147
0.0
147
0.0
147
0.0
147
0.0
147
1.0
  0
MATERIAL
  5
19DDD
102
{ACAD_REACTORS
330
2CF
102
}
102
{ACAD_XDICTIONARY
360
22B55
102
}
330
2CF
100
AcDbMaterial
  1
GLOBAL
 72
     0
 73
     2
 43
0.0208333333333333
 43
0.0
 43
0.0
 43
0.0
 43
0.0
 43
0.0208333333333333
 43
0.0
 43
0.0
 43
0.0
 43
0.0
 43
1.0
 43
0.0
 43
0.0
 43
0.0
 43
0.0
 43
1.0
 77
     0
 78
     2
 47
0.0208333333333333
 47
0.0
 47
0.0
 47
0.0
 47
0.0
 47
0.0208333333333333
 47
0.0
 47
0.0
 47
0.0
 47
0.0
 47
1.0
 47
0.0
 47
0.0
 47
0.0
 47
0.0
 47
1.0
171
     0
172
     2
 49
0.0208333333333333
 49
0.0
 49
0.0
 49
0.0
 49
0.0
 49
0.0208333333333333
 49
0.0
 49
0.0
 49
0.0
 49
0.0
 49
1.0
 49
0.0
 49
0.0
 49
0.0
 49
0.0
 49
1.0
175
     0
176
     2
142
0.0208333333333333
142
0.0
142
0.0
142
0.0
142
0.0
142
0.0208333333333333
142
0.0
142
0.0
142
0.0
142
0.0
142
1.0
142
0.0
142
0.0
142
0.0
142
0.0
142
1.0
179
     0
270
     2
144
0.0208333333333333
144
0.0
144
0.0
144
0.0
144
0.0
144
0.0208333333333333
144
0.0
144
0.0
144
0.0
144
0.0
144
1.0
144
0.0
144
0.0
144
0.0
144
0.0
144
1.0
274
     2
147
0.0208333333333333
147
0.0
147
0.0
147
0.0
147
0.0
147
0.0208333333333333
147
0.0
147
0.0
147
0.0
147
0.0
147
1.0
147
0.0
147
0.0
147
0.0
147
0.0
147
1.0
  0
ACAD_PROXY_OBJECT
  5
21EDC
102
{ACAD_REACTORS
330
19E18
102
}
330
19E18
100
AcDbZombieObject
 90
      499
 91
      512
 93
      546
310
40501902A4063FBFFFFFE4D4CCCCCCCCCEC9FC00000000000020C08000000000000004090140501A26A666666666724FC00000000000005102575014000000000000039000
340
12
340
42
340
F
340
21EDD
 94
        0
1001
ACAD_MLEADERVER
1070
     2
  0
ACAD_PROXY_OBJECT
  5
20B2C
102
{ACAD_REACTORS
330
19E18
102
}
330
19E18
100
AcDbZombieObject
 90
      499
 91
      512
 93
      546
310
40501902A4063FBFFFFFE0000000000000020000000000000020408000000000000004090140501A0000000000000410000000000000004102575016000000000000039000
340
12
340
42
340
F
340
20B2D
 94
        0
1001
ACAD_MLEADERVER
1070
     2
  0
ACAD_PROXY_OBJECT
  5
21EB5
102
{ACAD_REACTORS
330
19E18
102
}
330
19E18
100
AcDbZombieObject
 90
      499
 91
      512
 93
      610
310
40501902A4063FBFFFFFE0000000000000020000000000000020408000000000000004090140501A00000000000004100000000000000041025750126A6666666666A4FC000000000000039000
340
12
340
42
340
F
340
20B2D
 94
        0
1001
ACAD_MLEADERVER
1070
     2
  0
ACAD_PROXY_OBJECT
  5
21EAC
102
{ACAD_REACTORS
330
19E18
102
}
330
19E18
100
AcDbZombieObject
 90
      499
 91
      512
 93
      610
310
40501902A4063FBFFFFFE0000000000000020000000000000020408000000000000004090140501A00000000000004100000000000000041025750126A6666666666E4FC000000000000039000
340
12
340
42
340
F
340
20B2D
 94
        0
1001
ACAD_MLEADERVER
1070
     2
  0
ACAD_PROXY_OBJECT
  5
21EB2
102
{ACAD_REACTORS
330
19E18
102
}
330
19E18
100
AcDbZombieObject
 90
      499
 91
      512
 93
      610
310
40501902A4063FBFFFFFE0000000000000020000000000000020408000000000000004090140501A00000000000004100000000000000041025750126A666666666724FC000000000000039000
340
12
340
42
340
F
340
20B2D
 94
        0
1001
ACAD_MLEADERVER
1070
     2
  0
ACAD_PROXY_OBJECT
  5
21EB4
102
{ACAD_REACTORS
330
19E18
102
}
330
19E18
100
AcDbZombieObject
 90
      499
 91
      512
 93
      610
310
40501902A4063FBFFFFFE0000000000000020000000000000020408000000000000004090140501A0000000000000410000000000000004102575010CCCCCCCCCCCF4CFC000000000000039000
340
12
340
42
340
F
340
20B2D
 94
        0
1001
ACAD_MLEADERVER
1070
     2
  0
ACAD_PROXY_OBJECT
  5
21EB6
102
{ACAD_REACTORS
330
19E18
102
}
330
19E18
100
AcDbZombieObject
 90
      499
 91
      512
 93
      610
310
40501902A4063FBFFFFFE0000000000000020000000000000020408000000000000004090140501A000000000000041000000000000000410257501000000000000380FC000000000000039000
340
12
340
42
340
F
340
20B2D
 94
        0
1001
ACAD_MLEADERVER
1070
     2
  0
ACAD_PROXY_OBJECT
  5
21EB3
102
{ACAD_REACTORS
330
19E18
102
}
330
19E18
100
AcDbZombieObject
 90
      499
 91
      512
 93
      610
310
40501902A4063FBFFFFFE0000000000000020000000000000020408000000000000004090140501A000000000000041000000000000000410257501199999999999B98FC000000000000039000
340
12
340
42
340
F
340
20B2D
 94
        0
1001
ACAD_MLEADERVER
1070
     2
  0
ACAD_PROXY_OBJECT
  5
21EA4
102
{ACAD_REACTORS
330
19E18
102
}
330
19E18
100
AcDbZombieObject
 90
      499
 91
      512
 93
      546
310
40501902A4063FBFFFFFE0000000000000020000000000000020408000000000000004090140501A0000000000000410000000000000004102575014000000000000039000
340
12
340
42
340
F
340
20B2D
 94
        0
1001
ACAD_MLEADERVER
1070
     2
  0
ACAD_PROXY_OBJECT
  5
21EB1
102
{ACAD_REACTORS
330
19E18
102
}
330
19E18
100
AcDbZombieObject
 90
      499
 91
      512
 93
      610
310
40501902A4063FBFFFFFE0000000000000020000000000000020408000000000000004090140501A00000000000004100000000000000041025750100000000000009100000000000000039000
340
12
340
42
340
F
340
20B2D
 94
        0
1001
ACAD_MLEADERVER
1070
     2
  0
ACAD_PROXY_OBJECT
  5
21EBD
102
{ACAD_REACTORS
330
19E18
102
}
330
19E18
100
AcDbZombieObject
 90
      499
 91
      512
 93
      610
310
40501902A4063FBFFFFFE0000000000000020000000000000020408000000000000004090140501A00000000000004100000000000000041025750100000000000016500000000000000039000
340
12
340
42
340
F
340
20B2D
 94
        0
1001
ACAD_MLEADERVER
1070
     2
  0
ACAD_PROXY_OBJECT
  5
21EBF
102
{ACAD_REACTORS
330
19E18
102
}
330
19E18
100
AcDbZombieObject
 90
      499
 91
      512
 93
      610
310
40501902A4063FBFFFFFE0000000000000020000000000000020408000000000000004090140501A0000000000000410000000000000004102575013373333333333D0FC000000000000039000
340
12
340
42
340
F
340
20B2D
 94
        0
1001
ACAD_MLEADERVER
1070
     2
  0
ACAD_PROXY_OBJECT
  5
21EC0
102
{ACAD_REACTORS
330
19E18
102
}
330
19E18
100
AcDbZombieObject
 90
      499
 91
      512
 93
      610
310
40501902A4063FBFFFFFE0000000000000020000000000000020408000000000000004090140501A0000000000000410000000000000004102575010000000000000B900000000000000039000
340
12
340
42
340
F
340
20B2D
 94
        0
1001
ACAD_MLEADERVER
1070
     2
  0
ACAD_PROXY_OBJECT
  5
21EAD
102
{ACAD_REACTORS
330
19E18
102
}
330
19E18
100
AcDbZombieObject
 90
      499
 91
      512
 93
      610
310
40501902A4063FBFFFFFE0000000000000020000000000000020408000000000000004090140501A00000000000004100000000000000041025750100000000000000100000000000000039000
340
12
340
42
340
F
340
20B2D
 94
        0
1001
ACAD_MLEADERVER
1070
     2
  0
ACAD_PROXY_OBJECT
  5
21EBA
102
{ACAD_REACTORS
330
19E18
102
}
330
19E18
100
AcDbZombieObject
 90
      499
 91
      512
 93
      610
310
40501902A4063FBFFFFFE0000000000000020000000000000020408000000000000004090140501A0000000000000410000000000000004102575010000000000000D100000000000000039000
340
12
340
42
340
F
340
20B2D
 94
        0
1001
ACAD_MLEADERVER
1070
     2
  0
ACAD_PROXY_OBJECT
  5
21EBE
102
{ACAD_REACTORS
330
19E18
102
}
330
19E18
100
AcDbZombieObject
 90
      499
 91
      512
 93
      610
310
40501902A4063FBFFFFFE0000000000000020000000000000020408000000000000004090140501A0000000000000410000000000000004102575010000000000001A500000000000000039000
340
12
340
42
340
F
340
20B2D
 94
        0
1001
ACAD_MLEADERVER
1070
     2
  0
ACAD_PROXY_OBJECT
  5
21EBB
102
{ACAD_REACTORS
330
19E18
102
}
330
19E18
100
AcDbZombieObject
 90
      499
 91
      512
 93
      610
310
40501902A4063FBFFFFFE0000000000000020000000000000020408000000000000004090140501A0000000000000410000000000000004102575010000000000000E500000000000000039000
340
12
340
42
340
F
340
20B2D
 94
        0
1001
ACAD_MLEADERVER
1070
     2
  0
ACAD_PROXY_OBJECT
  5
21EAF
102
{ACAD_REACTORS
330
19E18
102
}
330
19E18
100
AcDbZombieObject
 90
      499
 91
      512
 93
      610
310
40501902A4063FBFFFFFE0000000000000020000000000000020408000000000000004090140501A00000000000004100000000000000041025750100000000000002100000000000000039000
340
12
340
42
340
F
340
20B2D
 94
        0
1001
ACAD_MLEADERVER
1070
     2
  0
ACAD_PROXY_OBJECT
  5
21EB8
102
{ACAD_REACTORS
330
19E18
102
}
330
19E18
100
AcDbZombieObject
 90
      499
 91
      512
 93
      610
310
40501902A4063FBFFFFFE0000000000000020000000000000020408000000000000004090140501A0000000000000410000000000000004102575010000000000000F900000000000000039000
340
12
340
42
340
F
340
20B2D
 94
        0
1001
ACAD_MLEADERVER
1070
     2
  0
ACAD_PROXY_OBJECT
  5
21EB0
102
{ACAD_REACTORS
330
19E18
102
}
330
19E18
100
AcDbZombieObject
 90
      499
 91
      512
 93
      610
310
40501902A4063FBFFFFFE0000000000000020000000000000020408000000000000004090140501A00000000000004100000000000000041025750100000000000004100000000000000039000
340
12
340
42
340
F
340
20B2D
 94
        0
1001
ACAD_MLEADERVER
1070
     2
  0
ACAD_PROXY_OBJECT
  5
21EB9
102
{ACAD_REACTORS
330
19E18
102
}
330
19E18
100
AcDbZombieObject
 90
      499
 91
      512
 93
      610
310
40501902A4063FBFFFFFE0000000000000020000000000000020408000000000000004090140501A00000000000004100000000000000041025750100000000000011100000000000000039000
340
12
340
42
340
F
340
20B2D
 94
        0
1001
ACAD_MLEADERVER
1070
     2
  0
ACAD_PROXY_OBJECT
  5
21EAE
102
{ACAD_REACTORS
330
19E18
102
}
330
19E18
100
AcDbZombieObject
 90
      499
 91
      512
 93
      610
310
40501902A4063FBFFFFFE0000000000000020000000000000020408000000000000004090140501A00000000000004100000000000000041025750100000000000005100000000000000039000
340
12
340
42
340
F
340
20B2D
 94
        0
1001
ACAD_MLEADERVER
1070
     2
  0
ACAD_PROXY_OBJECT
  5
21EB7
102
{ACAD_REACTORS
330
19E18
102
}
330
19E18
100
AcDbZombieObject
 90
      499
 91
      512
 93
      610
310
40501902A4063FBFFFFFE0000000000000020000000000000020408000000000000004090140501A00000000000004100000000000000041025750100000000000012500000000000000039000
340
12
340
42
340
F
340
20B2D
 94
        0
1001
ACAD_MLEADERVER
1070
     2
  0
ACAD_PROXY_OBJECT
  5
21EBC
102
{ACAD_REACTORS
330
19E18
102
}
330
19E18
100
AcDbZombieObject
 90
      499
 91
      512
 93
      610
310
40501902A4063FBFFFFFE0000000000000020000000000000020408000000000000004090140501A0000000000000410000000000000004102575010000000000101FD00000000000000039000
340
12
340
42
340
F
340
20B2D
 94
        0
1001
ACAD_MLEADERVER
1070
     2
  0
ACAD_PROXY_OBJECT
  5
21EC1
102
{ACAD_REACTORS
330
19E18
102
}
330
19E18
100
AcDbZombieObject
 90
      499
 91
      512
 93
      610
310
40501902A4063FBFFFFFE0000000000000020000000000000020408000000000000004090140501A00000000000004100000000000000041025750100000000000007100000000000000039000
340
12
340
42
340
F
340
20B2D
 94
        0
1001
ACAD_MLEADERVER
1070
     2
  0
ACAD_PROXY_OBJECT
  5
21EC3
102
{ACAD_REACTORS
330
19E18
102
}
330
19E18
100
AcDbZombieObject
 90
      499
 91
      512
 93
      546
310
40901902A4063FBFFFFFE0000000000000020400000000000020C080000000000000040905415019C900000000000003100000000000000041025764000000000000039000
340
12
340
42
340
F
340
0
 94
        0
1001
ACAD_MLEADERVER
1070
     2
  0
ACAD_PROXY_OBJECT
  5
21EDB
102
{ACAD_REACTORS
330
19E18
102
}
330
19E18
100
AcDbZombieObject
 90
      499
 91
      512
 93
      546
310
40901902A4063FBFFFFFE0000000000000020400000000000020C080000000000000040905415019C900000000000003100000000000000041025766000000000000039000
340
12
340
42
340
F
340
0
 94
        0
1001
ACAD_MLEADERVER
1070
     2
  0
ACAD_PROXY_OBJECT
  5
21ED5
102
{ACAD_REACTORS
330
19E18
102
}
330
19E18
100
AcDbZombieObject
 90
      499
 91
      512
 93
      610
310
40901902A4063FBFFFFFE0000000000000020400000000000020C080000000000000040905415019C9000000000000031000000000000000410257626A6666666666A4FC000000000000039000
340
12
340
42
340
F
340
0
 94
        0
1001
ACAD_MLEADERVER
1070
     2
  0
ACAD_PROXY_OBJECT
  5
21ED6
102
{ACAD_REACTORS
330
19E18
102
}
330
19E18
100
AcDbZombieObject
 90
      499
 91
      512
 93
      610
310
40901902A4063FBFFFFFE0000000000000020400000000000020C080000000000000040905415019C9000000000000031000000000000000410257626A6666666666E4FC000000000000039000
340
12
340
42
340
F
340
0
 94
        0
1001
ACAD_MLEADERVER
1070
     2
  0
ACAD_PROXY_OBJECT
  5
21ED7
102
{ACAD_REACTORS
330
19E18
102
}
330
19E18
100
AcDbZombieObject
 90
      499
 91
      512
 93
      610
310
40901902A4063FBFFFFFE0000000000000020400000000000020C080000000000000040905415019C9000000000000031000000000000000410257626A666666666724FC000000000000039000
340
12
340
42
340
F
340
0
 94
        0
1001
ACAD_MLEADERVER
1070
     2
  0
ACAD_PROXY_OBJECT
  5
21ED8
102
{ACAD_REACTORS
330
19E18
102
}
330
19E18
100
AcDbZombieObject
 90
      499
 91
      512
 93
      610
310
40901902A4063FBFFFFFE0000000000000020400000000000020C080000000000000040905415019C900000000000003100000000000000041025760CCCCCCCCCCCF4CFC000000000000039000
340
12
340
42
340
F
340
0
 94
        0
1001
ACAD_MLEADERVER
1070
     2
  0
ACAD_PROXY_OBJECT
  5
21ED9
102
{ACAD_REACTORS
330
19E18
102
}
330
19E18
100
AcDbZombieObject
 90
      499
 91
      512
 93
      610
310
40901902A4063FBFFFFFE0000000000000020400000000000020C080000000000000040905415019C90000000000000310000000000000004102576000000000000380FC000000000000039000
340
12
340
42
340
F
340
0
 94
        0
1001
ACAD_MLEADERVER
1070
     2
  0
ACAD_PROXY_OBJECT
  5
21EDA
102
{ACAD_REACTORS
330
19E18
102
}
330
19E18
100
AcDbZombieObject
 90
      499
 91
      512
 93
      610
310
40901902A4063FBFFFFFE0000000000000020400000000000020C080000000000000040905415019C90000000000000310000000000000004102576199999999999B98FC000000000000039000
340
12
340
42
340
F
340
0
 94
        0
1001
ACAD_MLEADERVER
1070
     2
  0
ACAD_PROXY_OBJECT
  5
21EC8
102
{ACAD_REACTORS
330
19E18
102
}
330
19E18
100
AcDbZombieObject
 90
      499
 91
      512
 93
      546
310
40901902A4063FBFFFFFE0000000000000020400000000000020C080000000000000040905415019C900000000000003100000000000000041025764000000000000039000
340
12
340
42
340
F
340
0
 94
        0
1001
ACAD_MLEADERVER
1070
     2
  0
ACAD_PROXY_OBJECT
  5
21ECA
102
{ACAD_REACTORS
330
19E18
102
}
330
19E18
100
AcDbZombieObject
 90
      499
 91
      512
 93
      610
310
40901902A4063FBFFFFFE0000000000000020400000000000020C080000000000000040905415019C9000000000000031000000000000000410257600000000000009100000000000000039000
340
12
340
42
340
F
340
0
 94
        0
1001
ACAD_MLEADERVER
1070
     2
  0
ACAD_PROXY_OBJECT
  5
21ECB
102
{ACAD_REACTORS
330
19E18
102
}
330
19E18
100
AcDbZombieObject
 90
      499
 91
      512
 93
      610
310
40901902A4063FBFFFFFE0000000000000020400000000000020C080000000000000040905415019C9000000000000031000000000000000410257600000000000016500000000000000039000
340
12
340
42
340
F
340
0
 94
        0
1001
ACAD_MLEADERVER
1070
     2
  0
ACAD_PROXY_OBJECT
  5
21ECC
102
{ACAD_REACTORS
330
19E18
102
}
330
19E18
100
AcDbZombieObject
 90
      499
 91
      512
 93
      610
310
40901902A4063FBFFFFFE0000000000000020400000000000020C080000000000000040905415019C900000000000003100000000000000041025763373333333333D0FC000000000000039000
340
12
340
42
340
F
340
0
 94
        0
1001
ACAD_MLEADERVER
1070
     2
  0
ACAD_PROXY_OBJECT
  5
21ECD
102
{ACAD_REACTORS
330
19E18
102
}
330
19E18
100
AcDbZombieObject
 90
      499
 91
      512
 93
      610
310
40901902A4063FBFFFFFE0000000000000020400000000000020C080000000000000040905415019C900000000000003100000000000000041025760000000000000B900000000000000039000
340
12
340
42
340
F
340
0
 94
        0
1001
ACAD_MLEADERVER
1070
     2
  0
ACAD_PROXY_OBJECT
  5
21EC4
102
{ACAD_REACTORS
330
19E18
102
}
330
19E18
100
AcDbZombieObject
 90
      499
 91
      512
 93
      610
310
40901902A4063FBFFFFFE0000000000000020400000000000020C080000000000000040905415019C9000000000000031000000000000000410257600000000000000100000000000000039000
340
12
340
42
340
F
340
0
 94
        0
1001
ACAD_MLEADERVER
1070
     2
  0
ACAD_PROXY_OBJECT
  5
21ECE
102
{ACAD_REACTORS
330
19E18
102
}
330
19E18
100
AcDbZombieObject
 90
      499
 91
      512
 93
      610
310
40901902A4063FBFFFFFE0000000000000020400000000000020C080000000000000040905415019C900000000000003100000000000000041025760000000000000D100000000000000039000
340
12
340
42
340
F
340
0
 94
        0
1001
ACAD_MLEADERVER
1070
     2
  0
ACAD_PROXY_OBJECT
  5
21ECF
102
{ACAD_REACTORS
330
19E18
102
}
330
19E18
100
AcDbZombieObject
 90
      499
 91
      512
 93
      610
310
40901902A4063FBFFFFFE0000000000000020400000000000020C080000000000000040905415019C900000000000003100000000000000041025760000000000001A500000000000000039000
340
12
340
42
340
F
340
0
 94
        0
1001
ACAD_MLEADERVER
1070
     2
  0
ACAD_PROXY_OBJECT
  5
21ED0
102
{ACAD_REACTORS
330
19E18
102
}
330
19E18
100
AcDbZombieObject
 90
      499
 91
      512
 93
      610
310
40901902A4063FBFFFFFE0000000000000020400000000000020C080000000000000040905415019C900000000000003100000000000000041025760000000000000E500000000000000039000
340
12
340
42
340
F
340
0
 94
        0
1001
ACAD_MLEADERVER
1070
     2
  0
ACAD_PROXY_OBJECT
  5
21EC5
102
{ACAD_REACTORS
330
19E18
102
}
330
19E18
100
AcDbZombieObject
 90
      499
 91
      512
 93
      610
310
40901902A4063FBFFFFFE0000000000000020400000000000020C080000000000000040905415019C9000000000000031000000000000000410257600000000000002100000000000000039000
340
12
340
42
340
F
340
0
 94
        0
1001
ACAD_MLEADERVER
1070
     2
  0
ACAD_PROXY_OBJECT
  5
21ED1
102
{ACAD_REACTORS
330
19E18
102
}
330
19E18
100
AcDbZombieObject
 90
      499
 91
      512
 93
      610
310
40901902A4063FBFFFFFE0000000000000020400000000000020C080000000000000040905415019C900000000000003100000000000000041025760000000000000F900000000000000039000
340
12
340
42
340
F
340
0
 94
        0
1001
ACAD_MLEADERVER
1070
     2
  0
ACAD_PROXY_OBJECT
  5
21EC6
102
{ACAD_REACTORS
330
19E18
102
}
330
19E18
100
AcDbZombieObject
 90
      499
 91
      512
 93
      610
310
40901902A4063FBFFFFFE0000000000000020400000000000020C080000000000000040905415019C9000000000000031000000000000000410257600000000000004100000000000000039000
340
12
340
42
340
F
340
0
 94
        0
1001
ACAD_MLEADERVER
1070
     2
  0
ACAD_PROXY_OBJECT
  5
21ED2
102
{ACAD_REACTORS
330
19E18
102
}
330
19E18
100
AcDbZombieObject
 90
      499
 91
      512
 93
      610
310
40901902A4063FBFFFFFE0000000000000020400000000000020C080000000000000040905415019C9000000000000031000000000000000410257600000000000011100000000000000039000
340
12
340
42
340
F
340
0
 94
        0
1001
ACAD_MLEADERVER
1070
     2
  0
ACAD_PROXY_OBJECT
  5
21EC7
102
{ACAD_REACTORS
330
19E18
102
}
330
19E18
100
AcDbZombieObject
 90
      499
 91
      512
 93
      610
310
40901902A4063FBFFFFFE0000000000000020400000000000020C080000000000000040905415019C9000000000000031000000000000000410257600000000000005100000000000000039000
340
12
340
42
340
F
340
0
 94
        0
1001
ACAD_MLEADERVER
1070
     2
  0
ACAD_PROXY_OBJECT
  5
21ED3
102
{ACAD_REACTORS
330
19E18
102
}
330
19E18
100
AcDbZombieObject
 90
      499
 91
      512
 93
      610
310
40901902A4063FBFFFFFE0000000000000020400000000000020C080000000000000040905415019C9000000000000031000000000000000410257600000000000012500000000000000039000
340
12
340
42
340
F
340
0
 94
        0
1001
ACAD_MLEADERVER
1070
     2
  0
ACAD_PROXY_OBJECT
  5
21ED4
102
{ACAD_REACTORS
330
19E18
102
}
330
19E18
100
AcDbZombieObject
 90
      499
 91
      512
 93
      610
310
40901902A4063FBFFFFFE0000000000000020400000000000020C080000000000000040905415019C900000000000003100000000000000041025760000000000101FD00000000000000039000
340
12
340
42
340
F
340
0
 94
        0
1001
ACAD_MLEADERVER
1070
     2
  0
ACAD_PROXY_OBJECT
  5
21EC9
102
{ACAD_REACTORS
330
19E18
102
}
330
19E18
100
AcDbZombieObject
 90
      499
 91
      512
 93
      610
310
40901902A4063FBFFFFFE0000000000000020400000000000020C080000000000000040905415019C9000000000000031000000000000000410257600000000000007100000000000000039000
340
12
340
42
340
F
340
0
 94
        0
1001
ACAD_MLEADERVER
1070
     2
  0
ACAD_PROXY_OBJECT
  5
19E19
102
{ACAD_REACTORS
330
19E18
102
}
330
19E18
100
AcDbZombieObject
 90
      499
 91
      512
 93
      610
310
40901902A4063FBFFFFFE000000000000002040AD7A3703D0AD73F4214DD185B99185C990000000000000104090141901A00000000000004100000000000000041025764000000000000300FC0
340
12
340
0
340
F
340
0
 94
        0
1001
ACAD_MLEADERVER
1070
     2
  0
MLINESTYLE
  5
1C
102
{ACAD_REACTORS
330
1B
102
}
330
1B
100
AcDbMlineStyle
  2
STANDARD
 70
     0
  3

 62
   256
 51
90.0
 52
90.0
 71
     2
 49
0.5
 62
   256
  6
BYLAYER
 49
-0.5
 62
   256
  6
BYLAYER
  0
ACAD_PROXY_OBJECT
  5
21F05
102
{ACAD_REACTORS
330
19DF6
102
}
330
19DF6
100
AcDbZombieObject
 90
      499
 91
      511
 93
      153
310
909313A34305F585245464000000000000444000
  0
ACAD_PROXY_OBJECT
  5
21F0E
102
{ACAD_REACTORS
330
19DF6
102
}
330
19DF6
100
AcDbZombieObject
 90
      499
 91
      511
 93
      145
310
908313A345F585245464000000000000104000
  0
ACAD_PROXY_OBJECT
  5
21F0F
102
{ACAD_REACTORS
330
19DF6
102
}
330
19DF6
100
AcDbZombieObject
 90
      499
 91
      511
 93
      145
310
908313A355F585245464000000000000144000
  0
ACAD_PROXY_OBJECT
  5
21F10
102
{ACAD_REACTORS
330
19DF6
102
}
330
19DF6
100
AcDbZombieObject
 90
      499
 91
      511
 93
      145
310
908313A385F585245464000000000000204000
  0
ACAD_PROXY_OBJECT
  5
21F11
102
{ACAD_REACTORS
330
19DF6
102
}
330
19DF6
100
AcDbZombieObject
 90
      499
 91
      511
 93
      153
310
909313A31305F585245464000000000000244000
  0
ACAD_PROXY_OBJECT
  5
21F12
102
{ACAD_REACTORS
330
19DF6
102
}
330
19DF6
100
AcDbZombieObject
 90
      499
 91
      511
 93
      153
310
909313A31365F585245464000000000000304000
  0
ACAD_PROXY_OBJECT
  5
21F13
102
{ACAD_REACTORS
330
19DF6
102
}
330
19DF6
100
AcDbZombieObject
 90
      499
 91
      511
 93
      153
310
909313A32305F585245464000000000000344000
  0
ACAD_PROXY_OBJECT
  5
21F14
102
{ACAD_REACTORS
330
19DF6
102
}
330
19DF6
100
AcDbZombieObject
 90
      499
 91
      511
 93
      153
310
909313A33305F5852454640000000000003E4000
  0
ACAD_PROXY_OBJECT
  5
21F06
102
{ACAD_REACTORS
330
19DF6
102
}
330
19DF6
100
AcDbZombieObject
 90
      499
 91
      511
 93
      153
310
909313A35305F585245464000000000000494000
  0
ACAD_PROXY_OBJECT
  5
21F07
102
{ACAD_REACTORS
330
19DF6
102
}
330
19DF6
100
AcDbZombieObject
 90
      499
 91
      511
 93
      161
310
90A313A3130305F585245464000000000000594000
  0
ACAD_PROXY_OBJECT
  5
21F08
102
{ACAD_REACTORS
330
19DF6
102
}
330
19DF6
100
AcDbZombieObject
 90
      499
 91
      511
 93
      145
310
908323A315F585245460000000000000010100
  0
ACAD_PROXY_OBJECT
  5
21F09
102
{ACAD_REACTORS
330
19DF6
102
}
330
19DF6
100
AcDbZombieObject
 90
      499
 91
      511
 93
      145
310
908343A315F585245460000000000000410100
  0
ACAD_PROXY_OBJECT
  5
21F0A
102
{ACAD_REACTORS
330
19DF6
102
}
330
19DF6
100
AcDbZombieObject
 90
      499
 91
      511
 93
      145
310
908383A315F585245460000000000000810100
  0
ACAD_PROXY_OBJECT
  5
21F0B
102
{ACAD_REACTORS
330
19DF6
102
}
330
19DF6
100
AcDbZombieObject
 90
      499
 91
      511
 93
      153
310
90931303A315F585245460000000000000910100
  0
ACAD_PROXY_OBJECT
  5
21F0C
102
{ACAD_REACTORS
330
19DF6
102
}
330
19DF6
100
AcDbZombieObject
 90
      499
 91
      511
 93
      161
310
90A3130303A315F585245460000000000001650100
  0
ACAD_PROXY_OBJECT
  5
21F0D
102
{ACAD_REACTORS
330
19DF6
102
}
330
19DF6
100
AcDbZombieObject
 90
      499
 91
      511
 93
      145
310
908313A325F585245464000000000000004000
  0
ACAD_PROXY_OBJECT
  5
19DF7
102
{ACAD_REACTORS
330
19DF6
102
}
330
19DF6
100
AcDbZombieObject
 90
      499
 91
      511
 93
       41
310
903313A31580
  0
ACAD_PROXY_OBJECT
  5
19DF8
102
{ACAD_REACTORS
330
19DF6
102
}
330
19DF6
100
AcDbZombieObject
 90
      499
 91
      511
 93
      105
310
903313A324000000000000004000
  0
ACAD_PROXY_OBJECT
  5
19DF9
102
{ACAD_REACTORS
330
19DF6
102
}
330
19DF6
100
AcDbZombieObject
 90
      499
 91
      511
 93
      105
310
903313A344000000000000104000
  0
ACAD_PROXY_OBJECT
  5
19DFA
102
{ACAD_REACTORS
330
19DF6
102
}
330
19DF6
100
AcDbZombieObject
 90
      499
 91
      511
 93
      105
310
903313A354000000000000144000
  0
ACAD_PROXY_OBJECT
  5
19DFB
102
{ACAD_REACTORS
330
19DF6
102
}
330
19DF6
100
AcDbZombieObject
 90
      499
 91
      511
 93
      105
310
903313A384000000000000204000
  0
ACAD_PROXY_OBJECT
  5
19DFC
102
{ACAD_REACTORS
330
19DF6
102
}
330
19DF6
100
AcDbZombieObject
 90
      499
 91
      511
 93
      113
310
904313A31304000000000000244000
  0
ACAD_PROXY_OBJECT
  5
19DFD
102
{ACAD_REACTORS
330
19DF6
102
}
330
19DF6
100
AcDbZombieObject
 90
      499
 91
      511
 93
      113
310
904313A31364000000000000304000
  0
ACAD_PROXY_OBJECT
  5
19DFE
102
{ACAD_REACTORS
330
19DF6
102
}
330
19DF6
100
AcDbZombieObject
 90
      499
 91
      511
 93
      113
310
904313A32304000000000000344000
  0
ACAD_PROXY_OBJECT
  5
19DFF
102
{ACAD_REACTORS
330
19DF6
102
}
330
19DF6
100
AcDbZombieObject
 90
      499
 91
      511
 93
      113
310
904313A333040000000000003E4000
  0
ACAD_PROXY_OBJECT
  5
19E00
102
{ACAD_REACTORS
330
19DF6
102
}
330
19DF6
100
AcDbZombieObject
 90
      499
 91
      511
 93
      113
310
904313A34304000000000000444000
  0
ACAD_PROXY_OBJECT
  5
19E01
102
{ACAD_REACTORS
330
19DF6
102
}
330
19DF6
100
AcDbZombieObject
 90
      499
 91
      511
 93
      113
310
904313A35304000000000000494000
  0
ACAD_PROXY_OBJECT
  5
19E02
102
{ACAD_REACTORS
330
19DF6
102
}
330
19DF6
100
AcDbZombieObject
 90
      499
 91
      511
 93
      121
310
905313A3130304000000000000594000
  0
ACAD_PROXY_OBJECT
  5
19E03
102
{ACAD_REACTORS
330
19DF6
102
}
330
19DF6
100
AcDbZombieObject
 90
      499
 91
      511
 93
      105
310
903323A310000000000000010100
  0
ACAD_PROXY_OBJECT
  5
19E04
102
{ACAD_REACTORS
330
19DF6
102
}
330
19DF6
100
AcDbZombieObject
 90
      499
 91
      511
 93
      105
310
903343A310000000000000410100
  0
ACAD_PROXY_OBJECT
  5
19E05
102
{ACAD_REACTORS
330
19DF6
102
}
330
19DF6
100
AcDbZombieObject
 90
      499
 91
      511
 93
      105
310
903383A310000000000000810100
  0
ACAD_PROXY_OBJECT
  5
19E06
102
{ACAD_REACTORS
330
19DF6
102
}
330
19DF6
100
AcDbZombieObject
 90
      499
 91
      511
 93
      113
310
90431303A310000000000000910100
  0
ACAD_PROXY_OBJECT
  5
19E07
102
{ACAD_REACTORS
330
19DF6
102
}
330
19DF6
100
AcDbZombieObject
 90
      499
 91
      511
 93
      121
310
9053130303A310000000000001650100
  0
ACAD_PROXY_OBJECT
  5
19E08
102
{ACAD_REACTORS
330
19DF6
102
}
330
19DF6
100
AcDbZombieObject
 90
      499
 91
      511
 93
      257
310
90E312F31323822203D2031272D3022000000000000200FC000000000000284000
  0
ACAD_PROXY_OBJECT
  5
19E09
102
{ACAD_REACTORS
330
19DF6
102
}
330
19DF6
100
AcDbZombieObject
 90
      499
 91
      511
 93
      249
310
90D312F363422203D2031272D3022000000000000240FC000000000000284000
  0
ACAD_PROXY_OBJECT
  5
19E0A
102
{ACAD_REACTORS
330
19DF6
102
}
330
19DF6
100
AcDbZombieObject
 90
      499
 91
      511
 93
      249
310
90D312F333222203D2031272D3022000000000000280FC000000000000284000
  0
ACAD_PROXY_OBJECT
  5
19E0B
102
{ACAD_REACTORS
330
19DF6
102
}
330
19DF6
100
AcDbZombieObject
 90
      499
 91
      511
 93
      249
310
90D312F313622203D2031272D30220000000000002C0FC000000000000284000
  0
ACAD_PROXY_OBJECT
  5
19E0C
102
{ACAD_REACTORS
330
19DF6
102
}
330
19DF6
100
AcDbZombieObject
 90
      499
 91
      511
 93
      249
310
90D332F333222203D2031272D30220000000000002E0FC000000000000284000
  0
ACAD_PROXY_OBJECT
  5
19E0D
102
{ACAD_REACTORS
330
19DF6
102
}
330
19DF6
100
AcDbZombieObject
 90
      499
 91
      511
 93
      241
310
90C312F3822203D2031272D3022000000000000300FC000000000000284000
  0
ACAD_PROXY_OBJECT
  5
19E0E
102
{ACAD_REACTORS
330
19DF6
102
}
330
19DF6
100
AcDbZombieObject
 90
      499
 91
      511
 93
      249
310
90D332F313622203D2031272D3022000000000000320FC000000000000284000
  0
ACAD_PROXY_OBJECT
  5
19E0F
102
{ACAD_REACTORS
330
19DF6
102
}
330
19DF6
100
AcDbZombieObject
 90
      499
 91
      511
 93
      241
310
90C312F3422203D2031272D3022000000000000340FC000000000000284000
  0
ACAD_PROXY_OBJECT
  5
19E10
102
{ACAD_REACTORS
330
19DF6
102
}
330
19DF6
100
AcDbZombieObject
 90
      499
 91
      511
 93
      241
310
90C332F3822203D2031272D3022000000000000360FC000000000000284000
  0
ACAD_PROXY_OBJECT
  5
19E11
102
{ACAD_REACTORS
330
19DF6
102
}
330
19DF6
100
AcDbZombieObject
 90
      499
 91
      511
 93
      241
310
90C312F3222203D2031272D3022000000000000380FC000000000000284000
  0
ACAD_PROXY_OBJECT
  5
19E12
102
{ACAD_REACTORS
330
19DF6
102
}
330
19DF6
100
AcDbZombieObject
 90
      499
 91
      511
 93
      241
310
90C332F3422203D2031272D30220000000000003A0FC000000000000284000
  0
ACAD_PROXY_OBJECT
  5
19E13
102
{ACAD_REACTORS
330
19DF6
102
}
330
19DF6
100
AcDbZombieObject
 90
      499
 91
      511
 93
      161
310
90A3122203D2031272D30224000000000000284000
  0
ACAD_PROXY_OBJECT
  5
19E14
102
{ACAD_REACTORS
330
19DF6
102
}
330
19DF6
100
AcDbZombieObject
 90
      499
 91
      511
 93
      257
310
90E312D312F3222203D2031272D30220000000000003E0FC000000000000284000
  0
ACAD_PROXY_OBJECT
  5
19E15
102
{ACAD_REACTORS
330
19DF6
102
}
330
19DF6
100
AcDbZombieObject
 90
      499
 91
      511
 93
      225
310
90A3322203D2031272D302200000000000002100000000000000284000
  0
ACAD_PROXY_OBJECT
  5
19E16
102
{ACAD_REACTORS
330
19DF6
102
}
330
19DF6
100
AcDbZombieObject
 90
      499
 91
      511
 93
      225
310
90A3622203D2031272D302200000000000006100000000000000284000
  0
ACAD_PROXY_OBJECT
  5
19E17
102
{ACAD_REACTORS
330
19DF6
102
}
330
19DF6
100
AcDbZombieObject
 90
      499
 91
      511
 93
      249
310
90D31272D3022203D2031272D30220000000000000A100000000000000284000
  0
ACAD_PROXY_OBJECT
  5
19DEB
102
{ACAD_REACTORS
330
19DE5
102
}
330
19DE5
100
AcDbZombieObject
 90
      499
 91
      510
 93
      436
310
42CC9915DA5C99599C985B595049028333333333333E3BF0000000000000FB0107901411070040501600405405064090741402480A0340
1001
ACAD
1000
AcDbSavedByObjectVersion
1070
     0
  0
ACAD_PROXY_OBJECT
  5
19DED
102
{ACAD_REACTORS
330
19DE5
102
}
330
19DE5
100
AcDbZombieObject
 90
      499
 91
      510
 93
      500
310
424CD108121A5919195B90640502408333333333333E3BF0000000000000FB01079024090700405020000000000001110200405405064090740C02480A0340
1001
ACAD
1000
AcDbSavedByObjectVersion
1070
     0
  0
ACAD_PROXY_OBJECT
  5
19DEC
102
{ACAD_REACTORS
330
19DE5
102
}
330
19DE5
100
AcDbZombieObject
 90
      499
 91
      510
 93
      436
310
42CCD915DA5C99599C985B595059028333333333333E3BF0000000000000FB0107901411070040501600405405064090741402480A0340
1001
ACAD
1000
AcDbSavedByObjectVersion
1070
     0
  0
ACAD_PROXY_OBJECT
  5
19DEA
102
{ACAD_REACTORS
330
19DE5
102
}
330
19DE5
100
AcDbZombieObject
 90
      499
 91
      510
 93
      388
310
4150985CDA58D07406404333333333333E3BF0000000000000FB0107A41107004050150841D405064090741402480A0350
1001
ACAD
1000
AcDbSavedByObjectVersion
1070
     0
  0
ACAD_PROXY_OBJECT
  5
19DF1
102
{ACAD_REACTORS
330
19DE5
102
}
330
19DE5
100
AcDbZombieObject
 90
      499
 91
      510
 93
      428
310
42109C9A59DA1D195B90C409028333333333333E3BF0000000000000FB010790141107004050150841D405064090741402480A029950
1001
ACAD
1000
AcDbSavedByObjectVersion
1070
     0
  0
ACAD_PROXY_OBJECT
  5
19DF5
102
{ACAD_REACTORS
330
19DE5
102
}
330
19DE5
100
AcDbZombieObject
 90
      499
 91
      510
 93
      452
310
42D0DBDB1BDC90DA185B99D95104090240C333333333333E3BF0000000000000FB0108901411070040501508421405064090741402480A0350
1001
ACAD
1000
AcDbSavedByObjectVersion
1070
     0
  0
ACAD_PROXY_OBJECT
  5
19DEE
102
{ACAD_REACTORS
330
19DE5
102
}
330
19DE5
100
AcDbZombieObject
 90
      499
 91
      510
 93
      500
310
4290DBDB98D95C1D1D585B10940D028333333333333E3BF0000000000000FB0107902409070040501000000000000111010841D405064090740C02480A0340
1001
ACAD
1000
AcDbSavedByObjectVersion
1070
     0
  0
ACAD_PROXY_OBJECT
  5
19DF0
102
{ACAD_REACTORS
330
19DE5
102
}
330
19DE5
100
AcDbZombieObject
 90
      499
 91
      510
 93
      412
310
40D11A5B50B409028333333333333E3BF0000000000000FB010790141107004050150841D405064090741402480A02677FFFFFD0
1001
ACAD
1000
AcDbSavedByObjectVersion
1070
     0
  0
ACAD_PROXY_OBJECT
  5
1E02A
102
{ACAD_REACTORS
330
19DE5
102
}
330
19DE5
100
AcDbZombieObject
 90
      499
 91
      510
 93
      452
310
43115919D950DBDB1BDC93D999916409028333333333333E3BF0000000000000FB010790141107004050150841D405064090741402480A0350
1001
ACAD
1000
AcDbSavedByObjectVersion
1070
     0
  0
ACAD_PROXY_OBJECT
  5
19DF4
102
{ACAD_REACTORS
330
19DE5
102
}
330
19DE5
100
AcDbZombieObject
 90
      499
 91
      510
 93
      444
310
42D19858D95C185D1D195C9B90F409028333333333333E3BF0000000000000FB010790141107004050150841D405064090741402480A0350
1001
ACAD
1000
AcDbSavedByObjectVersion
1070
     0
  0
ACAD_PROXY_OBJECT
  5
19DE6
102
{ACAD_REACTORS
330
19DE5
102
}
330
19DE5
100
AcDbZombieObject
 90
      499
 91
      510
 93
      388
310
41119B185D240901404333333333333E3BF0000000000000F9010740A41107004050150841D405064090741402480A1B50
1001
ACAD
1000
AcDbSavedByObjectVersion
1070
     0
  0
ACAD_PROXY_OBJECT
  5
19DE7
102
{ACAD_REACTORS
330
19DE5
102
}
330
19DE5
100
AcDbZombieObject
 90
      499
 91
      510
 93
      476
310
43519B185D15DA5D1A115919D95CD0140901404333333333333E3BF0000000000000F9010740901411070040501600405405064090741402480A1B50
1001
ACAD
1000
AcDbSavedByObjectVersion
1070
     0
  0
ACAD_PROXY_OBJECT
  5
19DE8
102
{ACAD_REACTORS
330
19DE5
102
}
330
19DE5
100
AcDbZombieObject
 90
      499
 91
      510
 93
      412
310
41D1DBDD5C985D5910240902404333333333333E3BF0000000000000F9010740A411070040501641D405064090741402480A1B50
1001
ACAD
1000
AcDbSavedByObjectVersion
1070
     0
  0
ACAD_PROXY_OBJECT
  5
19DE9
102
{ACAD_REACTORS
330
19DE5
102
}
330
19DE5
100
AcDbZombieObject
 90
      499
 91
      510
 93
      500
310
4411DBDD5C985D5915DA5D1A115919D95CD0340902404333333333333E3BF0000000000000F9010740901411070040501600405405064090741402480A1B50
1001
ACAD
1000
AcDbSavedByObjectVersion
1070
     0
  0
ACAD_PROXY_OBJECT
  5
1F381
102
{ACAD_REACTORS
330
19DE5
102
}
330
19DE5
100
AcDbZombieObject
 90
      499
 91
      510
 93
      476
310
41921A5919195B90640502408333333333333E33F0000000000000F901079024090700405020000000000001110200405405064090740C02480A0340
1001
ACAD
1000
AcDbSavedByObjectVersion
1070
     0
  0
ACAD_PROXY_OBJECT
  5
1E028
102
{ACAD_REACTORS
330
19DE5
102
}
330
19DE5
100
AcDbZombieObject
 90
      499
 91
      510
 93
      428
310
42529A5D1D195C93D999914409028333333333333E3BF0000000000000FB010790141107004050150A41D405064090741402480A0350
1001
ACAD
1000
AcDbSavedByObjectVersion
1070
     0
  0
ACAD_PROXY_OBJECT
  5
19DF3
102
{ACAD_REACTORS
330
19DE5
102
}
330
19DE5
100
AcDbZombieObject
 90
      499
 91
      510
 93
      444
310
42D31A5B995C185D1D195C9B90E409028333333333333E3BF0000000000000FB010790141107004050750841D405064090741402483A0350
1001
ACAD
1000
AcDbSavedByObjectVersion
1070
     0
  0
ACAD_PROXY_OBJECT
  5
1F387
102
{ACAD_REACTORS
330
19DE5
102
}
330
19DE5
100
AcDbZombieObject
 90
      499
 91
      510
 93
      484
310
42135BD9195B1A5B99D0A409038333333333333E33F0000000000000F901074090290700405010000000000201990108421405064090741402480A1B40
1001
ACAD
1000
AcDbSavedByObjectVersion
1070
     0
  0
ACAD_PROXY_OBJECT
  5
1E029
102
{ACAD_REACTORS
330
19DE5
102
}
330
19DE5
100
AcDbZombieObject
 90
      499
 91
      510
 93
      444
310
42D3DD995C9A185B99D3D999915409028333333333333E3BF0000000000000FB010790141107004050150941D405064090741402480A0350
1001
ACAD
1000
AcDbSavedByObjectVersion
1070
     0
  0
ACAD_PROXY_OBJECT
  5
19DEF
102
{ACAD_REACTORS
330
19DE5
102
}
330
19DE5
100
AcDbZombieObject
 90
      499
 91
      510
 93
      420
310
425499585B1A5CDD1A58D08409028333333333333E3BF0000000000000FB01079019070040501508421405064090741402480A1B40
1001
ACAD
1000
AcDbSavedByObjectVersion
1070
     0
  0
ACAD_PROXY_OBJECT
  5
1F386
102
{ACAD_REACTORS
330
19DE5
102
}
330
19DE5
100
AcDbZombieObject
 90
      499
 91
      510
 93
      420
310
4194DA1859195911B40902404333333333333E33F0000000000000F9010740A41107004050150800405405064090840C02480A0B40
1001
ACAD
1000
AcDbSavedByObjectVersion
1070
     0
  0
ACAD_PROXY_OBJECT
  5
1F385
102
{ACAD_REACTORS
330
19DE5
102
}
330
19DE5
100
AcDbZombieObject
 90
      499
 91
      510
 93
      516
310
4454DA18591959081DDA5D1A08195919D95CD1A40902404333333333333E33F0000000000000F901074090142907004050250800405405064090740C02480A0B40
1001
ACAD
1000
AcDbSavedByObjectVersion
1070
     0
  0
ACAD_PROXY_OBJECT
  5
1F382
102
{ACAD_REACTORS
330
19DE5
102
}
330
19DE5
100
AcDbZombieObject
 90
      499
 91
      510
 93
      532
310
4394DA1859195CC81BD98811DC985E5174090240C333333333333E33F0000000000000F901079024090741D01000000000000111010841D405064090740C02480A0340
1001
ACAD
1000
AcDbSavedByObjectVersion
1070
     0
  0
ACAD_PROXY_OBJECT
  5
1F383
102
{ACAD_REACTORS
330
19DE5
102
}
330
19DE5
100
AcDbZombieObject
 90
      499
 91
      510
 93
      476
310
41D4DAD95D18DA1E51840502408333333333333E33F0000000000000F901079024090741D01000000000000111010B41D405064090741802480A0340
1001
ACAD
1000
AcDbSavedByObjectVersion
1070
     0
  0
ACAD_PROXY_OBJECT
  5
19DF2
102
{ACAD_REACTORS
330
19DE5
102
}
330
19DE5
100
AcDbZombieObject
 90
      499
 91
      510
 93
      412
310
41D51A1A58DAD95B90D409028333333333333E3BF0000000000000FB010790141107004050150C41D405064090741402480A0350
1001
ACAD
1000
AcDbSavedByObjectVersion
1070
     0
  0
ACAD_PROXY_OBJECT
  5
1F380
102
{ACAD_REACTORS
330
19DE5
102
}
330
19DE5
100
AcDbZombieObject
 90
      499
 91
      510
 93
      420
310
4255DA5C99599C985B595059028333333333333E33F0000000000000F90107901411070040501600405405064090740C02480A0340
1001
ACAD
1000
AcDbSavedByObjectVersion
1070
     0
  0
ACAD_PROXY_OBJECT
  5
1F384
102
{ACAD_REACTORS
330
19DE5
102
}
330
19DE5
100
AcDbZombieObject
 90
      499
 91
      510
 93
      404
310
41560B54985E51940902404000000000000E03F0000000000000F9010740501907004050150841D405064090740C02480A1B40
1001
ACAD
1000
AcDbSavedByObjectVersion
1070
     0
  0
XRECORD
  5
229B4
102
{ACAD_REACTORS
330
229B3
102
}
330
229B3
100
AcDbXrecord
340
2D0
  0
XRECORD
  5
229B5
102
{ACAD_REACTORS
330
229B3
102
}
330
229B3
100
AcDbXrecord
340
2CF
  0
DICTIONARYVAR
  5
20A45
102
{ACAD_REACTORS
330
37
102
}
330
37
100
DictionaryVariables
280
     0
  1
1:1
  0
DICTIONARYVAR
  5
1AC19
102
{ACAD_REACTORS
330
37
102
}
330
37
100
DictionaryVariables
280
     0
  1
LeaderMulti
  0
DICTIONARYVAR
  5
4F1
102
{ACAD_REACTORS
330
37
102
}
330
37
100
DictionaryVariables
280
     0
  1
Standard
  0
DICTIONARYVAR
  5
38
102
{ACAD_REACTORS
330
37
102
}
330
37
100
DictionaryVariables
280
     0
  1
-1
  0
DICTIONARYVAR
  5
408
102
{ACAD_REACTORS
330
37
102
}
330
37
100
DictionaryVariables
280
     0
  1
2
  0
DICTIONARYVAR
  5
1891
102
{ACAD_REACTORS
330
37
102
}
330
37
100
DictionaryVariables
280
     0
  1
1
  0
DICTIONARYVAR
  5
1AC1C
102
{ACAD_REACTORS
330
37
102
}
330
37
100
DictionaryVariables
280
     0
  1
0
  0
DICTIONARYVAR
  5
1895
102
{ACAD_REACTORS
330
37
102
}
330
37
100
DictionaryVariables
280
     0
  1
8
  0
DICTIONARYVAR
  5
1894
102
{ACAD_REACTORS
330
37
102
}
330
37
100
DictionaryVariables
280
     0
  1
1
  0
DICTIONARYVAR
  5
20A9B
102
{ACAD_REACTORS
330
37
102
}
330
37
100
DictionaryVariables
280
     0
  1
0
  0
DICTIONARYVAR
  5
1892
102
{ACAD_REACTORS
330
37
102
}
330
37
100
DictionaryVariables
280
     0
  1
8
  0
DICTIONARYVAR
  5
1893
102
{ACAD_REACTORS
330
37
102
}
330
37
100
DictionaryVariables
280
     0
  1
2
  0
DICTIONARYVAR
  5
409
102
{ACAD_REACTORS
330
37
102
}
330
37
100
DictionaryVariables
280
     0
  1

  0
DICTIONARYVAR
  5
1AC1B
102
{ACAD_REACTORS
330
37
102
}
330
37
100
DictionaryVariables
280
     0
  1
127
  0
DICTIONARYVAR
  5
1F37F
102
{ACAD_REACTORS
330
37
102
}
330
37
100
DictionaryVariables
280
     0
  1
2
  0
ACAD_PROXY_OBJECT
  5
2202D
102
{ACAD_REACTORS
330
18FE9
102
}
330
18FE9
100
AcDbZombieObject
 90
      499
 91
      519
 93
    49362
310
0586000016C005C080000B404000098880400B8041000996969616128043800000000000001680020000000F8001C01C80478012C04500000000000000004001C00990DBDB1BDC97CDEE0040000000128040000000000000001680020000000F8037401C80448012C04500000000000000004002400990DBDB1BDC97CC8C8C
310
6E0040000000128040000000000000001680020000000F8002001C80448012C04500000000000000004001C00990DBDB1BDC97CE2E0040000000128040000000000000001680020000000F8002001C80448012C04000000000000000004001C00990DBDB1BDC97CE2E0040000000128040000000000000001680020000000F
310
8032401C80464012C04500000000000000004002400990DBDB1BDC97CC8C0C6E0040000000128040000000000000001680020000000F8037401C80448012C04500000000000000004002400990DBDB1BDC97CC8C8C6E0040000000128040000000000000001680024000000F8000401C807F7FD2C045000000000000000040
310
01C00990DBDB1BDC97CC6E0040000000128040000000000000001680020000000F803F401C80434012C04500000000000000004002400990DBDB1BDC97CC8D4CEE0040000000128040000000000000001680000000000F8001C01C807F7FD2C04500000000000000004001C00990DBDB1BDC97CDEE00400000001280400000
310
00000000001680020000000F8002001C80448012C04500000000000000004001C00990DBDB1BDC97CE2E0040000000128040000000000000001680020000000F803F801C80434012C04000000000000000004002400990DBDB1BDC97CC8D4D2E0040000000128040000000000000001680020000000F8037401C80448012C0
310
4500000000000000004002400990DBDB1BDC97CC8C8C6E0040000000128040000000000000001680020000000F8000801C80478012C04500000000000000004001C00990DBDB1BDC97CCAE0040000000128040000000000000001680020000000F8035401C80478012C04500000000000000004002400990DBDB1BDC97CC8C
310
4CEE0040000000128040000000000000001680020000000F8038401C807F7FD2C04500000000000000004002400990DBDB1BDC97CC8C8D6E0040000000128040000000000000001680020000000F8001C01C807F7FD2C04500000000000000004001C00990DBDB1BDC97CDEE00400000001280400000000000000016800200
310
00000F8007801C807F7FD2C04500000000000000004002000990DBDB1BDC97CCCC2E0040000000128040000000000000001680020000000F803F001C804F0012C04500000000000000004002400990DBDB1BDC97CC8D4CAE0040000000128040000000000000001680024000000F8002001C807F7FD2C04500000000000000
310
004001C00990DBDB1BDC97CE2E0040000000128040000000000000001680020000000F8001801C80478012C04500000000000000004001C00990DBDB1BDC97CDAE0040000000128040000000000000001680020000000F8037801C807F7FD2C04500000000000000004002400990DBDB1BDC97CC8C8CAE0040000000128040
310
000000000000001680020000000F8000401C807F7FD2C04500000000000000004001C00990DBDB1BDC97CC6E0040000000128040000000000000001680020000000F8017C01C80478012C04500000000000000004002000990DBDB1BDC97CE4D6E0040000000128040000000000000001680000000000F803CC01C807F7FD2
310
C04500000000000000004002400990DBDB1BDC97CC8D0CEE0040000000128040000000000000001680020000000F8001001C80478012C04500000000000000004001C00990DBDB1BDC97CD2E0040000000128040000000000000001680020000000F8017401C80434012C04500000000000000004002000990DBDB1BDC97CE
310
4CEE0040000000128040000000000000001680020000000F8039C01C80434012C04500000000000000004002400990DBDB1BDC97CC8CCC6E0040000000128040000000000000001680020000000F8007C01C80434012C04500000000000000004002000990DBDB1BDC97CCCC6E004000000012804000000000000000168002
310
0000000F8001C01C80450012C04500000000000000004001C00990DBDB1BDC97CDEE0040000000128040000000000000001680020000000F8001401C80434012C04000000000000000004001C00990DBDB1BDC97CD6E0040000000128040000000000000001680020000000F8000401C80434012C040000000000000000040
310
01C00990DBDB1BDC97CC6E0040000000128040000000000000001680020000000F8002001C8043C012C04000000000000000004001C00990DBDB1BDC97CE2E0040000000128040000000000000001680020000000F8000401C80478012C04500000000000000004001C00990DBDB1BDC97CC6E004000000012804000000000
310
0000001680020000000F8000C01C80478012C04500000000000000004001C00990DBDB1BDC97CCEE0040000000128040000000000000001680020000000F8023401C80434012C04500000000000000004002400990DBDB1BDC97CC4D0C6E0040000000128040000000000000001680020000000F8014401C80434012C04500
310
000000000000004002000990DBDB1BDC97CE0C6E0040000000128040000000000000001680020000000F8003401C80434012C04500000000000000004002000990DBDB1BDC97CC4CEE0040000000128040000000000000001680020000000F800DC01C80434012C04500000000000000004002000990DBDB1BDC97CD4D6E00
310
40000000128040000000000000001680020000000F800D401C80434012C04500000000000000004002000990DBDB1BDC97CD4CEE0040000000128040000000000000001680020000000F8021801C80434012C04500000000000000004002400990DBDB1BDC97CC4CCD2E004000000012804000000000000000168002000000
310
0F800FC01C80434012C04500000000000000004002000990DBDB1BDC97CD8CEE0040000000128040000000000000001680020000000F803AC01C80434012C04500000000000000004002400990DBDB1BDC97CC8CCD6E0040000000128040000000000000001680020000000F8023401C80434012C045000000000000000040
310
02400990DBDB1BDC97CC4D0C6E0040000000128040000000000000001680020000000F8001401C80478012C04500000000000000004001C00990DBDB1BDC97CD6E0040000000128040000000000000001680020000000F8023C01C80478012C04500000000000000004002400990DBDB1BDC97CC4D0CEE0040000000128040
310
000000000000001680020000000F8003C01C80478012C04500000000000000004002000990DBDB1BDC97CC4D6E0040000000128040000000000000001680020000000F8001C01C80478012C04500000000000000004001C00990DBDB1BDC97CDEE0040000000128040000000000000001680020000000F803F801C80448012
310
C04500000000000000004002400990DBDB1BDC97CC8D4D2E0040000000128040000000000000001680020000000F8002001C80448012C04500000000000000004001C00990DBDB1BDC97CE2E0040000000128040000000000000001680020000000F8001C01C807F7FD2C04000000000000000004001C00990DBDB1BDC97CD
310
EE0040000000128040000000000000001680020000000F8001C01C807F7FD2C04000000000000000004001C00990DBDB1BDC97CDEE0040000000128040000000000000001680020000000F8001C01C807F7FD2C04000000000000000004001C00990DBDB1BDC97CDEE0040000000128040000000000000001680020000000F
310
8001C01C807F7FD2C04000000000000000004001C00990DBDB1BDC97CDEE0040000000128040000000000000001680020000000F8001C01C807F7FD2C04000000000000000004001C00990DBDB1BDC97CDEE0040000000128040000000000000001680020000000F8001C01C807F7FD2C04000000000000000004001C00990
310
DBDB1BDC97CDEE0040000000128040000000000000001680020000000F8002401C80450012C04500000000000000004001C00990DBDB1BDC97CE6E0040000000128040000000000000001680020000000F8001001C80400012C04000000000000000004001C00990DBDB1BDC97CD2E00400000001280400000000000000016
310
80020000000F8001001C80400012C04500000000000000004001C00990DBDB1BDC97CD2E0040000000128040000000000000001680020000000F8001001C80400012C04500000000000000004001C00990DBDB1BDC97CD2E0040000000128040000000000000001680020000000F8000401C80400012C04500000000000000
310
004001C00990DBDB1BDC97CC6E0040000000128040000000000000001680020000000F8001C01C80434012C04500000000000000004001C00990DBDB1BDC97CDEE0040000000128040000000000000001680020000000F8011801C80400012C04500000000000000004002000990DBDB1BDC97CDCC2E004000000012804000
310
0000000000001680020000000F8001001C80400012C04500000000000000004001C00990DBDB1BDC97CD2E0040000000128040000000000000001680020000000F8001C01C80448012C04500000000000000004001C00990DBDB1BDC97CDEE0040000000128040000000000000001680020000000F803F401C80434012C045
310
00000000000000004002400990DBDB1BDC97CC8D4CEE0040000000128040000000000000001680020000000F8000401C80478012C04500000000000000004001C00990DBDB1BDC97CC6E0040000000128040000000000000001680020000000F803F001C807F7FD2C04500000000000000004002400990DBDB1BDC97CC8D4C
310
AE0040000000128040000000000000001680020000000F800DC01C80434012C04500000000000000004002000990DBDB1BDC97CD4D6E0040000000128040000000000000001680020000000F8002801C807F7FD2C04500000000000000004002000990DBDB1BDC97CC4C2E0040000000128040000000000000001680020000
310
000F8002C01C807F7FD2C04500000000000000004002000990DBDB1BDC97CC4C6E0040000000128040000000000000001680020000000F8005401C807F7FD2C04500000000000000004002000990DBDB1BDC97CC8C6E0040000000128040000000000000001680020000000F8003001C807F7FD2C045000000000000000040
310
02000990DBDB1BDC97CC4CAE0040000000128040000000000000001680020000000F8005801C807F7FD2C04500000000000000004002000990DBDB1BDC97CC8CAE0040000000128040000000000000001680020000000F8008001C807F7FD2C04500000000000000004002000990DBDB1BDC97CCCCAE004000000012804000
310
0000000000001680020000000F8003C01C807F7FD2C04500000000000000004002000990DBDB1BDC97CC4D6E0040000000128040000000000000001680020000000F803C401C807F7FD2C04500000000000000004002400990DBDB1BDC97CC8D0C6E0040000000128040000000000000001680020000000F8000801C807F7F
310
D2C04500000000000000004001C00990DBDB1BDC97CCAE0040000000128040000000000000001680020000000F800D401C807F7FD2C04500000000000000004002000990DBDB1BDC97CD4CEE0040000000128040000000000000001680020000000F800DC01C807F7FD2C04500000000000000004002000990DBDB1BDC97CD
310
4D6E0040000000128040000000000000001680020000000F800D001C807F7FD2C04500000000000000004002000990DBDB1BDC97CD4CAE0040000000128040000000000000001680020000000F800A001C807F7FD2C04500000000000000004002000990DBDB1BDC97CD0C2E00400000001280400000000000000016800200
310
00000F800A401C807F7FD2C04500000000000000004002000990DBDB1BDC97CD0C6E0040000000128040000000000000001680020000000F800AC01C807F7FD2C04500000000000000004002000990DBDB1BDC97CD0CEE0040000000128040000000000000001680020000000F800A801C807F7FD2C0450000000000000000
310
4002000990DBDB1BDC97CD0CAE0040000000128040000000000000001680020000000F800B001C807F7FD2C04500000000000000004002000990DBDB1BDC97CD0D2E0040000000128040000000000000001680020000000F800B801C807F7FD2C04500000000000000004002000990DBDB1BDC97CD0DAE0040000000128040
310
000000000000001680020000000F800B401C807F7FD2C04500000000000000004002000990DBDB1BDC97CD0D6E0040000000128040000000000000001680020000000F800BC01C807F7FD2C04500000000000000004002000990DBDB1BDC97CD0DEE0040000000128040000000000000001680020000000F800E001C807F7F
310
D2C04500000000000000004002000990DBDB1BDC97CD4DAE0040000000128040000000000000001680020000000F8000C01C807F7FD2C04500000000000000004001C00990DBDB1BDC97CCEE0040000000128040000000000000001680020000000F800F001C807F7FD2C04500000000000000004002000990DBDB1BDC97CD
310
8C2E0040000000128040000000000000001680020000000F8014001C807F7FD2C04500000000000000004002000990DBDB1BDC97CE0C2E0040000000128040000000000000001680020000000F8019001C807F7FD2C04500000000000000004002400990DBDB1BDC97CC4C0C2E004000000012804000000000000000168002
310
0000000F800F401C807F7FD2C04500000000000000004002000990DBDB1BDC97CD8C6E0040000000128040000000000000001680020000000F8014401C807F7FD2C04500000000000000004002000990DBDB1BDC97CE0C6E0040000000128040000000000000001680020000000F8019401C807F7FD2C04500000000000000
310
004002400990DBDB1BDC97CC4C0C6E0040000000128040000000000000001680020000000F800FC01C807F7FD2C04500000000000000004002000990DBDB1BDC97CD8CEE0040000000128040000000000000001680020000000F8017401C807F7FD2C04500000000000000004002000990DBDB1BDC97CE4CEE004000000012
310
8040000000000000001680020000000F8012C01C807F7FD2C04500000000000000004002000990DBDB1BDC97CDCD6E0040000000128040000000000000001680020000000F801A401C807F7FD2C04500000000000000004002400990DBDB1BDC97CC4C0D6E0040000000128040000000000000001680020000000F8012801C
310
807F7FD2C04500000000000000004002000990DBDB1BDC97CDCD2E0040000000128040000000000000001680020000000F801A801C807F7FD2C04500000000000000004002400990DBDB1BDC97CC4C0DAE0040000000128040000000000000001680020000000F8001001C807F7FD2C04500000000000000004001C00990DB
310
DB1BDC97CD2E0040000000128040000000000000001680020000000F8021001C807F7FD2C04500000000000000004002400990DBDB1BDC97CC4CCCAE0040000000128040000000000000001680020000000F8022001C807F7FD2C04500000000000000004002400990DBDB1BDC97CC4CCDAE00400000001280400000000000
310
00001680020000000F8023001C807F7FD2C04500000000000000004002400990DBDB1BDC97CC4D0C2E0040000000128040000000000000001680020000000F8023801C807F7FD2C04500000000000000004002400990DBDB1BDC97CC4D0CAE0040000000128040000000000000001680020000000F8024001C807F7FD2C045
310
00000000000000004002400990DBDB1BDC97CC4D0D2E0040000000128040000000000000001680020000000F801EC01C807F7FD2C04500000000000000004002400990DBDB1BDC97CC4C8CEE0040000000128040000000000000001680020000000F8021C01C807F7FD2C04500000000000000004002400990DBDB1BDC97CC
310
4CCD6E0040000000128040000000000000001680020000000F8025C01C807F7FD2C04500000000000000004002400990DBDB1BDC97CC4D4C6E0040000000128040000000000000001680020000000F8028401C807F7FD2C04500000000000000004002400990DBDB1BDC97CC4D8C6E00400000001280400000000000000016
310
80020000000F8026001C807F7FD2C04500000000000000004002400990DBDB1BDC97CC4D4CAE0040000000128040000000000000001680020000000F8001401C807F7FD2C04500000000000000004001C00990DBDB1BDC97CD6E0040000000128040000000000000001680020000000F803F001C807F7FD2C0450000000000
310
0000004002400990DBDB1BDC97CC8D4CAE0040000000128040000000000000001680020000000F8001C01C807F7FD2C04500000000000000004001C00990DBDB1BDC97CDEE004000000000
  0
DICTIONARY
  5
22B51
330
19DD5
100
AcDbDictionary
  3
ACAD_XREC_ROUNDTRIP
360
22B52
1001
ACAD
1000
TREAT_AS_HARD
1070
     1
  0
DICTIONARY
  5
22B53
330
19DCD
100
AcDbDictionary
  3
ACAD_XREC_ROUNDTRIP
360
22B54
1001
ACAD
1000
TREAT_AS_HARD
1070
     1
  0
DICTIONARY
  5
22B55
330
19DDD
100
AcDbDictionary
  3
ACAD_XREC_ROUNDTRIP
360
22B56
1001
ACAD
1000
TREAT_AS_HARD
1070
     1
  0
XRECORD
  5
22B52
102
{ACAD_REACTORS
330
22B51
102
}
330
22B51
100
AcDbXrecord
102
MATERIAL
148
0.0
149
0.0
149
0.0
 93
        0
 94
      127
282
     0
 72
     0
 77
     0
171
     0
175
     0
179
     0
273
     0
  0
XRECORD
  5
22B54
102
{ACAD_REACTORS
330
22B53
102
}
330
22B53
100
AcDbXrecord
102
MATERIAL
148
0.0
149
0.0
149
0.0
 93
        0
 94
      127
282
     0
 72
     0
 77
     0
171
     0
175
     0
179
     0
273
     0
  0
XRECORD
  5
22B56
102
{ACAD_REACTORS
330
22B55
102
}
330
22B55
100
AcDbXrecord
102
MATERIAL
148
0.0
149
0.0
149
0.0
 93
        0
 94
      127
282
     0
 72
     0
 77
     0
171
     0
175
     0
179
     0
273
     0
  0
ENDSEC
  0
EOF
