  0
SECTION
  2
HEADER
  9
$ACADVER
  1
AC1012
  9
$DWGCODEPAGE
  3
ansi_932
  9
$INSBASE
 10
0.0
 20
0.0
 30
0.0
  9
$EXTMIN
 10
403.596241615365
 20
-735.6595039365483
 30
0.0
  9
$EXTMAX
 10
762.096241615365
 20
-537.0833935450999
 30
0.0
  9
$LIMMIN
 10
0.0
 20
0.0
  9
$LIMMAX
 10
420.0
 20
297.0
  9
$ORTHOMODE
 70
     0
  9
$REGENMODE
 70
     1
  9
$FILLMODE
 70
     1
  9
$QTEXTMODE
 70
     0
  9
$MIRRTEXT
 70
     0
  9
$DRAGMODE
 70
     2
  9
$LTSCALE
 40
0.5
  9
$OSMODE
 70
 14463
  9
$ATTMODE
 70
     1
  9
$TEXTSIZE
 40
4.0
  9
$TRACEWID
 40
1.0
  9
$TEXTSTYLE
  7
STANDARD
  9
$CLAYER
  8
1TEXT
  9
$CELTYPE
  6
BYLAYER
  9
$CECOLOR
 62
   256
  9
$CELTSCALE
 40
1.0
  9
$DELOBJ
 70
     1
  9
$DISPSILH
 70
     0
  9
$DIMSCALE
 40
1.0
  9
$DIMASZ
 40
2.0
  9
$DIMEXO
 40
0.0
  9
$DIMDLI
 40
7.0
  9
$DIMRND
 40
0.0
  9
$DIMDLE
 40
0.0
  9
$DIMEXE
 40
1.0
  9
$DIMTP
 40
0.0
  9
$DIMTM
 40
0.0
  9
$DIMTXT
 40
3.5
  9
$DIMCEN
 40
0.0
  9
$DIMTSZ
 40
0.0
  9
$DIMTOL
 70
     0
  9
$DIMLIM
 70
     0
  9
$DIMTIH
 70
     0
  9
$DIMTOH
 70
     0
  9
$DIMSE1
 70
     0
  9
$DIMSE2
 70
     0
  9
$DIMTAD
 70
     1
  9
$DIMZIN
 70
     8
  9
$DIMBLK
  1

  9
$DIMASO
 70
     1
  9
$DIMSHO
 70
     1
  9
$DIMPOST
  1
 
  9
$DIMAPOST
  1

  9
$DIMALT
 70
     0
  9
$DIMALTD
 70
     2
  9
$DIMALTF
 40
25.4
  9
$DIMLFAC
 40
1.0
  9
$DIMTOFL
 70
     1
  9
$DIMTVP
 40
0.0
  9
$DIMTIX
 70
     0
  9
$DIMSOXD
 70
     0
  9
$DIMSAH
 70
     1
  9
$DIMBLK1
  1
OPEN30
  9
$DIMBLK2
  1
OPEN30
  9
$DIMSTYLE
  2
NEWX10
  9
$DIMCLRD
 70
   256
  9
$DIMCLRE
 70
   256
  9
$DIMCLRT
 70
   201
  9
$DIMTFAC
 40
0.7
  9
$DIMGAP
 40
0.7
  9
$DIMJUST
 70
     0
  9
$DIMSD1
 70
     0
  9
$DIMSD2
 70
     0
  9
$DIMTOLJ
 70
     1
  9
$DIMTZIN
 70
     8
  9
$DIMALTZ
 70
     0
  9
$DIMALTTZ
 70
     0
  9
$DIMFIT
 70
     2
  9
$DIMUPT
 70
     0
  9
$DIMUNIT
 70
     2
  9
$DIMDEC
 70
     2
  9
$DIMTDEC
 70
     4
  9
$DIMALTU
 70
     2
  9
$DIMALTTD
 70
     2
  9
$DIMTXSTY
  7
STANDARD
  9
$DIMAUNIT
 70
     0
  9
$LUNITS
 70
     2
  9
$LUPREC
 70
     4
  9
$SKETCHINC
 40
1.0
  9
$FILLETRAD
 40
1.0
  9
$AUNITS
 70
     0
  9
$AUPREC
 70
     2
  9
$MENU
  1
acad
  9
$ELEVATION
 40
0.0
  9
$PELEVATION
 40
0.0
  9
$THICKNESS
 40
0.0
  9
$LIMCHECK
 70
     0
  9
$CHAMFERA
 40
1.0
  9
$CHAMFERB
 40
1.0
  9
$CHAMFERC
 40
20.0
  9
$CHAMFERD
 40
0.0
  9
$SKPOLY
 70
     0
  9
$TDCREATE
 40
2453033.732663484
  9
$TDUPDATE
 40
2459535.387390023
  9
$TDINDWG
 40
2.855036169
  9
$TDUSRTIMER
 40
2.855036169
  9
$USRTIMER
 70
     1
  9
$ANGBASE
 50
0.0
  9
$ANGDIR
 70
     0
  9
$PDMODE
 70
     0
  9
$PDSIZE
 40
0.0
  9
$PLINEWID
 40
0.0
  9
$COORDS
 70
     2
  9
$SPLFRAME
 70
     0
  9
$SPLINETYPE
 70
     6
  9
$SPLINESEGS
 70
     8
  9
$ATTDIA
 70
     0
  9
$ATTREQ
 70
     1
  9
$HANDLING
 70
     1
  9
$HANDSEED
  5
21C11
  9
$SURFTAB1
 70
     6
  9
$SURFTAB2
 70
     6
  9
$SURFTYPE
 70
     6
  9
$SURFU
 70
     6
  9
$SURFV
 70
     6
  9
$UCSNAME
  2

  9
$UCSORG
 10
0.0
 20
0.0
 30
0.0
  9
$UCSXDIR
 10
1.0
 20
0.0
 30
0.0
  9
$UCSYDIR
 10
0.0
 20
1.0
 30
0.0
  9
$PUCSNAME
  2

  9
$PUCSORG
 10
0.0
 20
0.0
 30
0.0
  9
$PUCSXDIR
 10
1.0
 20
0.0
 30
0.0
  9
$PUCSYDIR
 10
0.0
 20
1.0
 30
0.0
  9
$USERI1
 70
     0
  9
$USERI2
 70
     0
  9
$USERI3
 70
     0
  9
$USERI4
 70
     0
  9
$USERI5
 70
     0
  9
$USERR1
 40
0.0
  9
$USERR2
 40
0.0
  9
$USERR3
 40
0.0
  9
$USERR4
 40
0.0
  9
$USERR5
 40
0.0
  9
$WORLDVIEW
 70
     1
  9
$SHADEDGE
 70
     3
  9
$SHADEDIF
 70
    70
  9
$TILEMODE
 70
     1
  9
$MAXACTVP
 70
    48
  9
$PINSBASE
 10
0.0
 20
0.0
 30
0.0
  9
$PLIMCHECK
 70
     0
  9
$PEXTMIN
 10
1.000000000000000E+20
 20
1.000000000000000E+20
 30
1.000000000000000E+20
  9
$PEXTMAX
 10
-1.000000000000000E+20
 20
-1.000000000000000E+20
 30
-1.000000000000000E+20
  9
$PLIMMIN
 10
0.0
 20
0.0
  9
$PLIMMAX
 10
420.0
 20
297.0
  9
$UNITMODE
 70
     0
  9
$VISRETAIN
 70
     1
  9
$PLINEGEN
 70
     0
  9
$PSLTSCALE
 70
     1
  9
$TREEDEPTH
 70
  3020
  9
$PICKSTYLE
 70
     0
  9
$CMLSTYLE
  2
STANDARD
  9
$CMLJUST
 70
     0
  9
$CMLSCALE
 40
20.0
  9
$SAVEIMAGES
 70
     1
  0
ENDSEC
  0
SECTION
  2
CLASSES
  0
CLASS
  1
DICTIONARYVAR
  2
AcDbDictionaryVar
  3
ObjectDBX Classes
 90
        0
280
     0
281
     0
  0
CLASS
  1
IDBUFFER
  2
AcDbIdBuffer
  3
ObjectDBX Classes
 90
    32768
280
     0
281
     0
  0
CLASS
  1
LWPOLYLINE
  2
AcDbPolyline
  3
ObjectDBX Classes
 90
    32768
280
     0
281
     1
  0
CLASS
  1
ACDBDICTIONARYWDFLT
  2
AcDbDictionaryWithDefault
  3
ObjectDBX Classes
 90
    32768
280
     0
281
     0
  0
CLASS
  1
ACDBPLACEHOLDER
  2
AcDbPlaceHolder
  3
ObjectDBX Classes
 90
        0
280
     0
281
     0
  0
CLASS
  1
LAYOUT
  2
AcDbLayout
  3
ObjectDBX Classes
 90
        0
280
     0
281
     0
  0
CLASS
  1
TABLESTYLE
  2
AcDbTableStyle
  3
ObjectDBX Classes
 90
     4095
280
     0
281
     0
  0
CLASS
  1
SORTENTSTABLE
  2
AcDbSortentsTable
  3
ObjectDBX Classes
 90
    32768
280
     0
281
     0
  0
CLASS
  1
DIMASSOC
  2
AcDbDimAssoc
  3
"AcDbDimAssoc|Product Desc:     AcDim ARX App For Dimension|Company:          Autodesk, Inc.|WEB Address:      www.autodesk.com"
 90
        0
280
     0
281
     0
  0
CLASS
  1
MATERIAL
  2
AcDbMaterial
  3
ObjectDBX Classes
 90
     1153
280
     0
281
     0
  0
CLASS
  1
VISUALSTYLE
  2
AcDbVisualStyle
  3
ObjectDBX Classes
 90
     4095
280
     0
281
     0
  0
CLASS
  1
SCALE
  2
AcDbScale
  3
ObjectDBX Classes
 90
     1153
280
     0
281
     0
  0
CLASS
  1
MLEADERSTYLE
  2
AcDbMLeaderStyle
  3
ACDB_MLEADERSTYLE_CLASS
 90
     4095
280
     0
281
     0
  0
CLASS
  1
CELLSTYLEMAP
  2
AcDbCellStyleMap
  3
ObjectDBX Classes
 90
     1152
280
     0
281
     0
  0
CLASS
  1
EXACXREFPANELOBJECT
  2
ExAcXREFPanelObject
  3
EXAC_ESW
 90
     1025
280
     1
281
     0
  0
CLASS
  1
NPOCOLLECTION
  2
AcDbImpNonPersistentObjectsCollection
  3
ObjectDBX Classes
 90
     1153
280
     1
281
     0
  0
CLASS
  1
SUN
  2
AcDbSun
  3
SCENEOE
 90
     1153
280
     0
281
     0
  0
CLASS
  1
XRECORD
  2
AcDbXrecord
  3
ObjectDBX Classes
 90
    32768
280
     0
281
     0
  0
CLASS
  1
HATCH
  2
AcDbHatch
  3
ObjectDBX Classes
 90
    32768
280
     0
281
     1
  0
ENDSEC
  0
SECTION
  2
TABLES
  0
TABLE
  2
VPORT
  5
8
330
0
100
AcDbSymbolTable
 70
     1
  0
VPORT
  5
19DC2
330
8
100
AcDbSymbolTableRecord
100
AcDbViewportTableRecord
  2
*ACTIVE
 70
     0
 10
0.0
 20
0.0
 11
1.0
 21
1.0
 12
582.846241615365
 22
-636.371448740824
 13
0.0
 23
0.0
 14
10.0
 24
10.0
 15
10.0
 25
10.0
 16
0.0
 26
0.0
 36
1.0
 17
0.0
 27
0.0
 37
0.0
 40
213.2080343150289
 41
2.137115839243499
 42
50.0
 43
0.0
 44
0.0
 50
0.0
 51
0.0
 71
    16
 72
   100
 73
     1
 74
     1
 75
     0
 76
     0
 77
     0
 78
     0
  0
ENDTAB
  0
TABLE
  2
LTYPE
  5
5
330
0
100
AcDbSymbolTable
 70
     3
  0
LTYPE
  5
12
330
5
100
AcDbSymbolTableRecord
100
AcDbLinetypeTableRecord
  2
BYBLOCK
 70
     0
  3

 72
    65
 73
     0
 40
0.0
  0
LTYPE
  5
13
330
5
100
AcDbSymbolTableRecord
100
AcDbLinetypeTableRecord
  2
BYLAYER
 70
     0
  3

 72
    65
 73
     0
 40
0.0
  0
LTYPE
  5
14
330
5
100
AcDbSymbolTableRecord
100
AcDbLinetypeTableRecord
  2
CONTINUOUS
 70
     0
  3
Solid line
 72
    65
 73
     0
 40
0.0
  0
LTYPE
  5
26
330
5
100
AcDbSymbolTableRecord
100
AcDbLinetypeTableRecord
  2
CENTER2
 70
     0
  3
Center (.5x) ___ _ ___ _ ___ _ ___ _ ___ _ ___
 72
    65
 73
     4
 40
28.575
 49
19.05
 74
     0
 49
-3.175
 74
     0
 49
3.175
 74
     0
 49
-3.175
 74
     0
  0
LTYPE
  5
100
330
5
100
AcDbSymbolTableRecord
100
AcDbLinetypeTableRecord
  2
PHANTOM2
 70
     0
  3
Phantom (0.5x) ___ _ _ ___ _ _ ___ _ _ ___ _ _
 72
    65
 73
     6
 40
31.75
 49
15.875
 74
     0
 49
-3.175
 74
     0
 49
3.175
 74
     0
 49
-3.175
 74
     0
 49
3.175
 74
     0
 49
-3.175
 74
     0
  0
ENDTAB
  0
TABLE
  2
LAYER
  5
2
102
{ACAD_XDICTIONARY
360
18FE8
102
}
330
0
100
AcDbSymbolTable
 70
     6
  0
LAYER
  5
E
102
{ACAD_XDICTIONARY
360
1A20A
102
}
330
2
100
AcDbSymbolTableRecord
100
AcDbLayerTableRecord
  2
0
 70
     0
 62
     7
  6
CONTINUOUS
  0
LAYER
  5
29
102
{ACAD_XDICTIONARY
360
1A20C
102
}
330
2
100
AcDbSymbolTableRecord
100
AcDbLayerTableRecord
  2
1CENTER
 70
     0
 62
     7
  6
CENTER2
  0
LAYER
  5
31
102
{ACAD_XDICTIONARY
360
1A20E
102
}
330
2
100
AcDbSymbolTableRecord
100
AcDbLayerTableRecord
  2
1TEXT
 70
     0
 62
     7
  6
CONTINUOUS
  0
LAYER
  5
101
102
{ACAD_XDICTIONARY
360
1A218
102
}
330
2
100
AcDbSymbolTableRecord
100
AcDbLayerTableRecord
  2
1DIM
 70
     0
 62
     7
  6
CONTINUOUS
  0
LAYER
  5
103
102
{ACAD_XDICTIONARY
360
1A21C
102
}
330
2
100
AcDbSymbolTableRecord
100
AcDbLayerTableRecord
  2
1PHANTOM
 70
     0
 62
     7
  6
PHANTOM2
  0
LAYER
  5
25F
102
{ACAD_XDICTIONARY
360
1A220
102
}
330
2
100
AcDbSymbolTableRecord
100
AcDbLayerTableRecord
  2
01
 70
     0
 62
     1
  6
CONTINUOUS
  0
ENDTAB
  0
TABLE
  2
STYLE
  5
3
330
0
100
AcDbSymbolTable
 70
     1
  0
STYLE
  5
F
330
3
100
AcDbSymbolTableRecord
100
AcDbTextStyleTableRecord
  2
STANDARD
 70
     0
 40
0.0
 41
1.0
 50
0.0
 71
     0
 42
4.0
  3
txt.shx
  4
extfont.shx
  0
ENDTAB
  0
TABLE
  2
VIEW
  5
6
330
0
100
AcDbSymbolTable
 70
     0
  0
ENDTAB
  0
TABLE
  2
UCS
  5
7
330
0
100
AcDbSymbolTable
 70
     0
  0
ENDTAB
  0
TABLE
  2
APPID
  5
9
330
0
100
AcDbSymbolTable
 70
    19
  0
APPID
  5
10
330
9
100
AcDbSymbolTableRecord
100
AcDbRegAppTableRecord
  2
ACAD
 70
     0
  0
APPID
  5
21
330
9
100
AcDbSymbolTableRecord
100
AcDbRegAppTableRecord
  2
DRAWINGVARIABLESXDATA
 70
     0
  0
APPID
  5
64
330
9
100
AcDbSymbolTableRecord
100
AcDbRegAppTableRecord
  2
CONTENTTABDATA
 70
     0
  0
APPID
  5
65
330
9
100
AcDbSymbolTableRecord
100
AcDbRegAppTableRecord
  2
CONTENTCURRENTTAB
 70
     0
  0
APPID
  5
66
330
9
100
AcDbSymbolTableRecord
100
AcDbRegAppTableRecord
  2
CONTENTBLOCKDESCRIPTION
 70
     0
  0
APPID
  5
67
330
9
100
AcDbSymbolTableRecord
100
AcDbRegAppTableRecord
  2
CONTENTBLOCKICON
 70
     0
  0
APPID
  5
68
330
9
100
AcDbSymbolTableRecord
100
AcDbRegAppTableRecord
  2
CONTENTLONGBLOCKNAME
 70
     0
  0
APPID
  5
5A9
330
9
100
AcDbSymbolTableRecord
100
AcDbRegAppTableRecord
  2
ACAD_PSEXT
 70
     0
  0
APPID
  5
18AC
330
9
100
AcDbSymbolTableRecord
100
AcDbRegAppTableRecord
  2
ACAD_DSTYLE_DIMTEXT_FILL
 70
     0
  0
APPID
  5
19E1A
330
9
100
AcDbSymbolTableRecord
100
AcDbRegAppTableRecord
  2
ACAD_MLEADERVER
 70
     0
  0
APPID
  5
1A2FA
330
9
100
AcDbSymbolTableRecord
100
AcDbRegAppTableRecord
  2
ACAD_DSTYLE_DIMRADIAL_EXTE
 70
     0
  0
APPID
  5
1DBC1
330
9
100
AcDbSymbolTableRecord
100
AcDbRegAppTableRecord
  2
ACADANNOTATIVE
 70
     0
  0
APPID
  5
1E991
330
9
100
AcDbSymbolTableRecord
100
AcDbRegAppTableRecord
  2
ACAD_EXEMPT_FROM_CAD_STAND
 70
     0
  0
APPID
  5
1FE7A
330
9
100
AcDbSymbolTableRecord
100
AcDbRegAppTableRecord
  2
ACDBBLOCKREPETAG
 70
     0
  0
APPID
  5
20672
330
9
100
AcDbSymbolTableRecord
100
AcDbRegAppTableRecord
  2
ACAD_OBJECT_CHANGE_GUID
 70
     0
  0
APPID
  5
20842
330
9
100
AcDbSymbolTableRecord
100
AcDbRegAppTableRecord
  2
ACAD_DSTYLE_DIMJAG
 70
     0
  0
APPID
  5
20843
330
9
100
AcDbSymbolTableRecord
100
AcDbRegAppTableRecord
  2
ACAD_DSTYLE_DIMTALN
 70
     0
  0
APPID
  5
20844
330
9
100
AcDbSymbolTableRecord
100
AcDbRegAppTableRecord
  2
ACLAYERTOOLS
 70
     0
  0
APPID
  5
20845
330
9
100
AcDbSymbolTableRecord
100
AcDbRegAppTableRecord
  2
ACAD_NAV_VCDISPLAY
 70
     0
  0
ENDTAB
  0
TABLE
  2
DIMSTYLE
  5
A
330
0
100
AcDbSymbolTable
 70
     2
  0
DIMSTYLE
105
48
330
A
100
AcDbSymbolTableRecord
100
AcDbDimStyleTableRecord
  2
NEWX10
 70
     0
  3
 
  4

  5

  6
OPEN30
  7
OPEN30
 40
1.0
 41
2.0
 42
0.0
 43
7.0
 44
1.0
 45
0.0
 46
0.0
 47
0.0
 48
0.0
140
3.5
141
0.0
142
0.0
143
25.4
144
1.0
145
0.0
146
0.7
147
0.7
 71
     0
 72
     0
 73
     0
 74
     0
 75
     0
 76
     0
 77
     1
 78
     8
170
     0
171
     2
172
     1
173
     1
174
     0
175
     0
176
   256
177
   256
178
   201
179
     2
270
     2
271
     2
272
     4
273
     2
274
     2
340
F
275
     0
280
     0
281
     0
282
     0
283
     1
284
     8
285
     0
286
     0
287
     2
288
     0
  0
DIMSTYLE
105
206DE
330
A
100
AcDbSymbolTableRecord
100
AcDbDimStyleTableRecord
  2
ISO-25
 70
     0
  3

  4

  5

  6

  7

 40
1.0
 41
2.5
 42
0.625
 43
3.75
 44
1.25
 45
0.0
 46
0.0
 47
0.0
 48
0.0
140
2.5
141
2.5
142
0.0
143
0.03937007874016
144
1.0
145
0.0
146
1.0
147
0.625
 71
     0
 72
     0
 73
     0
 74
     0
 75
     0
 76
     0
 77
     1
 78
     8
170
     0
171
     3
172
     1
173
     0
174
     0
175
     0
176
     0
177
     0
178
     0
270
     2
271
     2
272
     2
273
     2
274
     3
340
F
275
     0
280
     0
281
     0
282
     0
283
     0
284
     8
285
     0
286
     0
287
     3
288
     0
  0
ENDTAB
  0
TABLE
  2
BLOCK_RECORD
  5
1
330
0
100
AcDbSymbolTable
 70
     8
  0
BLOCK_RECORD
  5
18
102
{ACAD_XDICTIONARY
360
6E9
102
}
330
1
100
AcDbSymbolTableRecord
100
AcDbBlockTableRecord
  2
*MODEL_SPACE
  0
BLOCK_RECORD
  5
15
102
{ACAD_XDICTIONARY
360
59B
102
}
330
1
100
AcDbSymbolTableRecord
100
AcDbBlockTableRecord
  2
*PAPER_SPACE
  0
BLOCK_RECORD
  5
42
330
1
100
AcDbSymbolTableRecord
100
AcDbBlockTableRecord
  2
_OPEN30
  0
BLOCK_RECORD
  5
1FEC9
330
1
100
AcDbSymbolTableRecord
100
AcDbBlockTableRecord
  2
A3WAKUKAWAJUN2017_HYOUDAI_
  0
BLOCK_RECORD
  5
21A71
330
1
100
AcDbSymbolTableRecord
100
AcDbBlockTableRecord
  2
*X60
  0
BLOCK_RECORD
  5
21ABF
330
1
100
AcDbSymbolTableRecord
100
AcDbBlockTableRecord
  2
*X61
  0
BLOCK_RECORD
  5
21B11
330
1
100
AcDbSymbolTableRecord
100
AcDbBlockTableRecord
  2
*X62
  0
BLOCK_RECORD
  5
21B62
330
1
100
AcDbSymbolTableRecord
100
AcDbBlockTableRecord
  2
*X63
  0
BLOCK_RECORD
  5
21B9F
330
1
100
AcDbSymbolTableRecord
100
AcDbBlockTableRecord
  2
*X64
  0
BLOCK_RECORD
  5
21BDF
330
1
100
AcDbSymbolTableRecord
100
AcDbBlockTableRecord
  2
*X65
  0
ENDTAB
  0
ENDSEC
  0
SECTION
  2
BLOCKS
  0
BLOCK
  5
19
330
18
100
AcDbEntity
  8
0
100
AcDbBlockBegin
  2
*MODEL_SPACE
 70
     0
 10
0.0
 20
0.0
 30
0.0
  3
*MODEL_SPACE
  1

  0
ENDBLK
  5
1A
330
18
100
AcDbEntity
  8
0
100
AcDbBlockEnd
  0
BLOCK
  5
16
330
15
100
AcDbEntity
 67
     1
  8
0
100
AcDbBlockBegin
  2
*PAPER_SPACE
 70
     0
 10
0.0
 20
0.0
 30
0.0
  3
*PAPER_SPACE
  1

  0
ENDBLK
  5
17
330
15
100
AcDbEntity
 67
     1
  8
0
100
AcDbBlockEnd
  0
BLOCK
  5
43
330
42
100
AcDbEntity
  8
0
100
AcDbBlockBegin
  2
_OPEN30
 70
     0
 10
0.0
 20
0.0
 30
0.0
  3
_OPEN30
  1

  0
LINE
  5
44
330
42
100
AcDbEntity
  8
0
  6
BYBLOCK
 62
     0
100
AcDbLine
 10
-1.0
 20
0.26794919
 30
0.0
 11
0.0
 21
0.0
 31
0.0
  0
LINE
  5
45
330
42
100
AcDbEntity
  8
0
  6
BYBLOCK
 62
     0
100
AcDbLine
 10
0.0
 20
0.0
 30
0.0
 11
-1.0
 21
-0.26794919
 31
0.0
  0
LINE
  5
46
330
42
100
AcDbEntity
  8
0
  6
BYBLOCK
 62
     0
100
AcDbLine
 10
0.0
 20
0.0
 30
0.0
 11
-1.0
 21
0.0
 31
0.0
  0
ENDBLK
  5
47
330
42
100
AcDbEntity
  8
0
100
AcDbBlockEnd
  0
BLOCK
  5
205D5
330
1FEC9
100
AcDbEntity
  8
0
100
AcDbBlockBegin
  2
A3WAKUKAWAJUN2017_HYOUDAI_
 70
     0
 10
0.0
 20
0.0
 30
0.0
  3
A3WAKUKAWAJUN2017_HYOUDAI_
  1

  0
LINE
  5
1FECB
330
1FEC9
100
AcDbEntity
  8
0
100
AcDbLine
 10
13.26299999998673
 20
-0.0001000000000317
 30
0.0
 11
9.236999999990758
 21
8.999899999990987
 31
0.0
1001
ACAD
1000
ASC_BOUNDS
1002
{
1070
    19
1005
1FF0C
1002
}
  0
LINE
  5
1FECC
330
1FEC9
100
AcDbEntity
  8
0
100
AcDbLine
 10
5.657999999994331
 20
0.9999999999989768
 30
0.0
 11
9.236999999990758
 21
8.999999999991019
 31
0.0
1001
ACAD
1000
ASC_BOUNDS
1002
{
1070
    19
1005
1FF0C
1002
}
  0
LINE
  5
1FECD
330
1FEC9
100
AcDbEntity
  8
0
100
AcDbLine
 10
18.59199999998134
 20
-0.2368999999997641
 30
0.0
 11
16.46099999998353
 21
5.432899999994561
 31
0.0
1001
ACAD
1000
ASC_BOUNDS
1002
{
1070
    19
1005
1FF0D
1002
}
  0
LINE
  5
1FECE
330
1FEC9
100
AcDbEntity
  8
0
100
AcDbLine
 10
18.59199999998134
 20
-0.2368999999997641
 30
0.0
 11
22.38199999997767
 21
8.763099999991255
 31
0.0
1001
ACAD
1000
ASC_BOUNDS
1002
{
1070
    19
1005
1FF0D
1002
}
  0
LINE
  5
1FECF
330
1FEC9
100
AcDbEntity
  8
0
100
AcDbLine
 10
14.32899999998563
 20
-0.2368999999997641
 30
0.0
 11
16.46099999998353
 21
5.432899999994561
 31
0.0
1001
ACAD
1000
ASC_BOUNDS
1002
{
1070
    19
1005
1FF0D
1002
}
  0
LINE
  5
1FED0
330
1FEC9
100
AcDbEntity
  8
0
100
AcDbLine
 10
14.32899999998563
 20
-0.2368999999997641
 30
0.0
 11
10.53899999998941
 21
8.763099999991255
 31
0.0
1001
ACAD
1000
ASC_BOUNDS
1002
{
1070
    19
1005
1FF0D
1002
}
  0
LINE
  5
1FED1
330
1FEC9
100
AcDbEntity
  8
0
100
AcDbLine
 10
19.53899999998043
 20
-0.0001000000000317
 30
0.0
 11
23.56599999997638
 21
8.999899999990987
 31
0.0
1001
ACAD
1000
ASC_BOUNDS
1002
{
1070
    19
1005
1FF0E
1002
}
  0
LINE
  5
1FED2
330
1FEC9
100
AcDbEntity
  8
0
100
AcDbLine
 10
26.97358892824991
 20
1.383099999991202
 30
0.0
 11
23.56599999997638
 21
8.999899999990987
 31
0.0
1001
ACAD
1000
ASC_BOUNDS
1002
{
1070
    19
1005
1FF0E
1002
}
  0
LINE
  5
1FED3
330
1FEC9
100
AcDbEntity
  8
0
100
AcDbLine
 10
5.657999999994331
 20
0.9999999999989768
 30
0.0
 11
3.181999999996833
 21
4.668599999995308
 31
0.0
1001
ACAD
1000
ASC_BOUNDS
1002
{
1070
    19
1005
1FF0C
1002
}
  0
LINE
  5
1FED4
330
1FEC9
100
AcDbEntity
  8
0
100
AcDbLine
 10
4.617999999995391
 20
-0.0001000000000317
 30
0.0
 11
1.420999999998571
 21
4.736799999995242
 31
0.0
1001
ACAD
1000
ASC_BOUNDS
1002
{
1070
    19
1005
1FF0C
1002
}
  0
LINE
  5
1FED5
330
1FEC9
100
AcDbEntity
  8
0
100
AcDbLine
 10
1.420999999998571
 20
8.763099999991255
 30
0.0
 11
1.420999999998571
 21
0.0
 31
0.0
1001
ACAD
1000
ASC_BOUNDS
1002
{
1070
    19
1005
1FF11
1002
}
  0
LINE
  5
1FED6
330
1FEC9
100
AcDbEntity
  8
0
100
AcDbLine
 10
0.0
 20
8.763099999991255
 30
0.0
 11
0.0
 21
0.0
 31
0.0
1001
ACAD
1000
ASC_BOUNDS
1002
{
1070
    19
1005
1FF11
1002
}
  0
LINE
  5
1FED7
330
1FEC9
100
AcDbEntity
  8
0
100
AcDbLine
 10
6.766999999993232
 20
-0.0001000000000317
 30
0.0
 11
7.826999999992154
 21
2.368399999997621
 31
0.0
1001
ACAD
1000
ASC_BOUNDS
1002
{
1070
    19
1005
1FF0C
1002
}
  0
LINE
  5
1FED8
330
1FEC9
100
AcDbEntity
  8
0
100
AcDbLine
 10
0.0
 20
0.0
 30
0.0
 11
1.420999999998571
 21
0.0
 31
0.0
1001
ACAD
1000
ASC_BOUNDS
1002
{
1070
    19
1005
1FF11
1002
}
  0
LINE
  5
1FED9
330
1FEC9
100
AcDbEntity
  8
0
100
AcDbLine
 10
4.617999999995391
 20
0.0
 30
0.0
 11
6.766999999993232
 21
0.0
 31
0.0
1001
ACAD
1000
ASC_BOUNDS
1002
{
1070
    19
1005
1FF0C
1002
}
  0
LINE
  5
1FEDA
330
1FEC9
100
AcDbEntity
  8
0
100
AcDbLine
 10
11.70599999998831
 20
-0.0001000000000317
 30
0.0
 11
10.64699999998936
 21
2.368399999997621
 31
0.0
1001
ACAD
1000
ASC_BOUNDS
1002
{
1070
    19
1005
1FF0C
1002
}
  0
LINE
  5
1FEDB
330
1FEC9
100
AcDbEntity
  8
0
100
AcDbLine
 10
7.826999999992154
 20
2.368399999997621
 30
0.0
 11
10.64699999998936
 21
2.368399999997621
 31
0.0
1001
ACAD
1000
ASC_BOUNDS
1002
{
1070
    19
1005
1FF0C
1002
}
  0
LINE
  5
1FEDC
330
1FEC9
100
AcDbEntity
  8
0
100
AcDbLine
 10
11.70599999998831
 20
0.0
 30
0.0
 11
13.26299999998673
 21
0.0
 31
0.0
1001
ACAD
1000
ASC_BOUNDS
1002
{
1070
    19
1005
1FF0C
1002
}
  0
LINE
  5
1FEDD
330
1FEC9
100
AcDbEntity
  8
0
100
AcDbLine
 10
22.15599999997789
 20
2.368399999997621
 30
0.0
 11
24.97599999997499
 21
2.368399999997621
 31
0.0
1001
ACAD
1000
ASC_BOUNDS
1002
{
1070
    19
1005
1FF0E
1002
}
  0
LINE
  5
1FEDE
330
1FEC9
100
AcDbEntity
  8
0
100
AcDbLine
 10
19.53899999998043
 20
0.0
 30
0.0
 11
21.09599999997886
 21
0.0
 31
0.0
1001
ACAD
1000
ASC_BOUNDS
1002
{
1070
    19
1005
1FF0E
1002
}
  0
LINE
  5
1FEDF
330
1FEC9
100
AcDbEntity
  8
0
100
AcDbLine
 10
21.09599999997886
 20
-0.0001000000000317
 30
0.0
 11
22.15599999997789
 21
2.368399999997621
 31
0.0
1001
ACAD
1000
ASC_BOUNDS
1002
{
1070
    19
1005
1FF0E
1002
}
  0
LINE
  5
1FEE0
330
1FEC9
100
AcDbEntity
  8
0
100
AcDbLine
 10
26.02015566812236
 20
0.0330999999912365
 30
0.0
 11
24.97599999997499
 21
2.368399999997621
 31
0.0
1001
ACAD
1000
ASC_BOUNDS
1002
{
1070
    19
1005
1FF0E
1002
}
  0
LINE
  5
1FEE1
330
1FEC9
100
AcDbEntity
  8
0
100
AcDbLine
 10
14.32399999998563
 20
3.315799999996671
 30
0.0
 11
16.46099999998353
 21
8.999899999990987
 31
0.0
1001
ACAD
1000
ASC_BOUNDS
1002
{
1070
    19
1005
1FF0D
1002
}
  0
LINE
  5
1FEE2
330
1FEC9
100
AcDbEntity
  8
0
100
AcDbLine
 10
6.432999999993513
 20
8.763099999991255
 30
0.0
 11
3.181999999996833
 21
4.668599999995308
 31
0.0
1001
ACAD
1000
ASC_BOUNDS
1002
{
1070
    19
1005
1FF0C
1002
}
  0
LINE
  5
1FEE3
330
1FEC9
100
AcDbEntity
  8
0
100
AcDbLine
 10
4.617999999995391
 20
8.763099999991255
 30
0.0
 11
1.420999999998571
 21
4.736799999995242
 31
0.0
1001
ACAD
1000
ASC_BOUNDS
1002
{
1070
    19
1005
1FF0C
1002
}
  0
LINE
  5
1FEE4
330
1FEC9
100
AcDbEntity
  8
0
100
AcDbLine
 10
0.0
 20
8.763099999991255
 30
0.0
 11
1.420999999998571
 21
8.763099999991255
 31
0.0
1001
ACAD
1000
ASC_BOUNDS
1002
{
1070
    19
1005
1FF11
1002
}
  0
LINE
  5
1FEE5
330
1FEC9
100
AcDbEntity
  8
0
100
AcDbLine
 10
4.617999999995391
 20
8.763099999991255
 30
0.0
 11
6.432999999993513
 21
8.763099999991255
 31
0.0
1001
ACAD
1000
ASC_BOUNDS
1002
{
1070
    19
1005
1FF0C
1002
}
  0
LINE
  5
1FEE6
330
1FEC9
100
AcDbEntity
  8
0
100
AcDbLine
 10
14.32399999998563
 20
3.315799999996671
 30
0.0
 11
12.02999999998792
 21
8.763099999991255
 31
0.0
1001
ACAD
1000
ASC_BOUNDS
1002
{
1070
    19
1005
1FF0D
1002
}
  0
LINE
  5
1FEE7
330
1FEC9
100
AcDbEntity
  8
0
100
AcDbLine
 10
10.06399999998996
 20
3.670999999996297
 30
0.0
 11
9.236999999990758
 21
5.5200999999945
 31
0.0
1001
ACAD
1000
ASC_BOUNDS
1002
{
1070
    19
1005
1FF0C
1002
}
  0
LINE
  5
1FEE8
330
1FEC9
100
AcDbEntity
  8
0
100
AcDbLine
 10
8.409999999991555
 20
3.670999999996297
 30
0.0
 11
9.236999999990758
 21
5.5200999999945
 31
0.0
1001
ACAD
1000
ASC_BOUNDS
1002
{
1070
    19
1005
1FF0C
1002
}
  0
LINE
  5
1FEE9
330
1FEC9
100
AcDbEntity
  8
0
100
AcDbLine
 10
8.409999999991555
 20
3.670999999996297
 30
0.0
 11
10.06399999998996
 21
3.670999999996297
 31
0.0
1001
ACAD
1000
ASC_BOUNDS
1002
{
1070
    19
1005
1FF0C
1002
}
  0
LINE
  5
1FEEA
330
1FEC9
100
AcDbEntity
  8
0
100
AcDbLine
 10
10.53899999998941
 20
8.763099999991255
 30
0.0
 11
12.02999999998792
 21
8.763099999991255
 31
0.0
1001
ACAD
1000
ASC_BOUNDS
1002
{
1070
    19
1005
1FF0D
1002
}
  0
LINE
  5
1FEEB
330
1FEC9
100
AcDbEntity
  8
0
100
AcDbLine
 10
22.7389999999773
 20
3.670999999996297
 30
0.0
 11
23.56599999997638
 21
5.5200999999945
 31
0.0
1001
ACAD
1000
ASC_BOUNDS
1002
{
1070
    19
1005
1FF0E
1002
}
  0
LINE
  5
1FEEC
330
1FEC9
100
AcDbEntity
  8
0
100
AcDbLine
 10
22.7389999999773
 20
3.670999999996297
 30
0.0
 11
24.39299999997559
 21
3.670999999996297
 31
0.0
1001
ACAD
1000
ASC_BOUNDS
1002
{
1070
    19
1005
1FF0E
1002
}
  0
LINE
  5
1FEED
330
1FEC9
100
AcDbEntity
  8
0
100
AcDbLine
 10
18.59799999998143
 20
3.315799999996671
 30
0.0
 11
20.89099999997916
 21
8.763099999991255
 31
0.0
1001
ACAD
1000
ASC_BOUNDS
1002
{
1070
    19
1005
1FF0D
1002
}
  0
LINE
  5
1FEEE
330
1FEC9
100
AcDbEntity
  8
0
100
AcDbLine
 10
18.59799999998143
 20
3.315799999996671
 30
0.0
 11
16.46099999998353
 21
8.999899999990987
 31
0.0
1001
ACAD
1000
ASC_BOUNDS
1002
{
1070
    19
1005
1FF0D
1002
}
  0
LINE
  5
1FEEF
330
1FEC9
100
AcDbEntity
  8
0
100
AcDbLine
 10
20.89099999997916
 20
8.763099999991255
 30
0.0
 11
22.38199999997767
 21
8.763099999991255
 31
0.0
1001
ACAD
1000
ASC_BOUNDS
1002
{
1070
    19
1005
1FF0D
1002
}
  0
LINE
  5
1FEF0
330
1FEC9
100
AcDbEntity
  8
0
100
AcDbLine
 10
24.39299999997559
 20
3.670999999996297
 30
0.0
 11
23.56599999997638
 21
5.5200999999945
 31
0.0
1001
ACAD
1000
ASC_BOUNDS
1002
{
1070
    19
1005
1FF0E
1002
}
  0
LINE
  5
1FEF1
330
1FEC9
100
AcDbEntity
  8
0
100
AcDbLine
 10
44.99999999995498
 20
-0.2368999999997641
 30
0.0
 11
40.02599999995994
 21
5.341799999994635
 31
0.0
1001
ACAD
1000
ASC_BOUNDS
1002
{
1070
    19
1005
1FF10
1002
}
  0
LINE
  5
1FEF2
330
1FEC9
100
AcDbEntity
  8
0
100
AcDbLine
 10
40.02599999995994
 20
5.341799999994635
 30
0.0
 11
40.02599999995994
 21
0.0
 31
0.0
1001
ACAD
1000
ASC_BOUNDS
1002
{
1070
    19
1005
1FF10
1002
}
  0
LINE
  5
1FEF3
330
1FEC9
100
AcDbEntity
  8
0
100
AcDbLine
 10
38.60499999996136
 20
8.999999999991019
 30
0.0
 11
38.60499999996136
 21
0.0
 31
0.0
1001
ACAD
1000
ASC_BOUNDS
1002
{
1070
    19
1005
1FF10
1002
}
  0
LINE
  5
1FEF4
330
1FEC9
100
AcDbEntity
  8
0
100
AcDbLine
 10
44.99999999995498
 20
8.763099999991255
 30
0.0
 11
44.99999999995498
 21
-0.2368999999997641
 31
0.0
1001
ACAD
1000
ASC_BOUNDS
1002
{
1070
    19
1005
1FF10
1002
}
  0
LINE
  5
1FEF5
330
1FEC9
100
AcDbEntity
  8
0
100
AcDbLine
 10
38.60499999996136
 20
0.0
 30
0.0
 11
40.02599999995994
 21
0.0
 31
0.0
1001
ACAD
1000
ASC_BOUNDS
1002
{
1070
    19
1005
1FF10
1002
}
  0
LINE
  5
1FEF6
330
1FEC9
100
AcDbEntity
  8
0
100
AcDbLine
 10
43.57899999995641
 20
3.421199999996588
 30
0.0
 11
38.60499999996136
 21
8.999899999990987
 31
0.0
1001
ACAD
1000
ASC_BOUNDS
1002
{
1070
    19
1005
1FF10
1002
}
  0
LINE
  5
1FEF7
330
1FEC9
100
AcDbEntity
  8
0
100
AcDbLine
 10
43.57899999995641
 20
8.763099999991255
 30
0.0
 11
43.57899999995641
 21
3.421199999996588
 31
0.0
1001
ACAD
1000
ASC_BOUNDS
1002
{
1070
    19
1005
1FF10
1002
}
  0
LINE
  5
1FEF8
330
1FEC9
100
AcDbEntity
  8
0
100
AcDbLine
 10
43.57899999995641
 20
8.763099999991255
 30
0.0
 11
44.99999999995498
 21
8.763099999991255
 31
0.0
1001
ACAD
1000
ASC_BOUNDS
1002
{
1070
    19
1005
1FF10
1002
}
  0
LINE
  5
1FEF9
330
1FEC9
100
AcDbEntity
  8
0
100
AcDbLine
 10
37.67199999996831
 20
8.763099999991255
 30
0.0
 11
36.23199999996837
 21
8.763099999991255
 31
0.0
  0
LINE
  5
1FEFA
330
1FEC9
100
AcDbEntity
  8
0
100
AcDbLine
 10
31.64199999996833
 20
8.763099999991255
 30
0.0
 11
31.64199999996833
 21
2.481619422925121
 31
0.0
  0
LINE
  5
1FEFB
330
1FEC9
100
AcDbEntity
  8
0
100
AcDbLine
 10
37.67199999996831
 20
8.763099999991255
 30
0.0
 11
37.67199999996831
 21
2.481619422925121
 31
0.0
  0
LINE
  5
1FEFC
330
1FEC9
100
AcDbEntity
  8
0
100
AcDbLine
 10
36.23199999996837
 20
8.763099999991255
 30
0.0
 11
36.23199999996837
 21
2.481619422925064
 31
0.0
  0
LINE
  5
1FEFD
330
1FEC9
100
AcDbEntity
  8
0
100
AcDbLine
 10
33.08199999996839
 20
8.763099999991255
 30
0.0
 11
33.08199999996839
 21
2.481619422925121
 31
0.0
  0
ARC
  5
1FEFE
330
1FEC9
100
AcDbEntity
  8
0
100
AcDbCircle
 10
34.65699999996832
 20
3.183099999991214
 30
0.0
 40
3.420000000000007
100
AcDbArc
 50
240.0000000000255
 51
299.9999999999766
  0
ARC
  5
1FEFF
330
1FEC9
100
AcDbEntity
  8
0
100
AcDbCircle
 10
34.65699999996832
 20
3.183099999991214
 30
0.0
 40
1.97999999999999
100
AcDbArc
 50
240.000000000026
 51
299.9999999999703
  0
LINE
  5
1FF00
330
1FEC9
100
AcDbEntity
  8
0
100
AcDbLine
 10
33.08199999996828
 20
8.763099999991255
 30
0.0
 11
31.64199999996833
 21
8.763099999991255
 31
0.0
  0
ARC
  5
1FF01
330
1FEC9
100
AcDbEntity
  8
0
100
AcDbCircle
 10
35.06199999996829
 20
2.481619422925064
 30
0.0
 40
1.17
100
AcDbArc
 50
299.9999999999699
 51
0.0
  0
ARC
  5
1FF02
330
1FEC9
100
AcDbEntity
  8
0
100
AcDbCircle
 10
34.25199999996835
 20
2.481619422925121
 30
0.0
 40
1.17
100
AcDbArc
 50
180.0
 51
240.0000000000238
  0
ARC
  5
1FF03
330
1FEC9
100
AcDbEntity
  8
0
100
AcDbCircle
 10
35.06199999996841
 20
2.481619422925121
 30
0.0
 40
2.61
100
AcDbArc
 50
299.9999999999756
 51
0.0
  0
ARC
  5
1FF04
330
1FEC9
100
AcDbEntity
  8
0
100
AcDbCircle
 10
34.25199999996835
 20
2.481619422925121
 30
0.0
 40
2.61
100
AcDbArc
 50
180.0
 51
240.0000000000244
  0
LINE
  5
1FF05
330
1FEC9
100
AcDbEntity
  8
0
100
AcDbLine
 10
29.30199999996933
 20
8.763099999991255
 30
0.0
 11
30.74199999996927
 21
8.763099999991255
 31
0.0
1001
ACAD
1000
ASC_BOUNDS
1002
{
1070
    19
1005
1FF0E
1002
}
  0
LINE
  5
1FF06
330
1FEC9
100
AcDbEntity
  8
0
100
AcDbLine
 10
30.74199999996927
 20
8.763099999991255
 30
0.0
 11
30.74199999996927
 21
2.373099999991211
 31
0.0
1001
ACAD
1000
ASC_BOUNDS
1002
{
1070
    19
1005
1FF0E
1002
}
  0
LINE
  5
1FF07
330
1FEC9
100
AcDbEntity
  8
0
100
AcDbLine
 10
26.02015566812236
 20
0.0330999999912365
 30
0.0
 11
28.40199999996923
 21
0.0330999999912365
 31
0.0
1001
ACAD
1000
ASC_BOUNDS
1002
{
1070
    19
1005
1FF0E
1002
}
  0
LINE
  5
1FF08
330
1FEC9
100
AcDbEntity
  8
0
100
AcDbLine
 10
29.30199999996933
 20
8.763099999991255
 30
0.0
 11
29.30199999996933
 21
2.283099999991236
 31
0.0
1001
ACAD
1000
ASC_BOUNDS
1002
{
1070
    19
1005
1FF0E
1002
}
  0
LINE
  5
1FF09
330
1FEC9
100
AcDbEntity
  8
0
100
AcDbLine
 10
26.97358892824991
 20
1.383099999991202
 30
0.0
 11
28.40199999996923
 21
1.383099999991202
 31
0.0
1001
ACAD
1000
ASC_BOUNDS
1002
{
1070
    19
1005
1FF0E
1002
}
  0
ARC
  5
1FF0A
330
1FEC9
100
AcDbEntity
  8
0
100
AcDbCircle
 10
28.40199999996923
 20
2.283099999991236
 30
0.0
 40
0.9
100
AcDbArc
 50
270.0
 51
0.0
1001
ACAD
1000
ASC_BOUNDS
1002
{
1070
    19
1005
1FF0E
1002
}
  0
ARC
  5
1FF0B
330
1FEC9
100
AcDbEntity
  8
0
100
AcDbCircle
 10
28.40199999996923
 20
2.373099999991211
 30
0.0
 40
2.34
100
AcDbArc
 50
270.0
 51
0.0
1001
ACAD
1000
ASC_BOUNDS
1002
{
1070
    19
1005
1FF0E
1002
}
  0
INSERT
  5
1FF0C
330
1FEC9
100
AcDbEntity
  8
0
100
AcDbBlockReference
  2
*X60
 10
0.0
 20
0.0
 30
0.0
1001
ACAD
1000
HATCH
1002
{
1070
    19
1000
ANSI37
1040
0.15
1040
0.0
1000
ASC_BOUNDS
1070
     2
1070
     2
1070
    12
1005
1FECB
1005
1FECC
1005
1FED3
1005
1FEE2
1005
1FEE5
1005
1FEE3
1005
1FED4
1005
1FED9
1005
1FED7
1005
1FEDB
1005
1FEDA
1005
1FEDC
1070
     2
1070
     3
1005
1FEE7
1005
1FEE9
1005
1FEE8
1000
ASC_SEEDPOINT
1011
3.614004224891801
1021
2.996669441146025
1031
0.0
1000
R14_HATCH_DATA
1000
1FF0C
1011
1.0
1021
0.0
1031
0.0
1011
0.0
1021
1.0
1031
0.0
1011
0.0
1021
0.0
1031
1.0
1040
0.0
1010
0.0
1020
0.0
1030
1.0
1000
ANSI37
1070
     0
1070
     1
1071
        2
1071
        7
1070
     0
1070
     1
1071
       17
1040
13.26299999998673
1040
-0.0001000000000317
1040
9.236999999990758
1040
8.999899999990987
1040
9.236999999990758
1040
8.999999999991019
1040
5.657999999994331
1040
0.9999999999989768
1040
3.181999999996833
1040
4.668599999995308
1040
6.432999999993513
1040
8.763099999991255
1040
4.617999999995391
1040
8.763099999991255
1040
1.420999999998571
1040
4.736799999995242
1040
4.617999999995391
1040
-0.0001000000000317
1040
4.617999999995391
1040
0.0
1040
6.766999999993232
1040
0.0
1040
6.766999999993232
1040
-0.0001000000000317
1040
7.826999999992154
1040
2.368399999997621
1040
10.64699999998936
1040
2.368399999997621
1040
11.70599999998831
1040
-0.0001000000000317
1040
11.70599999998831
1040
0.0
1040
13.26299999998673
1040
0.0
1071
       12
1005
1FECB
1005
1FECC
1005
1FED3
1005
1FEE2
1005
1FEE5
1005
1FEE3
1005
1FED4
1005
1FED9
1005
1FED7
1005
1FEDB
1005
1FEDA
1005
1FEDC
1071
       22
1070
     0
1070
     1
1071
        3
1040
9.236999999990758
1040
5.5200999999945
1040
10.06399999998996
1040
3.670999999996297
1040
8.409999999991555
1040
3.670999999996297
1071
        3
1005
1FEE7
1005
1FEE9
1005
1FEE8
1070
     0
1070
     1
1040
0.0
1040
0.15
1070
     0
1070
     2
1040
0.7853981633974483
1040
49.29960901727088
1040
-10.17736998311392
1040
-0.3367596045400932
1040
0.3367596045400932
1070
     0
1040
2.356194490192345
1040
49.29960901727088
1040
-10.17736998311392
1040
-0.3367596045400932
1040
-0.3367596045400932
1070
     0
1040
0.0110235143455945
1071
        2
1040
3.614004224891801
1040
2.996669441146025
1040
0.0
1040
3.614004224891801
1040
2.996669441146025
1040
0.0
1002
}
  0
INSERT
  5
1FF0D
330
1FEC9
100
AcDbEntity
  8
0
100
AcDbBlockReference
  2
*X61
 10
0.0
 20
0.0
 30
0.0
1001
ACAD
1000
HATCH
1002
{
1070
    19
1000
ANSI37
1040
0.15
1040
0.0
1000
ASC_BOUNDS
1070
     1
1070
     2
1070
    10
1005
1FECD
1005
1FECE
1005
1FEEF
1005
1FEED
1005
1FEEE
1005
1FEE1
1005
1FEE6
1005
1FEEA
1005
1FED0
1005
1FECF
1000
ASC_SEEDPOINT
1011
14.73245321214324
1021
2.798246178283421
1031
0.0
1000
R14_HATCH_DATA
1000
1FF0D
1011
1.0
1021
0.0
1031
0.0
1011
0.0
1021
1.0
1031
0.0
1011
0.0
1021
0.0
1031
1.0
1040
0.0
1010
0.0
1020
0.0
1030
1.0
1000
ANSI37
1070
     0
1070
     1
1071
        1
1071
        7
1070
     0
1070
     1
1071
       10
1040
16.46099999998353
1040
5.432899999994561
1040
18.59199999998134
1040
-0.2368999999997641
1040
22.38199999997767
1040
8.763099999991255
1040
20.89099999997916
1040
8.763099999991255
1040
18.59799999998143
1040
3.315799999996671
1040
16.46099999998353
1040
8.999899999990987
1040
14.32399999998563
1040
3.315799999996671
1040
12.02999999998792
1040
8.763099999991255
1040
10.53899999998941
1040
8.763099999991255
1040
14.32899999998563
1040
-0.2368999999997641
1071
       10
1005
1FECD
1005
1FECE
1005
1FEEF
1005
1FEED
1005
1FEEE
1005
1FEE1
1005
1FEE6
1005
1FEEA
1005
1FED0
1005
1FECF
1070
     0
1070
     1
1040
0.0
1040
0.15
1070
     0
1070
     2
1040
0.7853981633974483
1040
49.29960901727088
1040
-10.17736998311392
1040
-0.3367596045400932
1040
0.3367596045400932
1070
     0
1040
2.356194490192345
1040
49.29960901727088
1040
-10.17736998311392
1040
-0.3367596045400932
1040
-0.3367596045400932
1070
     0
1040
0.0110235143455945
1071
        1
1040
14.73245321214324
1040
2.798246178283421
1040
0.0
1002
}
  0
INSERT
  5
1FF0E
330
1FEC9
100
AcDbEntity
  8
0
100
AcDbBlockReference
  2
*X62
 10
0.0
 20
0.0
 30
0.0
1001
ACAD
1000
HATCH
1002
{
1070
    19
1000
ANSI37
1040
0.15
1040
0.0
1000
ASC_BOUNDS
1070
     2
1070
     2
1070
    13
1005
1FED1
1005
1FEDE
1005
1FEDF
1005
1FEDD
1005
1FEE0
1005
1FF07
1005
1FF0B
1005
1FF06
1005
1FF05
1005
1FF08
1005
1FF0A
1005
1FF09
1005
1FED2
1070
     2
1070
     3
1005
1FEEB
1005
1FEF0
1005
1FEEC
1000
ASC_SEEDPOINT
1011
21.97929957367762
1021
3.294304244259308
1031
0.0
1000
R14_HATCH_DATA
1000
1FF0E
1011
1.0
1021
0.0
1031
0.0
1011
0.0
1021
1.0
1031
0.0
1011
0.0
1021
0.0
1031
1.0
1040
0.0
1010
0.0
1020
0.0
1030
1.0
1000
ANSI37
1070
     0
1070
     1
1071
        2
1071
        7
1070
     1
1070
     1
1071
       15
1040
23.56599999997638
1040
8.999899999990987
1040
0.0
1040
19.53899999998043
1040
-0.0001000000000317
1040
0.0
1040
19.53899999998043
1040
0.0
1040
0.0
1040
21.09599999997886
1040
0.0
1040
0.0
1040
21.09599999997886
1040
-0.0001000000000317
1040
0.0
1040
22.15599999997789
1040
2.368399999997621
1040
0.0
1040
24.97599999997499
1040
2.368399999997621
1040
0.0
1040
26.02015566812236
1040
0.0330999999912365
1040
0.0
1040
28.40199999996923
1040
0.0330999999912365
1040
0.414213562373095
1040
30.74199999996923
1040
2.373099999991211
1040
0.0
1040
30.74199999996927
1040
8.763099999991255
1040
0.0
1040
29.30199999996933
1040
8.763099999991255
1040
0.0
1040
29.30199999996933
1040
2.283099999991236
1040
-0.414213562373095
1040
28.40199999996923
1040
1.383099999991237
1040
0.0
1040
26.97358892824991
1040
1.383099999991202
1040
0.0
1071
       13
1005
1FED1
1005
1FEDE
1005
1FEDF
1005
1FEDD
1005
1FEE0
1005
1FF07
1005
1FF0B
1005
1FF06
1005
1FF05
1005
1FF08
1005
1FF0A
1005
1FF09
1005
1FED2
1071
       22
1070
     0
1070
     1
1071
        3
1040
22.7389999999773
1040
3.670999999996297
1040
23.56599999997638
1040
5.5200999999945
1040
24.39299999997559
1040
3.670999999996297
1071
        3
1005
1FEEB
1005
1FEF0
1005
1FEEC
1070
     0
1070
     1
1040
0.0
1040
0.15
1070
     0
1070
     2
1040
0.7853981633974483
1040
49.29960901727088
1040
-10.17736998311392
1040
-0.3367596045400932
1040
0.3367596045400932
1070
     0
1040
2.356194490192345
1040
49.29960901727088
1040
-10.17736998311392
1040
-0.3367596045400932
1040
-0.3367596045400932
1070
     0
1040
0.0110235143455945
1071
        2
1040
21.97929957367762
1040
3.294304244259308
1040
0.0
1040
21.97929957367762
1040
3.294304244259308
1040
0.0
1002
}
  0
INSERT
  5
1FF0F
330
1FEC9
100
AcDbEntity
  8
0
100
AcDbBlockReference
  2
*X63
 10
0.0
 20
0.0
 30
0.0
1001
ACAD
1000
HATCH
1002
{
1070
    19
1000
ANSI37
1040
0.15
1040
0.0
1000
R14_HATCH_DATA
1000
1FF0F
1011
1.0
1021
0.0
1031
0.0
1011
0.0
1021
1.0
1031
0.0
1011
0.0
1021
0.0
1031
1.0
1040
0.0
1010
0.0
1020
0.0
1030
1.0
1000
ANSI37
1070
     0
1070
     1
1071
        1
1071
        7
1070
     1
1070
     1
1071
       12
1040
31.64199999996833
1040
2.481619422925121
1040
0.2679491924310942
1040
32.94699999997067
1040
0.2212931190493919
1040
0.2679491924301353
1040
36.36699999995983
1040
0.2212931190459813
1040
0.2679491924321411
1040
37.67199999996831
1040
2.481619422928361
1040
0.0
1040
37.67199999996831
1040
8.763099999991255
1040
0.0
1040
36.23199999996837
1040
8.763099999991255
1040
0.0
1040
36.23199999996837
1040
2.481619422925064
1040
-0.2679491924310291
1040
35.64699999996708
1040
1.468369700498386
1040
-0.267949192430519
1040
33.66699999997093
1040
1.468369700497703
1040
-0.267949192431809
1040
33.08199999996839
1040
2.481619422926997
1040
0.0
1040
33.08199999996839
1040
8.763099999991255
1040
0.0
1040
31.64199999996833
1040
8.763099999991255
1040
0.0
1071
        0
1070
     0
1070
     1
1040
0.0
1040
0.15
1070
     0
1070
     2
1040
0.7853981633974483
1040
49.29960901727088
1040
-10.17736998311392
1040
-0.3367596045400932
1040
0.3367596045400932
1070
     0
1040
2.356194490192345
1040
49.29960901727088
1040
-10.17736998311392
1040
-0.3367596045400932
1040
-0.3367596045400932
1070
     0
1040
0.0110235143455945
1071
        1
1040
32.30357378967278
1040
3.988785755459219
1040
0.0
1002
}
  0
INSERT
  5
1FF10
330
1FEC9
100
AcDbEntity
  8
0
100
AcDbBlockReference
  2
*X64
 10
0.0
 20
0.0
 30
0.0
1001
ACAD
1000
HATCH
1002
{
1070
    19
1000
ANSI37
1040
0.15
1040
0.0
1000
ASC_BOUNDS
1070
     1
1070
     2
1070
     8
1005
1FEF1
1005
1FEF4
1005
1FEF8
1005
1FEF7
1005
1FEF6
1005
1FEF3
1005
1FEF5
1005
1FEF2
1000
ASC_SEEDPOINT
1011
39.74896370716704
1021
4.484843821435049
1031
0.0
1000
R14_HATCH_DATA
1000
1FF10
1011
1.0
1021
0.0
1031
0.0
1011
0.0
1021
1.0
1031
0.0
1011
0.0
1021
0.0
1031
1.0
1040
0.0
1010
0.0
1020
0.0
1030
1.0
1000
ANSI37
1070
     0
1070
     1
1071
        1
1071
        7
1070
     0
1070
     1
1071
        9
1040
40.02599999995994
1040
5.341799999994635
1040
44.99999999995498
1040
-0.2368999999997641
1040
44.99999999995498
1040
8.763099999991255
1040
43.57899999995641
1040
8.763099999991255
1040
43.57899999995641
1040
3.421199999996588
1040
38.60499999996136
1040
8.999899999990987
1040
38.60499999996136
1040
8.999999999991019
1040
38.60499999996136
1040
0.0
1040
40.02599999995994
1040
0.0
1071
        8
1005
1FEF1
1005
1FEF4
1005
1FEF8
1005
1FEF7
1005
1FEF6
1005
1FEF3
1005
1FEF5
1005
1FEF2
1070
     0
1070
     1
1040
0.0
1040
0.15
1070
     0
1070
     2
1040
0.7853981633974483
1040
49.29960901727088
1040
-10.17736998311392
1040
-0.3367596045400932
1040
0.3367596045400932
1070
     0
1040
2.356194490192345
1040
49.29960901727088
1040
-10.17736998311392
1040
-0.3367596045400932
1040
-0.3367596045400932
1070
     0
1040
0.0110235143455945
1071
        1
1040
39.74896370716704
1040
4.484843821435049
1040
0.0
1002
}
  0
INSERT
  5
1FF11
330
1FEC9
100
AcDbEntity
  8
0
100
AcDbBlockReference
  2
*X65
 10
0.0
 20
0.0
 30
0.0
1001
ACAD
1000
HATCH
1002
{
1070
    19
1000
ANSI37
1040
0.15
1040
0.0
1000
ASC_BOUNDS
1070
     1
1070
     2
1070
     4
1005
1FED5
1005
1FEE4
1005
1FED6
1005
1FED8
1000
ASC_SEEDPOINT
1011
1.079051535452663
1021
4.148538732891836
1031
0.0
1000
R14_HATCH_DATA
1000
1FF11
1011
1.0
1021
0.0
1031
0.0
1011
0.0
1021
1.0
1031
0.0
1011
0.0
1021
0.0
1031
1.0
1040
0.0
1010
0.0
1020
0.0
1030
1.0
1000
ANSI37
1070
     0
1070
     1
1071
        1
1071
        7
1070
     0
1070
     1
1071
        4
1040
1.420999999998571
1040
0.0
1040
1.420999999998571
1040
8.763099999991255
1040
0.0
1040
8.763099999991255
1040
0.0
1040
0.0
1071
        4
1005
1FED5
1005
1FEE4
1005
1FED6
1005
1FED8
1070
     0
1070
     1
1040
0.0
1040
0.15
1070
     0
1070
     2
1040
0.7853981633974483
1040
49.29960901727088
1040
-10.17736998311392
1040
-0.3367596045400932
1040
0.3367596045400932
1070
     0
1040
2.356194490192345
1040
49.29960901727088
1040
-10.17736998311392
1040
-0.3367596045400932
1040
-0.3367596045400932
1070
     0
1040
0.0053004257112761
1071
        1
1040
1.079051535452663
1040
4.148538732891836
1040
0.0
1002
}
  0
ENDBLK
  5
205D6
330
1FEC9
100
AcDbEntity
  8
0
100
AcDbBlockEnd
  0
BLOCK
  5
21BFF
330
21A71
100
AcDbEntity
  8
0
100
AcDbBlockBegin
  2
*X60
 70
     1
 10
0.0
 20
0.0
 30
0.0
  3
*X60
  1

  0
LINE
  5
21A72
330
21A71
100
AcDbEntity
  8
0
  6
CONTINUOUS
100
AcDbLine
 10
3.418023043697893
 20
7.251849696850613
 30
0.0
 11
4.929273346838536
 21
8.763099999991255
 31
0.0
  0
LINE
  5
21A73
330
21A71
100
AcDbEntity
  8
0
  6
CONTINUOUS
100
AcDbLine
 10
1.483656411257782
 20
4.643963855330318
 30
0.0
 11
5.60279255591872
 21
8.763099999991255
 31
0.0
  0
LINE
  5
21A74
330
21A71
100
AcDbEntity
  8
0
  6
CONTINUOUS
100
AcDbLine
 10
1.755053947328235
 20
4.241842182320584
 30
0.0
 11
6.276311764998907
 21
8.763099999991255
 31
0.0
  0
LINE
  5
21A75
330
21A71
100
AcDbEntity
  8
0
  6
CONTINUOUS
100
AcDbLine
 10
2.026451483398688
 20
3.839720509310849
 30
0.0
 11
4.441040904851878
 21
6.254309930764039
 31
0.0
  0
LINE
  5
21A76
330
21A71
100
AcDbEntity
  8
0
  6
CONTINUOUS
100
AcDbLine
 10
2.297849019469139
 20
3.437598836301114
 30
0.0
 11
3.321765168359338
 21
4.461514985191313
 31
0.0
  0
LINE
  5
21A77
330
21A71
100
AcDbEntity
  8
0
  6
CONTINUOUS
100
AcDbLine
 10
2.569246555539591
 20
3.03547716329138
 30
0.0
 11
3.593163397972743
 21
4.059394005724531
 31
0.0
  0
LINE
  5
21A78
330
21A71
100
AcDbEntity
  8
0
  6
CONTINUOUS
100
AcDbLine
 10
2.840644091610043
 20
2.633355490281646
 30
0.0
 11
3.864561627586149
 21
3.657273026257751
 31
0.0
  0
LINE
  5
21A79
330
21A71
100
AcDbEntity
  8
0
  6
CONTINUOUS
100
AcDbLine
 10
3.112041627680496
 20
2.231233817271911
 30
0.0
 11
4.135959857199554
 21
3.25515204679097
 31
0.0
  0
LINE
  5
21A7A
330
21A71
100
AcDbEntity
  8
0
  6
CONTINUOUS
100
AcDbLine
 10
3.383439163750948
 20
1.829112144262177
 30
0.0
 11
4.40735808681296
 21
2.853031067324189
 31
0.0
  0
LINE
  5
21A7B
330
21A71
100
AcDbEntity
  8
0
  6
CONTINUOUS
100
AcDbLine
 10
3.654836699821399
 20
1.426990471252442
 30
0.0
 11
4.678756316426365
 21
2.450910087857407
 31
0.0
  0
LINE
  5
21A7C
330
21A71
100
AcDbEntity
  8
0
  6
CONTINUOUS
100
AcDbLine
 10
3.926234235891853
 20
1.024868798242709
 30
0.0
 11
4.95015454603977
 21
2.048789108390626
 31
0.0
  0
LINE
  5
21A7D
330
21A71
100
AcDbEntity
  8
0
  6
CONTINUOUS
100
AcDbLine
 10
4.197631771962304
 20
0.6227471252329737
 30
0.0
 11
5.221552775653176
 21
1.646668128923846
 31
0.0
  0
LINE
  5
21A7E
330
21A71
100
AcDbEntity
  8
0
  6
CONTINUOUS
100
AcDbLine
 10
8.715877546767851
 20
7.835069736359266
 30
0.0
 11
9.435953450375058
 21
8.555145639966472
 31
0.0
  0
LINE
  5
21A7F
330
21A71
100
AcDbEntity
  8
0
  6
CONTINUOUS
100
AcDbLine
 10
8.170620868422267
 20
6.616293848933497
 30
0.0
 11
9.644120833743461
 21
8.08979381425469
 31
0.0
  0
LINE
  5
21A80
330
21A71
100
AcDbEntity
  8
0
  6
CONTINUOUS
100
AcDbLine
 10
7.625364190076684
 20
5.397517961507727
 30
0.0
 11
9.852288217111864
 21
7.624441988542907
 31
0.0
  0
LINE
  5
21A81
330
21A71
100
AcDbEntity
  8
0
  6
CONTINUOUS
100
AcDbLine
 10
7.080107511731101
 20
4.178742074081957
 30
0.0
 11
10.06045560048027
 21
7.159090162831124
 31
0.0
  0
LINE
  5
21A82
330
21A71
100
AcDbEntity
  8
0
  6
CONTINUOUS
100
AcDbLine
 10
6.534850833385518
 20
2.959966186656187
 30
0.0
 11
10.26862298384867
 21
6.693738337119342
 31
0.0
  0
LINE
  5
21A83
330
21A71
100
AcDbEntity
  8
0
  6
CONTINUOUS
100
AcDbLine
 10
4.469029308032756
 20
0.2206254522232385
 30
0.0
 11
5.492951005266582
 21
1.244547149457064
 31
0.0
  0
LINE
  5
21A84
330
21A71
100
AcDbEntity
  8
0
  6
CONTINUOUS
100
AcDbLine
 10
5.989594155039935
 20
1.741190299230417
 30
0.0
 11
8.806950407233131
 21
4.558546551423613
 31
0.0
  0
LINE
  5
21A85
330
21A71
100
AcDbEntity
  8
0
  6
CONTINUOUS
100
AcDbLine
 10
9.401251593263643
 20
5.152847737454126
 30
0.0
 11
10.47679036721708
 21
6.228386511407559
 31
0.0
  0
LINE
  5
21A86
330
21A71
100
AcDbEntity
  8
0
  6
CONTINUOUS
100
AcDbLine
 10
4.921837203428691
 20
-0.0000858614610131
 30
0.0
 11
8.592923064886001
 21
3.670999999996297
 31
0.0
  0
LINE
  5
21A87
330
21A71
100
AcDbEntity
  8
0
  6
CONTINUOUS
100
AcDbLine
 10
9.609390446785305
 20
4.6874673818956
 30
0.0
 11
10.68495775058548
 21
5.763034685695775
 31
0.0
  0
LINE
  5
21A88
330
21A71
100
AcDbEntity
  8
0
  6
CONTINUOUS
100
AcDbLine
 10
5.595387755019432
 20
-0.0000545189504582
 30
0.0
 11
7.716137258923768
 21
2.120694984953879
 31
0.0
  0
LINE
  5
21A89
330
21A71
100
AcDbEntity
  8
0
  6
CONTINUOUS
100
AcDbLine
 10
6.268938306610172
 20
-0.000023176439905
 30
0.0
 11
7.170485805526503
 21
0.9015243224764267
 31
0.0
  0
LINE
  5
21A8A
330
21A71
100
AcDbEntity
  8
0
  6
CONTINUOUS
100
AcDbLine
 10
7.963842273967511
 20
2.368399999997621
 30
0.0
 11
9.266442273966188
 21
3.670999999996297
 31
0.0
  0
LINE
  5
21A8B
330
21A71
100
AcDbEntity
  8
0
  6
CONTINUOUS
100
AcDbLine
 10
8.637361483047696
 20
2.368399999997621
 30
0.0
 11
9.939961483046375
 21
3.670999999996297
 31
0.0
  0
LINE
  5
21A8C
330
21A71
100
AcDbEntity
  8
0
  6
CONTINUOUS
100
AcDbLine
 10
9.817529300306965
 20
4.222087026337075
 30
0.0
 11
10.89312513395388
 21
5.297682859983993
 31
0.0
  0
LINE
  5
21A8D
330
21A71
100
AcDbEntity
  8
0
  6
CONTINUOUS
100
AcDbLine
 10
10.02566815382863
 20
3.756706670778549
 30
0.0
 11
11.10129251732229
 21
4.832331034272211
 31
0.0
  0
LINE
  5
21A8E
330
21A71
100
AcDbEntity
  8
0
  6
CONTINUOUS
100
AcDbLine
 10
9.310880692127883
 20
2.368399999997621
 30
0.0
 11
11.30945990069069
 21
4.366979208560428
 31
0.0
  0
LINE
  5
21A8F
330
21A71
100
AcDbEntity
  8
0
  6
CONTINUOUS
100
AcDbLine
 10
9.98439990120807
 20
2.36839999999762
 30
0.0
 11
11.5176272840591
 21
3.901627382848645
 31
0.0
  0
LINE
  5
21A90
330
21A71
100
AcDbEntity
  8
0
  6
CONTINUOUS
100
AcDbLine
 10
10.65037369446246
 20
2.36085458417182
 30
0.0
 11
11.7257946674275
 21
3.436275557136862
 31
0.0
  0
LINE
  5
21A91
330
21A71
100
AcDbEntity
  8
0
  6
CONTINUOUS
100
AcDbLine
 10
10.85847197087848
 20
1.895433651507656
 30
0.0
 11
11.9339620507959
 21
2.97092373142508
 31
0.0
  0
LINE
  5
21A92
330
21A71
100
AcDbEntity
  8
0
  6
CONTINUOUS
100
AcDbLine
 10
11.0665702472945
 20
1.430012718843491
 30
0.0
 11
12.14212943416431
 21
2.505571905713296
 31
0.0
  0
LINE
  5
21A93
330
21A71
100
AcDbEntity
  8
0
  6
CONTINUOUS
100
AcDbLine
 10
11.27466852371052
 20
0.9645917861793256
 30
0.0
 11
12.35029681753271
 21
2.040220080001513
 31
0.0
  0
LINE
  5
21A94
330
21A71
100
AcDbEntity
  8
0
  6
CONTINUOUS
100
AcDbLine
 10
11.48276680012654
 20
0.4991708535151611
 30
0.0
 11
12.55846420090111
 21
1.57486825428973
 31
0.0
  0
LINE
  5
21A95
330
21A71
100
AcDbEntity
  8
0
  6
CONTINUOUS
100
AcDbLine
 10
11.69086507654257
 20
0.0337499208509957
 30
0.0
 11
12.76663158426952
 21
1.109516428577947
 31
0.0
  0
LINE
  5
21A96
330
21A71
100
AcDbEntity
  8
0
  6
CONTINUOUS
100
AcDbLine
 10
12.33057447873954
 20
-0.0000598860322123
 30
0.0
 11
12.97479896763792
 21
0.6441646028661663
 31
0.0
  0
LINE
  5
21A97
330
21A71
100
AcDbEntity
  8
0
  6
CONTINUOUS
100
AcDbLine
 10
13.00413694809395
 20
-0.0000166257579952
 30
0.0
 11
13.18296635100632
 21
0.1788127771543824
 31
0.0
  0
LINE
  5
21A98
330
21A71
100
AcDbEntity
  8
0
  6
CONTINUOUS
100
AcDbLine
 10
4.772852165289667
 20
-0.000092794222212
 30
0.0
 11
4.296495091028902
 21
0.4762642800385528
 31
0.0
  0
LINE
  5
21A99
330
21A71
100
AcDbEntity
  8
0
  6
CONTINUOUS
100
AcDbLine
 10
5.446340034776103
 20
-0.0000614546284616
 30
0.0
 11
2.898195908335625
 21
2.548082671812017
 31
0.0
  0
LINE
  5
21A9A
330
21A71
100
AcDbEntity
  8
0
  6
CONTINUOUS
100
AcDbLine
 10
6.119827904262539
 20
-0.0000301150347113
 30
0.0
 11
1.499896725642348
 21
4.61990106358548
 31
0.0
  0
LINE
  5
21A9B
330
21A71
100
AcDbEntity
  8
0
  6
CONTINUOUS
100
AcDbLine
 10
6.775136745476159
 20
0.0181802528318542
 30
0.0
 11
5.699826040202669
 21
1.093490958105344
 31
0.0
  0
LINE
  5
21A9C
330
21A71
100
AcDbEntity
  8
0
  6
CONTINUOUS
100
AcDbLine
 10
6.983376846288489
 20
0.4834593610997118
 30
0.0
 11
5.908008617934405
 21
1.558827589453796
 31
0.0
  0
LINE
  5
21A9D
330
21A71
100
AcDbEntity
  8
0
  6
CONTINUOUS
100
AcDbLine
 10
5.377063484962296
 20
1.416253513345719
 30
0.0
 11
1.702276957014131
 21
5.091040041293883
 31
0.0
  0
LINE
  5
21A9E
330
21A71
100
AcDbEntity
  8
0
  6
CONTINUOUS
100
AcDbLine
 10
3.978745891735324
 20
3.488090315652877
 30
0.0
 11
2.000373521109399
 21
5.466462686278803
 31
0.0
  0
LINE
  5
21A9F
330
21A71
100
AcDbEntity
  8
0
  6
CONTINUOUS
100
AcDbLine
 10
7.191616947100819
 20
0.948738469367568
 30
0.0
 11
6.11619119566614
 21
2.024164220802247
 31
0.0
  0
LINE
  5
21AA0
330
21A71
100
AcDbEntity
  8
0
  6
CONTINUOUS
100
AcDbLine
 10
7.399857047913149
 20
1.414017577635424
 30
0.0
 11
6.324373773397875
 21
2.489500852150698
 31
0.0
  0
LINE
  5
21AA1
330
21A71
100
AcDbEntity
  8
0
  6
CONTINUOUS
100
AcDbLine
 10
7.608097148725479
 20
1.879296685903281
 30
0.0
 11
6.53255635112961
 21
2.95483748349915
 31
0.0
  0
LINE
  5
21AA2
330
21A71
100
AcDbEntity
  8
0
  6
CONTINUOUS
100
AcDbLine
 10
7.816337249537808
 20
2.344575794171138
 30
0.0
 11
6.740738928861345
 21
3.420174114847601
 31
0.0
  0
LINE
  5
21AA3
330
21A71
100
AcDbEntity
  8
0
  6
CONTINUOUS
100
AcDbLine
 10
3.310241080789734
 20
4.830114335678653
 30
0.0
 11
2.298470085204666
 21
5.84188533126372
 31
0.0
  0
LINE
  5
21AA4
330
21A71
100
AcDbEntity
  8
0
  6
CONTINUOUS
100
AcDbLine
 10
3.60832983563551
 20
5.205544789913063
 30
0.0
 11
2.596566649299935
 21
6.217307976248638
 31
0.0
  0
LINE
  5
21AA5
330
21A71
100
AcDbEntity
  8
0
  6
CONTINUOUS
100
AcDbLine
 10
3.906418590481286
 20
5.580975244147473
 30
0.0
 11
2.894663213395203
 21
6.592730621233557
 31
0.0
  0
LINE
  5
21AA6
330
21A71
100
AcDbEntity
  8
0
  6
CONTINUOUS
100
AcDbLine
 10
4.204507345327062
 20
5.956405698381884
 30
0.0
 11
3.192759777490472
 21
6.968153266218474
 31
0.0
  0
LINE
  5
21AA7
330
21A71
100
AcDbEntity
  8
0
  6
CONTINUOUS
100
AcDbLine
 10
8.466032252791512
 20
2.368399999997621
 30
0.0
 11
6.948921506593081
 21
3.885510746196053
 31
0.0
  0
LINE
  5
21AA8
330
21A71
100
AcDbEntity
  8
0
  6
CONTINUOUS
100
AcDbLine
 10
9.139551461871699
 20
2.36839999999762
 30
0.0
 11
7.157104084324816
 21
4.350847377544504
 31
0.0
  0
LINE
  5
21AA9
330
21A71
100
AcDbEntity
  8
0
  6
CONTINUOUS
100
AcDbLine
 10
4.502596100172839
 20
6.331836152616295
 30
0.0
 11
3.49085634158574
 21
7.343575911203393
 31
0.0
  0
LINE
  5
21AAA
330
21A71
100
AcDbEntity
  8
0
  6
CONTINUOUS
100
AcDbLine
 10
4.800684855018615
 20
6.707266606850705
 30
0.0
 11
3.788952905681008
 21
7.718998556188312
 31
0.0
  0
LINE
  5
21AAB
330
21A71
100
AcDbEntity
  8
0
  6
CONTINUOUS
100
AcDbLine
 10
12.18154012887317
 20
-0.0000694579236642
 30
0.0
 11
11.32140332908496
 21
0.8600673418645499
 31
0.0
  0
LINE
  5
21AAC
330
21A71
100
AcDbEntity
  8
0
  6
CONTINUOUS
100
AcDbLine
 10
12.85501608323566
 20
-0.0000262032059659
 30
0.0
 11
10.77672456435345
 21
2.078265315676246
 31
0.0
  0
LINE
  5
21AAD
330
21A71
100
AcDbEntity
  8
0
  6
CONTINUOUS
100
AcDbLine
 10
9.813070670951886
 20
2.36839999999762
 30
0.0
 11
8.51047067095321
 21
3.670999999996297
 31
0.0
  0
LINE
  5
21AAE
330
21A71
100
AcDbEntity
  8
0
  6
CONTINUOUS
100
AcDbLine
 10
10.48658988003207
 20
2.36839999999762
 30
0.0
 11
9.183989880033396
 21
3.670999999996297
 31
0.0
  0
LINE
  5
21AAF
330
21A71
100
AcDbEntity
  8
0
  6
CONTINUOUS
100
AcDbLine
 10
8.441048632286794
 20
3.740422038662712
 30
0.0
 11
7.365286662056551
 21
4.816184008892956
 31
0.0
  0
LINE
  5
21AB0
330
21A71
100
AcDbEntity
  8
0
  6
CONTINUOUS
100
AcDbLine
 10
8.649187485808454
 20
4.205802394221237
 30
0.0
 11
7.573469239788285
 21
5.281520640241407
 31
0.0
  0
LINE
  5
21AB1
330
21A71
100
AcDbEntity
  8
0
  6
CONTINUOUS
100
AcDbLine
 10
5.098773609864391
 20
7.082697061085115
 30
0.0
 11
4.087049469776277
 21
8.09442120117323
 31
0.0
  0
LINE
  5
21AB2
330
21A71
100
AcDbEntity
  8
0
  6
CONTINUOUS
100
AcDbLine
 10
5.396862364710167
 20
7.458127515319526
 30
0.0
 11
4.385146033871544
 21
8.469843846158149
 31
0.0
  0
LINE
  5
21AB3
330
21A71
100
AcDbEntity
  8
0
  6
CONTINUOUS
100
AcDbLine
 10
13.04801363231285
 20
0.4804954567970334
 30
0.0
 11
9.85750908911358
 21
3.670999999996297
 31
0.0
  0
LINE
  5
21AB4
330
21A71
100
AcDbEntity
  8
0
  6
CONTINUOUS
100
AcDbLine
 10
8.857326339330116
 20
4.671182749779763
 30
0.0
 11
7.781651817520021
 21
5.746857271589858
 31
0.0
  0
LINE
  5
21AB5
330
21A71
100
AcDbEntity
  8
0
  6
CONTINUOUS
100
AcDbLine
 10
5.694951119555943
 20
7.833557969553937
 30
0.0
 11
4.765409089118624
 21
8.763099999991255
 31
0.0
  0
LINE
  5
21AB6
330
21A71
100
AcDbEntity
  8
0
  6
CONTINUOUS
100
AcDbLine
 10
12.50286117236978
 20
1.699167125820288
 30
0.0
 11
9.68611877250287
 21
4.515909525687196
 31
0.0
  0
LINE
  5
21AB7
330
21A71
100
AcDbEntity
  8
0
  6
CONTINUOUS
100
AcDbLine
 10
9.065465192851777
 20
5.136563105338288
 30
0.0
 11
7.989834395251757
 21
6.21219390293831
 31
0.0
  0
LINE
  5
21AB8
330
21A71
100
AcDbEntity
  8
0
  6
CONTINUOUS
100
AcDbLine
 10
5.993039874401719
 20
8.208988423788346
 30
0.0
 11
5.43892829819881
 21
8.763099999991255
 31
0.0
  0
LINE
  5
21AB9
330
21A71
100
AcDbEntity
  8
0
  6
CONTINUOUS
100
AcDbLine
 10
11.95770871242671
 20
2.917838794843543
 30
0.0
 11
8.19801697298349
 21
6.677530534286761
 31
0.0
  0
LINE
  5
21ABA
330
21A71
100
AcDbEntity
  8
0
  6
CONTINUOUS
100
AcDbLine
 10
6.291128629247495
 20
8.584418878022756
 30
0.0
 11
6.112447507278997
 21
8.763099999991255
 31
0.0
  0
LINE
  5
21ABB
330
21A71
100
AcDbEntity
  8
0
  6
CONTINUOUS
100
AcDbLine
 10
11.41255625248364
 20
4.136510463866797
 30
0.0
 11
8.406199550715227
 21
7.142867165635211
 31
0.0
  0
LINE
  5
21ABC
330
21A71
100
AcDbEntity
  8
0
  6
CONTINUOUS
100
AcDbLine
 10
10.86740379254057
 20
5.355182132890051
 30
0.0
 11
8.614382128446962
 21
7.608203796983664
 31
0.0
  0
LINE
  5
21ABD
330
21A71
100
AcDbEntity
  8
0
  6
CONTINUOUS
100
AcDbLine
 10
10.3222513325975
 20
6.573853801913305
 30
0.0
 11
8.822564706178696
 21
8.073540428332114
 31
0.0
  0
LINE
  5
21ABE
330
21A71
100
AcDbEntity
  8
0
  6
CONTINUOUS
100
AcDbLine
 10
9.777098872654436
 20
7.792525470936562
 30
0.0
 11
9.030747283910433
 21
8.538877059680566
 31
0.0
  0
ENDBLK
  5
21C00
330
21A71
100
AcDbEntity
  8
0
100
AcDbBlockEnd
  0
BLOCK
  5
21C01
330
21ABF
100
AcDbEntity
  8
0
100
AcDbBlockBegin
  2
*X61
 70
     1
 10
0.0
 20
0.0
 30
0.0
  3
*X61
  1

  0
LINE
  5
21AC0
330
21ABF
100
AcDbEntity
  8
0
  6
CONTINUOUS
100
AcDbLine
 10
10.67292308101235
 20
8.445076852443387
 30
0.0
 11
10.99094622856022
 21
8.763099999991255
 31
0.0
  0
LINE
  5
21AC1
330
21ABF
100
AcDbEntity
  8
0
  6
CONTINUOUS
100
AcDbLine
 10
10.87250383178748
 20
7.971138394138331
 30
0.0
 11
11.6644654376404
 21
8.763099999991255
 31
0.0
  0
LINE
  5
21AC2
330
21ABF
100
AcDbEntity
  8
0
  6
CONTINUOUS
100
AcDbLine
 10
11.07208458256261
 20
7.497199935833273
 30
0.0
 11
12.12126590876355
 21
8.546381262034211
 31
0.0
  0
LINE
  5
21AC3
330
21ABF
100
AcDbEntity
  8
0
  6
CONTINUOUS
100
AcDbLine
 10
11.27166533333774
 20
7.023261477528216
 30
0.0
 11
12.32085164573666
 21
8.072447789927136
 31
0.0
  0
LINE
  5
21AC4
330
21ABF
100
AcDbEntity
  8
0
  6
CONTINUOUS
100
AcDbLine
 10
11.47124608411287
 20
6.549323019223158
 30
0.0
 11
12.52043738270977
 21
7.59851431782006
 31
0.0
  0
LINE
  5
21AC5
330
21ABF
100
AcDbEntity
  8
0
  6
CONTINUOUS
100
AcDbLine
 10
11.670826834888
 20
6.075384560918101
 30
0.0
 11
12.72002311968288
 21
7.124580845712984
 31
0.0
  0
LINE
  5
21AC6
330
21ABF
100
AcDbEntity
  8
0
  6
CONTINUOUS
100
AcDbLine
 10
11.87040758566313
 20
5.601446102613043
 30
0.0
 11
12.91960885665599
 21
6.650647373605907
 31
0.0
  0
LINE
  5
21AC7
330
21ABF
100
AcDbEntity
  8
0
  6
CONTINUOUS
100
AcDbLine
 10
12.06998833643825
 20
5.127507644307986
 30
0.0
 11
13.1191945936291
 21
6.176713901498832
 31
0.0
  0
LINE
  5
21AC8
330
21ABF
100
AcDbEntity
  8
0
  6
CONTINUOUS
100
AcDbLine
 10
12.26956908721338
 20
4.65356918600293
 30
0.0
 11
13.31878033060221
 21
5.702780429391757
 31
0.0
  0
LINE
  5
21AC9
330
21ABF
100
AcDbEntity
  8
0
  6
CONTINUOUS
100
AcDbLine
 10
12.46914983798851
 20
4.179630727697873
 30
0.0
 11
13.51836606757532
 21
5.228846957284683
 31
0.0
  0
LINE
  5
21ACA
330
21ABF
100
AcDbEntity
  8
0
  6
CONTINUOUS
100
AcDbLine
 10
12.66873058876364
 20
3.705692269392816
 30
0.0
 11
13.71795180454843
 21
4.754913485177607
 31
0.0
  0
LINE
  5
21ACB
330
21ABF
100
AcDbEntity
  8
0
  6
CONTINUOUS
100
AcDbLine
 10
12.86831133953877
 20
3.231753811087759
 30
0.0
 11
13.91753754152154
 21
4.280980013070531
 31
0.0
  0
LINE
  5
21ACC
330
21ABF
100
AcDbEntity
  8
0
  6
CONTINUOUS
100
AcDbLine
 10
13.0678920903139
 20
2.757815352782702
 30
0.0
 11
14.11712327849465
 21
3.807046540963456
 31
0.0
  0
LINE
  5
21ACD
330
21ABF
100
AcDbEntity
  8
0
  6
CONTINUOUS
100
AcDbLine
 10
13.26747284108903
 20
2.283876894477644
 30
0.0
 11
14.31670901546777
 21
3.333113068856379
 31
0.0
  0
LINE
  5
21ACE
330
21ABF
100
AcDbEntity
  8
0
  6
CONTINUOUS
100
AcDbLine
 10
16.36767838827179
 20
8.751678487061342
 30
0.0
 11
16.50332410898388
 21
8.887324207773432
 31
0.0
  0
LINE
  5
21ACF
330
21ABF
100
AcDbEntity
  8
0
  6
CONTINUOUS
100
AcDbLine
 10
15.96190732182191
 20
7.67238821153127
 30
0.0
 11
16.68735328004734
 21
8.397834169756699
 31
0.0
  0
LINE
  5
21AD0
330
21ABF
100
AcDbEntity
  8
0
  6
CONTINUOUS
100
AcDbLine
 10
15.55613625537202
 20
6.593097936001196
 30
0.0
 11
16.87138245111079
 21
7.908344131739965
 31
0.0
  0
LINE
  5
21AD1
330
21ABF
100
AcDbEntity
  8
0
  6
CONTINUOUS
100
AcDbLine
 10
15.15036518892213
 20
5.513807660471122
 30
0.0
 11
17.05541162217424
 21
7.418854093723231
 31
0.0
  0
LINE
  5
21AD2
330
21ABF
100
AcDbEntity
  8
0
  6
CONTINUOUS
100
AcDbLine
 10
14.74459412247225
 20
4.434517384941048
 30
0.0
 11
17.2394407932377
 21
6.929364055706499
 31
0.0
  0
LINE
  5
21AD3
330
21ABF
100
AcDbEntity
  8
0
  6
CONTINUOUS
100
AcDbLine
 10
14.33882305602236
 20
3.355227109410975
 30
0.0
 11
17.42346996430115
 21
6.439874017689766
 31
0.0
  0
LINE
  5
21AD4
330
21ABF
100
AcDbEntity
  8
0
  6
CONTINUOUS
100
AcDbLine
 10
13.46705359186416
 20
1.809938436172586
 30
0.0
 11
16.0819338255367
 21
4.424818669845129
 31
0.0
  0
LINE
  5
21AD5
330
21ABF
100
AcDbEntity
  8
0
  6
CONTINUOUS
100
AcDbLine
 10
16.63283254238972
 20
4.975717386698149
 30
0.0
 11
17.60749913536461
 21
5.950383979673033
 31
0.0
  0
LINE
  5
21AD6
330
21ABF
100
AcDbEntity
  8
0
  6
CONTINUOUS
100
AcDbLine
 10
13.66663434263929
 20
1.335999977867529
 30
0.0
 11
15.67604797733754
 21
3.345413612565779
 31
0.0
  0
LINE
  5
21AD7
330
21ABF
100
AcDbEntity
  8
0
  6
CONTINUOUS
100
AcDbLine
 10
13.86621509341442
 20
0.8620615195624723
 30
0.0
 11
15.27016212913838
 21
2.26600855528643
 31
0.0
  0
LINE
  5
21AD8
330
21ABF
100
AcDbEntity
  8
0
  6
CONTINUOUS
100
AcDbLine
 10
16.81682257348267
 20
4.486188208710908
 30
0.0
 11
17.79152830642806
 21
5.460893941656299
 31
0.0
  0
LINE
  5
21AD9
330
21ABF
100
AcDbEntity
  8
0
  6
CONTINUOUS
100
AcDbLine
 10
17.00081260457561
 20
3.996659030723667
 30
0.0
 11
17.97555747749151
 21
4.971403903639565
 31
0.0
  0
LINE
  5
21ADA
330
21ABF
100
AcDbEntity
  8
0
  6
CONTINUOUS
100
AcDbLine
 10
20.74362343514722
 20
8.412989070375462
 30
0.0
 11
21.09373436476302
 21
8.763099999991256
 31
0.0
  0
LINE
  5
21ADB
330
21ABF
100
AcDbEntity
  8
0
  6
CONTINUOUS
100
AcDbLine
 10
20.25401257174777
 20
7.249858997895826
 30
0.0
 11
21.7672535738432
 21
8.763099999991255
 31
0.0
  0
LINE
  5
21ADC
330
21ABF
100
AcDbEntity
  8
0
  6
CONTINUOUS
100
AcDbLine
 10
14.06579584418955
 20
0.3881230612574149
 30
0.0
 11
14.86427628093921
 21
1.186603498007082
 31
0.0
  0
LINE
  5
21ADD
330
21ABF
100
AcDbEntity
  8
0
  6
CONTINUOUS
100
AcDbLine
 10
14.26537659496467
 20
-0.0858153970476412
 30
0.0
 11
14.45839043274005
 21
0.1071984407277329
 31
0.0
  0
LINE
  5
21ADE
330
21ABF
100
AcDbEntity
  8
0
  6
CONTINUOUS
100
AcDbLine
 10
17.18480263566856
 20
3.507129852736426
 30
0.0
 11
18.15958664855496
 21
4.481913865622833
 31
0.0
  0
LINE
  5
21ADF
330
21ABF
100
AcDbEntity
  8
0
  6
CONTINUOUS
100
AcDbLine
 10
17.3687926667615
 20
3.017600674749186
 30
0.0
 11
18.34361581961842
 21
3.9924238276061
 31
0.0
  0
LINE
  5
21AE0
330
21ABF
100
AcDbEntity
  8
0
  6
CONTINUOUS
100
AcDbLine
 10
19.76440170834832
 20
6.086728925416191
 30
0.0
 11
22.33924590259489
 21
8.661573119662755
 31
0.0
  0
LINE
  5
21AE1
330
21ABF
100
AcDbEntity
  8
0
  6
CONTINUOUS
100
AcDbLine
 10
19.27479084494887
 20
4.923598852936555
 30
0.0
 11
21.84929622842713
 21
7.498104236414807
 31
0.0
  0
LINE
  5
21AE2
330
21ABF
100
AcDbEntity
  8
0
  6
CONTINUOUS
100
AcDbLine
 10
17.55278269785445
 20
2.528071496761945
 30
0.0
 11
18.52764499068187
 21
3.502933789589366
 31
0.0
  0
LINE
  5
21AE3
330
21ABF
100
AcDbEntity
  8
0
  6
CONTINUOUS
100
AcDbLine
 10
18.78517998154942
 20
3.760468780456919
 30
0.0
 11
21.35934655425936
 21
6.33463535316686
 31
0.0
  0
LINE
  5
21AE4
330
21ABF
100
AcDbEntity
  8
0
  6
CONTINUOUS
100
AcDbLine
 10
17.73677272894739
 20
2.038542318774704
 30
0.0
 11
20.8693968800916
 21
5.171166469918914
 31
0.0
  0
LINE
  5
21AE5
330
21ABF
100
AcDbEntity
  8
0
  6
CONTINUOUS
100
AcDbLine
 10
17.92076276004034
 20
1.549013140787464
 30
0.0
 11
20.37944720592384
 21
4.007697586670968
 31
0.0
  0
LINE
  5
21AE6
330
21ABF
100
AcDbEntity
  8
0
  6
CONTINUOUS
100
AcDbLine
 10
18.10475279113329
 20
1.059483962800223
 30
0.0
 11
19.88949753175608
 21
2.84422870342302
 31
0.0
  0
LINE
  5
21AE7
330
21ABF
100
AcDbEntity
  8
0
  6
CONTINUOUS
100
AcDbLine
 10
18.28874282222623
 20
0.5699547848129822
 30
0.0
 11
19.39954785758832
 21
1.680759820175074
 31
0.0
  0
LINE
  5
21AE8
330
21ABF
100
AcDbEntity
  8
0
  6
CONTINUOUS
100
AcDbLine
 10
18.47273285331918
 20
0.0804256068257416
 30
0.0
 11
18.90959818342056
 21
0.517290936927127
 31
0.0
  0
LINE
  5
21AE9
330
21ABF
100
AcDbEntity
  8
0
  6
CONTINUOUS
100
AcDbLine
 10
14.3590401358224
 20
-0.1570118376323384
 30
0.0
 11
14.24903296539946
 21
-0.0470046672093929
 31
0.0
  0
LINE
  5
21AEA
330
21ABF
100
AcDbEntity
  8
0
  6
CONTINUOUS
100
AcDbLine
 10
14.54309291258661
 20
0.332454594683643
 30
0.0
 11
13.75908329123172
 21
1.116464216038529
 31
0.0
  0
LINE
  5
21AEB
330
21ABF
100
AcDbEntity
  8
0
  6
CONTINUOUS
100
AcDbLine
 10
14.72714568935081
 20
0.8219210269996244
 30
0.0
 11
13.26913361706399
 21
2.27993309928645
 31
0.0
  0
LINE
  5
21AEC
330
21ABF
100
AcDbEntity
  8
0
  6
CONTINUOUS
100
AcDbLine
 10
14.91119846611502
 20
1.311387459315606
 30
0.0
 11
12.77918394289625
 21
3.443401982534371
 31
0.0
  0
LINE
  5
21AED
330
21ABF
100
AcDbEntity
  8
0
  6
CONTINUOUS
100
AcDbLine
 10
15.09525124287922
 20
1.800853891631587
 30
0.0
 11
12.28923426872852
 21
4.606870865782293
 31
0.0
  0
LINE
  5
21AEE
330
21ABF
100
AcDbEntity
  8
0
  6
CONTINUOUS
100
AcDbLine
 10
15.27930401964343
 20
2.290320323947569
 30
0.0
 11
11.79928459456078
 21
5.770339749030213
 31
0.0
  0
LINE
  5
21AEF
330
21ABF
100
AcDbEntity
  8
0
  6
CONTINUOUS
100
AcDbLine
 10
15.46335679640763
 20
2.77978675626355
 30
0.0
 11
14.48885470994921
 21
3.754288842721972
 31
0.0
  0
LINE
  5
21AF0
330
21ABF
100
AcDbEntity
  8
0
  6
CONTINUOUS
100
AcDbLine
 10
13.88507249233704
 20
4.358071060334137
 30
0.0
 11
11.30933492039305
 21
6.933808632278135
 31
0.0
  0
LINE
  5
21AF1
330
21ABF
100
AcDbEntity
  8
0
  6
CONTINUOUS
100
AcDbLine
 10
18.75840522805855
 20
0.1582575336928151
 30
0.0
 11
18.25383727664818
 21
0.6628254851031863
 31
0.0
  0
LINE
  5
21AF2
330
21ABF
100
AcDbEntity
  8
0
  6
CONTINUOUS
100
AcDbLine
 10
15.64740957317184
 20
3.269253188579531
 30
0.0
 11
14.67288388101266
 21
4.243778880738705
 31
0.0
  0
LINE
  5
21AF3
330
21ABF
100
AcDbEntity
  8
0
  6
CONTINUOUS
100
AcDbLine
 10
13.39509276772158
 20
5.521569994029786
 30
0.0
 11
10.81938524622531
 21
8.097277515526056
 31
0.0
  0
LINE
  5
21AF4
330
21ABF
100
AcDbEntity
  8
0
  6
CONTINUOUS
100
AcDbLine
 10
18.95798597883369
 20
0.6321959919978686
 30
0.0
 11
17.84825644852853
 21
1.741925522303024
 31
0.0
  0
LINE
  5
21AF5
330
21ABF
100
AcDbEntity
  8
0
  6
CONTINUOUS
100
AcDbLine
 10
19.15756672960882
 20
1.106134450302922
 30
0.0
 11
17.44267562040888
 21
2.821025559502861
 31
0.0
  0
LINE
  5
21AF6
330
21ABF
100
AcDbEntity
  8
0
  6
CONTINUOUS
100
AcDbLine
 10
15.83146234993604
 20
3.758719620895513
 30
0.0
 11
14.85691305207612
 21
4.733268918755439
 31
0.0
  0
LINE
  5
21AF7
330
21ABF
100
AcDbEntity
  8
0
  6
CONTINUOUS
100
AcDbLine
 10
16.01551512670025
 20
4.248186053211494
 30
0.0
 11
15.04094222313957
 21
5.222758956772172
 31
0.0
  0
LINE
  5
21AF8
330
21ABF
100
AcDbEntity
  8
0
  6
CONTINUOUS
100
AcDbLine
 10
12.90511304310612
 20
6.685068927725435
 30
0.0
 11
10.8270819708403
 21
8.763099999991255
 31
0.0
  0
LINE
  5
21AF9
330
21ABF
100
AcDbEntity
  8
0
  6
CONTINUOUS
100
AcDbLine
 10
12.41513331849066
 20
7.848567861421083
 30
0.0
 11
11.50060117992049
 21
8.763099999991255
 31
0.0
  0
LINE
  5
21AFA
330
21ABF
100
AcDbEntity
  8
0
  6
CONTINUOUS
100
AcDbLine
 10
19.35714748038395
 20
1.580072908607975
 30
0.0
 11
17.03709479228923
 21
3.900125596702697
 31
0.0
  0
LINE
  5
21AFB
330
21ABF
100
AcDbEntity
  8
0
  6
CONTINUOUS
100
AcDbLine
 10
19.55672823115909
 20
2.054011366913028
 30
0.0
 11
16.63151396416958
 21
4.979225633902534
 31
0.0
  0
LINE
  5
21AFC
330
21ABF
100
AcDbEntity
  8
0
  6
CONTINUOUS
100
AcDbLine
 10
16.19956790346445
 20
4.737652485527476
 30
0.0
 11
15.22497139420302
 21
5.712248994788904
 31
0.0
  0
LINE
  5
21AFD
330
21ABF
100
AcDbEntity
  8
0
  6
CONTINUOUS
100
AcDbLine
 10
16.38362068022866
 20
5.227118917843457
 30
0.0
 11
15.40900056526648
 21
6.201739032805637
 31
0.0
  0
LINE
  5
21AFE
330
21ABF
100
AcDbEntity
  8
0
  6
CONTINUOUS
100
AcDbLine
 10
19.75630898193422
 20
2.527949825218081
 30
0.0
 11
18.70774536448286
 21
3.576513442669441
 31
0.0
  0
LINE
  5
21AFF
330
21ABF
100
AcDbEntity
  8
0
  6
CONTINUOUS
100
AcDbLine
 10
19.95588973270936
 20
3.001888283523134
 30
0.0
 11
18.90726987211446
 21
4.050508144118028
 31
0.0
  0
LINE
  5
21B00
330
21ABF
100
AcDbEntity
  8
0
  6
CONTINUOUS
100
AcDbLine
 10
20.15547048348449
 20
3.475826741828186
 30
0.0
 11
19.10679437974606
 21
4.524502845566614
 31
0.0
  0
LINE
  5
21B01
330
21ABF
100
AcDbEntity
  8
0
  6
CONTINUOUS
100
AcDbLine
 10
20.35505123425962
 20
3.94976520013324
 30
0.0
 11
19.30631888737766
 21
4.998497547015201
 31
0.0
  0
LINE
  5
21B02
330
21ABF
100
AcDbEntity
  8
0
  6
CONTINUOUS
100
AcDbLine
 10
20.55463198503475
 20
4.423703658438292
 30
0.0
 11
19.50584339500926
 21
5.472492248463787
 31
0.0
  0
LINE
  5
21B03
330
21ABF
100
AcDbEntity
  8
0
  6
CONTINUOUS
100
AcDbLine
 10
18.37481191085755
 20
3.909446896294752
 30
0.0
 11
15.59302973632993
 21
6.691229070822371
 31
0.0
  0
LINE
  5
21B04
330
21ABF
100
AcDbEntity
  8
0
  6
CONTINUOUS
100
AcDbLine
 10
17.96904084440766
 20
4.988737171824825
 30
0.0
 11
15.77705890739338
 21
7.180719108839104
 31
0.0
  0
LINE
  5
21B05
330
21ABF
100
AcDbEntity
  8
0
  6
CONTINUOUS
100
AcDbLine
 10
17.56326977795777
 20
6.068027447354899
 30
0.0
 11
15.96108807845684
 21
7.670209146855838
 31
0.0
  0
LINE
  5
21B06
330
21ABF
100
AcDbEntity
  8
0
  6
CONTINUOUS
100
AcDbLine
 10
17.15749871150789
 20
7.147317722884972
 30
0.0
 11
16.14511724952029
 21
8.15969918487257
 31
0.0
  0
LINE
  5
21B07
330
21ABF
100
AcDbEntity
  8
0
  6
CONTINUOUS
100
AcDbLine
 10
16.751727645058
 20
8.226607998415046
 30
0.0
 11
16.32914642058374
 21
8.649189222889303
 31
0.0
  0
LINE
  5
21B08
330
21ABF
100
AcDbEntity
  8
0
  6
CONTINUOUS
100
AcDbLine
 10
20.75421273580989
 20
4.897642116743345
 30
0.0
 11
19.70536790264086
 21
5.946486949912374
 31
0.0
  0
LINE
  5
21B09
330
21ABF
100
AcDbEntity
  8
0
  6
CONTINUOUS
100
AcDbLine
 10
20.95379348658502
 20
5.371580575048398
 30
0.0
 11
19.90489241027246
 21
6.42048165136096
 31
0.0
  0
LINE
  5
21B0A
330
21ABF
100
AcDbEntity
  8
0
  6
CONTINUOUS
100
AcDbLine
 10
21.15337423736015
 20
5.845519033353452
 30
0.0
 11
20.10441691790406
 21
6.894476352809547
 31
0.0
  0
LINE
  5
21B0B
330
21ABF
100
AcDbEntity
  8
0
  6
CONTINUOUS
100
AcDbLine
 10
21.35295498813529
 20
6.319457491658505
 30
0.0
 11
20.30394142553566
 21
7.368471054258134
 31
0.0
  0
LINE
  5
21B0C
330
21ABF
100
AcDbEntity
  8
0
  6
CONTINUOUS
100
AcDbLine
 10
21.55253573891042
 20
6.793395949963558
 30
0.0
 11
20.50346593316726
 21
7.842465755706721
 31
0.0
  0
LINE
  5
21B0D
330
21ABF
100
AcDbEntity
  8
0
  6
CONTINUOUS
100
AcDbLine
 10
21.75211648968556
 20
7.267334408268612
 30
0.0
 11
20.70299044079886
 21
8.316460457155308
 31
0.0
  0
LINE
  5
21B0E
330
21ABF
100
AcDbEntity
  8
0
  6
CONTINUOUS
100
AcDbLine
 10
21.95169724046069
 20
7.741272866573663
 30
0.0
 11
20.9298701070431
 21
8.763099999991256
 31
0.0
  0
LINE
  5
21B0F
330
21ABF
100
AcDbEntity
  8
0
  6
CONTINUOUS
100
AcDbLine
 10
22.15127799123582
 20
8.215211324878716
 30
0.0
 11
21.60338931612328
 21
8.763099999991256
 31
0.0
  0
LINE
  5
21B10
330
21ABF
100
AcDbEntity
  8
0
  6
CONTINUOUS
100
AcDbLine
 10
22.35085874201096
 20
8.689149783183769
 30
0.0
 11
22.27690852520347
 21
8.763099999991255
 31
0.0
  0
ENDBLK
  5
21C02
330
21ABF
100
AcDbEntity
  8
0
100
AcDbBlockEnd
  0
BLOCK
  5
21C03
330
21B11
100
AcDbEntity
  8
0
100
AcDbBlockBegin
  2
*X62
 70
     1
 10
0.0
 20
0.0
 30
0.0
  3
*X62
  1

  0
LINE
  5
21B12
330
21B11
100
AcDbEntity
  8
0
  6
CONTINUOUS
100
AcDbLine
 10
23.19462913593892
 20
8.169917934846424
 30
0.0
 11
23.70775465517246
 21
8.683043454079957
 31
0.0
  0
LINE
  5
21B13
330
21B11
100
AcDbEntity
  8
0
  6
CONTINUOUS
100
AcDbLine
 10
22.64923161835078
 20
6.951001208178088
 30
0.0
 11
23.9159364069932
 21
8.217705996820516
 31
0.0
  0
LINE
  5
21B14
330
21B11
100
AcDbEntity
  8
0
  6
CONTINUOUS
100
AcDbLine
 10
22.10383410076263
 20
5.732084481509751
 30
0.0
 11
24.12411815881395
 21
7.752368539561078
 31
0.0
  0
LINE
  5
21B15
330
21B11
100
AcDbEntity
  8
0
  6
CONTINUOUS
100
AcDbLine
 10
21.55843658317447
 20
4.513167754841414
 30
0.0
 11
24.3322999106347
 21
7.287031082301639
 31
0.0
  0
LINE
  5
21B16
330
21B11
100
AcDbEntity
  8
0
  6
CONTINUOUS
100
AcDbLine
 10
21.01303906558632
 20
3.294251028173077
 30
0.0
 11
24.54048166245544
 21
6.821693625042199
 31
0.0
  0
LINE
  5
21B17
330
21B11
100
AcDbEntity
  8
0
  6
CONTINUOUS
100
AcDbLine
 10
20.46764154799817
 20
2.075334301504738
 30
0.0
 11
23.28571549467848
 21
4.89340824818505
 31
0.0
  0
LINE
  5
21B18
330
21B11
100
AcDbEntity
  8
0
  6
CONTINUOUS
100
AcDbLine
 10
19.92224403041002
 20
0.8564175748364002
 30
0.0
 11
22.74075865492779
 21
3.674932199354171
 31
0.0
  0
LINE
  5
21B19
330
21B11
100
AcDbEntity
  8
0
  6
CONTINUOUS
100
AcDbLine
 10
23.67305085490148
 20
5.280743608408048
 30
0.0
 11
24.74866341427619
 21
6.356356167782759
 31
0.0
  0
LINE
  5
21B1A
330
21B11
100
AcDbEntity
  8
0
  6
CONTINUOUS
100
AcDbLine
 10
23.88118970842314
 20
4.815363252849522
 30
0.0
 11
24.95684516609694
 21
5.89101871052332
 31
0.0
  0
LINE
  5
21B1B
330
21B11
100
AcDbEntity
  8
0
  6
CONTINUOUS
100
AcDbLine
 10
19.73925852647308
 20
-0.0000871381807288
 30
0.0
 11
23.4103456646501
 21
3.670999999996297
 31
0.0
  0
LINE
  5
21B1C
330
21B11
100
AcDbEntity
  8
0
  6
CONTINUOUS
100
AcDbLine
 10
24.0893285619448
 20
4.349982897290997
 30
0.0
 11
25.16502691791769
 21
5.42568125326388
 31
0.0
  0
LINE
  5
21B1D
330
21B11
100
AcDbEntity
  8
0
  6
CONTINUOUS
100
AcDbLine
 10
20.41282099582748
 20
-0.0000438779065108
 30
0.0
 11
21.64944178675636
 21
1.236576913022366
 31
0.0
  0
LINE
  5
21B1E
330
21B11
100
AcDbEntity
  8
0
  6
CONTINUOUS
100
AcDbLine
 10
22.78126487373161
 20
2.36839999999762
 30
0.0
 11
24.08386487373029
 21
3.670999999996297
 31
0.0
  0
LINE
  5
21B1F
330
21B11
100
AcDbEntity
  8
0
  6
CONTINUOUS
100
AcDbLine
 10
24.29746741546646
 20
3.884602541732471
 30
0.0
 11
25.37320866973843
 21
4.960343796004441
 31
0.0
  0
LINE
  5
21B20
330
21B11
100
AcDbEntity
  8
0
  6
CONTINUOUS
100
AcDbLine
 10
21.08638346518189
 20
-0.0000006176322938
 30
0.0
 11
21.10379033335899
 21
0.0174062505448083
 31
0.0
  0
LINE
  5
21B21
330
21B11
100
AcDbEntity
  8
0
  6
CONTINUOUS
100
AcDbLine
 10
23.4547840828118
 20
2.36839999999762
 30
0.0
 11
25.58139042155918
 21
4.495006338745002
 31
0.0
  0
LINE
  5
21B22
330
21B11
100
AcDbEntity
  8
0
  6
CONTINUOUS
100
AcDbLine
 10
29.30199999996933
 20
8.215615917155148
 30
0.0
 11
29.84948408280543
 21
8.763099999991255
 31
0.0
  0
LINE
  5
21B23
330
21B11
100
AcDbEntity
  8
0
  6
CONTINUOUS
100
AcDbLine
 10
24.12830329189199
 20
2.36839999999762
 30
0.0
 11
25.78957217337993
 21
4.029668881485562
 31
0.0
  0
LINE
  5
21B24
330
21B11
100
AcDbEntity
  8
0
  6
CONTINUOUS
100
AcDbLine
 10
29.30199999996933
 20
7.54209670807496
 30
0.0
 11
30.52300329188562
 21
8.763099999991255
 31
0.0
  0
LINE
  5
21B25
330
21B11
100
AcDbEntity
  8
0
  6
CONTINUOUS
100
AcDbLine
 10
24.80182250097217
 20
2.36839999999762
 30
0.0
 11
25.99775392520067
 21
3.564331424226122
 31
0.0
  0
LINE
  5
21B26
330
21B11
100
AcDbEntity
  8
0
  6
CONTINUOUS
100
AcDbLine
 10
29.30199999996933
 20
6.868577498994774
 30
0.0
 11
30.74199999996926
 21
8.308577498994712
 31
0.0
  0
LINE
  5
21B27
330
21B11
100
AcDbEntity
  8
0
  6
CONTINUOUS
100
AcDbLine
 10
25.13028238392013
 20
2.023340673865392
 30
0.0
 11
26.20593567702142
 21
3.098993966966683
 31
0.0
  0
LINE
  5
21B28
330
21B11
100
AcDbEntity
  8
0
  6
CONTINUOUS
100
AcDbLine
 10
25.33838066033617
 20
1.557919741201244
 30
0.0
 11
26.41411742884217
 21
2.633656509707244
 31
0.0
  0
LINE
  5
21B29
330
21B11
100
AcDbEntity
  8
0
  6
CONTINUOUS
100
AcDbLine
 10
25.54647893675221
 20
1.092498808537098
 30
0.0
 11
26.62229918066291
 21
2.168319052447804
 31
0.0
  0
LINE
  5
21B2A
330
21B11
100
AcDbEntity
  8
0
  6
CONTINUOUS
100
AcDbLine
 10
25.75457721316825
 20
0.62707787587295
 30
0.0
 11
26.83048093248366
 21
1.702981595188365
 31
0.0
  0
LINE
  5
21B2B
330
21B11
100
AcDbEntity
  8
0
  6
CONTINUOUS
100
AcDbLine
 10
29.30199999996933
 20
6.195058289914587
 30
0.0
 11
30.74199999996926
 21
7.635058289914522
 31
0.0
  0
LINE
  5
21B2C
330
21B11
100
AcDbEntity
  8
0
  6
CONTINUOUS
100
AcDbLine
 10
29.30199999996933
 20
5.521539080834401
 30
0.0
 11
30.74199999996926
 21
6.961539080834331
 31
0.0
  0
LINE
  5
21B2D
330
21B11
100
AcDbEntity
  8
0
  6
CONTINUOUS
100
AcDbLine
 10
29.30199999996933
 20
4.848019871754214
 30
0.0
 11
30.74199999996925
 21
6.288019871754143
 31
0.0
  0
LINE
  5
21B2E
330
21B11
100
AcDbEntity
  8
0
  6
CONTINUOUS
100
AcDbLine
 10
29.30199999996933
 20
4.174500662674028
 30
0.0
 11
30.74199999996925
 21
5.614500662673953
 31
0.0
  0
LINE
  5
21B2F
330
21B11
100
AcDbEntity
  8
0
  6
CONTINUOUS
100
AcDbLine
 10
25.96267548958429
 20
0.1616569432088024
 30
0.0
 11
27.18411854636669
 21
1.383099999991207
 31
0.0
  0
LINE
  5
21B30
330
21B11
100
AcDbEntity
  8
0
  6
CONTINUOUS
100
AcDbLine
 10
29.30199999996933
 20
3.500981453593841
 30
0.0
 11
30.74199999996925
 21
4.940981453593762
 31
0.0
  0
LINE
  5
21B31
330
21B11
100
AcDbEntity
  8
0
  6
CONTINUOUS
100
AcDbLine
 10
26.50763775544691
 20
0.0330999999912356
 30
0.0
 11
27.85763775544689
 21
1.383099999991223
 31
0.0
  0
LINE
  5
21B32
330
21B11
100
AcDbEntity
  8
0
  6
CONTINUOUS
100
AcDbLine
 10
29.30199999996933
 20
2.827462244513656
 30
0.0
 11
30.74199999996925
 21
4.267462244513574
 31
0.0
  0
LINE
  5
21B33
330
21B11
100
AcDbEntity
  8
0
  6
CONTINUOUS
100
AcDbLine
 10
27.18115696452709
 20
0.0330999999912356
 30
0.0
 11
28.6224847300034
 21
1.474427765467545
 31
0.0
  0
LINE
  5
21B34
330
21B11
100
AcDbEntity
  8
0
  6
CONTINUOUS
100
AcDbLine
 10
29.21067223449293
 20
2.062615269957069
 30
0.0
 11
30.74199999996924
 21
3.593943035433383
 31
0.0
  0
LINE
  5
21B35
330
21B11
100
AcDbEntity
  8
0
  6
CONTINUOUS
100
AcDbLine
 10
27.85467617360728
 20
0.0330999999912356
 30
0.0
 11
30.74199999996924
 21
2.920423826353195
 31
0.0
  0
LINE
  5
21B36
330
21B11
100
AcDbEntity
  8
0
  6
CONTINUOUS
100
AcDbLine
 10
28.57438609860264
 20
0.0792907159064073
 30
0.0
 11
30.69580928405405
 21
2.200713901357819
 31
0.0
  0
LINE
  5
21B37
330
21B11
100
AcDbEntity
  8
0
  6
CONTINUOUS
100
AcDbLine
 10
29.49443044814297
 20
0.3258158563665496
 30
0.0
 11
30.44928414359389
 21
1.280669551817477
 31
0.0
  0
LINE
  5
21B38
330
21B11
100
AcDbEntity
  8
0
  6
CONTINUOUS
100
AcDbLine
 10
19.59027867740337
 20
-0.0000967065718083
 30
0.0
 11
19.55485265190471
 21
0.035329318926844
 31
0.0
  0
LINE
  5
21B39
330
21B11
100
AcDbEntity
  8
0
  6
CONTINUOUS
100
AcDbLine
 10
20.26375463176586
 20
-0.0000534518541091
 30
0.0
 11
19.76305575737534
 21
0.5006454225364014
 31
0.0
  0
LINE
  5
21B3A
330
21B11
100
AcDbEntity
  8
0
  6
CONTINUOUS
100
AcDbLine
 10
20.93723058612834
 20
-0.0000101971364099
 30
0.0
 11
19.97125886284597
 21
0.965961526145958
 31
0.0
  0
LINE
  5
21B3B
330
21B11
100
AcDbEntity
  8
0
  6
CONTINUOUS
100
AcDbLine
 10
21.25514828313686
 20
0.355591314935257
 30
0.0
 11
20.1794619683166
 21
1.431277629755512
 31
0.0
  0
LINE
  5
21B3C
330
21B11
100
AcDbEntity
  8
0
  6
CONTINUOUS
100
AcDbLine
 10
21.46338838394921
 20
0.8208704232030986
 30
0.0
 11
20.38766507378723
 21
1.896593733365069
 31
0.0
  0
LINE
  5
21B3D
330
21B11
100
AcDbEntity
  8
0
  6
CONTINUOUS
100
AcDbLine
 10
21.67162848476155
 20
1.28614953147094
 30
0.0
 11
20.59586817925786
 21
2.361909836974626
 31
0.0
  0
LINE
  5
21B3E
330
21B11
100
AcDbEntity
  8
0
  6
CONTINUOUS
100
AcDbLine
 10
21.8798685855739
 20
1.751428639738782
 30
0.0
 11
20.80407128472849
 21
2.827225940584183
 31
0.0
  0
LINE
  5
21B3F
330
21B11
100
AcDbEntity
  8
0
  6
CONTINUOUS
100
AcDbLine
 10
22.08810868638624
 20
2.216707748006623
 30
0.0
 11
21.01227439019912
 21
3.292542044193739
 31
0.0
  0
LINE
  5
21B40
330
21B11
100
AcDbEntity
  8
0
  6
CONTINUOUS
100
AcDbLine
 10
22.60993564347543
 20
2.36839999999762
 30
0.0
 11
21.22047749566975
 21
3.757858147803296
 31
0.0
  0
LINE
  5
21B41
330
21B11
100
AcDbEntity
  8
0
  6
CONTINUOUS
100
AcDbLine
 10
23.28345485255561
 20
2.36839999999762
 30
0.0
 11
21.42868060114038
 21
4.223174251412853
 31
0.0
  0
LINE
  5
21B42
330
21B11
100
AcDbEntity
  8
0
  6
CONTINUOUS
100
AcDbLine
 10
26.29227406164219
 20
0.0330999999912356
 30
0.0
 11
25.80009199592872
 21
0.5252820657046957
 31
0.0
  0
LINE
  5
21B43
330
21B11
100
AcDbEntity
  8
0
  6
CONTINUOUS
100
AcDbLine
 10
23.9569740616358
 20
2.36839999999762
 30
0.0
 11
21.63688370661101
 21
4.688490355022409
 31
0.0
  0
LINE
  5
21B44
330
21B11
100
AcDbEntity
  8
0
  6
CONTINUOUS
100
AcDbLine
 10
26.96579327072237
 20
0.0330999999912356
 30
0.0
 11
25.2554132311971
 21
1.743480039516508
 31
0.0
  0
LINE
  5
21B45
330
21B11
100
AcDbEntity
  8
0
  6
CONTINUOUS
100
AcDbLine
 10
24.63049327071599
 20
2.36839999999762
 30
0.0
 11
23.32789327071731
 21
3.670999999996297
 31
0.0
  0
LINE
  5
21B46
330
21B11
100
AcDbEntity
  8
0
  6
CONTINUOUS
100
AcDbLine
 10
22.92098674744635
 20
4.077906523267254
 30
0.0
 11
21.84508681208164
 21
5.153806458631966
 31
0.0
  0
LINE
  5
21B47
330
21B11
100
AcDbEntity
  8
0
  6
CONTINUOUS
100
AcDbLine
 10
27.63931247980256
 20
0.0330999999912356
 30
0.0
 11
24.0014124797975
 21
3.670999999996297
 31
0.0
  0
LINE
  5
21B48
330
21B11
100
AcDbEntity
  8
0
  6
CONTINUOUS
100
AcDbLine
 10
23.129125600968
 20
4.5432868788258
 30
0.0
 11
22.05328991755227
 21
5.619122562241522
 31
0.0
  0
LINE
  5
21B49
330
21B11
100
AcDbEntity
  8
0
  6
CONTINUOUS
100
AcDbLine
 10
28.31283168888275
 20
0.0330999999912356
 30
0.0
 11
24.16488385994816
 21
4.181047828925828
 31
0.0
  0
LINE
  5
21B4A
330
21B11
100
AcDbEntity
  8
0
  6
CONTINUOUS
100
AcDbLine
 10
23.33726445448964
 20
5.008667234384345
 30
0.0
 11
22.2614930230229
 21
6.084438665851079
 31
0.0
  0
LINE
  5
21B4B
330
21B11
100
AcDbEntity
  8
0
  6
CONTINUOUS
100
AcDbLine
 10
28.86286302309502
 20
0.1565878748591523
 30
0.0
 11
27.63635089796295
 21
1.383099999991217
 31
0.0
  0
LINE
  5
21B4C
330
21B11
100
AcDbEntity
  8
0
  6
CONTINUOUS
100
AcDbLine
 10
26.43704649509776
 20
2.582404402856405
 30
0.0
 11
23.61992702019732
 21
5.399523877756844
 31
0.0
  0
LINE
  5
21B4D
330
21B11
100
AcDbEntity
  8
0
  6
CONTINUOUS
100
AcDbLine
 10
23.54540330801128
 20
5.47404758994289
 30
0.0
 11
22.46969612849353
 21
6.549754769460635
 31
0.0
  0
LINE
  5
21B4E
330
21B11
100
AcDbEntity
  8
0
  6
CONTINUOUS
100
AcDbLine
 10
29.39405087596853
 20
0.2989192310658284
 30
0.0
 11
28.30987010704312
 21
1.383099999991234
 31
0.0
  0
LINE
  5
21B4F
330
21B11
100
AcDbEntity
  8
0
  6
CONTINUOUS
100
AcDbLine
 10
25.89179548232307
 20
3.801174624711282
 30
0.0
 11
22.67789923396416
 21
7.015070873070191
 31
0.0
  0
LINE
  5
21B50
330
21B11
100
AcDbEntity
  8
0
  6
CONTINUOUS
100
AcDbLine
 10
29.79594438047407
 20
0.570544935640473
 30
0.0
 11
28.81310432793121
 21
1.553384988183336
 31
0.0
  0
LINE
  5
21B51
330
21B11
100
AcDbEntity
  8
0
  6
CONTINUOUS
100
AcDbLine
 10
25.34654446954838
 20
5.01994484656616
 30
0.0
 11
22.88610233943479
 21
7.480386976679748
 31
0.0
  0
LINE
  5
21B52
330
21B11
100
AcDbEntity
  8
0
  6
CONTINUOUS
100
AcDbLine
 10
30.13270398501416
 20
0.9073045401805646
 30
0.0
 11
29.14234640337737
 21
1.897662121817355
 31
0.0
  0
LINE
  5
21B53
330
21B11
100
AcDbEntity
  8
0
  6
CONTINUOUS
100
AcDbLine
 10
24.80129345677369
 20
6.238715068421037
 30
0.0
 11
23.09430544490542
 21
7.945703080289305
 31
0.0
  0
LINE
  5
21B54
330
21B11
100
AcDbEntity
  8
0
  6
CONTINUOUS
100
AcDbLine
 10
30.44581292956759
 20
1.26771480470732
 30
0.0
 11
29.30199999996933
 21
2.411527734305588
 31
0.0
  0
LINE
  5
21B55
330
21B11
100
AcDbEntity
  8
0
  6
CONTINUOUS
100
AcDbLine
 10
30.58814428577427
 20
1.798902657580827
 30
0.0
 11
29.30199999996933
 21
3.085046943385775
 31
0.0
  0
LINE
  5
21B56
330
21B11
100
AcDbEntity
  8
0
  6
CONTINUOUS
100
AcDbLine
 10
24.256042443999
 20
7.457485290275915
 30
0.0
 11
23.30250855037605
 21
8.411019183898862
 31
0.0
  0
LINE
  5
21B57
330
21B11
100
AcDbEntity
  8
0
  6
CONTINUOUS
100
AcDbLine
 10
23.71079143122431
 20
8.676255512130794
 30
0.0
 11
23.51071165584668
 21
8.876335287508418
 31
0.0
  0
LINE
  5
21B58
330
21B11
100
AcDbEntity
  8
0
  6
CONTINUOUS
100
AcDbLine
 10
30.73047564198095
 20
2.330090510454333
 30
0.0
 11
29.30199999996933
 21
3.758566152465961
 31
0.0
  0
LINE
  5
21B59
330
21B11
100
AcDbEntity
  8
0
  6
CONTINUOUS
100
AcDbLine
 10
30.74199999996924
 20
2.992085361546236
 30
0.0
 11
29.30199999996933
 21
4.432085361546148
 31
0.0
  0
LINE
  5
21B5A
330
21B11
100
AcDbEntity
  8
0
  6
CONTINUOUS
100
AcDbLine
 10
30.74199999996924
 20
3.665604570626419
 30
0.0
 11
29.30199999996933
 21
5.105604570626333
 31
0.0
  0
LINE
  5
21B5B
330
21B11
100
AcDbEntity
  8
0
  6
CONTINUOUS
100
AcDbLine
 10
30.74199999996925
 20
4.339123779706602
 30
0.0
 11
29.30199999996933
 21
5.77912377970652
 31
0.0
  0
LINE
  5
21B5C
330
21B11
100
AcDbEntity
  8
0
  6
CONTINUOUS
100
AcDbLine
 10
30.74199999996925
 20
5.012642988786785
 30
0.0
 11
29.30199999996933
 21
6.452642988786707
 31
0.0
  0
LINE
  5
21B5D
330
21B11
100
AcDbEntity
  8
0
  6
CONTINUOUS
100
AcDbLine
 10
30.74199999996925
 20
5.68616219786697
 30
0.0
 11
29.30199999996933
 21
7.126162197866894
 31
0.0
  0
LINE
  5
21B5E
330
21B11
100
AcDbEntity
  8
0
  6
CONTINUOUS
100
AcDbLine
 10
30.74199999996925
 20
6.359681406947153
 30
0.0
 11
29.30199999996933
 21
7.799681406947081
 31
0.0
  0
LINE
  5
21B5F
330
21B11
100
AcDbEntity
  8
0
  6
CONTINUOUS
100
AcDbLine
 10
30.74199999996926
 20
7.033200616027337
 30
0.0
 11
29.30199999996933
 21
8.473200616027269
 31
0.0
  0
LINE
  5
21B60
330
21B11
100
AcDbEntity
  8
0
  6
CONTINUOUS
100
AcDbLine
 10
30.74199999996926
 20
7.706719825107518
 30
0.0
 11
29.68561982508552
 21
8.763099999991255
 31
0.0
  0
LINE
  5
21B61
330
21B11
100
AcDbEntity
  8
0
  6
CONTINUOUS
100
AcDbLine
 10
30.74199999996926
 20
8.380239034187703
 30
0.0
 11
30.35913903416571
 21
8.763099999991255
 31
0.0
  0
ENDBLK
  5
21C04
330
21B11
100
AcDbEntity
  8
0
100
AcDbBlockEnd
  0
BLOCK
  5
21C05
330
21B62
100
AcDbEntity
  8
0
100
AcDbBlockBegin
  2
*X63
 70
     1
 10
0.0
 20
0.0
 30
0.0
  3
*X63
  1

  0
LINE
  5
21B63
330
21B62
100
AcDbEntity
  8
0
  6
CONTINUOUS
100
AcDbLine
 10
31.64199999996833
 20
8.5350582899136
 30
0.0
 11
31.87004171004599
 21
8.763099999991255
 31
0.0
  0
LINE
  5
21B64
330
21B62
100
AcDbEntity
  8
0
  6
CONTINUOUS
100
AcDbLine
 10
31.64199999996833
 20
7.861539080833413
 30
0.0
 11
32.54356091912618
 21
8.763099999991255
 31
0.0
  0
LINE
  5
21B65
330
21B62
100
AcDbEntity
  8
0
  6
CONTINUOUS
100
AcDbLine
 10
31.64199999996833
 20
7.188019871753227
 30
0.0
 11
33.08199999996839
 21
8.628019871753281
 31
0.0
  0
LINE
  5
21B66
330
21B62
100
AcDbEntity
  8
0
  6
CONTINUOUS
100
AcDbLine
 10
31.64199999996833
 20
6.514500662673041
 30
0.0
 11
33.08199999996839
 21
7.954500662673095
 31
0.0
  0
LINE
  5
21B67
330
21B62
100
AcDbEntity
  8
0
  6
CONTINUOUS
100
AcDbLine
 10
31.64199999996833
 20
5.840981453592855
 30
0.0
 11
33.08199999996839
 21
7.28098145359291
 31
0.0
  0
LINE
  5
21B68
330
21B62
100
AcDbEntity
  8
0
  6
CONTINUOUS
100
AcDbLine
 10
31.64199999996833
 20
5.167462244512668
 30
0.0
 11
33.08199999996839
 21
6.607462244512723
 31
0.0
  0
LINE
  5
21B69
330
21B62
100
AcDbEntity
  8
0
  6
CONTINUOUS
100
AcDbLine
 10
31.64199999996833
 20
4.493943035432482
 30
0.0
 11
33.08199999996839
 21
5.933943035432536
 31
0.0
  0
LINE
  5
21B6A
330
21B62
100
AcDbEntity
  8
0
  6
CONTINUOUS
100
AcDbLine
 10
31.64199999996833
 20
3.820423826352294
 30
0.0
 11
33.08199999996839
 21
5.260423826352349
 31
0.0
  0
LINE
  5
21B6B
330
21B62
100
AcDbEntity
  8
0
  6
CONTINUOUS
100
AcDbLine
 10
31.64199999996833
 20
3.146904617272108
 30
0.0
 11
33.08199999996839
 21
4.586904617272163
 31
0.0
  0
LINE
  5
21B6C
330
21B62
100
AcDbEntity
  8
0
  6
CONTINUOUS
100
AcDbLine
 10
36.23199999996837
 20
8.410423826352327
 30
0.0
 11
36.58467617360729
 21
8.763099999991255
 31
0.0
  0
LINE
  5
21B6D
330
21B62
100
AcDbEntity
  8
0
  6
CONTINUOUS
100
AcDbLine
 10
36.23199999996837
 20
7.73690461727214
 30
0.0
 11
37.25819538268748
 21
8.763099999991255
 31
0.0
  0
LINE
  5
21B6E
330
21B62
100
AcDbEntity
  8
0
  6
CONTINUOUS
100
AcDbLine
 10
31.64323424774199
 20
2.474619655965573
 30
0.0
 11
33.08199999996839
 21
3.913385408191976
 31
0.0
  0
LINE
  5
21B6F
330
21B62
100
AcDbEntity
  8
0
  6
CONTINUOUS
100
AcDbLine
 10
31.74419223861915
 20
1.902058437762552
 30
0.0
 11
33.08199999996839
 21
3.239866199111789
 31
0.0
  0
LINE
  5
21B70
330
21B62
100
AcDbEntity
  8
0
  6
CONTINUOUS
100
AcDbLine
 10
36.23199999996837
 20
7.063385408191953
 30
0.0
 11
37.67199999996831
 21
8.503385408191894
 31
0.0
  0
LINE
  5
21B71
330
21B62
100
AcDbEntity
  8
0
  6
CONTINUOUS
100
AcDbLine
 10
36.23199999996837
 20
6.389866199111767
 30
0.0
 11
37.67199999996831
 21
7.829866199111708
 31
0.0
  0
LINE
  5
21B72
330
21B62
100
AcDbEntity
  8
0
  6
CONTINUOUS
100
AcDbLine
 10
31.91111233414976
 20
1.39545932421297
 30
0.0
 11
33.08199999996839
 21
2.566346990031603
 31
0.0
  0
LINE
  5
21B73
330
21B62
100
AcDbEntity
  8
0
  6
CONTINUOUS
100
AcDbLine
 10
36.23199999996837
 20
5.71634699003158
 30
0.0
 11
37.67199999996831
 21
7.156346990031522
 31
0.0
  0
LINE
  5
21B74
330
21B62
100
AcDbEntity
  8
0
  6
CONTINUOUS
100
AcDbLine
 10
32.1576374746103
 20
0.9684652555933289
 30
0.0
 11
33.20642631446081
 21
2.017254095443838
 31
0.0
  0
LINE
  5
21B75
330
21B62
100
AcDbEntity
  8
0
  6
CONTINUOUS
100
AcDbLine
 10
36.23199999996837
 20
5.042827780951393
 30
0.0
 11
37.67199999996831
 21
6.482827780951334
 31
0.0
  0
LINE
  5
21B76
330
21B62
100
AcDbEntity
  8
0
  6
CONTINUOUS
100
AcDbLine
 10
32.47774023927325
 20
0.6150488111760914
 30
0.0
 11
33.49903056428258
 21
1.636339136185419
 31
0.0
  0
LINE
  5
21B77
330
21B62
100
AcDbEntity
  8
0
  6
CONTINUOUS
100
AcDbLine
 10
36.23199999996837
 20
4.369308571871207
 30
0.0
 11
37.67199999996831
 21
5.809308571871148
 31
0.0
  0
LINE
  5
21B78
330
21B62
100
AcDbEntity
  8
0
  6
CONTINUOUS
100
AcDbLine
 10
32.84396249154443
 20
0.3077518543670883
 30
0.0
 11
33.93324121824649
 21
1.397030581069146
 31
0.0
  0
LINE
  5
21B79
330
21B62
100
AcDbEntity
  8
0
  6
CONTINUOUS
100
AcDbLine
 10
36.23199999996837
 20
3.695789362791021
 30
0.0
 11
37.67199999996831
 21
5.135789362790963
 31
0.0
  0
LINE
  5
21B7A
330
21B62
100
AcDbEntity
  8
0
  6
CONTINUOUS
100
AcDbLine
 10
33.30186329036846
 20
0.0921334441109263
 30
0.0
 11
34.46442907112041
 21
1.254699224862875
 31
0.0
  0
LINE
  5
21B7B
330
21B62
100
AcDbEntity
  8
0
  6
CONTINUOUS
100
AcDbLine
 10
36.23199999996837
 20
3.022270153710834
 30
0.0
 11
37.67199999996831
 21
4.462270153710776
 31
0.0
  0
LINE
  5
21B7C
330
21B62
100
AcDbEntity
  8
0
  6
CONTINUOUS
100
AcDbLine
 10
33.79565647746294
 20
-0.0875925778747773
 30
0.0
 11
35.24350171668284
 21
1.360252661345124
 31
0.0
  0
LINE
  5
21B7D
330
21B62
100
AcDbEntity
  8
0
  6
CONTINUOUS
100
AcDbLine
 10
36.18336676155003
 20
2.300117706212308
 30
0.0
 11
37.67199999996831
 21
3.788750944630589
 31
0.0
  0
LINE
  5
21B7E
330
21B62
100
AcDbEntity
  8
0
  6
CONTINUOUS
100
AcDbLine
 10
34.37182574910968
 20
-0.184942515308224
 30
0.0
 11
37.67199999996831
 21
3.115231735550402
 31
0.0
  0
LINE
  5
21B7F
330
21B62
100
AcDbEntity
  8
0
  6
CONTINUOUS
100
AcDbLine
 10
35.0453449581892
 20
-0.1849425153088955
 30
0.0
 11
37.66345697088136
 21
2.433169497383271
 31
0.0
  0
LINE
  5
21B80
330
21B62
100
AcDbEntity
  8
0
  6
CONTINUOUS
100
AcDbLine
 10
35.98667157609191
 20
0.0828648935136398
 30
0.0
 11
37.51927401744566
 21
1.615467334867382
 31
0.0
  0
LINE
  5
21B81
330
21B62
100
AcDbEntity
  8
0
  6
CONTINUOUS
100
AcDbLine
 10
32.27747408544484
 20
0.7830920669904482
 30
0.0
 11
32.24716210471949
 21
0.8134040477157893
 31
0.0
  0
LINE
  5
21B82
330
21B62
100
AcDbEntity
  8
0
  6
CONTINUOUS
100
AcDbLine
 10
33.83656881101902
 20
-0.1024834495035494
 30
0.0
 11
31.72538911593758
 21
2.008696245577891
 31
0.0
  0
LINE
  5
21B83
330
21B62
100
AcDbEntity
  8
0
  6
CONTINUOUS
100
AcDbLine
 10
34.5925470859041
 20
-0.1849425153084434
 30
0.0
 11
31.64199999996833
 21
2.765604570627322
 31
0.0
  0
LINE
  5
21B84
330
21B62
100
AcDbEntity
  8
0
  6
CONTINUOUS
100
AcDbLine
 10
35.26201302775981
 20
-0.1808892480839752
 30
0.0
 11
31.64199999996833
 21
3.439123779707508
 31
0.0
  0
LINE
  5
21B85
330
21B62
100
AcDbEntity
  8
0
  6
CONTINUOUS
100
AcDbLine
 10
35.75580621485512
 20
-0.0011632260990879
 30
0.0
 11
34.51294304365551
 21
1.241699945100514
 31
0.0
  0
LINE
  5
21B86
330
21B62
100
AcDbEntity
  8
0
  6
CONTINUOUS
100
AcDbLine
 10
33.08199999996839
 20
2.672642988787641
 30
0.0
 11
31.64199999996833
 21
4.112642988787695
 31
0.0
  0
LINE
  5
21B87
330
21B62
100
AcDbEntity
  8
0
  6
CONTINUOUS
100
AcDbLine
 10
36.24959940195042
 20
0.1785627958857976
 30
0.0
 11
35.10501653033629
 21
1.323145667499924
 31
0.0
  0
LINE
  5
21B88
330
21B62
100
AcDbEntity
  8
0
  6
CONTINUOUS
100
AcDbLine
 10
33.08199999996839
 20
3.346162197867827
 30
0.0
 11
31.64199999996833
 21
4.786162197867881
 31
0.0
  0
LINE
  5
21B89
330
21B62
100
AcDbEntity
  8
0
  6
CONTINUOUS
100
AcDbLine
 10
36.64615197150552
 20
0.4555294354108876
 30
0.0
 11
35.6362043832099
 21
1.465477023706505
 31
0.0
  0
LINE
  5
21B8A
330
21B62
100
AcDbEntity
  8
0
  6
CONTINUOUS
100
AcDbLine
 10
33.08199999996839
 20
4.019681406948013
 30
0.0
 11
31.64199999996833
 21
5.459681406948068
 31
0.0
  0
LINE
  5
21B8B
330
21B62
100
AcDbEntity
  8
0
  6
CONTINUOUS
100
AcDbLine
 10
37.0123742237774
 20
0.7628263922191891
 30
0.0
 11
35.97691545773309
 21
1.798285158263504
 31
0.0
  0
LINE
  5
21B8C
330
21B62
100
AcDbEntity
  8
0
  6
CONTINUOUS
100
AcDbLine
 10
33.08199999996839
 20
4.6932006160282
 30
0.0
 11
31.64199999996833
 21
6.133200616028255
 31
0.0
  0
LINE
  5
21B8D
330
21B62
100
AcDbEntity
  8
0
  6
CONTINUOUS
100
AcDbLine
 10
37.27491524157143
 20
1.173804583505349
 30
0.0
 11
36.17602012811361
 21
2.272699696963169
 31
0.0
  0
LINE
  5
21B8E
330
21B62
100
AcDbEntity
  8
0
  6
CONTINUOUS
100
AcDbLine
 10
33.08199999996839
 20
5.366719825108387
 30
0.0
 11
31.64199999996833
 21
6.806719825108441
 31
0.0
  0
LINE
  5
21B8F
330
21B62
100
AcDbEntity
  8
0
  6
CONTINUOUS
100
AcDbLine
 10
37.51739996707661
 20
1.604839067080355
 30
0.0
 11
36.23199999996837
 21
2.890239034188595
 31
0.0
  0
LINE
  5
21B90
330
21B62
100
AcDbEntity
  8
0
  6
CONTINUOUS
100
AcDbLine
 10
37.6183579579535
 20
2.177400285283649
 30
0.0
 11
36.23199999996837
 21
3.563758243268782
 31
0.0
  0
LINE
  5
21B91
330
21B62
100
AcDbEntity
  8
0
  6
CONTINUOUS
100
AcDbLine
 10
33.08199999996839
 20
6.040239034188573
 30
0.0
 11
31.64199999996833
 21
7.480239034188628
 31
0.0
  0
LINE
  5
21B92
330
21B62
100
AcDbEntity
  8
0
  6
CONTINUOUS
100
AcDbLine
 10
33.08199999996839
 20
6.713758243268759
 30
0.0
 11
31.64199999996833
 21
8.153758243268815
 31
0.0
  0
LINE
  5
21B93
330
21B62
100
AcDbEntity
  8
0
  6
CONTINUOUS
100
AcDbLine
 10
37.67199999996831
 20
2.797277452349027
 30
0.0
 11
36.23199999996837
 21
4.237277452348969
 31
0.0
  0
LINE
  5
21B94
330
21B62
100
AcDbEntity
  8
0
  6
CONTINUOUS
100
AcDbLine
 10
37.67199999996831
 20
3.470796661429214
 30
0.0
 11
36.23199999996837
 21
4.910796661429155
 31
0.0
  0
LINE
  5
21B95
330
21B62
100
AcDbEntity
  8
0
  6
CONTINUOUS
100
AcDbLine
 10
37.67199999996831
 20
4.1443158705094
 30
0.0
 11
36.23199999996837
 21
5.584315870509341
 31
0.0
  0
LINE
  5
21B96
330
21B62
100
AcDbEntity
  8
0
  6
CONTINUOUS
100
AcDbLine
 10
33.08199999996839
 20
7.387277452348946
 30
0.0
 11
31.70617745232608
 21
8.763099999991255
 31
0.0
  0
LINE
  5
21B97
330
21B62
100
AcDbEntity
  8
0
  6
CONTINUOUS
100
AcDbLine
 10
33.08199999996839
 20
8.060796661429134
 30
0.0
 11
32.37969666140626
 21
8.763099999991255
 31
0.0
  0
LINE
  5
21B98
330
21B62
100
AcDbEntity
  8
0
  6
CONTINUOUS
100
AcDbLine
 10
33.08199999996839
 20
8.734315870509318
 30
0.0
 11
33.05321587048645
 21
8.763099999991255
 31
0.0
  0
LINE
  5
21B99
330
21B62
100
AcDbEntity
  8
0
  6
CONTINUOUS
100
AcDbLine
 10
37.67199999996831
 20
4.817835079589586
 30
0.0
 11
36.23199999996837
 21
6.257835079589528
 31
0.0
  0
LINE
  5
21B9A
330
21B62
100
AcDbEntity
  8
0
  6
CONTINUOUS
100
AcDbLine
 10
37.67199999996831
 20
5.491354288669772
 30
0.0
 11
36.23199999996837
 21
6.931354288669715
 31
0.0
  0
LINE
  5
21B9B
330
21B62
100
AcDbEntity
  8
0
  6
CONTINUOUS
100
AcDbLine
 10
37.67199999996831
 20
6.164873497749959
 30
0.0
 11
36.23199999996837
 21
7.6048734977499
 31
0.0
  0
LINE
  5
21B9C
330
21B62
100
AcDbEntity
  8
0
  6
CONTINUOUS
100
AcDbLine
 10
37.67199999996831
 20
6.838392706830145
 30
0.0
 11
36.23199999996837
 21
8.278392706830086
 31
0.0
  0
LINE
  5
21B9D
330
21B62
100
AcDbEntity
  8
0
  6
CONTINUOUS
100
AcDbLine
 10
37.67199999996831
 20
7.511911915910333
 30
0.0
 11
36.42081191588738
 21
8.763099999991255
 31
0.0
  0
LINE
  5
21B9E
330
21B62
100
AcDbEntity
  8
0
  6
CONTINUOUS
100
AcDbLine
 10
37.67199999996831
 20
8.185431124990519
 30
0.0
 11
37.09433112496757
 21
8.763099999991255
 31
0.0
  0
ENDBLK
  5
21C06
330
21B62
100
AcDbEntity
  8
0
100
AcDbBlockEnd
  0
BLOCK
  5
21C07
330
21B9F
100
AcDbEntity
  8
0
100
AcDbBlockBegin
  2
*X64
 70
     1
 10
0.0
 20
0.0
 30
0.0
  3
*X64
  1

  0
LINE
  5
21BA0
330
21B9F
100
AcDbEntity
  8
0
  6
CONTINUOUS
100
AcDbLine
 10
38.60499999996136
 20
8.762866199104765
 30
0.0
 11
38.71672554182345
 21
8.874591740966855
 31
0.0
  0
LINE
  5
21BA1
330
21B9F
100
AcDbEntity
  8
0
  6
CONTINUOUS
100
AcDbLine
 10
38.60499999996136
 20
8.089346990024577
 30
0.0
 11
39.03418785440363
 21
8.518534844466847
 31
0.0
  0
LINE
  5
21BA2
330
21B9F
100
AcDbEntity
  8
0
  6
CONTINUOUS
100
AcDbLine
 10
38.60499999996136
 20
7.41582778094439
 30
0.0
 11
39.35165016698382
 21
8.16247794796684
 31
0.0
  0
LINE
  5
21BA3
330
21B9F
100
AcDbEntity
  8
0
  6
CONTINUOUS
100
AcDbLine
 10
38.60499999996136
 20
6.742308571864204
 30
0.0
 11
39.66911247956399
 21
7.806421051466834
 31
0.0
  0
LINE
  5
21BA4
330
21B9F
100
AcDbEntity
  8
0
  6
CONTINUOUS
100
AcDbLine
 10
38.60499999996136
 20
6.068789362784018
 30
0.0
 11
39.98657479214418
 21
7.450364154966827
 31
0.0
  0
LINE
  5
21BA5
330
21B9F
100
AcDbEntity
  8
0
  6
CONTINUOUS
100
AcDbLine
 10
38.60499999996136
 20
5.395270153703832
 30
0.0
 11
40.30403710472435
 21
7.09430725846682
 31
0.0
  0
LINE
  5
21BA6
330
21B9F
100
AcDbEntity
  8
0
  6
CONTINUOUS
100
AcDbLine
 10
38.60499999996136
 20
4.721750944623645
 30
0.0
 11
40.62149941730453
 21
6.738250361966813
 31
0.0
  0
LINE
  5
21BA7
330
21B9F
100
AcDbEntity
  8
0
  6
CONTINUOUS
100
AcDbLine
 10
38.60499999996136
 20
4.048231735543458
 30
0.0
 11
40.93896172988471
 21
6.382193465466806
 31
0.0
  0
LINE
  5
21BA8
330
21B9F
100
AcDbEntity
  8
0
  6
CONTINUOUS
100
AcDbLine
 10
38.60499999996136
 20
3.374712526463272
 30
0.0
 11
40.02599999995994
 21
4.795712526461843
 31
0.0
  0
LINE
  5
21BA9
330
21B9F
100
AcDbEntity
  8
0
  6
CONTINUOUS
100
AcDbLine
 10
38.60499999996136
 20
2.701193317383085
 30
0.0
 11
40.02599999995994
 21
4.122193317381657
 31
0.0
  0
LINE
  5
21BAA
330
21B9F
100
AcDbEntity
  8
0
  6
CONTINUOUS
100
AcDbLine
 10
40.28339754687704
 20
5.053110073378947
 30
0.0
 11
41.25642404246489
 21
6.026136568966799
 31
0.0
  0
LINE
  5
21BAB
330
21B9F
100
AcDbEntity
  8
0
  6
CONTINUOUS
100
AcDbLine
 10
40.60085985945722
 20
4.697053176878939
 30
0.0
 11
41.57388635504507
 21
5.670079672466793
 31
0.0
  0
LINE
  5
21BAC
330
21B9F
100
AcDbEntity
  8
0
  6
CONTINUOUS
100
AcDbLine
 10
43.57899999995641
 20
8.348712526458318
 30
0.0
 11
43.99338747348935
 21
8.763099999991255
 31
0.0
  0
LINE
  5
21BAD
330
21B9F
100
AcDbEntity
  8
0
  6
CONTINUOUS
100
AcDbLine
 10
43.57899999995641
 20
7.675193317378131
 30
0.0
 11
44.66690668256953
 21
8.763099999991255
 31
0.0
  0
LINE
  5
21BAE
330
21B9F
100
AcDbEntity
  8
0
  6
CONTINUOUS
100
AcDbLine
 10
38.60499999996136
 20
2.027674108302898
 30
0.0
 11
40.02599999995994
 21
3.44867410830147
 31
0.0
  0
LINE
  5
21BAF
330
21B9F
100
AcDbEntity
  8
0
  6
CONTINUOUS
100
AcDbLine
 10
38.60499999996136
 20
1.354154899222712
 30
0.0
 11
40.02599999995994
 21
2.775154899221284
 31
0.0
  0
LINE
  5
21BB0
330
21B9F
100
AcDbEntity
  8
0
  6
CONTINUOUS
100
AcDbLine
 10
38.60499999996136
 20
0.6806356901425255
 30
0.0
 11
40.02599999995994
 21
2.101635690141098
 31
0.0
  0
LINE
  5
21BB1
330
21B9F
100
AcDbEntity
  8
0
  6
CONTINUOUS
100
AcDbLine
 10
38.60499999996136
 20
0.0071164810623383
 30
0.0
 11
40.02599999995994
 21
1.428116481060911
 31
0.0
  0
LINE
  5
21BB2
330
21B9F
100
AcDbEntity
  8
0
  6
CONTINUOUS
100
AcDbLine
 10
40.9183221720374
 20
4.340996280378933
 30
0.0
 11
41.89134866762525
 21
5.314022775966786
 31
0.0
  0
LINE
  5
21BB3
330
21B9F
100
AcDbEntity
  8
0
  6
CONTINUOUS
100
AcDbLine
 10
41.23578448461758
 20
3.984939383878926
 30
0.0
 11
42.20881098020543
 21
4.957965879466778
 31
0.0
  0
LINE
  5
21BB4
330
21B9F
100
AcDbEntity
  8
0
  6
CONTINUOUS
100
AcDbLine
 10
41.55324679719776
 20
3.628882487378919
 30
0.0
 11
42.52627329278561
 21
4.601908982966772
 31
0.0
  0
LINE
  5
21BB5
330
21B9F
100
AcDbEntity
  8
0
  6
CONTINUOUS
100
AcDbLine
 10
41.87070910977793
 20
3.272825590878912
 30
0.0
 11
42.84373560536579
 21
4.245852086466765
 31
0.0
  0
LINE
  5
21BB6
330
21B9F
100
AcDbEntity
  8
0
  6
CONTINUOUS
100
AcDbLine
 10
43.57899999995641
 20
7.001674108297943
 30
0.0
 11
44.99999999995498
 21
8.422674108296516
 31
0.0
  0
LINE
  5
21BB7
330
21B9F
100
AcDbEntity
  8
0
  6
CONTINUOUS
100
AcDbLine
 10
43.57899999995641
 20
6.328154899217758
 30
0.0
 11
44.99999999995498
 21
7.749154899216329
 31
0.0
  0
LINE
  5
21BB8
330
21B9F
100
AcDbEntity
  8
0
  6
CONTINUOUS
100
AcDbLine
 10
43.57899999995641
 20
5.654635690137571
 30
0.0
 11
44.99999999995498
 21
7.075635690136142
 31
0.0
  0
LINE
  5
21BB9
330
21B9F
100
AcDbEntity
  8
0
  6
CONTINUOUS
100
AcDbLine
 10
43.57899999995641
 20
4.981116481057384
 30
0.0
 11
44.99999999995498
 21
6.402116481055955
 31
0.0
  0
LINE
  5
21BBA
330
21B9F
100
AcDbEntity
  8
0
  6
CONTINUOUS
100
AcDbLine
 10
39.27140272797921
 20
-0.0000000000000009
 30
0.0
 11
40.02599999995994
 21
0.7545972719807246
 31
0.0
  0
LINE
  5
21BBB
330
21B9F
100
AcDbEntity
  8
0
  6
CONTINUOUS
100
AcDbLine
 10
39.9449219370594
 20
-0.0000000000000009
 30
0.0
 11
40.02599999995994
 21
0.0810780629005379
 31
0.0
  0
LINE
  5
21BBC
330
21B9F
100
AcDbEntity
  8
0
  6
CONTINUOUS
100
AcDbLine
 10
42.18817142235812
 20
2.916768694378905
 30
0.0
 11
43.16119791794597
 21
3.889795189966758
 31
0.0
  0
LINE
  5
21BBD
330
21B9F
100
AcDbEntity
  8
0
  6
CONTINUOUS
100
AcDbLine
 10
42.50563373493829
 20
2.560711797878898
 30
0.0
 11
43.47866023052615
 21
3.533738293466751
 31
0.0
  0
LINE
  5
21BBE
330
21B9F
100
AcDbEntity
  8
0
  6
CONTINUOUS
100
AcDbLine
 10
43.57899999995641
 20
4.307597271977198
 30
0.0
 11
44.99999999995498
 21
5.728597271975769
 31
0.0
  0
LINE
  5
21BBF
330
21B9F
100
AcDbEntity
  8
0
  6
CONTINUOUS
100
AcDbLine
 10
43.57899999995641
 20
3.634078062897011
 30
0.0
 11
44.99999999995498
 21
5.055078062895582
 31
0.0
  0
LINE
  5
21BC0
330
21B9F
100
AcDbEntity
  8
0
  6
CONTINUOUS
100
AcDbLine
 10
42.82309604751848
 20
2.204654901378891
 30
0.0
 11
44.99999999995498
 21
4.381558853815395
 31
0.0
  0
LINE
  5
21BC1
330
21B9F
100
AcDbEntity
  8
0
  6
CONTINUOUS
100
AcDbLine
 10
43.14055836009865
 20
1.848598004878885
 30
0.0
 11
44.99999999995498
 21
3.70803964473521
 31
0.0
  0
LINE
  5
21BC2
330
21B9F
100
AcDbEntity
  8
0
  6
CONTINUOUS
100
AcDbLine
 10
43.45802067267883
 20
1.492541108378878
 30
0.0
 11
44.99999999995498
 21
3.034520435655023
 31
0.0
  0
LINE
  5
21BC3
330
21B9F
100
AcDbEntity
  8
0
  6
CONTINUOUS
100
AcDbLine
 10
43.77548298525902
 20
1.136484211878871
 30
0.0
 11
44.99999999995498
 21
2.361001226574837
 31
0.0
  0
LINE
  5
21BC4
330
21B9F
100
AcDbEntity
  8
0
  6
CONTINUOUS
100
AcDbLine
 10
44.09294529783919
 20
0.7804273153788639
 30
0.0
 11
44.99999999995498
 21
1.687482017494649
 31
0.0
  0
LINE
  5
21BC5
330
21B9F
100
AcDbEntity
  8
0
  6
CONTINUOUS
100
AcDbLine
 10
44.41040761041938
 20
0.4243704188788566
 30
0.0
 11
44.99999999995498
 21
1.013962808414463
 31
0.0
  0
LINE
  5
21BC6
330
21B9F
100
AcDbEntity
  8
0
  6
CONTINUOUS
100
AcDbLine
 10
44.72786992299955
 20
0.0683135223788494
 30
0.0
 11
44.99999999995498
 21
0.340443599334276
 31
0.0
  0
LINE
  5
21BC7
330
21B9F
100
AcDbEntity
  8
0
  6
CONTINUOUS
100
AcDbLine
 10
39.12223903415696
 20
-0.0000000000000009
 30
0.0
 11
38.60499999996136
 21
0.5172390341955961
 31
0.0
  0
LINE
  5
21BC8
330
21B9F
100
AcDbEntity
  8
0
  6
CONTINUOUS
100
AcDbLine
 10
39.79575824323715
 20
-0.0000000000000009
 30
0.0
 11
38.60499999996136
 21
1.190758243275783
 31
0.0
  0
LINE
  5
21BC9
330
21B9F
100
AcDbEntity
  8
0
  6
CONTINUOUS
100
AcDbLine
 10
40.02599999995994
 20
0.443277452357397
 30
0.0
 11
38.60499999996136
 21
1.864277452355969
 31
0.0
  0
LINE
  5
21BCA
330
21B9F
100
AcDbEntity
  8
0
  6
CONTINUOUS
100
AcDbLine
 10
40.02599999995994
 20
1.116796661437583
 30
0.0
 11
38.60499999996136
 21
2.537796661436155
 31
0.0
  0
LINE
  5
21BCB
330
21B9F
100
AcDbEntity
  8
0
  6
CONTINUOUS
100
AcDbLine
 10
40.02599999995994
 20
1.79031587051777
 30
0.0
 11
38.60499999996136
 21
3.211315870516341
 31
0.0
  0
LINE
  5
21BCC
330
21B9F
100
AcDbEntity
  8
0
  6
CONTINUOUS
100
AcDbLine
 10
40.02599999995994
 20
2.463835079597956
 30
0.0
 11
38.60499999996136
 21
3.884835079596527
 31
0.0
  0
LINE
  5
21BCD
330
21B9F
100
AcDbEntity
  8
0
  6
CONTINUOUS
100
AcDbLine
 10
40.02599999995994
 20
3.137354288678143
 30
0.0
 11
38.60499999996136
 21
4.558354288676714
 31
0.0
  0
LINE
  5
21BCE
330
21B9F
100
AcDbEntity
  8
0
  6
CONTINUOUS
100
AcDbLine
 10
40.02599999995994
 20
3.810873497758329
 30
0.0
 11
38.60499999996136
 21
5.2318734977569
 31
0.0
  0
LINE
  5
21BCF
330
21B9F
100
AcDbEntity
  8
0
  6
CONTINUOUS
100
AcDbLine
 10
40.02599999995994
 20
4.484392706838515
 30
0.0
 11
38.60499999996136
 21
5.905392706837086
 31
0.0
  0
LINE
  5
21BD0
330
21B9F
100
AcDbEntity
  8
0
  6
CONTINUOUS
100
AcDbLine
 10
44.99999999995498
 20
0.183911915923658
 30
0.0
 11
41.53858364506288
 21
3.64532827081576
 31
0.0
  0
LINE
  5
21BD1
330
21B9F
100
AcDbEntity
  8
0
  6
CONTINUOUS
100
AcDbLine
 10
40.02599999995994
 20
5.157911915918703
 30
0.0
 11
38.60499999996136
 21
6.578911915917274
 31
0.0
  0
LINE
  5
21BD2
330
21B9F
100
AcDbEntity
  8
0
  6
CONTINUOUS
100
AcDbLine
 10
44.99999999995498
 20
0.8574311250038447
 30
0.0
 11
38.60499999996136
 21
7.25243112499746
 31
0.0
  0
LINE
  5
21BD3
330
21B9F
100
AcDbEntity
  8
0
  6
CONTINUOUS
100
AcDbLine
 10
44.99999999995498
 20
1.530950334084031
 30
0.0
 11
38.60499999996136
 21
7.925950334077647
 31
0.0
  0
LINE
  5
21BD4
330
21B9F
100
AcDbEntity
  8
0
  6
CONTINUOUS
100
AcDbLine
 10
44.99999999995498
 20
2.204469543164218
 30
0.0
 11
43.57899999995641
 21
3.625469543162789
 31
0.0
  0
LINE
  5
21BD5
330
21B9F
100
AcDbEntity
  8
0
  6
CONTINUOUS
100
AcDbLine
 10
41.89876730984767
 20
5.305702233271528
 30
0.0
 11
38.60499999996136
 21
8.599469543157834
 31
0.0
  0
LINE
  5
21BD6
330
21B9F
100
AcDbEntity
  8
0
  6
CONTINUOUS
100
AcDbLine
 10
44.99999999995498
 20
2.877988752244405
 30
0.0
 11
43.57899999995641
 21
4.298988752242975
 31
0.0
  0
LINE
  5
21BD7
330
21B9F
100
AcDbEntity
  8
0
  6
CONTINUOUS
100
AcDbLine
 10
44.99999999995498
 20
3.551507961324591
 30
0.0
 11
43.57899999995641
 21
4.972507961323163
 31
0.0
  0
LINE
  5
21BD8
330
21B9F
100
AcDbEntity
  8
0
  6
CONTINUOUS
100
AcDbLine
 10
44.99999999995498
 20
4.225027170404777
 30
0.0
 11
43.57899999995641
 21
5.646027170403348
 31
0.0
  0
LINE
  5
21BD9
330
21B9F
100
AcDbEntity
  8
0
  6
CONTINUOUS
100
AcDbLine
 10
44.99999999995498
 20
4.898546379484964
 30
0.0
 11
43.57899999995641
 21
6.319546379483535
 31
0.0
  0
LINE
  5
21BDA
330
21B9F
100
AcDbEntity
  8
0
  6
CONTINUOUS
100
AcDbLine
 10
44.99999999995498
 20
5.572065588565151
 30
0.0
 11
43.57899999995641
 21
6.993065588563722
 31
0.0
  0
LINE
  5
21BDB
330
21B9F
100
AcDbEntity
  8
0
  6
CONTINUOUS
100
AcDbLine
 10
44.99999999995498
 20
6.245584797645336
 30
0.0
 11
43.57899999995641
 21
7.666584797643908
 31
0.0
  0
LINE
  5
21BDC
330
21B9F
100
AcDbEntity
  8
0
  6
CONTINUOUS
100
AcDbLine
 10
44.99999999995498
 20
6.919104006725522
 30
0.0
 11
43.57899999995641
 21
8.340104006724093
 31
0.0
  0
LINE
  5
21BDD
330
21B9F
100
AcDbEntity
  8
0
  6
CONTINUOUS
100
AcDbLine
 10
44.99999999995498
 20
7.592623215805709
 30
0.0
 11
43.82952321576943
 21
8.763099999991255
 31
0.0
  0
LINE
  5
21BDE
330
21B9F
100
AcDbEntity
  8
0
  6
CONTINUOUS
100
AcDbLine
 10
44.99999999995498
 20
8.266142424885896
 30
0.0
 11
44.50304242484962
 21
8.763099999991255
 31
0.0
  0
ENDBLK
  5
21C08
330
21B9F
100
AcDbEntity
  8
0
100
AcDbBlockEnd
  0
BLOCK
  5
21C09
330
21BDF
100
AcDbEntity
  8
0
100
AcDbBlockBegin
  2
*X65
 70
     1
 10
0.0
 20
0.0
 30
0.0
  3
*X65
  1

  0
LINE
  5
21BE0
330
21BDF
100
AcDbEntity
  8
0
  6
CONTINUOUS
100
AcDbLine
 10
0.0
 20
8.548461116714023
 30
0.0
 11
0.2146388832772324
 21
8.763099999991255
 31
0.0
  0
LINE
  5
21BE1
330
21BDF
100
AcDbEntity
  8
0
  6
CONTINUOUS
100
AcDbLine
 10
-0.0000000000000002
 20
7.874941907633837
 30
0.0
 11
0.8881580923574184
 21
8.763099999991255
 31
0.0
  0
LINE
  5
21BE2
330
21BDF
100
AcDbEntity
  8
0
  6
CONTINUOUS
100
AcDbLine
 10
0.0
 20
7.20142269855365
 30
0.0
 11
1.420999999998572
 21
8.622422698552223
 31
0.0
  0
LINE
  5
21BE3
330
21BDF
100
AcDbEntity
  8
0
  6
CONTINUOUS
100
AcDbLine
 10
-0.0000000000000001
 20
6.527903489473465
 30
0.0
 11
1.420999999998571
 21
7.948903489472036
 31
0.0
  0
LINE
  5
21BE4
330
21BDF
100
AcDbEntity
  8
0
  6
CONTINUOUS
100
AcDbLine
 10
-0.0000000000000002
 20
5.854384280393278
 30
0.0
 11
1.420999999998571
 21
7.275384280391849
 31
0.0
  0
LINE
  5
21BE5
330
21BDF
100
AcDbEntity
  8
0
  6
CONTINUOUS
100
AcDbLine
 10
-0.0000000000000002
 20
5.180865071313091
 30
0.0
 11
1.420999999998571
 21
6.601865071311663
 31
0.0
  0
LINE
  5
21BE6
330
21BDF
100
AcDbEntity
  8
0
  6
CONTINUOUS
100
AcDbLine
 10
0.0
 20
4.507345862232905
 30
0.0
 11
1.420999999998571
 21
5.928345862231477
 31
0.0
  0
LINE
  5
21BE7
330
21BDF
100
AcDbEntity
  8
0
  6
CONTINUOUS
100
AcDbLine
 10
-0.0000000000000003
 20
3.833826653152718
 30
0.0
 11
1.420999999998571
 21
5.25482665315129
 31
0.0
  0
LINE
  5
21BE8
330
21BDF
100
AcDbEntity
  8
0
  6
CONTINUOUS
100
AcDbLine
 10
-0.0000000000000002
 20
3.160307444072532
 30
0.0
 11
1.420999999998571
 21
4.581307444071103
 31
0.0
  0
LINE
  5
21BE9
330
21BDF
100
AcDbEntity
  8
0
  6
CONTINUOUS
100
AcDbLine
 10
-0.0000000000000001
 20
2.486788234992345
 30
0.0
 11
1.420999999998571
 21
3.907788234990917
 31
0.0
  0
LINE
  5
21BEA
330
21BDF
100
AcDbEntity
  8
0
  6
CONTINUOUS
100
AcDbLine
 10
-0.0000000000000006
 20
1.813269025912159
 30
0.0
 11
1.420999999998571
 21
3.234269025910731
 31
0.0
  0
LINE
  5
21BEB
330
21BDF
100
AcDbEntity
  8
0
  6
CONTINUOUS
100
AcDbLine
 10
0.0
 20
1.139749816831973
 30
0.0
 11
1.420999999998571
 21
2.560749816830544
 31
0.0
  0
LINE
  5
21BEC
330
21BDF
100
AcDbEntity
  8
0
  6
CONTINUOUS
100
AcDbLine
 10
0.0000000000000002
 20
0.466230607751787
 30
0.0
 11
1.420999999998571
 21
1.887230607750358
 31
0.0
  0
LINE
  5
21BED
330
21BDF
100
AcDbEntity
  8
0
  6
CONTINUOUS
100
AcDbLine
 10
0.2072886013284003
 20
-0.0000000000000009
 30
0.0
 11
1.420999999998571
 21
1.213711398670171
 31
0.0
  0
LINE
  5
21BEE
330
21BDF
100
AcDbEntity
  8
0
  6
CONTINUOUS
100
AcDbLine
 10
0.8808078104085864
 20
-0.0000000000000009
 30
0.0
 11
1.420999999998571
 21
0.5401921895899839
 31
0.0
  0
LINE
  5
21BEF
330
21BDF
100
AcDbEntity
  8
0
  6
CONTINUOUS
100
AcDbLine
 10
0.0581249075061505
 20
-0.0000000000000009
 30
0.0
 11
-0.0000000000000002
 21
0.0581249075061496
 31
0.0
  0
LINE
  5
21BF0
330
21BDF
100
AcDbEntity
  8
0
  6
CONTINUOUS
100
AcDbLine
 10
0.7316441165863372
 20
-0.0000000000000009
 30
0.0
 11
-0.0000000000000002
 21
0.7316441165863363
 31
0.0
  0
LINE
  5
21BF1
330
21BDF
100
AcDbEntity
  8
0
  6
CONTINUOUS
100
AcDbLine
 10
1.405163325666523
 20
-0.0000000000000009
 30
0.0
 11
-0.0000000000000002
 21
1.405163325666523
 31
0.0
  0
LINE
  5
21BF2
330
21BDF
100
AcDbEntity
  8
0
  6
CONTINUOUS
100
AcDbLine
 10
1.420999999998572
 20
0.6576825347481381
 30
0.0
 11
-0.0000000000000001
 21
2.07868253474671
 31
0.0
  0
LINE
  5
21BF3
330
21BDF
100
AcDbEntity
  8
0
  6
CONTINUOUS
100
AcDbLine
 10
1.420999999998571
 20
1.331201743828324
 30
0.0
 11
-0.0000000000000001
 21
2.752201743826896
 31
0.0
  0
LINE
  5
21BF4
330
21BDF
100
AcDbEntity
  8
0
  6
CONTINUOUS
100
AcDbLine
 10
1.420999999998571
 20
2.004720952908511
 30
0.0
 11
-0.0000000000000002
 21
3.425720952907082
 31
0.0
  0
LINE
  5
21BF5
330
21BDF
100
AcDbEntity
  8
0
  6
CONTINUOUS
100
AcDbLine
 10
1.420999999998571
 20
2.678240161988697
 30
0.0
 11
-0.0000000000000001
 21
4.099240161987269
 31
0.0
  0
LINE
  5
21BF6
330
21BDF
100
AcDbEntity
  8
0
  6
CONTINUOUS
100
AcDbLine
 10
1.420999999998572
 20
3.351759371068884
 30
0.0
 11
0.0
 21
4.772759371067455
 31
0.0
  0
LINE
  5
21BF7
330
21BDF
100
AcDbEntity
  8
0
  6
CONTINUOUS
100
AcDbLine
 10
1.420999999998571
 20
4.02527858014907
 30
0.0
 11
-0.0000000000000003
 21
5.446278580147642
 31
0.0
  0
LINE
  5
21BF8
330
21BDF
100
AcDbEntity
  8
0
  6
CONTINUOUS
100
AcDbLine
 10
1.420999999998571
 20
4.698797789229257
 30
0.0
 11
0.0
 21
6.119797789227828
 31
0.0
  0
LINE
  5
21BF9
330
21BDF
100
AcDbEntity
  8
0
  6
CONTINUOUS
100
AcDbLine
 10
1.420999999998571
 20
5.372316998309444
 30
0.0
 11
-0.0000000000000001
 21
6.793316998308015
 31
0.0
  0
LINE
  5
21BFA
330
21BDF
100
AcDbEntity
  8
0
  6
CONTINUOUS
100
AcDbLine
 10
1.420999999998572
 20
6.045836207389629
 30
0.0
 11
-0.0000000000000004
 21
7.466836207388202
 31
0.0
  0
LINE
  5
21BFB
330
21BDF
100
AcDbEntity
  8
0
  6
CONTINUOUS
100
AcDbLine
 10
1.420999999998571
 20
6.719355416469816
 30
0.0
 11
0.0
 21
8.140355416468388
 31
0.0
  0
LINE
  5
21BFC
330
21BDF
100
AcDbEntity
  8
0
  6
CONTINUOUS
100
AcDbLine
 10
1.420999999998571
 20
7.392874625550003
 30
0.0
 11
0.0507746255573185
 21
8.763099999991255
 31
0.0
  0
LINE
  5
21BFD
330
21BDF
100
AcDbEntity
  8
0
  6
CONTINUOUS
100
AcDbLine
 10
1.420999999998571
 20
8.06639383463019
 30
0.0
 11
0.7242938346375052
 21
8.763099999991255
 31
0.0
  0
LINE
  5
21BFE
330
21BDF
100
AcDbEntity
  8
0
  6
CONTINUOUS
100
AcDbLine
 10
1.420999999998571
 20
8.739913043710375
 30
0.0
 11
1.397813043717691
 21
8.763099999991255
 31
0.0
  0
ENDBLK
  5
21C0A
330
21BDF
100
AcDbEntity
  8
0
100
AcDbBlockEnd
  0
ENDSEC
  0
SECTION
  2
ENTITIES
  0
LINE
  5
1D8CA
330
18
100
AcDbEntity
  8
01
100
AcDbLine
 10
709.596241615365
 20
-685.2813303512659
 30
0.0
 11
709.596241615365
 21
-707.4313303512673
 31
0.0
  0
LINE
  5
1D90A
330
18
100
AcDbEntity
  8
01
100
AcDbLine
 10
709.596241615365
 20
-687.7813303512665
 30
0.0
 11
709.596241615365
 21
-705.431330351266
 31
0.0
  0
TEXT
  5
1DB9B
330
18
100
AcDbEntity
  8
1TEXT
100
AcDbText
 10
641.5962416153651
 20
-594.4313303512664
 30
0.0
 40
8.0
  1
SE-330-X
100
AcDbText
  0
LINE
  5
1DBA4
102
{ACAD_REACTORS
330
1EDFD
102
}
330
18
100
AcDbEntity
  8
01
100
AcDbLine
 10
722.096241615365
 20
-653.2031567659845
 30
0.0
 11
722.096241615365
 21
-727.6595039365483
 31
0.0
  0
LINE
  5
1DBA5
102
{ACAD_REACTORS
330
1EDFD
102
}
330
18
100
AcDbEntity
  8
01
100
AcDbLine
 10
731.096241615365
 20
-653.2031567659845
 30
0.0
 11
731.096241615365
 21
-727.6595039365483
 31
0.0
  0
LINE
  5
1DBA6
102
{ACAD_REACTORS
330
1EDFD
102
}
330
18
100
AcDbEntity
  8
01
100
AcDbLine
 10
709.596241615365
 20
-653.2031567659845
 30
0.0
 11
709.596241615365
 21
-727.6595039365483
 31
0.0
  0
LINE
  5
1E7B5
102
{ACAD_REACTORS
330
1E7BB
102
}
330
18
100
AcDbEntity
  8
01
100
AcDbLine
 10
519.0962414684686
 20
-573.5141884624029
 30
0.0
 11
518.0962417684686
 21
-572.5141884624029
 31
0.0
  0
LINE
  5
1E7B6
102
{ACAD_REACTORS
330
1E7BB
102
}
330
18
100
AcDbEntity
  8
01
100
AcDbLine
 10
522.3962416184686
 20
-573.5141884624029
 30
0.0
 11
522.3962416184686
 21
-572.5141884624029
 31
0.0
  0
LINE
  5
1E7B7
102
{ACAD_REACTORS
330
1E7BB
102
}
330
18
100
AcDbEntity
  8
01
100
AcDbLine
 10
522.3962416184686
 20
-572.5141884624029
 30
0.0
 11
514.7962416184687
 21
-572.5141884624029
 31
0.0
  0
LINE
  5
1E7B8
102
{ACAD_REACTORS
330
1E7BB
102
}
330
18
100
AcDbEntity
  8
01
100
AcDbLine
 10
522.3962416184686
 20
-573.5141884624029
 30
0.0
 11
514.7962416184687
 21
-573.5141884624029
 31
0.0
  0
LINE
  5
1E7B9
102
{ACAD_REACTORS
330
1E7BB
102
}
330
18
100
AcDbEntity
  8
01
100
AcDbLine
 10
514.7962416184687
 20
-573.5141884624029
 30
0.0
 11
514.7962416184687
 21
-572.5141884624029
 31
0.0
  0
LINE
  5
1E9CD
102
{ACAD_REACTORS
330
1E9D3
102
}
330
18
100
AcDbEntity
  8
01
100
AcDbLine
 10
705.596241615365
 20
-690.9313302043707
 30
0.0
 11
706.596241615365
 21
-689.9313305043707
 31
0.0
  0
LINE
  5
1E9CE
102
{ACAD_REACTORS
330
1E9D3
102
}
330
18
100
AcDbEntity
  8
01
100
AcDbLine
 10
705.596241615365
 20
-694.2313303543707
 30
0.0
 11
706.596241615365
 21
-694.2313303543707
 31
0.0
  0
LINE
  5
1E9CF
102
{ACAD_REACTORS
330
1E9D3
102
}
330
18
100
AcDbEntity
  8
01
100
AcDbLine
 10
706.596241615365
 20
-694.2313303543707
 30
0.0
 11
706.596241615365
 21
-686.6313303543708
 31
0.0
  0
LINE
  5
1E9D0
102
{ACAD_REACTORS
330
1E9D3
102
}
330
18
100
AcDbEntity
  8
01
100
AcDbLine
 10
705.596241615365
 20
-694.2313303543707
 30
0.0
 11
705.596241615365
 21
-686.6313303543708
 31
0.0
  0
LINE
  5
1E9D1
102
{ACAD_REACTORS
330
1E9D3
102
}
330
18
100
AcDbEntity
  8
01
100
AcDbLine
 10
705.596241615365
 20
-686.6313303543708
 30
0.0
 11
706.596241615365
 21
-686.6313303543708
 31
0.0
  0
LINE
  5
1E9D4
102
{ACAD_REACTORS
330
1E9DA
102
}
330
18
100
AcDbEntity
  8
01
100
AcDbLine
 10
499.0962414684686
 20
-573.5141884624029
 30
0.0
 11
498.0962417684686
 21
-572.5141884624029
 31
0.0
  0
LINE
  5
1E9D5
102
{ACAD_REACTORS
330
1E9DA
102
}
330
18
100
AcDbEntity
  8
01
100
AcDbLine
 10
502.3962416184686
 20
-573.5141884624029
 30
0.0
 11
502.3962416184686
 21
-572.5141884624029
 31
0.0
  0
LINE
  5
1E9D6
102
{ACAD_REACTORS
330
1E9DA
102
}
330
18
100
AcDbEntity
  8
01
100
AcDbLine
 10
502.3962416184686
 20
-572.5141884624029
 30
0.0
 11
494.7962416184687
 21
-572.5141884624029
 31
0.0
  0
LINE
  5
1E9D7
102
{ACAD_REACTORS
330
1E9DA
102
}
330
18
100
AcDbEntity
  8
01
100
AcDbLine
 10
502.3962416184686
 20
-573.5141884624029
 30
0.0
 11
494.7962416184687
 21
-573.5141884624029
 31
0.0
  0
LINE
  5
1E9D8
102
{ACAD_REACTORS
330
1E9DA
102
}
330
18
100
AcDbEntity
  8
01
100
AcDbLine
 10
494.7962416184687
 20
-573.5141884624029
 30
0.0
 11
494.7962416184687
 21
-572.5141884624029
 31
0.0
  0
TEXT
  5
1EE54
330
18
100
AcDbEntity
  8
1TEXT
100
AcDbText
 10
644.1762416153647
 20
-604.9313303512664
 30
0.0
 40
4.0
  1
表面処理：本体
 41
0.9
 72
     1
 11
658.9962416153647
 21
-604.9313303512664
 31
0.0
100
AcDbText
  0
TEXT
  5
1EE55
330
18
100
AcDbEntity
  8
1TEXT
100
AcDbText
 10
649.529574948698
 20
-611.7666190107908
 30
0.0
 40
4.0
  1
クローム
 72
     1
 11
658.9962416153647
 21
-611.7666190107908
 31
0.0
100
AcDbText
  0
LINE
  5
1EE56
330
18
100
AcDbEntity
  8
1DIM
100
AcDbLine
 10
641.5962416153651
 20
-599.4313303512664
 30
0.0
 11
746.5962416153651
 21
-599.4313303512664
 31
0.0
  0
LINE
  5
1EE57
330
18
100
AcDbEntity
  8
1DIM
100
AcDbLine
 10
641.5962416153651
 20
-613.4313303512664
 30
0.0
 11
746.5962416153651
 21
-613.4313303512664
 31
0.0
  0
LINE
  5
1EE58
330
18
100
AcDbEntity
  8
1DIM
100
AcDbLine
 10
641.5962416153651
 20
-606.4313303512664
 30
0.0
 11
746.5962416153651
 21
-606.4313303512664
 31
0.0
  0
LINE
  5
1EE59
330
18
100
AcDbEntity
  8
1DIM
100
AcDbLine
 10
641.5962416153651
 20
-620.4313303512664
 30
0.0
 11
746.5962416153651
 21
-620.4313303512664
 31
0.0
  0
LINE
  5
1EE5A
330
18
100
AcDbEntity
  8
1DIM
100
AcDbLine
 10
641.5962416153651
 20
-620.4313303512664
 30
0.0
 11
746.5962416153651
 21
-620.4313303512664
 31
0.0
  0
LINE
  5
1EE5B
330
18
100
AcDbEntity
  8
1DIM
100
AcDbLine
 10
711.5962416153651
 20
-599.4313303512664
 30
0.0
 11
711.5962416153651
 21
-620.4313303512664
 31
0.0
  0
TEXT
  5
1EE5D
330
18
100
AcDbEntity
  8
1TEXT
100
AcDbText
 10
722.1295749486981
 20
-604.9313303512664
 30
0.0
 40
4.0
  1
コード
 72
     1
 11
728.9962416153647
 21
-604.9313303512664
 31
0.0
100
AcDbText
  0
LINE
  5
1EE5E
330
18
100
AcDbEntity
  8
1DIM
100
AcDbLine
 10
676.5962416153651
 20
-620.4313303512664
 30
0.0
 11
676.5962416153651
 21
-599.4313303512664
 31
0.0
  0
LINE
  5
1EE5F
330
18
100
AcDbEntity
  8
1DIM
100
AcDbLine
 10
746.5962416153651
 20
-620.4313303512664
 30
0.0
 11
746.5962416153651
 21
-599.4313303512664
 31
0.0
  0
TEXT
  5
1EE60
330
18
100
AcDbEntity
  8
1TEXT
100
AcDbText
 10
642.4629082820314
 20
-618.7666190107908
 30
0.0
 40
4.0
  1
サテンニッケル
 72
     1
 11
658.9962416153647
 21
-618.7666190107908
 31
0.0
100
AcDbText
  0
TEXT
  5
1EE62
330
18
100
AcDbEntity
  8
1TEXT
100
AcDbText
 10
679.1162416153647
 20
-604.9313303512664
 30
0.0
 40
4.0
  1
表面処理：カバー
 41
0.8
 72
     1
 11
693.9962416153647
 21
-604.9313303512664
 31
0.0
100
AcDbText
  0
TEXT
  5
1EE63
330
18
100
AcDbEntity
  8
1TEXT
100
AcDbText
 10
677.3962416153647
 20
-611.7666190107908
 30
0.0
 40
4.0
  1
スノーマーブル
 72
     1
 11
693.9962416153647
 21
-611.7666190107908
 31
0.0
100
AcDbText
  0
TEXT
  5
1EE64
330
18
100
AcDbEntity
  8
1TEXT
100
AcDbText
 10
677.4629082820314
 20
-618.7666190107908
 30
0.0
 40
4.0
  1
サンドマーブル
 72
     1
 11
693.9962416153647
 21
-618.7666190107908
 31
0.0
100
AcDbText
  0
LINE
  5
1EE65
330
18
100
AcDbEntity
  8
1DIM
100
AcDbLine
 10
641.5962416153651
 20
-620.4313303512664
 30
0.0
 11
641.5962416153651
 21
-599.4313303512664
 31
0.0
  0
TEXT
  5
1EE71
330
18
100
AcDbEntity
  8
1TEXT
100
AcDbText
 10
716.5956860598101
 20
-612.1456873349157
 30
0.0
 40
4.0
  1
SE-330-C092
 41
0.6
 72
     1
 11
728.9962416153656
 21
-612.1456873349157
 31
0.0
100
AcDbText
  0
TEXT
  5
1EE72
330
18
100
AcDbEntity
  8
1TEXT
100
AcDbText
 10
716.5956860598101
 20
-619.1456873349157
 30
0.0
 40
4.0
  1
SE-330-N093
 41
0.6
 72
     1
 11
728.9962416153656
 21
-619.1456873349157
 31
0.0
100
AcDbText
  0
LINE
  5
20992
330
18
100
AcDbEntity
  8
1CENTER
100
AcDbLine
 10
494.346241615365
 20
-690.4313303512664
 30
0.0
 11
502.846241615365
 21
-690.4313303512664
 31
0.0
  0
LINE
  5
20993
330
18
100
AcDbEntity
  8
1CENTER
100
AcDbLine
 10
498.5962416153649
 20
-694.6813303512664
 30
0.0
 11
498.5962416153649
 21
-686.1813303512664
 31
0.0
  0
LINE
  5
20994
330
18
100
AcDbEntity
  8
1CENTER
100
AcDbLine
 10
514.3462416153649
 20
-690.4313303512664
 30
0.0
 11
522.8462416153649
 21
-690.4313303512664
 31
0.0
  0
LINE
  5
20995
330
18
100
AcDbEntity
  8
1CENTER
100
AcDbLine
 10
518.5962416153649
 20
-694.6813303512664
 30
0.0
 11
518.5962416153649
 21
-686.1813303512664
 31
0.0
  0
ARC
  5
21396
330
18
100
AcDbEntity
  8
01
  6
CONTINUOUS
100
AcDbCircle
 10
526.2462420072654
 20
-591.5141884624029
 30
0.0
 40
3.000000000000014
100
AcDbArc
 50
270.0
 51
0.0
  0
LINE
  5
21397
330
18
100
AcDbEntity
  8
01
  6
CONTINUOUS
100
AcDbLine
 10
529.2462420072654
 20
-591.5141884624029
 30
0.0
 11
529.2462420072654
 21
-570.8141884624029
 31
0.0
  0
LINE
  5
21398
330
18
100
AcDbEntity
  8
01
  6
CONTINUOUS
100
AcDbLine
 10
487.9462420072655
 20
-570.8141884624029
 30
0.0
 11
487.9462420072655
 21
-591.5141884624029
 31
0.0
  0
ARC
  5
21399
330
18
100
AcDbEntity
  8
01
  6
CONTINUOUS
100
AcDbCircle
 10
490.9462420072654
 20
-591.5141884624029
 30
0.0
 40
3.000000000000007
100
AcDbArc
 50
180.0
 51
270.0000000000021
  0
LINE
  5
2139A
330
18
100
AcDbEntity
  8
01
  6
CONTINUOUS
100
AcDbLine
 10
490.9462420072655
 20
-594.5141884624029
 30
0.0
 11
526.2462420072654
 21
-594.5141884624029
 31
0.0
  0
ARC
  5
2139B
330
18
100
AcDbEntity
  8
01
  6
CONTINUOUS
100
AcDbCircle
 10
488.9462420072655
 20
-570.8141884624029
 30
0.0
 40
1.0
100
AcDbArc
 50
90.0
 51
180.0
  0
ARC
  5
2139C
330
18
100
AcDbEntity
  8
01
  6
CONTINUOUS
100
AcDbCircle
 10
528.2462420072654
 20
-570.8141884624029
 30
0.0
 40
1.0
100
AcDbArc
 50
0.0
 51
90.0
  0
LINE
  5
2139F
330
18
100
AcDbEntity
  8
01
100
AcDbLine
 10
488.9462420072655
 20
-569.8141884624029
 30
0.0
 11
528.2462420072654
 21
-569.8141884624029
 31
0.0
  0
LINE
  5
213A5
330
18
100
AcDbEntity
  8
01
100
AcDbLine
 10
492.0962420072655
 20
-569.5141884624029
 30
0.0
 11
525.0962420072656
 21
-569.5141884624029
 31
0.0
  0
LINE
  5
213A6
330
18
100
AcDbEntity
  8
01
100
AcDbLine
 10
492.0962420072655
 20
-569.5141884624029
 30
0.0
 11
492.0962420072655
 21
-569.8141884624029
 31
0.0
  0
LINE
  5
213A7
330
18
100
AcDbEntity
  8
01
100
AcDbLine
 10
525.0962420072656
 20
-569.5141884624029
 30
0.0
 11
525.0962420072656
 21
-569.8141884624029
 31
0.0
  0
LINE
  5
21427
330
18
100
AcDbEntity
  8
01
  6
CONTINUOUS
100
AcDbLine
 10
485.0927649215129
 20
-588.7137180045747
 30
0.0
 11
483.7999610234573
 21
-588.7137180045747
 31
0.0
  0
LINE
  5
21428
330
18
100
AcDbEntity
  8
01
  6
CONTINUOUS
100
AcDbLine
 10
487.6962419807056
 20
-589.7137180045747
 30
0.0
 11
487.6962419807056
 21
-591.5141884624029
 31
0.0
  0
LINE
  5
21429
330
18
100
AcDbEntity
  8
01
  6
CONTINUOUS
100
AcDbLine
 10
473.846242008245
 20
-588.7137180045747
 30
0.0
 11
483.7994610234573
 21
-588.7137180045747
 31
0.0
  0
SPLINE
  5
2142A
330
18
100
AcDbEntity
  8
01
  6
CONTINUOUS
100
AcDbSpline
210
0.0
220
0.0
230
1.0
 70
     8
 71
     3
 72
    13
 73
     9
 74
     0
 42
0.000000001
 43
0.00000001
 40
0.0
 40
0.0
 40
0.0
 40
0.0
 40
0.0362511180620082
 40
0.2178245315432279
 40
0.4178611277827794
 40
0.6290780345755503
 40
0.8240114380728948
 40
1.0
 40
1.0
 40
1.0
 40
1.0
 10
485.0927649215129
 20
-588.7139229424498
 30
0.0
 10
485.1057416887314
 20
-588.713810905817
 30
0.0
 10
485.1837160628041
 20
-588.7131377037655
 30
0.0
 10
485.3325977949347
 20
-588.7164806883865
 30
0.0
 10
485.5467992200029
 20
-588.7250201670155
 30
0.0
 10
485.7704215685629
 20
-588.7351302719545
 30
0.0
 10
485.9890931810498
 20
-588.7430514601336
 30
0.0
 10
486.1298066447397
 20
-588.744113624526
 30
0.0
 10
486.196569906091
 20
-588.7446175816959
 30
0.0
  0
LINE
  5
2142B
330
18
100
AcDbEntity
  8
01
  6
CONTINUOUS
100
AcDbLine
 10
486.196569906091
 20
-588.7446175816959
 30
0.0
 11
487.1962419807056
 21
-588.7446175816959
 31
0.0
  0
LINE
  5
2142C
330
18
100
AcDbEntity
  8
01
  6
CONTINUOUS
100
AcDbLine
 10
532.4462420072656
 20
-569.5141884607218
 30
0.0
 11
529.9962420338258
 21
-569.5141884566034
 31
0.0
  0
SPLINE
  5
2142D
330
18
100
AcDbEntity
  8
01
  6
CONTINUOUS
100
AcDbSpline
210
0.0
220
0.0
230
1.0
 70
    24
 71
     3
 72
    15
 73
    11
 74
     0
 42
0.000000001
 43
0.00000001
 40
0.0
 40
0.0
 40
0.0
 40
0.0
 40
0.1255512659000727
 40
0.2492705940943009
 40
0.3733691144885874
 40
0.5000381010431785
 40
0.6257772405635995
 40
0.7544295957239939
 40
0.8765012870680609
 40
1.0
 40
1.0
 40
1.0
 40
1.0
 10
487.6962419807056
 20
-589.2787977478719
 30
0.0
 10
487.6962419807056
 20
-589.2903850952036
 30
0.0
 10
487.6962419807056
 20
-589.3133907171117
 30
0.0
 10
487.6962419807056
 20
-589.3567878957895
 30
0.0
 10
487.6962419807056
 20
-589.4061657114052
 30
0.0
 10
487.6962419807056
 20
-589.4611827273226
 30
0.0
 10
487.6962419807056
 20
-589.5212902352007
 30
0.0
 10
487.6962419807056
 20
-589.5841532337117
 30
0.0
 10
487.6962419807056
 20
-589.6488129533924
 30
0.0
 10
487.6962419807056
 20
-589.6919993347916
 30
0.0
 10
487.6962419807056
 20
-589.7137180045747
 30
0.0
  0
SPLINE
  5
2142E
330
18
100
AcDbEntity
  8
01
  6
CONTINUOUS
100
AcDbSpline
210
0.0
220
0.0
230
1.0
 70
     8
 71
     3
 72
    15
 73
    11
 74
     0
 42
0.000000001
 43
0.00000001
 40
0.0
 40
0.0
 40
0.0
 40
0.0
 40
0.0833283430828249
 40
0.1750773764398554
 40
0.2754897615739773
 40
0.3843429190112108
 40
0.5007975016902199
 40
0.6592083249988728
 40
0.8280376256090172
 40
1.0
 40
1.0
 40
1.0
 40
1.0
 10
487.6962419807056
 20
-589.2787977478719
 30
0.0
 10
487.6955649097093
 20
-589.2561937347086
 30
0.0
 10
487.6941423467578
 20
-589.2087014748699
 30
0.0
 10
487.6810157911913
 20
-589.1348831487986
 30
0.0
 10
487.6562396453209
 20
-589.0568464351678
 30
0.0
 10
487.6161616998382
 20
-588.9776782856355
 30
0.0
 10
487.5532498760898
 20
-588.8940130428359
 30
0.0
 10
487.4603381237029
 20
-588.8159352880779
 30
0.0
 10
487.3357408511055
 20
-588.7563847903556
 30
0.0
 10
487.2430257301606
 20
-588.7485639515779
 30
0.0
 10
487.1962419807056
 20
-588.7446175816851
 30
0.0
  0
LINE
  5
2142F
330
18
100
AcDbEntity
  8
01
  6
CONTINUOUS
100
AcDbLine
 10
606.5962420072655
 20
-637.514188462403
 30
0.0
 11
410.5962420072655
 21
-637.514188462403
 31
0.0
  0
LINE
  5
21430
330
18
100
AcDbEntity
  8
01
  6
CONTINUOUS
100
AcDbLine
 10
605.5962420072655
 20
-615.2132591888936
 30
0.0
 11
611.5962420072655
 21
-615.2132591888936
 31
0.0
  0
LINE
  5
21431
330
18
100
AcDbEntity
  8
01
  6
CONTINUOUS
100
AcDbLine
 10
603.5962420072655
 20
-624.5141884624029
 30
0.0
 11
603.5962420072655
 21
-617.2132591888936
 31
0.0
  0
SPLINE
  5
21432
330
18
100
AcDbEntity
  8
01
  6
CONTINUOUS
100
AcDbSpline
210
0.0
220
0.0
230
1.0
 70
     8
 71
     3
 72
    14
 73
    10
 74
     0
 42
0.000000001
 43
0.00000001
 40
0.0
 40
0.0
 40
0.0
 40
0.0
 40
0.25
 40
0.25
 40
0.5
 40
0.5
 40
0.75
 40
0.75
 40
1.0
 40
1.0
 40
1.0
 40
1.0
 10
603.5962420072655
 20
-624.5141884624029
 30
0.0
 10
603.5962420072655
 20
-624.8677418529961
 30
0.0
 10
603.5318057908252
 20
-625.249181739937
 30
0.0
 10
603.2394080300807
 20
-625.9877634422402
 30
0.0
 10
603.0104555696386
 20
-626.3426155871491
 30
0.0
 10
602.4246691320117
 20
-626.9284020247761
 30
0.0
 10
602.0698169871029
 20
-627.157354485218
 30
0.0
 10
601.3312352847996
 20
-627.4497522459625
 30
0.0
 10
600.9497953978588
 20
-627.514188462403
 30
0.0
 10
600.5962420072655
 20
-627.5141884624029
 30
0.0
  0
SPLINE
  5
21433
330
18
100
AcDbEntity
  8
01
  6
CONTINUOUS
100
AcDbSpline
210
0.0
220
0.0
230
1.0
 70
     8
 71
     3
 72
    14
 73
    10
 74
     0
 42
0.000000001
 43
0.00000001
 40
0.0
 40
0.0
 40
0.0
 40
0.0
 40
0.25
 40
0.25
 40
0.5
 40
0.5
 40
0.75
 40
0.75
 40
1.0
 40
1.0
 40
1.0
 40
1.0
 10
416.5962420072655
 20
-627.5141884624029
 30
0.0
 10
416.2426886166721
 20
-627.5141884624029
 30
0.0
 10
415.8612487297314
 20
-627.4497522459625
 30
0.0
 10
415.1226670274282
 20
-627.157354485218
 30
0.0
 10
414.7678148825192
 20
-626.9284020247761
 30
0.0
 10
414.1820284448924
 20
-626.342615587149
 30
0.0
 10
413.9530759844504
 20
-625.9877634422402
 30
0.0
 10
413.6606782237059
 20
-625.249181739937
 30
0.0
 10
413.5962420072655
 20
-624.8677418529961
 30
0.0
 10
413.5962420072655
 20
-624.5141884624029
 30
0.0
  0
SPLINE
  5
21434
330
18
100
AcDbEntity
  8
01
  6
CONTINUOUS
100
AcDbSpline
210
0.0
220
0.0
230
1.0
 70
     8
 71
     3
 72
    22
 73
    18
 74
     0
 42
0.000000001
 43
0.00000001
 40
0.0
 40
0.0
 40
0.0
 40
0.0
 40
0.125
 40
0.125
 40
0.25
 40
0.25
 40
0.375
 40
0.375
 40
0.5
 40
0.5
 40
0.625
 40
0.625
 40
0.75
 40
0.75
 40
0.875
 40
0.875
 40
1.0
 40
1.0
 40
1.0
 40
1.0
 10
533.4462420072656
 20
-591.7132591888933
 30
0.0
 10
533.4462420072656
 20
-592.1257381445855
 30
0.0
 10
533.4095735763718
 20
-592.5536423546301
 30
0.0
 10
533.2491855959914
 20
-593.4203587569267
 30
0.0
 10
533.1253254751367
 20
-593.8590828294829
 30
0.0
 10
532.7841947542682
 20
-594.7207614821701
 30
0.0
 10
532.5668436660898
 20
-595.1435414051638
 30
0.0
 10
532.0435775055024
 20
-595.9439135200151
 30
0.0
 10
531.7376982308537
 20
-596.321297901917
 30
0.0
 10
531.0542807202891
 20
-597.0047154124817
 30
0.0
 10
530.6768963383871
 20
-597.3105946871303
 30
0.0
 10
529.8765242235357
 20
-597.8338608477177
 30
0.0
 10
529.4537443005421
 20
-598.0512119358963
 30
0.0
 10
528.5920656478551
 20
-598.3923426567646
 30
0.0
 10
528.1533415752987
 20
-598.5162027776192
 30
0.0
 10
527.2866251730023
 20
-598.6765907579996
 30
0.0
 10
526.8587209629576
 20
-598.7132591888933
 30
0.0
 10
526.4462420072656
 20
-598.7132591888933
 30
0.0
  0
LINE
  5
21435
330
18
100
AcDbEntity
  8
01
  6
CONTINUOUS
100
AcDbLine
 10
403.5962420072655
 20
-630.5141884624029
 30
0.0
 11
403.5962420072655
 21
-595.7137180045747
 31
0.0
  0
SPLINE
  5
21436
330
18
100
AcDbEntity
  8
01
  6
CONTINUOUS
100
AcDbSpline
210
0.0
220
0.0
230
1.0
 70
     8
 71
     3
 72
    14
 73
    10
 74
     0
 42
0.000000001
 43
0.00000001
 40
0.0
 40
0.0
 40
0.0
 40
0.0
 40
0.25
 40
0.25
 40
0.5
 40
0.5
 40
0.75
 40
0.75
 40
1.0
 40
1.0
 40
1.0
 40
1.0
 10
529.4962420338255
 20
-591.5141884624029
 30
0.0
 10
529.4962420338255
 20
-591.8972046355457
 30
0.0
 10
529.4264361326817
 20
-592.3104311797314
 30
0.0
 10
529.1096718918753
 20
-593.1105613572266
 30
0.0
 10
528.8616400597299
 20
-593.4949845142113
 30
0.0
 10
528.227038085634
 20
-594.1295864883072
 30
0.0
 10
527.8426149286494
 20
-594.3776183204526
 30
0.0
 10
527.0424847511541
 20
-594.6943825612591
 30
0.0
 10
526.6292582069683
 20
-594.7641884624029
 30
0.0
 10
526.2462420338255
 20
-594.7641884624029
 30
0.0
  0
SPLINE
  5
21437
330
18
100
AcDbEntity
  8
01
  6
CONTINUOUS
100
AcDbSpline
210
0.0
220
0.0
230
1.0
 70
     8
 71
     3
 72
    22
 73
    18
 74
     0
 42
0.000000001
 43
0.00000001
 40
0.0
 40
0.0
 40
0.0
 40
0.0
 40
0.125
 40
0.125
 40
0.25
 40
0.25
 40
0.375
 40
0.375
 40
0.5
 40
0.5
 40
0.625
 40
0.625
 40
0.75
 40
0.75
 40
0.875
 40
0.875
 40
1.0
 40
1.0
 40
1.0
 40
1.0
 10
403.5962420072655
 20
-595.7137180045748
 30
0.0
 10
403.5962420072655
 20
-595.3012390488826
 30
0.0
 10
403.6329104381592
 20
-594.8733348388381
 30
0.0
 10
403.7932984185396
 20
-594.0066184365415
 30
0.0
 10
403.9171585393942
 20
-593.5678943639853
 30
0.0
 10
404.2582892602627
 20
-592.7062157112981
 30
0.0
 10
404.4756403484413
 20
-592.2834357883045
 30
0.0
 10
404.9989065090285
 20
-591.4830636734531
 30
0.0
 10
405.3047857836773
 20
-591.1056792915513
 30
0.0
 10
405.988203294242
 20
-590.4222617809866
 30
0.0
 10
406.3655876761437
 20
-590.1163825063378
 30
0.0
 10
407.1659597909952
 20
-589.5931163457506
 30
0.0
 10
407.5887397139887
 20
-589.375765257572
 30
0.0
 10
408.450418366676
 20
-589.0346345367035
 30
0.0
 10
408.8891424392322
 20
-588.9107744158489
 30
0.0
 10
409.7558588415287
 20
-588.7503864354685
 30
0.0
 10
410.1837630515732
 20
-588.7137180045747
 30
0.0
 10
410.5962420072655
 20
-588.7137180045747
 30
0.0
  0
LINE
  5
21438
330
18
100
AcDbEntity
  8
01
  6
CONTINUOUS
100
AcDbLine
 10
416.5962420072655
 20
-627.5141884624029
 30
0.0
 11
600.5962420072655
 21
-627.5141884624029
 31
0.0
  0
LINE
  5
21439
330
18
100
AcDbEntity
  8
01
  6
CONTINUOUS
100
AcDbLine
 10
533.4462420072656
 20
-569.5141884624029
 30
0.0
 11
533.4462420072656
 21
-591.7132591888933
 31
0.0
  0
SPLINE
  5
2143A
330
18
100
AcDbEntity
  8
01
  6
CONTINUOUS
100
AcDbSpline
210
0.0
220
0.0
230
1.0
 70
    24
 71
     3
 72
    14
 73
    10
 74
     0
 42
0.000000001
 43
0.00000001
 40
0.0
 40
0.0
 40
0.0
 40
0.0
 40
0.25
 40
0.25
 40
0.5
 40
0.5
 40
0.75
 40
0.75
 40
1.0
 40
1.0
 40
1.0
 40
1.0
 10
532.4462420072656
 20
-569.5141884607218
 30
0.0
 10
532.5640931374631
 20
-569.51418846092
 30
0.0
 10
532.6912397664436
 20
-569.5141884611337
 30
0.0
 10
532.9374336672112
 20
-569.5141884615476
 30
0.0
 10
533.0557177155143
 20
-569.5141884617464
 30
0.0
 10
533.25097986139
 20
-569.5141884620747
 30
0.0
 10
533.3272973482038
 20
-569.5141884622029
 30
0.0
 10
533.424763268452
 20
-569.5141884623669
 30
0.0
 10
533.4462420072656
 20
-569.5141884624029
 30
0.0
 10
533.4462420072656
 20
-569.5141884624029
 30
0.0
  0
LINE
  5
2143B
330
18
100
AcDbEntity
  8
01
  6
CONTINUOUS
100
AcDbLine
 10
526.4462420072651
 20
-598.7132591888933
 30
0.0
 11
416.5962420072655
 21
-598.7132591888933
 31
0.0
  0
SPLINE
  5
2143C
330
18
100
AcDbEntity
  8
01
  6
CONTINUOUS
100
AcDbSpline
210
0.0
220
0.0
230
1.0
 70
     8
 71
     3
 72
    14
 73
    10
 74
     0
 42
0.000000001
 43
0.00000001
 40
0.0
 40
0.0
 40
0.0
 40
0.0
 40
0.2499999999999985
 40
0.2499999999999985
 40
0.499999999999999
 40
0.499999999999999
 40
0.7499999999999994
 40
0.7499999999999994
 40
1.0
 40
1.0
 40
1.0
 40
1.0
 10
413.5962420072655
 20
-601.7132591888933
 30
0.0
 10
413.5962420072655
 20
-601.3597057983001
 30
0.0
 10
413.6606782237059
 20
-600.9782659113594
 30
0.0
 10
413.9530759844504
 20
-600.239684209056
 30
0.0
 10
414.1820284448924
 20
-599.8848320641472
 30
0.0
 10
414.7678148825192
 20
-599.2990456265203
 30
0.0
 10
415.1226670274282
 20
-599.0700931660782
 30
0.0
 10
415.8612487297314
 20
-598.7776954053338
 30
0.0
 10
416.2426886166721
 20
-598.7132591888933
 30
0.0
 10
416.5962420072655
 20
-598.7132591888933
 30
0.0
  0
LINE
  5
2143D
330
18
100
AcDbEntity
  8
01
  6
CONTINUOUS
100
AcDbLine
 10
413.5962420072655
 20
-601.7132591888933
 30
0.0
 11
413.5962420072655
 21
-624.5141884624029
 31
0.0
  0
SPLINE
  5
2143E
330
18
100
AcDbEntity
  8
01
  6
CONTINUOUS
100
AcDbSpline
210
0.0
220
0.0
230
1.0
 70
     8
 71
     3
 72
    14
 73
    10
 74
     0
 42
0.000000001
 43
0.00000001
 40
0.0
 40
0.0
 40
0.0
 40
0.0
 40
0.25
 40
0.25
 40
0.5
 40
0.5
 40
0.75
 40
0.75
 40
1.0
 40
1.0
 40
1.0
 40
1.0
 10
490.9462419807056
 20
-594.7641884624029
 30
0.0
 10
490.5632258075628
 20
-594.7641884624029
 30
0.0
 10
490.149999263377
 20
-594.6943825612591
 30
0.0
 10
489.349869085882
 20
-594.3776183204526
 30
0.0
 10
488.9654459288973
 20
-594.1295864883072
 30
0.0
 10
488.3308439548015
 20
-593.4949845142113
 30
0.0
 10
488.082812122656
 20
-593.1105613572266
 30
0.0
 10
487.7660478818494
 20
-592.3104311797314
 30
0.0
 10
487.6962419807056
 20
-591.8972046355457
 30
0.0
 10
487.6962419807056
 20
-591.5141884624029
 30
0.0
  0
SPLINE
  5
2143F
330
18
100
AcDbEntity
  8
01
  6
CONTINUOUS
100
AcDbSpline
210
0.0
220
0.0
230
1.0
 70
     8
 71
     3
 72
    22
 73
    18
 74
     0
 42
0.000000001
 43
0.00000001
 40
0.0
 40
0.0
 40
0.0
 40
0.0
 40
0.125
 40
0.125
 40
0.25
 40
0.25
 40
0.375
 40
0.375
 40
0.5
 40
0.5
 40
0.625
 40
0.625
 40
0.75
 40
0.75
 40
0.875
 40
0.875
 40
1.0
 40
1.0
 40
1.0
 40
1.0
 10
410.5962420072655
 20
-637.514188462403
 30
0.0
 10
410.1837630515732
 20
-637.5141884624029
 30
0.0
 10
409.7558588415287
 20
-637.4775200315092
 30
0.0
 10
408.8891424392322
 20
-637.3171320511287
 30
0.0
 10
408.4504183666759
 20
-637.1932719302741
 30
0.0
 10
407.5887397139887
 20
-636.8521412094057
 30
0.0
 10
407.1659597909952
 20
-636.6347901212272
 30
0.0
 10
406.3655876761438
 20
-636.1115239606398
 30
0.0
 10
405.988203294242
 20
-635.8056446859911
 30
0.0
 10
405.3047857836773
 20
-635.1222271754265
 30
0.0
 10
404.9989065090285
 20
-634.7448427935248
 30
0.0
 10
404.4756403484413
 20
-633.9444706786732
 30
0.0
 10
404.2582892602627
 20
-633.5216907556796
 30
0.0
 10
403.9171585393942
 20
-632.6600121029925
 30
0.0
 10
403.7932984185396
 20
-632.2212880304363
 30
0.0
 10
403.6329104381592
 20
-631.3545716281396
 30
0.0
 10
403.5962420072655
 20
-630.926667418095
 30
0.0
 10
403.5962420072655
 20
-630.5141884624029
 30
0.0
  0
LINE
  5
21440
330
18
100
AcDbEntity
  8
01
  6
CONTINUOUS
100
AcDbLine
 10
410.5962420072655
 20
-588.7137180045747
 30
0.0
 11
473.846242008245
 21
-588.7137180045747
 31
0.0
  0
LINE
  5
21441
330
18
100
AcDbEntity
  8
01
  6
CONTINUOUS
100
AcDbLine
 10
613.5962420072655
 20
-617.2132591888936
 30
0.0
 11
613.5962420072655
 21
-630.5141884624029
 31
0.0
  0
SPLINE
  5
21442
330
18
100
AcDbEntity
  8
01
  6
CONTINUOUS
100
AcDbSpline
210
0.0
220
0.0
230
1.0
 70
     8
 71
     3
 72
    22
 73
    18
 74
     0
 42
0.000000001
 43
0.00000001
 40
0.0
 40
0.0
 40
0.0
 40
0.0
 40
0.1250000000000017
 40
0.1250000000000017
 40
0.2500000000000014
 40
0.2500000000000014
 40
0.3750000000000012
 40
0.3750000000000012
 40
0.5000000000000009
 40
0.5000000000000009
 40
0.6250000000000007
 40
0.6250000000000007
 40
0.7500000000000004
 40
0.7500000000000004
 40
0.8750000000000003
 40
0.8750000000000003
 40
1.0
 40
1.0
 40
1.0
 40
1.0
 10
613.5962420072655
 20
-630.5141884624029
 30
0.0
 10
613.5962420072657
 20
-630.926667418095
 30
0.0
 10
613.5595735763717
 20
-631.3545716281396
 30
0.0
 10
613.3991855959913
 20
-632.2212880304363
 30
0.0
 10
613.2753254751368
 20
-632.6600121029925
 30
0.0
 10
612.9341947542683
 20
-633.5216907556796
 30
0.0
 10
612.7168436660896
 20
-633.9444706786732
 30
0.0
 10
612.1935775055025
 20
-634.7448427935248
 30
0.0
 10
611.8876982308537
 20
-635.1222271754265
 30
0.0
 10
611.2042807202889
 20
-635.8056446859911
 30
0.0
 10
610.8268963383872
 20
-636.1115239606398
 30
0.0
 10
610.0265242235358
 20
-636.6347901212272
 30
0.0
 10
609.6037443005422
 20
-636.8521412094057
 30
0.0
 10
608.7420656478552
 20
-637.1932719302741
 30
0.0
 10
608.303341575299
 20
-637.3171320511287
 30
0.0
 10
607.4366251730022
 20
-637.4775200315092
 30
0.0
 10
607.0087209629577
 20
-637.514188462403
 30
0.0
 10
606.5962420072655
 20
-637.514188462403
 30
0.0
  0
LINE
  5
21443
330
18
100
AcDbEntity
  8
01
  6
CONTINUOUS
100
AcDbLine
 10
529.4962420338255
 20
-591.5141884624029
 30
0.0
 11
529.4962420338255
 21
-569.5141884573453
 31
0.0
  0
SPLINE
  5
21444
330
18
100
AcDbEntity
  8
01
  6
CONTINUOUS
100
AcDbSpline
210
0.0
220
0.0
230
1.0
 70
    24
 71
     3
 72
    14
 73
    10
 74
     0
 42
0.000000001
 43
0.00000001
 40
0.0
 40
0.0
 40
0.0
 40
0.0
 40
0.25
 40
0.25
 40
0.5
 40
0.5
 40
0.75
 40
0.75
 40
1.0
 40
1.0
 40
1.0
 40
1.0
 10
529.9962420338258
 20
-569.5141884566034
 30
0.0
 10
529.9373164587927
 20
-569.514188456647
 30
0.0
 10
529.8737431392398
 20
-569.5141884567023
 30
0.0
 10
529.7506461871156
 20
-569.5141884568297
 30
0.0
 10
529.6915041660658
 20
-569.5141884569019
 30
0.0
 10
529.5938730999457
 20
-569.5141884570468
 30
0.0
 10
529.5557143599298
 20
-569.514188457119
 30
0.0
 10
529.5069814031332
 20
-569.5141884572465
 30
0.0
 10
529.4962420338255
 20
-569.5141884573017
 30
0.0
 10
529.4962420338255
 20
-569.5141884573453
 30
0.0
  0
LINE
  5
21445
330
18
100
AcDbEntity
  8
01
  6
CONTINUOUS
100
AcDbLine
 10
490.9462419807056
 20
-594.7641884624029
 30
0.0
 11
526.2462420338255
 21
-594.7641884624029
 31
0.0
  0
SPLINE
  5
21446
330
18
100
AcDbEntity
  8
01
  6
CONTINUOUS
100
AcDbSpline
210
0.0
220
0.0
230
1.0
 70
     8
 71
     3
 72
    14
 73
    10
 74
     0
 42
0.000000001
 43
0.00000001
 40
0.0
 40
0.0
 40
0.0
 40
0.0
 40
0.25
 40
0.25
 40
0.5
 40
0.5
 40
0.75
 40
0.75
 40
1.0
 40
1.0
 40
1.0
 40
1.0
 10
605.5962420072655
 20
-615.2132591888936
 30
0.0
 10
605.3605397468701
 20
-615.2132591888936
 30
0.0
 10
605.1062464889095
 20
-615.2562166665206
 30
0.0
 10
604.6138586873741
 20
-615.4511485070169
 30
0.0
 10
604.377290590768
 20
-615.6037834806449
 30
0.0
 10
603.986766299017
 20
-615.9943077723962
 30
0.0
 10
603.834131325389
 20
-616.2308758690021
 30
0.0
 10
603.6391994848924
 20
-616.7232636705377
 30
0.0
 10
603.5962420072655
 20
-616.9775569284981
 30
0.0
 10
603.5962420072655
 20
-617.2132591888936
 30
0.0
  0
SPLINE
  5
21447
330
18
100
AcDbEntity
  8
01
  6
CONTINUOUS
100
AcDbSpline
210
0.0
220
0.0
230
1.0
 70
     8
 71
     3
 72
    14
 73
    10
 74
     0
 42
0.000000001
 43
0.00000001
 40
0.0
 40
0.0
 40
0.0
 40
0.0
 40
0.25
 40
0.25
 40
0.5
 40
0.5
 40
0.75
 40
0.75
 40
1.0
 40
1.0
 40
1.0
 40
1.0
 10
613.5962420072655
 20
-617.2132591888936
 30
0.0
 10
613.5962420072655
 20
-616.9775569284981
 30
0.0
 10
613.5532845296385
 20
-616.7232636705377
 30
0.0
 10
613.3583526891422
 20
-616.230875869002
 30
0.0
 10
613.2057177155142
 20
-615.9943077723962
 30
0.0
 10
612.8151934237629
 20
-615.6037834806449
 30
0.0
 10
612.578625327157
 20
-615.4511485070169
 30
0.0
 10
612.0862375256216
 20
-615.2562166665206
 30
0.0
 10
611.831944267661
 20
-615.2132591888936
 30
0.0
 10
611.5962420072655
 20
-615.2132591888936
 30
0.0
  0
LINE
  5
21449
330
18
100
AcDbEntity
  8
01
  6
CONTINUOUS
100
AcDbLine
 10
487.9462420072656
 20
-569.5141884624029
 30
0.0
 11
490.8462420072655
 21
-569.5141884624029
 31
0.0
  0
LINE
  5
2144A
330
18
100
AcDbEntity
  8
01
  6
CONTINUOUS
100
AcDbLine
 10
526.3462420072655
 20
-569.5141884624029
 30
0.0
 11
529.4962420338255
 21
-569.5141884624029
 31
0.0
  0
SPLINE
  5
2144B
330
18
100
AcDbEntity
  8
01
  6
CONTINUOUS
100
AcDbSpline
210
0.0
220
0.0
230
1.0
 70
     8
 71
     3
 72
    14
 73
    10
 74
     0
 42
0.000000001
 43
0.00000001
 40
0.0
 40
0.0
 40
0.0
 40
0.0
 40
0.25
 40
0.25
 40
0.5
 40
0.5
 40
0.75
 40
0.75
 40
1.0
 40
1.0
 40
1.0
 40
1.0
 10
487.4462420072656
 20
-585.7137180045746
 30
0.0
 10
487.4462420072656
 20
-586.067271395168
 30
0.0
 10
487.3818057908251
 20
-586.4487112821085
 30
0.0
 10
487.0894080300806
 20
-587.1872929844119
 30
0.0
 10
486.8604555696387
 20
-587.5421451293208
 30
0.0
 10
486.2746691320118
 20
-588.1279315669477
 30
0.0
 10
485.9198169871028
 20
-588.3568840273898
 30
0.0
 10
485.1812352847994
 20
-588.6492817881342
 30
0.0
 10
484.7997953978587
 20
-588.7137180045747
 30
0.0
 10
484.4462420072655
 20
-588.7137180045747
 30
0.0
  0
SPLINE
  5
2144E
330
18
100
AcDbEntity
  8
01
  6
CONTINUOUS
100
AcDbSpline
210
0.0
220
0.0
230
1.0
 70
    24
 71
     3
 72
    14
 73
    10
 74
     0
 42
0.000000001
 43
0.00000001
 40
0.0
 40
0.0
 40
0.0
 40
0.0
 40
0.25
 40
0.25
 40
0.5
 40
0.5
 40
0.75
 40
0.75
 40
1.0
 40
1.0
 40
1.0
 40
1.0
 10
525.3462420072655
 20
-569.5141884624029
 30
0.0
 10
525.3462420072655
 20
-569.5141884624029
 30
0.0
 10
525.367720746079
 20
-569.5141884624029
 30
0.0
 10
525.4651866663272
 20
-569.5141884624029
 30
0.0
 10
525.5415041531411
 20
-569.5141884624029
 30
0.0
 10
525.7367662990167
 20
-569.5141884624029
 30
0.0
 10
525.8550503473197
 20
-569.5141884624029
 30
0.0
 10
526.1012442480875
 20
-569.5141884624029
 30
0.0
 10
526.2283908770677
 20
-569.5141884624029
 30
0.0
 10
526.3462420072655
 20
-569.5141884624029
 30
0.0
  0
LINE
  5
2144F
330
18
100
AcDbEntity
  8
01
  6
CONTINUOUS
100
AcDbLine
 10
491.8462420072655
 20
-569.5141884624029
 30
0.0
 11
491.8462420072655
 21
-569.8141884624029
 31
0.0
  0
SPLINE
  5
21450
330
18
100
AcDbEntity
  8
01
  6
CONTINUOUS
100
AcDbSpline
210
0.0
220
0.0
230
1.0
 70
    24
 71
     3
 72
    14
 73
    10
 74
     0
 42
0.000000001
 43
0.00000001
 40
0.0
 40
0.0
 40
0.0
 40
0.0
 40
0.25
 40
0.25
 40
0.5
 40
0.5
 40
0.75
 40
0.75
 40
1.0
 40
1.0
 40
1.0
 40
1.0
 10
490.8462420072655
 20
-569.5141884624029
 30
0.0
 10
490.9640931374632
 20
-569.5141884624029
 30
0.0
 10
491.0912397664434
 20
-569.5141884624029
 30
0.0
 10
491.3374336672113
 20
-569.5141884624029
 30
0.0
 10
491.4557177155142
 20
-569.5141884624029
 30
0.0
 10
491.6509798613898
 20
-569.5141884624029
 30
0.0
 10
491.7272973482039
 20
-569.5141884624029
 30
0.0
 10
491.8247632684521
 20
-569.5141884624029
 30
0.0
 10
491.8462420072655
 20
-569.5141884624029
 30
0.0
 10
491.8462420072655
 20
-569.5141884624029
 30
0.0
  0
LINE
  5
21451
330
18
100
AcDbEntity
  8
01
  6
CONTINUOUS
100
AcDbLine
 10
487.4462420072656
 20
-585.7137180045746
 30
0.0
 11
487.4462420072656
 21
-569.5141884624029
 31
0.0
  0
SPLINE
  5
21452
330
18
100
AcDbEntity
  8
01
  6
CONTINUOUS
100
AcDbSpline
210
0.0
220
0.0
230
1.0
 70
    24
 71
     3
 72
    14
 73
    10
 74
     0
 42
0.000000001
 43
0.00000001
 40
0.0
 40
0.0
 40
0.0
 40
0.0
 40
0.25
 40
0.25
 40
0.5
 40
0.5
 40
0.75
 40
0.75
 40
1.0
 40
1.0
 40
1.0
 40
1.0
 10
487.4462420072656
 20
-569.5141884624029
 30
0.0
 10
487.4462420072656
 20
-569.5141884624029
 30
0.0
 10
487.4569813766722
 20
-569.5141884624029
 30
0.0
 10
487.5057143367964
 20
-569.5141884624029
 30
0.0
 10
487.5438730802033
 20
-569.5141884624029
 30
0.0
 10
487.641504153141
 20
-569.5141884624029
 30
0.0
 10
487.7006461772927
 20
-569.5141884624029
 30
0.0
 10
487.8237431276765
 20
-569.5141884624029
 30
0.0
 10
487.8873164421667
 20
-569.5141884624029
 30
0.0
 10
487.9462420072656
 20
-569.5141884624029
 30
0.0
  0
LINE
  5
2146F
330
18
100
AcDbEntity
  8
01
  6
CONTINUOUS
100
AcDbLine
 10
525.3462420072655
 20
-569.8141884624029
 30
0.0
 11
525.3462420072655
 21
-569.5141884624029
 31
0.0
  0
ARC
  5
214F1
330
18
100
AcDbEntity
  8
01
  6
CONTINUOUS
100
AcDbCircle
 10
498.5962416153653
 20
-690.4313303512662
 30
0.0
 40
2.249999999999986
100
AcDbArc
 50
179.9999999999942
 51
270.0000000000014
  0
ARC
  5
214F2
330
18
100
AcDbEntity
  8
01
  6
CONTINUOUS
100
AcDbCircle
 10
498.5962416153652
 20
-690.4313303512663
 30
0.0
 40
2.249999999999972
100
AcDbArc
 50
0.0
 51
179.9999999999971
  0
ARC
  5
214F3
330
18
100
AcDbEntity
  8
01
  6
CONTINUOUS
100
AcDbCircle
 10
498.5962416153652
 20
-690.4313303512664
 30
0.0
 40
2.25
100
AcDbArc
 50
270.0
 51
0.000000000002895
  0
ARC
  5
214F4
330
18
100
AcDbEntity
  8
01
  6
CONTINUOUS
100
AcDbCircle
 10
518.5962416153652
 20
-690.4313303512663
 30
0.0
 40
2.25
100
AcDbArc
 50
270.0
 51
0.0
  0
ARC
  5
214F5
330
18
100
AcDbEntity
  8
01
  6
CONTINUOUS
100
AcDbCircle
 10
518.5962416153651
 20
-690.4313303512664
 30
0.0
 40
2.25
100
AcDbArc
 50
179.9999999999971
 51
270.0000000000029
  0
ARC
  5
214F6
330
18
100
AcDbEntity
  8
01
  6
CONTINUOUS
100
AcDbCircle
 10
518.596241615365
 20
-690.4313303512665
 30
0.0
 40
2.249999999999972
100
AcDbArc
 50
0.00000000000579
 51
179.9999999999942
  0
LINE
  5
214F9
330
18
100
AcDbEntity
  8
01
  6
CONTINUOUS
100
AcDbLine
 10
529.2462416153651
 20
-678.0465005595678
 30
0.0
 11
529.2462416153651
 21
-679.9313303512664
 31
0.0
  0
LINE
  5
214FA
330
18
100
AcDbEntity
  8
01
  6
CONTINUOUS
100
AcDbLine
 10
487.9462416153652
 20
-679.9313303512664
 30
0.0
 11
487.9462416153652
 21
-678.0465005595676
 31
0.0
  0
ARC
  5
214FB
330
18
100
AcDbEntity
  8
01
100
AcDbCircle
 10
508.5962416153648
 20
-2354.301330351267
 30
0.0
 40
1677.37
100
AcDbArc
 50
89.32837747562559
 51
90.67162252437437
  0
ARC
  5
214FC
330
18
100
AcDbEntity
  8
01
100
AcDbCircle
 10
488.9462416153652
 20
-678.0465005595678
 30
0.0
 40
1.0
100
AcDbArc
 50
90.67162252436853
 51
179.999999999987
  0
ARC
  5
214FD
330
18
100
AcDbEntity
  8
01
100
AcDbCircle
 10
528.2462416153651
 20
-678.0465005595678
 30
0.0
 40
1.0
100
AcDbArc
 50
0.0
 51
89.32837747561845
  0
LINE
  5
214FF
330
18
100
AcDbEntity
  8
01
  6
CONTINUOUS
100
AcDbLine
 10
529.2462416153651
 20
-702.816160142965
 30
0.0
 11
529.2462416153651
 21
-700.9313303512664
 31
0.0
  0
LINE
  5
21500
330
18
100
AcDbEntity
  8
01
  6
CONTINUOUS
100
AcDbLine
 10
487.9462416153652
 20
-700.9313303512664
 30
0.0
 11
487.9462416153652
 21
-702.8161601429653
 31
0.0
  0
ARC
  5
21501
330
18
100
AcDbEntity
  8
01
100
AcDbCircle
 10
508.5962416153648
 20
973.4386696487338
 30
0.0
 40
1677.37
100
AcDbArc
 50
269.3283774756256
 51
270.6716225243744
  0
ARC
  5
21502
330
18
100
AcDbEntity
  8
01
100
AcDbCircle
 10
488.9462416153652
 20
-702.816160142965
 30
0.0
 40
1.0
100
AcDbArc
 50
179.999999999987
 51
269.3283774756314
  0
ARC
  5
21503
330
18
100
AcDbEntity
  8
01
100
AcDbCircle
 10
528.2462416153651
 20
-702.816160142965
 30
0.0
 40
1.0
100
AcDbArc
 50
270.6716225243815
 51
0.0
  0
LINE
  5
21504
330
18
100
AcDbEntity
  8
01
100
AcDbLine
 10
404.596241615365
 20
-679.9313303512664
 30
0.0
 11
612.5962416153652
 21
-679.9313303512664
 31
0.0
  0
LINE
  5
21506
330
18
100
AcDbEntity
  8
01
100
AcDbLine
 10
404.596241615365
 20
-700.9313303512664
 30
0.0
 11
612.5962416153652
 21
-700.9313303512664
 31
0.0
  0
LINE
  5
21507
330
18
100
AcDbEntity
  8
01
100
AcDbLine
 10
403.596241615365
 20
-680.9313303512664
 30
0.0
 11
403.596241615365
 21
-699.9313303512664
 31
0.0
  0
LINE
  5
21508
330
18
100
AcDbEntity
  8
01
100
AcDbLine
 10
613.5962416153652
 20
-680.9313303512664
 30
0.0
 11
613.5962416153652
 21
-699.9313303512664
 31
0.0
  0
ARC
  5
21509
330
18
100
AcDbEntity
  8
01
100
AcDbCircle
 10
612.5962416153652
 20
-680.9313303512664
 30
0.0
 40
1.0
100
AcDbArc
 50
0.0
 51
90.0
  0
ARC
  5
2150A
330
18
100
AcDbEntity
  8
01
100
AcDbCircle
 10
612.5962416153652
 20
-699.9313303512664
 30
0.0
 40
1.0
100
AcDbArc
 50
270.0
 51
0.0
  0
ARC
  5
2150B
330
18
100
AcDbEntity
  8
01
100
AcDbCircle
 10
404.596241615365
 20
-680.9313303512664
 30
0.0
 40
1.0
100
AcDbArc
 50
90.0
 51
180.0
  0
ARC
  5
2150C
330
18
100
AcDbEntity
  8
01
100
AcDbCircle
 10
404.596241615365
 20
-699.9313303512664
 30
0.0
 40
1.0
100
AcDbArc
 50
180.0
 51
270.0
  0
SPLINE
  5
21586
330
18
100
AcDbEntity
  8
01
  6
CONTINUOUS
100
AcDbSpline
210
0.0
220
0.0
230
1.0
 70
    24
 71
     3
 72
    14
 73
    10
 74
     0
 42
0.000000001
 43
0.00000001
 40
0.0
 40
0.0
 40
0.0
 40
0.0
 40
0.25
 40
0.25
 40
0.5
 40
0.5
 40
0.75
 40
0.75
 40
1.0
 40
1.0
 40
1.0
 40
1.0
 10
661.8971708871932
 20
-679.9313303512664
 30
0.0
 10
662.015022017391
 20
-679.9313303512664
 30
0.0
 10
662.1421686463711
 20
-679.9313303512664
 30
0.0
 10
662.388362547139
 20
-679.9313303512664
 30
0.0
 10
662.5066465954419
 20
-679.9313303512664
 30
0.0
 10
662.7019087413175
 20
-679.9313303512664
 30
0.0
 10
662.7782262281316
 20
-679.9313303512664
 30
0.0
 10
662.8756921483798
 20
-679.9313303512664
 30
0.0
 10
662.8971708871932
 20
-679.9313303512664
 30
0.0
 10
662.8971708871932
 20
-679.9313303512664
 30
0.0
  0
SPLINE
  5
21587
330
18
100
AcDbEntity
  8
01
  6
CONTINUOUS
100
AcDbSpline
210
0.0
220
0.0
230
1.0
 70
     8
 71
     3
 72
    14
 73
    10
 74
     0
 42
0.000000001
 43
0.00000001
 40
0.0
 40
0.0
 40
0.0
 40
0.0
 40
0.25
 40
0.25
 40
0.5
 40
0.5
 40
0.75
 40
0.75
 40
1.0
 40
1.0
 40
1.0
 40
1.0
 10
663.8971708871932
 20
-680.9313303512664
 30
0.0
 10
663.8971708871932
 20
-680.8134792210686
 30
0.0
 10
663.8756921483798
 20
-680.6863325920884
 30
0.0
 10
663.7782262281316
 20
-680.4401386913206
 30
0.0
 10
663.7019087413175
 20
-680.3218546430177
 30
0.0
 10
663.5066465954419
 20
-680.126592497142
 30
0.0
 10
663.388362547139
 20
-680.0502750103279
 30
0.0
 10
663.1421686463711
 20
-679.9528090900798
 30
0.0
 10
663.015022017391
 20
-679.9313303512664
 30
0.0
 10
662.8971708871932
 20
-679.9313303512664
 30
0.0
  0
SPLINE
  5
21588
330
18
100
AcDbEntity
  8
01
  6
CONTINUOUS
100
AcDbSpline
210
0.0
220
0.0
230
1.0
 70
     8
 71
     3
 72
    14
 73
    10
 74
     0
 42
0.000000001
 43
0.00000001
 40
0.0
 40
0.0
 40
0.0
 40
0.0
 40
0.25
 40
0.25
 40
0.5
 40
0.5
 40
0.75
 40
0.75
 40
1.0
 40
1.0
 40
1.0
 40
1.0
 10
662.8971708871932
 20
-700.9279973184781
 30
0.0
 10
663.015022017391
 20
-700.9279973184781
 30
0.0
 10
663.1421686463711
 20
-700.9065185796647
 30
0.0
 10
663.388362547139
 20
-700.8090526594166
 30
0.0
 10
663.5066465954419
 20
-700.7327351726025
 30
0.0
 10
663.7019087413178
 20
-700.5374730267268
 30
0.0
 10
663.7782262281316
 20
-700.4191889784239
 30
0.0
 10
663.8756921483798
 20
-700.1729950776561
 30
0.0
 10
663.8971708871932
 20
-700.0458484486759
 30
0.0
 10
663.8971708871932
 20
-699.9279973184781
 30
0.0
  0
LINE
  5
2158A
330
18
100
AcDbEntity
  8
01
  6
CONTINUOUS
100
AcDbLine
 10
663.8971708871932
 20
-680.9313303512664
 30
0.0
 11
663.8971708871932
 21
-699.9279973184781
 31
0.0
  0
LINE
  5
2158B
330
18
100
AcDbEntity
  8
01
  6
CONTINUOUS
100
AcDbLine
 10
648.596241613684
 20
-679.9313303512664
 30
0.0
 11
661.8971708871932
 21
-679.9313303512664
 31
0.0
  0
SPLINE
  5
2158E
330
18
100
AcDbEntity
  8
01
  6
CONTINUOUS
100
AcDbSpline
210
0.0
220
0.0
230
1.0
 70
     8
 71
     3
 72
    14
 73
    10
 74
     0
 42
0.000000001
 43
0.00000001
 40
0.0
 40
0.0
 40
0.0
 40
0.0
 40
0.25
 40
0.25
 40
0.5
 40
0.5
 40
0.75
 40
0.75
 40
1.0
 40
1.0
 40
1.0
 40
1.0
 10
641.596241613684
 20
-699.9279973184782
 30
0.0
 10
641.596241613684
 20
-700.045848448676
 30
0.0
 10
641.6177203524974
 20
-700.1729950776562
 30
0.0
 10
641.7151862727455
 20
-700.4191889784239
 30
0.0
 10
641.7915037595596
 20
-700.537473026727
 30
0.0
 10
641.9867659054353
 20
-700.7327351726026
 30
0.0
 10
642.1050499537382
 20
-700.8090526594166
 30
0.0
 10
642.351243854506
 20
-700.9065185796647
 30
0.0
 10
642.4783904834862
 20
-700.9279973184781
 30
0.0
 10
642.596241613684
 20
-700.9279973184781
 30
0.0
  0
LINE
  5
2158F
330
18
100
AcDbEntity
  8
01
  6
CONTINUOUS
100
AcDbLine
 10
641.596241613684
 20
-699.9279973184782
 30
0.0
 11
641.596241613684
 21
-680.9313303512664
 31
0.0
  0
SPLINE
  5
21590
330
18
100
AcDbEntity
  8
01
  6
CONTINUOUS
100
AcDbSpline
210
0.0
220
0.0
230
1.0
 70
     8
 71
     3
 72
    14
 73
    10
 74
     0
 42
0.000000001
 43
0.00000001
 40
0.0
 40
0.0
 40
0.0
 40
0.0
 40
0.25
 40
0.25
 40
0.5
 40
0.5
 40
0.75
 40
0.75
 40
1.0
 40
1.0
 40
1.0
 40
1.0
 10
642.596241613684
 20
-679.9313303512664
 30
0.0
 10
642.4783904834862
 20
-679.9313303512664
 30
0.0
 10
642.351243854506
 20
-679.9528090900798
 30
0.0
 10
642.1050499537382
 20
-680.0502750103279
 30
0.0
 10
641.9867659054353
 20
-680.126592497142
 30
0.0
 10
641.7915037595596
 20
-680.3218546430177
 30
0.0
 10
641.7151862727455
 20
-680.4401386913206
 30
0.0
 10
641.6177203524974
 20
-680.6863325920884
 30
0.0
 10
641.596241613684
 20
-680.8134792210686
 30
0.0
 10
641.596241613684
 20
-680.9313303512664
 30
0.0
  0
SPLINE
  5
21591
330
18
100
AcDbEntity
  8
01
  6
CONTINUOUS
100
AcDbSpline
210
0.0
220
0.0
230
1.0
 70
    24
 71
     3
 72
    22
 73
    18
 74
     0
 42
0.000000001
 43
0.00000001
 40
0.0
 40
0.0
 40
0.0
 40
0.0
 40
0.125
 40
0.125
 40
0.25
 40
0.25
 40
0.375
 40
0.375
 40
0.5
 40
0.5
 40
0.625
 40
0.625
 40
0.75
 40
0.75
 40
0.875
 40
0.875
 40
1.0
 40
1.0
 40
1.0
 40
1.0
 10
642.596241613684
 20
-679.9313303512664
 30
0.0
 10
642.596241613684
 20
-679.9313303512664
 30
0.0
 10
642.6276716973073
 20
-679.9313303512664
 30
0.0
 10
642.7651471090619
 20
-679.9313303512664
 30
0.0
 10
642.8713129269372
 20
-679.9313303512664
 30
0.0
 10
643.1637106876817
 20
-679.9313303512664
 30
0.0
 10
643.3500116204061
 20
-679.9313303512664
 30
0.0
 10
643.798525472338
 20
-679.9313303512664
 30
0.0
 10
644.0607077077511
 20
-679.9313303512664
 30
0.0
 10
644.6464941453783
 20
-679.9313303512664
 30
0.0
 10
644.9699664727225
 20
-679.9313303512664
 30
0.0
 10
645.6559997140237
 20
-679.9313303512664
 30
0.0
 10
646.0183825051611
 20
-679.9313303512664
 30
0.0
 10
646.7569642074643
 20
-679.9313303512664
 30
0.0
 10
647.1330134125126
 20
-679.9313303512664
 30
0.0
 10
647.8759131859097
 20
-679.9313303512664
 30
0.0
 10
648.2426882230907
 20
-679.9313303512664
 30
0.0
 10
648.596241613684
 20
-679.9313303512664
 30
0.0
  0
SPLINE
  5
21592
330
18
100
AcDbEntity
  8
01
  6
CONTINUOUS
100
AcDbSpline
210
0.0
220
0.0
230
1.0
 70
     8
 71
     3
 72
    14
 73
    10
 74
     0
 42
0.000000001
 43
0.00000001
 40
0.0
 40
0.0
 40
0.0
 40
0.0
 40
0.25
 40
0.25
 40
0.5
 40
0.5
 40
0.75
 40
0.75
 40
1.0
 40
1.0
 40
1.0
 40
1.0
 10
709.596241615563
 20
-679.9313303512664
 30
0.0
 10
709.596241615365
 20
-679.9313303512664
 30
0.0
 10
709.5962416149532
 20
-679.9478090900798
 30
0.0
 10
709.5962416145392
 20
-680.0452750103279
 30
0.0
 10
709.5962416143404
 20
-680.121592497142
 30
0.0
 10
709.5962416140121
 20
-680.3168546430177
 30
0.0
 10
709.5962416138839
 20
-680.4351386913206
 30
0.0
 10
709.5962416137202
 20
-680.6813325920884
 30
0.0
 10
709.596241613684
 20
-680.8084792210686
 30
0.0
 10
709.596241613684
 20
-680.9263303512664
 30
0.0
  0
LINE
  5
21593
330
18
100
AcDbEntity
  8
01
  6
CONTINUOUS
100
AcDbLine
 10
687.3971708871936
 20
-679.9313303512664
 30
0.0
 11
709.596241615365
 21
-679.9313303512664
 31
0.0
  0
LINE
  5
21594
330
18
100
AcDbEntity
  8
01
  6
CONTINUOUS
100
AcDbLine
 10
709.596241613684
 20
-699.9329973184781
 30
0.0
 11
709.596241613684
 21
-680.9263303512664
 31
0.0
  0
SPLINE
  5
21595
330
18
100
AcDbEntity
  8
01
  6
CONTINUOUS
100
AcDbSpline
210
0.0
220
0.0
230
1.0
 70
     8
 71
     3
 72
    14
 73
    10
 74
     0
 42
0.000000001
 43
0.00000001
 40
0.0
 40
0.0
 40
0.0
 40
0.0
 40
0.25
 40
0.25
 40
0.5
 40
0.5
 40
0.75
 40
0.75
 40
1.0
 40
1.0
 40
1.0
 40
1.0
 10
709.596241615365
 20
-700.9329973184781
 30
0.0
 10
709.5962416152659
 20
-700.9329973184781
 30
0.0
 10
709.596241615141
 20
-700.9115185796647
 30
0.0
 10
709.5962416148523
 20
-700.8140526594166
 30
0.0
 10
709.5962416146886
 20
-700.7377351726025
 30
0.0
 10
709.5962416143605
 20
-700.5424730267268
 30
0.0
 10
709.5962416141967
 20
-700.4241889784239
 30
0.0
 10
709.596241613908
 20
-700.1779950776561
 30
0.0
 10
709.5962416137831
 20
-700.0508484486759
 30
0.0
 10
709.596241613684
 20
-699.9329973184781
 30
0.0
  0
LINE
  5
21596
330
18
100
AcDbEntity
  8
01
  6
CONTINUOUS
100
AcDbLine
 10
709.596241615365
 20
-700.9279973184781
 30
0.0
 11
687.3971708871936
 21
-700.9279973184781
 31
0.0
  0
LINE
  5
21597
330
18
100
AcDbEntity
  8
01
  6
CONTINUOUS
100
AcDbLine
 10
680.3971708871936
 20
-699.9279973184781
 30
0.0
 11
680.3971708871936
 21
-680.9313303512664
 31
0.0
  0
SPLINE
  5
21598
330
18
100
AcDbEntity
  8
01
  6
CONTINUOUS
100
AcDbSpline
210
0.0
220
0.0
230
1.0
 70
     8
 71
     3
 72
    14
 73
    10
 74
     0
 42
0.000000001
 43
0.00000001
 40
0.0
 40
0.0
 40
0.0
 40
0.0
 40
0.25
 40
0.25
 40
0.5
 40
0.5
 40
0.75
 40
0.75
 40
1.0
 40
1.0
 40
1.0
 40
1.0
 10
681.3971708871936
 20
-679.9313303512664
 30
0.0
 10
681.2793197569958
 20
-679.9313303512664
 30
0.0
 10
681.1521731280156
 20
-679.9528090900798
 30
0.0
 10
680.9059792272478
 20
-680.0502750103279
 30
0.0
 10
680.7876951789449
 20
-680.126592497142
 30
0.0
 10
680.5924330330693
 20
-680.3218546430177
 30
0.0
 10
680.5161155462552
 20
-680.4401386913206
 30
0.0
 10
680.418649626007
 20
-680.6863325920884
 30
0.0
 10
680.3971708871936
 20
-680.8134792210686
 30
0.0
 10
680.3971708871936
 20
-680.9313303512664
 30
0.0
  0
SPLINE
  5
21599
330
18
100
AcDbEntity
  8
01
  6
CONTINUOUS
100
AcDbSpline
210
0.0
220
0.0
230
1.0
 70
    24
 71
     3
 72
    22
 73
    18
 74
     0
 42
0.000000001
 43
0.00000001
 40
0.0
 40
0.0
 40
0.0
 40
0.0
 40
0.125
 40
0.125
 40
0.25
 40
0.25
 40
0.375
 40
0.375
 40
0.5
 40
0.5
 40
0.625
 40
0.625
 40
0.75
 40
0.75
 40
0.875
 40
0.875
 40
1.0
 40
1.0
 40
1.0
 40
1.0
 10
681.3971708871936
 20
-679.9313303512664
 30
0.0
 10
681.3971708871936
 20
-679.9313303512664
 30
0.0
 10
681.4286009708169
 20
-679.9313303512664
 30
0.0
 10
681.5660763825715
 20
-679.9313303512664
 30
0.0
 10
681.6722422004468
 20
-679.9313303512664
 30
0.0
 10
681.9646399611911
 20
-679.9313303512664
 30
0.0
 10
682.1509408939157
 20
-679.9313303512664
 30
0.0
 10
682.5994547458477
 20
-679.9313303512664
 30
0.0
 10
682.8616369812607
 20
-679.9313303512664
 30
0.0
 10
683.4474234188876
 20
-679.9313303512664
 30
0.0
 10
683.7708957462321
 20
-679.9313303512664
 30
0.0
 10
684.4569289875333
 20
-679.9313303512664
 30
0.0
 10
684.8193117786707
 20
-679.9313303512664
 30
0.0
 10
685.5578934809739
 20
-679.9313303512664
 30
0.0
 10
685.9339426860222
 20
-679.9313303512664
 30
0.0
 10
686.6768424594193
 20
-679.9313303512664
 30
0.0
 10
687.0436174966003
 20
-679.9313303512664
 30
0.0
 10
687.3971708871936
 20
-679.9313303512664
 30
0.0
  0
SPLINE
  5
2159A
330
18
100
AcDbEntity
  8
01
  6
CONTINUOUS
100
AcDbSpline
210
0.0
220
0.0
230
1.0
 70
     8
 71
     3
 72
    14
 73
    10
 74
     0
 42
0.000000001
 43
0.00000001
 40
0.0
 40
0.0
 40
0.0
 40
0.0
 40
0.25
 40
0.25
 40
0.5
 40
0.5
 40
0.75
 40
0.75
 40
1.0
 40
1.0
 40
1.0
 40
1.0
 10
680.3971708871936
 20
-699.9279973184781
 30
0.0
 10
680.3971708871936
 20
-700.0458484486759
 30
0.0
 10
680.418649626007
 20
-700.1729950776561
 30
0.0
 10
680.5161155462552
 20
-700.4191889784239
 30
0.0
 10
680.5924330330693
 20
-700.5374730267268
 30
0.0
 10
680.7876951789449
 20
-700.7327351726025
 30
0.0
 10
680.9059792272478
 20
-700.8090526594166
 30
0.0
 10
681.1521731280156
 20
-700.9065185796647
 30
0.0
 10
681.2793197569958
 20
-700.9279973184781
 30
0.0
 10
681.3971708871936
 20
-700.9279973184781
 30
0.0
  0
SPLINE
  5
2159B
330
18
100
AcDbEntity
  8
01
  6
CONTINUOUS
100
AcDbSpline
210
0.0
220
0.0
230
1.0
 70
    24
 71
     3
 72
    22
 73
    18
 74
     0
 42
0.000000001
 43
0.00000001
 40
0.0
 40
0.0
 40
0.0
 40
0.0
 40
0.125
 40
0.125
 40
0.25
 40
0.25
 40
0.375
 40
0.375
 40
0.5
 40
0.5
 40
0.625
 40
0.625
 40
0.75
 40
0.75
 40
0.875
 40
0.875
 40
1.0
 40
1.0
 40
1.0
 40
1.0
 10
687.3971708871936
 20
-700.9279973184781
 30
0.0
 10
687.0436174966003
 20
-700.9279973184781
 30
0.0
 10
686.6768424594193
 20
-700.9279973184781
 30
0.0
 10
685.9339426860222
 20
-700.9279973184781
 30
0.0
 10
685.5578934809739
 20
-700.9279973184781
 30
0.0
 10
684.8193117786707
 20
-700.9279973184781
 30
0.0
 10
684.4569289875333
 20
-700.9279973184781
 30
0.0
 10
683.7708957462321
 20
-700.9279973184781
 30
0.0
 10
683.4474234188876
 20
-700.9279973184781
 30
0.0
 10
682.8616369812607
 20
-700.9279973184781
 30
0.0
 10
682.5994547458477
 20
-700.9279973184781
 30
0.0
 10
682.1509408939155
 20
-700.9279973184781
 30
0.0
 10
681.9646399611911
 20
-700.9279973184781
 30
0.0
 10
681.6722422004466
 20
-700.9279973184781
 30
0.0
 10
681.5660763825713
 20
-700.9279973184781
 30
0.0
 10
681.4286009708169
 20
-700.9279973184781
 30
0.0
 10
681.3971708871936
 20
-700.9279973184781
 30
0.0
 10
681.3971708871936
 20
-700.9279973184781
 30
0.0
  0
SPLINE
  5
2159C
330
18
100
AcDbEntity
  8
01
  6
CONTINUOUS
100
AcDbSpline
210
0.0
220
0.0
230
1.0
 70
    24
 71
     3
 72
    12
 73
     8
 74
     0
 42
0.000000001
 43
0.00000001
 40
0.0
 40
0.0
 40
0.0
 40
0.0
 40
0.0304433777531588
 40
0.2854888567851768
 40
0.5342446953706609
 40
0.7732886426242248
 40
1.0
 40
1.0
 40
1.0
 40
1.0
 10
709.596241613684
 20
-699.9382935086726
 30
0.0
 10
709.596241613684
 20
-699.9433780858515
 30
0.0
 10
709.596241613684
 20
-699.9910597241308
 30
0.0
 10
709.596241613684
 20
-700.0570985893332
 30
0.0
 10
709.596241613684
 20
-700.1298490950376
 30
0.0
 10
709.596241613684
 20
-700.171970014198
 30
0.0
 10
709.596241613684
 20
-700.1771449027349
 30
0.0
 10
709.596241613684
 20
-700.1796638348712
 30
0.0
  0
SPLINE
  5
2159D
330
18
100
AcDbEntity
  8
01
  6
CONTINUOUS
100
AcDbSpline
210
0.0
220
0.0
230
1.0
 70
    24
 71
     3
 72
    12
 73
     8
 74
     0
 42
0.000000001
 43
0.00000001
 40
0.0
 40
0.0
 40
0.0
 40
0.0
 40
0.2306099334746546
 40
0.473940812488078
 40
0.7272061326176034
 40
0.9867666142809303
 40
1.0
 40
1.0
 40
1.0
 40
1.0
 10
709.596241613684
 20
-680.6796638348733
 30
0.0
 10
709.596241613684
 20
-680.6822810126243
 30
0.0
 10
709.596241613684
 20
-680.6876597373437
 30
0.0
 10
709.596241613684
 20
-680.7313527064193
 30
0.0
 10
709.596241613684
 20
-680.8070508937799
 30
0.0
 10
709.596241613684
 20
-680.8728021917116
 30
0.0
 10
709.596241613684
 20
-680.918802652544
 30
0.0
 10
709.596241613684
 20
-680.9210341610719
 30
0.0
  0
SPLINE
  5
2159E
330
18
100
AcDbEntity
  8
01
  6
CONTINUOUS
100
AcDbSpline
210
0.0
220
0.0
230
1.0
 70
    24
 71
     3
 72
    14
 73
    10
 74
     0
 42
0.000000001
 43
0.00000001
 40
0.0
 40
0.0
 40
0.0
 40
0.0
 40
0.25
 40
0.25
 40
0.5
 40
0.5
 40
0.75
 40
0.75
 40
1.0
 40
1.0
 40
1.0
 40
1.0
 10
681.3971708871936
 20
-700.9279973184781
 30
0.0
 10
681.3971708871936
 20
-700.9279973184781
 30
0.0
 10
681.3112559319395
 20
-700.9279973184781
 30
0.0
 10
680.9213922509471
 20
-700.9279973184781
 30
0.0
 10
680.6161223036911
 20
-700.9279973184781
 30
0.0
 10
679.8350737201883
 20
-700.9279973184781
 30
0.0
 10
679.3619375269766
 20
-700.9279973184781
 30
0.0
 10
678.3771619239055
 20
-700.9279973184781
 30
0.0
 10
677.8685754079845
 20
-700.9279973184781
 30
0.0
 10
677.3971708871936
 20
-700.9279973184781
 30
0.0
  0
SPLINE
  5
2159F
330
18
100
AcDbEntity
  8
01
  6
CONTINUOUS
100
AcDbSpline
210
0.0
220
0.0
230
1.0
 70
    24
 71
     3
 72
    14
 73
    10
 74
     0
 42
0.000000001
 43
0.00000001
 40
0.0
 40
0.0
 40
0.0
 40
0.0
 40
0.25
 40
0.25
 40
0.5
 40
0.5
 40
0.75
 40
0.75
 40
1.0
 40
1.0
 40
1.0
 40
1.0
 10
677.3971708871936
 20
-679.9313303512664
 30
0.0
 10
677.8685754079845
 20
-679.9313303512664
 30
0.0
 10
678.3771619239055
 20
-679.9313303512664
 30
0.0
 10
679.3619375269766
 20
-679.9313303512664
 30
0.0
 10
679.8350737201883
 20
-679.9313303512664
 30
0.0
 10
680.6161223036911
 20
-679.9313303512664
 30
0.0
 10
680.9213922509471
 20
-679.9313303512664
 30
0.0
 10
681.3112559319395
 20
-679.9313303512664
 30
0.0
 10
681.3971708871936
 20
-679.9313303512664
 30
0.0
 10
681.3971708871936
 20
-679.9313303512664
 30
0.0
  0
LINE
  5
215A0
330
18
100
AcDbEntity
  8
01
  6
CONTINUOUS
100
AcDbLine
 10
662.902457077387
 20
-679.9313303512664
 30
0.0
 11
677.3971708871936
 21
-679.9313303512664
 31
0.0
  0
LINE
  5
215A1
330
18
100
AcDbEntity
  8
01
  6
CONTINUOUS
100
AcDbLine
 10
677.3971708871936
 20
-700.9279973184781
 30
0.0
 11
662.902457077387
 21
-700.9279973184781
 31
0.0
  0
LINE
  5
215FA
330
18
100
AcDbEntity
  8
01
  6
CONTINUOUS
100
AcDbLine
 10
684.5962416146352
 20
-679.9313303512664
 30
0.0
 11
684.5962416146347
 21
-678.0388713070824
 31
0.0
  0
LINE
  5
215FB
330
18
100
AcDbEntity
  8
01
  6
CONTINUOUS
100
AcDbLine
 10
709.2962416155638
 20
-678.0388713070824
 30
0.0
 11
709.2962416154337
 21
-679.9313303512664
 31
0.0
  0
ARC
  5
215FC
330
18
100
AcDbEntity
  8
01
100
AcDbCircle
 10
696.9462416150991
 20
-1276.931330351266
 30
0.0
 40
600.0
100
AcDbArc
 50
88.9142804378312
 51
91.08571956216872
  0
ARC
  5
215FE
330
18
100
AcDbEntity
  8
01
100
AcDbCircle
 10
708.2962416155638
 20
-678.0388713070824
 30
0.0
 40
1.0
100
AcDbArc
 50
0.0
 51
88.9142804378427
  0
ARC
  5
215FF
330
18
100
AcDbEntity
  8
01
100
AcDbCircle
 10
685.5962416146347
 20
-678.0388713070824
 30
0.0
 40
1.0
100
AcDbArc
 50
91.0857195621508
 51
180.0
  0
LINE
  5
21609
330
18
100
AcDbEntity
  8
01
  6
CONTINUOUS
100
AcDbLine
 10
684.5962416146352
 20
-700.9279973184781
 30
0.0
 11
684.5962416146347
 21
-702.8237893954504
 31
0.0
  0
LINE
  5
2160A
330
18
100
AcDbEntity
  8
01
  6
CONTINUOUS
100
AcDbLine
 10
709.2962416155638
 20
-702.8237893954504
 30
0.0
 11
709.2962416154335
 21
-700.9279973184781
 31
0.0
  0
ARC
  5
2160B
330
18
100
AcDbEntity
  8
01
100
AcDbCircle
 10
696.9462416150991
 20
-103.9313303512665
 30
0.0
 40
600.0
100
AcDbArc
 50
268.9142804378313
 51
271.0857195621688
  0
ARC
  5
2160C
330
18
100
AcDbEntity
  8
01
100
AcDbCircle
 10
708.2962416155638
 20
-702.8237893954504
 30
0.0
 40
1.0
100
AcDbArc
 50
271.0857195621572
 51
0.0
  0
ARC
  5
2160D
330
18
100
AcDbEntity
  8
01
100
AcDbCircle
 10
685.5962416146347
 20
-702.8237893954504
 30
0.0
 40
1.0
100
AcDbArc
 50
180.0
 51
268.9142804378492
  0
LINE
  5
2169D
330
18
100
AcDbEntity
  8
1PHANTOM
100
AcDbLine
 10
689.5985725508797
 20
-686.5813268612364
 30
0.0
 11
689.5985725508798
 21
-701.2313268611823
 31
0.0
  0
LINE
  5
2169F
330
18
100
AcDbEntity
  8
1PHANTOM
100
AcDbLine
 10
688.0985260149818
 20
-701.2313222074841
 30
0.0
 11
695.0985260149816
 21
-701.2313384950486
 31
0.0
  0
LINE
  5
216A1
330
18
100
AcDbEntity
  8
1PHANTOM
100
AcDbLine
 10
688.0985260149818
 20
-701.2313222074841
 30
0.0
 11
688.0985260149816
 21
-702.3313256976795
 31
0.0
  0
ARC
  5
216A2
330
18
100
AcDbEntity
  8
1PHANTOM
100
AcDbCircle
 10
689.5985260149816
 20
-702.3313256976795
 30
0.0
 40
1.5
100
AcDbArc
 50
180.0
 51
269.9998666844662
  0
LINE
  5
216A3
330
18
100
AcDbEntity
  8
1PHANTOM
100
AcDbLine
 10
695.0985260149816
 20
-701.2313384950486
 30
0.0
 11
695.0985260149816
 21
-702.3313350048592
 31
0.0
  0
LINE
  5
216A4
330
18
100
AcDbEntity
  8
1PHANTOM
100
AcDbLine
 10
689.5985225247892
 20
-703.8313256976754
 30
0.0
 11
693.5985225247892
 21
-703.8313350048551
 31
0.0
  0
ARC
  5
216A5
330
18
100
AcDbEntity
  8
1PHANTOM
100
AcDbCircle
 10
693.5985260149816
 20
-702.3313350048592
 30
0.0
 40
1.5
100
AcDbArc
 50
269.9998666844662
 51
0.0
  0
LINE
  5
216A6
330
18
100
AcDbEntity
  8
1CENTER
100
AcDbLine
 10
691.5985725508797
 20
-685.2313268612364
 30
0.0
 11
691.5985252890301
 21
-704.8313303512614
 31
0.0
  0
LINE
  5
216E6
330
18
100
AcDbEntity
  8
1PHANTOM
100
AcDbLine
 10
689.9485725508797
 20
-686.2313268612364
 30
0.0
 11
693.2485725508797
 21
-686.2313268612364
 31
0.0
  0
LINE
  5
216E9
330
18
100
AcDbEntity
  8
1DIM
100
AcDbLine
 10
693.2485725508797
 20
-686.2313268612364
 30
0.0
 11
693.2485725508798
 21
-701.231333841567
 31
0.0
  0
LINE
  5
216EA
330
18
100
AcDbEntity
  8
1DIM
100
AcDbLine
 10
689.9485725508797
 20
-686.2313268612364
 30
0.0
 11
689.9485725508798
 21
-701.2313268611823
 31
0.0
  0
LINE
  5
216EB
330
18
100
AcDbEntity
  8
1DIM
100
AcDbLine
 10
689.598567482072
 20
-686.5813268612732
 30
0.0
 11
693.598567482072
 21
-686.5813268612732
 31
0.0
  0
LINE
  5
216EC
330
18
100
AcDbEntity
  8
1PHANTOM
100
AcDbLine
 10
689.9485725508797
 20
-686.2313268612364
 30
0.0
 11
689.598572550843
 21
-686.5813268612732
 31
0.0
  0
LINE
  5
216ED
330
18
100
AcDbEntity
  8
1PHANTOM
100
AcDbLine
 10
693.2485725508797
 20
-686.2313268612364
 30
0.0
 11
693.5985725508797
 21
-686.5813268612364
 31
0.0
  0
LINE
  5
216EF
330
18
100
AcDbEntity
  8
1PHANTOM
100
AcDbLine
 10
693.5985725508797
 20
-686.5813268612364
 30
0.0
 11
693.5985725508798
 21
-701.231333841567
 31
0.0
  0
LINE
  5
216F1
330
18
100
AcDbEntity
  8
01
100
AcDbLine
 10
642.596241613684
 20
-700.9279973184781
 30
0.0
 11
662.8971708871932
 21
-700.9279973184781
 31
0.0
  0
TEXT
  5
218EF
330
18
100
AcDbEntity
  8
01
  6
CONTINUOUS
100
AcDbText
 10
716.3337571261875
 20
-646.0002613041472
 30
0.0
 40
3.5
  1
PB
100
AcDbText
  0
TEXT
  5
218F0
330
18
100
AcDbEntity
  8
01
  6
CONTINUOUS
100
AcDbText
 10
729.4691752713527
 20
-646.0002613041472
 30
0.0
 40
3.5
  1
合板9mm以上
100
AcDbText
  0
SOLID
  5
218F1
330
18
100
AcDbEntity
  8
1DIM
100
AcDbTrace
 10
651.4581930942146
 20
-702.4935147911845
 30
0.0
 11
652.7467062504386
 21
-700.9279973184781
 31
0.0
 12
652.0355778505639
 22
-702.8267883838676
 32
0.0
 13
652.0355778505639
 23
-702.8267883838676
 33
0.0
1001
ACAD
1000
DSTYLE
1002
{
1070
    45
1040
0.5
1002
}
  0
LINE
  5
218F2
330
18
100
AcDbEntity
  8
1DIM
100
AcDbLine
 10
651.7468854723893
 20
-702.660151587526
 30
0.0
 11
640.6246786108701
 21
-721.9289830815077
 31
0.0
1001
ACAD
1000
DSTYLE
1002
{
1070
    45
1040
0.5
1002
}
  0
LINE
  5
218F3
330
18
100
AcDbEntity
  8
1DIM
100
AcDbLine
 10
640.6246786108701
 20
-721.9289830815077
 30
0.0
 11
593.3580119442034
 21
-721.9289830815077
 31
0.0
1001
ACAD
1000
DSTYLE
1002
{
1070
    45
1040
0.5
1002
}
  0
TEXT
  5
218F4
330
18
100
AcDbEntity
  8
1DIM
  6
CONTINUOUS
100
AcDbText
 10
593.12467861087
 20
-715.3956497481743
 30
0.0
 40
3.5
  1
材質：亜鉛ダイキャスト
100
AcDbText
1001
ACADANNOTATIVE
1000
AnnotativeData
1002
{
1070
     1
1070
     0
1002
}
  0
TEXT
  5
218F5
330
18
100
AcDbEntity
  8
1DIM
  6
CONTINUOUS
100
AcDbText
 10
601.0580119442034
 20
-721.2289830815076
 30
0.0
 40
3.5
  1
仕上げ：各種メッキ
100
AcDbText
1001
ACADANNOTATIVE
1000
AnnotativeData
1002
{
1070
     1
1070
     0
1002
}
  0
SOLID
  5
218F6
330
18
100
AcDbEntity
  8
1DIM
100
AcDbTrace
 10
695.7679838169913
 20
-675.281233483713
 30
0.0
 11
696.9462416150991
 21
-676.9313303512663
 31
0.0
 12
695.2965068760609
 22
-675.7525655732372
 32
0.0
 13
695.2965068760609
 23
-675.7525655732372
 33
0.0
1001
ACAD
1000
DSTYLE
1002
{
1070
    45
1040
0.5
1002
}
  0
LINE
  5
218F7
330
18
100
AcDbEntity
  8
1DIM
100
AcDbLine
 10
695.5322453465261
 20
-675.516899528475
 30
0.0
 11
689.9527777038888
 21
-669.9357171845662
 31
0.0
1001
ACAD
1000
DSTYLE
1002
{
1070
    45
1040
0.5
1002
}
  0
LINE
  5
218F8
330
18
100
AcDbEntity
  8
1DIM
100
AcDbLine
 10
689.9527777038888
 20
-669.9357171845662
 30
0.0
 11
650.2694443705554
 21
-669.9357171845662
 31
0.0
1001
ACAD
1000
DSTYLE
1002
{
1070
    45
1040
0.5
1002
}
  0
TEXT
  5
218F9
330
18
100
AcDbEntity
  8
1DIM
  6
CONTINUOUS
100
AcDbText
 10
656.4527777038887
 20
-663.4023838512328
 30
0.0
 40
3.5
  1
材質：ABS樹脂
100
AcDbText
1001
ACADANNOTATIVE
1000
AnnotativeData
1002
{
1070
     1
1070
     0
1002
}
  0
TEXT
  5
218FA
330
18
100
AcDbEntity
  8
1DIM
  6
CONTINUOUS
100
AcDbText
 10
650.1527777038888
 20
-669.2357171845662
 30
0.0
 40
3.5
  1
仕上げ：各種仕上げ
100
AcDbText
1001
ACADANNOTATIVE
1000
AnnotativeData
1002
{
1070
     1
1070
     0
1002
}
  0
LINE
  5
218FB
330
18
100
AcDbEntity
  8
1DIM
100
AcDbLine
 10
641.5962416153651
 20
-681.1279968676604
 30
0.0
 11
641.5962416153651
 21
-639.4313303512663
 31
0.0
1001
ACAD
1000
DSTYLE
1002
{
1070
    45
1040
0.5
1002
}
  0
LINE
  5
218FC
330
18
100
AcDbEntity
  8
1DIM
100
AcDbLine
 10
709.596241615365
 20
-653.2031567659845
 30
0.0
 11
709.596241615365
 21
-639.4313303512663
 31
0.0
1001
ACAD
1000
DSTYLE
1002
{
1070
    45
1040
0.5
1002
}
  0
LINE
  5
218FD
330
18
100
AcDbEntity
  8
1DIM
100
AcDbLine
 10
643.5962416153651
 20
-640.4313303512663
 30
0.0
 11
707.596241615365
 21
-640.4313303512663
 31
0.0
1001
ACAD
1000
DSTYLE
1002
{
1070
    45
1040
0.5
1002
}
  0
LINE
  5
21901
330
18
100
AcDbEntity
  8
1DIM
100
AcDbLine
 10
709.596241615365
 20
-727.6595039365483
 30
0.0
 11
709.596241615365
 21
-735.6595039365483
 31
0.0
1001
ACAD
1000
DSTYLE
1002
{
1070
    45
1040
0.5
1002
}
  0
LINE
  5
21902
330
18
100
AcDbEntity
  8
1DIM
100
AcDbLine
 10
691.5985252890301
 20
-704.8313303512614
 30
0.0
 11
691.5985252890301
 21
-735.6595039365483
 31
0.0
1001
ACAD
1000
DSTYLE
1002
{
1070
    45
1040
0.5
1002
}
  0
LINE
  5
21903
330
18
100
AcDbEntity
  8
1DIM
100
AcDbLine
 10
707.596241615365
 20
-734.6595039365483
 30
0.0
 11
693.5985252890301
 21
-734.6595039365483
 31
0.0
1001
ACAD
1000
DSTYLE
1002
{
1070
    45
1040
0.5
1002
}
  0
LINE
  5
21907
330
18
100
AcDbEntity
  8
1DIM
100
AcDbLine
 10
742.027036532668
 20
-690.4313303512664
 30
0.0
 11
752.096241615365
 21
-690.4313303512664
 31
0.0
1001
ACAD
1000
DSTYLE
1002
{
1070
    45
1040
0.5
1070
   271
1070
     0
1002
}
  0
LINE
  5
21908
330
18
100
AcDbEntity
  8
1DIM
100
AcDbLine
 10
696.9462416625965
 20
-676.9313299340338
 30
0.0
 11
752.096241615365
 21
-676.9313299340338
 31
0.0
1001
ACAD
1000
DSTYLE
1002
{
1070
    45
1040
0.5
1070
   271
1070
     0
1002
}
  0
LINE
  5
21909
330
18
100
AcDbEntity
  8
1DIM
100
AcDbLine
 10
751.096241615365
 20
-688.4313303512664
 30
0.0
 11
751.096241615365
 21
-678.9313299340338
 31
0.0
1001
ACAD
1000
DSTYLE
1002
{
1070
    45
1040
0.5
1070
   271
1070
     0
1002
}
  0
LINE
  5
2190D
330
18
100
AcDbEntity
  8
1DIM
100
AcDbLine
 10
696.946241615099
 20
-703.9313303512665
 30
0.0
 11
762.096241615365
 21
-703.9313303512665
 31
0.0
1001
ACAD
1000
DSTYLE
1002
{
1070
    45
1040
0.5
1002
}
  0
LINE
  5
2190E
330
18
100
AcDbEntity
  8
1DIM
100
AcDbLine
 10
696.9462416150991
 20
-676.9313303512663
 30
0.0
 11
762.096241615365
 21
-676.9313303512663
 31
0.0
1001
ACAD
1000
DSTYLE
1002
{
1070
    45
1040
0.5
1002
}
  0
LINE
  5
2190F
330
18
100
AcDbEntity
  8
1DIM
100
AcDbLine
 10
761.096241615365
 20
-701.9313303512665
 30
0.0
 11
761.096241615365
 21
-678.9313303512663
 31
0.0
1001
ACAD
1000
DSTYLE
1002
{
1070
    45
1040
0.5
1002
}
  0
LINE
  5
21913
330
18
100
AcDbEntity
  8
1DIM
100
AcDbLine
 10
533.4462420072656
 20
-569.5141884624029
 30
0.0
 11
533.4462420072656
 21
-561.5141884624029
 31
0.0
1001
ACAD
1000
DSTYLE
1002
{
1070
    45
1040
0.5
1002
}
  0
LINE
  5
21914
330
18
100
AcDbEntity
  8
1DIM
100
AcDbLine
 10
487.4462420072656
 20
-569.5141884624029
 30
0.0
 11
487.4462420072656
 21
-561.5141884624029
 31
0.0
1001
ACAD
1000
DSTYLE
1002
{
1070
    45
1040
0.5
1002
}
  0
LINE
  5
21915
330
18
100
AcDbEntity
  8
1DIM
100
AcDbLine
 10
531.4462420072656
 20
-562.5141884624029
 30
0.0
 11
489.4462420072656
 21
-562.5141884624029
 31
0.0
1001
ACAD
1000
DSTYLE
1002
{
1070
    45
1040
0.5
1002
}
  0
SOLID
  5
21919
330
18
100
AcDbEntity
  8
1DIM
100
AcDbTrace
 10
713.2508479197653
 20
-659.5454292138315
 30
0.0
 11
712.5099131930724
 21
-661.4327889680627
 31
0.0
 12
712.5986807169502
 22
-659.407145505403
 32
0.0
 13
712.5986807169502
 23
-659.407145505403
 33
0.0
1001
ACAD
1000
DSTYLE
1002
{
1070
    45
1040
0.5
1002
}
  0
LINE
  5
2191A
330
18
100
AcDbEntity
  8
1DIM
100
AcDbLine
 10
712.9247643183577
 20
-659.4762873596172
 30
0.0
 11
715.6337571261874
 21
-646.7002613041473
 31
0.0
1001
ACAD
1000
DSTYLE
1002
{
1070
    45
1040
0.5
1002
}
  0
SOLID
  5
2191B
330
18
100
AcDbEntity
  8
1DIM
100
AcDbTrace
 10
726.3862660649305
 20
-659.5454292138315
 30
0.0
 11
725.6453313382376
 21
-661.4327889680627
 31
0.0
 12
725.7340988621154
 22
-659.407145505403
 32
0.0
 13
725.7340988621154
 23
-659.407145505403
 33
0.0
1001
ACAD
1000
DSTYLE
1002
{
1070
    45
1040
0.5
1002
}
  0
LINE
  5
2191C
330
18
100
AcDbEntity
  8
1DIM
100
AcDbLine
 10
726.0601824635229
 20
-659.4762873596172
 30
0.0
 11
728.7691752713527
 21
-646.7002613041473
 31
0.0
1001
ACAD
1000
DSTYLE
1002
{
1070
    45
1040
0.5
1002
}
  0
LINE
  5
2191D
330
18
100
AcDbEntity
  8
0
100
AcDbLine
 10
518.5962881512622
 20
-538.5141884625652
 30
0.0
 11
517.0962881512622
 21
-543.8141849724269
 31
0.0
  0
LINE
  5
2191E
330
18
100
AcDbEntity
  8
0
100
AcDbLine
 10
517.0962881512622
 20
-543.8141849724269
 30
0.0
 11
517.0962881512625
 21
-573.5141849723188
 31
0.0
  0
LINE
  5
2191F
330
18
100
AcDbEntity
  8
0
100
AcDbLine
 10
518.5962881512622
 20
-538.5141884625652
 30
0.0
 11
520.0962881512623
 21
-543.8141919528106
 31
0.0
  0
LINE
  5
21920
330
18
100
AcDbEntity
  8
0
100
AcDbLine
 10
515.0962416153644
 20
-573.5141803186207
 30
0.0
 11
522.0962416153643
 21
-573.5141966061851
 31
0.0
  0
LINE
  5
21921
330
18
100
AcDbEntity
  8
0
100
AcDbLine
 10
520.0962881512623
 20
-543.8141919528106
 30
0.0
 11
520.0962881512625
 21
-573.5141919527035
 31
0.0
  0
LINE
  5
21922
330
18
100
AcDbEntity
  8
0
100
AcDbLine
 10
515.0962416153644
 20
-573.5141803186207
 30
0.0
 11
515.0962416153643
 21
-574.614183808816
 31
0.0
  0
ARC
  5
21923
330
18
100
AcDbEntity
  8
0
100
AcDbCircle
 10
516.5962416153643
 20
-574.614183808816
 30
0.0
 40
1.5
100
AcDbArc
 50
180.0
 51
269.9998666844662
  0
LINE
  5
21924
330
18
100
AcDbEntity
  8
0
100
AcDbLine
 10
522.0962416153643
 20
-573.5141966061851
 30
0.0
 11
522.0962416153643
 21
-574.6141931159957
 31
0.0
  0
LINE
  5
21925
330
18
100
AcDbEntity
  8
0
100
AcDbLine
 10
516.5962381251719
 20
-576.114183808812
 30
0.0
 11
520.5962381251719
 21
-576.1141931159916
 31
0.0
  0
ARC
  5
21926
330
18
100
AcDbEntity
  8
0
100
AcDbCircle
 10
520.5962416153643
 20
-574.6141931159957
 30
0.0
 40
1.5
100
AcDbArc
 50
269.9998666844662
 51
0.0
  0
LINE
  5
21927
330
18
100
AcDbEntity
  8
1CENTER
100
AcDbLine
 10
518.5962416153643
 20
-537.0833935450999
 30
0.0
 11
518.5962416153643
 21
-577.1844648717117
 31
0.0
  0
LINE
  5
21928
330
18
100
AcDbEntity
  8
0
100
AcDbLine
 10
517.5019178013692
 20
-540.6141859162431
 30
0.0
 11
519.4642528902447
 21
-539.8141904821921
 31
0.0
  0
LINE
  5
21929
330
18
100
AcDbEntity
  8
0
100
AcDbLine
 10
519.4642528902447
 20
-539.8141904821921
 30
0.0
 11
518.8759763152023
 21
-539.50242062594
 31
0.0
  0
LINE
  5
2192A
330
18
100
AcDbEntity
  8
0
100
AcDbLine
 10
516.5962881512622
 20
-563.014183809033
 30
0.0
 11
520.5962881512622
 21
-562.2141931162148
 31
0.0
  0
LINE
  5
2192B
330
18
100
AcDbEntity
  8
0
100
AcDbLine
 10
516.5962881512622
 20
-551.8141838090287
 30
0.0
 11
520.5962881512622
 21
-551.0141931162061
 31
0.0
  0
LINE
  5
2192C
330
18
100
AcDbEntity
  8
0
100
AcDbLine
 10
516.5962881512622
 20
-548.6141838090286
 30
0.0
 11
520.5962881512622
 21
-547.8141931162061
 31
0.0
  0
LINE
  5
2192D
330
18
100
AcDbEntity
  8
0
100
AcDbLine
 10
520.5962881512622
 20
-547.8141931162061
 30
0.0
 11
520.0962881512622
 21
-547.7141919528088
 31
0.0
  0
LINE
  5
2192E
330
18
100
AcDbEntity
  8
0
100
AcDbLine
 10
517.0962881512622
 20
-547.1141849724258
 30
0.0
 11
516.5962881512622
 21
-547.0141838090286
 31
0.0
  0
LINE
  5
2192F
330
18
100
AcDbEntity
  8
0
100
AcDbLine
 10
520.5962881512622
 20
-551.0141931162061
 30
0.0
 11
520.0962881512622
 21
-550.9141919528089
 31
0.0
  0
LINE
  5
21930
330
18
100
AcDbEntity
  8
0
100
AcDbLine
 10
520.5962881512622
 20
-549.414193116206
 30
0.0
 11
520.0962881512622
 21
-549.3141919528089
 31
0.0
  0
LINE
  5
21931
330
18
100
AcDbEntity
  8
0
100
AcDbLine
 10
517.0962881512622
 20
-548.7141849724258
 30
0.0
 11
516.5962881512622
 21
-548.6141838090286
 31
0.0
  0
LINE
  5
21932
330
18
100
AcDbEntity
  8
0
100
AcDbLine
 10
517.0962881512622
 20
-550.3141849724257
 30
0.0
 11
516.5962881512622
 21
-550.2141838090286
 31
0.0
  0
LINE
  5
21933
330
18
100
AcDbEntity
  8
0
100
AcDbLine
 10
516.5962881512622
 20
-550.2141838090286
 30
0.0
 11
520.5962881512622
 21
-549.414193116206
 31
0.0
  0
LINE
  5
21934
330
18
100
AcDbEntity
  8
0
100
AcDbLine
 10
519.9170669946515
 20
-541.4141915357977
 30
0.0
 11
519.3653175308482
 21
-541.2314273931697
 31
0.0
  0
LINE
  5
21935
330
18
100
AcDbEntity
  8
0
100
AcDbLine
 10
520.5962881512622
 20
-544.614193116206
 30
0.0
 11
520.0962881512622
 21
-544.5141919528089
 31
0.0
  0
LINE
  5
21936
330
18
100
AcDbEntity
  8
0
100
AcDbLine
 10
520.5962881512622
 20
-546.214193116206
 30
0.0
 11
520.0962881512622
 21
-546.114191952809
 31
0.0
  0
LINE
  5
21937
330
18
100
AcDbEntity
  8
0
100
AcDbLine
 10
520.3698810990583
 20
-543.0141925894034
 30
0.0
 11
519.8332873637871
 21
-542.8849218917735
 31
0.0
  0
LINE
  5
21938
330
18
100
AcDbEntity
  8
0
100
AcDbLine
 10
517.5172027484709
 20
-542.3269543749889
 30
0.0
 11
517.049104293321
 21
-542.2141848626388
 31
0.0
  0
LINE
  5
21939
330
18
100
AcDbEntity
  8
0
100
AcDbLine
 10
517.0962881512622
 20
-545.5141849724257
 30
0.0
 11
516.5962881512622
 21
-545.4141838090286
 31
0.0
  0
LINE
  5
2193A
330
18
100
AcDbEntity
  8
0
100
AcDbLine
 10
517.0962881512622
 20
-543.9141849724258
 30
0.0
 11
516.5962881512622
 21
-543.8141838090287
 31
0.0
  0
LINE
  5
2193B
330
18
100
AcDbEntity
  8
0
100
AcDbLine
 10
517.9590896420003
 20
-540.7656217126835
 30
0.0
 11
517.5019178013692
 21
-540.6141859162431
 31
0.0
  0
LINE
  5
2193C
330
18
100
AcDbEntity
  8
0
100
AcDbLine
 10
517.049104293321
 20
-542.2141848626388
 30
0.0
 11
519.9170669946515
 21
-541.4141915357977
 31
0.0
  0
LINE
  5
2193D
330
18
100
AcDbEntity
  8
0
100
AcDbLine
 10
516.5962881512622
 20
-545.4141838090286
 30
0.0
 11
520.5962881512622
 21
-544.614193116206
 31
0.0
  0
LINE
  5
2193E
330
18
100
AcDbEntity
  8
0
100
AcDbLine
 10
516.5962881512622
 20
-543.8141838090287
 30
0.0
 11
520.3698810990583
 21
-543.0141925894034
 31
0.0
  0
LINE
  5
2193F
330
18
100
AcDbEntity
  8
0
100
AcDbLine
 10
516.5962881512622
 20
-547.0141838090286
 30
0.0
 11
520.5962881512622
 21
-546.214193116206
 31
0.0
  0
LINE
  5
21940
330
18
100
AcDbEntity
  8
0
100
AcDbLine
 10
516.5962881512622
 20
-559.814183809033
 30
0.0
 11
520.5962881512622
 21
-559.0141931162148
 31
0.0
  0
LINE
  5
21941
330
18
100
AcDbEntity
  8
0
100
AcDbLine
 10
520.5962881512622
 20
-559.0141931162148
 30
0.0
 11
520.0962881512622
 21
-558.9141919528171
 31
0.0
  0
LINE
  5
21942
330
18
100
AcDbEntity
  8
0
100
AcDbLine
 10
517.0962881512622
 20
-558.3141849724263
 30
0.0
 11
516.5962881512622
 21
-558.2141838090287
 31
0.0
  0
LINE
  5
21943
330
18
100
AcDbEntity
  8
0
100
AcDbLine
 10
520.5962881512622
 20
-560.6141931162149
 30
0.0
 11
520.0962881512622
 21
-560.5141919528172
 31
0.0
  0
LINE
  5
21944
330
18
100
AcDbEntity
  8
0
100
AcDbLine
 10
520.5962881512622
 20
-562.2141931162148
 30
0.0
 11
520.0962881512622
 21
-562.1141919528171
 31
0.0
  0
LINE
  5
21945
330
18
100
AcDbEntity
  8
0
100
AcDbLine
 10
517.0962881512622
 20
-559.9141849724307
 30
0.0
 11
516.5962881512622
 21
-559.814183809033
 31
0.0
  0
LINE
  5
21946
330
18
100
AcDbEntity
  8
0
100
AcDbLine
 10
517.0962881512622
 20
-561.5141849724308
 30
0.0
 11
516.5962881512622
 21
-561.4141838090331
 31
0.0
  0
LINE
  5
21947
330
18
100
AcDbEntity
  8
0
100
AcDbLine
 10
516.5962881512622
 20
-561.4141838090331
 30
0.0
 11
520.5962881512622
 21
-560.6141931162149
 31
0.0
  0
LINE
  5
21948
330
18
100
AcDbEntity
  8
0
100
AcDbLine
 10
520.5962881512622
 20
-554.2141931162104
 30
0.0
 11
520.0962881512622
 21
-554.1141919528127
 31
0.0
  0
LINE
  5
21949
330
18
100
AcDbEntity
  8
0
100
AcDbLine
 10
520.5962881512622
 20
-552.614193116206
 30
0.0
 11
520.0962881512622
 21
-552.5141919528089
 31
0.0
  0
LINE
  5
2194A
330
18
100
AcDbEntity
  8
0
100
AcDbLine
 10
520.5962881512622
 20
-557.4141931162104
 30
0.0
 11
520.0962881512622
 21
-557.3141919528127
 31
0.0
  0
LINE
  5
2194B
330
18
100
AcDbEntity
  8
0
100
AcDbLine
 10
520.5962881512622
 20
-555.8141931162105
 30
0.0
 11
520.0962881512622
 21
-555.7141919528128
 31
0.0
  0
LINE
  5
2194C
330
18
100
AcDbEntity
  8
0
100
AcDbLine
 10
517.0962881512622
 20
-551.9141849724258
 30
0.0
 11
516.5962881512622
 21
-551.8141838090287
 31
0.0
  0
LINE
  5
2194D
330
18
100
AcDbEntity
  8
0
100
AcDbLine
 10
517.0962881512622
 20
-553.5141849724264
 30
0.0
 11
516.5962881512622
 21
-553.4141838090286
 31
0.0
  0
LINE
  5
2194E
330
18
100
AcDbEntity
  8
0
100
AcDbLine
 10
517.0962881512622
 20
-556.7141849724264
 30
0.0
 11
516.5962881512622
 21
-556.6141838090288
 31
0.0
  0
LINE
  5
2194F
330
18
100
AcDbEntity
  8
0
100
AcDbLine
 10
517.0962881512622
 20
-555.1141849724263
 30
0.0
 11
516.5962881512622
 21
-555.0141838090286
 31
0.0
  0
LINE
  5
21950
330
18
100
AcDbEntity
  8
0
100
AcDbLine
 10
516.5962881512622
 20
-555.0141838090286
 30
0.0
 11
520.5962881512622
 21
-554.2141931162104
 31
0.0
  0
LINE
  5
21951
330
18
100
AcDbEntity
  8
0
100
AcDbLine
 10
516.5962881512622
 20
-553.4141838090286
 30
0.0
 11
520.5962881512622
 21
-552.614193116206
 31
0.0
  0
LINE
  5
21952
330
18
100
AcDbEntity
  8
0
100
AcDbLine
 10
516.5962881512622
 20
-556.6141838090288
 30
0.0
 11
520.5962881512622
 21
-555.8141931162105
 31
0.0
  0
LINE
  5
21953
330
18
100
AcDbEntity
  8
0
100
AcDbLine
 10
516.5962881512622
 20
-558.2141838090287
 30
0.0
 11
520.5962881512622
 21
-557.4141931162104
 31
0.0
  0
LINE
  5
21954
330
18
100
AcDbEntity
  8
0
100
AcDbLine
 10
517.0962881512622
 20
-567.9141849724349
 30
0.0
 11
516.5962881512622
 21
-567.8141838090372
 31
0.0
  0
LINE
  5
21955
330
18
100
AcDbEntity
  8
0
100
AcDbLine
 10
516.5962881512622
 20
-567.8141838090372
 30
0.0
 11
520.5962881512622
 21
-567.014193116219
 31
0.0
  0
LINE
  5
21956
330
18
100
AcDbEntity
  8
0
100
AcDbLine
 10
520.5962881512622
 20
-567.014193116219
 30
0.0
 11
520.0962881512622
 21
-566.9141919528213
 31
0.0
  0
LINE
  5
21957
330
18
100
AcDbEntity
  8
0
100
AcDbLine
 10
517.0962881512622
 20
-566.314184972435
 30
0.0
 11
516.5962881512622
 21
-566.2141838090373
 31
0.0
  0
LINE
  5
21958
330
18
100
AcDbEntity
  8
0
100
AcDbLine
 10
517.0962881512622
 20
-564.7141849724351
 30
0.0
 11
516.5962881512622
 21
-564.6141838090374
 31
0.0
  0
LINE
  5
21959
330
18
100
AcDbEntity
  8
0
100
AcDbLine
 10
516.5962881512622
 20
-564.6141838090374
 30
0.0
 11
520.5962881512622
 21
-563.8141931162191
 31
0.0
  0
LINE
  5
2195A
330
18
100
AcDbEntity
  8
0
100
AcDbLine
 10
520.5962881512622
 20
-565.414193116219
 30
0.0
 11
520.0962881512622
 21
-565.3141919528214
 31
0.0
  0
LINE
  5
2195B
330
18
100
AcDbEntity
  8
0
100
AcDbLine
 10
520.5962881512622
 20
-563.8141931162191
 30
0.0
 11
520.0962881512622
 21
-563.7141919528215
 31
0.0
  0
LINE
  5
2195C
330
18
100
AcDbEntity
  8
0
100
AcDbLine
 10
516.5962881512622
 20
-566.2141838090373
 30
0.0
 11
520.5962881512622
 21
-565.414193116219
 31
0.0
  0
LINE
  5
2195D
330
18
100
AcDbEntity
  8
0
100
AcDbLine
 10
517.0962881512622
 20
-563.1141849724307
 30
0.0
 11
516.5962881512622
 21
-563.014183809033
 31
0.0
  0
LINE
  5
2195E
330
18
100
AcDbEntity
  8
0
100
AcDbLine
 10
517.0962881512622
 20
-569.5141849724348
 30
0.0
 11
516.5962881512622
 21
-569.4141838090371
 31
0.0
  0
LINE
  5
2195F
330
18
100
AcDbEntity
  8
0
100
AcDbLine
 10
516.5962881512622
 20
-569.4141838090371
 30
0.0
 11
520.5962881512622
 21
-568.6141931162189
 31
0.0
  0
LINE
  5
21960
330
18
100
AcDbEntity
  8
0
100
AcDbLine
 10
520.5962881512622
 20
-568.6141931162189
 30
0.0
 11
520.0962881512622
 21
-568.5141919528212
 31
0.0
  0
LINE
  5
21961
330
18
100
AcDbEntity
  8
0
100
AcDbLine
 10
517.0962881512622
 20
-571.1141849724347
 30
0.0
 11
516.5962881512622
 21
-571.014183809037
 31
0.0
  0
LINE
  5
21962
330
18
100
AcDbEntity
  8
0
100
AcDbLine
 10
516.5962881512622
 20
-571.014183809037
 30
0.0
 11
520.5962881512622
 21
-570.2141931162188
 31
0.0
  0
LINE
  5
21963
330
18
100
AcDbEntity
  8
0
100
AcDbLine
 10
520.5962881512622
 20
-570.2141931162188
 30
0.0
 11
520.0962881512622
 21
-570.1141919528211
 31
0.0
  0
LINE
  5
21964
330
18
100
AcDbEntity
  8
0
100
AcDbLine
 10
517.0962881512622
 20
-572.7141849724346
 30
0.0
 11
516.5962881512622
 21
-572.614183809037
 31
0.0
  0
LINE
  5
21965
330
18
100
AcDbEntity
  8
0
100
AcDbLine
 10
516.5962881512622
 20
-572.614183809037
 30
0.0
 11
520.5962881512622
 21
-571.8141931162187
 31
0.0
  0
LINE
  5
21966
330
18
100
AcDbEntity
  8
0
100
AcDbLine
 10
520.5962881512622
 20
-571.8141931162187
 30
0.0
 11
520.0962881512622
 21
-571.714191952821
 31
0.0
  0
LINE
  5
21967
330
18
100
AcDbEntity
  8
0
100
AcDbLine
 10
740.5962416152026
 20
-690.4313768871643
 30
0.0
 11
735.296245105341
 21
-688.9313768871643
 31
0.0
  0
LINE
  5
21968
330
18
100
AcDbEntity
  8
0
100
AcDbLine
 10
735.296245105341
 20
-688.9313768871643
 30
0.0
 11
705.596245105449
 21
-688.9313768871646
 31
0.0
  0
LINE
  5
21969
330
18
100
AcDbEntity
  8
0
100
AcDbLine
 10
740.5962416152026
 20
-690.4313768871643
 30
0.0
 11
735.2962381249573
 21
-691.9313768871644
 31
0.0
  0
LINE
  5
2196A
330
18
100
AcDbEntity
  8
0
100
AcDbLine
 10
705.5962497591472
 20
-686.9313303512665
 30
0.0
 11
705.5962334715828
 21
-693.9313303512664
 31
0.0
  0
LINE
  5
2196B
330
18
100
AcDbEntity
  8
0
100
AcDbLine
 10
735.2962381249573
 20
-691.9313768871644
 30
0.0
 11
705.5962381250644
 21
-691.9313768871646
 31
0.0
  0
LINE
  5
2196C
330
18
100
AcDbEntity
  8
0
100
AcDbLine
 10
705.5962497591472
 20
-686.9313303512665
 30
0.0
 11
704.4962462689518
 21
-686.9313303512664
 31
0.0
  0
ARC
  5
2196D
330
18
100
AcDbEntity
  8
0
100
AcDbCircle
 10
704.4962462689518
 20
-688.4313303512664
 30
0.0
 40
1.5
100
AcDbArc
 50
90.0
 51
179.9998666844663
  0
LINE
  5
2196E
330
18
100
AcDbEntity
  8
0
100
AcDbLine
 10
705.5962334715828
 20
-693.9313303512664
 30
0.0
 11
704.4962369617722
 21
-693.9313303512664
 31
0.0
  0
LINE
  5
2196F
330
18
100
AcDbEntity
  8
0
100
AcDbLine
 10
702.9962462689559
 20
-688.431326861074
 30
0.0
 11
702.9962369617763
 21
-692.431326861074
 31
0.0
  0
ARC
  5
21970
330
18
100
AcDbEntity
  8
0
100
AcDbCircle
 10
704.4962369617722
 20
-692.4313303512664
 30
0.0
 40
1.5
100
AcDbArc
 50
179.9998666844663
 51
270.0
  0
LINE
  5
21971
330
18
100
AcDbEntity
  8
1CENTER
100
AcDbLine
 10
742.027036532668
 20
-690.4313303512664
 30
0.0
 11
701.9259652060562
 21
-690.4313303512664
 31
0.0
  0
LINE
  5
21972
330
18
100
AcDbEntity
  8
0
100
AcDbLine
 10
738.4962441615248
 20
-689.3370065372713
 30
0.0
 11
739.2962395955758
 21
-691.2993416261468
 31
0.0
  0
LINE
  5
21973
330
18
100
AcDbEntity
  8
0
100
AcDbLine
 10
739.2962395955758
 20
-691.2993416261468
 30
0.0
 11
739.6080094518279
 21
-690.7110650511044
 31
0.0
  0
LINE
  5
21974
330
18
100
AcDbEntity
  8
0
100
AcDbLine
 10
716.0962462687348
 20
-688.4313768871643
 30
0.0
 11
716.8962369615531
 21
-692.4313768871643
 31
0.0
  0
LINE
  5
21975
330
18
100
AcDbEntity
  8
0
100
AcDbLine
 10
727.2962462687392
 20
-688.4313768871643
 30
0.0
 11
728.0962369615618
 21
-692.4313768871643
 31
0.0
  0
LINE
  5
21976
330
18
100
AcDbEntity
  8
0
100
AcDbLine
 10
730.4962462687392
 20
-688.4313768871643
 30
0.0
 11
731.2962369615618
 21
-692.4313768871643
 31
0.0
  0
LINE
  5
21977
330
18
100
AcDbEntity
  8
0
100
AcDbLine
 10
731.2962369615618
 20
-692.4313768871643
 30
0.0
 11
731.396238124959
 21
-691.9313768871643
 31
0.0
  0
LINE
  5
21978
330
18
100
AcDbEntity
  8
0
100
AcDbLine
 10
731.996245105342
 20
-688.9313768871643
 30
0.0
 11
732.0962462687393
 21
-688.4313768871643
 31
0.0
  0
LINE
  5
21979
330
18
100
AcDbEntity
  8
0
100
AcDbLine
 10
728.0962369615618
 20
-692.4313768871643
 30
0.0
 11
728.196238124959
 21
-691.9313768871643
 31
0.0
  0
LINE
  5
2197A
330
18
100
AcDbEntity
  8
0
100
AcDbLine
 10
729.6962369615619
 20
-692.4313768871643
 30
0.0
 11
729.796238124959
 21
-691.9313768871643
 31
0.0
  0
LINE
  5
2197B
330
18
100
AcDbEntity
  8
0
100
AcDbLine
 10
730.3962451053421
 20
-688.9313768871643
 30
0.0
 11
730.4962462687392
 21
-688.4313768871643
 31
0.0
  0
LINE
  5
2197C
330
18
100
AcDbEntity
  8
0
100
AcDbLine
 10
728.7962451053422
 20
-688.9313768871643
 30
0.0
 11
728.8962462687393
 21
-688.4313768871643
 31
0.0
  0
LINE
  5
2197D
330
18
100
AcDbEntity
  8
0
100
AcDbLine
 10
728.8962462687393
 20
-688.4313768871643
 30
0.0
 11
729.6962369615619
 21
-692.4313768871643
 31
0.0
  0
LINE
  5
2197E
330
18
100
AcDbEntity
  8
0
100
AcDbLine
 10
737.6962385419702
 20
-691.7521557305536
 30
0.0
 11
737.8790026845982
 21
-691.2004062667503
 31
0.0
  0
LINE
  5
2197F
330
18
100
AcDbEntity
  8
0
100
AcDbLine
 10
734.4962369615619
 20
-692.4313768871643
 30
0.0
 11
734.596238124959
 21
-691.9313768871643
 31
0.0
  0
LINE
  5
21980
330
18
100
AcDbEntity
  8
0
100
AcDbLine
 10
732.8962369615618
 20
-692.4313768871643
 30
0.0
 11
732.9962381249588
 21
-691.9313768871643
 31
0.0
  0
LINE
  5
21981
330
18
100
AcDbEntity
  8
0
100
AcDbLine
 10
736.0962374883645
 20
-692.2049698349604
 30
0.0
 11
736.2255081859944
 21
-691.6683760996892
 31
0.0
  0
LINE
  5
21982
330
18
100
AcDbEntity
  8
0
100
AcDbLine
 10
736.783475702779
 20
-689.352291484373
 30
0.0
 11
736.896245215129
 21
-688.8841930292231
 31
0.0
  0
LINE
  5
21983
330
18
100
AcDbEntity
  8
0
100
AcDbLine
 10
733.5962451053422
 20
-688.9313768871643
 30
0.0
 11
733.6962462687393
 21
-688.4313768871643
 31
0.0
  0
LINE
  5
21984
330
18
100
AcDbEntity
  8
0
100
AcDbLine
 10
735.1962451053421
 20
-688.9313768871643
 30
0.0
 11
735.2962462687392
 21
-688.4313768871643
 31
0.0
  0
LINE
  5
21985
330
18
100
AcDbEntity
  8
0
100
AcDbLine
 10
738.3448083650844
 20
-689.7941783779024
 30
0.0
 11
738.4962441615248
 21
-689.3370065372713
 31
0.0
  0
LINE
  5
21986
330
18
100
AcDbEntity
  8
0
100
AcDbLine
 10
736.896245215129
 20
-688.8841930292231
 30
0.0
 11
737.6962385419702
 21
-691.7521557305536
 31
0.0
  0
LINE
  5
21987
330
18
100
AcDbEntity
  8
0
100
AcDbLine
 10
733.6962462687393
 20
-688.4313768871643
 30
0.0
 11
734.4962369615619
 21
-692.4313768871643
 31
0.0
  0
LINE
  5
21988
330
18
100
AcDbEntity
  8
0
100
AcDbLine
 10
735.2962462687392
 20
-688.4313768871643
 30
0.0
 11
736.0962374883645
 21
-692.2049698349604
 31
0.0
  0
LINE
  5
21989
330
18
100
AcDbEntity
  8
0
100
AcDbLine
 10
732.0962462687393
 20
-688.4313768871643
 30
0.0
 11
732.8962369615618
 21
-692.4313768871643
 31
0.0
  0
LINE
  5
2198A
330
18
100
AcDbEntity
  8
0
100
AcDbLine
 10
719.2962462687349
 20
-688.4313768871643
 30
0.0
 11
720.0962369615531
 21
-692.4313768871643
 31
0.0
  0
LINE
  5
2198B
330
18
100
AcDbEntity
  8
0
100
AcDbLine
 10
720.0962369615531
 20
-692.4313768871643
 30
0.0
 11
720.1962381249508
 21
-691.9313768871643
 31
0.0
  0
LINE
  5
2198C
330
18
100
AcDbEntity
  8
0
100
AcDbLine
 10
720.7962451053415
 20
-688.9313768871643
 30
0.0
 11
720.8962462687392
 21
-688.4313768871643
 31
0.0
  0
LINE
  5
2198D
330
18
100
AcDbEntity
  8
0
100
AcDbLine
 10
718.496236961553
 20
-692.4313768871643
 30
0.0
 11
718.5962381249507
 21
-691.9313768871643
 31
0.0
  0
LINE
  5
2198E
330
18
100
AcDbEntity
  8
0
100
AcDbLine
 10
716.8962369615531
 20
-692.4313768871643
 30
0.0
 11
716.9962381249508
 21
-691.9313768871643
 31
0.0
  0
LINE
  5
2198F
330
18
100
AcDbEntity
  8
0
100
AcDbLine
 10
719.1962451053372
 20
-688.9313768871643
 30
0.0
 11
719.2962462687349
 21
-688.4313768871643
 31
0.0
  0
LINE
  5
21990
330
18
100
AcDbEntity
  8
0
100
AcDbLine
 10
717.5962451053371
 20
-688.9313768871643
 30
0.0
 11
717.6962462687347
 21
-688.4313768871643
 31
0.0
  0
LINE
  5
21991
330
18
100
AcDbEntity
  8
0
100
AcDbLine
 10
717.6962462687347
 20
-688.4313768871643
 30
0.0
 11
718.496236961553
 21
-692.4313768871643
 31
0.0
  0
LINE
  5
21992
330
18
100
AcDbEntity
  8
0
100
AcDbLine
 10
724.8962369615575
 20
-692.4313768871643
 30
0.0
 11
724.9962381249552
 21
-691.9313768871643
 31
0.0
  0
LINE
  5
21993
330
18
100
AcDbEntity
  8
0
100
AcDbLine
 10
726.4962369615619
 20
-692.4313768871643
 30
0.0
 11
726.596238124959
 21
-691.9313768871643
 31
0.0
  0
LINE
  5
21994
330
18
100
AcDbEntity
  8
0
100
AcDbLine
 10
721.6962369615575
 20
-692.4313768871643
 30
0.0
 11
721.7962381249552
 21
-691.9313768871643
 31
0.0
  0
LINE
  5
21995
330
18
100
AcDbEntity
  8
0
100
AcDbLine
 10
723.2962369615574
 20
-692.4313768871643
 30
0.0
 11
723.3962381249551
 21
-691.9313768871643
 31
0.0
  0
LINE
  5
21996
330
18
100
AcDbEntity
  8
0
100
AcDbLine
 10
727.1962451053421
 20
-688.9313768871643
 30
0.0
 11
727.2962462687392
 21
-688.4313768871643
 31
0.0
  0
LINE
  5
21997
330
18
100
AcDbEntity
  8
0
100
AcDbLine
 10
725.5962451053415
 20
-688.9313768871643
 30
0.0
 11
725.6962462687393
 21
-688.4313768871643
 31
0.0
  0
LINE
  5
21998
330
18
100
AcDbEntity
  8
0
100
AcDbLine
 10
722.3962451053414
 20
-688.9313768871643
 30
0.0
 11
722.4962462687391
 21
-688.4313768871643
 31
0.0
  0
LINE
  5
21999
330
18
100
AcDbEntity
  8
0
100
AcDbLine
 10
723.9962451053416
 20
-688.9313768871643
 30
0.0
 11
724.0962462687393
 21
-688.4313768871643
 31
0.0
  0
LINE
  5
2199A
330
18
100
AcDbEntity
  8
0
100
AcDbLine
 10
724.0962462687393
 20
-688.4313768871643
 30
0.0
 11
724.8962369615575
 21
-692.4313768871643
 31
0.0
  0
LINE
  5
2199B
330
18
100
AcDbEntity
  8
0
100
AcDbLine
 10
725.6962462687393
 20
-688.4313768871643
 30
0.0
 11
726.4962369615619
 21
-692.4313768871643
 31
0.0
  0
LINE
  5
2199C
330
18
100
AcDbEntity
  8
0
100
AcDbLine
 10
722.4962462687391
 20
-688.4313768871643
 30
0.0
 11
723.2962369615574
 21
-692.4313768871643
 31
0.0
  0
LINE
  5
2199D
330
18
100
AcDbEntity
  8
0
100
AcDbLine
 10
720.8962462687392
 20
-688.4313768871643
 30
0.0
 11
721.6962369615575
 21
-692.4313768871643
 31
0.0
  0
LINE
  5
2199E
330
18
100
AcDbEntity
  8
0
100
AcDbLine
 10
711.196245105333
 20
-688.9313768871643
 30
0.0
 11
711.2962462687307
 21
-688.4313768871643
 31
0.0
  0
LINE
  5
2199F
330
18
100
AcDbEntity
  8
0
100
AcDbLine
 10
711.2962462687307
 20
-688.4313768871643
 30
0.0
 11
712.0962369615489
 21
-692.4313768871643
 31
0.0
  0
LINE
  5
219A0
330
18
100
AcDbEntity
  8
0
100
AcDbLine
 10
712.0962369615489
 20
-692.4313768871643
 30
0.0
 11
712.1962381249466
 21
-691.9313768871643
 31
0.0
  0
LINE
  5
219A1
330
18
100
AcDbEntity
  8
0
100
AcDbLine
 10
712.7962451053329
 20
-688.9313768871643
 30
0.0
 11
712.8962462687306
 21
-688.4313768871643
 31
0.0
  0
LINE
  5
219A2
330
18
100
AcDbEntity
  8
0
100
AcDbLine
 10
714.3962451053328
 20
-688.9313768871643
 30
0.0
 11
714.4962462687305
 21
-688.4313768871643
 31
0.0
  0
LINE
  5
219A3
330
18
100
AcDbEntity
  8
0
100
AcDbLine
 10
714.4962462687305
 20
-688.4313768871643
 30
0.0
 11
715.2962369615487
 21
-692.4313768871643
 31
0.0
  0
LINE
  5
219A4
330
18
100
AcDbEntity
  8
0
100
AcDbLine
 10
713.6962369615488
 20
-692.4313768871643
 30
0.0
 11
713.7962381249465
 21
-691.9313768871643
 31
0.0
  0
LINE
  5
219A5
330
18
100
AcDbEntity
  8
0
100
AcDbLine
 10
715.2962369615487
 20
-692.4313768871643
 30
0.0
 11
715.3962381249464
 21
-691.9313768871643
 31
0.0
  0
LINE
  5
219A6
330
18
100
AcDbEntity
  8
0
100
AcDbLine
 10
712.8962462687306
 20
-688.4313768871643
 30
0.0
 11
713.6962369615488
 21
-692.4313768871643
 31
0.0
  0
LINE
  5
219A7
330
18
100
AcDbEntity
  8
0
100
AcDbLine
 10
715.9962451053372
 20
-688.9313768871643
 30
0.0
 11
716.0962462687348
 21
-688.4313768871643
 31
0.0
  0
LINE
  5
219A8
330
18
100
AcDbEntity
  8
0
100
AcDbLine
 10
709.5962451053331
 20
-688.9313768871643
 30
0.0
 11
709.6962462687308
 21
-688.4313768871643
 31
0.0
  0
LINE
  5
219A9
330
18
100
AcDbEntity
  8
0
100
AcDbLine
 10
709.6962462687308
 20
-688.4313768871643
 30
0.0
 11
710.496236961549
 21
-692.4313768871643
 31
0.0
  0
LINE
  5
219AA
330
18
100
AcDbEntity
  8
0
100
AcDbLine
 10
710.496236961549
 20
-692.4313768871643
 30
0.0
 11
710.5962381249467
 21
-691.9313768871643
 31
0.0
  0
LINE
  5
219AB
330
18
100
AcDbEntity
  8
0
100
AcDbLine
 10
707.9962451053332
 20
-688.9313768871643
 30
0.0
 11
708.0962462687309
 21
-688.4313768871643
 31
0.0
  0
LINE
  5
219AC
330
18
100
AcDbEntity
  8
0
100
AcDbLine
 10
708.0962462687309
 20
-688.4313768871643
 30
0.0
 11
708.8962369615491
 21
-692.4313768871643
 31
0.0
  0
LINE
  5
219AD
330
18
100
AcDbEntity
  8
0
100
AcDbLine
 10
708.8962369615491
 20
-692.4313768871643
 30
0.0
 11
708.9962381249468
 21
-691.9313768871643
 31
0.0
  0
LINE
  5
219AE
330
18
100
AcDbEntity
  8
0
100
AcDbLine
 10
706.3962451053333
 20
-688.9313768871643
 30
0.0
 11
706.4962462687309
 21
-688.4313768871643
 31
0.0
  0
LINE
  5
219AF
330
18
100
AcDbEntity
  8
0
100
AcDbLine
 10
706.4962462687309
 20
-688.4313768871643
 30
0.0
 11
707.2962369615492
 21
-692.4313768871643
 31
0.0
  0
LINE
  5
219B0
330
18
100
AcDbEntity
  8
0
100
AcDbLine
 10
707.2962369615492
 20
-692.4313768871643
 30
0.0
 11
707.3962381249469
 21
-691.9313768871643
 31
0.0
  0
LINE
  5
219B1
330
18
100
AcDbEntity
  8
0
100
AcDbLine
 10
498.5962881512622
 20
-538.5141884625652
 30
0.0
 11
497.0962881512622
 21
-543.8141849724269
 31
0.0
  0
LINE
  5
219B2
330
18
100
AcDbEntity
  8
0
100
AcDbLine
 10
497.0962881512622
 20
-543.8141849724269
 30
0.0
 11
497.0962881512625
 21
-573.5141849723188
 31
0.0
  0
LINE
  5
219B3
330
18
100
AcDbEntity
  8
0
100
AcDbLine
 10
498.5962881512622
 20
-538.5141884625652
 30
0.0
 11
500.0962881512623
 21
-543.8141919528106
 31
0.0
  0
LINE
  5
219B4
330
18
100
AcDbEntity
  8
0
100
AcDbLine
 10
495.0962416153644
 20
-573.5141803186207
 30
0.0
 11
502.0962416153643
 21
-573.5141966061851
 31
0.0
  0
LINE
  5
219B5
330
18
100
AcDbEntity
  8
0
100
AcDbLine
 10
500.0962881512623
 20
-543.8141919528106
 30
0.0
 11
500.0962881512625
 21
-573.5141919527035
 31
0.0
  0
LINE
  5
219B6
330
18
100
AcDbEntity
  8
0
100
AcDbLine
 10
495.0962416153644
 20
-573.5141803186207
 30
0.0
 11
495.0962416153643
 21
-574.614183808816
 31
0.0
  0
ARC
  5
219B7
330
18
100
AcDbEntity
  8
0
100
AcDbCircle
 10
496.5962416153643
 20
-574.614183808816
 30
0.0
 40
1.5
100
AcDbArc
 50
180.0
 51
269.9998666844684
  0
LINE
  5
219B8
330
18
100
AcDbEntity
  8
0
100
AcDbLine
 10
502.0962416153643
 20
-573.5141966061851
 30
0.0
 11
502.0962416153643
 21
-574.6141931159957
 31
0.0
  0
LINE
  5
219B9
330
18
100
AcDbEntity
  8
0
100
AcDbLine
 10
496.5962381251719
 20
-576.114183808812
 30
0.0
 11
500.5962381251719
 21
-576.1141931159916
 31
0.0
  0
ARC
  5
219BA
330
18
100
AcDbEntity
  8
0
100
AcDbCircle
 10
500.5962416153643
 20
-574.6141931159957
 30
0.0
 40
1.5
100
AcDbArc
 50
269.9998666844684
 51
0.0
  0
LINE
  5
219BB
330
18
100
AcDbEntity
  8
1CENTER
100
AcDbLine
 10
498.5962416153643
 20
-537.0833935450999
 30
0.0
 11
498.5962416153643
 21
-577.1844648717117
 31
0.0
  0
LINE
  5
219BC
330
18
100
AcDbEntity
  8
0
100
AcDbLine
 10
497.5019178013692
 20
-540.6141859162431
 30
0.0
 11
499.4642528902447
 21
-539.8141904821921
 31
0.0
  0
LINE
  5
219BD
330
18
100
AcDbEntity
  8
0
100
AcDbLine
 10
499.4642528902447
 20
-539.8141904821921
 30
0.0
 11
498.8759763152023
 21
-539.50242062594
 31
0.0
  0
LINE
  5
219BE
330
18
100
AcDbEntity
  8
0
100
AcDbLine
 10
496.5962881512622
 20
-563.014183809033
 30
0.0
 11
500.5962881512622
 21
-562.2141931162148
 31
0.0
  0
LINE
  5
219BF
330
18
100
AcDbEntity
  8
0
100
AcDbLine
 10
496.5962881512622
 20
-551.8141838090287
 30
0.0
 11
500.5962881512622
 21
-551.0141931162061
 31
0.0
  0
LINE
  5
219C0
330
18
100
AcDbEntity
  8
0
100
AcDbLine
 10
496.5962881512622
 20
-548.6141838090286
 30
0.0
 11
500.5962881512622
 21
-547.8141931162061
 31
0.0
  0
LINE
  5
219C1
330
18
100
AcDbEntity
  8
0
100
AcDbLine
 10
500.5962881512622
 20
-547.8141931162061
 30
0.0
 11
500.0962881512622
 21
-547.7141919528088
 31
0.0
  0
LINE
  5
219C2
330
18
100
AcDbEntity
  8
0
100
AcDbLine
 10
497.0962881512622
 20
-547.1141849724258
 30
0.0
 11
496.5962881512622
 21
-547.0141838090286
 31
0.0
  0
LINE
  5
219C3
330
18
100
AcDbEntity
  8
0
100
AcDbLine
 10
500.5962881512622
 20
-551.0141931162061
 30
0.0
 11
500.0962881512622
 21
-550.9141919528089
 31
0.0
  0
LINE
  5
219C4
330
18
100
AcDbEntity
  8
0
100
AcDbLine
 10
500.5962881512622
 20
-549.414193116206
 30
0.0
 11
500.0962881512622
 21
-549.3141919528089
 31
0.0
  0
LINE
  5
219C5
330
18
100
AcDbEntity
  8
0
100
AcDbLine
 10
497.0962881512622
 20
-548.7141849724258
 30
0.0
 11
496.5962881512622
 21
-548.6141838090286
 31
0.0
  0
LINE
  5
219C6
330
18
100
AcDbEntity
  8
0
100
AcDbLine
 10
497.0962881512622
 20
-550.3141849724257
 30
0.0
 11
496.5962881512622
 21
-550.2141838090286
 31
0.0
  0
LINE
  5
219C7
330
18
100
AcDbEntity
  8
0
100
AcDbLine
 10
496.5962881512622
 20
-550.2141838090286
 30
0.0
 11
500.5962881512622
 21
-549.414193116206
 31
0.0
  0
LINE
  5
219C8
330
18
100
AcDbEntity
  8
0
100
AcDbLine
 10
499.9170669946515
 20
-541.4141915357977
 30
0.0
 11
499.3653175308482
 21
-541.2314273931697
 31
0.0
  0
LINE
  5
219C9
330
18
100
AcDbEntity
  8
0
100
AcDbLine
 10
500.5962881512622
 20
-544.614193116206
 30
0.0
 11
500.0962881512622
 21
-544.5141919528089
 31
0.0
  0
LINE
  5
219CA
330
18
100
AcDbEntity
  8
0
100
AcDbLine
 10
500.5962881512622
 20
-546.214193116206
 30
0.0
 11
500.0962881512622
 21
-546.114191952809
 31
0.0
  0
LINE
  5
219CB
330
18
100
AcDbEntity
  8
0
100
AcDbLine
 10
500.3698810990583
 20
-543.0141925894034
 30
0.0
 11
499.8332873637871
 21
-542.8849218917735
 31
0.0
  0
LINE
  5
219CC
330
18
100
AcDbEntity
  8
0
100
AcDbLine
 10
497.5172027484709
 20
-542.3269543749889
 30
0.0
 11
497.049104293321
 21
-542.2141848626388
 31
0.0
  0
LINE
  5
219CD
330
18
100
AcDbEntity
  8
0
100
AcDbLine
 10
497.0962881512622
 20
-545.5141849724257
 30
0.0
 11
496.5962881512622
 21
-545.4141838090286
 31
0.0
  0
LINE
  5
219CE
330
18
100
AcDbEntity
  8
0
100
AcDbLine
 10
497.0962881512622
 20
-543.9141849724258
 30
0.0
 11
496.5962881512622
 21
-543.8141838090287
 31
0.0
  0
LINE
  5
219CF
330
18
100
AcDbEntity
  8
0
100
AcDbLine
 10
497.9590896420003
 20
-540.7656217126835
 30
0.0
 11
497.5019178013692
 21
-540.6141859162431
 31
0.0
  0
LINE
  5
219D0
330
18
100
AcDbEntity
  8
0
100
AcDbLine
 10
497.049104293321
 20
-542.2141848626388
 30
0.0
 11
499.9170669946515
 21
-541.4141915357977
 31
0.0
  0
LINE
  5
219D1
330
18
100
AcDbEntity
  8
0
100
AcDbLine
 10
496.5962881512622
 20
-545.4141838090286
 30
0.0
 11
500.5962881512622
 21
-544.614193116206
 31
0.0
  0
LINE
  5
219D2
330
18
100
AcDbEntity
  8
0
100
AcDbLine
 10
496.5962881512622
 20
-543.8141838090287
 30
0.0
 11
500.3698810990583
 21
-543.0141925894034
 31
0.0
  0
LINE
  5
219D3
330
18
100
AcDbEntity
  8
0
100
AcDbLine
 10
496.5962881512622
 20
-547.0141838090286
 30
0.0
 11
500.5962881512622
 21
-546.214193116206
 31
0.0
  0
LINE
  5
219D4
330
18
100
AcDbEntity
  8
0
100
AcDbLine
 10
496.5962881512622
 20
-559.814183809033
 30
0.0
 11
500.5962881512622
 21
-559.0141931162148
 31
0.0
  0
LINE
  5
219D5
330
18
100
AcDbEntity
  8
0
100
AcDbLine
 10
500.5962881512622
 20
-559.0141931162148
 30
0.0
 11
500.0962881512622
 21
-558.9141919528171
 31
0.0
  0
LINE
  5
219D6
330
18
100
AcDbEntity
  8
0
100
AcDbLine
 10
497.0962881512622
 20
-558.3141849724263
 30
0.0
 11
496.5962881512622
 21
-558.2141838090287
 31
0.0
  0
LINE
  5
219D7
330
18
100
AcDbEntity
  8
0
100
AcDbLine
 10
500.5962881512622
 20
-560.6141931162149
 30
0.0
 11
500.0962881512622
 21
-560.5141919528172
 31
0.0
  0
LINE
  5
219D8
330
18
100
AcDbEntity
  8
0
100
AcDbLine
 10
500.5962881512622
 20
-562.2141931162148
 30
0.0
 11
500.0962881512622
 21
-562.1141919528171
 31
0.0
  0
LINE
  5
219D9
330
18
100
AcDbEntity
  8
0
100
AcDbLine
 10
497.0962881512622
 20
-559.9141849724307
 30
0.0
 11
496.5962881512622
 21
-559.814183809033
 31
0.0
  0
LINE
  5
219DA
330
18
100
AcDbEntity
  8
0
100
AcDbLine
 10
497.0962881512622
 20
-561.5141849724308
 30
0.0
 11
496.5962881512622
 21
-561.4141838090331
 31
0.0
  0
LINE
  5
219DB
330
18
100
AcDbEntity
  8
0
100
AcDbLine
 10
496.5962881512622
 20
-561.4141838090331
 30
0.0
 11
500.5962881512622
 21
-560.6141931162149
 31
0.0
  0
LINE
  5
219DC
330
18
100
AcDbEntity
  8
0
100
AcDbLine
 10
500.5962881512622
 20
-554.2141931162104
 30
0.0
 11
500.0962881512622
 21
-554.1141919528127
 31
0.0
  0
LINE
  5
219DD
330
18
100
AcDbEntity
  8
0
100
AcDbLine
 10
500.5962881512622
 20
-552.614193116206
 30
0.0
 11
500.0962881512622
 21
-552.5141919528089
 31
0.0
  0
LINE
  5
219DE
330
18
100
AcDbEntity
  8
0
100
AcDbLine
 10
500.5962881512622
 20
-557.4141931162104
 30
0.0
 11
500.0962881512622
 21
-557.3141919528127
 31
0.0
  0
LINE
  5
219DF
330
18
100
AcDbEntity
  8
0
100
AcDbLine
 10
500.5962881512622
 20
-555.8141931162105
 30
0.0
 11
500.0962881512622
 21
-555.7141919528128
 31
0.0
  0
LINE
  5
219E0
330
18
100
AcDbEntity
  8
0
100
AcDbLine
 10
497.0962881512622
 20
-551.9141849724258
 30
0.0
 11
496.5962881512622
 21
-551.8141838090287
 31
0.0
  0
LINE
  5
219E1
330
18
100
AcDbEntity
  8
0
100
AcDbLine
 10
497.0962881512622
 20
-553.5141849724264
 30
0.0
 11
496.5962881512622
 21
-553.4141838090286
 31
0.0
  0
LINE
  5
219E2
330
18
100
AcDbEntity
  8
0
100
AcDbLine
 10
497.0962881512622
 20
-556.7141849724264
 30
0.0
 11
496.5962881512622
 21
-556.6141838090288
 31
0.0
  0
LINE
  5
219E3
330
18
100
AcDbEntity
  8
0
100
AcDbLine
 10
497.0962881512622
 20
-555.1141849724263
 30
0.0
 11
496.5962881512622
 21
-555.0141838090286
 31
0.0
  0
LINE
  5
219E4
330
18
100
AcDbEntity
  8
0
100
AcDbLine
 10
496.5962881512622
 20
-555.0141838090286
 30
0.0
 11
500.5962881512622
 21
-554.2141931162104
 31
0.0
  0
LINE
  5
219E5
330
18
100
AcDbEntity
  8
0
100
AcDbLine
 10
496.5962881512622
 20
-553.4141838090286
 30
0.0
 11
500.5962881512622
 21
-552.614193116206
 31
0.0
  0
LINE
  5
219E6
330
18
100
AcDbEntity
  8
0
100
AcDbLine
 10
496.5962881512622
 20
-556.6141838090288
 30
0.0
 11
500.5962881512622
 21
-555.8141931162105
 31
0.0
  0
LINE
  5
219E7
330
18
100
AcDbEntity
  8
0
100
AcDbLine
 10
496.5962881512622
 20
-558.2141838090287
 30
0.0
 11
500.5962881512622
 21
-557.4141931162104
 31
0.0
  0
LINE
  5
219E8
330
18
100
AcDbEntity
  8
0
100
AcDbLine
 10
497.0962881512622
 20
-567.9141849724349
 30
0.0
 11
496.5962881512622
 21
-567.8141838090372
 31
0.0
  0
LINE
  5
219E9
330
18
100
AcDbEntity
  8
0
100
AcDbLine
 10
496.5962881512622
 20
-567.8141838090372
 30
0.0
 11
500.5962881512622
 21
-567.014193116219
 31
0.0
  0
LINE
  5
219EA
330
18
100
AcDbEntity
  8
0
100
AcDbLine
 10
500.5962881512622
 20
-567.014193116219
 30
0.0
 11
500.0962881512622
 21
-566.9141919528213
 31
0.0
  0
LINE
  5
219EB
330
18
100
AcDbEntity
  8
0
100
AcDbLine
 10
497.0962881512622
 20
-566.314184972435
 30
0.0
 11
496.5962881512622
 21
-566.2141838090373
 31
0.0
  0
LINE
  5
219EC
330
18
100
AcDbEntity
  8
0
100
AcDbLine
 10
497.0962881512622
 20
-564.7141849724351
 30
0.0
 11
496.5962881512622
 21
-564.6141838090374
 31
0.0
  0
LINE
  5
219ED
330
18
100
AcDbEntity
  8
0
100
AcDbLine
 10
496.5962881512622
 20
-564.6141838090374
 30
0.0
 11
500.5962881512622
 21
-563.8141931162191
 31
0.0
  0
LINE
  5
219EE
330
18
100
AcDbEntity
  8
0
100
AcDbLine
 10
500.5962881512622
 20
-565.414193116219
 30
0.0
 11
500.0962881512622
 21
-565.3141919528214
 31
0.0
  0
LINE
  5
219EF
330
18
100
AcDbEntity
  8
0
100
AcDbLine
 10
500.5962881512622
 20
-563.8141931162191
 30
0.0
 11
500.0962881512622
 21
-563.7141919528215
 31
0.0
  0
LINE
  5
219F0
330
18
100
AcDbEntity
  8
0
100
AcDbLine
 10
496.5962881512622
 20
-566.2141838090373
 30
0.0
 11
500.5962881512622
 21
-565.414193116219
 31
0.0
  0
LINE
  5
219F1
330
18
100
AcDbEntity
  8
0
100
AcDbLine
 10
497.0962881512622
 20
-563.1141849724307
 30
0.0
 11
496.5962881512622
 21
-563.014183809033
 31
0.0
  0
LINE
  5
219F2
330
18
100
AcDbEntity
  8
0
100
AcDbLine
 10
497.0962881512622
 20
-569.5141849724348
 30
0.0
 11
496.5962881512622
 21
-569.4141838090371
 31
0.0
  0
LINE
  5
219F3
330
18
100
AcDbEntity
  8
0
100
AcDbLine
 10
496.5962881512622
 20
-569.4141838090371
 30
0.0
 11
500.5962881512622
 21
-568.6141931162189
 31
0.0
  0
LINE
  5
219F4
330
18
100
AcDbEntity
  8
0
100
AcDbLine
 10
500.5962881512622
 20
-568.6141931162189
 30
0.0
 11
500.0962881512622
 21
-568.5141919528212
 31
0.0
  0
LINE
  5
219F5
330
18
100
AcDbEntity
  8
0
100
AcDbLine
 10
497.0962881512622
 20
-571.1141849724347
 30
0.0
 11
496.5962881512622
 21
-571.014183809037
 31
0.0
  0
LINE
  5
219F6
330
18
100
AcDbEntity
  8
0
100
AcDbLine
 10
496.5962881512622
 20
-571.014183809037
 30
0.0
 11
500.5962881512622
 21
-570.2141931162188
 31
0.0
  0
LINE
  5
219F7
330
18
100
AcDbEntity
  8
0
100
AcDbLine
 10
500.5962881512622
 20
-570.2141931162188
 30
0.0
 11
500.0962881512622
 21
-570.1141919528211
 31
0.0
  0
LINE
  5
219F8
330
18
100
AcDbEntity
  8
0
100
AcDbLine
 10
497.0962881512622
 20
-572.7141849724346
 30
0.0
 11
496.5962881512622
 21
-572.614183809037
 31
0.0
  0
LINE
  5
219F9
330
18
100
AcDbEntity
  8
0
100
AcDbLine
 10
496.5962881512622
 20
-572.614183809037
 30
0.0
 11
500.5962881512622
 21
-571.8141931162187
 31
0.0
  0
LINE
  5
219FA
330
18
100
AcDbEntity
  8
0
100
AcDbLine
 10
500.5962881512622
 20
-571.8141931162187
 30
0.0
 11
500.0962881512622
 21
-571.714191952821
 31
0.0
  0
LINE
  5
219FB
330
18
100
AcDbEntity
  8
1DIM
100
AcDbLine
 10
498.5962416153649
 20
-694.6813303512664
 30
0.0
 11
498.5962416153649
 21
-719.9313303512677
 31
0.0
1001
ACAD
1000
DSTYLE
1002
{
1070
    45
1040
0.5
1002
}
  0
LINE
  5
219FC
330
18
100
AcDbEntity
  8
1DIM
100
AcDbLine
 10
518.5962416153649
 20
-694.6813303512664
 30
0.0
 11
518.5962416153649
 21
-719.9313303512677
 31
0.0
1001
ACAD
1000
DSTYLE
1002
{
1070
    45
1040
0.5
1002
}
  0
LINE
  5
219FD
330
18
100
AcDbEntity
  8
1DIM
100
AcDbLine
 10
500.5962416153649
 20
-718.9313303512677
 30
0.0
 11
516.5962416153649
 21
-718.9313303512677
 31
0.0
1001
ACAD
1000
DSTYLE
1002
{
1070
    45
1040
0.5
1002
}
  0
LINE
  5
21A01
330
18
100
AcDbEntity
  8
1DIM
100
AcDbLine
 10
403.596241615365
 20
-680.9313303512664
 30
0.0
 11
403.596241615365
 21
-667.9313303512663
 31
0.0
1001
ACAD
1000
DSTYLE
1002
{
1070
    45
1040
0.5
1002
}
  0
LINE
  5
21A02
330
18
100
AcDbEntity
  8
1DIM
100
AcDbLine
 10
613.5962416153652
 20
-680.9313303512664
 30
0.0
 11
613.5962416153652
 21
-667.9313303512663
 31
0.0
1001
ACAD
1000
DSTYLE
1002
{
1070
    45
1040
0.5
1002
}
  0
LINE
  5
21A03
330
18
100
AcDbEntity
  8
1DIM
100
AcDbLine
 10
405.596241615365
 20
-668.9313303512663
 30
0.0
 11
611.5962416153652
 21
-668.9313303512663
 31
0.0
1001
ACAD
1000
DSTYLE
1002
{
1070
    45
1040
0.5
1002
}
  0
LINE
  5
21A07
330
18
100
AcDbEntity
  8
1DIM
100
AcDbLine
 10
612.5962416153652
 20
-679.9313303512664
 30
0.0
 11
628.5962416153649
 21
-679.9313303512664
 31
0.0
1001
ACAD
1000
DSTYLE
1002
{
1070
    45
1040
0.5
1002
}
  0
LINE
  5
21A08
330
18
100
AcDbEntity
  8
1DIM
100
AcDbLine
 10
612.5962416153652
 20
-700.9313303512664
 30
0.0
 11
628.5962416153649
 21
-700.9313303512664
 31
0.0
1001
ACAD
1000
DSTYLE
1002
{
1070
    45
1040
0.5
1002
}
  0
LINE
  5
21A09
330
18
100
AcDbEntity
  8
1DIM
100
AcDbLine
 10
627.5962416153649
 20
-681.9313303512664
 30
0.0
 11
627.5962416153649
 21
-698.9313303512664
 31
0.0
1001
ACAD
1000
DSTYLE
1002
{
1070
    45
1040
0.5
1002
}
  0
LINE
  5
21A0D
330
18
100
AcDbEntity
  8
1DIM
100
AcDbLine
 10
600.5962445583443
 20
-627.5141871166725
 30
0.0
 11
628.5962416153649
 21
-627.5141871166725
 31
0.0
1001
ACAD
1000
DSTYLE
1002
{
1070
    45
1040
0.5
1002
}
  0
LINE
  5
21A0E
330
18
100
AcDbEntity
  8
1DIM
100
AcDbLine
 10
606.5962390523653
 20
-637.5141921578909
 30
0.0
 11
628.5962416153649
 21
-637.5141921578909
 31
0.0
1001
ACAD
1000
DSTYLE
1002
{
1070
    45
1040
0.5
1002
}
  0
LINE
  5
21A0F
330
18
100
AcDbEntity
  8
1DIM
100
AcDbLine
 10
627.5962416153649
 20
-637.5141921578909
 30
0.0
 11
627.5962416153649
 21
-648.5808588245577
 31
0.0
1001
ACAD
1000
DSTYLE
1002
{
1070
    45
1040
0.5
1002
}
  0
LINE
  5
21A10
330
18
100
AcDbEntity
  8
1DIM
100
AcDbLine
 10
627.5962416153649
 20
-629.5141871166725
 30
0.0
 11
627.5962416153649
 21
-635.5141921578909
 31
0.0
1001
ACAD
1000
DSTYLE
1002
{
1070
    45
1040
0.5
1002
}
  0
LINE
  5
21A14
330
18
100
AcDbEntity
  8
1DIM
100
AcDbLine
 10
600.5962420072655
 20
-627.5141884624029
 30
0.0
 11
628.5962416153649
 21
-627.5141884624029
 31
0.0
1001
ACAD
1000
DSTYLE
1002
{
1070
    45
1040
0.5
1002
}
  0
LINE
  5
21A15
330
18
100
AcDbEntity
  8
1DIM
100
AcDbLine
 10
526.4462420072651
 20
-598.7132591888933
 30
0.0
 11
628.5962416153649
 21
-598.7132591888933
 31
0.0
1001
ACAD
1000
DSTYLE
1002
{
1070
    45
1040
0.5
1002
}
  0
LINE
  5
21A16
330
18
100
AcDbEntity
  8
1DIM
100
AcDbLine
 10
627.5962416153649
 20
-625.5141884624029
 30
0.0
 11
627.5962416153649
 21
-600.7132591888933
 31
0.0
1001
ACAD
1000
DSTYLE
1002
{
1070
    45
1040
0.5
1002
}
  0
LINE
  5
21A1A
330
18
100
AcDbEntity
  8
1DIM
100
AcDbLine
 10
413.5962420072655
 20
-624.5141884624029
 30
0.0
 11
413.5962420072655
 21
-649.9636148647102
 31
0.0
1001
ACAD
1000
DSTYLE
1002
{
1070
    45
1040
0.5
1002
}
  0
LINE
  5
21A1B
330
18
100
AcDbEntity
  8
1DIM
100
AcDbLine
 10
603.5962420072655
 20
-624.5141884624029
 30
0.0
 11
603.5962420072655
 21
-649.9636148647102
 31
0.0
1001
ACAD
1000
DSTYLE
1002
{
1070
    45
1040
0.5
1002
}
  0
LINE
  5
21A1C
330
18
100
AcDbEntity
  8
1DIM
100
AcDbLine
 10
415.5962420072655
 20
-648.9636148647102
 30
0.0
 11
601.5962420072655
 21
-648.9636148647102
 31
0.0
1001
ACAD
1000
DSTYLE
1002
{
1070
    45
1040
0.5
1002
}
  0
LINE
  5
21A20
330
18
100
AcDbEntity
  8
0
  6
BYBLOCK
100
AcDbLine
 10
643.5962416153651
 20
-640.9672287312663
 30
0.0
 11
641.5962416153651
 21
-640.4313303512663
 31
0.0
  0
LINE
  5
21A21
330
18
100
AcDbEntity
  8
0
  6
BYBLOCK
100
AcDbLine
 10
641.5962416153651
 20
-640.4313303512663
 30
0.0
 11
643.5962416153651
 21
-639.8954319712662
 31
0.0
  0
LINE
  5
21A22
330
18
100
AcDbEntity
  8
0
  6
BYBLOCK
100
AcDbLine
 10
641.5962416153651
 20
-640.4313303512663
 30
0.0
 11
643.5962416153651
 21
-640.4313303512663
 31
0.0
  0
LINE
  5
21A23
330
18
100
AcDbEntity
  8
0
  6
BYBLOCK
100
AcDbLine
 10
707.596241615365
 20
-639.8954319712662
 30
0.0
 11
709.596241615365
 21
-640.4313303512663
 31
0.0
  0
LINE
  5
21A24
330
18
100
AcDbEntity
  8
0
  6
BYBLOCK
100
AcDbLine
 10
709.596241615365
 20
-640.4313303512663
 30
0.0
 11
707.596241615365
 21
-640.9672287312663
 31
0.0
  0
LINE
  5
21A25
330
18
100
AcDbEntity
  8
0
  6
BYBLOCK
100
AcDbLine
 10
709.596241615365
 20
-640.4313303512663
 30
0.0
 11
707.596241615365
 21
-640.4313303512663
 31
0.0
  0
TEXT
  5
21A26
330
18
100
AcDbEntity
  8
1DIM
  6
CONTINUOUS
100
AcDbText
 10
672.6674221709205
 20
-639.7313303512663
 30
0.0
 40
3.5
  1
68
100
AcDbText
1001
ACAD
1000
DSTYLE
1002
{
1070
    45
1040
0.5
1002
}
  0
LINE
  5
21A27
330
18
100
AcDbEntity
  8
0
  6
BYBLOCK
100
AcDbLine
 10
707.596241615365
 20
-734.1236055565482
 30
0.0
 11
709.596241615365
 21
-734.6595039365483
 31
0.0
  0
LINE
  5
21A28
330
18
100
AcDbEntity
  8
0
  6
BYBLOCK
100
AcDbLine
 10
709.596241615365
 20
-734.6595039365483
 30
0.0
 11
707.596241615365
 21
-735.1954023165483
 31
0.0
  0
LINE
  5
21A29
330
18
100
AcDbEntity
  8
0
  6
BYBLOCK
100
AcDbLine
 10
709.596241615365
 20
-734.6595039365483
 30
0.0
 11
707.596241615365
 21
-734.6595039365483
 31
0.0
  0
LINE
  5
21A2A
330
18
100
AcDbEntity
  8
0
  6
BYBLOCK
100
AcDbLine
 10
693.5985252890301
 20
-735.1954023165483
 30
0.0
 11
691.5985252890301
 21
-734.6595039365483
 31
0.0
  0
LINE
  5
21A2B
330
18
100
AcDbEntity
  8
0
  6
BYBLOCK
100
AcDbLine
 10
691.5985252890301
 20
-734.6595039365483
 30
0.0
 11
693.5985252890301
 21
-734.1236055565482
 31
0.0
  0
LINE
  5
21A2C
330
18
100
AcDbEntity
  8
0
  6
BYBLOCK
100
AcDbLine
 10
691.5985252890301
 20
-734.6595039365483
 30
0.0
 11
693.5985252890301
 21
-734.6595039365483
 31
0.0
  0
TEXT
  5
21A2D
330
18
100
AcDbEntity
  8
1DIM
  6
CONTINUOUS
100
AcDbText
 10
698.2629082820316
 20
-733.9595039365482
 30
0.0
 40
3.5
  1
18
100
AcDbText
1001
ACAD
1000
DSTYLE
1002
{
1070
    45
1040
0.5
1002
}
  0
LINE
  5
21A2E
330
18
100
AcDbEntity
  8
0
  6
BYBLOCK
100
AcDbLine
 10
751.632139995365
 20
-688.4313303512664
 30
0.0
 11
751.096241615365
 21
-690.4313303512664
 31
0.0
  0
LINE
  5
21A2F
330
18
100
AcDbEntity
  8
0
  6
BYBLOCK
100
AcDbLine
 10
751.096241615365
 20
-690.4313303512664
 30
0.0
 11
750.5603432353649
 21
-688.4313303512664
 31
0.0
  0
LINE
  5
21A30
330
18
100
AcDbEntity
  8
0
  6
BYBLOCK
100
AcDbLine
 10
751.096241615365
 20
-690.4313303512664
 30
0.0
 11
751.096241615365
 21
-688.4313303512664
 31
0.0
  0
LINE
  5
21A31
330
18
100
AcDbEntity
  8
0
  6
BYBLOCK
100
AcDbLine
 10
750.5603432353649
 20
-678.9313299340338
 30
0.0
 11
751.096241615365
 21
-676.9313299340338
 31
0.0
  0
LINE
  5
21A32
330
18
100
AcDbEntity
  8
0
  6
BYBLOCK
100
AcDbLine
 10
751.096241615365
 20
-676.9313299340338
 30
0.0
 11
751.632139995365
 21
-678.9313299340338
 31
0.0
  0
LINE
  5
21A33
330
18
100
AcDbEntity
  8
0
  6
BYBLOCK
100
AcDbLine
 10
751.096241615365
 20
-676.9313299340338
 30
0.0
 11
751.096241615365
 21
-678.9313299340338
 31
0.0
  0
TEXT
  5
21A34
330
18
100
AcDbEntity
  8
1DIM
  6
CONTINUOUS
100
AcDbText
 10
750.3962416153649
 20
-686.0146634759834
 30
0.0
 40
3.5
  1
14
 50
90.0
100
AcDbText
1001
ACAD
1000
DSTYLE
1002
{
1070
    45
1040
0.5
1070
   271
1070
     0
1002
}
  0
LINE
  5
21A35
330
18
100
AcDbEntity
  8
0
  6
BYBLOCK
100
AcDbLine
 10
761.632139995365
 20
-701.9313303512665
 30
0.0
 11
761.096241615365
 21
-703.9313303512665
 31
0.0
  0
LINE
  5
21A36
330
18
100
AcDbEntity
  8
0
  6
BYBLOCK
100
AcDbLine
 10
761.096241615365
 20
-703.9313303512665
 30
0.0
 11
760.5603432353649
 21
-701.9313303512665
 31
0.0
  0
LINE
  5
21A37
330
18
100
AcDbEntity
  8
0
  6
BYBLOCK
100
AcDbLine
 10
761.096241615365
 20
-703.9313303512665
 30
0.0
 11
761.096241615365
 21
-701.9313303512665
 31
0.0
  0
LINE
  5
21A38
330
18
100
AcDbEntity
  8
0
  6
BYBLOCK
100
AcDbLine
 10
760.5603432353649
 20
-678.9313303512663
 30
0.0
 11
761.096241615365
 21
-676.9313303512663
 31
0.0
  0
LINE
  5
21A39
330
18
100
AcDbEntity
  8
0
  6
BYBLOCK
100
AcDbLine
 10
761.096241615365
 20
-676.9313303512663
 30
0.0
 11
761.632139995365
 21
-678.9313303512663
 31
0.0
  0
LINE
  5
21A3A
330
18
100
AcDbEntity
  8
0
  6
BYBLOCK
100
AcDbLine
 10
761.096241615365
 20
-676.9313303512663
 30
0.0
 11
761.096241615365
 21
-678.9313303512663
 31
0.0
  0
TEXT
  5
21A3B
330
18
100
AcDbEntity
  8
1DIM
  6
CONTINUOUS
100
AcDbText
 10
760.3962416153649
 20
-693.3479970179329
 30
0.0
 40
3.5
  1
27
 50
90.0
100
AcDbText
1001
ACAD
1000
DSTYLE
1002
{
1070
    45
1040
0.5
1002
}
  0
LINE
  5
21A3C
330
18
100
AcDbEntity
  8
0
  6
BYBLOCK
100
AcDbLine
 10
531.4462420072656
 20
-561.9782900824029
 30
0.0
 11
533.4462420072656
 21
-562.5141884624029
 31
0.0
  0
LINE
  5
21A3D
330
18
100
AcDbEntity
  8
0
  6
BYBLOCK
100
AcDbLine
 10
533.4462420072656
 20
-562.5141884624029
 30
0.0
 11
531.4462420072656
 21
-563.050086842403
 31
0.0
  0
LINE
  5
21A3E
330
18
100
AcDbEntity
  8
0
  6
BYBLOCK
100
AcDbLine
 10
533.4462420072656
 20
-562.5141884624029
 30
0.0
 11
531.4462420072656
 21
-562.5141884624029
 31
0.0
  0
LINE
  5
21A3F
330
18
100
AcDbEntity
  8
0
  6
BYBLOCK
100
AcDbLine
 10
489.4462420072656
 20
-563.050086842403
 30
0.0
 11
487.4462420072656
 21
-562.5141884624029
 31
0.0
  0
LINE
  5
21A40
330
18
100
AcDbEntity
  8
0
  6
BYBLOCK
100
AcDbLine
 10
487.4462420072656
 20
-562.5141884624029
 30
0.0
 11
489.4462420072656
 21
-561.9782900824029
 31
0.0
  0
LINE
  5
21A41
330
18
100
AcDbEntity
  8
0
  6
BYBLOCK
100
AcDbLine
 10
487.4462420072656
 20
-562.5141884624029
 30
0.0
 11
489.4462420072656
 21
-562.5141884624029
 31
0.0
  0
TEXT
  5
21A42
330
18
100
AcDbEntity
  8
1DIM
  6
CONTINUOUS
100
AcDbText
 10
505.7738245714572
 20
-561.8141884624029
 30
0.0
 40
3.5
  1
46
100
AcDbText
1001
ACAD
1000
DSTYLE
1002
{
1070
    45
1040
0.5
1002
}
  0
LINE
  5
21A43
330
18
100
AcDbEntity
  8
0
  6
BYBLOCK
100
AcDbLine
 10
500.5962416153649
 20
-719.4672287312677
 30
0.0
 11
498.5962416153649
 21
-718.9313303512677
 31
0.0
  0
LINE
  5
21A44
330
18
100
AcDbEntity
  8
0
  6
BYBLOCK
100
AcDbLine
 10
498.5962416153649
 20
-718.9313303512677
 30
0.0
 11
500.5962416153649
 21
-718.3954319712676
 31
0.0
  0
LINE
  5
21A45
330
18
100
AcDbEntity
  8
0
  6
BYBLOCK
100
AcDbLine
 10
498.5962416153649
 20
-718.9313303512677
 30
0.0
 11
500.5962416153649
 21
-718.9313303512677
 31
0.0
  0
LINE
  5
21A46
330
18
100
AcDbEntity
  8
0
  6
BYBLOCK
100
AcDbLine
 10
516.5962416153649
 20
-718.3954319712676
 30
0.0
 11
518.5962416153649
 21
-718.9313303512677
 31
0.0
  0
LINE
  5
21A47
330
18
100
AcDbEntity
  8
0
  6
BYBLOCK
100
AcDbLine
 10
518.5962416153649
 20
-718.9313303512677
 30
0.0
 11
516.5962416153649
 21
-719.4672287312677
 31
0.0
  0
LINE
  5
21A48
330
18
100
AcDbEntity
  8
0
  6
BYBLOCK
100
AcDbLine
 10
518.5962416153649
 20
-718.9313303512677
 30
0.0
 11
516.5962416153649
 21
-718.9313303512677
 31
0.0
  0
TEXT
  5
21A49
330
18
100
AcDbEntity
  8
1DIM
  6
CONTINUOUS
100
AcDbText
 10
504.1483249486982
 20
-718.2313303512676
 30
0.0
 40
3.5
  1
P20
100
AcDbText
1001
ACAD
1000
DSTYLE
1002
{
1070
    45
1040
0.5
1002
}
  0
LINE
  5
21A4A
330
18
100
AcDbEntity
  8
0
  6
BYBLOCK
100
AcDbLine
 10
405.596241615365
 20
-669.4672287312663
 30
0.0
 11
403.596241615365
 21
-668.9313303512663
 31
0.0
  0
LINE
  5
21A4B
330
18
100
AcDbEntity
  8
0
  6
BYBLOCK
100
AcDbLine
 10
403.596241615365
 20
-668.9313303512663
 30
0.0
 11
405.596241615365
 21
-668.3954319712662
 31
0.0
  0
LINE
  5
21A4C
330
18
100
AcDbEntity
  8
0
  6
BYBLOCK
100
AcDbLine
 10
403.596241615365
 20
-668.9313303512663
 30
0.0
 11
405.596241615365
 21
-668.9313303512663
 31
0.0
  0
LINE
  5
21A4D
330
18
100
AcDbEntity
  8
0
  6
BYBLOCK
100
AcDbLine
 10
611.5962416153652
 20
-668.3954319712662
 30
0.0
 11
613.5962416153652
 21
-668.9313303512663
 31
0.0
  0
LINE
  5
21A4E
330
18
100
AcDbEntity
  8
0
  6
BYBLOCK
100
AcDbLine
 10
613.5962416153652
 20
-668.9313303512663
 30
0.0
 11
611.5962416153652
 21
-669.4672287312663
 31
0.0
  0
LINE
  5
21A4F
330
18
100
AcDbEntity
  8
0
  6
BYBLOCK
100
AcDbLine
 10
613.5962416153652
 20
-668.9313303512663
 30
0.0
 11
611.5962416153652
 21
-668.9313303512663
 31
0.0
  0
TEXT
  5
21A50
330
18
100
AcDbEntity
  8
1DIM
  6
CONTINUOUS
100
AcDbText
 10
504.7316582820318
 20
-668.2313303512663
 30
0.0
 40
3.5
  1
210
100
AcDbText
1001
ACAD
1000
DSTYLE
1002
{
1070
    45
1040
0.5
1002
}
  0
LINE
  5
21A51
330
18
100
AcDbEntity
  8
0
  6
BYBLOCK
100
AcDbLine
 10
627.0603432353648
 20
-681.9313303512664
 30
0.0
 11
627.5962416153649
 21
-679.9313303512664
 31
0.0
  0
LINE
  5
21A52
330
18
100
AcDbEntity
  8
0
  6
BYBLOCK
100
AcDbLine
 10
627.5962416153649
 20
-679.9313303512664
 30
0.0
 11
628.1321399953649
 21
-681.9313303512664
 31
0.0
  0
LINE
  5
21A53
330
18
100
AcDbEntity
  8
0
  6
BYBLOCK
100
AcDbLine
 10
627.5962416153649
 20
-679.9313303512664
 30
0.0
 11
627.5962416153649
 21
-681.9313303512664
 31
0.0
  0
LINE
  5
21A54
330
18
100
AcDbEntity
  8
0
  6
BYBLOCK
100
AcDbLine
 10
628.1321399953649
 20
-698.9313303512664
 30
0.0
 11
627.5962416153649
 21
-700.9313303512664
 31
0.0
  0
LINE
  5
21A55
330
18
100
AcDbEntity
  8
0
  6
BYBLOCK
100
AcDbLine
 10
627.5962416153649
 20
-700.9313303512664
 30
0.0
 11
627.0603432353648
 21
-698.9313303512664
 31
0.0
  0
LINE
  5
21A56
330
18
100
AcDbEntity
  8
0
  6
BYBLOCK
100
AcDbLine
 10
627.5962416153649
 20
-700.9313303512664
 30
0.0
 11
627.5962416153649
 21
-698.9313303512664
 31
0.0
  0
TEXT
  5
21A57
330
18
100
AcDbEntity
  8
1DIM
  6
CONTINUOUS
100
AcDbText
 10
626.8962416153648
 20
-692.7646636845998
 30
0.0
 40
3.5
  1
21
 50
90.0
100
AcDbText
1001
ACAD
1000
DSTYLE
1002
{
1070
    45
1040
0.5
1002
}
  0
LINE
  5
21A58
330
18
100
AcDbEntity
  8
0
  6
BYBLOCK
100
AcDbLine
 10
627.0603432353648
 20
-629.5141871166725
 30
0.0
 11
627.5962416153649
 21
-627.5141871166725
 31
0.0
  0
LINE
  5
21A59
330
18
100
AcDbEntity
  8
0
  6
BYBLOCK
100
AcDbLine
 10
627.5962416153649
 20
-627.5141871166725
 30
0.0
 11
628.1321399953649
 21
-629.5141871166725
 31
0.0
  0
LINE
  5
21A5A
330
18
100
AcDbEntity
  8
0
  6
BYBLOCK
100
AcDbLine
 10
627.5962416153649
 20
-627.5141871166725
 30
0.0
 11
627.5962416153649
 21
-629.5141871166725
 31
0.0
  0
LINE
  5
21A5B
330
18
100
AcDbEntity
  8
0
  6
BYBLOCK
100
AcDbLine
 10
628.1321399953649
 20
-635.5141921578909
 30
0.0
 11
627.5962416153649
 21
-637.5141921578909
 31
0.0
  0
LINE
  5
21A5C
330
18
100
AcDbEntity
  8
0
  6
BYBLOCK
100
AcDbLine
 10
627.5962416153649
 20
-637.5141921578909
 30
0.0
 11
627.0603432353648
 21
-635.5141921578909
 31
0.0
  0
LINE
  5
21A5D
330
18
100
AcDbEntity
  8
0
  6
BYBLOCK
100
AcDbLine
 10
627.5962416153649
 20
-637.5141921578909
 30
0.0
 11
627.5962416153649
 21
-635.5141921578909
 31
0.0
  0
TEXT
  5
21A5E
330
18
100
AcDbEntity
  8
1DIM
  6
CONTINUOUS
100
AcDbText
 10
626.8962416153648
 20
-647.4121088245577
 30
0.0
 40
3.5
  1
10
 50
90.0
100
AcDbText
1001
ACAD
1000
DSTYLE
1002
{
1070
    45
1040
0.5
1002
}
  0
LINE
  5
21A5F
330
18
100
AcDbEntity
  8
0
  6
BYBLOCK
100
AcDbLine
 10
628.1321399953649
 20
-625.5141884624029
 30
0.0
 11
627.5962416153649
 21
-627.5141884624029
 31
0.0
  0
LINE
  5
21A60
330
18
100
AcDbEntity
  8
0
  6
BYBLOCK
100
AcDbLine
 10
627.5962416153649
 20
-627.5141884624029
 30
0.0
 11
627.0603432353648
 21
-625.5141884624029
 31
0.0
  0
LINE
  5
21A61
330
18
100
AcDbEntity
  8
0
  6
BYBLOCK
100
AcDbLine
 10
627.5962416153649
 20
-627.5141884624029
 30
0.0
 11
627.5962416153649
 21
-625.5141884624029
 31
0.0
  0
LINE
  5
21A62
330
18
100
AcDbEntity
  8
0
  6
BYBLOCK
100
AcDbLine
 10
627.0603432353648
 20
-600.7132591888933
 30
0.0
 11
627.5962416153649
 21
-598.7132591888933
 31
0.0
  0
LINE
  5
21A63
330
18
100
AcDbEntity
  8
0
  6
BYBLOCK
100
AcDbLine
 10
627.5962416153649
 20
-598.7132591888933
 30
0.0
 11
628.1321399953649
 21
-600.7132591888933
 31
0.0
  0
LINE
  5
21A64
330
18
100
AcDbEntity
  8
0
  6
BYBLOCK
100
AcDbLine
 10
627.5962416153649
 20
-598.7132591888933
 30
0.0
 11
627.5962416153649
 21
-600.7132591888933
 31
0.0
  0
TEXT
  5
21A65
330
18
100
AcDbEntity
  8
1DIM
  6
CONTINUOUS
100
AcDbText
 10
626.8962416153648
 20
-616.0312006774998
 30
0.0
 40
3.5
  1
29
 50
90.0
100
AcDbText
1001
ACAD
1000
DSTYLE
1002
{
1070
    45
1040
0.5
1002
}
  0
LINE
  5
21A66
330
18
100
AcDbEntity
  8
0
  6
BYBLOCK
100
AcDbLine
 10
415.5962420072655
 20
-649.4995132447102
 30
0.0
 11
413.5962420072655
 21
-648.9636148647102
 31
0.0
  0
LINE
  5
21A67
330
18
100
AcDbEntity
  8
0
  6
BYBLOCK
100
AcDbLine
 10
413.5962420072655
 20
-648.9636148647102
 30
0.0
 11
415.5962420072655
 21
-648.4277164847101
 31
0.0
  0
LINE
  5
21A68
330
18
100
AcDbEntity
  8
0
  6
BYBLOCK
100
AcDbLine
 10
413.5962420072655
 20
-648.9636148647102
 30
0.0
 11
415.5962420072655
 21
-648.9636148647102
 31
0.0
  0
LINE
  5
21A69
330
18
100
AcDbEntity
  8
0
  6
BYBLOCK
100
AcDbLine
 10
601.5962420072655
 20
-648.4277164847101
 30
0.0
 11
603.5962420072655
 21
-648.9636148647102
 31
0.0
  0
LINE
  5
21A6A
330
18
100
AcDbEntity
  8
0
  6
BYBLOCK
100
AcDbLine
 10
603.5962420072655
 20
-648.9636148647102
 30
0.0
 11
601.5962420072655
 21
-649.4995132447102
 31
0.0
  0
LINE
  5
21A6B
330
18
100
AcDbEntity
  8
0
  6
BYBLOCK
100
AcDbLine
 10
603.5962420072655
 20
-648.9636148647102
 30
0.0
 11
601.5962420072655
 21
-648.9636148647102
 31
0.0
  0
TEXT
  5
21A6C
330
18
100
AcDbEntity
  8
1DIM
  6
CONTINUOUS
100
AcDbText
 10
504.7308484887469
 20
-648.2636148647101
 30
0.0
 40
3.5
  1
190
100
AcDbText
1001
ACAD
1000
DSTYLE
1002
{
1070
    45
1040
0.5
1002
}
  0
VIEWPORT
  5
57
330
15
100
AcDbEntity
 67
     1
  8
0
100
AcDbViewport
 68
     1
 10
0.0
 20
0.0
 30
0.0
 40
634.7234042553191
 41
297.0
 68
     1
 69
     1
1001
ACAD
1000
MVIEW
1002
{
1070
    16
1010
0.0
1020
0.0
1030
0.0
1010
0.0
1020
0.0
1030
1.0
1040
0.0
1040
297.0
1040
-4.171999999925333
1040
12.83903210976956
1040
50.0
1040
0.0
1040
0.0
1070
    16
1070
   100
1070
     0
1070
     1
1070
     0
1070
     0
1070
     0
1070
     0
1040
0.0
1040
0.0
1040
0.0
1040
10.0
1040
10.0
1040
10.0
1040
10.0
1070
     0
1002
{
1002
}
1002
}
  0
ENDSEC
  0
SECTION
  2
OBJECTS
  0
DICTIONARY
  5
C
330
0
100
AcDbDictionary
  3
ACAD_COLOR
350
2D0
  3
ACAD_GROUP
350
D
  3
ACAD_LAYOUT
350
2D1
  3
ACAD_MATERIAL
350
2CF
  3
ACAD_MLEADERSTYLE
350
19E18
  3
ACAD_MLINESTYLE
350
1B
  3
ACAD_PLOTSETTINGS
350
2D2
  3
ACAD_SCALELIST
350
19DF6
  3
ACAD_VISUALSTYLE
350
19DE5
  3
ACDBHEADERROUNDTRIPXREC
350
21A6D
  3
ACDBVARIABLEDICTIONARY
350
37
  3
CONTENTDICTIONARY
350
D8
  3
DRAWINGVARIABLESDICT
350
20
  3
DWGPROPS
350
21A70
1001
ACAD
1000
TREAT_AS_HARD
1070
     0
  0
DICTIONARY
  5
18FE8
330
2
100
AcDbDictionary
  3
ACAD_LAYERSTATES
360
18FE9
1001
ACAD
1000
TREAT_AS_HARD
1070
     1
  0
DICTIONARY
  5
1A20A
330
E
100
AcDbDictionary
  3
ADSK_XREC_LAYER_RECONCILED
360
1A20B
1001
ACAD
1000
TREAT_AS_HARD
1070
     1
  0
DICTIONARY
  5
1A20C
330
29
100
AcDbDictionary
  3
ADSK_XREC_LAYER_RECONCILED
360
1A20D
1001
ACAD
1000
TREAT_AS_HARD
1070
     1
  0
DICTIONARY
  5
1A20E
330
31
100
AcDbDictionary
  3
ADSK_XREC_LAYER_RECONCILED
360
1A20F
1001
ACAD
1000
TREAT_AS_HARD
1070
     1
  0
DICTIONARY
  5
1A218
330
101
100
AcDbDictionary
  3
ADSK_XREC_LAYER_RECONCILED
360
1A219
1001
ACAD
1000
TREAT_AS_HARD
1070
     1
  0
DICTIONARY
  5
1A21C
330
103
100
AcDbDictionary
  3
ADSK_XREC_LAYER_RECONCILED
360
1A21D
1001
ACAD
1000
TREAT_AS_HARD
1070
     1
  0
DICTIONARY
  5
1A220
330
25F
100
AcDbDictionary
  3
ADSK_XREC_LAYER_RECONCILED
360
1A221
1001
ACAD
1000
TREAT_AS_HARD
1070
     1
  0
DICTIONARY
  5
6E9
330
18
100
AcDbDictionary
  3
ACAD_SORTENTS
360
6EA
1001
ACAD
1000
TREAT_AS_HARD
1070
     1
  0
DICTIONARY
  5
59B
330
15
100
AcDbDictionary
  3
ACAD_SORTENTS
360
59C
1001
ACAD
1000
TREAT_AS_HARD
1070
     1
  0
DICTIONARY
  5
2D0
102
{ACAD_REACTORS
330
C
102
}
330
C
100
AcDbDictionary
1001
ACAD
1000
TREAT_AS_HARD
1070
     0
  0
DICTIONARY
  5
D
102
{ACAD_REACTORS
330
C
102
}
330
C
100
AcDbDictionary
  3
*A1
350
1E9DA
  3
*A2
350
1EDFD
  3
*A3
350
1E7BB
  3
*A4
350
1E9D3
1001
ACAD
1000
TREAT_AS_HARD
1070
     0
  0
DICTIONARY
  5
2D1
102
{ACAD_REACTORS
330
C
102
}
330
C
100
AcDbDictionary
1001
ACAD
1000
TREAT_AS_HARD
1070
     0
  0
DICTIONARY
  5
2CF
102
{ACAD_REACTORS
330
C
102
}
330
C
100
AcDbDictionary
  3
BYBLOCK
350
19DD5
  3
BYLAYER
350
19DCD
  3
GLOBAL
350
19DDD
1001
ACAD
1000
TREAT_AS_HARD
1070
     0
  0
DICTIONARY
  5
19E18
102
{ACAD_REACTORS
330
C
102
}
330
C
100
AcDbDictionary
  3
STANDARD
350
19E19
1001
ACAD
1000
TREAT_AS_HARD
1070
     0
  0
DICTIONARY
  5
1B
102
{ACAD_REACTORS
330
C
102
}
330
C
100
AcDbDictionary
  3
STANDARD
350
1C
1001
ACAD
1000
TREAT_AS_HARD
1070
     0
  0
DICTIONARY
  5
2D2
102
{ACAD_REACTORS
330
C
102
}
330
C
100
AcDbDictionary
1001
ACAD
1000
TREAT_AS_HARD
1070
     0
  0
DICTIONARY
  5
19DF6
102
{ACAD_REACTORS
330
C
102
}
330
C
100
AcDbDictionary
  3
A0
350
19DF7
  3
A1
350
19DF8
  3
A2
350
19DF9
  3
A3
350
19DFA
  3
A4
350
19DFB
  3
A5
350
19DFC
  3
A6
350
19DFD
  3
A7
350
19DFE
  3
A8
350
19DFF
  3
A9
350
19E00
  3
B0
350
19E01
  3
B1
350
19E02
  3
B2
350
19E03
  3
B3
350
19E04
  3
B4
350
19E05
  3
B5
350
19E06
  3
B6
350
19E07
  3
B7
350
19E08
  3
B8
350
19E09
  3
B9
350
19E0A
  3
C0
350
19E0B
  3
C1
350
19E0C
  3
C2
350
19E0D
  3
C3
350
19E0E
  3
C4
350
19E0F
  3
C5
350
19E10
  3
C6
350
19E11
  3
C7
350
19E12
  3
C8
350
19E13
  3
C9
350
19E14
  3
D0
350
19E15
  3
D1
350
19E16
  3
D2
350
19E17
1001
ACAD
1000
TREAT_AS_HARD
1070
     0
  0
DICTIONARY
  5
19DE5
102
{ACAD_REACTORS
330
C
102
}
330
C
100
AcDbDictionary
  3
2DWIREFRAME
350
19DEB
  3
3D_HIDDEN
350
19DED
  3
3DWIREFRAME
350
19DEC
  3
BASIC
350
19DEA
  3
BRIGHTEN
350
19DF1
  3
COLORCHANGE
350
19DF5
  3
CONCEPTUAL
350
19DEE
  3
DIM
350
19DF0
  3
EDGECOLOROFF
350
1E02A
  3
FACEPATTERN
350
19DF4
  3
FLAT
350
19DE6
  3
FLATWITHEDGES
350
19DE7
  3
GOURAUD
350
19DE8
  3
GOURAUDWITHEDGES
350
19DE9
  3
HIDDEN
350
1FE4A
  3
JITTEROFF
350
1E028
  3
LINEPATTERN
350
19DF3
  3
MODELING
350
1FE50
  3
OVERHANGOFF
350
1E029
  3
REALISTIC
350
19DEF
  3
SHADED
350
1FE4F
  3
SHADED_WITH_EDGES
350
1FE4E
  3
SHADES_OF_GRAY
350
1FE4B
  3
SKETCHY
350
1FE4C
  3
THICKEN
350
19DF2
  3
WIREFRAME
350
1FE49
  3
X-RAY
350
1FE4D
1001
ACAD
1000
TREAT_AS_HARD
1070
     0
  0
DICTIONARY
  5
21A6D
102
{ACAD_REACTORS
330
C
102
}
330
C
100
AcDbDictionary
  3
COLORDICT
350
21A6E
  3
MATERIALDICT
350
21A6F
1001
ACAD
1000
TREAT_AS_HARD
1070
     0
  0
DICTIONARY
  5
37
102
{ACAD_REACTORS
330
C
102
}
330
C
100
AcDbDictionary
  3
CANNOSCALE
350
20611
  3
CMLEADERSTYLE
350
1AC19
  3
CTABLESTYLE
350
4F1
  3
DIMADEC
350
38
  3
DIMASSOC
350
408
  3
HIDETEXT
350
1891
  3
INDEXCTL
350
1AC1C
  3
INTERSECTIONCOLOR
350
1895
  3
INTERSECTIONDISPLAY
350
1894
  3
MSLTSCALE
350
20667
  3
OBSCOLOR
350
1892
  3
OBSLTYPE
350
1893
  3
PROJECTNAME
350
409
  3
SORTENTS
350
1AC1B
  3
XCLIPFRAME
350
1FE48
1001
ACAD
1000
TREAT_AS_HARD
1070
     0
  0
DICTIONARY
  5
D8
102
{ACAD_REACTORS
330
C
102
}
330
C
100
AcDbDictionary
1001
CONTENTTABDATA
1070
    11
1000
Child
1000
D:\ACLT\TABset\CHILDREN.dwg
1070
     0
1070
     0
1070
     1
1000
PK
1000
D:\ACLT\TABset\PK.dwg
1070
     0
1070
     0
1070
     1
1000
Lev1
1000
D:\ACLT\TABset\Lever01.dwg
1070
     0
1070
     0
1070
     1
1000
Lev2
1000
D:\ACLT\TABset\Lever02.dwg
1070
     0
1070
     0
1070
     1
1000
L3
1000
D:\Aclt\TABset\Lever03.dwg
1070
     0
1070
     0
1070
     1
1000
Form
1000
D:\ACLT\FORMAT
1070
     1
1070
     0
1070
     1
1000
Jnt
1000
D:\ACLT\TABset\JOINTPARTS.dwg
1070
     0
1070
     0
1070
     1
1000
ISO
1000
D:\ACLT\TABset\Isome01.dwg
1070
     0
1070
     0
1070
     1
1000
R
1000
D:\ACLT\TABset\REGION.dwg
1070
     0
1070
     0
1070
     1
1000
std
1000
D:\ACLT\TABset\std_sym_all.dwg
1070
     0
1070
     0
1070
     1
1000
丸
1000
D:\Aclt\TABset\MARU.dwg
1070
     0
1070
     0
1070
     1
1001
CONTENTCURRENTTAB
1070
     0
1001
ACAD
1000
TREAT_AS_HARD
1070
     0
  0
DICTIONARY
  5
20
102
{ACAD_REACTORS
330
C
102
}
330
C
100
AcDbDictionary
1001
DRAWINGVARIABLESXDATA
1000
POLARANG
1000
0.261799387799149410000000
1000
POLARMODE
1000
1
1000
POLARSTYLE
1000
1
1001
ACAD
1000
TREAT_AS_HARD
1070
     0
  0
XRECORD
  5
21A70
102
{ACAD_REACTORS
330
C
102
}
330
C
100
AcDbXrecord
  1
DWGPROPS COOKIE
  2

  3

  4

  6

  7

  8
3684
  9

300
=
301
=
302
=
303
=
304
=
305
=
306
=
307
=
308
=
309
=
 40
0.0
 41
2453033.357663484
 42
2459535.012390023
  1

 90
        0
  0
DICTIONARY
  5
18FE9
102
{ACAD_REACTORS
330
18FE8
102
}
330
18FE8
100
AcDbDictionary
1001
ACAD
1000
TREAT_AS_HARD
1070
     0
  0
ACAD_PROXY_OBJECT
  5
1A20B
102
{ACAD_REACTORS
330
1A20A
102
}
330
1A20A
100
AcDbZombieObject
 90
      499
 91
      517
 93
       34
310
40C8804040
  0
ACAD_PROXY_OBJECT
  5
1A20D
102
{ACAD_REACTORS
330
1A20C
102
}
330
1A20C
100
AcDbZombieObject
 90
      499
 91
      517
 93
       34
310
40C8804040
  0
ACAD_PROXY_OBJECT
  5
1A20F
102
{ACAD_REACTORS
330
1A20E
102
}
330
1A20E
100
AcDbZombieObject
 90
      499
 91
      517
 93
       34
310
40C8804040
  0
ACAD_PROXY_OBJECT
  5
1A219
102
{ACAD_REACTORS
330
1A218
102
}
330
1A218
100
AcDbZombieObject
 90
      499
 91
      517
 93
       34
310
40C8804040
  0
ACAD_PROXY_OBJECT
  5
1A21D
102
{ACAD_REACTORS
330
1A21C
102
}
330
1A21C
100
AcDbZombieObject
 90
      499
 91
      517
 93
       34
310
40C8804040
  0
ACAD_PROXY_OBJECT
  5
1A221
102
{ACAD_REACTORS
330
1A220
102
}
330
1A220
100
AcDbZombieObject
 90
      499
 91
      517
 93
       34
310
40C8804040
  0
SORTENTSTABLE
  5
6EA
102
{ACAD_REACTORS
330
6E9
102
}
330
6E9
100
AcDbSortentsTable
330
18
331
0
  5
99AB
331
0
  5
AB53
331
0
  5
AB54
331
0
  5
ECB5
331
1D8CA
  5
1E9D0
331
1D90A
  5
1E9D1
331
0
  5
1DB93
331
1DB9B
  5
1EE64
331
1DBA4
  5
1EE65
331
1DBA5
  5
1EE66
331
1DBA6
  5
1EE6A
331
0
  5
1E232
331
0
  5
1E233
331
0
  5
1E235
331
0
  5
1E236
331
0
  5
1E7B5
331
0
  5
1E7B6
331
0
  5
1E7BA
331
0
  5
1E7B8
331
1E7B5
  5
21449
331
1E7B6
  5
2144A
331
1E7B7
  5
2144B
331
1E7B8
  5
2144E
331
1E7B9
  5
2144F
331
0
  5
1E9D4
331
1E9CD
  5
216EB
331
1E9CE
  5
216EC
331
1E9CF
  5
216ED
331
1E9D0
  5
216EF
331
1E9D1
  5
216F1
331
0
  5
1E9DB
331
1E9D4
  5
21939
331
1E9D5
  5
2193A
331
1E9D6
  5
2193B
331
1E9D7
  5
2193C
331
1E9D8
  5
2193D
331
0
  5
1EE5D
331
1EE54
  5
21994
331
1EE55
  5
21995
331
1EE56
  5
21996
331
1EE57
  5
2199A
331
1EE58
  5
2199B
331
1EE59
  5
2199C
331
1EE5A
  5
219A0
331
1EE5B
  5
219A1
331
1EE5D
  5
219A2
331
1EE5E
  5
219A3
331
1EE5F
  5
219A4
331
1EE60
  5
219A5
331
1EE62
  5
219A6
331
1EE63
  5
219A7
331
1EE64
  5
219A8
331
1EE65
  5
219A9
331
1EE71
  5
219AA
331
1EE72
  5
219AB
331
0
  5
1FA39
331
0
  5
20992
331
0
  5
20993
331
20992
  5
219CA
331
20993
  5
219CB
331
20994
  5
219CC
331
20995
  5
219CD
331
0
  5
21185
331
0
  5
21396
331
0
  5
21397
331
21396
  5
219ED
331
21397
  5
219EE
331
21398
  5
219EF
331
21399
  5
219F0
331
2139A
  5
219F1
331
2139B
  5
219F2
331
2139C
  5
219F3
331
2139F
  5
219F4
331
213A5
  5
219F5
331
213A6
  5
219F6
331
213A7
  5
219F7
331
21427
  5
219F8
331
21428
  5
219F9
331
21429
  5
219FA
331
2142A
  5
219FB
331
2142B
  5
219FC
331
2142C
  5
219FD
331
2142D
  5
219FE
331
2142E
  5
219FF
331
2142F
  5
21A00
331
21430
  5
21A01
331
21431
  5
21A02
331
21432
  5
21A03
331
21433
  5
21A04
331
21434
  5
21A05
331
21435
  5
21A06
331
21436
  5
21A07
331
21437
  5
21A08
331
21438
  5
21A09
331
21439
  5
21A0A
331
2143A
  5
21A0B
331
2143B
  5
21A0C
331
2143C
  5
21A0D
331
2143D
  5
21A0E
331
2143E
  5
21A0F
331
2143F
  5
21A10
331
21440
  5
21A11
331
21441
  5
21A12
331
21442
  5
21A13
331
21443
  5
21A14
331
21444
  5
21A15
331
21445
  5
21A16
331
21446
  5
21A17
331
21447
  5
21A18
331
21449
  5
21A19
331
2144A
  5
21A1A
331
2144B
  5
21A1B
331
2144E
  5
21A1C
331
2144F
  5
21A1D
331
21450
  5
21A1E
331
21451
  5
21A1F
331
21452
  5
21A20
331
2146F
  5
21A21
331
214F1
  5
21A22
331
214F2
  5
21A23
331
214F3
  5
21A24
331
214F4
  5
21A25
331
214F5
  5
21A26
331
214F6
  5
21A27
331
214F9
  5
21A28
331
214FA
  5
21A29
331
214FB
  5
21A2A
331
214FC
  5
21A2B
331
214FD
  5
21A2C
331
214FF
  5
21A2D
331
21500
  5
21A2E
331
21501
  5
21A2F
331
21502
  5
21A30
331
21503
  5
21A31
331
21504
  5
21A32
331
21506
  5
21A33
331
21507
  5
21A34
331
21508
  5
21A35
331
21509
  5
21A36
331
2150A
  5
21A37
331
2150B
  5
21A38
331
2150C
  5
21A39
331
21586
  5
21A3A
331
21587
  5
21A3B
331
21588
  5
21A3C
331
2158A
  5
21A3D
331
2158B
  5
21A3E
331
2158E
  5
21A3F
331
2158F
  5
21A40
331
21590
  5
21A41
331
21591
  5
21A42
331
21592
  5
21A43
331
21593
  5
21A44
331
21594
  5
21A45
331
21595
  5
21A46
331
21596
  5
21A47
331
21597
  5
21A48
331
21598
  5
21A49
331
21599
  5
21A4A
331
2159A
  5
21A4B
331
2159B
  5
21A4C
331
2159C
  5
21A4D
331
2159D
  5
21A4E
331
2159E
  5
21A4F
331
2159F
  5
21A50
331
215A0
  5
21A51
331
215A1
  5
21A52
331
215FA
  5
21A53
331
215FB
  5
21A54
331
215FC
  5
21A55
331
215FE
  5
21A56
331
215FF
  5
21A57
331
21609
  5
21A58
331
2160A
  5
21A59
331
2160B
  5
21A5A
331
2160C
  5
21A5B
331
2160D
  5
21A5C
331
2169D
  5
21A5D
331
2169F
  5
21A5E
331
216A1
  5
21A5F
331
216A2
  5
21A60
331
216A3
  5
21A61
331
216A4
  5
21A62
331
216A5
  5
21A63
331
216A6
  5
21A64
331
216E6
  5
21A65
331
216E9
  5
21A66
331
216EA
  5
21A67
331
216EB
  5
21A68
331
216EC
  5
21A69
331
216ED
  5
21A6A
331
216EF
  5
21A6B
331
216F1
  5
21A6C
331
218EF
  5
21444
331
218F0
  5
21447
331
218F1
  5
1D8CE
331
218F2
  5
1D910
331
218F3
  5
1DB9F
331
218F4
  5
1DBA8
331
218F5
  5
1DF13
331
218F6
  5
1DFD9
331
218F7
  5
1E7B7
331
218F8
  5
1E7ED
331
218F9
  5
1E9CE
331
218FA
  5
1E9CF
331
218FB
  5
1E9D2
331
218FC
  5
1E9D5
331
218FD
  5
1E9D6
331
0
  5
1E9D7
331
0
  5
1E9D8
331
0
  5
1E9D9
331
21901
  5
1EE6B
331
21902
  5
1EE71
331
21903
  5
1F400
331
0
  5
1EE60
331
0
  5
1EE62
331
0
  5
1EE63
331
21907
  5
213A5
331
21908
  5
213A6
331
21909
  5
213A7
331
0
  5
1EE67
331
0
  5
1EE68
331
0
  5
1EE69
331
2190D
  5
2142E
331
2190E
  5
2142F
331
2190F
  5
21430
331
0
  5
1F3FB
331
0
  5
1F3FC
331
0
  5
1F3FF
331
21913
  5
21438
331
21914
  5
21439
331
21915
  5
2143A
331
0
  5
21158
331
0
  5
21166
331
0
  5
21398
331
21919
  5
21442
331
2191A
  5
21443
331
2191B
  5
21445
331
2191C
  5
21446
331
2191D
  5
21450
331
2191E
  5
21451
331
2191F
  5
21452
331
21920
  5
2146F
331
21921
  5
214F1
331
21922
  5
214F2
331
21923
  5
214F3
331
21924
  5
214F4
331
21925
  5
214F5
331
21926
  5
214F6
331
21927
  5
214F9
331
21928
  5
214FA
331
21929
  5
214FB
331
2192A
  5
214FC
331
2192B
  5
214FD
331
2192C
  5
214FF
331
2192D
  5
21500
331
2192E
  5
21501
331
2192F
  5
21502
331
21930
  5
21503
331
21931
  5
21504
331
21932
  5
21506
331
21933
  5
21507
331
21934
  5
21508
331
21935
  5
21509
331
21936
  5
2150A
331
21937
  5
2150B
331
21938
  5
2150C
331
21939
  5
21586
331
2193A
  5
21587
331
2193B
  5
21588
331
2193C
  5
2158A
331
2193D
  5
2158B
331
2193E
  5
2158E
331
2193F
  5
2158F
331
21940
  5
21590
331
21941
  5
21591
331
21942
  5
21592
331
21943
  5
21593
331
21944
  5
21594
331
21945
  5
21595
331
21946
  5
21596
331
21947
  5
21597
331
21948
  5
21598
331
21949
  5
21599
331
2194A
  5
2159A
331
2194B
  5
2159B
331
2194C
  5
2159C
331
2194D
  5
2159D
331
2194E
  5
2159E
331
2194F
  5
2159F
331
21950
  5
215A0
331
21951
  5
215A1
331
21952
  5
215FA
331
21953
  5
215FB
331
21954
  5
215FC
331
21955
  5
215FE
331
21956
  5
215FF
331
21957
  5
21609
331
21958
  5
2160A
331
21959
  5
2160B
331
2195A
  5
2160C
331
2195B
  5
2160D
331
2195C
  5
2169D
331
2195D
  5
2169F
331
2195E
  5
216A1
331
2195F
  5
216A2
331
21960
  5
216A3
331
21961
  5
216A4
331
21962
  5
216A5
331
21963
  5
216A6
331
21964
  5
216E6
331
21965
  5
216E9
331
21966
  5
216EA
331
21967
  5
218EF
331
21968
  5
218F0
331
21969
  5
218F1
331
2196A
  5
218F2
331
2196B
  5
218F3
331
2196C
  5
218F4
331
2196D
  5
218F5
331
2196E
  5
218F6
331
2196F
  5
218F7
331
21970
  5
218F8
331
21971
  5
218F9
331
21972
  5
218FA
331
21973
  5
218FB
331
21974
  5
218FC
331
21975
  5
218FD
331
21976
  5
218FE
331
21977
  5
218FF
331
21978
  5
21900
331
21979
  5
21901
331
2197A
  5
21902
331
2197B
  5
21903
331
2197C
  5
21904
331
2197D
  5
21905
331
2197E
  5
21906
331
2197F
  5
21907
331
21980
  5
21908
331
21981
  5
21909
331
21982
  5
2190A
331
21983
  5
2190B
331
21984
  5
2190C
331
21985
  5
2190D
331
21986
  5
2190E
331
21987
  5
2190F
331
21988
  5
21910
331
21989
  5
21911
331
2198A
  5
21912
331
2198B
  5
21913
331
2198C
  5
21914
331
2198D
  5
21915
331
2198E
  5
21916
331
2198F
  5
21917
331
21990
  5
21918
331
21991
  5
21919
331
21992
  5
2191A
331
21993
  5
2191B
331
21994
  5
2191C
331
21995
  5
2191D
331
21996
  5
2191E
331
21997
  5
2191F
331
21998
  5
21920
331
21999
  5
21921
331
2199A
  5
21922
331
2199B
  5
21923
331
2199C
  5
21924
331
2199D
  5
21925
331
2199E
  5
21926
331
2199F
  5
21927
331
219A0
  5
21928
331
219A1
  5
21929
331
219A2
  5
2192A
331
219A3
  5
2192B
331
219A4
  5
2192C
331
219A5
  5
2192D
331
219A6
  5
2192E
331
219A7
  5
2192F
331
219A8
  5
21930
331
219A9
  5
21931
331
219AA
  5
21932
331
219AB
  5
21933
331
219AC
  5
21934
331
219AD
  5
21935
331
219AE
  5
21936
331
219AF
  5
21937
331
219B0
  5
21938
331
219B1
  5
2193E
331
219B2
  5
2193F
331
219B3
  5
21940
331
219B4
  5
21941
331
219B5
  5
21942
331
219B6
  5
21943
331
219B7
  5
21944
331
219B8
  5
21945
331
219B9
  5
21946
331
219BA
  5
21947
331
219BB
  5
21948
331
219BC
  5
21949
331
219BD
  5
2194A
331
219BE
  5
2194B
331
219BF
  5
2194C
331
219C0
  5
2194D
331
219C1
  5
2194E
331
219C2
  5
2194F
331
219C3
  5
21950
331
219C4
  5
21951
331
219C5
  5
21952
331
219C6
  5
21953
331
219C7
  5
21954
331
219C8
  5
21955
331
219C9
  5
21956
331
219CA
  5
21957
331
219CB
  5
21958
331
219CC
  5
21959
331
219CD
  5
2195A
331
219CE
  5
2195B
331
219CF
  5
2195C
331
219D0
  5
2195D
331
219D1
  5
2195E
331
219D2
  5
2195F
331
219D3
  5
21960
331
219D4
  5
21961
331
219D5
  5
21962
331
219D6
  5
21963
331
219D7
  5
21964
331
219D8
  5
21965
331
219D9
  5
21966
331
219DA
  5
21967
331
219DB
  5
21968
331
219DC
  5
21969
331
219DD
  5
2196A
331
219DE
  5
2196B
331
219DF
  5
2196C
331
219E0
  5
2196D
331
219E1
  5
2196E
331
219E2
  5
2196F
331
219E3
  5
21970
331
219E4
  5
21971
331
219E5
  5
21972
331
219E6
  5
21973
331
219E7
  5
21974
331
219E8
  5
21975
331
219E9
  5
21976
331
219EA
  5
21977
331
219EB
  5
21978
331
219EC
  5
21979
331
219ED
  5
2197D
331
219EE
  5
2197E
331
219EF
  5
2197F
331
219F0
  5
21983
331
219F1
  5
21984
331
219F2
  5
21985
331
219F3
  5
21989
331
219F4
  5
2198A
331
219F5
  5
2198B
331
219F6
  5
2198C
331
219F7
  5
2198D
331
219F8
  5
2198E
331
219F9
  5
2198F
331
219FA
  5
21990
331
219FB
  5
219AC
331
219FC
  5
219AD
331
219FD
  5
219AE
331
0
  5
2197A
331
0
  5
2197B
331
0
  5
2197C
331
21A01
  5
219B6
331
21A02
  5
219B7
331
21A03
  5
219B8
331
0
  5
21980
331
0
  5
21981
331
0
  5
21982
331
21A07
  5
219C0
331
21A08
  5
219C1
331
21A09
  5
219C2
331
0
  5
21986
331
0
  5
21987
331
0
  5
21988
331
21A0D
  5
219CE
331
21A0E
  5
219CF
331
21A0F
  5
219D0
331
21A10
  5
219D1
331
0
  5
21991
331
0
  5
21992
331
0
  5
21993
331
21A14
  5
219D9
331
21A15
  5
219DA
331
21A16
  5
219DB
331
0
  5
21997
331
0
  5
21998
331
0
  5
21999
331
21A1A
  5
219E3
331
21A1B
  5
219E4
331
21A1C
  5
219E5
331
0
  5
2199D
331
0
  5
2199E
331
0
  5
2199F
331
21A20
  5
1E9E5
331
21A21
  5
1E9E6
331
21A22
  5
1E9E7
331
21A23
  5
1E9E8
331
21A24
  5
1EE5B
331
21A25
  5
1EE5E
331
21A26
  5
1EE5F
331
21A27
  5
20994
331
21A28
  5
20995
331
21A29
  5
21399
331
21A2A
  5
2139A
331
21A2B
  5
2139B
331
21A2C
  5
2139C
331
21A2D
  5
2139F
331
21A2E
  5
21427
331
21A2F
  5
21428
331
21A30
  5
21429
331
21A31
  5
2142A
331
21A32
  5
2142B
331
21A33
  5
2142C
331
21A34
  5
2142D
331
21A35
  5
21431
331
21A36
  5
21432
331
21A37
  5
21433
331
21A38
  5
21434
331
21A39
  5
21435
331
21A3A
  5
21436
331
21A3B
  5
21437
331
21A3C
  5
2143B
331
21A3D
  5
2143C
331
21A3E
  5
2143D
331
21A3F
  5
2143E
331
21A40
  5
2143F
331
21A41
  5
21440
331
21A42
  5
21441
331
21A43
  5
219AF
331
21A44
  5
219B0
331
21A45
  5
219B1
331
21A46
  5
219B2
331
21A47
  5
219B3
331
21A48
  5
219B4
331
21A49
  5
219B5
331
21A4A
  5
219B9
331
21A4B
  5
219BA
331
21A4C
  5
219BB
331
21A4D
  5
219BC
331
21A4E
  5
219BD
331
21A4F
  5
219BE
331
21A50
  5
219BF
331
21A51
  5
219C3
331
21A52
  5
219C4
331
21A53
  5
219C5
331
21A54
  5
219C6
331
21A55
  5
219C7
331
21A56
  5
219C8
331
21A57
  5
219C9
331
21A58
  5
219D2
331
21A59
  5
219D3
331
21A5A
  5
219D4
331
21A5B
  5
219D5
331
21A5C
  5
219D6
331
21A5D
  5
219D7
331
21A5E
  5
219D8
331
21A5F
  5
219DC
331
21A60
  5
219DD
331
21A61
  5
219DE
331
21A62
  5
219DF
331
21A63
  5
219E0
331
21A64
  5
219E1
331
21A65
  5
219E2
331
21A66
  5
219E6
331
21A67
  5
219E7
331
21A68
  5
219E8
331
21A69
  5
219E9
331
21A6A
  5
219EA
331
21A6B
  5
219EB
331
21A6C
  5
219EC
  0
SORTENTSTABLE
  5
59C
102
{ACAD_REACTORS
330
59B
102
}
330
59B
100
AcDbSortentsTable
330
15
331
57
  5
57
331
0
  5
70
  0
GROUP
  5
1E9DA
102
{ACAD_REACTORS
330
D
102
}
330
D
100
AcDbGroup
300

 70
     1
 71
     1
340
1E9D8
340
1E9D7
340
1E9D6
340
1E9D5
340
1E9D4
  0
GROUP
  5
1EDFD
102
{ACAD_REACTORS
330
D
102
}
330
D
100
AcDbGroup
300

 70
     1
 71
     1
340
1DBA6
340
1DBA5
340
1DBA4
  0
GROUP
  5
1E7BB
102
{ACAD_REACTORS
330
D
102
}
330
D
100
AcDbGroup
300

 70
     1
 71
     1
340
1E7B9
340
1E7B8
340
1E7B7
340
1E7B6
340
1E7B5
  0
GROUP
  5
1E9D3
102
{ACAD_REACTORS
330
D
102
}
330
D
100
AcDbGroup
300

 70
     1
 71
     1
340
1E9D1
340
1E9D0
340
1E9CF
340
1E9CE
340
1E9CD
  0
MATERIAL
  5
19DD5
102
{ACAD_REACTORS
330
2CF
102
}
102
{ACAD_XDICTIONARY
360
21C0B
102
}
330
2CF
100
AcDbMaterial
  1
BYBLOCK
 72
     0
 73
     2
 43
0.0208333333333333
 43
0.0
 43
0.0
 43
0.0
 43
0.0
 43
0.0208333333333333
 43
0.0
 43
0.0
 43
0.0
 43
0.0
 43
1.0
 43
0.0
 43
0.0
 43
0.0
 43
0.0
 43
1.0
 77
     0
 78
     2
 47
0.0208333333333333
 47
0.0
 47
0.0
 47
0.0
 47
0.0
 47
0.0208333333333333
 47
0.0
 47
0.0
 47
0.0
 47
0.0
 47
1.0
 47
0.0
 47
0.0
 47
0.0
 47
0.0
 47
1.0
171
     0
172
     2
 49
0.0208333333333333
 49
0.0
 49
0.0
 49
0.0
 49
0.0
 49
0.0208333333333333
 49
0.0
 49
0.0
 49
0.0
 49
0.0
 49
1.0
 49
0.0
 49
0.0
 49
0.0
 49
0.0
 49
1.0
175
     0
176
     2
142
0.0208333333333333
142
0.0
142
0.0
142
0.0
142
0.0
142
0.0208333333333333
142
0.0
142
0.0
142
0.0
142
0.0
142
1.0
142
0.0
142
0.0
142
0.0
142
0.0
142
1.0
179
     0
270
     2
144
0.0208333333333333
144
0.0
144
0.0
144
0.0
144
0.0
144
0.0208333333333333
144
0.0
144
0.0
144
0.0
144
0.0
144
1.0
144
0.0
144
0.0
144
0.0
144
0.0
144
1.0
274
     2
147
0.0208333333333333
147
0.0
147
0.0
147
0.0
147
0.0
147
0.0208333333333333
147
0.0
147
0.0
147
0.0
147
0.0
147
1.0
147
0.0
147
0.0
147
0.0
147
0.0
147
1.0
  0
MATERIAL
  5
19DCD
102
{ACAD_REACTORS
330
2CF
102
}
102
{ACAD_XDICTIONARY
360
21C0D
102
}
330
2CF
100
AcDbMaterial
  1
BYLAYER
 72
     0
 73
     2
 43
0.0208333333333333
 43
0.0
 43
0.0
 43
0.0
 43
0.0
 43
0.0208333333333333
 43
0.0
 43
0.0
 43
0.0
 43
0.0
 43
1.0
 43
0.0
 43
0.0
 43
0.0
 43
0.0
 43
1.0
 77
     0
 78
     2
 47
0.0208333333333333
 47
0.0
 47
0.0
 47
0.0
 47
0.0
 47
0.0208333333333333
 47
0.0
 47
0.0
 47
0.0
 47
0.0
 47
1.0
 47
0.0
 47
0.0
 47
0.0
 47
0.0
 47
1.0
171
     0
172
     2
 49
0.0208333333333333
 49
0.0
 49
0.0
 49
0.0
 49
0.0
 49
0.0208333333333333
 49
0.0
 49
0.0
 49
0.0
 49
0.0
 49
1.0
 49
0.0
 49
0.0
 49
0.0
 49
0.0
 49
1.0
175
     0
176
     2
142
0.0208333333333333
142
0.0
142
0.0
142
0.0
142
0.0
142
0.0208333333333333
142
0.0
142
0.0
142
0.0
142
0.0
142
1.0
142
0.0
142
0.0
142
0.0
142
0.0
142
1.0
179
     0
270
     2
144
0.0208333333333333
144
0.0
144
0.0
144
0.0
144
0.0
144
0.0208333333333333
144
0.0
144
0.0
144
0.0
144
0.0
144
1.0
144
0.0
144
0.0
144
0.0
144
0.0
144
1.0
274
     2
147
0.0208333333333333
147
0.0
147
0.0
147
0.0
147
0.0
147
0.0208333333333333
147
0.0
147
0.0
147
0.0
147
0.0
147
1.0
147
0.0
147
0.0
147
0.0
147
0.0
147
1.0
  0
MATERIAL
  5
19DDD
102
{ACAD_REACTORS
330
2CF
102
}
102
{ACAD_XDICTIONARY
360
21C0F
102
}
330
2CF
100
AcDbMaterial
  1
GLOBAL
 72
     0
 73
     2
 43
0.0208333333333333
 43
0.0
 43
0.0
 43
0.0
 43
0.0
 43
0.0208333333333333
 43
0.0
 43
0.0
 43
0.0
 43
0.0
 43
1.0
 43
0.0
 43
0.0
 43
0.0
 43
0.0
 43
1.0
 77
     0
 78
     2
 47
0.0208333333333333
 47
0.0
 47
0.0
 47
0.0
 47
0.0
 47
0.0208333333333333
 47
0.0
 47
0.0
 47
0.0
 47
0.0
 47
1.0
 47
0.0
 47
0.0
 47
0.0
 47
0.0
 47
1.0
171
     0
172
     2
 49
0.0208333333333333
 49
0.0
 49
0.0
 49
0.0
 49
0.0
 49
0.0208333333333333
 49
0.0
 49
0.0
 49
0.0
 49
0.0
 49
1.0
 49
0.0
 49
0.0
 49
0.0
 49
0.0
 49
1.0
175
     0
176
     2
142
0.0208333333333333
142
0.0
142
0.0
142
0.0
142
0.0
142
0.0208333333333333
142
0.0
142
0.0
142
0.0
142
0.0
142
1.0
142
0.0
142
0.0
142
0.0
142
0.0
142
1.0
179
     0
270
     2
144
0.0208333333333333
144
0.0
144
0.0
144
0.0
144
0.0
144
0.0208333333333333
144
0.0
144
0.0
144
0.0
144
0.0
144
1.0
144
0.0
144
0.0
144
0.0
144
0.0
144
1.0
274
     2
147
0.0208333333333333
147
0.0
147
0.0
147
0.0
147
0.0
147
0.0208333333333333
147
0.0
147
0.0
147
0.0
147
0.0
147
1.0
147
0.0
147
0.0
147
0.0
147
0.0
147
1.0
  0
ACAD_PROXY_OBJECT
  5
19E19
102
{ACAD_REACTORS
330
19E18
102
}
330
19E18
100
AcDbZombieObject
 90
      499
 91
      512
 93
      610
310
40901902A4063FBFFFFFE000000000000002040AD7A3703D0AD73F4214DD185B99185C990000000000000104090141901A00000000000004100000000000000041025764000000000000300FC0
340
12
340
0
340
F
340
0
 94
        0
1001
ACAD_MLEADERVER
1070
     2
  0
MLINESTYLE
  5
1C
102
{ACAD_REACTORS
330
1B
102
}
330
1B
100
AcDbMlineStyle
  2
STANDARD
 70
     0
  3

 62
   256
 51
90.0
 52
90.0
 71
     2
 49
0.5
 62
   256
  6
BYLAYER
 49
-0.5
 62
   256
  6
BYLAYER
  0
ACAD_PROXY_OBJECT
  5
19DF7
102
{ACAD_REACTORS
330
19DF6
102
}
330
19DF6
100
AcDbZombieObject
 90
      499
 91
      511
 93
       41
310
903313A31580
  0
ACAD_PROXY_OBJECT
  5
19DF8
102
{ACAD_REACTORS
330
19DF6
102
}
330
19DF6
100
AcDbZombieObject
 90
      499
 91
      511
 93
      105
310
903313A324000000000000004000
  0
ACAD_PROXY_OBJECT
  5
19DF9
102
{ACAD_REACTORS
330
19DF6
102
}
330
19DF6
100
AcDbZombieObject
 90
      499
 91
      511
 93
      105
310
903313A344000000000000104000
  0
ACAD_PROXY_OBJECT
  5
19DFA
102
{ACAD_REACTORS
330
19DF6
102
}
330
19DF6
100
AcDbZombieObject
 90
      499
 91
      511
 93
      105
310
903313A354000000000000144000
  0
ACAD_PROXY_OBJECT
  5
19DFB
102
{ACAD_REACTORS
330
19DF6
102
}
330
19DF6
100
AcDbZombieObject
 90
      499
 91
      511
 93
      105
310
903313A384000000000000204000
  0
ACAD_PROXY_OBJECT
  5
19DFC
102
{ACAD_REACTORS
330
19DF6
102
}
330
19DF6
100
AcDbZombieObject
 90
      499
 91
      511
 93
      113
310
904313A31304000000000000244000
  0
ACAD_PROXY_OBJECT
  5
19DFD
102
{ACAD_REACTORS
330
19DF6
102
}
330
19DF6
100
AcDbZombieObject
 90
      499
 91
      511
 93
      113
310
904313A31364000000000000304000
  0
ACAD_PROXY_OBJECT
  5
19DFE
102
{ACAD_REACTORS
330
19DF6
102
}
330
19DF6
100
AcDbZombieObject
 90
      499
 91
      511
 93
      113
310
904313A32304000000000000344000
  0
ACAD_PROXY_OBJECT
  5
19DFF
102
{ACAD_REACTORS
330
19DF6
102
}
330
19DF6
100
AcDbZombieObject
 90
      499
 91
      511
 93
      113
310
904313A333040000000000003E4000
  0
ACAD_PROXY_OBJECT
  5
19E00
102
{ACAD_REACTORS
330
19DF6
102
}
330
19DF6
100
AcDbZombieObject
 90
      499
 91
      511
 93
      113
310
904313A34304000000000000444000
  0
ACAD_PROXY_OBJECT
  5
19E01
102
{ACAD_REACTORS
330
19DF6
102
}
330
19DF6
100
AcDbZombieObject
 90
      499
 91
      511
 93
      113
310
904313A35304000000000000494000
  0
ACAD_PROXY_OBJECT
  5
19E02
102
{ACAD_REACTORS
330
19DF6
102
}
330
19DF6
100
AcDbZombieObject
 90
      499
 91
      511
 93
      121
310
905313A3130304000000000000594000
  0
ACAD_PROXY_OBJECT
  5
19E03
102
{ACAD_REACTORS
330
19DF6
102
}
330
19DF6
100
AcDbZombieObject
 90
      499
 91
      511
 93
      105
310
903323A310000000000000010100
  0
ACAD_PROXY_OBJECT
  5
19E04
102
{ACAD_REACTORS
330
19DF6
102
}
330
19DF6
100
AcDbZombieObject
 90
      499
 91
      511
 93
      105
310
903343A310000000000000410100
  0
ACAD_PROXY_OBJECT
  5
19E05
102
{ACAD_REACTORS
330
19DF6
102
}
330
19DF6
100
AcDbZombieObject
 90
      499
 91
      511
 93
      105
310
903383A310000000000000810100
  0
ACAD_PROXY_OBJECT
  5
19E06
102
{ACAD_REACTORS
330
19DF6
102
}
330
19DF6
100
AcDbZombieObject
 90
      499
 91
      511
 93
      113
310
90431303A310000000000000910100
  0
ACAD_PROXY_OBJECT
  5
19E07
102
{ACAD_REACTORS
330
19DF6
102
}
330
19DF6
100
AcDbZombieObject
 90
      499
 91
      511
 93
      121
310
9053130303A310000000000001650100
  0
ACAD_PROXY_OBJECT
  5
19E08
102
{ACAD_REACTORS
330
19DF6
102
}
330
19DF6
100
AcDbZombieObject
 90
      499
 91
      511
 93
      257
310
90E312F31323822203D2031272D3022000000000000200FC000000000000284000
  0
ACAD_PROXY_OBJECT
  5
19E09
102
{ACAD_REACTORS
330
19DF6
102
}
330
19DF6
100
AcDbZombieObject
 90
      499
 91
      511
 93
      249
310
90D312F363422203D2031272D3022000000000000240FC000000000000284000
  0
ACAD_PROXY_OBJECT
  5
19E0A
102
{ACAD_REACTORS
330
19DF6
102
}
330
19DF6
100
AcDbZombieObject
 90
      499
 91
      511
 93
      249
310
90D312F333222203D2031272D3022000000000000280FC000000000000284000
  0
ACAD_PROXY_OBJECT
  5
19E0B
102
{ACAD_REACTORS
330
19DF6
102
}
330
19DF6
100
AcDbZombieObject
 90
      499
 91
      511
 93
      249
310
90D312F313622203D2031272D30220000000000002C0FC000000000000284000
  0
ACAD_PROXY_OBJECT
  5
19E0C
102
{ACAD_REACTORS
330
19DF6
102
}
330
19DF6
100
AcDbZombieObject
 90
      499
 91
      511
 93
      249
310
90D332F333222203D2031272D30220000000000002E0FC000000000000284000
  0
ACAD_PROXY_OBJECT
  5
19E0D
102
{ACAD_REACTORS
330
19DF6
102
}
330
19DF6
100
AcDbZombieObject
 90
      499
 91
      511
 93
      241
310
90C312F3822203D2031272D3022000000000000300FC000000000000284000
  0
ACAD_PROXY_OBJECT
  5
19E0E
102
{ACAD_REACTORS
330
19DF6
102
}
330
19DF6
100
AcDbZombieObject
 90
      499
 91
      511
 93
      249
310
90D332F313622203D2031272D3022000000000000320FC000000000000284000
  0
ACAD_PROXY_OBJECT
  5
19E0F
102
{ACAD_REACTORS
330
19DF6
102
}
330
19DF6
100
AcDbZombieObject
 90
      499
 91
      511
 93
      241
310
90C312F3422203D2031272D3022000000000000340FC000000000000284000
  0
ACAD_PROXY_OBJECT
  5
19E10
102
{ACAD_REACTORS
330
19DF6
102
}
330
19DF6
100
AcDbZombieObject
 90
      499
 91
      511
 93
      241
310
90C332F3822203D2031272D3022000000000000360FC000000000000284000
  0
ACAD_PROXY_OBJECT
  5
19E11
102
{ACAD_REACTORS
330
19DF6
102
}
330
19DF6
100
AcDbZombieObject
 90
      499
 91
      511
 93
      241
310
90C312F3222203D2031272D3022000000000000380FC000000000000284000
  0
ACAD_PROXY_OBJECT
  5
19E12
102
{ACAD_REACTORS
330
19DF6
102
}
330
19DF6
100
AcDbZombieObject
 90
      499
 91
      511
 93
      241
310
90C332F3422203D2031272D30220000000000003A0FC000000000000284000
  0
ACAD_PROXY_OBJECT
  5
19E13
102
{ACAD_REACTORS
330
19DF6
102
}
330
19DF6
100
AcDbZombieObject
 90
      499
 91
      511
 93
      161
310
90A3122203D2031272D30224000000000000284000
  0
ACAD_PROXY_OBJECT
  5
19E14
102
{ACAD_REACTORS
330
19DF6
102
}
330
19DF6
100
AcDbZombieObject
 90
      499
 91
      511
 93
      257
310
90E312D312F3222203D2031272D30220000000000003E0FC000000000000284000
  0
ACAD_PROXY_OBJECT
  5
19E15
102
{ACAD_REACTORS
330
19DF6
102
}
330
19DF6
100
AcDbZombieObject
 90
      499
 91
      511
 93
      225
310
90A3322203D2031272D302200000000000002100000000000000284000
  0
ACAD_PROXY_OBJECT
  5
19E16
102
{ACAD_REACTORS
330
19DF6
102
}
330
19DF6
100
AcDbZombieObject
 90
      499
 91
      511
 93
      225
310
90A3622203D2031272D302200000000000006100000000000000284000
  0
ACAD_PROXY_OBJECT
  5
19E17
102
{ACAD_REACTORS
330
19DF6
102
}
330
19DF6
100
AcDbZombieObject
 90
      499
 91
      511
 93
      249
310
90D31272D3022203D2031272D30220000000000000A100000000000000284000
  0
ACAD_PROXY_OBJECT
  5
19DEB
102
{ACAD_REACTORS
330
19DE5
102
}
330
19DE5
100
AcDbZombieObject
 90
      499
 91
      510
 93
      436
310
42CC9915DA5C99599C985B595049028333333333333E3BF0000000000000FB0107901411070040501600405405064090741402480A0340
1001
ACAD
1000
AcDbSavedByObjectVersion
1070
     0
  0
ACAD_PROXY_OBJECT
  5
19DED
102
{ACAD_REACTORS
330
19DE5
102
}
330
19DE5
100
AcDbZombieObject
 90
      499
 91
      510
 93
      500
310
424CD108121A5919195B90640502408333333333333E3BF0000000000000FB01079024090700405020000000000001110200405405064090740C02480A0340
1001
ACAD
1000
AcDbSavedByObjectVersion
1070
     0
  0
ACAD_PROXY_OBJECT
  5
19DEC
102
{ACAD_REACTORS
330
19DE5
102
}
330
19DE5
100
AcDbZombieObject
 90
      499
 91
      510
 93
      436
310
42CCD915DA5C99599C985B595059028333333333333E3BF0000000000000FB0107901411070040501600405405064090741402480A0340
1001
ACAD
1000
AcDbSavedByObjectVersion
1070
     0
  0
ACAD_PROXY_OBJECT
  5
19DEA
102
{ACAD_REACTORS
330
19DE5
102
}
330
19DE5
100
AcDbZombieObject
 90
      499
 91
      510
 93
      388
310
4150985CDA58D07406404333333333333E3BF0000000000000FB0107A41107004050150841D405064090741402480A0350
1001
ACAD
1000
AcDbSavedByObjectVersion
1070
     0
  0
ACAD_PROXY_OBJECT
  5
19DF1
102
{ACAD_REACTORS
330
19DE5
102
}
330
19DE5
100
AcDbZombieObject
 90
      499
 91
      510
 93
      428
310
42109C9A59DA1D195B90C409028333333333333E3BF0000000000000FB010790141107004050150841D405064090741402480A029950
1001
ACAD
1000
AcDbSavedByObjectVersion
1070
     0
  0
ACAD_PROXY_OBJECT
  5
19DF5
102
{ACAD_REACTORS
330
19DE5
102
}
330
19DE5
100
AcDbZombieObject
 90
      499
 91
      510
 93
      452
310
42D0DBDB1BDC90DA185B99D95104090240C333333333333E3BF0000000000000FB0108901411070040501508421405064090741402480A0350
1001
ACAD
1000
AcDbSavedByObjectVersion
1070
     0
  0
ACAD_PROXY_OBJECT
  5
19DEE
102
{ACAD_REACTORS
330
19DE5
102
}
330
19DE5
100
AcDbZombieObject
 90
      499
 91
      510
 93
      500
310
4290DBDB98D95C1D1D585B10940D028333333333333E3BF0000000000000FB0107902409070040501000000000000111010841D405064090740C02480A0340
1001
ACAD
1000
AcDbSavedByObjectVersion
1070
     0
  0
ACAD_PROXY_OBJECT
  5
19DF0
102
{ACAD_REACTORS
330
19DE5
102
}
330
19DE5
100
AcDbZombieObject
 90
      499
 91
      510
 93
      412
310
40D11A5B50B409028333333333333E3BF0000000000000FB010790141107004050150841D405064090741402480A02677FFFFFD0
1001
ACAD
1000
AcDbSavedByObjectVersion
1070
     0
  0
ACAD_PROXY_OBJECT
  5
1E02A
102
{ACAD_REACTORS
330
19DE5
102
}
330
19DE5
100
AcDbZombieObject
 90
      499
 91
      510
 93
      452
310
43115919D950DBDB1BDC93D999916409028333333333333E3BF0000000000000FB010790141107004050150841D405064090741402480A0350
1001
ACAD
1000
AcDbSavedByObjectVersion
1070
     0
  0
ACAD_PROXY_OBJECT
  5
19DF4
102
{ACAD_REACTORS
330
19DE5
102
}
330
19DE5
100
AcDbZombieObject
 90
      499
 91
      510
 93
      444
310
42D19858D95C185D1D195C9B90F409028333333333333E3BF0000000000000FB010790141107004050150841D405064090741402480A0350
1001
ACAD
1000
AcDbSavedByObjectVersion
1070
     0
  0
ACAD_PROXY_OBJECT
  5
19DE6
102
{ACAD_REACTORS
330
19DE5
102
}
330
19DE5
100
AcDbZombieObject
 90
      499
 91
      510
 93
      388
310
41119B185D240901404333333333333E3BF0000000000000F9010740A41107004050150841D405064090741402480A1B50
1001
ACAD
1000
AcDbSavedByObjectVersion
1070
     0
  0
ACAD_PROXY_OBJECT
  5
19DE7
102
{ACAD_REACTORS
330
19DE5
102
}
330
19DE5
100
AcDbZombieObject
 90
      499
 91
      510
 93
      476
310
43519B185D15DA5D1A115919D95CD0140901404333333333333E3BF0000000000000F9010740901411070040501600405405064090741402480A1B50
1001
ACAD
1000
AcDbSavedByObjectVersion
1070
     0
  0
ACAD_PROXY_OBJECT
  5
19DE8
102
{ACAD_REACTORS
330
19DE5
102
}
330
19DE5
100
AcDbZombieObject
 90
      499
 91
      510
 93
      412
310
41D1DBDD5C985D5910240902404333333333333E3BF0000000000000F9010740A411070040501641D405064090741402480A1B50
1001
ACAD
1000
AcDbSavedByObjectVersion
1070
     0
  0
ACAD_PROXY_OBJECT
  5
19DE9
102
{ACAD_REACTORS
330
19DE5
102
}
330
19DE5
100
AcDbZombieObject
 90
      499
 91
      510
 93
      500
310
4411DBDD5C985D5915DA5D1A115919D95CD0340902404333333333333E3BF0000000000000F9010740901411070040501600405405064090741402480A1B50
1001
ACAD
1000
AcDbSavedByObjectVersion
1070
     0
  0
ACAD_PROXY_OBJECT
  5
1FE4A
102
{ACAD_REACTORS
330
19DE5
102
}
330
19DE5
100
AcDbZombieObject
 90
      499
 91
      510
 93
      476
310
41921A5919195B90640502408333333333333E33F0000000000000F901079024090700405020000000000001110200405405064090740C02480A0340
1001
ACAD
1000
AcDbSavedByObjectVersion
1070
     0
  0
ACAD_PROXY_OBJECT
  5
1E028
102
{ACAD_REACTORS
330
19DE5
102
}
330
19DE5
100
AcDbZombieObject
 90
      499
 91
      510
 93
      428
310
42529A5D1D195C93D999914409028333333333333E3BF0000000000000FB010790141107004050150A41D405064090741402480A0350
1001
ACAD
1000
AcDbSavedByObjectVersion
1070
     0
  0
ACAD_PROXY_OBJECT
  5
19DF3
102
{ACAD_REACTORS
330
19DE5
102
}
330
19DE5
100
AcDbZombieObject
 90
      499
 91
      510
 93
      444
310
42D31A5B995C185D1D195C9B90E409028333333333333E3BF0000000000000FB010790141107004050750841D405064090741402483A0350
1001
ACAD
1000
AcDbSavedByObjectVersion
1070
     0
  0
ACAD_PROXY_OBJECT
  5
1FE50
102
{ACAD_REACTORS
330
19DE5
102
}
330
19DE5
100
AcDbZombieObject
 90
      499
 91
      510
 93
      484
310
42135BD9195B1A5B99D0A409038333333333333E33F0000000000000F901074090290700405010000000000201990108421405064090741402480A1B40
1001
ACAD
1000
AcDbSavedByObjectVersion
1070
     0
  0
ACAD_PROXY_OBJECT
  5
1E029
102
{ACAD_REACTORS
330
19DE5
102
}
330
19DE5
100
AcDbZombieObject
 90
      499
 91
      510
 93
      444
310
42D3DD995C9A185B99D3D999915409028333333333333E3BF0000000000000FB010790141107004050150941D405064090741402480A0350
1001
ACAD
1000
AcDbSavedByObjectVersion
1070
     0
  0
ACAD_PROXY_OBJECT
  5
19DEF
102
{ACAD_REACTORS
330
19DE5
102
}
330
19DE5
100
AcDbZombieObject
 90
      499
 91
      510
 93
      420
310
425499585B1A5CDD1A58D08409028333333333333E3BF0000000000000FB01079019070040501508421405064090741402480A1B40
1001
ACAD
1000
AcDbSavedByObjectVersion
1070
     0
  0
ACAD_PROXY_OBJECT
  5
1FE4F
102
{ACAD_REACTORS
330
19DE5
102
}
330
19DE5
100
AcDbZombieObject
 90
      499
 91
      510
 93
      420
310
4194DA1859195911B40902404333333333333E33F0000000000000F9010740A41107004050150800405405064090840C02480A0B40
1001
ACAD
1000
AcDbSavedByObjectVersion
1070
     0
  0
ACAD_PROXY_OBJECT
  5
1FE4E
102
{ACAD_REACTORS
330
19DE5
102
}
330
19DE5
100
AcDbZombieObject
 90
      499
 91
      510
 93
      516
310
4454DA18591959081DDA5D1A08195919D95CD1A40902404333333333333E33F0000000000000F901074090142907004050250800405405064090740C02480A0B40
1001
ACAD
1000
AcDbSavedByObjectVersion
1070
     0
  0
ACAD_PROXY_OBJECT
  5
1FE4B
102
{ACAD_REACTORS
330
19DE5
102
}
330
19DE5
100
AcDbZombieObject
 90
      499
 91
      510
 93
      532
310
4394DA1859195CC81BD98811DC985E5174090240C333333333333E33F0000000000000F901079024090741D01000000000000111010841D405064090740C02480A0340
1001
ACAD
1000
AcDbSavedByObjectVersion
1070
     0
  0
ACAD_PROXY_OBJECT
  5
1FE4C
102
{ACAD_REACTORS
330
19DE5
102
}
330
19DE5
100
AcDbZombieObject
 90
      499
 91
      510
 93
      476
310
41D4DAD95D18DA1E51840502408333333333333E33F0000000000000F901079024090741D01000000000000111010B41D405064090741802480A0340
1001
ACAD
1000
AcDbSavedByObjectVersion
1070
     0
  0
ACAD_PROXY_OBJECT
  5
19DF2
102
{ACAD_REACTORS
330
19DE5
102
}
330
19DE5
100
AcDbZombieObject
 90
      499
 91
      510
 93
      412
310
41D51A1A58DAD95B90D409028333333333333E3BF0000000000000FB010790141107004050150C41D405064090741402480A0350
1001
ACAD
1000
AcDbSavedByObjectVersion
1070
     0
  0
ACAD_PROXY_OBJECT
  5
1FE49
102
{ACAD_REACTORS
330
19DE5
102
}
330
19DE5
100
AcDbZombieObject
 90
      499
 91
      510
 93
      420
310
4255DA5C99599C985B595059028333333333333E33F0000000000000F90107901411070040501600405405064090740C02480A0340
1001
ACAD
1000
AcDbSavedByObjectVersion
1070
     0
  0
ACAD_PROXY_OBJECT
  5
1FE4D
102
{ACAD_REACTORS
330
19DE5
102
}
330
19DE5
100
AcDbZombieObject
 90
      499
 91
      510
 93
      404
310
41560B54985E51940902404000000000000E03F0000000000000F9010740501907004050150841D405064090740C02480A1B40
1001
ACAD
1000
AcDbSavedByObjectVersion
1070
     0
  0
XRECORD
  5
21A6E
102
{ACAD_REACTORS
330
21A6D
102
}
330
21A6D
100
AcDbXrecord
340
2D0
  0
XRECORD
  5
21A6F
102
{ACAD_REACTORS
330
21A6D
102
}
330
21A6D
100
AcDbXrecord
340
2CF
  0
DICTIONARYVAR
  5
20611
102
{ACAD_REACTORS
330
37
102
}
330
37
100
DictionaryVariables
280
     0
  1
1:1
  0
DICTIONARYVAR
  5
1AC19
102
{ACAD_REACTORS
330
37
102
}
330
37
100
DictionaryVariables
280
     0
  1
Standard
  0
DICTIONARYVAR
  5
4F1
102
{ACAD_REACTORS
330
37
102
}
330
37
100
DictionaryVariables
280
     0
  1
Standard
  0
DICTIONARYVAR
  5
38
102
{ACAD_REACTORS
330
37
102
}
330
37
100
DictionaryVariables
280
     0
  1
-1
  0
DICTIONARYVAR
  5
408
102
{ACAD_REACTORS
330
37
102
}
330
37
100
DictionaryVariables
280
     0
  1
2
  0
DICTIONARYVAR
  5
1891
102
{ACAD_REACTORS
330
37
102
}
330
37
100
DictionaryVariables
280
     0
  1
1
  0
DICTIONARYVAR
  5
1AC1C
102
{ACAD_REACTORS
330
37
102
}
330
37
100
DictionaryVariables
280
     0
  1
0
  0
DICTIONARYVAR
  5
1895
102
{ACAD_REACTORS
330
37
102
}
330
37
100
DictionaryVariables
280
     0
  1
8
  0
DICTIONARYVAR
  5
1894
102
{ACAD_REACTORS
330
37
102
}
330
37
100
DictionaryVariables
280
     0
  1
1
  0
DICTIONARYVAR
  5
20667
102
{ACAD_REACTORS
330
37
102
}
330
37
100
DictionaryVariables
280
     0
  1
0
  0
DICTIONARYVAR
  5
1892
102
{ACAD_REACTORS
330
37
102
}
330
37
100
DictionaryVariables
280
     0
  1
8
  0
DICTIONARYVAR
  5
1893
102
{ACAD_REACTORS
330
37
102
}
330
37
100
DictionaryVariables
280
     0
  1
2
  0
DICTIONARYVAR
  5
409
102
{ACAD_REACTORS
330
37
102
}
330
37
100
DictionaryVariables
280
     0
  1

  0
DICTIONARYVAR
  5
1AC1B
102
{ACAD_REACTORS
330
37
102
}
330
37
100
DictionaryVariables
280
     0
  1
127
  0
DICTIONARYVAR
  5
1FE48
102
{ACAD_REACTORS
330
37
102
}
330
37
100
DictionaryVariables
280
     0
  1
2
  0
DICTIONARY
  5
21C0B
330
19DD5
100
AcDbDictionary
  3
ACAD_XREC_ROUNDTRIP
360
21C0C
1001
ACAD
1000
TREAT_AS_HARD
1070
     1
  0
DICTIONARY
  5
21C0D
330
19DCD
100
AcDbDictionary
  3
ACAD_XREC_ROUNDTRIP
360
21C0E
1001
ACAD
1000
TREAT_AS_HARD
1070
     1
  0
DICTIONARY
  5
21C0F
330
19DDD
100
AcDbDictionary
  3
ACAD_XREC_ROUNDTRIP
360
21C10
1001
ACAD
1000
TREAT_AS_HARD
1070
     1
  0
XRECORD
  5
21C0C
102
{ACAD_REACTORS
330
21C0B
102
}
330
21C0B
100
AcDbXrecord
102
MATERIAL
148
0.0
149
0.0
149
0.0
 93
        0
 94
      127
282
     0
 72
     0
 77
     0
171
     0
175
     0
179
     0
273
     0
  0
XRECORD
  5
21C0E
102
{ACAD_REACTORS
330
21C0D
102
}
330
21C0D
100
AcDbXrecord
102
MATERIAL
148
0.0
149
0.0
149
0.0
 93
        0
 94
      127
282
     0
 72
     0
 77
     0
171
     0
175
     0
179
     0
273
     0
  0
XRECORD
  5
21C10
102
{ACAD_REACTORS
330
21C0F
102
}
330
21C0F
100
AcDbXrecord
102
MATERIAL
148
0.0
149
0.0
149
0.0
 93
        0
 94
      127
282
     0
 72
     0
 77
     0
171
     0
175
     0
179
     0
273
     0
  0
ENDSEC
  0
EOF
