  0
SECTION
  2
HEADER
  9
$ACADVER
  1
AC1012
  9
$DWGCODEPAGE
  3
ansi_932
  9
$INSBASE
 10
0.0
 20
0.0
 30
0.0
  9
$EXTMIN
 10
8.846236179421197
 20
-725.9813303512674
 30
0.0
  9
$EXTMAX
 10
903.2262416153649
 20
-535.9513303512663
 30
0.0
  9
$LIMMIN
 10
0.0
 20
0.0
  9
$LIMMAX
 10
420.0
 20
297.0
  9
$ORTHOMODE
 70
     0
  9
$REGENMODE
 70
     1
  9
$FILLMODE
 70
     1
  9
$QTEXTMODE
 70
     0
  9
$MIRRTEXT
 70
     0
  9
$DRAGMODE
 70
     2
  9
$LTSCALE
 40
0.5
  9
$OSMODE
 70
 14463
  9
$ATTMODE
 70
     1
  9
$TEXTSIZE
 40
4.0
  9
$TRACEWID
 40
1.0
  9
$TEXTSTYLE
  7
STANDARD
  9
$CLAYER
  8
1TEXT
  9
$CELTYPE
  6
BYLAYER
  9
$CECOLOR
 62
   256
  9
$CELTSCALE
 40
1.0
  9
$DELOBJ
 70
     1
  9
$DISPSILH
 70
     0
  9
$DIMSCALE
 40
1.0
  9
$DIMASZ
 40
2.0
  9
$DIMEXO
 40
0.0
  9
$DIMDLI
 40
7.0
  9
$DIMRND
 40
0.0
  9
$DIMDLE
 40
0.0
  9
$DIMEXE
 40
1.0
  9
$DIMTP
 40
0.0
  9
$DIMTM
 40
0.0
  9
$DIMTXT
 40
3.5
  9
$DIMCEN
 40
0.0
  9
$DIMTSZ
 40
0.0
  9
$DIMTOL
 70
     0
  9
$DIMLIM
 70
     0
  9
$DIMTIH
 70
     0
  9
$DIMTOH
 70
     0
  9
$DIMSE1
 70
     0
  9
$DIMSE2
 70
     0
  9
$DIMTAD
 70
     1
  9
$DIMZIN
 70
     8
  9
$DIMBLK
  1

  9
$DIMASO
 70
     1
  9
$DIMSHO
 70
     1
  9
$DIMPOST
  1
 
  9
$DIMAPOST
  1

  9
$DIMALT
 70
     0
  9
$DIMALTD
 70
     2
  9
$DIMALTF
 40
25.4
  9
$DIMLFAC
 40
1.0
  9
$DIMTOFL
 70
     1
  9
$DIMTVP
 40
0.0
  9
$DIMTIX
 70
     0
  9
$DIMSOXD
 70
     0
  9
$DIMSAH
 70
     1
  9
$DIMBLK1
  1
OPEN30
  9
$DIMBLK2
  1
OPEN30
  9
$DIMSTYLE
  2
NEWX10
  9
$DIMCLRD
 70
   256
  9
$DIMCLRE
 70
   256
  9
$DIMCLRT
 70
   201
  9
$DIMTFAC
 40
0.7
  9
$DIMGAP
 40
0.7
  9
$DIMJUST
 70
     0
  9
$DIMSD1
 70
     0
  9
$DIMSD2
 70
     0
  9
$DIMTOLJ
 70
     1
  9
$DIMTZIN
 70
     8
  9
$DIMALTZ
 70
     0
  9
$DIMALTTZ
 70
     0
  9
$DIMFIT
 70
     2
  9
$DIMUPT
 70
     0
  9
$DIMUNIT
 70
     2
  9
$DIMDEC
 70
     2
  9
$DIMTDEC
 70
     4
  9
$DIMALTU
 70
     2
  9
$DIMALTTD
 70
     2
  9
$DIMTXSTY
  7
STANDARD
  9
$DIMAUNIT
 70
     0
  9
$LUNITS
 70
     2
  9
$LUPREC
 70
     4
  9
$SKETCHINC
 40
1.0
  9
$FILLETRAD
 40
0.3
  9
$AUNITS
 70
     0
  9
$AUPREC
 70
     2
  9
$MENU
  1
acad
  9
$ELEVATION
 40
0.0
  9
$PELEVATION
 40
0.0
  9
$THICKNESS
 40
0.0
  9
$LIMCHECK
 70
     0
  9
$CHAMFERA
 40
1.0
  9
$CHAMFERB
 40
1.0
  9
$CHAMFERC
 40
20.0
  9
$CHAMFERD
 40
0.0
  9
$SKPOLY
 70
     0
  9
$TDCREATE
 40
2453033.732663484
  9
$TDUPDATE
 40
2459535.386657095
  9
$TDINDWG
 40
2.4960269792
  9
$TDUSRTIMER
 40
2.4960269792
  9
$USRTIMER
 70
     1
  9
$ANGBASE
 50
0.0
  9
$ANGDIR
 70
     0
  9
$PDMODE
 70
     0
  9
$PDSIZE
 40
0.0
  9
$PLINEWID
 40
0.0
  9
$COORDS
 70
     2
  9
$SPLFRAME
 70
     0
  9
$SPLINETYPE
 70
     6
  9
$SPLINESEGS
 70
     8
  9
$ATTDIA
 70
     0
  9
$ATTREQ
 70
     1
  9
$HANDLING
 70
     1
  9
$HANDSEED
  5
222EB
  9
$SURFTAB1
 70
     6
  9
$SURFTAB2
 70
     6
  9
$SURFTYPE
 70
     6
  9
$SURFU
 70
     6
  9
$SURFV
 70
     6
  9
$UCSNAME
  2

  9
$UCSORG
 10
0.0
 20
0.0
 30
0.0
  9
$UCSXDIR
 10
1.0
 20
0.0
 30
0.0
  9
$UCSYDIR
 10
0.0
 20
1.0
 30
0.0
  9
$PUCSNAME
  2

  9
$PUCSORG
 10
0.0
 20
0.0
 30
0.0
  9
$PUCSXDIR
 10
1.0
 20
0.0
 30
0.0
  9
$PUCSYDIR
 10
0.0
 20
1.0
 30
0.0
  9
$USERI1
 70
     0
  9
$USERI2
 70
     0
  9
$USERI3
 70
     0
  9
$USERI4
 70
     0
  9
$USERI5
 70
     0
  9
$USERR1
 40
0.0
  9
$USERR2
 40
0.0
  9
$USERR3
 40
0.0
  9
$USERR4
 40
0.0
  9
$USERR5
 40
0.0
  9
$WORLDVIEW
 70
     1
  9
$SHADEDGE
 70
     3
  9
$SHADEDIF
 70
    70
  9
$TILEMODE
 70
     1
  9
$MAXACTVP
 70
    48
  9
$PINSBASE
 10
0.0
 20
0.0
 30
0.0
  9
$PLIMCHECK
 70
     0
  9
$PEXTMIN
 10
1.000000000000000E+20
 20
1.000000000000000E+20
 30
1.000000000000000E+20
  9
$PEXTMAX
 10
-1.000000000000000E+20
 20
-1.000000000000000E+20
 30
-1.000000000000000E+20
  9
$PLIMMIN
 10
0.0
 20
0.0
  9
$PLIMMAX
 10
420.0
 20
297.0
  9
$UNITMODE
 70
     0
  9
$VISRETAIN
 70
     1
  9
$PLINEGEN
 70
     0
  9
$PSLTSCALE
 70
     1
  9
$TREEDEPTH
 70
  3020
  9
$PICKSTYLE
 70
     0
  9
$CMLSTYLE
  2
STANDARD
  9
$CMLJUST
 70
     0
  9
$CMLSCALE
 40
20.0
  9
$SAVEIMAGES
 70
     1
  0
ENDSEC
  0
SECTION
  2
CLASSES
  0
CLASS
  1
DICTIONARYVAR
  2
AcDbDictionaryVar
  3
ObjectDBX Classes
 90
        0
280
     0
281
     0
  0
CLASS
  1
IDBUFFER
  2
AcDbIdBuffer
  3
ObjectDBX Classes
 90
    32768
280
     0
281
     0
  0
CLASS
  1
LWPOLYLINE
  2
AcDbPolyline
  3
ObjectDBX Classes
 90
    32768
280
     0
281
     1
  0
CLASS
  1
ACDBDICTIONARYWDFLT
  2
AcDbDictionaryWithDefault
  3
ObjectDBX Classes
 90
    32768
280
     0
281
     0
  0
CLASS
  1
ACDBPLACEHOLDER
  2
AcDbPlaceHolder
  3
ObjectDBX Classes
 90
        0
280
     0
281
     0
  0
CLASS
  1
LAYOUT
  2
AcDbLayout
  3
ObjectDBX Classes
 90
        0
280
     0
281
     0
  0
CLASS
  1
TABLESTYLE
  2
AcDbTableStyle
  3
ObjectDBX Classes
 90
     4095
280
     0
281
     0
  0
CLASS
  1
SORTENTSTABLE
  2
AcDbSortentsTable
  3
ObjectDBX Classes
 90
    32768
280
     0
281
     0
  0
CLASS
  1
DIMASSOC
  2
AcDbDimAssoc
  3
"AcDbDimAssoc|Product Desc:     AcDim ARX App For Dimension|Company:          Autodesk, Inc.|WEB Address:      www.autodesk.com"
 90
        0
280
     0
281
     0
  0
CLASS
  1
MATERIAL
  2
AcDbMaterial
  3
ObjectDBX Classes
 90
     1153
280
     0
281
     0
  0
CLASS
  1
VISUALSTYLE
  2
AcDbVisualStyle
  3
ObjectDBX Classes
 90
     4095
280
     0
281
     0
  0
CLASS
  1
SCALE
  2
AcDbScale
  3
ObjectDBX Classes
 90
     1153
280
     0
281
     0
  0
CLASS
  1
MLEADERSTYLE
  2
AcDbMLeaderStyle
  3
ACDB_MLEADERSTYLE_CLASS
 90
     4095
280
     0
281
     0
  0
CLASS
  1
CELLSTYLEMAP
  2
AcDbCellStyleMap
  3
ObjectDBX Classes
 90
     1152
280
     0
281
     0
  0
CLASS
  1
EXACXREFPANELOBJECT
  2
ExAcXREFPanelObject
  3
EXAC_ESW
 90
     1025
280
     1
281
     0
  0
CLASS
  1
NPOCOLLECTION
  2
AcDbImpNonPersistentObjectsCollection
  3
ObjectDBX Classes
 90
     1153
280
     1
281
     0
  0
CLASS
  1
SUN
  2
AcDbSun
  3
SCENEOE
 90
     1153
280
     0
281
     0
  0
CLASS
  1
XRECORD
  2
AcDbXrecord
  3
ObjectDBX Classes
 90
    32768
280
     0
281
     0
  0
CLASS
  1
HATCH
  2
AcDbHatch
  3
ObjectDBX Classes
 90
    32768
280
     0
281
     1
  0
ENDSEC
  0
SECTION
  2
TABLES
  0
TABLE
  2
VPORT
  5
8
330
0
100
AcDbSymbolTable
 70
     1
  0
VPORT
  5
19DC2
330
8
100
AcDbSymbolTableRecord
100
AcDbViewportTableRecord
  2
*ACTIVE
 70
     0
 10
0.0
 20
0.0
 11
1.0
 21
1.0
 12
456.036238897393
 22
-630.9663303512668
 13
0.0
 23
0.0
 14
10.0
 24
10.0
 15
10.0
 25
10.0
 16
0.0
 26
0.0
 36
1.0
 17
0.0
 27
0.0
 37
0.0
 40
449.3353483295206
 41
2.137115839243499
 42
50.0
 43
0.0
 44
0.0
 50
0.0
 51
0.0
 71
    16
 72
   100
 73
     1
 74
     1
 75
     0
 76
     0
 77
     0
 78
     0
  0
ENDTAB
  0
TABLE
  2
LTYPE
  5
5
330
0
100
AcDbSymbolTable
 70
     3
  0
LTYPE
  5
12
330
5
100
AcDbSymbolTableRecord
100
AcDbLinetypeTableRecord
  2
BYBLOCK
 70
     0
  3

 72
    65
 73
     0
 40
0.0
  0
LTYPE
  5
13
330
5
100
AcDbSymbolTableRecord
100
AcDbLinetypeTableRecord
  2
BYLAYER
 70
     0
  3

 72
    65
 73
     0
 40
0.0
  0
LTYPE
  5
14
330
5
100
AcDbSymbolTableRecord
100
AcDbLinetypeTableRecord
  2
CONTINUOUS
 70
     0
  3
Solid line
 72
    65
 73
     0
 40
0.0
  0
LTYPE
  5
26
330
5
100
AcDbSymbolTableRecord
100
AcDbLinetypeTableRecord
  2
CENTER2
 70
     0
  3
Center (.5x) ___ _ ___ _ ___ _ ___ _ ___ _ ___
 72
    65
 73
     4
 40
28.575
 49
19.05
 74
     0
 49
-3.175
 74
     0
 49
3.175
 74
     0
 49
-3.175
 74
     0
  0
LTYPE
  5
100
330
5
100
AcDbSymbolTableRecord
100
AcDbLinetypeTableRecord
  2
PHANTOM2
 70
     0
  3
Phantom (0.5x) ___ _ _ ___ _ _ ___ _ _ ___ _ _
 72
    65
 73
     6
 40
31.75
 49
15.875
 74
     0
 49
-3.175
 74
     0
 49
3.175
 74
     0
 49
-3.175
 74
     0
 49
3.175
 74
     0
 49
-3.175
 74
     0
  0
ENDTAB
  0
TABLE
  2
LAYER
  5
2
102
{ACAD_XDICTIONARY
360
18FE8
102
}
330
0
100
AcDbSymbolTable
 70
     7
  0
LAYER
  5
E
102
{ACAD_XDICTIONARY
360
1A20A
102
}
330
2
100
AcDbSymbolTableRecord
100
AcDbLayerTableRecord
  2
0
 70
     0
 62
     7
  6
CONTINUOUS
  0
LAYER
  5
29
102
{ACAD_XDICTIONARY
360
1A20C
102
}
330
2
100
AcDbSymbolTableRecord
100
AcDbLayerTableRecord
  2
1CENTER
 70
     0
 62
     7
  6
CENTER2
  0
LAYER
  5
31
102
{ACAD_XDICTIONARY
360
1A20E
102
}
330
2
100
AcDbSymbolTableRecord
100
AcDbLayerTableRecord
  2
1TEXT
 70
     0
 62
     7
  6
CONTINUOUS
  0
LAYER
  5
101
102
{ACAD_XDICTIONARY
360
1A218
102
}
330
2
100
AcDbSymbolTableRecord
100
AcDbLayerTableRecord
  2
1DIM
 70
     0
 62
     7
  6
CONTINUOUS
  0
LAYER
  5
103
102
{ACAD_XDICTIONARY
360
1A21C
102
}
330
2
100
AcDbSymbolTableRecord
100
AcDbLayerTableRecord
  2
1PHANTOM
 70
     0
 62
     7
  6
PHANTOM2
  0
LAYER
  5
25F
102
{ACAD_XDICTIONARY
360
1A220
102
}
330
2
100
AcDbSymbolTableRecord
100
AcDbLayerTableRecord
  2
01
 70
     0
 62
     1
  6
CONTINUOUS
  0
LAYER
  5
26A
102
{ACAD_XDICTIONARY
360
1A236
102
}
330
2
100
AcDbSymbolTableRecord
100
AcDbLayerTableRecord
  2
1DIM1
 70
     0
 62
     7
  6
CONTINUOUS
  0
ENDTAB
  0
TABLE
  2
STYLE
  5
3
330
0
100
AcDbSymbolTable
 70
     1
  0
STYLE
  5
F
330
3
100
AcDbSymbolTableRecord
100
AcDbTextStyleTableRecord
  2
STANDARD
 70
     0
 40
0.0
 41
1.0
 50
0.0
 71
     0
 42
4.0
  3
txt.shx
  4
extfont.shx
  0
ENDTAB
  0
TABLE
  2
VIEW
  5
6
330
0
100
AcDbSymbolTable
 70
     0
  0
ENDTAB
  0
TABLE
  2
UCS
  5
7
330
0
100
AcDbSymbolTable
 70
     0
  0
ENDTAB
  0
TABLE
  2
APPID
  5
9
330
0
100
AcDbSymbolTable
 70
    17
  0
APPID
  5
10
330
9
100
AcDbSymbolTableRecord
100
AcDbRegAppTableRecord
  2
ACAD
 70
     0
  0
APPID
  5
21
330
9
100
AcDbSymbolTableRecord
100
AcDbRegAppTableRecord
  2
DRAWINGVARIABLESXDATA
 70
     0
  0
APPID
  5
64
330
9
100
AcDbSymbolTableRecord
100
AcDbRegAppTableRecord
  2
CONTENTTABDATA
 70
     0
  0
APPID
  5
65
330
9
100
AcDbSymbolTableRecord
100
AcDbRegAppTableRecord
  2
CONTENTCURRENTTAB
 70
     0
  0
APPID
  5
66
330
9
100
AcDbSymbolTableRecord
100
AcDbRegAppTableRecord
  2
CONTENTBLOCKDESCRIPTION
 70
     0
  0
APPID
  5
67
330
9
100
AcDbSymbolTableRecord
100
AcDbRegAppTableRecord
  2
CONTENTBLOCKICON
 70
     0
  0
APPID
  5
68
330
9
100
AcDbSymbolTableRecord
100
AcDbRegAppTableRecord
  2
CONTENTLONGBLOCKNAME
 70
     0
  0
APPID
  5
5A9
330
9
100
AcDbSymbolTableRecord
100
AcDbRegAppTableRecord
  2
ACAD_PSEXT
 70
     0
  0
APPID
  5
18AC
330
9
100
AcDbSymbolTableRecord
100
AcDbRegAppTableRecord
  2
ACAD_DSTYLE_DIMTEXT_FILL
 70
     0
  0
APPID
  5
19E1A
330
9
100
AcDbSymbolTableRecord
100
AcDbRegAppTableRecord
  2
ACAD_MLEADERVER
 70
     0
  0
APPID
  5
1A2FA
330
9
100
AcDbSymbolTableRecord
100
AcDbRegAppTableRecord
  2
ACAD_DSTYLE_DIMRADIAL_EXTE
 70
     0
  0
APPID
  5
1DBC1
330
9
100
AcDbSymbolTableRecord
100
AcDbRegAppTableRecord
  2
ACADANNOTATIVE
 70
     0
  0
APPID
  5
1E991
330
9
100
AcDbSymbolTableRecord
100
AcDbRegAppTableRecord
  2
ACAD_EXEMPT_FROM_CAD_STAND
 70
     0
  0
APPID
  5
202C7
330
9
100
AcDbSymbolTableRecord
100
AcDbRegAppTableRecord
  2
ACDBBLOCKREPETAG
 70
     0
  0
APPID
  5
20AA7
330
9
100
AcDbSymbolTableRecord
100
AcDbRegAppTableRecord
  2
ACAD_OBJECT_CHANGE_GUID
 70
     0
  0
APPID
  5
213E8
330
9
100
AcDbSymbolTableRecord
100
AcDbRegAppTableRecord
  2
ACLAYERTOOLS
 70
     0
  0
APPID
  5
213E9
330
9
100
AcDbSymbolTableRecord
100
AcDbRegAppTableRecord
  2
ACAD_NAV_VCDISPLAY
 70
     0
  0
ENDTAB
  0
TABLE
  2
DIMSTYLE
  5
A
330
0
100
AcDbSymbolTable
 70
     2
  0
DIMSTYLE
105
48
330
A
100
AcDbSymbolTableRecord
100
AcDbDimStyleTableRecord
  2
NEWX10
 70
     0
  3
 
  4

  5

  6
OPEN30
  7
OPEN30
 40
1.0
 41
2.0
 42
0.0
 43
7.0
 44
1.0
 45
0.0
 46
0.0
 47
0.0
 48
0.0
140
3.5
141
0.0
142
0.0
143
25.4
144
1.0
145
0.0
146
0.7
147
0.7
 71
     0
 72
     0
 73
     0
 74
     0
 75
     0
 76
     0
 77
     1
 78
     8
170
     0
171
     2
172
     1
173
     1
174
     0
175
     0
176
   256
177
   256
178
   201
179
     2
270
     2
271
     2
272
     4
273
     2
274
     2
340
F
275
     0
280
     0
281
     0
282
     0
283
     1
284
     8
285
     0
286
     0
287
     2
288
     0
  0
DIMSTYLE
105
20B13
330
A
100
AcDbSymbolTableRecord
100
AcDbDimStyleTableRecord
  2
ISO-25
 70
     0
  3

  4

  5

  6

  7

 40
1.0
 41
2.5
 42
0.625
 43
3.75
 44
1.25
 45
0.0
 46
0.0
 47
0.0
 48
0.0
140
2.5
141
2.5
142
0.0
143
0.03937007874016
144
1.0
145
0.0
146
1.0
147
0.625
 71
     0
 72
     0
 73
     0
 74
     0
 75
     0
 76
     0
 77
     1
 78
     8
170
     0
171
     3
172
     1
173
     0
174
     0
175
     0
176
     0
177
     0
178
     0
270
     2
271
     2
272
     2
273
     2
274
     3
340
F
275
     0
280
     0
281
     0
282
     0
283
     0
284
     8
285
     0
286
     0
287
     3
288
     0
  0
ENDTAB
  0
TABLE
  2
BLOCK_RECORD
  5
1
330
0
100
AcDbSymbolTable
 70
     8
  0
BLOCK_RECORD
  5
18
102
{ACAD_XDICTIONARY
360
6E9
102
}
330
1
100
AcDbSymbolTableRecord
100
AcDbBlockTableRecord
  2
*MODEL_SPACE
  0
BLOCK_RECORD
  5
15
102
{ACAD_XDICTIONARY
360
59B
102
}
330
1
100
AcDbSymbolTableRecord
100
AcDbBlockTableRecord
  2
*PAPER_SPACE
  0
BLOCK_RECORD
  5
42
330
1
100
AcDbSymbolTableRecord
100
AcDbBlockTableRecord
  2
_OPEN30
  0
BLOCK_RECORD
  5
20316
330
1
100
AcDbSymbolTableRecord
100
AcDbBlockTableRecord
  2
A3WAKUKAWAJUN2017_HYOUDAI_
  0
BLOCK_RECORD
  5
2214B
330
1
100
AcDbSymbolTableRecord
100
AcDbBlockTableRecord
  2
*X65
  0
BLOCK_RECORD
  5
22199
330
1
100
AcDbSymbolTableRecord
100
AcDbBlockTableRecord
  2
*X66
  0
BLOCK_RECORD
  5
221EB
330
1
100
AcDbSymbolTableRecord
100
AcDbBlockTableRecord
  2
*X67
  0
BLOCK_RECORD
  5
2223C
330
1
100
AcDbSymbolTableRecord
100
AcDbBlockTableRecord
  2
*X68
  0
BLOCK_RECORD
  5
22279
330
1
100
AcDbSymbolTableRecord
100
AcDbBlockTableRecord
  2
*X69
  0
BLOCK_RECORD
  5
222B9
330
1
100
AcDbSymbolTableRecord
100
AcDbBlockTableRecord
  2
*X70
  0
ENDTAB
  0
ENDSEC
  0
SECTION
  2
BLOCKS
  0
BLOCK
  5
19
330
18
100
AcDbEntity
  8
0
100
AcDbBlockBegin
  2
*MODEL_SPACE
 70
     0
 10
0.0
 20
0.0
 30
0.0
  3
*MODEL_SPACE
  1

  0
ENDBLK
  5
1A
330
18
100
AcDbEntity
  8
0
100
AcDbBlockEnd
  0
BLOCK
  5
16
330
15
100
AcDbEntity
 67
     1
  8
0
100
AcDbBlockBegin
  2
*PAPER_SPACE
 70
     0
 10
0.0
 20
0.0
 30
0.0
  3
*PAPER_SPACE
  1

  0
ENDBLK
  5
17
330
15
100
AcDbEntity
 67
     1
  8
0
100
AcDbBlockEnd
  0
BLOCK
  5
43
330
42
100
AcDbEntity
  8
0
100
AcDbBlockBegin
  2
_OPEN30
 70
     0
 10
0.0
 20
0.0
 30
0.0
  3
_OPEN30
  1

  0
LINE
  5
44
330
42
100
AcDbEntity
  8
0
  6
BYBLOCK
 62
     0
100
AcDbLine
 10
-1.0
 20
0.26794919
 30
0.0
 11
0.0
 21
0.0
 31
0.0
  0
LINE
  5
45
330
42
100
AcDbEntity
  8
0
  6
BYBLOCK
 62
     0
100
AcDbLine
 10
0.0
 20
0.0
 30
0.0
 11
-1.0
 21
-0.26794919
 31
0.0
  0
LINE
  5
46
330
42
100
AcDbEntity
  8
0
  6
BYBLOCK
 62
     0
100
AcDbLine
 10
0.0
 20
0.0
 30
0.0
 11
-1.0
 21
0.0
 31
0.0
  0
ENDBLK
  5
47
330
42
100
AcDbEntity
  8
0
100
AcDbBlockEnd
  0
BLOCK
  5
20A15
330
20316
100
AcDbEntity
  8
0
100
AcDbBlockBegin
  2
A3WAKUKAWAJUN2017_HYOUDAI_
 70
     0
 10
0.0
 20
0.0
 30
0.0
  3
A3WAKUKAWAJUN2017_HYOUDAI_
  1

  0
LINE
  5
20318
330
20316
100
AcDbEntity
  8
0
100
AcDbLine
 10
13.26299999998673
 20
-0.0001000000000317
 30
0.0
 11
9.236999999990758
 21
8.999899999990987
 31
0.0
1001
ACAD
1000
ASC_BOUNDS
1002
{
1070
    19
1005
20359
1002
}
  0
LINE
  5
20319
330
20316
100
AcDbEntity
  8
0
100
AcDbLine
 10
5.657999999994331
 20
0.9999999999989768
 30
0.0
 11
9.236999999990758
 21
8.999999999991019
 31
0.0
1001
ACAD
1000
ASC_BOUNDS
1002
{
1070
    19
1005
20359
1002
}
  0
LINE
  5
2031A
330
20316
100
AcDbEntity
  8
0
100
AcDbLine
 10
18.59199999998134
 20
-0.2368999999997641
 30
0.0
 11
16.46099999998353
 21
5.432899999994561
 31
0.0
1001
ACAD
1000
ASC_BOUNDS
1002
{
1070
    19
1005
2035A
1002
}
  0
LINE
  5
2031B
330
20316
100
AcDbEntity
  8
0
100
AcDbLine
 10
18.59199999998134
 20
-0.2368999999997641
 30
0.0
 11
22.38199999997767
 21
8.763099999991255
 31
0.0
1001
ACAD
1000
ASC_BOUNDS
1002
{
1070
    19
1005
2035A
1002
}
  0
LINE
  5
2031C
330
20316
100
AcDbEntity
  8
0
100
AcDbLine
 10
14.32899999998563
 20
-0.2368999999997641
 30
0.0
 11
16.46099999998353
 21
5.432899999994561
 31
0.0
1001
ACAD
1000
ASC_BOUNDS
1002
{
1070
    19
1005
2035A
1002
}
  0
LINE
  5
2031D
330
20316
100
AcDbEntity
  8
0
100
AcDbLine
 10
14.32899999998563
 20
-0.2368999999997641
 30
0.0
 11
10.53899999998941
 21
8.763099999991255
 31
0.0
1001
ACAD
1000
ASC_BOUNDS
1002
{
1070
    19
1005
2035A
1002
}
  0
LINE
  5
2031E
330
20316
100
AcDbEntity
  8
0
100
AcDbLine
 10
19.53899999998043
 20
-0.0001000000000317
 30
0.0
 11
23.56599999997638
 21
8.999899999990987
 31
0.0
1001
ACAD
1000
ASC_BOUNDS
1002
{
1070
    19
1005
2035B
1002
}
  0
LINE
  5
2031F
330
20316
100
AcDbEntity
  8
0
100
AcDbLine
 10
26.97358892824991
 20
1.383099999991202
 30
0.0
 11
23.56599999997638
 21
8.999899999990987
 31
0.0
1001
ACAD
1000
ASC_BOUNDS
1002
{
1070
    19
1005
2035B
1002
}
  0
LINE
  5
20320
330
20316
100
AcDbEntity
  8
0
100
AcDbLine
 10
5.657999999994331
 20
0.9999999999989768
 30
0.0
 11
3.181999999996833
 21
4.668599999995308
 31
0.0
1001
ACAD
1000
ASC_BOUNDS
1002
{
1070
    19
1005
20359
1002
}
  0
LINE
  5
20321
330
20316
100
AcDbEntity
  8
0
100
AcDbLine
 10
4.617999999995391
 20
-0.0001000000000317
 30
0.0
 11
1.420999999998571
 21
4.736799999995242
 31
0.0
1001
ACAD
1000
ASC_BOUNDS
1002
{
1070
    19
1005
20359
1002
}
  0
LINE
  5
20322
330
20316
100
AcDbEntity
  8
0
100
AcDbLine
 10
1.420999999998571
 20
8.763099999991255
 30
0.0
 11
1.420999999998571
 21
0.0
 31
0.0
1001
ACAD
1000
ASC_BOUNDS
1002
{
1070
    19
1005
2035E
1002
}
  0
LINE
  5
20323
330
20316
100
AcDbEntity
  8
0
100
AcDbLine
 10
0.0
 20
8.763099999991255
 30
0.0
 11
0.0
 21
0.0
 31
0.0
1001
ACAD
1000
ASC_BOUNDS
1002
{
1070
    19
1005
2035E
1002
}
  0
LINE
  5
20324
330
20316
100
AcDbEntity
  8
0
100
AcDbLine
 10
6.766999999993232
 20
-0.0001000000000317
 30
0.0
 11
7.826999999992154
 21
2.368399999997621
 31
0.0
1001
ACAD
1000
ASC_BOUNDS
1002
{
1070
    19
1005
20359
1002
}
  0
LINE
  5
20325
330
20316
100
AcDbEntity
  8
0
100
AcDbLine
 10
0.0
 20
0.0
 30
0.0
 11
1.420999999998571
 21
0.0
 31
0.0
1001
ACAD
1000
ASC_BOUNDS
1002
{
1070
    19
1005
2035E
1002
}
  0
LINE
  5
20326
330
20316
100
AcDbEntity
  8
0
100
AcDbLine
 10
4.617999999995391
 20
0.0
 30
0.0
 11
6.766999999993232
 21
0.0
 31
0.0
1001
ACAD
1000
ASC_BOUNDS
1002
{
1070
    19
1005
20359
1002
}
  0
LINE
  5
20327
330
20316
100
AcDbEntity
  8
0
100
AcDbLine
 10
11.70599999998831
 20
-0.0001000000000317
 30
0.0
 11
10.64699999998936
 21
2.368399999997621
 31
0.0
1001
ACAD
1000
ASC_BOUNDS
1002
{
1070
    19
1005
20359
1002
}
  0
LINE
  5
20328
330
20316
100
AcDbEntity
  8
0
100
AcDbLine
 10
7.826999999992154
 20
2.368399999997621
 30
0.0
 11
10.64699999998936
 21
2.368399999997621
 31
0.0
1001
ACAD
1000
ASC_BOUNDS
1002
{
1070
    19
1005
20359
1002
}
  0
LINE
  5
20329
330
20316
100
AcDbEntity
  8
0
100
AcDbLine
 10
11.70599999998831
 20
0.0
 30
0.0
 11
13.26299999998673
 21
0.0
 31
0.0
1001
ACAD
1000
ASC_BOUNDS
1002
{
1070
    19
1005
20359
1002
}
  0
LINE
  5
2032A
330
20316
100
AcDbEntity
  8
0
100
AcDbLine
 10
22.15599999997789
 20
2.368399999997621
 30
0.0
 11
24.97599999997499
 21
2.368399999997621
 31
0.0
1001
ACAD
1000
ASC_BOUNDS
1002
{
1070
    19
1005
2035B
1002
}
  0
LINE
  5
2032B
330
20316
100
AcDbEntity
  8
0
100
AcDbLine
 10
19.53899999998043
 20
0.0
 30
0.0
 11
21.09599999997886
 21
0.0
 31
0.0
1001
ACAD
1000
ASC_BOUNDS
1002
{
1070
    19
1005
2035B
1002
}
  0
LINE
  5
2032C
330
20316
100
AcDbEntity
  8
0
100
AcDbLine
 10
21.09599999997886
 20
-0.0001000000000317
 30
0.0
 11
22.15599999997789
 21
2.368399999997621
 31
0.0
1001
ACAD
1000
ASC_BOUNDS
1002
{
1070
    19
1005
2035B
1002
}
  0
LINE
  5
2032D
330
20316
100
AcDbEntity
  8
0
100
AcDbLine
 10
26.02015566812236
 20
0.0330999999912365
 30
0.0
 11
24.97599999997499
 21
2.368399999997621
 31
0.0
1001
ACAD
1000
ASC_BOUNDS
1002
{
1070
    19
1005
2035B
1002
}
  0
LINE
  5
2032E
330
20316
100
AcDbEntity
  8
0
100
AcDbLine
 10
14.32399999998563
 20
3.315799999996671
 30
0.0
 11
16.46099999998353
 21
8.999899999990987
 31
0.0
1001
ACAD
1000
ASC_BOUNDS
1002
{
1070
    19
1005
2035A
1002
}
  0
LINE
  5
2032F
330
20316
100
AcDbEntity
  8
0
100
AcDbLine
 10
6.432999999993513
 20
8.763099999991255
 30
0.0
 11
3.181999999996833
 21
4.668599999995308
 31
0.0
1001
ACAD
1000
ASC_BOUNDS
1002
{
1070
    19
1005
20359
1002
}
  0
LINE
  5
20330
330
20316
100
AcDbEntity
  8
0
100
AcDbLine
 10
4.617999999995391
 20
8.763099999991255
 30
0.0
 11
1.420999999998571
 21
4.736799999995242
 31
0.0
1001
ACAD
1000
ASC_BOUNDS
1002
{
1070
    19
1005
20359
1002
}
  0
LINE
  5
20331
330
20316
100
AcDbEntity
  8
0
100
AcDbLine
 10
0.0
 20
8.763099999991255
 30
0.0
 11
1.420999999998571
 21
8.763099999991255
 31
0.0
1001
ACAD
1000
ASC_BOUNDS
1002
{
1070
    19
1005
2035E
1002
}
  0
LINE
  5
20332
330
20316
100
AcDbEntity
  8
0
100
AcDbLine
 10
4.617999999995391
 20
8.763099999991255
 30
0.0
 11
6.432999999993513
 21
8.763099999991255
 31
0.0
1001
ACAD
1000
ASC_BOUNDS
1002
{
1070
    19
1005
20359
1002
}
  0
LINE
  5
20333
330
20316
100
AcDbEntity
  8
0
100
AcDbLine
 10
14.32399999998563
 20
3.315799999996671
 30
0.0
 11
12.02999999998792
 21
8.763099999991255
 31
0.0
1001
ACAD
1000
ASC_BOUNDS
1002
{
1070
    19
1005
2035A
1002
}
  0
LINE
  5
20334
330
20316
100
AcDbEntity
  8
0
100
AcDbLine
 10
10.06399999998996
 20
3.670999999996297
 30
0.0
 11
9.236999999990758
 21
5.5200999999945
 31
0.0
1001
ACAD
1000
ASC_BOUNDS
1002
{
1070
    19
1005
20359
1002
}
  0
LINE
  5
20335
330
20316
100
AcDbEntity
  8
0
100
AcDbLine
 10
8.409999999991555
 20
3.670999999996297
 30
0.0
 11
9.236999999990758
 21
5.5200999999945
 31
0.0
1001
ACAD
1000
ASC_BOUNDS
1002
{
1070
    19
1005
20359
1002
}
  0
LINE
  5
20336
330
20316
100
AcDbEntity
  8
0
100
AcDbLine
 10
8.409999999991555
 20
3.670999999996297
 30
0.0
 11
10.06399999998996
 21
3.670999999996297
 31
0.0
1001
ACAD
1000
ASC_BOUNDS
1002
{
1070
    19
1005
20359
1002
}
  0
LINE
  5
20337
330
20316
100
AcDbEntity
  8
0
100
AcDbLine
 10
10.53899999998941
 20
8.763099999991255
 30
0.0
 11
12.02999999998792
 21
8.763099999991255
 31
0.0
1001
ACAD
1000
ASC_BOUNDS
1002
{
1070
    19
1005
2035A
1002
}
  0
LINE
  5
20338
330
20316
100
AcDbEntity
  8
0
100
AcDbLine
 10
22.7389999999773
 20
3.670999999996297
 30
0.0
 11
23.56599999997638
 21
5.5200999999945
 31
0.0
1001
ACAD
1000
ASC_BOUNDS
1002
{
1070
    19
1005
2035B
1002
}
  0
LINE
  5
20339
330
20316
100
AcDbEntity
  8
0
100
AcDbLine
 10
22.7389999999773
 20
3.670999999996297
 30
0.0
 11
24.39299999997559
 21
3.670999999996297
 31
0.0
1001
ACAD
1000
ASC_BOUNDS
1002
{
1070
    19
1005
2035B
1002
}
  0
LINE
  5
2033A
330
20316
100
AcDbEntity
  8
0
100
AcDbLine
 10
18.59799999998143
 20
3.315799999996671
 30
0.0
 11
20.89099999997916
 21
8.763099999991255
 31
0.0
1001
ACAD
1000
ASC_BOUNDS
1002
{
1070
    19
1005
2035A
1002
}
  0
LINE
  5
2033B
330
20316
100
AcDbEntity
  8
0
100
AcDbLine
 10
18.59799999998143
 20
3.315799999996671
 30
0.0
 11
16.46099999998353
 21
8.999899999990987
 31
0.0
1001
ACAD
1000
ASC_BOUNDS
1002
{
1070
    19
1005
2035A
1002
}
  0
LINE
  5
2033C
330
20316
100
AcDbEntity
  8
0
100
AcDbLine
 10
20.89099999997916
 20
8.763099999991255
 30
0.0
 11
22.38199999997767
 21
8.763099999991255
 31
0.0
1001
ACAD
1000
ASC_BOUNDS
1002
{
1070
    19
1005
2035A
1002
}
  0
LINE
  5
2033D
330
20316
100
AcDbEntity
  8
0
100
AcDbLine
 10
24.39299999997559
 20
3.670999999996297
 30
0.0
 11
23.56599999997638
 21
5.5200999999945
 31
0.0
1001
ACAD
1000
ASC_BOUNDS
1002
{
1070
    19
1005
2035B
1002
}
  0
LINE
  5
2033E
330
20316
100
AcDbEntity
  8
0
100
AcDbLine
 10
44.99999999995498
 20
-0.2368999999997641
 30
0.0
 11
40.02599999995994
 21
5.341799999994635
 31
0.0
1001
ACAD
1000
ASC_BOUNDS
1002
{
1070
    19
1005
2035D
1002
}
  0
LINE
  5
2033F
330
20316
100
AcDbEntity
  8
0
100
AcDbLine
 10
40.02599999995994
 20
5.341799999994635
 30
0.0
 11
40.02599999995994
 21
0.0
 31
0.0
1001
ACAD
1000
ASC_BOUNDS
1002
{
1070
    19
1005
2035D
1002
}
  0
LINE
  5
20340
330
20316
100
AcDbEntity
  8
0
100
AcDbLine
 10
38.60499999996136
 20
8.999999999991019
 30
0.0
 11
38.60499999996136
 21
0.0
 31
0.0
1001
ACAD
1000
ASC_BOUNDS
1002
{
1070
    19
1005
2035D
1002
}
  0
LINE
  5
20341
330
20316
100
AcDbEntity
  8
0
100
AcDbLine
 10
44.99999999995498
 20
8.763099999991255
 30
0.0
 11
44.99999999995498
 21
-0.2368999999997641
 31
0.0
1001
ACAD
1000
ASC_BOUNDS
1002
{
1070
    19
1005
2035D
1002
}
  0
LINE
  5
20342
330
20316
100
AcDbEntity
  8
0
100
AcDbLine
 10
38.60499999996136
 20
0.0
 30
0.0
 11
40.02599999995994
 21
0.0
 31
0.0
1001
ACAD
1000
ASC_BOUNDS
1002
{
1070
    19
1005
2035D
1002
}
  0
LINE
  5
20343
330
20316
100
AcDbEntity
  8
0
100
AcDbLine
 10
43.57899999995641
 20
3.421199999996588
 30
0.0
 11
38.60499999996136
 21
8.999899999990987
 31
0.0
1001
ACAD
1000
ASC_BOUNDS
1002
{
1070
    19
1005
2035D
1002
}
  0
LINE
  5
20344
330
20316
100
AcDbEntity
  8
0
100
AcDbLine
 10
43.57899999995641
 20
8.763099999991255
 30
0.0
 11
43.57899999995641
 21
3.421199999996588
 31
0.0
1001
ACAD
1000
ASC_BOUNDS
1002
{
1070
    19
1005
2035D
1002
}
  0
LINE
  5
20345
330
20316
100
AcDbEntity
  8
0
100
AcDbLine
 10
43.57899999995641
 20
8.763099999991255
 30
0.0
 11
44.99999999995498
 21
8.763099999991255
 31
0.0
1001
ACAD
1000
ASC_BOUNDS
1002
{
1070
    19
1005
2035D
1002
}
  0
LINE
  5
20346
330
20316
100
AcDbEntity
  8
0
100
AcDbLine
 10
37.67199999996831
 20
8.763099999991255
 30
0.0
 11
36.23199999996837
 21
8.763099999991255
 31
0.0
  0
LINE
  5
20347
330
20316
100
AcDbEntity
  8
0
100
AcDbLine
 10
31.64199999996833
 20
8.763099999991255
 30
0.0
 11
31.64199999996833
 21
2.481619422925121
 31
0.0
  0
LINE
  5
20348
330
20316
100
AcDbEntity
  8
0
100
AcDbLine
 10
37.67199999996831
 20
8.763099999991255
 30
0.0
 11
37.67199999996831
 21
2.481619422925121
 31
0.0
  0
LINE
  5
20349
330
20316
100
AcDbEntity
  8
0
100
AcDbLine
 10
36.23199999996837
 20
8.763099999991255
 30
0.0
 11
36.23199999996837
 21
2.481619422925064
 31
0.0
  0
LINE
  5
2034A
330
20316
100
AcDbEntity
  8
0
100
AcDbLine
 10
33.08199999996839
 20
8.763099999991255
 30
0.0
 11
33.08199999996839
 21
2.481619422925121
 31
0.0
  0
ARC
  5
2034B
330
20316
100
AcDbEntity
  8
0
100
AcDbCircle
 10
34.65699999996832
 20
3.183099999991214
 30
0.0
 40
3.420000000000007
100
AcDbArc
 50
240.0000000000255
 51
299.9999999999766
  0
ARC
  5
2034C
330
20316
100
AcDbEntity
  8
0
100
AcDbCircle
 10
34.65699999996832
 20
3.183099999991214
 30
0.0
 40
1.97999999999999
100
AcDbArc
 50
240.000000000026
 51
299.9999999999703
  0
LINE
  5
2034D
330
20316
100
AcDbEntity
  8
0
100
AcDbLine
 10
33.08199999996828
 20
8.763099999991255
 30
0.0
 11
31.64199999996833
 21
8.763099999991255
 31
0.0
  0
ARC
  5
2034E
330
20316
100
AcDbEntity
  8
0
100
AcDbCircle
 10
35.06199999996829
 20
2.481619422925064
 30
0.0
 40
1.17
100
AcDbArc
 50
299.9999999999699
 51
0.0
  0
ARC
  5
2034F
330
20316
100
AcDbEntity
  8
0
100
AcDbCircle
 10
34.25199999996835
 20
2.481619422925121
 30
0.0
 40
1.17
100
AcDbArc
 50
180.0
 51
240.0000000000238
  0
ARC
  5
20350
330
20316
100
AcDbEntity
  8
0
100
AcDbCircle
 10
35.06199999996841
 20
2.481619422925121
 30
0.0
 40
2.61
100
AcDbArc
 50
299.9999999999756
 51
0.0
  0
ARC
  5
20351
330
20316
100
AcDbEntity
  8
0
100
AcDbCircle
 10
34.25199999996835
 20
2.481619422925121
 30
0.0
 40
2.61
100
AcDbArc
 50
180.0
 51
240.0000000000244
  0
LINE
  5
20352
330
20316
100
AcDbEntity
  8
0
100
AcDbLine
 10
29.30199999996933
 20
8.763099999991255
 30
0.0
 11
30.74199999996927
 21
8.763099999991255
 31
0.0
1001
ACAD
1000
ASC_BOUNDS
1002
{
1070
    19
1005
2035B
1002
}
  0
LINE
  5
20353
330
20316
100
AcDbEntity
  8
0
100
AcDbLine
 10
30.74199999996927
 20
8.763099999991255
 30
0.0
 11
30.74199999996927
 21
2.373099999991211
 31
0.0
1001
ACAD
1000
ASC_BOUNDS
1002
{
1070
    19
1005
2035B
1002
}
  0
LINE
  5
20354
330
20316
100
AcDbEntity
  8
0
100
AcDbLine
 10
26.02015566812236
 20
0.0330999999912365
 30
0.0
 11
28.40199999996923
 21
0.0330999999912365
 31
0.0
1001
ACAD
1000
ASC_BOUNDS
1002
{
1070
    19
1005
2035B
1002
}
  0
LINE
  5
20355
330
20316
100
AcDbEntity
  8
0
100
AcDbLine
 10
29.30199999996933
 20
8.763099999991255
 30
0.0
 11
29.30199999996933
 21
2.283099999991236
 31
0.0
1001
ACAD
1000
ASC_BOUNDS
1002
{
1070
    19
1005
2035B
1002
}
  0
LINE
  5
20356
330
20316
100
AcDbEntity
  8
0
100
AcDbLine
 10
26.97358892824991
 20
1.383099999991202
 30
0.0
 11
28.40199999996923
 21
1.383099999991202
 31
0.0
1001
ACAD
1000
ASC_BOUNDS
1002
{
1070
    19
1005
2035B
1002
}
  0
ARC
  5
20357
330
20316
100
AcDbEntity
  8
0
100
AcDbCircle
 10
28.40199999996923
 20
2.283099999991236
 30
0.0
 40
0.9
100
AcDbArc
 50
270.0
 51
0.0
1001
ACAD
1000
ASC_BOUNDS
1002
{
1070
    19
1005
2035B
1002
}
  0
ARC
  5
20358
330
20316
100
AcDbEntity
  8
0
100
AcDbCircle
 10
28.40199999996923
 20
2.373099999991211
 30
0.0
 40
2.34
100
AcDbArc
 50
270.0
 51
0.0
1001
ACAD
1000
ASC_BOUNDS
1002
{
1070
    19
1005
2035B
1002
}
  0
INSERT
  5
20359
330
20316
100
AcDbEntity
  8
0
100
AcDbBlockReference
  2
*X65
 10
0.0
 20
0.0
 30
0.0
1001
ACAD
1000
HATCH
1002
{
1070
    19
1000
ANSI37
1040
0.15
1040
0.0
1000
ASC_BOUNDS
1070
     2
1070
     2
1070
    12
1005
20318
1005
20319
1005
20320
1005
2032F
1005
20332
1005
20330
1005
20321
1005
20326
1005
20324
1005
20328
1005
20327
1005
20329
1070
     2
1070
     3
1005
20334
1005
20336
1005
20335
1000
ASC_SEEDPOINT
1011
3.614004224891801
1021
2.996669441146025
1031
0.0
1000
R14_HATCH_DATA
1000
20359
1011
1.0
1021
0.0
1031
0.0
1011
0.0
1021
1.0
1031
0.0
1011
0.0
1021
0.0
1031
1.0
1040
0.0
1010
0.0
1020
0.0
1030
1.0
1000
ANSI37
1070
     0
1070
     1
1071
        2
1071
        7
1070
     0
1070
     1
1071
       17
1040
13.26299999998673
1040
-0.0001000000000317
1040
9.236999999990758
1040
8.999899999990987
1040
9.236999999990758
1040
8.999999999991019
1040
5.657999999994331
1040
0.9999999999989768
1040
3.181999999996833
1040
4.668599999995308
1040
6.432999999993513
1040
8.763099999991255
1040
4.617999999995391
1040
8.763099999991255
1040
1.420999999998571
1040
4.736799999995242
1040
4.617999999995391
1040
-0.0001000000000317
1040
4.617999999995391
1040
0.0
1040
6.766999999993232
1040
0.0
1040
6.766999999993232
1040
-0.0001000000000317
1040
7.826999999992154
1040
2.368399999997621
1040
10.64699999998936
1040
2.368399999997621
1040
11.70599999998831
1040
-0.0001000000000317
1040
11.70599999998831
1040
0.0
1040
13.26299999998673
1040
0.0
1071
       12
1005
20318
1005
20319
1005
20320
1005
2032F
1005
20332
1005
20330
1005
20321
1005
20326
1005
20324
1005
20328
1005
20327
1005
20329
1071
       22
1070
     0
1070
     1
1071
        3
1040
9.236999999990758
1040
5.5200999999945
1040
10.06399999998996
1040
3.670999999996297
1040
8.409999999991555
1040
3.670999999996297
1071
        3
1005
20334
1005
20336
1005
20335
1070
     0
1070
     1
1040
0.0
1040
0.15
1070
     0
1070
     2
1040
0.7853981633974483
1040
49.29960901727088
1040
-10.17736998311392
1040
-0.3367596045400932
1040
0.3367596045400932
1070
     0
1040
2.356194490192345
1040
49.29960901727088
1040
-10.17736998311392
1040
-0.3367596045400932
1040
-0.3367596045400932
1070
     0
1040
0.0110235143455945
1071
        2
1040
3.614004224891801
1040
2.996669441146025
1040
0.0
1040
3.614004224891801
1040
2.996669441146025
1040
0.0
1002
}
  0
INSERT
  5
2035A
330
20316
100
AcDbEntity
  8
0
100
AcDbBlockReference
  2
*X66
 10
0.0
 20
0.0
 30
0.0
1001
ACAD
1000
HATCH
1002
{
1070
    19
1000
ANSI37
1040
0.15
1040
0.0
1000
ASC_BOUNDS
1070
     1
1070
     2
1070
    10
1005
2031A
1005
2031B
1005
2033C
1005
2033A
1005
2033B
1005
2032E
1005
20333
1005
20337
1005
2031D
1005
2031C
1000
ASC_SEEDPOINT
1011
14.73245321214324
1021
2.798246178283421
1031
0.0
1000
R14_HATCH_DATA
1000
2035A
1011
1.0
1021
0.0
1031
0.0
1011
0.0
1021
1.0
1031
0.0
1011
0.0
1021
0.0
1031
1.0
1040
0.0
1010
0.0
1020
0.0
1030
1.0
1000
ANSI37
1070
     0
1070
     1
1071
        1
1071
        7
1070
     0
1070
     1
1071
       10
1040
16.46099999998353
1040
5.432899999994561
1040
18.59199999998134
1040
-0.2368999999997641
1040
22.38199999997767
1040
8.763099999991255
1040
20.89099999997916
1040
8.763099999991255
1040
18.59799999998143
1040
3.315799999996671
1040
16.46099999998353
1040
8.999899999990987
1040
14.32399999998563
1040
3.315799999996671
1040
12.02999999998792
1040
8.763099999991255
1040
10.53899999998941
1040
8.763099999991255
1040
14.32899999998563
1040
-0.2368999999997641
1071
       10
1005
2031A
1005
2031B
1005
2033C
1005
2033A
1005
2033B
1005
2032E
1005
20333
1005
20337
1005
2031D
1005
2031C
1070
     0
1070
     1
1040
0.0
1040
0.15
1070
     0
1070
     2
1040
0.7853981633974483
1040
49.29960901727088
1040
-10.17736998311392
1040
-0.3367596045400932
1040
0.3367596045400932
1070
     0
1040
2.356194490192345
1040
49.29960901727088
1040
-10.17736998311392
1040
-0.3367596045400932
1040
-0.3367596045400932
1070
     0
1040
0.0110235143455945
1071
        1
1040
14.73245321214324
1040
2.798246178283421
1040
0.0
1002
}
  0
INSERT
  5
2035B
330
20316
100
AcDbEntity
  8
0
100
AcDbBlockReference
  2
*X67
 10
0.0
 20
0.0
 30
0.0
1001
ACAD
1000
HATCH
1002
{
1070
    19
1000
ANSI37
1040
0.15
1040
0.0
1000
ASC_BOUNDS
1070
     2
1070
     2
1070
    13
1005
2031E
1005
2032B
1005
2032C
1005
2032A
1005
2032D
1005
20354
1005
20358
1005
20353
1005
20352
1005
20355
1005
20357
1005
20356
1005
2031F
1070
     2
1070
     3
1005
20338
1005
2033D
1005
20339
1000
ASC_SEEDPOINT
1011
21.97929957367762
1021
3.294304244259308
1031
0.0
1000
R14_HATCH_DATA
1000
2035B
1011
1.0
1021
0.0
1031
0.0
1011
0.0
1021
1.0
1031
0.0
1011
0.0
1021
0.0
1031
1.0
1040
0.0
1010
0.0
1020
0.0
1030
1.0
1000
ANSI37
1070
     0
1070
     1
1071
        2
1071
        7
1070
     1
1070
     1
1071
       15
1040
23.56599999997638
1040
8.999899999990987
1040
0.0
1040
19.53899999998043
1040
-0.0001000000000317
1040
0.0
1040
19.53899999998043
1040
0.0
1040
0.0
1040
21.09599999997886
1040
0.0
1040
0.0
1040
21.09599999997886
1040
-0.0001000000000317
1040
0.0
1040
22.15599999997789
1040
2.368399999997621
1040
0.0
1040
24.97599999997499
1040
2.368399999997621
1040
0.0
1040
26.02015566812236
1040
0.0330999999912365
1040
0.0
1040
28.40199999996923
1040
0.0330999999912365
1040
0.414213562373095
1040
30.74199999996923
1040
2.373099999991211
1040
0.0
1040
30.74199999996927
1040
8.763099999991255
1040
0.0
1040
29.30199999996933
1040
8.763099999991255
1040
0.0
1040
29.30199999996933
1040
2.283099999991236
1040
-0.414213562373095
1040
28.40199999996923
1040
1.383099999991237
1040
0.0
1040
26.97358892824991
1040
1.383099999991202
1040
0.0
1071
       13
1005
2031E
1005
2032B
1005
2032C
1005
2032A
1005
2032D
1005
20354
1005
20358
1005
20353
1005
20352
1005
20355
1005
20357
1005
20356
1005
2031F
1071
       22
1070
     0
1070
     1
1071
        3
1040
22.7389999999773
1040
3.670999999996297
1040
23.56599999997638
1040
5.5200999999945
1040
24.39299999997559
1040
3.670999999996297
1071
        3
1005
20338
1005
2033D
1005
20339
1070
     0
1070
     1
1040
0.0
1040
0.15
1070
     0
1070
     2
1040
0.7853981633974483
1040
49.29960901727088
1040
-10.17736998311392
1040
-0.3367596045400932
1040
0.3367596045400932
1070
     0
1040
2.356194490192345
1040
49.29960901727088
1040
-10.17736998311392
1040
-0.3367596045400932
1040
-0.3367596045400932
1070
     0
1040
0.0110235143455945
1071
        2
1040
21.97929957367762
1040
3.294304244259308
1040
0.0
1040
21.97929957367762
1040
3.294304244259308
1040
0.0
1002
}
  0
INSERT
  5
2035C
330
20316
100
AcDbEntity
  8
0
100
AcDbBlockReference
  2
*X68
 10
0.0
 20
0.0
 30
0.0
1001
ACAD
1000
HATCH
1002
{
1070
    19
1000
ANSI37
1040
0.15
1040
0.0
1000
R14_HATCH_DATA
1000
2035C
1011
1.0
1021
0.0
1031
0.0
1011
0.0
1021
1.0
1031
0.0
1011
0.0
1021
0.0
1031
1.0
1040
0.0
1010
0.0
1020
0.0
1030
1.0
1000
ANSI37
1070
     0
1070
     1
1071
        1
1071
        7
1070
     1
1070
     1
1071
       12
1040
31.64199999996833
1040
2.481619422925121
1040
0.2679491924310942
1040
32.94699999997067
1040
0.2212931190493919
1040
0.2679491924301353
1040
36.36699999995983
1040
0.2212931190459813
1040
0.2679491924321411
1040
37.67199999996831
1040
2.481619422928361
1040
0.0
1040
37.67199999996831
1040
8.763099999991255
1040
0.0
1040
36.23199999996837
1040
8.763099999991255
1040
0.0
1040
36.23199999996837
1040
2.481619422925064
1040
-0.2679491924310291
1040
35.64699999996708
1040
1.468369700498386
1040
-0.267949192430519
1040
33.66699999997093
1040
1.468369700497703
1040
-0.267949192431809
1040
33.08199999996839
1040
2.481619422926997
1040
0.0
1040
33.08199999996839
1040
8.763099999991255
1040
0.0
1040
31.64199999996833
1040
8.763099999991255
1040
0.0
1071
        0
1070
     0
1070
     1
1040
0.0
1040
0.15
1070
     0
1070
     2
1040
0.7853981633974483
1040
49.29960901727088
1040
-10.17736998311392
1040
-0.3367596045400932
1040
0.3367596045400932
1070
     0
1040
2.356194490192345
1040
49.29960901727088
1040
-10.17736998311392
1040
-0.3367596045400932
1040
-0.3367596045400932
1070
     0
1040
0.0110235143455945
1071
        1
1040
32.30357378967278
1040
3.988785755459219
1040
0.0
1002
}
  0
INSERT
  5
2035D
330
20316
100
AcDbEntity
  8
0
100
AcDbBlockReference
  2
*X69
 10
0.0
 20
0.0
 30
0.0
1001
ACAD
1000
HATCH
1002
{
1070
    19
1000
ANSI37
1040
0.15
1040
0.0
1000
ASC_BOUNDS
1070
     1
1070
     2
1070
     8
1005
2033E
1005
20341
1005
20345
1005
20344
1005
20343
1005
20340
1005
20342
1005
2033F
1000
ASC_SEEDPOINT
1011
39.74896370716704
1021
4.484843821435049
1031
0.0
1000
R14_HATCH_DATA
1000
2035D
1011
1.0
1021
0.0
1031
0.0
1011
0.0
1021
1.0
1031
0.0
1011
0.0
1021
0.0
1031
1.0
1040
0.0
1010
0.0
1020
0.0
1030
1.0
1000
ANSI37
1070
     0
1070
     1
1071
        1
1071
        7
1070
     0
1070
     1
1071
        9
1040
40.02599999995994
1040
5.341799999994635
1040
44.99999999995498
1040
-0.2368999999997641
1040
44.99999999995498
1040
8.763099999991255
1040
43.57899999995641
1040
8.763099999991255
1040
43.57899999995641
1040
3.421199999996588
1040
38.60499999996136
1040
8.999899999990987
1040
38.60499999996136
1040
8.999999999991019
1040
38.60499999996136
1040
0.0
1040
40.02599999995994
1040
0.0
1071
        8
1005
2033E
1005
20341
1005
20345
1005
20344
1005
20343
1005
20340
1005
20342
1005
2033F
1070
     0
1070
     1
1040
0.0
1040
0.15
1070
     0
1070
     2
1040
0.7853981633974483
1040
49.29960901727088
1040
-10.17736998311392
1040
-0.3367596045400932
1040
0.3367596045400932
1070
     0
1040
2.356194490192345
1040
49.29960901727088
1040
-10.17736998311392
1040
-0.3367596045400932
1040
-0.3367596045400932
1070
     0
1040
0.0110235143455945
1071
        1
1040
39.74896370716704
1040
4.484843821435049
1040
0.0
1002
}
  0
INSERT
  5
2035E
330
20316
100
AcDbEntity
  8
0
100
AcDbBlockReference
  2
*X70
 10
0.0
 20
0.0
 30
0.0
1001
ACAD
1000
HATCH
1002
{
1070
    19
1000
ANSI37
1040
0.15
1040
0.0
1000
ASC_BOUNDS
1070
     1
1070
     2
1070
     4
1005
20322
1005
20331
1005
20323
1005
20325
1000
ASC_SEEDPOINT
1011
1.079051535452663
1021
4.148538732891836
1031
0.0
1000
R14_HATCH_DATA
1000
2035E
1011
1.0
1021
0.0
1031
0.0
1011
0.0
1021
1.0
1031
0.0
1011
0.0
1021
0.0
1031
1.0
1040
0.0
1010
0.0
1020
0.0
1030
1.0
1000
ANSI37
1070
     0
1070
     1
1071
        1
1071
        7
1070
     0
1070
     1
1071
        4
1040
1.420999999998571
1040
0.0
1040
1.420999999998571
1040
8.763099999991255
1040
0.0
1040
8.763099999991255
1040
0.0
1040
0.0
1071
        4
1005
20322
1005
20331
1005
20323
1005
20325
1070
     0
1070
     1
1040
0.0
1040
0.15
1070
     0
1070
     2
1040
0.7853981633974483
1040
49.29960901727088
1040
-10.17736998311392
1040
-0.3367596045400932
1040
0.3367596045400932
1070
     0
1040
2.356194490192345
1040
49.29960901727088
1040
-10.17736998311392
1040
-0.3367596045400932
1040
-0.3367596045400932
1070
     0
1040
0.0053004257112761
1071
        1
1040
1.079051535452663
1040
4.148538732891836
1040
0.0
1002
}
  0
ENDBLK
  5
20A16
330
20316
100
AcDbEntity
  8
0
100
AcDbBlockEnd
  0
BLOCK
  5
222D9
330
2214B
100
AcDbEntity
  8
0
100
AcDbBlockBegin
  2
*X65
 70
     1
 10
0.0
 20
0.0
 30
0.0
  3
*X65
  1

  0
LINE
  5
2214C
330
2214B
100
AcDbEntity
  8
0
  6
CONTINUOUS
100
AcDbLine
 10
3.418023043697893
 20
7.251849696850613
 30
0.0
 11
4.929273346838536
 21
8.763099999991255
 31
0.0
  0
LINE
  5
2214D
330
2214B
100
AcDbEntity
  8
0
  6
CONTINUOUS
100
AcDbLine
 10
1.483656411257782
 20
4.643963855330318
 30
0.0
 11
5.60279255591872
 21
8.763099999991255
 31
0.0
  0
LINE
  5
2214E
330
2214B
100
AcDbEntity
  8
0
  6
CONTINUOUS
100
AcDbLine
 10
1.755053947328235
 20
4.241842182320584
 30
0.0
 11
6.276311764998907
 21
8.763099999991255
 31
0.0
  0
LINE
  5
2214F
330
2214B
100
AcDbEntity
  8
0
  6
CONTINUOUS
100
AcDbLine
 10
2.026451483398688
 20
3.839720509310849
 30
0.0
 11
4.441040904851878
 21
6.254309930764039
 31
0.0
  0
LINE
  5
22150
330
2214B
100
AcDbEntity
  8
0
  6
CONTINUOUS
100
AcDbLine
 10
2.297849019469139
 20
3.437598836301114
 30
0.0
 11
3.321765168359338
 21
4.461514985191313
 31
0.0
  0
LINE
  5
22151
330
2214B
100
AcDbEntity
  8
0
  6
CONTINUOUS
100
AcDbLine
 10
2.569246555539591
 20
3.03547716329138
 30
0.0
 11
3.593163397972743
 21
4.059394005724531
 31
0.0
  0
LINE
  5
22152
330
2214B
100
AcDbEntity
  8
0
  6
CONTINUOUS
100
AcDbLine
 10
2.840644091610043
 20
2.633355490281646
 30
0.0
 11
3.864561627586149
 21
3.657273026257751
 31
0.0
  0
LINE
  5
22153
330
2214B
100
AcDbEntity
  8
0
  6
CONTINUOUS
100
AcDbLine
 10
3.112041627680496
 20
2.231233817271911
 30
0.0
 11
4.135959857199554
 21
3.25515204679097
 31
0.0
  0
LINE
  5
22154
330
2214B
100
AcDbEntity
  8
0
  6
CONTINUOUS
100
AcDbLine
 10
3.383439163750948
 20
1.829112144262177
 30
0.0
 11
4.40735808681296
 21
2.853031067324189
 31
0.0
  0
LINE
  5
22155
330
2214B
100
AcDbEntity
  8
0
  6
CONTINUOUS
100
AcDbLine
 10
3.654836699821399
 20
1.426990471252442
 30
0.0
 11
4.678756316426365
 21
2.450910087857407
 31
0.0
  0
LINE
  5
22156
330
2214B
100
AcDbEntity
  8
0
  6
CONTINUOUS
100
AcDbLine
 10
3.926234235891853
 20
1.024868798242709
 30
0.0
 11
4.95015454603977
 21
2.048789108390626
 31
0.0
  0
LINE
  5
22157
330
2214B
100
AcDbEntity
  8
0
  6
CONTINUOUS
100
AcDbLine
 10
4.197631771962304
 20
0.6227471252329737
 30
0.0
 11
5.221552775653176
 21
1.646668128923846
 31
0.0
  0
LINE
  5
22158
330
2214B
100
AcDbEntity
  8
0
  6
CONTINUOUS
100
AcDbLine
 10
8.715877546767851
 20
7.835069736359266
 30
0.0
 11
9.435953450375058
 21
8.555145639966472
 31
0.0
  0
LINE
  5
22159
330
2214B
100
AcDbEntity
  8
0
  6
CONTINUOUS
100
AcDbLine
 10
8.170620868422267
 20
6.616293848933497
 30
0.0
 11
9.644120833743461
 21
8.08979381425469
 31
0.0
  0
LINE
  5
2215A
330
2214B
100
AcDbEntity
  8
0
  6
CONTINUOUS
100
AcDbLine
 10
7.625364190076684
 20
5.397517961507727
 30
0.0
 11
9.852288217111864
 21
7.624441988542907
 31
0.0
  0
LINE
  5
2215B
330
2214B
100
AcDbEntity
  8
0
  6
CONTINUOUS
100
AcDbLine
 10
7.080107511731101
 20
4.178742074081957
 30
0.0
 11
10.06045560048027
 21
7.159090162831124
 31
0.0
  0
LINE
  5
2215C
330
2214B
100
AcDbEntity
  8
0
  6
CONTINUOUS
100
AcDbLine
 10
6.534850833385518
 20
2.959966186656187
 30
0.0
 11
10.26862298384867
 21
6.693738337119342
 31
0.0
  0
LINE
  5
2215D
330
2214B
100
AcDbEntity
  8
0
  6
CONTINUOUS
100
AcDbLine
 10
4.469029308032756
 20
0.2206254522232385
 30
0.0
 11
5.492951005266582
 21
1.244547149457064
 31
0.0
  0
LINE
  5
2215E
330
2214B
100
AcDbEntity
  8
0
  6
CONTINUOUS
100
AcDbLine
 10
5.989594155039935
 20
1.741190299230417
 30
0.0
 11
8.806950407233131
 21
4.558546551423613
 31
0.0
  0
LINE
  5
2215F
330
2214B
100
AcDbEntity
  8
0
  6
CONTINUOUS
100
AcDbLine
 10
9.401251593263643
 20
5.152847737454126
 30
0.0
 11
10.47679036721708
 21
6.228386511407559
 31
0.0
  0
LINE
  5
22160
330
2214B
100
AcDbEntity
  8
0
  6
CONTINUOUS
100
AcDbLine
 10
4.921837203428691
 20
-0.0000858614610131
 30
0.0
 11
8.592923064886001
 21
3.670999999996297
 31
0.0
  0
LINE
  5
22161
330
2214B
100
AcDbEntity
  8
0
  6
CONTINUOUS
100
AcDbLine
 10
9.609390446785305
 20
4.6874673818956
 30
0.0
 11
10.68495775058548
 21
5.763034685695775
 31
0.0
  0
LINE
  5
22162
330
2214B
100
AcDbEntity
  8
0
  6
CONTINUOUS
100
AcDbLine
 10
5.595387755019432
 20
-0.0000545189504582
 30
0.0
 11
7.716137258923768
 21
2.120694984953879
 31
0.0
  0
LINE
  5
22163
330
2214B
100
AcDbEntity
  8
0
  6
CONTINUOUS
100
AcDbLine
 10
6.268938306610172
 20
-0.000023176439905
 30
0.0
 11
7.170485805526503
 21
0.9015243224764267
 31
0.0
  0
LINE
  5
22164
330
2214B
100
AcDbEntity
  8
0
  6
CONTINUOUS
100
AcDbLine
 10
7.963842273967511
 20
2.368399999997621
 30
0.0
 11
9.266442273966188
 21
3.670999999996297
 31
0.0
  0
LINE
  5
22165
330
2214B
100
AcDbEntity
  8
0
  6
CONTINUOUS
100
AcDbLine
 10
8.637361483047696
 20
2.368399999997621
 30
0.0
 11
9.939961483046375
 21
3.670999999996297
 31
0.0
  0
LINE
  5
22166
330
2214B
100
AcDbEntity
  8
0
  6
CONTINUOUS
100
AcDbLine
 10
9.817529300306965
 20
4.222087026337075
 30
0.0
 11
10.89312513395388
 21
5.297682859983993
 31
0.0
  0
LINE
  5
22167
330
2214B
100
AcDbEntity
  8
0
  6
CONTINUOUS
100
AcDbLine
 10
10.02566815382863
 20
3.756706670778549
 30
0.0
 11
11.10129251732229
 21
4.832331034272211
 31
0.0
  0
LINE
  5
22168
330
2214B
100
AcDbEntity
  8
0
  6
CONTINUOUS
100
AcDbLine
 10
9.310880692127883
 20
2.368399999997621
 30
0.0
 11
11.30945990069069
 21
4.366979208560428
 31
0.0
  0
LINE
  5
22169
330
2214B
100
AcDbEntity
  8
0
  6
CONTINUOUS
100
AcDbLine
 10
9.98439990120807
 20
2.36839999999762
 30
0.0
 11
11.5176272840591
 21
3.901627382848645
 31
0.0
  0
LINE
  5
2216A
330
2214B
100
AcDbEntity
  8
0
  6
CONTINUOUS
100
AcDbLine
 10
10.65037369446246
 20
2.36085458417182
 30
0.0
 11
11.7257946674275
 21
3.436275557136862
 31
0.0
  0
LINE
  5
2216B
330
2214B
100
AcDbEntity
  8
0
  6
CONTINUOUS
100
AcDbLine
 10
10.85847197087848
 20
1.895433651507656
 30
0.0
 11
11.9339620507959
 21
2.97092373142508
 31
0.0
  0
LINE
  5
2216C
330
2214B
100
AcDbEntity
  8
0
  6
CONTINUOUS
100
AcDbLine
 10
11.0665702472945
 20
1.430012718843491
 30
0.0
 11
12.14212943416431
 21
2.505571905713296
 31
0.0
  0
LINE
  5
2216D
330
2214B
100
AcDbEntity
  8
0
  6
CONTINUOUS
100
AcDbLine
 10
11.27466852371052
 20
0.9645917861793256
 30
0.0
 11
12.35029681753271
 21
2.040220080001513
 31
0.0
  0
LINE
  5
2216E
330
2214B
100
AcDbEntity
  8
0
  6
CONTINUOUS
100
AcDbLine
 10
11.48276680012654
 20
0.4991708535151611
 30
0.0
 11
12.55846420090111
 21
1.57486825428973
 31
0.0
  0
LINE
  5
2216F
330
2214B
100
AcDbEntity
  8
0
  6
CONTINUOUS
100
AcDbLine
 10
11.69086507654257
 20
0.0337499208509957
 30
0.0
 11
12.76663158426952
 21
1.109516428577947
 31
0.0
  0
LINE
  5
22170
330
2214B
100
AcDbEntity
  8
0
  6
CONTINUOUS
100
AcDbLine
 10
12.33057447873954
 20
-0.0000598860322123
 30
0.0
 11
12.97479896763792
 21
0.6441646028661663
 31
0.0
  0
LINE
  5
22171
330
2214B
100
AcDbEntity
  8
0
  6
CONTINUOUS
100
AcDbLine
 10
13.00413694809395
 20
-0.0000166257579952
 30
0.0
 11
13.18296635100632
 21
0.1788127771543824
 31
0.0
  0
LINE
  5
22172
330
2214B
100
AcDbEntity
  8
0
  6
CONTINUOUS
100
AcDbLine
 10
4.772852165289667
 20
-0.000092794222212
 30
0.0
 11
4.296495091028902
 21
0.4762642800385528
 31
0.0
  0
LINE
  5
22173
330
2214B
100
AcDbEntity
  8
0
  6
CONTINUOUS
100
AcDbLine
 10
5.446340034776103
 20
-0.0000614546284616
 30
0.0
 11
2.898195908335625
 21
2.548082671812017
 31
0.0
  0
LINE
  5
22174
330
2214B
100
AcDbEntity
  8
0
  6
CONTINUOUS
100
AcDbLine
 10
6.119827904262539
 20
-0.0000301150347113
 30
0.0
 11
1.499896725642348
 21
4.61990106358548
 31
0.0
  0
LINE
  5
22175
330
2214B
100
AcDbEntity
  8
0
  6
CONTINUOUS
100
AcDbLine
 10
6.775136745476159
 20
0.0181802528318542
 30
0.0
 11
5.699826040202669
 21
1.093490958105344
 31
0.0
  0
LINE
  5
22176
330
2214B
100
AcDbEntity
  8
0
  6
CONTINUOUS
100
AcDbLine
 10
6.983376846288489
 20
0.4834593610997118
 30
0.0
 11
5.908008617934405
 21
1.558827589453796
 31
0.0
  0
LINE
  5
22177
330
2214B
100
AcDbEntity
  8
0
  6
CONTINUOUS
100
AcDbLine
 10
5.377063484962296
 20
1.416253513345719
 30
0.0
 11
1.702276957014131
 21
5.091040041293883
 31
0.0
  0
LINE
  5
22178
330
2214B
100
AcDbEntity
  8
0
  6
CONTINUOUS
100
AcDbLine
 10
3.978745891735324
 20
3.488090315652877
 30
0.0
 11
2.000373521109399
 21
5.466462686278803
 31
0.0
  0
LINE
  5
22179
330
2214B
100
AcDbEntity
  8
0
  6
CONTINUOUS
100
AcDbLine
 10
7.191616947100819
 20
0.948738469367568
 30
0.0
 11
6.11619119566614
 21
2.024164220802247
 31
0.0
  0
LINE
  5
2217A
330
2214B
100
AcDbEntity
  8
0
  6
CONTINUOUS
100
AcDbLine
 10
7.399857047913149
 20
1.414017577635424
 30
0.0
 11
6.324373773397875
 21
2.489500852150698
 31
0.0
  0
LINE
  5
2217B
330
2214B
100
AcDbEntity
  8
0
  6
CONTINUOUS
100
AcDbLine
 10
7.608097148725479
 20
1.879296685903281
 30
0.0
 11
6.53255635112961
 21
2.95483748349915
 31
0.0
  0
LINE
  5
2217C
330
2214B
100
AcDbEntity
  8
0
  6
CONTINUOUS
100
AcDbLine
 10
7.816337249537808
 20
2.344575794171138
 30
0.0
 11
6.740738928861345
 21
3.420174114847601
 31
0.0
  0
LINE
  5
2217D
330
2214B
100
AcDbEntity
  8
0
  6
CONTINUOUS
100
AcDbLine
 10
3.310241080789734
 20
4.830114335678653
 30
0.0
 11
2.298470085204666
 21
5.84188533126372
 31
0.0
  0
LINE
  5
2217E
330
2214B
100
AcDbEntity
  8
0
  6
CONTINUOUS
100
AcDbLine
 10
3.60832983563551
 20
5.205544789913063
 30
0.0
 11
2.596566649299935
 21
6.217307976248638
 31
0.0
  0
LINE
  5
2217F
330
2214B
100
AcDbEntity
  8
0
  6
CONTINUOUS
100
AcDbLine
 10
3.906418590481286
 20
5.580975244147473
 30
0.0
 11
2.894663213395203
 21
6.592730621233557
 31
0.0
  0
LINE
  5
22180
330
2214B
100
AcDbEntity
  8
0
  6
CONTINUOUS
100
AcDbLine
 10
4.204507345327062
 20
5.956405698381884
 30
0.0
 11
3.192759777490472
 21
6.968153266218474
 31
0.0
  0
LINE
  5
22181
330
2214B
100
AcDbEntity
  8
0
  6
CONTINUOUS
100
AcDbLine
 10
8.466032252791512
 20
2.368399999997621
 30
0.0
 11
6.948921506593081
 21
3.885510746196053
 31
0.0
  0
LINE
  5
22182
330
2214B
100
AcDbEntity
  8
0
  6
CONTINUOUS
100
AcDbLine
 10
9.139551461871699
 20
2.36839999999762
 30
0.0
 11
7.157104084324816
 21
4.350847377544504
 31
0.0
  0
LINE
  5
22183
330
2214B
100
AcDbEntity
  8
0
  6
CONTINUOUS
100
AcDbLine
 10
4.502596100172839
 20
6.331836152616295
 30
0.0
 11
3.49085634158574
 21
7.343575911203393
 31
0.0
  0
LINE
  5
22184
330
2214B
100
AcDbEntity
  8
0
  6
CONTINUOUS
100
AcDbLine
 10
4.800684855018615
 20
6.707266606850705
 30
0.0
 11
3.788952905681008
 21
7.718998556188312
 31
0.0
  0
LINE
  5
22185
330
2214B
100
AcDbEntity
  8
0
  6
CONTINUOUS
100
AcDbLine
 10
12.18154012887317
 20
-0.0000694579236642
 30
0.0
 11
11.32140332908496
 21
0.8600673418645499
 31
0.0
  0
LINE
  5
22186
330
2214B
100
AcDbEntity
  8
0
  6
CONTINUOUS
100
AcDbLine
 10
12.85501608323566
 20
-0.0000262032059659
 30
0.0
 11
10.77672456435345
 21
2.078265315676246
 31
0.0
  0
LINE
  5
22187
330
2214B
100
AcDbEntity
  8
0
  6
CONTINUOUS
100
AcDbLine
 10
9.813070670951886
 20
2.36839999999762
 30
0.0
 11
8.51047067095321
 21
3.670999999996297
 31
0.0
  0
LINE
  5
22188
330
2214B
100
AcDbEntity
  8
0
  6
CONTINUOUS
100
AcDbLine
 10
10.48658988003207
 20
2.36839999999762
 30
0.0
 11
9.183989880033396
 21
3.670999999996297
 31
0.0
  0
LINE
  5
22189
330
2214B
100
AcDbEntity
  8
0
  6
CONTINUOUS
100
AcDbLine
 10
8.441048632286794
 20
3.740422038662712
 30
0.0
 11
7.365286662056551
 21
4.816184008892956
 31
0.0
  0
LINE
  5
2218A
330
2214B
100
AcDbEntity
  8
0
  6
CONTINUOUS
100
AcDbLine
 10
8.649187485808454
 20
4.205802394221237
 30
0.0
 11
7.573469239788285
 21
5.281520640241407
 31
0.0
  0
LINE
  5
2218B
330
2214B
100
AcDbEntity
  8
0
  6
CONTINUOUS
100
AcDbLine
 10
5.098773609864391
 20
7.082697061085115
 30
0.0
 11
4.087049469776277
 21
8.09442120117323
 31
0.0
  0
LINE
  5
2218C
330
2214B
100
AcDbEntity
  8
0
  6
CONTINUOUS
100
AcDbLine
 10
5.396862364710167
 20
7.458127515319526
 30
0.0
 11
4.385146033871544
 21
8.469843846158149
 31
0.0
  0
LINE
  5
2218D
330
2214B
100
AcDbEntity
  8
0
  6
CONTINUOUS
100
AcDbLine
 10
13.04801363231285
 20
0.4804954567970334
 30
0.0
 11
9.85750908911358
 21
3.670999999996297
 31
0.0
  0
LINE
  5
2218E
330
2214B
100
AcDbEntity
  8
0
  6
CONTINUOUS
100
AcDbLine
 10
8.857326339330116
 20
4.671182749779763
 30
0.0
 11
7.781651817520021
 21
5.746857271589858
 31
0.0
  0
LINE
  5
2218F
330
2214B
100
AcDbEntity
  8
0
  6
CONTINUOUS
100
AcDbLine
 10
5.694951119555943
 20
7.833557969553937
 30
0.0
 11
4.765409089118624
 21
8.763099999991255
 31
0.0
  0
LINE
  5
22190
330
2214B
100
AcDbEntity
  8
0
  6
CONTINUOUS
100
AcDbLine
 10
12.50286117236978
 20
1.699167125820288
 30
0.0
 11
9.68611877250287
 21
4.515909525687196
 31
0.0
  0
LINE
  5
22191
330
2214B
100
AcDbEntity
  8
0
  6
CONTINUOUS
100
AcDbLine
 10
9.065465192851777
 20
5.136563105338288
 30
0.0
 11
7.989834395251757
 21
6.21219390293831
 31
0.0
  0
LINE
  5
22192
330
2214B
100
AcDbEntity
  8
0
  6
CONTINUOUS
100
AcDbLine
 10
5.993039874401719
 20
8.208988423788346
 30
0.0
 11
5.43892829819881
 21
8.763099999991255
 31
0.0
  0
LINE
  5
22193
330
2214B
100
AcDbEntity
  8
0
  6
CONTINUOUS
100
AcDbLine
 10
11.95770871242671
 20
2.917838794843543
 30
0.0
 11
8.19801697298349
 21
6.677530534286761
 31
0.0
  0
LINE
  5
22194
330
2214B
100
AcDbEntity
  8
0
  6
CONTINUOUS
100
AcDbLine
 10
6.291128629247495
 20
8.584418878022756
 30
0.0
 11
6.112447507278997
 21
8.763099999991255
 31
0.0
  0
LINE
  5
22195
330
2214B
100
AcDbEntity
  8
0
  6
CONTINUOUS
100
AcDbLine
 10
11.41255625248364
 20
4.136510463866797
 30
0.0
 11
8.406199550715227
 21
7.142867165635211
 31
0.0
  0
LINE
  5
22196
330
2214B
100
AcDbEntity
  8
0
  6
CONTINUOUS
100
AcDbLine
 10
10.86740379254057
 20
5.355182132890051
 30
0.0
 11
8.614382128446962
 21
7.608203796983664
 31
0.0
  0
LINE
  5
22197
330
2214B
100
AcDbEntity
  8
0
  6
CONTINUOUS
100
AcDbLine
 10
10.3222513325975
 20
6.573853801913305
 30
0.0
 11
8.822564706178696
 21
8.073540428332114
 31
0.0
  0
LINE
  5
22198
330
2214B
100
AcDbEntity
  8
0
  6
CONTINUOUS
100
AcDbLine
 10
9.777098872654436
 20
7.792525470936562
 30
0.0
 11
9.030747283910433
 21
8.538877059680566
 31
0.0
  0
ENDBLK
  5
222DA
330
2214B
100
AcDbEntity
  8
0
100
AcDbBlockEnd
  0
BLOCK
  5
222DB
330
22199
100
AcDbEntity
  8
0
100
AcDbBlockBegin
  2
*X66
 70
     1
 10
0.0
 20
0.0
 30
0.0
  3
*X66
  1

  0
LINE
  5
2219A
330
22199
100
AcDbEntity
  8
0
  6
CONTINUOUS
100
AcDbLine
 10
10.67292308101235
 20
8.445076852443387
 30
0.0
 11
10.99094622856022
 21
8.763099999991255
 31
0.0
  0
LINE
  5
2219B
330
22199
100
AcDbEntity
  8
0
  6
CONTINUOUS
100
AcDbLine
 10
10.87250383178748
 20
7.971138394138331
 30
0.0
 11
11.6644654376404
 21
8.763099999991255
 31
0.0
  0
LINE
  5
2219C
330
22199
100
AcDbEntity
  8
0
  6
CONTINUOUS
100
AcDbLine
 10
11.07208458256261
 20
7.497199935833273
 30
0.0
 11
12.12126590876355
 21
8.546381262034211
 31
0.0
  0
LINE
  5
2219D
330
22199
100
AcDbEntity
  8
0
  6
CONTINUOUS
100
AcDbLine
 10
11.27166533333774
 20
7.023261477528216
 30
0.0
 11
12.32085164573666
 21
8.072447789927136
 31
0.0
  0
LINE
  5
2219E
330
22199
100
AcDbEntity
  8
0
  6
CONTINUOUS
100
AcDbLine
 10
11.47124608411287
 20
6.549323019223158
 30
0.0
 11
12.52043738270977
 21
7.59851431782006
 31
0.0
  0
LINE
  5
2219F
330
22199
100
AcDbEntity
  8
0
  6
CONTINUOUS
100
AcDbLine
 10
11.670826834888
 20
6.075384560918101
 30
0.0
 11
12.72002311968288
 21
7.124580845712984
 31
0.0
  0
LINE
  5
221A0
330
22199
100
AcDbEntity
  8
0
  6
CONTINUOUS
100
AcDbLine
 10
11.87040758566313
 20
5.601446102613043
 30
0.0
 11
12.91960885665599
 21
6.650647373605907
 31
0.0
  0
LINE
  5
221A1
330
22199
100
AcDbEntity
  8
0
  6
CONTINUOUS
100
AcDbLine
 10
12.06998833643825
 20
5.127507644307986
 30
0.0
 11
13.1191945936291
 21
6.176713901498832
 31
0.0
  0
LINE
  5
221A2
330
22199
100
AcDbEntity
  8
0
  6
CONTINUOUS
100
AcDbLine
 10
12.26956908721338
 20
4.65356918600293
 30
0.0
 11
13.31878033060221
 21
5.702780429391757
 31
0.0
  0
LINE
  5
221A3
330
22199
100
AcDbEntity
  8
0
  6
CONTINUOUS
100
AcDbLine
 10
12.46914983798851
 20
4.179630727697873
 30
0.0
 11
13.51836606757532
 21
5.228846957284683
 31
0.0
  0
LINE
  5
221A4
330
22199
100
AcDbEntity
  8
0
  6
CONTINUOUS
100
AcDbLine
 10
12.66873058876364
 20
3.705692269392816
 30
0.0
 11
13.71795180454843
 21
4.754913485177607
 31
0.0
  0
LINE
  5
221A5
330
22199
100
AcDbEntity
  8
0
  6
CONTINUOUS
100
AcDbLine
 10
12.86831133953877
 20
3.231753811087759
 30
0.0
 11
13.91753754152154
 21
4.280980013070531
 31
0.0
  0
LINE
  5
221A6
330
22199
100
AcDbEntity
  8
0
  6
CONTINUOUS
100
AcDbLine
 10
13.0678920903139
 20
2.757815352782702
 30
0.0
 11
14.11712327849465
 21
3.807046540963456
 31
0.0
  0
LINE
  5
221A7
330
22199
100
AcDbEntity
  8
0
  6
CONTINUOUS
100
AcDbLine
 10
13.26747284108903
 20
2.283876894477644
 30
0.0
 11
14.31670901546777
 21
3.333113068856379
 31
0.0
  0
LINE
  5
221A8
330
22199
100
AcDbEntity
  8
0
  6
CONTINUOUS
100
AcDbLine
 10
16.36767838827179
 20
8.751678487061342
 30
0.0
 11
16.50332410898388
 21
8.887324207773432
 31
0.0
  0
LINE
  5
221A9
330
22199
100
AcDbEntity
  8
0
  6
CONTINUOUS
100
AcDbLine
 10
15.96190732182191
 20
7.67238821153127
 30
0.0
 11
16.68735328004734
 21
8.397834169756699
 31
0.0
  0
LINE
  5
221AA
330
22199
100
AcDbEntity
  8
0
  6
CONTINUOUS
100
AcDbLine
 10
15.55613625537202
 20
6.593097936001196
 30
0.0
 11
16.87138245111079
 21
7.908344131739965
 31
0.0
  0
LINE
  5
221AB
330
22199
100
AcDbEntity
  8
0
  6
CONTINUOUS
100
AcDbLine
 10
15.15036518892213
 20
5.513807660471122
 30
0.0
 11
17.05541162217424
 21
7.418854093723231
 31
0.0
  0
LINE
  5
221AC
330
22199
100
AcDbEntity
  8
0
  6
CONTINUOUS
100
AcDbLine
 10
14.74459412247225
 20
4.434517384941048
 30
0.0
 11
17.2394407932377
 21
6.929364055706499
 31
0.0
  0
LINE
  5
221AD
330
22199
100
AcDbEntity
  8
0
  6
CONTINUOUS
100
AcDbLine
 10
14.33882305602236
 20
3.355227109410975
 30
0.0
 11
17.42346996430115
 21
6.439874017689766
 31
0.0
  0
LINE
  5
221AE
330
22199
100
AcDbEntity
  8
0
  6
CONTINUOUS
100
AcDbLine
 10
13.46705359186416
 20
1.809938436172586
 30
0.0
 11
16.0819338255367
 21
4.424818669845129
 31
0.0
  0
LINE
  5
221AF
330
22199
100
AcDbEntity
  8
0
  6
CONTINUOUS
100
AcDbLine
 10
16.63283254238972
 20
4.975717386698149
 30
0.0
 11
17.60749913536461
 21
5.950383979673033
 31
0.0
  0
LINE
  5
221B0
330
22199
100
AcDbEntity
  8
0
  6
CONTINUOUS
100
AcDbLine
 10
13.66663434263929
 20
1.335999977867529
 30
0.0
 11
15.67604797733754
 21
3.345413612565779
 31
0.0
  0
LINE
  5
221B1
330
22199
100
AcDbEntity
  8
0
  6
CONTINUOUS
100
AcDbLine
 10
13.86621509341442
 20
0.8620615195624723
 30
0.0
 11
15.27016212913838
 21
2.26600855528643
 31
0.0
  0
LINE
  5
221B2
330
22199
100
AcDbEntity
  8
0
  6
CONTINUOUS
100
AcDbLine
 10
16.81682257348267
 20
4.486188208710908
 30
0.0
 11
17.79152830642806
 21
5.460893941656299
 31
0.0
  0
LINE
  5
221B3
330
22199
100
AcDbEntity
  8
0
  6
CONTINUOUS
100
AcDbLine
 10
17.00081260457561
 20
3.996659030723667
 30
0.0
 11
17.97555747749151
 21
4.971403903639565
 31
0.0
  0
LINE
  5
221B4
330
22199
100
AcDbEntity
  8
0
  6
CONTINUOUS
100
AcDbLine
 10
20.74362343514722
 20
8.412989070375462
 30
0.0
 11
21.09373436476302
 21
8.763099999991256
 31
0.0
  0
LINE
  5
221B5
330
22199
100
AcDbEntity
  8
0
  6
CONTINUOUS
100
AcDbLine
 10
20.25401257174777
 20
7.249858997895826
 30
0.0
 11
21.7672535738432
 21
8.763099999991255
 31
0.0
  0
LINE
  5
221B6
330
22199
100
AcDbEntity
  8
0
  6
CONTINUOUS
100
AcDbLine
 10
14.06579584418955
 20
0.3881230612574149
 30
0.0
 11
14.86427628093921
 21
1.186603498007082
 31
0.0
  0
LINE
  5
221B7
330
22199
100
AcDbEntity
  8
0
  6
CONTINUOUS
100
AcDbLine
 10
14.26537659496467
 20
-0.0858153970476412
 30
0.0
 11
14.45839043274005
 21
0.1071984407277329
 31
0.0
  0
LINE
  5
221B8
330
22199
100
AcDbEntity
  8
0
  6
CONTINUOUS
100
AcDbLine
 10
17.18480263566856
 20
3.507129852736426
 30
0.0
 11
18.15958664855496
 21
4.481913865622833
 31
0.0
  0
LINE
  5
221B9
330
22199
100
AcDbEntity
  8
0
  6
CONTINUOUS
100
AcDbLine
 10
17.3687926667615
 20
3.017600674749186
 30
0.0
 11
18.34361581961842
 21
3.9924238276061
 31
0.0
  0
LINE
  5
221BA
330
22199
100
AcDbEntity
  8
0
  6
CONTINUOUS
100
AcDbLine
 10
19.76440170834832
 20
6.086728925416191
 30
0.0
 11
22.33924590259489
 21
8.661573119662755
 31
0.0
  0
LINE
  5
221BB
330
22199
100
AcDbEntity
  8
0
  6
CONTINUOUS
100
AcDbLine
 10
19.27479084494887
 20
4.923598852936555
 30
0.0
 11
21.84929622842713
 21
7.498104236414807
 31
0.0
  0
LINE
  5
221BC
330
22199
100
AcDbEntity
  8
0
  6
CONTINUOUS
100
AcDbLine
 10
17.55278269785445
 20
2.528071496761945
 30
0.0
 11
18.52764499068187
 21
3.502933789589366
 31
0.0
  0
LINE
  5
221BD
330
22199
100
AcDbEntity
  8
0
  6
CONTINUOUS
100
AcDbLine
 10
18.78517998154942
 20
3.760468780456919
 30
0.0
 11
21.35934655425936
 21
6.33463535316686
 31
0.0
  0
LINE
  5
221BE
330
22199
100
AcDbEntity
  8
0
  6
CONTINUOUS
100
AcDbLine
 10
17.73677272894739
 20
2.038542318774704
 30
0.0
 11
20.8693968800916
 21
5.171166469918914
 31
0.0
  0
LINE
  5
221BF
330
22199
100
AcDbEntity
  8
0
  6
CONTINUOUS
100
AcDbLine
 10
17.92076276004034
 20
1.549013140787464
 30
0.0
 11
20.37944720592384
 21
4.007697586670968
 31
0.0
  0
LINE
  5
221C0
330
22199
100
AcDbEntity
  8
0
  6
CONTINUOUS
100
AcDbLine
 10
18.10475279113329
 20
1.059483962800223
 30
0.0
 11
19.88949753175608
 21
2.84422870342302
 31
0.0
  0
LINE
  5
221C1
330
22199
100
AcDbEntity
  8
0
  6
CONTINUOUS
100
AcDbLine
 10
18.28874282222623
 20
0.5699547848129822
 30
0.0
 11
19.39954785758832
 21
1.680759820175074
 31
0.0
  0
LINE
  5
221C2
330
22199
100
AcDbEntity
  8
0
  6
CONTINUOUS
100
AcDbLine
 10
18.47273285331918
 20
0.0804256068257416
 30
0.0
 11
18.90959818342056
 21
0.517290936927127
 31
0.0
  0
LINE
  5
221C3
330
22199
100
AcDbEntity
  8
0
  6
CONTINUOUS
100
AcDbLine
 10
14.3590401358224
 20
-0.1570118376323384
 30
0.0
 11
14.24903296539946
 21
-0.0470046672093929
 31
0.0
  0
LINE
  5
221C4
330
22199
100
AcDbEntity
  8
0
  6
CONTINUOUS
100
AcDbLine
 10
14.54309291258661
 20
0.332454594683643
 30
0.0
 11
13.75908329123172
 21
1.116464216038529
 31
0.0
  0
LINE
  5
221C5
330
22199
100
AcDbEntity
  8
0
  6
CONTINUOUS
100
AcDbLine
 10
14.72714568935081
 20
0.8219210269996244
 30
0.0
 11
13.26913361706399
 21
2.27993309928645
 31
0.0
  0
LINE
  5
221C6
330
22199
100
AcDbEntity
  8
0
  6
CONTINUOUS
100
AcDbLine
 10
14.91119846611502
 20
1.311387459315606
 30
0.0
 11
12.77918394289625
 21
3.443401982534371
 31
0.0
  0
LINE
  5
221C7
330
22199
100
AcDbEntity
  8
0
  6
CONTINUOUS
100
AcDbLine
 10
15.09525124287922
 20
1.800853891631587
 30
0.0
 11
12.28923426872852
 21
4.606870865782293
 31
0.0
  0
LINE
  5
221C8
330
22199
100
AcDbEntity
  8
0
  6
CONTINUOUS
100
AcDbLine
 10
15.27930401964343
 20
2.290320323947569
 30
0.0
 11
11.79928459456078
 21
5.770339749030213
 31
0.0
  0
LINE
  5
221C9
330
22199
100
AcDbEntity
  8
0
  6
CONTINUOUS
100
AcDbLine
 10
15.46335679640763
 20
2.77978675626355
 30
0.0
 11
14.48885470994921
 21
3.754288842721972
 31
0.0
  0
LINE
  5
221CA
330
22199
100
AcDbEntity
  8
0
  6
CONTINUOUS
100
AcDbLine
 10
13.88507249233704
 20
4.358071060334137
 30
0.0
 11
11.30933492039305
 21
6.933808632278135
 31
0.0
  0
LINE
  5
221CB
330
22199
100
AcDbEntity
  8
0
  6
CONTINUOUS
100
AcDbLine
 10
18.75840522805855
 20
0.1582575336928151
 30
0.0
 11
18.25383727664818
 21
0.6628254851031863
 31
0.0
  0
LINE
  5
221CC
330
22199
100
AcDbEntity
  8
0
  6
CONTINUOUS
100
AcDbLine
 10
15.64740957317184
 20
3.269253188579531
 30
0.0
 11
14.67288388101266
 21
4.243778880738705
 31
0.0
  0
LINE
  5
221CD
330
22199
100
AcDbEntity
  8
0
  6
CONTINUOUS
100
AcDbLine
 10
13.39509276772158
 20
5.521569994029786
 30
0.0
 11
10.81938524622531
 21
8.097277515526056
 31
0.0
  0
LINE
  5
221CE
330
22199
100
AcDbEntity
  8
0
  6
CONTINUOUS
100
AcDbLine
 10
18.95798597883369
 20
0.6321959919978686
 30
0.0
 11
17.84825644852853
 21
1.741925522303024
 31
0.0
  0
LINE
  5
221CF
330
22199
100
AcDbEntity
  8
0
  6
CONTINUOUS
100
AcDbLine
 10
19.15756672960882
 20
1.106134450302922
 30
0.0
 11
17.44267562040888
 21
2.821025559502861
 31
0.0
  0
LINE
  5
221D0
330
22199
100
AcDbEntity
  8
0
  6
CONTINUOUS
100
AcDbLine
 10
15.83146234993604
 20
3.758719620895513
 30
0.0
 11
14.85691305207612
 21
4.733268918755439
 31
0.0
  0
LINE
  5
221D1
330
22199
100
AcDbEntity
  8
0
  6
CONTINUOUS
100
AcDbLine
 10
16.01551512670025
 20
4.248186053211494
 30
0.0
 11
15.04094222313957
 21
5.222758956772172
 31
0.0
  0
LINE
  5
221D2
330
22199
100
AcDbEntity
  8
0
  6
CONTINUOUS
100
AcDbLine
 10
12.90511304310612
 20
6.685068927725435
 30
0.0
 11
10.8270819708403
 21
8.763099999991255
 31
0.0
  0
LINE
  5
221D3
330
22199
100
AcDbEntity
  8
0
  6
CONTINUOUS
100
AcDbLine
 10
12.41513331849066
 20
7.848567861421083
 30
0.0
 11
11.50060117992049
 21
8.763099999991255
 31
0.0
  0
LINE
  5
221D4
330
22199
100
AcDbEntity
  8
0
  6
CONTINUOUS
100
AcDbLine
 10
19.35714748038395
 20
1.580072908607975
 30
0.0
 11
17.03709479228923
 21
3.900125596702697
 31
0.0
  0
LINE
  5
221D5
330
22199
100
AcDbEntity
  8
0
  6
CONTINUOUS
100
AcDbLine
 10
19.55672823115909
 20
2.054011366913028
 30
0.0
 11
16.63151396416958
 21
4.979225633902534
 31
0.0
  0
LINE
  5
221D6
330
22199
100
AcDbEntity
  8
0
  6
CONTINUOUS
100
AcDbLine
 10
16.19956790346445
 20
4.737652485527476
 30
0.0
 11
15.22497139420302
 21
5.712248994788904
 31
0.0
  0
LINE
  5
221D7
330
22199
100
AcDbEntity
  8
0
  6
CONTINUOUS
100
AcDbLine
 10
16.38362068022866
 20
5.227118917843457
 30
0.0
 11
15.40900056526648
 21
6.201739032805637
 31
0.0
  0
LINE
  5
221D8
330
22199
100
AcDbEntity
  8
0
  6
CONTINUOUS
100
AcDbLine
 10
19.75630898193422
 20
2.527949825218081
 30
0.0
 11
18.70774536448286
 21
3.576513442669441
 31
0.0
  0
LINE
  5
221D9
330
22199
100
AcDbEntity
  8
0
  6
CONTINUOUS
100
AcDbLine
 10
19.95588973270936
 20
3.001888283523134
 30
0.0
 11
18.90726987211446
 21
4.050508144118028
 31
0.0
  0
LINE
  5
221DA
330
22199
100
AcDbEntity
  8
0
  6
CONTINUOUS
100
AcDbLine
 10
20.15547048348449
 20
3.475826741828186
 30
0.0
 11
19.10679437974606
 21
4.524502845566614
 31
0.0
  0
LINE
  5
221DB
330
22199
100
AcDbEntity
  8
0
  6
CONTINUOUS
100
AcDbLine
 10
20.35505123425962
 20
3.94976520013324
 30
0.0
 11
19.30631888737766
 21
4.998497547015201
 31
0.0
  0
LINE
  5
221DC
330
22199
100
AcDbEntity
  8
0
  6
CONTINUOUS
100
AcDbLine
 10
20.55463198503475
 20
4.423703658438292
 30
0.0
 11
19.50584339500926
 21
5.472492248463787
 31
0.0
  0
LINE
  5
221DD
330
22199
100
AcDbEntity
  8
0
  6
CONTINUOUS
100
AcDbLine
 10
18.37481191085755
 20
3.909446896294752
 30
0.0
 11
15.59302973632993
 21
6.691229070822371
 31
0.0
  0
LINE
  5
221DE
330
22199
100
AcDbEntity
  8
0
  6
CONTINUOUS
100
AcDbLine
 10
17.96904084440766
 20
4.988737171824825
 30
0.0
 11
15.77705890739338
 21
7.180719108839104
 31
0.0
  0
LINE
  5
221DF
330
22199
100
AcDbEntity
  8
0
  6
CONTINUOUS
100
AcDbLine
 10
17.56326977795777
 20
6.068027447354899
 30
0.0
 11
15.96108807845684
 21
7.670209146855838
 31
0.0
  0
LINE
  5
221E0
330
22199
100
AcDbEntity
  8
0
  6
CONTINUOUS
100
AcDbLine
 10
17.15749871150789
 20
7.147317722884972
 30
0.0
 11
16.14511724952029
 21
8.15969918487257
 31
0.0
  0
LINE
  5
221E1
330
22199
100
AcDbEntity
  8
0
  6
CONTINUOUS
100
AcDbLine
 10
16.751727645058
 20
8.226607998415046
 30
0.0
 11
16.32914642058374
 21
8.649189222889303
 31
0.0
  0
LINE
  5
221E2
330
22199
100
AcDbEntity
  8
0
  6
CONTINUOUS
100
AcDbLine
 10
20.75421273580989
 20
4.897642116743345
 30
0.0
 11
19.70536790264086
 21
5.946486949912374
 31
0.0
  0
LINE
  5
221E3
330
22199
100
AcDbEntity
  8
0
  6
CONTINUOUS
100
AcDbLine
 10
20.95379348658502
 20
5.371580575048398
 30
0.0
 11
19.90489241027246
 21
6.42048165136096
 31
0.0
  0
LINE
  5
221E4
330
22199
100
AcDbEntity
  8
0
  6
CONTINUOUS
100
AcDbLine
 10
21.15337423736015
 20
5.845519033353452
 30
0.0
 11
20.10441691790406
 21
6.894476352809547
 31
0.0
  0
LINE
  5
221E5
330
22199
100
AcDbEntity
  8
0
  6
CONTINUOUS
100
AcDbLine
 10
21.35295498813529
 20
6.319457491658505
 30
0.0
 11
20.30394142553566
 21
7.368471054258134
 31
0.0
  0
LINE
  5
221E6
330
22199
100
AcDbEntity
  8
0
  6
CONTINUOUS
100
AcDbLine
 10
21.55253573891042
 20
6.793395949963558
 30
0.0
 11
20.50346593316726
 21
7.842465755706721
 31
0.0
  0
LINE
  5
221E7
330
22199
100
AcDbEntity
  8
0
  6
CONTINUOUS
100
AcDbLine
 10
21.75211648968556
 20
7.267334408268612
 30
0.0
 11
20.70299044079886
 21
8.316460457155308
 31
0.0
  0
LINE
  5
221E8
330
22199
100
AcDbEntity
  8
0
  6
CONTINUOUS
100
AcDbLine
 10
21.95169724046069
 20
7.741272866573663
 30
0.0
 11
20.9298701070431
 21
8.763099999991256
 31
0.0
  0
LINE
  5
221E9
330
22199
100
AcDbEntity
  8
0
  6
CONTINUOUS
100
AcDbLine
 10
22.15127799123582
 20
8.215211324878716
 30
0.0
 11
21.60338931612328
 21
8.763099999991256
 31
0.0
  0
LINE
  5
221EA
330
22199
100
AcDbEntity
  8
0
  6
CONTINUOUS
100
AcDbLine
 10
22.35085874201096
 20
8.689149783183769
 30
0.0
 11
22.27690852520347
 21
8.763099999991255
 31
0.0
  0
ENDBLK
  5
222DC
330
22199
100
AcDbEntity
  8
0
100
AcDbBlockEnd
  0
BLOCK
  5
222DD
330
221EB
100
AcDbEntity
  8
0
100
AcDbBlockBegin
  2
*X67
 70
     1
 10
0.0
 20
0.0
 30
0.0
  3
*X67
  1

  0
LINE
  5
221EC
330
221EB
100
AcDbEntity
  8
0
  6
CONTINUOUS
100
AcDbLine
 10
23.19462913593892
 20
8.169917934846424
 30
0.0
 11
23.70775465517246
 21
8.683043454079957
 31
0.0
  0
LINE
  5
221ED
330
221EB
100
AcDbEntity
  8
0
  6
CONTINUOUS
100
AcDbLine
 10
22.64923161835078
 20
6.951001208178088
 30
0.0
 11
23.9159364069932
 21
8.217705996820516
 31
0.0
  0
LINE
  5
221EE
330
221EB
100
AcDbEntity
  8
0
  6
CONTINUOUS
100
AcDbLine
 10
22.10383410076263
 20
5.732084481509751
 30
0.0
 11
24.12411815881395
 21
7.752368539561078
 31
0.0
  0
LINE
  5
221EF
330
221EB
100
AcDbEntity
  8
0
  6
CONTINUOUS
100
AcDbLine
 10
21.55843658317447
 20
4.513167754841414
 30
0.0
 11
24.3322999106347
 21
7.287031082301639
 31
0.0
  0
LINE
  5
221F0
330
221EB
100
AcDbEntity
  8
0
  6
CONTINUOUS
100
AcDbLine
 10
21.01303906558632
 20
3.294251028173077
 30
0.0
 11
24.54048166245544
 21
6.821693625042199
 31
0.0
  0
LINE
  5
221F1
330
221EB
100
AcDbEntity
  8
0
  6
CONTINUOUS
100
AcDbLine
 10
20.46764154799817
 20
2.075334301504738
 30
0.0
 11
23.28571549467848
 21
4.89340824818505
 31
0.0
  0
LINE
  5
221F2
330
221EB
100
AcDbEntity
  8
0
  6
CONTINUOUS
100
AcDbLine
 10
19.92224403041002
 20
0.8564175748364002
 30
0.0
 11
22.74075865492779
 21
3.674932199354171
 31
0.0
  0
LINE
  5
221F3
330
221EB
100
AcDbEntity
  8
0
  6
CONTINUOUS
100
AcDbLine
 10
23.67305085490148
 20
5.280743608408048
 30
0.0
 11
24.74866341427619
 21
6.356356167782759
 31
0.0
  0
LINE
  5
221F4
330
221EB
100
AcDbEntity
  8
0
  6
CONTINUOUS
100
AcDbLine
 10
23.88118970842314
 20
4.815363252849522
 30
0.0
 11
24.95684516609694
 21
5.89101871052332
 31
0.0
  0
LINE
  5
221F5
330
221EB
100
AcDbEntity
  8
0
  6
CONTINUOUS
100
AcDbLine
 10
19.73925852647308
 20
-0.0000871381807288
 30
0.0
 11
23.4103456646501
 21
3.670999999996297
 31
0.0
  0
LINE
  5
221F6
330
221EB
100
AcDbEntity
  8
0
  6
CONTINUOUS
100
AcDbLine
 10
24.0893285619448
 20
4.349982897290997
 30
0.0
 11
25.16502691791769
 21
5.42568125326388
 31
0.0
  0
LINE
  5
221F7
330
221EB
100
AcDbEntity
  8
0
  6
CONTINUOUS
100
AcDbLine
 10
20.41282099582748
 20
-0.0000438779065108
 30
0.0
 11
21.64944178675636
 21
1.236576913022366
 31
0.0
  0
LINE
  5
221F8
330
221EB
100
AcDbEntity
  8
0
  6
CONTINUOUS
100
AcDbLine
 10
22.78126487373161
 20
2.36839999999762
 30
0.0
 11
24.08386487373029
 21
3.670999999996297
 31
0.0
  0
LINE
  5
221F9
330
221EB
100
AcDbEntity
  8
0
  6
CONTINUOUS
100
AcDbLine
 10
24.29746741546646
 20
3.884602541732471
 30
0.0
 11
25.37320866973843
 21
4.960343796004441
 31
0.0
  0
LINE
  5
221FA
330
221EB
100
AcDbEntity
  8
0
  6
CONTINUOUS
100
AcDbLine
 10
21.08638346518189
 20
-0.0000006176322938
 30
0.0
 11
21.10379033335899
 21
0.0174062505448083
 31
0.0
  0
LINE
  5
221FB
330
221EB
100
AcDbEntity
  8
0
  6
CONTINUOUS
100
AcDbLine
 10
23.4547840828118
 20
2.36839999999762
 30
0.0
 11
25.58139042155918
 21
4.495006338745002
 31
0.0
  0
LINE
  5
221FC
330
221EB
100
AcDbEntity
  8
0
  6
CONTINUOUS
100
AcDbLine
 10
29.30199999996933
 20
8.215615917155148
 30
0.0
 11
29.84948408280543
 21
8.763099999991255
 31
0.0
  0
LINE
  5
221FD
330
221EB
100
AcDbEntity
  8
0
  6
CONTINUOUS
100
AcDbLine
 10
24.12830329189199
 20
2.36839999999762
 30
0.0
 11
25.78957217337993
 21
4.029668881485562
 31
0.0
  0
LINE
  5
221FE
330
221EB
100
AcDbEntity
  8
0
  6
CONTINUOUS
100
AcDbLine
 10
29.30199999996933
 20
7.54209670807496
 30
0.0
 11
30.52300329188562
 21
8.763099999991255
 31
0.0
  0
LINE
  5
221FF
330
221EB
100
AcDbEntity
  8
0
  6
CONTINUOUS
100
AcDbLine
 10
24.80182250097217
 20
2.36839999999762
 30
0.0
 11
25.99775392520067
 21
3.564331424226122
 31
0.0
  0
LINE
  5
22200
330
221EB
100
AcDbEntity
  8
0
  6
CONTINUOUS
100
AcDbLine
 10
29.30199999996933
 20
6.868577498994774
 30
0.0
 11
30.74199999996926
 21
8.308577498994712
 31
0.0
  0
LINE
  5
22201
330
221EB
100
AcDbEntity
  8
0
  6
CONTINUOUS
100
AcDbLine
 10
25.13028238392013
 20
2.023340673865392
 30
0.0
 11
26.20593567702142
 21
3.098993966966683
 31
0.0
  0
LINE
  5
22202
330
221EB
100
AcDbEntity
  8
0
  6
CONTINUOUS
100
AcDbLine
 10
25.33838066033617
 20
1.557919741201244
 30
0.0
 11
26.41411742884217
 21
2.633656509707244
 31
0.0
  0
LINE
  5
22203
330
221EB
100
AcDbEntity
  8
0
  6
CONTINUOUS
100
AcDbLine
 10
25.54647893675221
 20
1.092498808537098
 30
0.0
 11
26.62229918066291
 21
2.168319052447804
 31
0.0
  0
LINE
  5
22204
330
221EB
100
AcDbEntity
  8
0
  6
CONTINUOUS
100
AcDbLine
 10
25.75457721316825
 20
0.62707787587295
 30
0.0
 11
26.83048093248366
 21
1.702981595188365
 31
0.0
  0
LINE
  5
22205
330
221EB
100
AcDbEntity
  8
0
  6
CONTINUOUS
100
AcDbLine
 10
29.30199999996933
 20
6.195058289914587
 30
0.0
 11
30.74199999996926
 21
7.635058289914522
 31
0.0
  0
LINE
  5
22206
330
221EB
100
AcDbEntity
  8
0
  6
CONTINUOUS
100
AcDbLine
 10
29.30199999996933
 20
5.521539080834401
 30
0.0
 11
30.74199999996926
 21
6.961539080834331
 31
0.0
  0
LINE
  5
22207
330
221EB
100
AcDbEntity
  8
0
  6
CONTINUOUS
100
AcDbLine
 10
29.30199999996933
 20
4.848019871754214
 30
0.0
 11
30.74199999996925
 21
6.288019871754143
 31
0.0
  0
LINE
  5
22208
330
221EB
100
AcDbEntity
  8
0
  6
CONTINUOUS
100
AcDbLine
 10
29.30199999996933
 20
4.174500662674028
 30
0.0
 11
30.74199999996925
 21
5.614500662673953
 31
0.0
  0
LINE
  5
22209
330
221EB
100
AcDbEntity
  8
0
  6
CONTINUOUS
100
AcDbLine
 10
25.96267548958429
 20
0.1616569432088024
 30
0.0
 11
27.18411854636669
 21
1.383099999991207
 31
0.0
  0
LINE
  5
2220A
330
221EB
100
AcDbEntity
  8
0
  6
CONTINUOUS
100
AcDbLine
 10
29.30199999996933
 20
3.500981453593841
 30
0.0
 11
30.74199999996925
 21
4.940981453593762
 31
0.0
  0
LINE
  5
2220B
330
221EB
100
AcDbEntity
  8
0
  6
CONTINUOUS
100
AcDbLine
 10
26.50763775544691
 20
0.0330999999912356
 30
0.0
 11
27.85763775544689
 21
1.383099999991223
 31
0.0
  0
LINE
  5
2220C
330
221EB
100
AcDbEntity
  8
0
  6
CONTINUOUS
100
AcDbLine
 10
29.30199999996933
 20
2.827462244513656
 30
0.0
 11
30.74199999996925
 21
4.267462244513574
 31
0.0
  0
LINE
  5
2220D
330
221EB
100
AcDbEntity
  8
0
  6
CONTINUOUS
100
AcDbLine
 10
27.18115696452709
 20
0.0330999999912356
 30
0.0
 11
28.6224847300034
 21
1.474427765467545
 31
0.0
  0
LINE
  5
2220E
330
221EB
100
AcDbEntity
  8
0
  6
CONTINUOUS
100
AcDbLine
 10
29.21067223449293
 20
2.062615269957069
 30
0.0
 11
30.74199999996924
 21
3.593943035433383
 31
0.0
  0
LINE
  5
2220F
330
221EB
100
AcDbEntity
  8
0
  6
CONTINUOUS
100
AcDbLine
 10
27.85467617360728
 20
0.0330999999912356
 30
0.0
 11
30.74199999996924
 21
2.920423826353195
 31
0.0
  0
LINE
  5
22210
330
221EB
100
AcDbEntity
  8
0
  6
CONTINUOUS
100
AcDbLine
 10
28.57438609860264
 20
0.0792907159064073
 30
0.0
 11
30.69580928405405
 21
2.200713901357819
 31
0.0
  0
LINE
  5
22211
330
221EB
100
AcDbEntity
  8
0
  6
CONTINUOUS
100
AcDbLine
 10
29.49443044814297
 20
0.3258158563665496
 30
0.0
 11
30.44928414359389
 21
1.280669551817477
 31
0.0
  0
LINE
  5
22212
330
221EB
100
AcDbEntity
  8
0
  6
CONTINUOUS
100
AcDbLine
 10
19.59027867740337
 20
-0.0000967065718083
 30
0.0
 11
19.55485265190471
 21
0.035329318926844
 31
0.0
  0
LINE
  5
22213
330
221EB
100
AcDbEntity
  8
0
  6
CONTINUOUS
100
AcDbLine
 10
20.26375463176586
 20
-0.0000534518541091
 30
0.0
 11
19.76305575737534
 21
0.5006454225364014
 31
0.0
  0
LINE
  5
22214
330
221EB
100
AcDbEntity
  8
0
  6
CONTINUOUS
100
AcDbLine
 10
20.93723058612834
 20
-0.0000101971364099
 30
0.0
 11
19.97125886284597
 21
0.965961526145958
 31
0.0
  0
LINE
  5
22215
330
221EB
100
AcDbEntity
  8
0
  6
CONTINUOUS
100
AcDbLine
 10
21.25514828313686
 20
0.355591314935257
 30
0.0
 11
20.1794619683166
 21
1.431277629755512
 31
0.0
  0
LINE
  5
22216
330
221EB
100
AcDbEntity
  8
0
  6
CONTINUOUS
100
AcDbLine
 10
21.46338838394921
 20
0.8208704232030986
 30
0.0
 11
20.38766507378723
 21
1.896593733365069
 31
0.0
  0
LINE
  5
22217
330
221EB
100
AcDbEntity
  8
0
  6
CONTINUOUS
100
AcDbLine
 10
21.67162848476155
 20
1.28614953147094
 30
0.0
 11
20.59586817925786
 21
2.361909836974626
 31
0.0
  0
LINE
  5
22218
330
221EB
100
AcDbEntity
  8
0
  6
CONTINUOUS
100
AcDbLine
 10
21.8798685855739
 20
1.751428639738782
 30
0.0
 11
20.80407128472849
 21
2.827225940584183
 31
0.0
  0
LINE
  5
22219
330
221EB
100
AcDbEntity
  8
0
  6
CONTINUOUS
100
AcDbLine
 10
22.08810868638624
 20
2.216707748006623
 30
0.0
 11
21.01227439019912
 21
3.292542044193739
 31
0.0
  0
LINE
  5
2221A
330
221EB
100
AcDbEntity
  8
0
  6
CONTINUOUS
100
AcDbLine
 10
22.60993564347543
 20
2.36839999999762
 30
0.0
 11
21.22047749566975
 21
3.757858147803296
 31
0.0
  0
LINE
  5
2221B
330
221EB
100
AcDbEntity
  8
0
  6
CONTINUOUS
100
AcDbLine
 10
23.28345485255561
 20
2.36839999999762
 30
0.0
 11
21.42868060114038
 21
4.223174251412853
 31
0.0
  0
LINE
  5
2221C
330
221EB
100
AcDbEntity
  8
0
  6
CONTINUOUS
100
AcDbLine
 10
26.29227406164219
 20
0.0330999999912356
 30
0.0
 11
25.80009199592872
 21
0.5252820657046957
 31
0.0
  0
LINE
  5
2221D
330
221EB
100
AcDbEntity
  8
0
  6
CONTINUOUS
100
AcDbLine
 10
23.9569740616358
 20
2.36839999999762
 30
0.0
 11
21.63688370661101
 21
4.688490355022409
 31
0.0
  0
LINE
  5
2221E
330
221EB
100
AcDbEntity
  8
0
  6
CONTINUOUS
100
AcDbLine
 10
26.96579327072237
 20
0.0330999999912356
 30
0.0
 11
25.2554132311971
 21
1.743480039516508
 31
0.0
  0
LINE
  5
2221F
330
221EB
100
AcDbEntity
  8
0
  6
CONTINUOUS
100
AcDbLine
 10
24.63049327071599
 20
2.36839999999762
 30
0.0
 11
23.32789327071731
 21
3.670999999996297
 31
0.0
  0
LINE
  5
22220
330
221EB
100
AcDbEntity
  8
0
  6
CONTINUOUS
100
AcDbLine
 10
22.92098674744635
 20
4.077906523267254
 30
0.0
 11
21.84508681208164
 21
5.153806458631966
 31
0.0
  0
LINE
  5
22221
330
221EB
100
AcDbEntity
  8
0
  6
CONTINUOUS
100
AcDbLine
 10
27.63931247980256
 20
0.0330999999912356
 30
0.0
 11
24.0014124797975
 21
3.670999999996297
 31
0.0
  0
LINE
  5
22222
330
221EB
100
AcDbEntity
  8
0
  6
CONTINUOUS
100
AcDbLine
 10
23.129125600968
 20
4.5432868788258
 30
0.0
 11
22.05328991755227
 21
5.619122562241522
 31
0.0
  0
LINE
  5
22223
330
221EB
100
AcDbEntity
  8
0
  6
CONTINUOUS
100
AcDbLine
 10
28.31283168888275
 20
0.0330999999912356
 30
0.0
 11
24.16488385994816
 21
4.181047828925828
 31
0.0
  0
LINE
  5
22224
330
221EB
100
AcDbEntity
  8
0
  6
CONTINUOUS
100
AcDbLine
 10
23.33726445448964
 20
5.008667234384345
 30
0.0
 11
22.2614930230229
 21
6.084438665851079
 31
0.0
  0
LINE
  5
22225
330
221EB
100
AcDbEntity
  8
0
  6
CONTINUOUS
100
AcDbLine
 10
28.86286302309502
 20
0.1565878748591523
 30
0.0
 11
27.63635089796295
 21
1.383099999991217
 31
0.0
  0
LINE
  5
22226
330
221EB
100
AcDbEntity
  8
0
  6
CONTINUOUS
100
AcDbLine
 10
26.43704649509776
 20
2.582404402856405
 30
0.0
 11
23.61992702019732
 21
5.399523877756844
 31
0.0
  0
LINE
  5
22227
330
221EB
100
AcDbEntity
  8
0
  6
CONTINUOUS
100
AcDbLine
 10
23.54540330801128
 20
5.47404758994289
 30
0.0
 11
22.46969612849353
 21
6.549754769460635
 31
0.0
  0
LINE
  5
22228
330
221EB
100
AcDbEntity
  8
0
  6
CONTINUOUS
100
AcDbLine
 10
29.39405087596853
 20
0.2989192310658284
 30
0.0
 11
28.30987010704312
 21
1.383099999991234
 31
0.0
  0
LINE
  5
22229
330
221EB
100
AcDbEntity
  8
0
  6
CONTINUOUS
100
AcDbLine
 10
25.89179548232307
 20
3.801174624711282
 30
0.0
 11
22.67789923396416
 21
7.015070873070191
 31
0.0
  0
LINE
  5
2222A
330
221EB
100
AcDbEntity
  8
0
  6
CONTINUOUS
100
AcDbLine
 10
29.79594438047407
 20
0.570544935640473
 30
0.0
 11
28.81310432793121
 21
1.553384988183336
 31
0.0
  0
LINE
  5
2222B
330
221EB
100
AcDbEntity
  8
0
  6
CONTINUOUS
100
AcDbLine
 10
25.34654446954838
 20
5.01994484656616
 30
0.0
 11
22.88610233943479
 21
7.480386976679748
 31
0.0
  0
LINE
  5
2222C
330
221EB
100
AcDbEntity
  8
0
  6
CONTINUOUS
100
AcDbLine
 10
30.13270398501416
 20
0.9073045401805646
 30
0.0
 11
29.14234640337737
 21
1.897662121817355
 31
0.0
  0
LINE
  5
2222D
330
221EB
100
AcDbEntity
  8
0
  6
CONTINUOUS
100
AcDbLine
 10
24.80129345677369
 20
6.238715068421037
 30
0.0
 11
23.09430544490542
 21
7.945703080289305
 31
0.0
  0
LINE
  5
2222E
330
221EB
100
AcDbEntity
  8
0
  6
CONTINUOUS
100
AcDbLine
 10
30.44581292956759
 20
1.26771480470732
 30
0.0
 11
29.30199999996933
 21
2.411527734305588
 31
0.0
  0
LINE
  5
2222F
330
221EB
100
AcDbEntity
  8
0
  6
CONTINUOUS
100
AcDbLine
 10
30.58814428577427
 20
1.798902657580827
 30
0.0
 11
29.30199999996933
 21
3.085046943385775
 31
0.0
  0
LINE
  5
22230
330
221EB
100
AcDbEntity
  8
0
  6
CONTINUOUS
100
AcDbLine
 10
24.256042443999
 20
7.457485290275915
 30
0.0
 11
23.30250855037605
 21
8.411019183898862
 31
0.0
  0
LINE
  5
22231
330
221EB
100
AcDbEntity
  8
0
  6
CONTINUOUS
100
AcDbLine
 10
23.71079143122431
 20
8.676255512130794
 30
0.0
 11
23.51071165584668
 21
8.876335287508418
 31
0.0
  0
LINE
  5
22232
330
221EB
100
AcDbEntity
  8
0
  6
CONTINUOUS
100
AcDbLine
 10
30.73047564198095
 20
2.330090510454333
 30
0.0
 11
29.30199999996933
 21
3.758566152465961
 31
0.0
  0
LINE
  5
22233
330
221EB
100
AcDbEntity
  8
0
  6
CONTINUOUS
100
AcDbLine
 10
30.74199999996924
 20
2.992085361546236
 30
0.0
 11
29.30199999996933
 21
4.432085361546148
 31
0.0
  0
LINE
  5
22234
330
221EB
100
AcDbEntity
  8
0
  6
CONTINUOUS
100
AcDbLine
 10
30.74199999996924
 20
3.665604570626419
 30
0.0
 11
29.30199999996933
 21
5.105604570626333
 31
0.0
  0
LINE
  5
22235
330
221EB
100
AcDbEntity
  8
0
  6
CONTINUOUS
100
AcDbLine
 10
30.74199999996925
 20
4.339123779706602
 30
0.0
 11
29.30199999996933
 21
5.77912377970652
 31
0.0
  0
LINE
  5
22236
330
221EB
100
AcDbEntity
  8
0
  6
CONTINUOUS
100
AcDbLine
 10
30.74199999996925
 20
5.012642988786785
 30
0.0
 11
29.30199999996933
 21
6.452642988786707
 31
0.0
  0
LINE
  5
22237
330
221EB
100
AcDbEntity
  8
0
  6
CONTINUOUS
100
AcDbLine
 10
30.74199999996925
 20
5.68616219786697
 30
0.0
 11
29.30199999996933
 21
7.126162197866894
 31
0.0
  0
LINE
  5
22238
330
221EB
100
AcDbEntity
  8
0
  6
CONTINUOUS
100
AcDbLine
 10
30.74199999996925
 20
6.359681406947153
 30
0.0
 11
29.30199999996933
 21
7.799681406947081
 31
0.0
  0
LINE
  5
22239
330
221EB
100
AcDbEntity
  8
0
  6
CONTINUOUS
100
AcDbLine
 10
30.74199999996926
 20
7.033200616027337
 30
0.0
 11
29.30199999996933
 21
8.473200616027269
 31
0.0
  0
LINE
  5
2223A
330
221EB
100
AcDbEntity
  8
0
  6
CONTINUOUS
100
AcDbLine
 10
30.74199999996926
 20
7.706719825107518
 30
0.0
 11
29.68561982508552
 21
8.763099999991255
 31
0.0
  0
LINE
  5
2223B
330
221EB
100
AcDbEntity
  8
0
  6
CONTINUOUS
100
AcDbLine
 10
30.74199999996926
 20
8.380239034187703
 30
0.0
 11
30.35913903416571
 21
8.763099999991255
 31
0.0
  0
ENDBLK
  5
222DE
330
221EB
100
AcDbEntity
  8
0
100
AcDbBlockEnd
  0
BLOCK
  5
222DF
330
2223C
100
AcDbEntity
  8
0
100
AcDbBlockBegin
  2
*X68
 70
     1
 10
0.0
 20
0.0
 30
0.0
  3
*X68
  1

  0
LINE
  5
2223D
330
2223C
100
AcDbEntity
  8
0
  6
CONTINUOUS
100
AcDbLine
 10
31.64199999996833
 20
8.5350582899136
 30
0.0
 11
31.87004171004599
 21
8.763099999991255
 31
0.0
  0
LINE
  5
2223E
330
2223C
100
AcDbEntity
  8
0
  6
CONTINUOUS
100
AcDbLine
 10
31.64199999996833
 20
7.861539080833413
 30
0.0
 11
32.54356091912618
 21
8.763099999991255
 31
0.0
  0
LINE
  5
2223F
330
2223C
100
AcDbEntity
  8
0
  6
CONTINUOUS
100
AcDbLine
 10
31.64199999996833
 20
7.188019871753227
 30
0.0
 11
33.08199999996839
 21
8.628019871753281
 31
0.0
  0
LINE
  5
22240
330
2223C
100
AcDbEntity
  8
0
  6
CONTINUOUS
100
AcDbLine
 10
31.64199999996833
 20
6.514500662673041
 30
0.0
 11
33.08199999996839
 21
7.954500662673095
 31
0.0
  0
LINE
  5
22241
330
2223C
100
AcDbEntity
  8
0
  6
CONTINUOUS
100
AcDbLine
 10
31.64199999996833
 20
5.840981453592855
 30
0.0
 11
33.08199999996839
 21
7.28098145359291
 31
0.0
  0
LINE
  5
22242
330
2223C
100
AcDbEntity
  8
0
  6
CONTINUOUS
100
AcDbLine
 10
31.64199999996833
 20
5.167462244512668
 30
0.0
 11
33.08199999996839
 21
6.607462244512723
 31
0.0
  0
LINE
  5
22243
330
2223C
100
AcDbEntity
  8
0
  6
CONTINUOUS
100
AcDbLine
 10
31.64199999996833
 20
4.493943035432482
 30
0.0
 11
33.08199999996839
 21
5.933943035432536
 31
0.0
  0
LINE
  5
22244
330
2223C
100
AcDbEntity
  8
0
  6
CONTINUOUS
100
AcDbLine
 10
31.64199999996833
 20
3.820423826352294
 30
0.0
 11
33.08199999996839
 21
5.260423826352349
 31
0.0
  0
LINE
  5
22245
330
2223C
100
AcDbEntity
  8
0
  6
CONTINUOUS
100
AcDbLine
 10
31.64199999996833
 20
3.146904617272108
 30
0.0
 11
33.08199999996839
 21
4.586904617272163
 31
0.0
  0
LINE
  5
22246
330
2223C
100
AcDbEntity
  8
0
  6
CONTINUOUS
100
AcDbLine
 10
36.23199999996837
 20
8.410423826352327
 30
0.0
 11
36.58467617360729
 21
8.763099999991255
 31
0.0
  0
LINE
  5
22247
330
2223C
100
AcDbEntity
  8
0
  6
CONTINUOUS
100
AcDbLine
 10
36.23199999996837
 20
7.73690461727214
 30
0.0
 11
37.25819538268748
 21
8.763099999991255
 31
0.0
  0
LINE
  5
22248
330
2223C
100
AcDbEntity
  8
0
  6
CONTINUOUS
100
AcDbLine
 10
31.64323424774199
 20
2.474619655965573
 30
0.0
 11
33.08199999996839
 21
3.913385408191976
 31
0.0
  0
LINE
  5
22249
330
2223C
100
AcDbEntity
  8
0
  6
CONTINUOUS
100
AcDbLine
 10
31.74419223861915
 20
1.902058437762552
 30
0.0
 11
33.08199999996839
 21
3.239866199111789
 31
0.0
  0
LINE
  5
2224A
330
2223C
100
AcDbEntity
  8
0
  6
CONTINUOUS
100
AcDbLine
 10
36.23199999996837
 20
7.063385408191953
 30
0.0
 11
37.67199999996831
 21
8.503385408191894
 31
0.0
  0
LINE
  5
2224B
330
2223C
100
AcDbEntity
  8
0
  6
CONTINUOUS
100
AcDbLine
 10
36.23199999996837
 20
6.389866199111767
 30
0.0
 11
37.67199999996831
 21
7.829866199111708
 31
0.0
  0
LINE
  5
2224C
330
2223C
100
AcDbEntity
  8
0
  6
CONTINUOUS
100
AcDbLine
 10
31.91111233414976
 20
1.39545932421297
 30
0.0
 11
33.08199999996839
 21
2.566346990031603
 31
0.0
  0
LINE
  5
2224D
330
2223C
100
AcDbEntity
  8
0
  6
CONTINUOUS
100
AcDbLine
 10
36.23199999996837
 20
5.71634699003158
 30
0.0
 11
37.67199999996831
 21
7.156346990031522
 31
0.0
  0
LINE
  5
2224E
330
2223C
100
AcDbEntity
  8
0
  6
CONTINUOUS
100
AcDbLine
 10
32.1576374746103
 20
0.9684652555933289
 30
0.0
 11
33.20642631446081
 21
2.017254095443838
 31
0.0
  0
LINE
  5
2224F
330
2223C
100
AcDbEntity
  8
0
  6
CONTINUOUS
100
AcDbLine
 10
36.23199999996837
 20
5.042827780951393
 30
0.0
 11
37.67199999996831
 21
6.482827780951334
 31
0.0
  0
LINE
  5
22250
330
2223C
100
AcDbEntity
  8
0
  6
CONTINUOUS
100
AcDbLine
 10
32.47774023927325
 20
0.6150488111760914
 30
0.0
 11
33.49903056428258
 21
1.636339136185419
 31
0.0
  0
LINE
  5
22251
330
2223C
100
AcDbEntity
  8
0
  6
CONTINUOUS
100
AcDbLine
 10
36.23199999996837
 20
4.369308571871207
 30
0.0
 11
37.67199999996831
 21
5.809308571871148
 31
0.0
  0
LINE
  5
22252
330
2223C
100
AcDbEntity
  8
0
  6
CONTINUOUS
100
AcDbLine
 10
32.84396249154443
 20
0.3077518543670883
 30
0.0
 11
33.93324121824649
 21
1.397030581069146
 31
0.0
  0
LINE
  5
22253
330
2223C
100
AcDbEntity
  8
0
  6
CONTINUOUS
100
AcDbLine
 10
36.23199999996837
 20
3.695789362791021
 30
0.0
 11
37.67199999996831
 21
5.135789362790963
 31
0.0
  0
LINE
  5
22254
330
2223C
100
AcDbEntity
  8
0
  6
CONTINUOUS
100
AcDbLine
 10
33.30186329036846
 20
0.0921334441109263
 30
0.0
 11
34.46442907112041
 21
1.254699224862875
 31
0.0
  0
LINE
  5
22255
330
2223C
100
AcDbEntity
  8
0
  6
CONTINUOUS
100
AcDbLine
 10
36.23199999996837
 20
3.022270153710834
 30
0.0
 11
37.67199999996831
 21
4.462270153710776
 31
0.0
  0
LINE
  5
22256
330
2223C
100
AcDbEntity
  8
0
  6
CONTINUOUS
100
AcDbLine
 10
33.79565647746294
 20
-0.0875925778747773
 30
0.0
 11
35.24350171668284
 21
1.360252661345124
 31
0.0
  0
LINE
  5
22257
330
2223C
100
AcDbEntity
  8
0
  6
CONTINUOUS
100
AcDbLine
 10
36.18336676155003
 20
2.300117706212308
 30
0.0
 11
37.67199999996831
 21
3.788750944630589
 31
0.0
  0
LINE
  5
22258
330
2223C
100
AcDbEntity
  8
0
  6
CONTINUOUS
100
AcDbLine
 10
34.37182574910968
 20
-0.184942515308224
 30
0.0
 11
37.67199999996831
 21
3.115231735550402
 31
0.0
  0
LINE
  5
22259
330
2223C
100
AcDbEntity
  8
0
  6
CONTINUOUS
100
AcDbLine
 10
35.0453449581892
 20
-0.1849425153088955
 30
0.0
 11
37.66345697088136
 21
2.433169497383271
 31
0.0
  0
LINE
  5
2225A
330
2223C
100
AcDbEntity
  8
0
  6
CONTINUOUS
100
AcDbLine
 10
35.98667157609191
 20
0.0828648935136398
 30
0.0
 11
37.51927401744566
 21
1.615467334867382
 31
0.0
  0
LINE
  5
2225B
330
2223C
100
AcDbEntity
  8
0
  6
CONTINUOUS
100
AcDbLine
 10
32.27747408544484
 20
0.7830920669904482
 30
0.0
 11
32.24716210471949
 21
0.8134040477157893
 31
0.0
  0
LINE
  5
2225C
330
2223C
100
AcDbEntity
  8
0
  6
CONTINUOUS
100
AcDbLine
 10
33.83656881101902
 20
-0.1024834495035494
 30
0.0
 11
31.72538911593758
 21
2.008696245577891
 31
0.0
  0
LINE
  5
2225D
330
2223C
100
AcDbEntity
  8
0
  6
CONTINUOUS
100
AcDbLine
 10
34.5925470859041
 20
-0.1849425153084434
 30
0.0
 11
31.64199999996833
 21
2.765604570627322
 31
0.0
  0
LINE
  5
2225E
330
2223C
100
AcDbEntity
  8
0
  6
CONTINUOUS
100
AcDbLine
 10
35.26201302775981
 20
-0.1808892480839752
 30
0.0
 11
31.64199999996833
 21
3.439123779707508
 31
0.0
  0
LINE
  5
2225F
330
2223C
100
AcDbEntity
  8
0
  6
CONTINUOUS
100
AcDbLine
 10
35.75580621485512
 20
-0.0011632260990879
 30
0.0
 11
34.51294304365551
 21
1.241699945100514
 31
0.0
  0
LINE
  5
22260
330
2223C
100
AcDbEntity
  8
0
  6
CONTINUOUS
100
AcDbLine
 10
33.08199999996839
 20
2.672642988787641
 30
0.0
 11
31.64199999996833
 21
4.112642988787695
 31
0.0
  0
LINE
  5
22261
330
2223C
100
AcDbEntity
  8
0
  6
CONTINUOUS
100
AcDbLine
 10
36.24959940195042
 20
0.1785627958857976
 30
0.0
 11
35.10501653033629
 21
1.323145667499924
 31
0.0
  0
LINE
  5
22262
330
2223C
100
AcDbEntity
  8
0
  6
CONTINUOUS
100
AcDbLine
 10
33.08199999996839
 20
3.346162197867827
 30
0.0
 11
31.64199999996833
 21
4.786162197867881
 31
0.0
  0
LINE
  5
22263
330
2223C
100
AcDbEntity
  8
0
  6
CONTINUOUS
100
AcDbLine
 10
36.64615197150552
 20
0.4555294354108876
 30
0.0
 11
35.6362043832099
 21
1.465477023706505
 31
0.0
  0
LINE
  5
22264
330
2223C
100
AcDbEntity
  8
0
  6
CONTINUOUS
100
AcDbLine
 10
33.08199999996839
 20
4.019681406948013
 30
0.0
 11
31.64199999996833
 21
5.459681406948068
 31
0.0
  0
LINE
  5
22265
330
2223C
100
AcDbEntity
  8
0
  6
CONTINUOUS
100
AcDbLine
 10
37.0123742237774
 20
0.7628263922191891
 30
0.0
 11
35.97691545773309
 21
1.798285158263504
 31
0.0
  0
LINE
  5
22266
330
2223C
100
AcDbEntity
  8
0
  6
CONTINUOUS
100
AcDbLine
 10
33.08199999996839
 20
4.6932006160282
 30
0.0
 11
31.64199999996833
 21
6.133200616028255
 31
0.0
  0
LINE
  5
22267
330
2223C
100
AcDbEntity
  8
0
  6
CONTINUOUS
100
AcDbLine
 10
37.27491524157143
 20
1.173804583505349
 30
0.0
 11
36.17602012811361
 21
2.272699696963169
 31
0.0
  0
LINE
  5
22268
330
2223C
100
AcDbEntity
  8
0
  6
CONTINUOUS
100
AcDbLine
 10
33.08199999996839
 20
5.366719825108387
 30
0.0
 11
31.64199999996833
 21
6.806719825108441
 31
0.0
  0
LINE
  5
22269
330
2223C
100
AcDbEntity
  8
0
  6
CONTINUOUS
100
AcDbLine
 10
37.51739996707661
 20
1.604839067080355
 30
0.0
 11
36.23199999996837
 21
2.890239034188595
 31
0.0
  0
LINE
  5
2226A
330
2223C
100
AcDbEntity
  8
0
  6
CONTINUOUS
100
AcDbLine
 10
37.6183579579535
 20
2.177400285283649
 30
0.0
 11
36.23199999996837
 21
3.563758243268782
 31
0.0
  0
LINE
  5
2226B
330
2223C
100
AcDbEntity
  8
0
  6
CONTINUOUS
100
AcDbLine
 10
33.08199999996839
 20
6.040239034188573
 30
0.0
 11
31.64199999996833
 21
7.480239034188628
 31
0.0
  0
LINE
  5
2226C
330
2223C
100
AcDbEntity
  8
0
  6
CONTINUOUS
100
AcDbLine
 10
33.08199999996839
 20
6.713758243268759
 30
0.0
 11
31.64199999996833
 21
8.153758243268815
 31
0.0
  0
LINE
  5
2226D
330
2223C
100
AcDbEntity
  8
0
  6
CONTINUOUS
100
AcDbLine
 10
37.67199999996831
 20
2.797277452349027
 30
0.0
 11
36.23199999996837
 21
4.237277452348969
 31
0.0
  0
LINE
  5
2226E
330
2223C
100
AcDbEntity
  8
0
  6
CONTINUOUS
100
AcDbLine
 10
37.67199999996831
 20
3.470796661429214
 30
0.0
 11
36.23199999996837
 21
4.910796661429155
 31
0.0
  0
LINE
  5
2226F
330
2223C
100
AcDbEntity
  8
0
  6
CONTINUOUS
100
AcDbLine
 10
37.67199999996831
 20
4.1443158705094
 30
0.0
 11
36.23199999996837
 21
5.584315870509341
 31
0.0
  0
LINE
  5
22270
330
2223C
100
AcDbEntity
  8
0
  6
CONTINUOUS
100
AcDbLine
 10
33.08199999996839
 20
7.387277452348946
 30
0.0
 11
31.70617745232608
 21
8.763099999991255
 31
0.0
  0
LINE
  5
22271
330
2223C
100
AcDbEntity
  8
0
  6
CONTINUOUS
100
AcDbLine
 10
33.08199999996839
 20
8.060796661429134
 30
0.0
 11
32.37969666140626
 21
8.763099999991255
 31
0.0
  0
LINE
  5
22272
330
2223C
100
AcDbEntity
  8
0
  6
CONTINUOUS
100
AcDbLine
 10
33.08199999996839
 20
8.734315870509318
 30
0.0
 11
33.05321587048645
 21
8.763099999991255
 31
0.0
  0
LINE
  5
22273
330
2223C
100
AcDbEntity
  8
0
  6
CONTINUOUS
100
AcDbLine
 10
37.67199999996831
 20
4.817835079589586
 30
0.0
 11
36.23199999996837
 21
6.257835079589528
 31
0.0
  0
LINE
  5
22274
330
2223C
100
AcDbEntity
  8
0
  6
CONTINUOUS
100
AcDbLine
 10
37.67199999996831
 20
5.491354288669772
 30
0.0
 11
36.23199999996837
 21
6.931354288669715
 31
0.0
  0
LINE
  5
22275
330
2223C
100
AcDbEntity
  8
0
  6
CONTINUOUS
100
AcDbLine
 10
37.67199999996831
 20
6.164873497749959
 30
0.0
 11
36.23199999996837
 21
7.6048734977499
 31
0.0
  0
LINE
  5
22276
330
2223C
100
AcDbEntity
  8
0
  6
CONTINUOUS
100
AcDbLine
 10
37.67199999996831
 20
6.838392706830145
 30
0.0
 11
36.23199999996837
 21
8.278392706830086
 31
0.0
  0
LINE
  5
22277
330
2223C
100
AcDbEntity
  8
0
  6
CONTINUOUS
100
AcDbLine
 10
37.67199999996831
 20
7.511911915910333
 30
0.0
 11
36.42081191588738
 21
8.763099999991255
 31
0.0
  0
LINE
  5
22278
330
2223C
100
AcDbEntity
  8
0
  6
CONTINUOUS
100
AcDbLine
 10
37.67199999996831
 20
8.185431124990519
 30
0.0
 11
37.09433112496757
 21
8.763099999991255
 31
0.0
  0
ENDBLK
  5
222E0
330
2223C
100
AcDbEntity
  8
0
100
AcDbBlockEnd
  0
BLOCK
  5
222E1
330
22279
100
AcDbEntity
  8
0
100
AcDbBlockBegin
  2
*X69
 70
     1
 10
0.0
 20
0.0
 30
0.0
  3
*X69
  1

  0
LINE
  5
2227A
330
22279
100
AcDbEntity
  8
0
  6
CONTINUOUS
100
AcDbLine
 10
38.60499999996136
 20
8.762866199104765
 30
0.0
 11
38.71672554182345
 21
8.874591740966855
 31
0.0
  0
LINE
  5
2227B
330
22279
100
AcDbEntity
  8
0
  6
CONTINUOUS
100
AcDbLine
 10
38.60499999996136
 20
8.089346990024577
 30
0.0
 11
39.03418785440363
 21
8.518534844466847
 31
0.0
  0
LINE
  5
2227C
330
22279
100
AcDbEntity
  8
0
  6
CONTINUOUS
100
AcDbLine
 10
38.60499999996136
 20
7.41582778094439
 30
0.0
 11
39.35165016698382
 21
8.16247794796684
 31
0.0
  0
LINE
  5
2227D
330
22279
100
AcDbEntity
  8
0
  6
CONTINUOUS
100
AcDbLine
 10
38.60499999996136
 20
6.742308571864204
 30
0.0
 11
39.66911247956399
 21
7.806421051466834
 31
0.0
  0
LINE
  5
2227E
330
22279
100
AcDbEntity
  8
0
  6
CONTINUOUS
100
AcDbLine
 10
38.60499999996136
 20
6.068789362784018
 30
0.0
 11
39.98657479214418
 21
7.450364154966827
 31
0.0
  0
LINE
  5
2227F
330
22279
100
AcDbEntity
  8
0
  6
CONTINUOUS
100
AcDbLine
 10
38.60499999996136
 20
5.395270153703832
 30
0.0
 11
40.30403710472435
 21
7.09430725846682
 31
0.0
  0
LINE
  5
22280
330
22279
100
AcDbEntity
  8
0
  6
CONTINUOUS
100
AcDbLine
 10
38.60499999996136
 20
4.721750944623645
 30
0.0
 11
40.62149941730453
 21
6.738250361966813
 31
0.0
  0
LINE
  5
22281
330
22279
100
AcDbEntity
  8
0
  6
CONTINUOUS
100
AcDbLine
 10
38.60499999996136
 20
4.048231735543458
 30
0.0
 11
40.93896172988471
 21
6.382193465466806
 31
0.0
  0
LINE
  5
22282
330
22279
100
AcDbEntity
  8
0
  6
CONTINUOUS
100
AcDbLine
 10
38.60499999996136
 20
3.374712526463272
 30
0.0
 11
40.02599999995994
 21
4.795712526461843
 31
0.0
  0
LINE
  5
22283
330
22279
100
AcDbEntity
  8
0
  6
CONTINUOUS
100
AcDbLine
 10
38.60499999996136
 20
2.701193317383085
 30
0.0
 11
40.02599999995994
 21
4.122193317381657
 31
0.0
  0
LINE
  5
22284
330
22279
100
AcDbEntity
  8
0
  6
CONTINUOUS
100
AcDbLine
 10
40.28339754687704
 20
5.053110073378947
 30
0.0
 11
41.25642404246489
 21
6.026136568966799
 31
0.0
  0
LINE
  5
22285
330
22279
100
AcDbEntity
  8
0
  6
CONTINUOUS
100
AcDbLine
 10
40.60085985945722
 20
4.697053176878939
 30
0.0
 11
41.57388635504507
 21
5.670079672466793
 31
0.0
  0
LINE
  5
22286
330
22279
100
AcDbEntity
  8
0
  6
CONTINUOUS
100
AcDbLine
 10
43.57899999995641
 20
8.348712526458318
 30
0.0
 11
43.99338747348935
 21
8.763099999991255
 31
0.0
  0
LINE
  5
22287
330
22279
100
AcDbEntity
  8
0
  6
CONTINUOUS
100
AcDbLine
 10
43.57899999995641
 20
7.675193317378131
 30
0.0
 11
44.66690668256953
 21
8.763099999991255
 31
0.0
  0
LINE
  5
22288
330
22279
100
AcDbEntity
  8
0
  6
CONTINUOUS
100
AcDbLine
 10
38.60499999996136
 20
2.027674108302898
 30
0.0
 11
40.02599999995994
 21
3.44867410830147
 31
0.0
  0
LINE
  5
22289
330
22279
100
AcDbEntity
  8
0
  6
CONTINUOUS
100
AcDbLine
 10
38.60499999996136
 20
1.354154899222712
 30
0.0
 11
40.02599999995994
 21
2.775154899221284
 31
0.0
  0
LINE
  5
2228A
330
22279
100
AcDbEntity
  8
0
  6
CONTINUOUS
100
AcDbLine
 10
38.60499999996136
 20
0.6806356901425255
 30
0.0
 11
40.02599999995994
 21
2.101635690141098
 31
0.0
  0
LINE
  5
2228B
330
22279
100
AcDbEntity
  8
0
  6
CONTINUOUS
100
AcDbLine
 10
38.60499999996136
 20
0.0071164810623383
 30
0.0
 11
40.02599999995994
 21
1.428116481060911
 31
0.0
  0
LINE
  5
2228C
330
22279
100
AcDbEntity
  8
0
  6
CONTINUOUS
100
AcDbLine
 10
40.9183221720374
 20
4.340996280378933
 30
0.0
 11
41.89134866762525
 21
5.314022775966786
 31
0.0
  0
LINE
  5
2228D
330
22279
100
AcDbEntity
  8
0
  6
CONTINUOUS
100
AcDbLine
 10
41.23578448461758
 20
3.984939383878926
 30
0.0
 11
42.20881098020543
 21
4.957965879466778
 31
0.0
  0
LINE
  5
2228E
330
22279
100
AcDbEntity
  8
0
  6
CONTINUOUS
100
AcDbLine
 10
41.55324679719776
 20
3.628882487378919
 30
0.0
 11
42.52627329278561
 21
4.601908982966772
 31
0.0
  0
LINE
  5
2228F
330
22279
100
AcDbEntity
  8
0
  6
CONTINUOUS
100
AcDbLine
 10
41.87070910977793
 20
3.272825590878912
 30
0.0
 11
42.84373560536579
 21
4.245852086466765
 31
0.0
  0
LINE
  5
22290
330
22279
100
AcDbEntity
  8
0
  6
CONTINUOUS
100
AcDbLine
 10
43.57899999995641
 20
7.001674108297943
 30
0.0
 11
44.99999999995498
 21
8.422674108296516
 31
0.0
  0
LINE
  5
22291
330
22279
100
AcDbEntity
  8
0
  6
CONTINUOUS
100
AcDbLine
 10
43.57899999995641
 20
6.328154899217758
 30
0.0
 11
44.99999999995498
 21
7.749154899216329
 31
0.0
  0
LINE
  5
22292
330
22279
100
AcDbEntity
  8
0
  6
CONTINUOUS
100
AcDbLine
 10
43.57899999995641
 20
5.654635690137571
 30
0.0
 11
44.99999999995498
 21
7.075635690136142
 31
0.0
  0
LINE
  5
22293
330
22279
100
AcDbEntity
  8
0
  6
CONTINUOUS
100
AcDbLine
 10
43.57899999995641
 20
4.981116481057384
 30
0.0
 11
44.99999999995498
 21
6.402116481055955
 31
0.0
  0
LINE
  5
22294
330
22279
100
AcDbEntity
  8
0
  6
CONTINUOUS
100
AcDbLine
 10
39.27140272797921
 20
-0.0000000000000009
 30
0.0
 11
40.02599999995994
 21
0.7545972719807246
 31
0.0
  0
LINE
  5
22295
330
22279
100
AcDbEntity
  8
0
  6
CONTINUOUS
100
AcDbLine
 10
39.9449219370594
 20
-0.0000000000000009
 30
0.0
 11
40.02599999995994
 21
0.0810780629005379
 31
0.0
  0
LINE
  5
22296
330
22279
100
AcDbEntity
  8
0
  6
CONTINUOUS
100
AcDbLine
 10
42.18817142235812
 20
2.916768694378905
 30
0.0
 11
43.16119791794597
 21
3.889795189966758
 31
0.0
  0
LINE
  5
22297
330
22279
100
AcDbEntity
  8
0
  6
CONTINUOUS
100
AcDbLine
 10
42.50563373493829
 20
2.560711797878898
 30
0.0
 11
43.47866023052615
 21
3.533738293466751
 31
0.0
  0
LINE
  5
22298
330
22279
100
AcDbEntity
  8
0
  6
CONTINUOUS
100
AcDbLine
 10
43.57899999995641
 20
4.307597271977198
 30
0.0
 11
44.99999999995498
 21
5.728597271975769
 31
0.0
  0
LINE
  5
22299
330
22279
100
AcDbEntity
  8
0
  6
CONTINUOUS
100
AcDbLine
 10
43.57899999995641
 20
3.634078062897011
 30
0.0
 11
44.99999999995498
 21
5.055078062895582
 31
0.0
  0
LINE
  5
2229A
330
22279
100
AcDbEntity
  8
0
  6
CONTINUOUS
100
AcDbLine
 10
42.82309604751848
 20
2.204654901378891
 30
0.0
 11
44.99999999995498
 21
4.381558853815395
 31
0.0
  0
LINE
  5
2229B
330
22279
100
AcDbEntity
  8
0
  6
CONTINUOUS
100
AcDbLine
 10
43.14055836009865
 20
1.848598004878885
 30
0.0
 11
44.99999999995498
 21
3.70803964473521
 31
0.0
  0
LINE
  5
2229C
330
22279
100
AcDbEntity
  8
0
  6
CONTINUOUS
100
AcDbLine
 10
43.45802067267883
 20
1.492541108378878
 30
0.0
 11
44.99999999995498
 21
3.034520435655023
 31
0.0
  0
LINE
  5
2229D
330
22279
100
AcDbEntity
  8
0
  6
CONTINUOUS
100
AcDbLine
 10
43.77548298525902
 20
1.136484211878871
 30
0.0
 11
44.99999999995498
 21
2.361001226574837
 31
0.0
  0
LINE
  5
2229E
330
22279
100
AcDbEntity
  8
0
  6
CONTINUOUS
100
AcDbLine
 10
44.09294529783919
 20
0.7804273153788639
 30
0.0
 11
44.99999999995498
 21
1.687482017494649
 31
0.0
  0
LINE
  5
2229F
330
22279
100
AcDbEntity
  8
0
  6
CONTINUOUS
100
AcDbLine
 10
44.41040761041938
 20
0.4243704188788566
 30
0.0
 11
44.99999999995498
 21
1.013962808414463
 31
0.0
  0
LINE
  5
222A0
330
22279
100
AcDbEntity
  8
0
  6
CONTINUOUS
100
AcDbLine
 10
44.72786992299955
 20
0.0683135223788494
 30
0.0
 11
44.99999999995498
 21
0.340443599334276
 31
0.0
  0
LINE
  5
222A1
330
22279
100
AcDbEntity
  8
0
  6
CONTINUOUS
100
AcDbLine
 10
39.12223903415696
 20
-0.0000000000000009
 30
0.0
 11
38.60499999996136
 21
0.5172390341955961
 31
0.0
  0
LINE
  5
222A2
330
22279
100
AcDbEntity
  8
0
  6
CONTINUOUS
100
AcDbLine
 10
39.79575824323715
 20
-0.0000000000000009
 30
0.0
 11
38.60499999996136
 21
1.190758243275783
 31
0.0
  0
LINE
  5
222A3
330
22279
100
AcDbEntity
  8
0
  6
CONTINUOUS
100
AcDbLine
 10
40.02599999995994
 20
0.443277452357397
 30
0.0
 11
38.60499999996136
 21
1.864277452355969
 31
0.0
  0
LINE
  5
222A4
330
22279
100
AcDbEntity
  8
0
  6
CONTINUOUS
100
AcDbLine
 10
40.02599999995994
 20
1.116796661437583
 30
0.0
 11
38.60499999996136
 21
2.537796661436155
 31
0.0
  0
LINE
  5
222A5
330
22279
100
AcDbEntity
  8
0
  6
CONTINUOUS
100
AcDbLine
 10
40.02599999995994
 20
1.79031587051777
 30
0.0
 11
38.60499999996136
 21
3.211315870516341
 31
0.0
  0
LINE
  5
222A6
330
22279
100
AcDbEntity
  8
0
  6
CONTINUOUS
100
AcDbLine
 10
40.02599999995994
 20
2.463835079597956
 30
0.0
 11
38.60499999996136
 21
3.884835079596527
 31
0.0
  0
LINE
  5
222A7
330
22279
100
AcDbEntity
  8
0
  6
CONTINUOUS
100
AcDbLine
 10
40.02599999995994
 20
3.137354288678143
 30
0.0
 11
38.60499999996136
 21
4.558354288676714
 31
0.0
  0
LINE
  5
222A8
330
22279
100
AcDbEntity
  8
0
  6
CONTINUOUS
100
AcDbLine
 10
40.02599999995994
 20
3.810873497758329
 30
0.0
 11
38.60499999996136
 21
5.2318734977569
 31
0.0
  0
LINE
  5
222A9
330
22279
100
AcDbEntity
  8
0
  6
CONTINUOUS
100
AcDbLine
 10
40.02599999995994
 20
4.484392706838515
 30
0.0
 11
38.60499999996136
 21
5.905392706837086
 31
0.0
  0
LINE
  5
222AA
330
22279
100
AcDbEntity
  8
0
  6
CONTINUOUS
100
AcDbLine
 10
44.99999999995498
 20
0.183911915923658
 30
0.0
 11
41.53858364506288
 21
3.64532827081576
 31
0.0
  0
LINE
  5
222AB
330
22279
100
AcDbEntity
  8
0
  6
CONTINUOUS
100
AcDbLine
 10
40.02599999995994
 20
5.157911915918703
 30
0.0
 11
38.60499999996136
 21
6.578911915917274
 31
0.0
  0
LINE
  5
222AC
330
22279
100
AcDbEntity
  8
0
  6
CONTINUOUS
100
AcDbLine
 10
44.99999999995498
 20
0.8574311250038447
 30
0.0
 11
38.60499999996136
 21
7.25243112499746
 31
0.0
  0
LINE
  5
222AD
330
22279
100
AcDbEntity
  8
0
  6
CONTINUOUS
100
AcDbLine
 10
44.99999999995498
 20
1.530950334084031
 30
0.0
 11
38.60499999996136
 21
7.925950334077647
 31
0.0
  0
LINE
  5
222AE
330
22279
100
AcDbEntity
  8
0
  6
CONTINUOUS
100
AcDbLine
 10
44.99999999995498
 20
2.204469543164218
 30
0.0
 11
43.57899999995641
 21
3.625469543162789
 31
0.0
  0
LINE
  5
222AF
330
22279
100
AcDbEntity
  8
0
  6
CONTINUOUS
100
AcDbLine
 10
41.89876730984767
 20
5.305702233271528
 30
0.0
 11
38.60499999996136
 21
8.599469543157834
 31
0.0
  0
LINE
  5
222B0
330
22279
100
AcDbEntity
  8
0
  6
CONTINUOUS
100
AcDbLine
 10
44.99999999995498
 20
2.877988752244405
 30
0.0
 11
43.57899999995641
 21
4.298988752242975
 31
0.0
  0
LINE
  5
222B1
330
22279
100
AcDbEntity
  8
0
  6
CONTINUOUS
100
AcDbLine
 10
44.99999999995498
 20
3.551507961324591
 30
0.0
 11
43.57899999995641
 21
4.972507961323163
 31
0.0
  0
LINE
  5
222B2
330
22279
100
AcDbEntity
  8
0
  6
CONTINUOUS
100
AcDbLine
 10
44.99999999995498
 20
4.225027170404777
 30
0.0
 11
43.57899999995641
 21
5.646027170403348
 31
0.0
  0
LINE
  5
222B3
330
22279
100
AcDbEntity
  8
0
  6
CONTINUOUS
100
AcDbLine
 10
44.99999999995498
 20
4.898546379484964
 30
0.0
 11
43.57899999995641
 21
6.319546379483535
 31
0.0
  0
LINE
  5
222B4
330
22279
100
AcDbEntity
  8
0
  6
CONTINUOUS
100
AcDbLine
 10
44.99999999995498
 20
5.572065588565151
 30
0.0
 11
43.57899999995641
 21
6.993065588563722
 31
0.0
  0
LINE
  5
222B5
330
22279
100
AcDbEntity
  8
0
  6
CONTINUOUS
100
AcDbLine
 10
44.99999999995498
 20
6.245584797645336
 30
0.0
 11
43.57899999995641
 21
7.666584797643908
 31
0.0
  0
LINE
  5
222B6
330
22279
100
AcDbEntity
  8
0
  6
CONTINUOUS
100
AcDbLine
 10
44.99999999995498
 20
6.919104006725522
 30
0.0
 11
43.57899999995641
 21
8.340104006724093
 31
0.0
  0
LINE
  5
222B7
330
22279
100
AcDbEntity
  8
0
  6
CONTINUOUS
100
AcDbLine
 10
44.99999999995498
 20
7.592623215805709
 30
0.0
 11
43.82952321576943
 21
8.763099999991255
 31
0.0
  0
LINE
  5
222B8
330
22279
100
AcDbEntity
  8
0
  6
CONTINUOUS
100
AcDbLine
 10
44.99999999995498
 20
8.266142424885896
 30
0.0
 11
44.50304242484962
 21
8.763099999991255
 31
0.0
  0
ENDBLK
  5
222E2
330
22279
100
AcDbEntity
  8
0
100
AcDbBlockEnd
  0
BLOCK
  5
222E3
330
222B9
100
AcDbEntity
  8
0
100
AcDbBlockBegin
  2
*X70
 70
     1
 10
0.0
 20
0.0
 30
0.0
  3
*X70
  1

  0
LINE
  5
222BA
330
222B9
100
AcDbEntity
  8
0
  6
CONTINUOUS
100
AcDbLine
 10
0.0
 20
8.548461116714023
 30
0.0
 11
0.2146388832772324
 21
8.763099999991255
 31
0.0
  0
LINE
  5
222BB
330
222B9
100
AcDbEntity
  8
0
  6
CONTINUOUS
100
AcDbLine
 10
-0.0000000000000002
 20
7.874941907633837
 30
0.0
 11
0.8881580923574184
 21
8.763099999991255
 31
0.0
  0
LINE
  5
222BC
330
222B9
100
AcDbEntity
  8
0
  6
CONTINUOUS
100
AcDbLine
 10
0.0
 20
7.20142269855365
 30
0.0
 11
1.420999999998572
 21
8.622422698552223
 31
0.0
  0
LINE
  5
222BD
330
222B9
100
AcDbEntity
  8
0
  6
CONTINUOUS
100
AcDbLine
 10
-0.0000000000000001
 20
6.527903489473465
 30
0.0
 11
1.420999999998571
 21
7.948903489472036
 31
0.0
  0
LINE
  5
222BE
330
222B9
100
AcDbEntity
  8
0
  6
CONTINUOUS
100
AcDbLine
 10
-0.0000000000000002
 20
5.854384280393278
 30
0.0
 11
1.420999999998571
 21
7.275384280391849
 31
0.0
  0
LINE
  5
222BF
330
222B9
100
AcDbEntity
  8
0
  6
CONTINUOUS
100
AcDbLine
 10
-0.0000000000000002
 20
5.180865071313091
 30
0.0
 11
1.420999999998571
 21
6.601865071311663
 31
0.0
  0
LINE
  5
222C0
330
222B9
100
AcDbEntity
  8
0
  6
CONTINUOUS
100
AcDbLine
 10
0.0
 20
4.507345862232905
 30
0.0
 11
1.420999999998571
 21
5.928345862231477
 31
0.0
  0
LINE
  5
222C1
330
222B9
100
AcDbEntity
  8
0
  6
CONTINUOUS
100
AcDbLine
 10
-0.0000000000000003
 20
3.833826653152718
 30
0.0
 11
1.420999999998571
 21
5.25482665315129
 31
0.0
  0
LINE
  5
222C2
330
222B9
100
AcDbEntity
  8
0
  6
CONTINUOUS
100
AcDbLine
 10
-0.0000000000000002
 20
3.160307444072532
 30
0.0
 11
1.420999999998571
 21
4.581307444071103
 31
0.0
  0
LINE
  5
222C3
330
222B9
100
AcDbEntity
  8
0
  6
CONTINUOUS
100
AcDbLine
 10
-0.0000000000000001
 20
2.486788234992345
 30
0.0
 11
1.420999999998571
 21
3.907788234990917
 31
0.0
  0
LINE
  5
222C4
330
222B9
100
AcDbEntity
  8
0
  6
CONTINUOUS
100
AcDbLine
 10
-0.0000000000000006
 20
1.813269025912159
 30
0.0
 11
1.420999999998571
 21
3.234269025910731
 31
0.0
  0
LINE
  5
222C5
330
222B9
100
AcDbEntity
  8
0
  6
CONTINUOUS
100
AcDbLine
 10
0.0
 20
1.139749816831973
 30
0.0
 11
1.420999999998571
 21
2.560749816830544
 31
0.0
  0
LINE
  5
222C6
330
222B9
100
AcDbEntity
  8
0
  6
CONTINUOUS
100
AcDbLine
 10
0.0000000000000002
 20
0.466230607751787
 30
0.0
 11
1.420999999998571
 21
1.887230607750358
 31
0.0
  0
LINE
  5
222C7
330
222B9
100
AcDbEntity
  8
0
  6
CONTINUOUS
100
AcDbLine
 10
0.2072886013284003
 20
-0.0000000000000009
 30
0.0
 11
1.420999999998571
 21
1.213711398670171
 31
0.0
  0
LINE
  5
222C8
330
222B9
100
AcDbEntity
  8
0
  6
CONTINUOUS
100
AcDbLine
 10
0.8808078104085864
 20
-0.0000000000000009
 30
0.0
 11
1.420999999998571
 21
0.5401921895899839
 31
0.0
  0
LINE
  5
222C9
330
222B9
100
AcDbEntity
  8
0
  6
CONTINUOUS
100
AcDbLine
 10
0.0581249075061505
 20
-0.0000000000000009
 30
0.0
 11
-0.0000000000000002
 21
0.0581249075061496
 31
0.0
  0
LINE
  5
222CA
330
222B9
100
AcDbEntity
  8
0
  6
CONTINUOUS
100
AcDbLine
 10
0.7316441165863372
 20
-0.0000000000000009
 30
0.0
 11
-0.0000000000000002
 21
0.7316441165863363
 31
0.0
  0
LINE
  5
222CB
330
222B9
100
AcDbEntity
  8
0
  6
CONTINUOUS
100
AcDbLine
 10
1.405163325666523
 20
-0.0000000000000009
 30
0.0
 11
-0.0000000000000002
 21
1.405163325666523
 31
0.0
  0
LINE
  5
222CC
330
222B9
100
AcDbEntity
  8
0
  6
CONTINUOUS
100
AcDbLine
 10
1.420999999998572
 20
0.6576825347481381
 30
0.0
 11
-0.0000000000000001
 21
2.07868253474671
 31
0.0
  0
LINE
  5
222CD
330
222B9
100
AcDbEntity
  8
0
  6
CONTINUOUS
100
AcDbLine
 10
1.420999999998571
 20
1.331201743828324
 30
0.0
 11
-0.0000000000000001
 21
2.752201743826896
 31
0.0
  0
LINE
  5
222CE
330
222B9
100
AcDbEntity
  8
0
  6
CONTINUOUS
100
AcDbLine
 10
1.420999999998571
 20
2.004720952908511
 30
0.0
 11
-0.0000000000000002
 21
3.425720952907082
 31
0.0
  0
LINE
  5
222CF
330
222B9
100
AcDbEntity
  8
0
  6
CONTINUOUS
100
AcDbLine
 10
1.420999999998571
 20
2.678240161988697
 30
0.0
 11
-0.0000000000000001
 21
4.099240161987269
 31
0.0
  0
LINE
  5
222D0
330
222B9
100
AcDbEntity
  8
0
  6
CONTINUOUS
100
AcDbLine
 10
1.420999999998572
 20
3.351759371068884
 30
0.0
 11
0.0
 21
4.772759371067455
 31
0.0
  0
LINE
  5
222D1
330
222B9
100
AcDbEntity
  8
0
  6
CONTINUOUS
100
AcDbLine
 10
1.420999999998571
 20
4.02527858014907
 30
0.0
 11
-0.0000000000000003
 21
5.446278580147642
 31
0.0
  0
LINE
  5
222D2
330
222B9
100
AcDbEntity
  8
0
  6
CONTINUOUS
100
AcDbLine
 10
1.420999999998571
 20
4.698797789229257
 30
0.0
 11
0.0
 21
6.119797789227828
 31
0.0
  0
LINE
  5
222D3
330
222B9
100
AcDbEntity
  8
0
  6
CONTINUOUS
100
AcDbLine
 10
1.420999999998571
 20
5.372316998309444
 30
0.0
 11
-0.0000000000000001
 21
6.793316998308015
 31
0.0
  0
LINE
  5
222D4
330
222B9
100
AcDbEntity
  8
0
  6
CONTINUOUS
100
AcDbLine
 10
1.420999999998572
 20
6.045836207389629
 30
0.0
 11
-0.0000000000000004
 21
7.466836207388202
 31
0.0
  0
LINE
  5
222D5
330
222B9
100
AcDbEntity
  8
0
  6
CONTINUOUS
100
AcDbLine
 10
1.420999999998571
 20
6.719355416469816
 30
0.0
 11
0.0
 21
8.140355416468388
 31
0.0
  0
LINE
  5
222D6
330
222B9
100
AcDbEntity
  8
0
  6
CONTINUOUS
100
AcDbLine
 10
1.420999999998571
 20
7.392874625550003
 30
0.0
 11
0.0507746255573185
 21
8.763099999991255
 31
0.0
  0
LINE
  5
222D7
330
222B9
100
AcDbEntity
  8
0
  6
CONTINUOUS
100
AcDbLine
 10
1.420999999998571
 20
8.06639383463019
 30
0.0
 11
0.7242938346375052
 21
8.763099999991255
 31
0.0
  0
LINE
  5
222D8
330
222B9
100
AcDbEntity
  8
0
  6
CONTINUOUS
100
AcDbLine
 10
1.420999999998571
 20
8.739913043710375
 30
0.0
 11
1.397813043717691
 21
8.763099999991255
 31
0.0
  0
ENDBLK
  5
222E4
330
222B9
100
AcDbEntity
  8
0
100
AcDbBlockEnd
  0
ENDSEC
  0
SECTION
  2
ENTITIES
  0
LINE
  5
1D8CA
330
18
100
AcDbEntity
  8
01
100
AcDbLine
 10
850.7262416153649
 20
-645.6013303512661
 30
0.0
 11
850.7262416153649
 21
-667.7513303512676
 31
0.0
  0
LINE
  5
1D90A
330
18
100
AcDbEntity
  8
01
100
AcDbLine
 10
850.7262416153649
 20
-648.1013303512668
 30
0.0
 11
850.7262416153649
 21
-665.7513303512662
 31
0.0
  0
TEXT
  5
1DB9B
330
18
100
AcDbEntity
  8
1TEXT
100
AcDbText
 10
558.8462440472347
 20
-543.9513303512663
 30
0.0
 40
8.0
  1
SE-331-XXL
100
AcDbText
  0
LINE
  5
1DBA4
102
{ACAD_REACTORS
330
1EDFD
102
}
330
18
100
AcDbEntity
  8
01
100
AcDbLine
 10
863.2262416153649
 20
-613.5231567659848
 30
0.0
 11
863.2262416153649
 21
-687.9795039365486
 31
0.0
  0
LINE
  5
1DBA5
102
{ACAD_REACTORS
330
1EDFD
102
}
330
18
100
AcDbEntity
  8
01
100
AcDbLine
 10
872.2262416153649
 20
-613.5231567659848
 30
0.0
 11
872.2262416153649
 21
-687.9795039365486
 31
0.0
  0
LINE
  5
1DBA6
102
{ACAD_REACTORS
330
1EDFD
102
}
330
18
100
AcDbEntity
  8
01
100
AcDbLine
 10
850.7262416153649
 20
-613.5231567659848
 30
0.0
 11
850.7262416153649
 21
-687.9795039365486
 31
0.0
  0
LINE
  5
20F33
330
18
100
AcDbEntity
  8
01
  6
CONTINUOUS
100
AcDbLine
 10
705.2462414723136
 20
-628.9513318774018
 30
0.0
 11
45.84623617942157
 21
-628.951331877402
 31
0.0
  0
LINE
  5
21003
330
18
100
AcDbEntity
  8
01
  6
CONTINUOUS
100
AcDbLine
 10
705.2462370854123
 20
-660.7513301277488
 30
0.0
 11
45.84624056632288
 21
-660.751330127749
 31
0.0
  0
LINE
  5
2100D
330
18
100
AcDbEntity
  8
01
  6
CONTINUOUS
100
AcDbLine
 10
45.84624056632288
 20
-640.7513305747837
 30
0.0
 11
705.2462370854124
 21
-640.7513305747837
 31
0.0
  0
LINE
  5
211E1
330
18
100
AcDbEntity
  8
01
  6
CONTINUOUS
100
AcDbLine
 10
850.7262416153649
 20
-664.2513304928275
 30
0.0
 11
850.7262411351985
 21
-664.2513304928275
 31
0.0
  0
LINE
  5
211E3
330
18
100
AcDbEntity
  8
01
  6
CONTINUOUS
100
AcDbLine
 10
850.7262411351985
 20
-638.8512786457272
 30
0.0
 11
850.7262411999161
 21
-638.8512786457272
 31
0.0
  0
LINE
  5
211E9
330
18
100
AcDbEntity
  8
01
  6
CONTINUOUS
100
AcDbLine
 10
850.7262416153649
 20
-637.2513297924729
 30
0.0
 11
850.7262411351985
 21
-637.2513297924729
 31
0.0
  0
LINE
  5
211EB
330
18
100
AcDbEntity
  8
01
  6
CONTINUOUS
100
AcDbLine
 10
850.7262411999161
 20
-662.6513304168318
 30
0.0
 11
850.7262411351985
 21
-662.6513304168318
 31
0.0
  0
LINE
  5
212B3
330
18
100
AcDbEntity
  8
01
100
AcDbLine
 10
45.54623617942121
 20
-619.2513302382742
 30
0.0
 11
45.54623617942167
 21
-628.6513318774018
 31
0.0
  0
ARC
  5
212B4
330
18
100
AcDbEntity
  8
01
100
AcDbCircle
 10
45.84623617942162
 20
-628.6513318774018
 30
0.0
 40
0.3
100
AcDbArc
 50
180.0
 51
270.0
  0
ARC
  5
212B5
330
18
100
AcDbEntity
  8
01
100
AcDbCircle
 10
45.84623617942117
 20
-619.2513302382742
 30
0.0
 40
0.3
100
AcDbArc
 50
90.0
 51
180.0
  0
LINE
  5
212C7
330
18
100
AcDbEntity
  8
01
100
AcDbLine
 10
705.546241472314
 20
-619.2513302382742
 30
0.0
 11
705.5462414723136
 21
-628.6513318774018
 31
0.0
  0
ARC
  5
212C8
330
18
100
AcDbEntity
  8
01
100
AcDbCircle
 10
705.2462414723136
 20
-628.6513318774018
 30
0.0
 40
0.2999999999999999
100
AcDbArc
 50
270.0
 51
0.0
  0
ARC
  5
212C9
330
18
100
AcDbEntity
  8
01
100
AcDbCircle
 10
705.2462414723141
 20
-619.2513302382742
 30
0.0
 40
0.2999999999999999
100
AcDbArc
 50
0.0
 51
90.0
  0
LINE
  5
212CA
330
18
100
AcDbEntity
  8
01
100
AcDbLine
 10
45.84623617942117
 20
-618.9513302382743
 30
0.0
 11
705.2462414723141
 21
-618.9513302382743
 31
0.0
  0
TEXT
  5
2131B
330
18
100
AcDbEntity
  8
1TEXT
100
AcDbText
 10
561.4262440472343
 20
-554.4513303512663
 30
0.0
 40
4.0
  1
表面処理：脚部
 41
0.9
 72
     1
 11
576.2462440472343
 21
-554.4513303512663
 31
0.0
100
AcDbText
  0
TEXT
  5
2131C
330
18
100
AcDbEntity
  8
1TEXT
100
AcDbText
 10
566.7795773805676
 20
-561.2866190107907
 30
0.0
 40
4.0
  1
クローム
 72
     1
 11
576.2462440472343
 21
-561.2866190107907
 31
0.0
100
AcDbText
  0
LINE
  5
2131D
330
18
100
AcDbEntity
  8
1DIM
100
AcDbLine
 10
558.8462440472347
 20
-548.9513303512663
 30
0.0
 11
698.8462440472347
 21
-548.9513303512663
 31
0.0
  0
LINE
  5
2131E
330
18
100
AcDbEntity
  8
1DIM
100
AcDbLine
 10
558.8462440472347
 20
-562.9513303512663
 30
0.0
 11
698.8462440472347
 21
-562.9513303512663
 31
0.0
  0
LINE
  5
2131F
330
18
100
AcDbEntity
  8
1DIM
100
AcDbLine
 10
558.8462440472347
 20
-555.9513303512663
 30
0.0
 11
698.8462440472347
 21
-555.9513303512663
 31
0.0
  0
LINE
  5
21320
330
18
100
AcDbEntity
  8
1DIM
100
AcDbLine
 10
558.8462440472347
 20
-569.9513303512663
 30
0.0
 11
698.8462440472347
 21
-569.9513303512663
 31
0.0
  0
LINE
  5
21321
330
18
100
AcDbEntity
  8
1DIM
100
AcDbLine
 10
558.8462440472347
 20
-569.9513303512663
 30
0.0
 11
698.8462440472347
 21
-569.9513303512663
 31
0.0
  0
LINE
  5
21322
330
18
100
AcDbEntity
  8
1DIM
100
AcDbLine
 10
628.8462440472347
 20
-548.9513303512663
 30
0.0
 11
628.8462440472347
 21
-569.9513303512663
 31
0.0
  0
TEXT
  5
21323
330
18
100
AcDbEntity
  8
1TEXT
100
AcDbText
 10
674.3795773805676
 20
-554.4513303512663
 30
0.0
 40
4.0
  1
コード
 72
     1
 11
681.2462440472343
 21
-554.4513303512663
 31
0.0
100
AcDbText
  0
LINE
  5
21324
330
18
100
AcDbEntity
  8
1DIM
100
AcDbLine
 10
593.8462440472347
 20
-569.9513303512663
 30
0.0
 11
593.8462440472347
 21
-548.9513303512663
 31
0.0
  0
LINE
  5
21325
330
18
100
AcDbEntity
  8
1DIM
100
AcDbLine
 10
663.8462440472347
 20
-569.9513303512663
 30
0.0
 11
663.8462440472347
 21
-548.9513303512663
 31
0.0
  0
TEXT
  5
21326
330
18
100
AcDbEntity
  8
1TEXT
100
AcDbText
 10
559.712910713901
 20
-568.2866190107907
 30
0.0
 40
4.0
  1
サテンニッケル
 72
     1
 11
576.2462440472343
 21
-568.2866190107907
 31
0.0
100
AcDbText
  0
TEXT
  5
21327
330
18
100
AcDbEntity
  8
1TEXT
100
AcDbText
 10
594.5062440472343
 20
-554.4513303512663
 30
0.0
 40
4.0
  1
表面処理：カバー
 41
0.9
 72
     1
 11
611.2462440472343
 21
-554.4513303512663
 31
0.0
100
AcDbText
  0
TEXT
  5
21328
330
18
100
AcDbEntity
  8
1TEXT
100
AcDbText
 10
594.6462440472343
 20
-561.2866190107907
 30
0.0
 40
4.0
  1
スノーマーブル
 72
     1
 11
611.2462440472343
 21
-561.2866190107907
 31
0.0
100
AcDbText
  0
TEXT
  5
21329
330
18
100
AcDbEntity
  8
1TEXT
100
AcDbText
 10
594.712910713901
 20
-568.2866190107907
 30
0.0
 40
4.0
  1
サンドマーブル
 72
     1
 11
611.2462440472343
 21
-568.2866190107907
 31
0.0
100
AcDbText
  0
LINE
  5
2132A
330
18
100
AcDbEntity
  8
1DIM
100
AcDbLine
 10
558.8462440472347
 20
-569.9513303512663
 30
0.0
 11
558.8462440472347
 21
-548.9513303512663
 31
0.0
  0
TEXT
  5
2132B
330
18
100
AcDbEntity
  8
1TEXT
100
AcDbText
 10
667.8456884916797
 20
-561.6656873349154
 30
0.0
 40
4.0
  1
SE-331-C092L
 41
0.6
 72
     1
 11
681.2462440472352
 21
-561.6656873349154
 31
0.0
100
AcDbText
  0
TEXT
  5
2132C
330
18
100
AcDbEntity
  8
1TEXT
100
AcDbText
 10
667.8456884916797
 20
-568.6656873349154
 30
0.0
 40
4.0
  1
SE-331-N093L
 41
0.6
 72
     1
 11
681.2462440472352
 21
-568.6656873349154
 31
0.0
100
AcDbText
  0
LINE
  5
21336
330
18
100
AcDbEntity
  8
01
100
AcDbLine
 10
705.5462370854123
 20
-660.4513301277489
 30
0.0
 11
705.5462370854123
 21
-641.0513305747836
 31
0.0
  0
ARC
  5
21337
330
18
100
AcDbEntity
  8
01
100
AcDbCircle
 10
705.2462370854123
 20
-641.0513305747836
 30
0.0
 40
0.3
100
AcDbArc
 50
0.0
 51
90.0
  0
ARC
  5
21338
330
18
100
AcDbEntity
  8
01
100
AcDbCircle
 10
705.2462370854123
 20
-660.4513301277489
 30
0.0
 40
0.3
100
AcDbArc
 50
270.0
 51
0.0
  0
LINE
  5
21487
330
18
100
AcDbEntity
  8
1DIM
100
AcDbLine
 10
698.8462440472347
 20
-569.9513303512663
 30
0.0
 11
698.8462440472347
 21
-548.9513303512663
 31
0.0
  0
TEXT
  5
21488
330
18
100
AcDbEntity
  8
1TEXT
100
AcDbText
 10
629.2062440472343
 20
-554.4513303512663
 30
0.0
 40
4.0
  1
表面処理：レール
 41
0.9
 72
     1
 11
646.2462440472343
 21
-554.4513303512663
 31
0.0
100
AcDbText
  0
TEXT
  5
21489
330
18
100
AcDbEntity
  8
1TEXT
100
AcDbText
 10
641.9129107139009
 20
-561.2866190107907
 30
0.0
 40
4.0
  1
鏡面
 72
     1
 11
646.2462440472343
 21
-561.2866190107907
 31
0.0
100
AcDbText
  0
TEXT
  5
2148A
330
18
100
AcDbEntity
  8
1TEXT
100
AcDbText
 10
634.712910713901
 20
-568.2866190107907
 30
0.0
 40
4.0
  1
ヘアライン
 72
     1
 11
646.2462440472343
 21
-568.2866190107907
 31
0.0
100
AcDbText
  0
LINE
  5
21D35
330
18
100
AcDbEntity
  8
01
100
AcDbLine
 10
26.04623617547378
 20
-589.9513312693034
 30
0.0
 11
25.04623647547379
 21
-588.9513312693034
 31
0.0
  0
LINE
  5
21D36
330
18
100
AcDbEntity
  8
01
100
AcDbLine
 10
29.34623632547374
 20
-589.9513312693034
 30
0.0
 11
29.34623632547374
 21
-588.9513312693034
 31
0.0
  0
LINE
  5
21D37
330
18
100
AcDbEntity
  8
01
100
AcDbLine
 10
29.34623632547374
 20
-588.9513312693034
 30
0.0
 11
21.74623632547383
 21
-588.9513312693034
 31
0.0
  0
LINE
  5
21D38
330
18
100
AcDbEntity
  8
01
100
AcDbLine
 10
29.34623632547374
 20
-589.9513312693034
 30
0.0
 11
21.74623632547383
 21
-589.9513312693034
 31
0.0
  0
LINE
  5
21D39
330
18
100
AcDbEntity
  8
01
100
AcDbLine
 10
21.74623632547383
 20
-589.9513312693034
 30
0.0
 11
21.74623632547383
 21
-588.9513312693034
 31
0.0
  0
LINE
  5
21D41
330
18
100
AcDbEntity
  8
01
100
AcDbLine
 10
45.54623367592302
 20
-619.2513311563109
 30
0.0
 11
45.54623367592347
 21
-628.6513327954385
 31
0.0
  0
LINE
  5
21D74
330
18
100
AcDbEntity
  8
01
  6
CONTINUOUS
100
AcDbLine
 10
12.79623593065745
 20
-583.9513307885877
 30
0.0
 11
12.79623593065745
 21
-622.2513336583315
 31
0.0
  0
SPLINE
  5
21D76
330
18
100
AcDbEntity
  8
01
  6
CONTINUOUS
100
AcDbSpline
210
0.0
220
0.0
230
1.0
 70
     8
 71
     3
 72
    14
 73
    10
 74
     0
 42
0.000000001
 43
0.00000001
 40
0.0
 40
0.0
 40
0.0
 40
0.0
 40
0.25
 40
0.25
 40
0.5
 40
0.5
 40
0.75
 40
0.75
 40
1.0
 40
1.0
 40
1.0
 40
1.0
 10
38.29623632237002
 20
-619.4513310595908
 30
0.0
 10
38.29623632237013
 20
-619.3579258934872
 30
0.0
 10
38.29490315014988
 20
-619.2644009815701
 30
0.0
 10
38.30826500399695
 20
-619.0787908139312
 30
0.0
 10
38.3243782798001
 20
-618.9848138571838
 30
0.0
 10
38.39759924651622
 20
-618.8103318581968
 30
0.0
 10
38.45445772470879
 20
-618.7313990039684
 30
0.0
 10
38.60780124819388
 20
-618.6173642075753
 30
0.0
 10
38.70048384236708
 20
-618.5853056218336
 30
0.0
 10
38.79623632236945
 20
-618.5853056218336
 30
0.0
  0
LINE
  5
21D77
330
18
100
AcDbEntity
  8
01
  6
CONTINUOUS
100
AcDbLine
 10
38.79623632236945
 20
-618.5853056218336
 30
0.0
 11
39.98796694796346
 21
-618.5853056218341
 31
0.0
  0
SPLINE
  5
21D78
330
18
100
AcDbEntity
  8
01
  6
CONTINUOUS
100
AcDbSpline
210
0.0
220
0.0
230
1.0
 70
     8
 71
     3
 72
    15
 73
    11
 74
     0
 42
0.000000001
 43
0.00000001
 40
0.0
 40
0.0
 40
0.0
 40
0.0
 40
0.1015351284422764
 40
0.1849084236838882
 40
0.2501347018091021
 40
0.3802909988857769
 40
0.4998047248272087
 40
0.67050967685247
 40
0.836458446520511
 40
1.0
 40
1.0
 40
1.0
 40
1.0
 10
41.54623632236945
 20
-618.4513310595912
 30
0.0
 10
41.49736735811194
 20
-618.4520102199419
 30
0.0
 10
41.40837073904487
 20
-618.4532470575944
 30
0.0
 10
41.28715011356434
 20
-618.4615698024975
 30
0.0
 10
41.15083115331021
 20
-618.4744758922166
 30
0.0
 10
40.99349284778401
 20
-618.4938327328025
 30
0.0
 10
40.77776115112528
 20
-618.5237690162719
 30
0.0
 10
40.53537991506977
 20
-618.5549197468677
 30
0.0
 10
40.26180409958698
 20
-618.58029078407
 30
0.0
 10
40.07880033075259
 20
-618.5836421878821
 30
0.0
 10
39.98796694796334
 20
-618.5853056473138
 30
0.0
  0
LINE
  5
21D79
330
18
100
AcDbEntity
  8
01
  6
CONTINUOUS
100
AcDbLine
 10
41.54623632236945
 20
-618.4513310595908
 30
0.0
 11
44.74623617942149
 21
-618.4513310595908
 31
0.0
  0
LINE
  5
21D7A
330
18
100
AcDbEntity
  8
01
  6
CONTINUOUS
100
AcDbLine
 10
38.29623632236945
 20
-622.2513336583315
 30
0.0
 11
38.29623632236979
 21
-619.4513310595908
 31
0.0
  0
ARC
  5
21D7C
330
18
100
AcDbEntity
  8
01
  6
CONTINUOUS
100
AcDbCircle
 10
35.04623632236945
 20
-622.2513336583313
 30
0.0
 40
3.250000000000171
100
AcDbArc
 50
270.0
 51
359.9999994163617
  0
LINE
  5
21D7D
330
18
100
AcDbEntity
  8
01
  6
CONTINUOUS
100
AcDbLine
 10
16.04623593065745
 20
-625.5013336583315
 30
0.0
 11
35.04623632236945
 21
-625.5013336583314
 31
0.0
  0
ARC
  5
21D7E
330
18
100
AcDbEntity
  8
01
  6
CONTINUOUS
100
AcDbCircle
 10
16.04623593065745
 20
-622.2513325625134
 30
0.0
 40
3.250001095818106
100
AcDbArc
 50
180.0000193186946
 51
270.000000000001
  0
LINE
  5
21D7F
330
18
100
AcDbEntity
  8
01
  6
CONTINUOUS
100
AcDbLine
 10
44.74623617942149
 20
-629.4513310560853
 30
0.0
 11
15.84623617942148
 21
-629.4513310560853
 31
0.0
  0
ARC
  5
21D80
330
18
100
AcDbEntity
  8
01
  6
CONTINUOUS
100
AcDbCircle
 10
44.74623617942149
 20
-619.2513310595908
 30
0.0
 40
0.8000000000000682
100
AcDbArc
 50
0.0
 51
90.0
  0
ARC
  5
21D81
330
18
100
AcDbEntity
  8
01
  6
CONTINUOUS
100
AcDbCircle
 10
44.74623617942149
 20
-628.6513310560852
 30
0.0
 40
0.8000000000001251
100
AcDbArc
 50
270.0
 51
0.0
  0
LINE
  5
21D82
330
18
100
AcDbEntity
  8
01
  6
CONTINUOUS
100
AcDbLine
 10
8.846236179421481
 20
-622.4513310560853
 30
0.0
 11
8.846236179421481
 21
-583.9513305175847
 31
0.0
  0
LINE
  5
21D83
330
18
100
AcDbEntity
  8
01
  6
CONTINUOUS
100
AcDbLine
 10
9.846236179421481
 20
-583.9513305175847
 30
0.0
 11
8.846236179421481
 21
-583.9513305175847
 31
0.0
  0
ARC
  5
21D84
330
18
100
AcDbEntity
  8
01
  6
CONTINUOUS
100
AcDbCircle
 10
15.84623617942148
 20
-622.4513310560849
 30
0.0
 40
7.000000000000284
100
AcDbArc
 50
179.9999999999982
 51
270.0000000000005
  0
LINE
  5
21D85
330
18
100
AcDbEntity
  8
01
  6
CONTINUOUS
100
AcDbLine
 10
12.29623593065745
 20
-583.9513305175847
 30
0.0
 11
9.846236179421481
 21
-583.9513305175847
 31
0.0
  0
LINE
  5
21D86
330
18
100
AcDbEntity
  8
01
  6
CONTINUOUS
100
AcDbLine
 10
12.79623593065745
 20
-583.9513307885877
 30
0.0
 11
38.04623632236945
 21
-583.9513310493614
 31
0.0
  0
SPLINE
  5
21D87
330
18
100
AcDbEntity
  8
01
  6
CONTINUOUS
100
AcDbSpline
210
0.0
220
0.0
230
1.0
 70
     8
 71
     3
 72
    14
 73
    10
 74
     0
 42
0.000000001
 43
0.00000001
 40
0.0
 40
0.0
 40
0.0
 40
0.0
 40
0.25
 40
0.25
 40
0.5
 40
0.5
 40
0.75
 40
0.75
 40
1.0
 40
1.0
 40
1.0
 40
1.0
 10
41.54623632236945
 20
-618.4513310595908
 30
0.0
 10
41.19268293177623
 20
-618.4513310595908
 30
0.0
 10
40.81124304483541
 20
-618.3868948431502
 30
0.0
 10
40.07266134253229
 20
-618.0944970824057
 30
0.0
 10
39.71780919762324
 20
-617.8655446219639
 30
0.0
 10
39.13202275999635
 20
-617.279758184337
 30
0.0
 10
38.90307029955437
 20
-616.9249060394279
 30
0.0
 10
38.61067253880998
 20
-616.1863243371247
 30
0.0
 10
38.54623632236945
 20
-615.8048844501839
 30
0.0
 10
38.54623632236945
 20
-615.4513310595908
 30
0.0
  0
LINE
  5
21D88
330
18
100
AcDbEntity
  8
01
  6
CONTINUOUS
100
AcDbLine
 10
38.54623632236945
 20
-583.9513310542718
 30
0.0
 11
38.54623632236945
 21
-615.4513310595908
 31
0.0
  0
LINE
  5
21D89
330
18
100
AcDbEntity
  8
01
  6
CONTINUOUS
100
AcDbLine
 10
38.04623632236945
 20
-583.9513310493614
 30
0.0
 11
38.54623632236945
 21
-583.9513310542718
 31
0.0
  0
ARC
  5
21D8A
330
18
100
AcDbEntity
  8
01
  6
CONTINUOUS
100
AcDbCircle
 10
37.04279230062076
 20
-585.2513336583315
 30
0.0
 40
1.000000000000014
100
AcDbArc
 50
359.999842755741
 51
90.0
  0
LINE
  5
21D8B
330
18
100
AcDbEntity
  8
01
  6
CONTINUOUS
100
AcDbLine
 10
38.04273466807757
 20
-622.25134183502
 30
0.0
 11
38.04279230061701
 21
-585.2513364027616
 31
0.0
  0
LINE
  5
21D8C
330
18
100
AcDbEntity
  8
01
  6
CONTINUOUS
100
AcDbLine
 10
37.04279230062076
 20
-584.2513336583315
 30
0.0
 11
14.04273329589361
 21
-584.2513336583315
 31
0.0
  0
LINE
  5
21D8D
330
18
100
AcDbEntity
  8
01
  6
CONTINUOUS
100
AcDbLine
 10
16.04273329589736
 20
-625.2513336583315
 30
0.0
 11
35.04973895712959
 21
-625.2513336583314
 31
0.0
  0
LINE
  5
21D8E
330
18
100
AcDbEntity
  8
01
  6
CONTINUOUS
100
AcDbLine
 10
13.04273329589736
 20
-585.2513364027616
 30
0.0
 11
13.04273329589736
 21
-622.2513336583314
 31
0.0
  0
ARC
  5
21D8F
330
18
100
AcDbEntity
  8
01
  6
CONTINUOUS
100
AcDbCircle
 10
16.04273329589736
 20
-622.2513336583315
 30
0.0
 40
3.000000000000013
100
AcDbArc
 50
179.9999999999978
 51
270.0
  0
ARC
  5
21D90
330
18
100
AcDbEntity
  8
01
  6
CONTINUOUS
100
AcDbCircle
 10
35.04273466807757
 20
-622.2513418350201
 30
0.0
 40
3.000000000000012
100
AcDbArc
 50
270.0
 51
0.0000000000021713
  0
ARC
  5
21D91
330
18
100
AcDbEntity
  8
01
  6
CONTINUOUS
100
AcDbCircle
 10
14.04273329589361
 20
-585.2513336583315
 30
0.0
 40
1.000000000000014
100
AcDbArc
 50
90.0
 51
180.0001572442589
  0
LINE
  5
21D94
330
18
100
AcDbEntity
  8
1PHANTOM
 48
0.5
100
AcDbLine
 10
14.79623632236945
 20
-588.4513309189741
 30
0.0
 11
14.79623632236945
 21
-583.9513309189746
 31
0.0
  0
SPLINE
  5
21D95
330
18
100
AcDbEntity
  8
1PHANTOM
 48
0.5
100
AcDbSpline
210
0.0
220
0.0
230
1.0
 70
    24
 71
     3
 72
    14
 73
    10
 74
     0
 42
0.000000001
 43
0.00000001
 40
0.0
 40
0.0
 40
0.0
 40
0.0
 40
0.25
 40
0.25
 40
0.5
 40
0.5
 40
0.75
 40
0.75
 40
1.0
 40
1.0
 40
1.0
 40
1.0
 10
14.79623632236945
 20
-583.9513309189746
 30
0.0
 10
14.79623632236948
 20
-583.9513309189746
 30
0.0
 10
14.81771506118295
 20
-583.9513309189746
 30
0.0
 10
14.91518098143115
 20
-583.9513309189746
 30
0.0
 10
14.99149846824517
 20
-583.9513309189746
 30
0.0
 10
15.18676061412086
 20
-583.9513309189746
 30
0.0
 10
15.30504466242377
 20
-583.9513309189746
 30
0.0
 10
15.55123856319153
 20
-583.9513309189746
 30
0.0
 10
15.6783851921717
 20
-583.9513309189746
 30
0.0
 10
15.79623632236945
 20
-583.9513309189746
 30
0.0
  0
LINE
  5
21D96
330
18
100
AcDbEntity
  8
1PHANTOM
 48
0.5
100
AcDbLine
 10
15.79623632236945
 20
-583.9513309189746
 30
0.0
 11
35.29623632236945
 21
-583.9513309189746
 31
0.0
  0
LINE
  5
21D9A
330
18
100
AcDbEntity
  8
1PHANTOM
 48
0.5
100
AcDbLine
 10
36.29623632236945
 20
-583.9513309189746
 30
0.0
 11
36.29623632236945
 21
-588.4513309189741
 31
0.0
  0
SPLINE
  5
21D9B
330
18
100
AcDbEntity
  8
1PHANTOM
 48
0.5
100
AcDbSpline
210
0.0
220
0.0
230
1.0
 70
    24
 71
     3
 72
    14
 73
    10
 74
     0
 42
0.000000001
 43
0.00000001
 40
0.0
 40
0.0
 40
0.0
 40
0.0
 40
0.25
 40
0.25
 40
0.5
 40
0.5
 40
0.75
 40
0.75
 40
1.0
 40
1.0
 40
1.0
 40
1.0
 10
35.29623632236945
 20
-583.9513309189746
 30
0.0
 10
35.41408745256723
 20
-583.9513309189746
 30
0.0
 10
35.54123408154732
 20
-583.9513309189746
 30
0.0
 10
35.78742798231514
 20
-583.9513309189746
 30
0.0
 10
35.90571203061808
 20
-583.9513309189746
 30
0.0
 10
36.10097417649376
 20
-583.9513309189746
 30
0.0
 10
36.1772916633077
 20
-583.9513309189746
 30
0.0
 10
36.27475758355592
 20
-583.9513309189746
 30
0.0
 10
36.29623632236945
 20
-583.9513309189746
 30
0.0
 10
36.29623632236945
 20
-583.9513309189746
 30
0.0
  0
SPLINE
  5
21D9C
330
18
100
AcDbEntity
  8
1PHANTOM
 48
0.5
100
AcDbSpline
210
0.0
220
0.0
230
1.0
 70
    24
 71
     3
 72
    14
 73
    10
 74
     0
 42
0.000000001
 43
0.00000001
 40
0.0
 40
0.0
 40
0.0
 40
0.0
 40
0.2499999999999998
 40
0.2499999999999998
 40
0.4999999999999999
 40
0.4999999999999999
 40
0.75
 40
0.75
 40
1.0
 40
1.0
 40
1.0
 40
1.0
 10
14.79623632236945
 20
-589.4513309189742
 30
0.0
 10
14.79623632236942
 20
-589.3334797887765
 30
0.0
 10
14.79623632236942
 20
-589.2063331597961
 30
0.0
 10
14.79623632236957
 20
-588.9601392590284
 30
0.0
 10
14.79623632236954
 20
-588.8418552107254
 30
0.0
 10
14.79623632236951
 20
-588.6465930648498
 30
0.0
 10
14.79623632236954
 20
-588.5702755780359
 30
0.0
 10
14.79623632236954
 20
-588.4728096577877
 30
0.0
 10
14.79623632236948
 20
-588.4513309189741
 30
0.0
 10
14.79623632236945
 20
-588.4513309189741
 30
0.0
  0
SPLINE
  5
21D9D
330
18
100
AcDbEntity
  8
1PHANTOM
 48
0.5
100
AcDbSpline
210
0.0
220
0.0
230
1.0
 70
    24
 71
     3
 72
    14
 73
    10
 74
     0
 42
0.000000001
 43
0.00000001
 40
0.0
 40
0.0
 40
0.0
 40
0.0
 40
0.2499999999999999
 40
0.2499999999999999
 40
0.4999999999999998
 40
0.4999999999999998
 40
0.7499999999999997
 40
0.7499999999999997
 40
1.0
 40
1.0
 40
1.0
 40
1.0
 10
36.29623632236945
 20
-588.4513309189741
 30
0.0
 10
36.29623632236945
 20
-588.4513309189741
 30
0.0
 10
36.2962363223694
 20
-588.4728096577877
 30
0.0
 10
36.29623632236945
 20
-588.5702755780359
 30
0.0
 10
36.29623632236945
 20
-588.6465930648498
 30
0.0
 10
36.29623632236945
 20
-588.8418552107254
 30
0.0
 10
36.29623632236945
 20
-588.9601392590284
 30
0.0
 10
36.2962363223694
 20
-589.2063331597961
 30
0.0
 10
36.29623632236945
 20
-589.3334797887765
 30
0.0
 10
36.29623632236945
 20
-589.4513309189742
 30
0.0
  0
LINE
  5
21DA0
330
18
100
AcDbEntity
  8
1PHANTOM
 48
0.5
100
AcDbLine
 10
14.79623632236945
 20
-605.9513309189742
 30
0.0
 11
14.79623632236945
 21
-589.4513309189742
 31
0.0
  0
LINE
  5
21DA1
330
18
100
AcDbEntity
  8
1PHANTOM
 48
0.5
100
AcDbLine
 10
36.29623632236945
 20
-589.4513309189742
 30
0.0
 11
36.29623632236945
 21
-605.9513309189742
 31
0.0
  0
LINE
  5
21DA2
330
18
100
AcDbEntity
  8
1PHANTOM
 48
0.5
100
AcDbLine
 10
35.29623632236945
 20
-606.9513309189742
 30
0.0
 11
15.79623632236945
 21
-606.9513309189742
 31
0.0
  0
SPLINE
  5
21DA3
330
18
100
AcDbEntity
  8
1PHANTOM
 48
0.5
100
AcDbSpline
210
0.0
220
0.0
230
1.0
 70
     8
 71
     3
 72
    14
 73
    10
 74
     0
 42
0.000000001
 43
0.00000001
 40
0.0
 40
0.0
 40
0.0
 40
0.0
 40
0.25
 40
0.25
 40
0.5
 40
0.5
 40
0.75
 40
0.75
 40
1.0
 40
1.0
 40
1.0
 40
1.0
 10
15.79623632236945
 20
-606.9513309189742
 30
0.0
 10
15.67838519217173
 20
-606.9513309189742
 30
0.0
 10
15.55123856319148
 20
-606.9298521801607
 30
0.0
 10
15.30504466242382
 20
-606.8323862599126
 30
0.0
 10
15.1867606141208
 20
-606.7560687730986
 30
0.0
 10
14.99149846824514
 20
-606.560806627223
 30
0.0
 10
14.91518098143118
 20
-606.4425225789199
 30
0.0
 10
14.81771506118298
 20
-606.1963286781522
 30
0.0
 10
14.79623632236948
 20
-606.0691820491719
 30
0.0
 10
14.79623632236945
 20
-605.9513309189742
 30
0.0
  0
SPLINE
  5
21DA4
330
18
100
AcDbEntity
  8
1PHANTOM
 48
0.5
100
AcDbSpline
210
0.0
220
0.0
230
1.0
 70
     8
 71
     3
 72
    14
 73
    10
 74
     0
 42
0.000000001
 43
0.00000001
 40
0.0
 40
0.0
 40
0.0
 40
0.0
 40
0.25
 40
0.25
 40
0.5
 40
0.5
 40
0.75
 40
0.75
 40
1.0
 40
1.0
 40
1.0
 40
1.0
 10
36.29623632236945
 20
-605.9513309189742
 30
0.0
 10
36.29623632236945
 20
-606.0691820491719
 30
0.0
 10
36.27475758355592
 20
-606.1963286781522
 30
0.0
 10
36.17729166330781
 20
-606.4425225789199
 30
0.0
 10
36.10097417649376
 20
-606.560806627223
 30
0.0
 10
35.90571203061808
 20
-606.7560687730986
 30
0.0
 10
35.78742798231514
 20
-606.8323862599126
 30
0.0
 10
35.54123408154732
 20
-606.9298521801607
 30
0.0
 10
35.41408745256717
 20
-606.9513309189742
 30
0.0
 10
35.29623632236945
 20
-606.9513309189742
 30
0.0
  0
ARC
  5
21DD6
330
18
100
AcDbEntity
  8
01
  6
CONTINUOUS
100
AcDbCircle
 10
44.74624056632291
 20
-660.4513304101081
 30
0.0
 40
0.8000000000000114
100
AcDbArc
 50
270.0
 51
0.0
  0
ARC
  5
21DD7
330
18
100
AcDbEntity
  8
01
  6
CONTINUOUS
100
AcDbCircle
 10
44.74624056632291
 20
-641.0513302924244
 30
0.0
 40
0.8000000000000114
100
AcDbArc
 50
0.0
 51
90.0
  0
ARC
  5
21DD8
330
18
100
AcDbEntity
  8
01
  6
CONTINUOUS
100
AcDbCircle
 10
9.846240566322933
 20
-641.2513302924249
 30
0.0
 40
1.000000000000256
100
AcDbArc
 50
90.0
 51
179.999999999987
  0
LINE
  5
21DD9
330
18
100
AcDbEntity
  8
01
  6
CONTINUOUS
100
AcDbLine
 10
9.846240566322933
 20
-640.2513302924247
 30
0.0
 11
15.84624056632293
 21
-640.2513302924247
 31
0.0
  0
LINE
  5
21DDA
330
18
100
AcDbEntity
  8
01
  6
CONTINUOUS
100
AcDbLine
 10
15.84624056632293
 20
-640.2513302924247
 30
0.0
 11
44.74624056632291
 21
-640.2513302924247
 31
0.0
  0
LINE
  5
21DDB
330
18
100
AcDbEntity
  8
01
  6
CONTINUOUS
100
AcDbLine
 10
15.84624056632293
 20
-661.251330410108
 30
0.0
 11
9.846240566322933
 21
-661.251330410108
 31
0.0
  0
ARC
  5
21DDC
330
18
100
AcDbEntity
  8
01
  6
CONTINUOUS
100
AcDbCircle
 10
9.846240566322933
 20
-660.251330410108
 30
0.0
 40
1.000000000000028
100
AcDbArc
 50
179.999999999987
 51
270.0
  0
LINE
  5
21DDD
330
18
100
AcDbEntity
  8
01
  6
CONTINUOUS
100
AcDbLine
 10
44.74624056632291
 20
-661.251330410108
 30
0.0
 11
15.84624056632293
 21
-661.251330410108
 31
0.0
  0
LINE
  5
21DDE
330
18
100
AcDbEntity
  8
01
  6
CONTINUOUS
100
AcDbLine
 10
45.54624056632292
 20
-641.0513302924244
 30
0.0
 11
45.54624056632292
 21
-660.4513304101081
 31
0.0
  0
LINE
  5
21DDF
330
18
100
AcDbEntity
  8
01
  6
CONTINUOUS
100
AcDbLine
 10
8.846240566322933
 20
-660.251330410108
 30
0.0
 11
8.846240566322933
 21
-641.2513302924247
 31
0.0
  0
LINE
  5
21DE0
330
18
100
AcDbEntity
  8
01
  6
CONTINUOUS
100
AcDbLine
 10
35.04273836888927
 20
-640.2513302924247
 30
0.0
 11
16.04273836888916
 21
-640.2513302924247
 31
0.0
  0
LINE
  5
21DE1
330
18
100
AcDbEntity
  8
01
  6
CONTINUOUS
100
AcDbLine
 10
38.04273836888916
 20
-640.2513302924247
 30
0.0
 11
38.04273836888916
 21
-638.3617328182213
 31
0.0
  0
SPLINE
  5
21DE2
330
18
100
AcDbEntity
  8
01
  6
CONTINUOUS
100
AcDbSpline
210
0.0
220
0.0
230
1.0
 70
    24
 71
     3
 72
    22
 73
    18
 74
     0
 42
0.000000001
 43
0.00000001
 40
0.0
 40
0.0
 40
0.0
 40
0.0
 40
0.034550635079117
 40
0.0688550610754859
 40
0.1030127308718936
 40
0.1371243809831122
 40
0.1712911549764206
 40
0.2056137090964062
 40
0.240191339176251
 40
0.3700530874473478
 40
0.5000286264676261
 40
0.6298904259562502
 40
0.7598660162387701
 40
0.8201490091755944
 40
0.879905326471936
 40
0.9396755782493204
 40
1.0
 40
1.0
 40
1.0
 40
1.0
 10
38.04273836888916
 20
-640.2513302924247
 30
0.0
 10
38.04191825615777
 20
-640.2513302924247
 30
0.0
 10
38.0402838748484
 20
-640.2513302924247
 30
0.0
 10
38.02691575992714
 20
-640.2513302924247
 30
0.0
 10
38.00553041629536
 20
-640.2513302924247
 30
0.0
 10
37.97535970008249
 20
-640.2513302924247
 30
0.0
 10
37.93661319950962
 20
-640.2513302924247
 30
0.0
 10
37.88922173191662
 20
-640.2513302924247
 30
0.0
 10
37.78210024306685
 20
-640.2513302924247
 30
0.0
 10
37.56877255610999
 20
-640.2513302924247
 30
0.0
 10
37.17851446976005
 20
-640.2513302924247
 30
0.0
 10
36.70215397969235
 20
-640.2513302924247
 30
0.0
 10
36.25207927198477
 20
-640.2513302924247
 30
0.0
 10
35.88065662428488
 20
-640.2513302924247
 30
0.0
 10
35.60587407045824
 20
-640.2513302924247
 30
0.0
 10
35.32599001482339
 20
-640.2513302924247
 30
0.0
 10
35.13744559333514
 20
-640.2513302924247
 30
0.0
 10
35.04273836888916
 20
-640.2513302924247
 30
0.0
  0
LINE
  5
21DE3
330
18
100
AcDbEntity
  8
01
  6
CONTINUOUS
100
AcDbLine
 10
13.04273836888916
 20
-640.2513302924247
 30
0.0
 11
13.04273836888916
 21
-638.3617328182213
 31
0.0
  0
SPLINE
  5
21DE4
330
18
100
AcDbEntity
  8
01
  6
CONTINUOUS
100
AcDbSpline
210
0.0
220
0.0
230
1.0
 70
    24
 71
     3
 72
    22
 73
    18
 74
     0
 42
0.000000001
 43
0.00000001
 40
0.0
 40
0.0
 40
0.0
 40
0.0
 40
0.0345506350787961
 40
0.0688550610749545
 40
0.1030127308712564
 40
0.1371243809824784
 40
0.1712911549758936
 40
0.205613709096086
 40
0.2401913391762349
 40
0.3700530874466947
 40
0.500028626467639
 40
0.6298904259560504
 40
0.7598660162387711
 40
0.8201490091754445
 40
0.879905326471732
 40
0.9396755782491651
 40
1.0
 40
1.0
 40
1.0
 40
1.0
 10
16.04273836888916
 20
-640.2513302924247
 30
0.0
 10
15.98850981505035
 20
-640.2513302924247
 30
0.0
 10
15.88043914202018
 20
-640.2513302924247
 30
0.0
 10
15.71921223406963
 20
-640.2513302924247
 30
0.0
 10
15.55960257881912
 20
-640.2513302924247
 30
0.0
 10
15.40161288485905
 20
-640.2513302924247
 30
0.0
 10
15.24525165045912
 20
-640.2513302924247
 30
0.0
 10
15.09050676719772
 20
-640.2513302924247
 30
0.0
 10
14.79749396790106
 20
-640.2513302924247
 30
0.0
 10
14.38344970823044
 20
-640.2513302924247
 30
0.0
 10
13.90723504644069
 20
-640.2513302924247
 30
0.0
 10
13.51675044238499
 20
-640.2513302924247
 30
0.0
 10
13.28495635094208
 20
-640.2513302924247
 30
0.0
 10
13.15708614430315
 20
-640.2513302924247
 30
0.0
 10
13.09127886579159
 20
-640.2513302924247
 30
0.0
 10
13.05021850330291
 20
-640.2513302924247
 30
0.0
 10
13.04523940561393
 20
-640.2513302924247
 30
0.0
 10
13.04273836888916
 20
-640.2513302924247
 30
0.0
  0
ARC
  5
21DE5
330
18
100
AcDbEntity
  8
01
100
AcDbCircle
 10
25.54273836888916
 20
-1237.251330323471
 30
0.0
 40
600.0
100
AcDbArc
 50
88.89992996929911
 51
91.10007003070089
  0
ARC
  5
21DE6
330
18
100
AcDbEntity
  8
01
100
AcDbCircle
 10
37.04273836888916
 20
-638.3617328182213
 30
0.0
 40
1.0
100
AcDbArc
 50
0.0
 51
88.89992996929823
  0
ARC
  5
21DE7
330
18
100
AcDbEntity
  8
01
100
AcDbCircle
 10
14.04273836888916
 20
-638.3617328182213
 30
0.0
 40
1.0
100
AcDbArc
 50
91.10007003069852
 51
180.0
  0
LINE
  5
21DE8
330
18
100
AcDbEntity
  8
01
  6
CONTINUOUS
100
AcDbLine
 10
38.04273836888916
 20
-661.251330410108
 30
0.0
 11
38.04273836888916
 21
-663.1409278843114
 31
0.0
  0
LINE
  5
21DE9
330
18
100
AcDbEntity
  8
01
  6
CONTINUOUS
100
AcDbLine
 10
13.04273836888916
 20
-661.251330410108
 30
0.0
 11
13.04273836888916
 21
-663.1409278843114
 31
0.0
  0
ARC
  5
21DEA
330
18
100
AcDbEntity
  8
01
100
AcDbCircle
 10
25.54273836888916
 20
-64.25133037906176
 30
0.0
 40
600.0
100
AcDbArc
 50
268.8999299692991
 51
271.1000700307009
  0
ARC
  5
21DEB
330
18
100
AcDbEntity
  8
01
100
AcDbCircle
 10
37.04273836888916
 20
-663.1409278843114
 30
0.0
 40
1.0
100
AcDbArc
 50
271.1000700307018
 51
0.0
  0
ARC
  5
21DEC
330
18
100
AcDbEntity
  8
01
100
AcDbCircle
 10
14.04273836888916
 20
-663.1409278843114
 30
0.0
 40
1.0
100
AcDbArc
 50
180.0
 51
268.8999299693015
  0
SPLINE
  5
21E0D
330
18
100
AcDbEntity
  8
01
  6
CONTINUOUS
100
AcDbSpline
210
0.0
220
0.0
230
1.0
 70
     8
 71
     3
 72
    14
 73
    10
 74
     0
 42
0.000000001
 43
0.00000001
 40
0.0
 40
0.0
 40
0.0
 40
0.0
 40
0.2499999999999999
 40
0.2499999999999999
 40
0.4999999999999998
 40
0.4999999999999998
 40
0.7499999999999999
 40
0.7499999999999999
 40
1.0
 40
1.0
 40
1.0
 40
1.0
 10
29.04623966028058
 20
-648.7513303512663
 30
0.0
 10
29.04623966028058
 20
-648.4861653083209
 30
0.0
 10
28.99791249795013
 20
-648.2000853931149
 30
0.0
 10
28.77861417739101
 20
-647.6461491163865
 30
0.0
 10
28.60689983205876
 20
-647.3800100077043
 30
0.0
 10
28.16756000383705
 20
-646.9406701794838
 30
0.0
 10
27.90142089515442
 20
-646.7689558341526
 30
0.0
 10
27.34748461842528
 20
-646.5496575135951
 30
0.0
 10
27.06140470321898
 20
-646.5013303512654
 30
0.0
 10
26.79623966027353
 20
-646.5013303512663
 30
0.0
  0
SPLINE
  5
21E0E
330
18
100
AcDbEntity
  8
01
  6
CONTINUOUS
100
AcDbSpline
210
0.0
220
0.0
230
1.0
 70
     8
 71
     3
 72
    14
 73
    10
 74
     0
 42
0.000000001
 43
0.00000001
 40
0.0
 40
0.0
 40
0.0
 40
0.0
 40
0.2500000000000001
 40
0.2500000000000001
 40
0.5000000000000001
 40
0.5000000000000001
 40
0.7500000000000002
 40
0.7500000000000002
 40
1.0
 40
1.0
 40
1.0
 40
1.0
 10
26.79623966027353
 20
-651.0013303512663
 30
0.0
 10
27.06140470321898
 20
-651.0013303512671
 30
0.0
 10
27.34748461842506
 20
-650.9530031889375
 30
0.0
 10
27.90142089515419
 20
-650.7337048683801
 30
0.0
 10
28.16756000383694
 20
-650.5619905230487
 30
0.0
 10
28.60689983205876
 20
-650.1226506948283
 30
0.0
 10
28.77861417739089
 20
-649.8565115861462
 30
0.0
 10
28.99791249795001
 20
-649.3025753094178
 30
0.0
 10
29.04623966028058
 20
-649.0164953942117
 30
0.0
 10
29.04623966028058
 20
-648.7513303512663
 30
0.0
  0
LINE
  5
21E0F
330
18
100
AcDbEntity
  8
01
  6
CONTINUOUS
100
AcDbLine
 10
24.29623966018553
 20
-651.0013303512663
 30
0.0
 11
26.79623966027353
 21
-651.0013303512663
 31
0.0
  0
SPLINE
  5
21E10
330
18
100
AcDbEntity
  8
01
  6
CONTINUOUS
100
AcDbSpline
210
0.0
220
0.0
230
1.0
 70
     8
 71
     3
 72
    14
 73
    10
 74
     0
 42
0.000000001
 43
0.00000001
 40
0.0
 40
0.0
 40
0.0
 40
0.0
 40
0.2500000000000001
 40
0.2500000000000001
 40
0.5000000000000002
 40
0.5000000000000002
 40
0.7500000000000001
 40
0.7500000000000001
 40
1.0
 40
1.0
 40
1.0
 40
1.0
 10
24.29623966018553
 20
-646.5013303512663
 30
0.0
 10
24.03107461724622
 20
-646.5013303512663
 30
0.0
 10
23.74499470204765
 20
-646.5496575135967
 30
0.0
 10
23.19105842533659
 20
-646.768955834155
 30
0.0
 10
22.92491931666396
 20
-646.9406701794865
 30
0.0
 10
22.48557948846238
 20
-647.3800100077067
 30
0.0
 10
22.31386514314013
 20
-647.6461491163884
 30
0.0
 10
22.09456682259807
 20
-648.2000853931158
 30
0.0
 10
22.04623966027489
 20
-648.4861653083213
 30
0.0
 10
22.04623966028058
 20
-648.7513303512663
 30
0.0
  0
LINE
  5
21E11
330
18
100
AcDbEntity
  8
01
  6
CONTINUOUS
100
AcDbLine
 10
26.79623966027353
 20
-646.5013303512663
 30
0.0
 11
24.29623966018553
 21
-646.5013303512663
 31
0.0
  0
SPLINE
  5
21E12
330
18
100
AcDbEntity
  8
01
  6
CONTINUOUS
100
AcDbSpline
210
0.0
220
0.0
230
1.0
 70
     8
 71
     3
 72
    14
 73
    10
 74
     0
 42
0.000000001
 43
0.00000001
 40
0.0
 40
0.0
 40
0.0
 40
0.0
 40
0.25
 40
0.25
 40
0.5
 40
0.5
 40
0.75
 40
0.75
 40
1.0
 40
1.0
 40
1.0
 40
1.0
 10
22.04623966028058
 20
-648.7513303512663
 30
0.0
 10
22.04623966027489
 20
-649.0164953942112
 30
0.0
 10
22.09456682259818
 20
-649.3025753094169
 30
0.0
 10
22.31386514314013
 20
-649.8565115861443
 30
0.0
 10
22.48557948846238
 20
-650.122650694826
 30
0.0
 10
22.92491931666396
 20
-650.5619905230461
 30
0.0
 10
23.19105842533659
 20
-650.7337048683776
 30
0.0
 10
23.74499470204765
 20
-650.953003188936
 30
0.0
 10
24.03107461724622
 20
-651.0013303512663
 30
0.0
 10
24.29623966018553
 20
-651.0013303512663
 30
0.0
  0
LINE
  5
21E13
330
18
100
AcDbEntity
  8
1CENTER
100
AcDbLine
 10
21.04623966022953
 20
-648.7513303512663
 30
0.0
 11
30.04623966022953
 21
-648.7513303512663
 31
0.0
  0
LINE
  5
21E14
330
18
100
AcDbEntity
  8
1CENTER
100
AcDbLine
 10
26.79623966022953
 20
-645.5013303512663
 30
0.0
 11
26.79623966022953
 21
-652.0013303512663
 31
0.0
  0
LINE
  5
21E15
330
18
100
AcDbEntity
  8
1CENTER
100
AcDbLine
 10
24.29623966022953
 20
-645.5013303512663
 30
0.0
 11
24.29623966022953
 21
-652.0013303512663
 31
0.0
  0
LINE
  5
21E16
330
18
100
AcDbEntity
  8
01
  6
CONTINUOUS
100
AcDbLine
 10
812.2262410768642
 20
-640.251330292425
 30
0.0
 11
850.7262416153649
 21
-640.251330292425
 31
0.0
  0
LINE
  5
21E17
330
18
100
AcDbEntity
  8
01
  6
CONTINUOUS
100
AcDbLine
 10
850.7262416153649
 20
-641.251330292425
 30
0.0
 11
850.7262416153649
 21
-640.251330292425
 31
0.0
  0
LINE
  5
21E18
330
18
100
AcDbEntity
  8
01
  6
CONTINUOUS
100
AcDbLine
 10
850.7262416153649
 20
-661.2513304101084
 30
0.0
 11
812.2262410768642
 21
-661.2513304101084
 31
0.0
  0
LINE
  5
21E19
330
18
100
AcDbEntity
  8
01
  6
CONTINUOUS
100
AcDbLine
 10
850.7262416153649
 20
-661.2513304101084
 30
0.0
 11
850.7262416153649
 21
-660.2513304101084
 31
0.0
  0
LINE
  5
21E1A
330
18
100
AcDbEntity
  8
01
  6
CONTINUOUS
100
AcDbLine
 10
850.7262416153649
 20
-660.2513304101084
 30
0.0
 11
850.7262416153649
 21
-641.251330292425
 31
0.0
  0
LINE
  5
21E1B
330
18
100
AcDbEntity
  8
01
  6
CONTINUOUS
100
AcDbLine
 10
805.2262410768642
 20
-660.2513304101084
 30
0.0
 11
805.2262410768642
 21
-641.251330292425
 31
0.0
  0
LINE
  5
21E1C
330
18
100
AcDbEntity
  8
01
  6
CONTINUOUS
100
AcDbLine
 10
806.2262410768642
 20
-640.251330292425
 30
0.0
 11
812.2262410768642
 21
-640.251330292425
 31
0.0
  0
ARC
  5
21E1D
330
18
100
AcDbEntity
  8
01
  6
CONTINUOUS
100
AcDbCircle
 10
806.2262410768642
 20
-641.251330292425
 30
0.0
 40
1.000000000000028
100
AcDbArc
 50
90.0
 51
179.999999999987
  0
LINE
  5
21E1E
330
18
100
AcDbEntity
  8
01
  6
CONTINUOUS
100
AcDbLine
 10
812.2262410768642
 20
-661.2513304101084
 30
0.0
 11
806.2262410768642
 21
-661.2513304101084
 31
0.0
  0
ARC
  5
21E1F
330
18
100
AcDbEntity
  8
01
  6
CONTINUOUS
100
AcDbCircle
 10
806.2262410768642
 20
-660.2513304101084
 30
0.0
 40
1.000000000000057
100
AcDbArc
 50
180.0
 51
270.0
  0
SPLINE
  5
21E20
330
18
100
AcDbEntity
  8
01
  6
CONTINUOUS
100
AcDbSpline
210
0.0
220
0.0
230
1.0
 70
     8
 71
     3
 72
    66
 73
    62
 74
     0
 42
0.000000001
 43
0.00000001
 40
0.0
 40
0.0
 40
0.0
 40
0.0
 40
0.0227786175924677
 40
0.044982061993746
 40
0.0666030317217794
 40
0.0876346772285196
 40
0.1080707663534947
 40
0.1279057957191263
 40
0.150504515170152
 40
0.1722556374555276
 40
0.1931545117292749
 40
0.2131980112280084
 40
0.2327253081132301
 40
0.2513636337407225
 40
0.2691138205937842
 40
0.2859973189376639
 40
0.3020343859985118
 40
0.3169658124991637
 40
0.3310882858757505
 40
0.3444033336362425
 40
0.3569112798745331
 40
0.3701889259280596
 40
0.3824137328431345
 40
0.3935822725293894
 40
0.4036892911892869
 40
0.4127057810144205
 40
0.4205761348587685
 40
0.4285907402119079
 40
0.4371027347420257
 40
0.4461113947679181
 40
0.4598418578445955
 40
0.4745862177242292
 40
0.4903478307731237
 40
0.5071330198269555
 40
0.5249515640910882
 40
0.542062509704677
 40
0.5600844362597178
 40
0.5790200443184054
 40
0.5988587293546446
 40
0.6195316324737764
 40
0.6401439401465637
 40
0.6603656903082361
 40
0.6821346361928873
 40
0.7034025983323596
 40
0.724190981601948
 40
0.744520080803882
 40
0.7644077819584085
 40
0.7874793654302803
 40
0.8099734719442008
 40
0.8319103009771942
 40
0.8451603267233563
 40
0.8594523814767945
 40
0.8747809041523048
 40
0.8911360578091561
 40
0.9065948342072943
 40
0.9228468062706905
 40
0.9398751574279431
 40
0.9576969300056809
 40
0.9763361327797849
 40
0.9958079894291472
 40
1.0
 40
1.0
 40
1.0
 40
1.0
 10
845.2338293519592
 20
-637.3384355121094
 30
0.0
 10
845.2799010209139
 20
-637.3388705073734
 30
0.0
 10
845.3708810226924
 20
-637.3397295140206
 30
0.0
 10
845.505435562156
 20
-637.3409746826238
 30
0.0
 10
845.6361746646224
 20
-637.3421677476041
 30
0.0
 10
845.7629553934632
 20
-637.3433074956164
 30
0.0
 10
845.8856609144401
 20
-637.344395139448
 30
0.0
 10
846.0109098257685
 20
-637.3454900881951
 30
0.0
 10
846.1380310526715
 20
-637.3465853024269
 30
0.0
 10
846.2663236179059
 20
-637.347673762683
 30
0.0
 10
846.3886042781924
 20
-637.3486958429875
 30
0.0
 10
846.505519563585
 20
-637.3496589785294
 30
0.0
 10
846.6170036865735
 20
-637.3505643355526
 30
0.0
 10
846.7230177554297
 20
-637.3514132926997
 30
0.0
 10
846.8229454106526
 20
-637.3522025249162
 30
0.0
 10
846.916968765271
 20
-637.3529356992402
 30
0.0
 10
847.0047999684809
 20
-637.3536127084507
 30
0.0
 10
847.0866578461108
 20
-637.3542368650295
 30
0.0
 10
847.1627373609401
 20
-637.3548112057316
 30
0.0
 10
847.2336867143435
 20
-637.3553419052197
 30
0.0
 10
847.302389533327
 20
-637.3558514964174
 30
0.0
 10
847.3684268205698
 20
-637.356337374223
 30
0.0
 10
847.4313933189994
 20
-637.3567972121954
 30
0.0
 10
847.4882707938993
 20
-637.3572099903032
 30
0.0
 10
847.5391494629795
 20
-637.357577523676
 30
0.0
 10
847.5840376495061
 20
-637.3579005689008
 30
0.0
 10
847.6250363378613
 20
-637.3581960480575
 30
0.0
 10
847.6649230789876
 20
-637.3584799755096
 30
0.0
 10
847.7063579712046
 20
-637.3587710238256
 30
0.0
 10
847.7566394213165
 20
-637.3591196692333
 30
0.0
 10
847.8162570719554
 20
-637.3595264654533
 30
0.0
 10
847.8855409867898
 20
-637.3599905159648
 30
0.0
 10
847.9583263537742
 20
-637.3604690465182
 30
0.0
 10
848.0343306573915
 20
-637.3609595813356
 30
0.0
 10
848.1106626813603
 20
-637.3614432749711
 30
0.0
 10
848.1870106630122
 20
-637.3619188500994
 30
0.0
 10
848.2630050619991
 20
-637.3623845635365
 30
0.0
 10
848.340629943709
 20
-637.3628527370421
 30
0.0
 10
848.4194001615199
 20
-637.363320644126
 30
0.0
 10
848.4976941441006
 20
-637.363778477563
 30
0.0
 10
848.5734951478335
 20
-637.3642177838414
 30
0.0
 10
848.6475353144076
 20
-637.3646432770848
 30
0.0
 10
848.7190037705375
 20
-637.3650503809469
 30
0.0
 10
848.787637342778
 20
-637.3654380959316
 30
0.0
 10
848.8512963701585
 20
-637.3657947731357
 30
0.0
 10
848.910198069538
 20
-637.3661222315533
 30
0.0
 10
848.9678430920981
 20
-637.3664403561512
 30
0.0
 10
849.0235688933973
 20
-637.3667456739678
 30
0.0
 10
849.076771627543
 20
-637.3670351310171
 30
0.0
 10
849.118468114712
 20
-637.3672612355487
 30
0.0
 10
849.1518553428274
 20
-637.3674407055561
 30
0.0
 10
849.1793611350065
 20
-637.3675862126178
 30
0.0
 10
849.2071060311225
 20
-637.3677312377512
 30
0.0
 10
849.2336102475022
 20
-637.3678682559047
 30
0.0
 10
849.258590518422
 20
-637.3679964236161
 30
0.0
 10
849.2818245744911
 20
-637.3681151410004
 30
0.0
 10
849.3037849305852
 20
-637.3682274174736
 30
0.0
 10
849.3242430224078
 20
-637.3683327289615
 30
0.0
 10
849.3424970642718
 20
-637.3684284740865
 30
0.0
 10
849.3548019123782
 20
-637.3684940436002
 30
0.0
 10
849.3598687194565
 20
-637.3685230296709
 30
0.0
 10
849.385888938966
 20
-637.3686703756329
 30
0.0
  0
SPLINE
  5
21E21
330
18
100
AcDbEntity
  8
01
  6
CONTINUOUS
100
AcDbSpline
210
0.0
220
0.0
230
1.0
 70
     8
 71
     3
 72
    69
 73
    65
 74
     0
 42
0.000000001
 43
0.00000001
 40
0.0
 40
0.0
 40
0.0
 40
0.0
 40
0.0145475632907566
 40
0.030579529558583
 40
0.0454188298995093
 40
0.0590652179757352
 40
0.0715191340547295
 40
0.0821700646223789
 40
0.0917628859742022
 40
0.1003055863735424
 40
0.108535245249265
 40
0.1169501538635806
 40
0.136397696319749
 40
0.1567563249281052
 40
0.1780160449455583
 40
0.2001653192074081
 40
0.2147191058466303
 40
0.229645406294666
 40
0.2449549868793503
 40
0.260654039210182
 40
0.2767497109422516
 40
0.293230168818351
 40
0.3094128394163328
 40
0.3249604532578589
 40
0.3436055262314632
 40
0.3611682302453699
 40
0.3776068380309412
 40
0.3929410586437909
 40
0.4071863749317386
 40
0.4189702021926219
 40
0.4299055296656436
 40
0.4399970697791175
 40
0.4492481883387071
 40
0.4559288769739742
 40
0.4624047958418793
 40
0.4698798036084358
 40
0.4784766211632983
 40
0.4884181259675757
 40
0.4995457458707531
 40
0.511861843008133
 40
0.5253667662899996
 40
0.5400581648934786
 40
0.55593025371521
 40
0.5729730474947526
 40
0.5891308094941489
 40
0.6061916256941466
 40
0.6241379481981473
 40
0.6429686546025295
 40
0.6626934515105775
 40
0.6829500082952586
 40
0.7041007306536468
 40
0.7261687960419995
 40
0.7491864444372209
 40
0.7694832298908039
 40
0.7904655123848534
 40
0.8121072271637841
 40
0.8343767407931233
 40
0.8572366829449599
 40
0.8806569414021332
 40
0.9033016875208538
 40
0.926526158260034
 40
0.9503601729366484
 40
0.9748382821682111
 40
1.0
 40
1.0
 40
1.0
 40
1.0
 10
841.0817720030766
 20
-637.2898911302029
 30
0.0
 10
841.1009756209742
 20
-637.290144030333
 30
0.0
 10
841.107606328447
 20
-637.2902312178668
 30
0.0
 10
841.1202217815741
 20
-637.2904051025181
 30
0.0
 10
841.134272269932
 20
-637.2906013731948
 30
0.0
 10
841.1488157915538
 20
-637.2908060204801
 30
0.0
 10
841.1631058898682
 20
-637.2910071519203
 30
0.0
 10
841.1767478977131
 20
-637.2911983479681
 30
0.0
 10
841.189438901238
 20
-637.2913750464137
 30
0.0
 10
841.2014972401257
 20
-637.2915409689587
 30
0.0
 10
841.2135403119544
 20
-637.2917058230133
 30
0.0
 10
841.2317142279304
 20
-637.2919545750482
 30
0.0
 10
841.257950954766
 20
-637.2923129421503
 30
0.0
 10
841.2947299994947
 20
-637.29281399679
 30
0.0
 10
841.3370002968719
 20
-637.2933882054687
 30
0.0
 10
841.3790773307827
 20
-637.2939580420342
 30
0.0
 10
841.4193216318804
 20
-637.2945016659056
 30
0.0
 10
841.4560926085483
 20
-637.294997099235
 30
0.0
 10
841.49573712441
 20
-637.2955296712113
 30
0.0
 10
841.538409871092
 20
-637.2961010664764
 30
0.0
 10
841.5842451498623
 20
-637.2967126540315
 30
0.0
 10
841.6326822675649
 20
-637.2973564631662
 30
0.0
 10
841.6826973670654
 20
-637.2980187699706
 30
0.0
 10
841.7370887931174
 20
-637.2987363907949
 30
0.0
 10
841.7952945027653
 20
-637.2995012395601
 30
0.0
 10
841.8569513139657
 20
-637.3003078673174
 30
0.0
 10
841.9168677456621
 20
-637.3010883536994
 30
0.0
 10
841.9746022792689
 20
-637.3018373637964
 30
0.0
 10
842.0280287650257
 20
-637.3025278885165
 30
0.0
 10
842.0769681759557
 20
-637.3031584157151
 30
0.0
 10
842.121329266392
 20
-637.303728492189
 30
0.0
 10
842.1630511570932
 20
-637.3042635433657
 30
0.0
 10
842.1995324287733
 20
-637.3047306952341
 30
0.0
 10
842.2313919196381
 20
-637.3051384011657
 30
0.0
 10
842.2610676739891
 20
-637.3055181380129
 30
0.0
 10
842.2937544935357
 20
-637.3059342474863
 30
0.0
 10
842.3318672071811
 20
-637.3064174226469
 30
0.0
 10
842.3758796056236
 20
-637.3069727266894
 30
0.0
 10
842.4261141462633
 20
-637.3076033773954
 30
0.0
 10
842.4825709261916
 20
-637.308308347334
 30
0.0
 10
842.5454974384556
 20
-637.3090895839604
 30
0.0
 10
842.6151417480135
 20
-637.3099488447486
 30
0.0
 10
842.6917460291309
 20
-637.3108876037367
 30
0.0
 10
842.7721954291433
 20
-637.3118662519415
 30
0.0
 10
842.856088249576
 20
-637.3128790993782
 30
0.0
 10
842.9429867842041
 20
-637.3139201104628
 30
0.0
 10
843.0360148741703
 20
-637.3150253230077
 30
0.0
 10
843.1353167687988
 20
-637.3161947030873
 30
0.0
 10
843.2404376060974
 20
-637.3174209145137
 30
0.0
 10
843.3515092028052
 20
-637.3187035669797
 30
0.0
 10
843.4686725110589
 20
-637.3200422161902
 30
0.0
 10
843.5928007330276
 20
-637.3214443897915
 30
0.0
 10
843.7171073606139
 20
-637.3228316247342
 30
0.0
 10
843.8409245626111
 20
-637.3241966070065
 30
0.0
 10
843.9634239686444
 20
-637.325531514536
 30
0.0
 10
844.0910519715026
 20
-637.3269055645839
 30
0.0
 10
844.2236023581336
 20
-637.3283145519914
 30
0.0
 10
844.3608393056875
 20
-637.3297538414994
 30
0.0
 10
844.4998765543609
 20
-637.331191064652
 30
0.0
 10
844.6405079918998
 20
-637.3326239246479
 30
0.0
 10
844.782687562911
 20
-637.3340516006023
 30
0.0
 10
844.9291745125406
 20
-637.3354997171042
 30
0.0
 10
845.0800326122139
 20
-637.3369690927153
 30
0.0
 10
845.1820952580244
 20
-637.3379422118995
 30
0.0
 10
845.233829352339
 20
-637.3384354720857
 30
0.0
  0
SPLINE
  5
21E22
330
18
100
AcDbEntity
  8
01
  6
CONTINUOUS
100
AcDbSpline
210
0.0
220
0.0
230
1.0
 70
     8
 71
     3
 72
    14
 73
    10
 74
     0
 42
0.000000001
 43
0.00000001
 40
0.0
 40
0.0
 40
0.0
 40
0.0
 40
0.2500000000000002
 40
0.2500000000000002
 40
0.5000000000000001
 40
0.5000000000000001
 40
0.75
 40
0.75
 40
1.0
 40
1.0
 40
1.0
 40
1.0
 10
849.4383332413231
 20
-637.369303720675
 30
0.0
 10
849.55546115093
 20
-637.3707201228466
 30
0.0
 10
849.681426624479
 20
-637.3934569152185
 30
0.0
 10
849.9247653579622
 20
-637.4924594104106
 30
0.0
 10
850.0414002648578
 20
-637.5690311694756
 30
0.0
 10
850.2338209401113
 20
-637.7637927618761
 30
0.0
 10
850.30897678438
 20
-637.8813450077042
 30
0.0
 10
850.4050296409845
 20
-638.1258630123015
 30
0.0
 10
850.4262416153649
 20
-638.2520941730169
 30
0.0
 10
850.4262416153649
 20
-638.3692306142935
 30
0.0
  0
SPLINE
  5
21E23
330
18
100
AcDbEntity
  8
01
  6
CONTINUOUS
100
AcDbSpline
210
0.0
220
0.0
230
1.0
 70
    24
 71
     3
 72
    14
 73
    10
 74
     0
 42
0.000000001
 43
0.00000001
 40
0.0
 40
0.0
 40
0.0
 40
0.0
 40
0.25
 40
0.25
 40
0.5
 40
0.5
 40
0.75
 40
0.75
 40
1.0
 40
1.0
 40
1.0
 40
1.0
 10
845.2262414218346
 20
-640.251330292425
 30
0.0
 10
844.8314401684979
 20
-640.251330292425
 30
0.0
 10
844.4054990035498
 20
-640.251330292425
 30
0.0
 10
843.5807495130798
 20
-640.251330292425
 30
0.0
 10
843.1844979848922
 20
-640.251330292425
 30
0.0
 10
842.530369818737
 20
-640.251330292425
 30
0.0
 10
842.2747062257365
 20
-640.251330292425
 30
0.0
 10
841.9481953210484
 20
-640.251330292425
 30
0.0
 10
841.8762414874863
 20
-640.251330292425
 30
0.0
 10
841.8762414218346
 20
-640.251330292425
 30
0.0
  0
SPLINE
  5
21E24
330
18
100
AcDbEntity
  8
01
  6
CONTINUOUS
100
AcDbSpline
210
0.0
220
0.0
230
1.0
 70
     8
 71
     3
 72
     8
 73
     4
 74
     0
 42
0.000000001
 43
0.00000001
 40
0.0
 40
0.0
 40
0.0
 40
0.0
 40
1.0
 40
1.0
 40
1.0
 40
1.0
 10
829.9262416153649
 20
-637.2513303234713
 30
0.0
 10
833.6447730732156
 20
-637.2513303178399
 30
0.0
 10
837.3633276325256
 20
-637.2641840736632
 30
0.0
 10
841.0817720030766
 20
-637.289891130203
 30
0.0
  0
SPLINE
  5
21E25
330
18
100
AcDbEntity
  8
01
  6
CONTINUOUS
100
AcDbSpline
210
0.0
220
0.0
230
1.0
 70
     8
 71
     3
 72
     8
 73
     4
 74
     0
 42
0.000000001
 43
0.00000001
 40
0.0
 40
0.0
 40
0.0
 40
0.0
 40
1.0
 40
1.0
 40
1.0
 40
1.0
 10
810.4141498892724
 20
-637.3693037218858
 30
0.0
 10
816.9178238287572
 20
-637.2906562360221
 30
0.0
 10
823.4220921598518
 20
-637.2513303323727
 30
0.0
 10
829.9262416153649
 20
-637.2513303234713
 30
0.0
  0
SPLINE
  5
21E26
330
18
100
AcDbEntity
  8
01
  6
CONTINUOUS
100
AcDbSpline
210
0.0
220
0.0
230
1.0
 70
     8
 71
     3
 72
    14
 73
    10
 74
     0
 42
0.000000001
 43
0.00000001
 40
0.0
 40
0.0
 40
0.0
 40
0.0
 40
0.25
 40
0.25
 40
0.5
 40
0.5
 40
0.75
 40
0.75
 40
1.0
 40
1.0
 40
1.0
 40
1.0
 10
809.4262416153648
 20
-638.3692306142935
 30
0.0
 10
809.4262416153648
 20
-638.2520941730169
 30
0.0
 10
809.4474535875953
 20
-638.1258630123274
 30
0.0
 10
809.5435064344639
 20
-637.8813450078479
 30
0.0
 10
809.6186622711147
 20
-637.7637927621118
 30
0.0
 10
809.8110829268645
 20
-637.5690311699472
 30
0.0
 10
809.927717821938
 20
-637.4924594110252
 30
0.0
 10
810.1710565307563
 20
-637.3934569161314
 30
0.0
 10
810.2970219915375
 20
-637.3707201239141
 30
0.0
 10
810.4141498892724
 20
-637.3693037218858
 30
0.0
  0
LINE
  5
21E27
330
18
100
AcDbEntity
  8
01
  6
CONTINUOUS
100
AcDbLine
 10
809.4262416153648
 20
-640.251330292425
 30
0.0
 11
809.4262416153648
 21
-638.3692306142935
 31
0.0
  0
LINE
  5
21E28
330
18
100
AcDbEntity
  8
01
  6
CONTINUOUS
100
AcDbLine
 10
841.8762414218346
 20
-640.251330292425
 30
0.0
 11
809.4262416153648
 21
-640.251330292425
 31
0.0
  0
SPLINE
  5
21E29
330
18
100
AcDbEntity
  8
01
  6
CONTINUOUS
100
AcDbSpline
210
0.0
220
0.0
230
1.0
 70
    24
 71
     3
 72
    14
 73
    10
 74
     0
 42
0.000000001
 43
0.00000001
 40
0.0
 40
0.0
 40
0.0
 40
0.0
 40
0.2499999999999998
 40
0.2499999999999998
 40
0.4999999999999999
 40
0.4999999999999999
 40
0.7499999999999999
 40
0.7499999999999999
 40
1.0
 40
1.0
 40
1.0
 40
1.0
 10
845.2262414218346
 20
-640.251330292425
 30
0.0
 10
845.6210426751712
 20
-640.251330292425
 30
0.0
 10
846.0469838401193
 20
-640.251330292425
 30
0.0
 10
846.8717333305894
 20
-640.251330292425
 30
0.0
 10
847.2679848587769
 20
-640.251330292425
 30
0.0
 10
847.9221130249323
 20
-640.251330292425
 30
0.0
 10
848.1777766179328
 20
-640.251330292425
 30
0.0
 10
848.5042875226209
 20
-640.251330292425
 30
0.0
 10
848.5762413561829
 20
-640.251330292425
 30
0.0
 10
848.5762414218345
 20
-640.251330292425
 30
0.0
  0
LINE
  5
21E2A
330
18
100
AcDbEntity
  8
01
  6
CONTINUOUS
100
AcDbLine
 10
850.4262416153649
 20
-640.251330292425
 30
0.0
 11
848.5762414218345
 21
-640.251330292425
 31
0.0
  0
LINE
  5
21E2B
330
18
100
AcDbEntity
  8
01
  6
CONTINUOUS
100
AcDbLine
 10
850.4262416153649
 20
-638.3692306142935
 30
0.0
 11
850.4262416153649
 21
-640.251330292425
 31
0.0
  0
SPLINE
  5
21E2D
330
18
100
AcDbEntity
  8
01
  6
CONTINUOUS
100
AcDbSpline
210
0.0
220
0.0
230
1.0
 70
     8
 71
     3
 72
    66
 73
    62
 74
     0
 42
0.000000001
 43
0.00000001
 40
0.0
 40
0.0
 40
0.0
 40
0.0
 40
0.0227786175924677
 40
0.044982061993746
 40
0.0666030317217794
 40
0.0876346772285196
 40
0.1080707663534947
 40
0.1279057957191263
 40
0.150504515170152
 40
0.1722556374555276
 40
0.1931545117292749
 40
0.2131980112280084
 40
0.2327253081132301
 40
0.2513636337407225
 40
0.2691138205937842
 40
0.2859973189376639
 40
0.3020343859985118
 40
0.3169658124991637
 40
0.3310882858757505
 40
0.3444033336362425
 40
0.3569112798745331
 40
0.3701889259280596
 40
0.3824137328431345
 40
0.3935822725293894
 40
0.4036892911892869
 40
0.4127057810144205
 40
0.4205761348587685
 40
0.4285907402119079
 40
0.4371027347420257
 40
0.4461113947679181
 40
0.4598418578445955
 40
0.4745862177242292
 40
0.4903478307731237
 40
0.5071330198269555
 40
0.5249515640910882
 40
0.542062509704677
 40
0.5600844362597178
 40
0.5790200443184054
 40
0.5988587293546446
 40
0.6195316324737764
 40
0.6401439401465637
 40
0.6603656903082361
 40
0.6821346361928873
 40
0.7034025983323596
 40
0.724190981601948
 40
0.744520080803882
 40
0.7644077819584085
 40
0.7874793654302803
 40
0.8099734719442008
 40
0.8319103009771942
 40
0.8451603267233563
 40
0.8594523814767945
 40
0.8747809041523048
 40
0.8911360578091561
 40
0.9065948342072943
 40
0.9228468062706905
 40
0.9398751574279431
 40
0.9576969300056809
 40
0.9763361327797849
 40
0.9958079894291472
 40
1.0
 40
1.0
 40
1.0
 40
1.0
 10
845.2338293519592
 20
-664.1642251904228
 30
0.0
 10
845.2799010209139
 20
-664.1637901951589
 30
0.0
 10
845.3708810226924
 20
-664.1629311885116
 30
0.0
 10
845.505435562156
 20
-664.1616860199084
 30
0.0
 10
845.6361746646224
 20
-664.1604929549281
 30
0.0
 10
845.7629553934632
 20
-664.1593532069159
 30
0.0
 10
845.8856609144401
 20
-664.1582655630842
 30
0.0
 10
846.0109098257685
 20
-664.1571706143371
 30
0.0
 10
846.1380310526715
 20
-664.1560754001054
 30
0.0
 10
846.2663236179059
 20
-664.1549869398492
 30
0.0
 10
846.3886042781924
 20
-664.1539648595448
 30
0.0
 10
846.505519563585
 20
-664.1530017240028
 30
0.0
 10
846.6170036865735
 20
-664.1520963669797
 30
0.0
 10
846.7230177554297
 20
-664.1512474098325
 30
0.0
 10
846.8229454106526
 20
-664.1504581776161
 30
0.0
 10
846.916968765271
 20
-664.149725003292
 30
0.0
 10
847.0047999684809
 20
-664.1490479940816
 30
0.0
 10
847.0866578461108
 20
-664.1484238375027
 30
0.0
 10
847.1627373609401
 20
-664.1478494968006
 30
0.0
 10
847.2336867143435
 20
-664.1473187973126
 30
0.0
 10
847.302389533327
 20
-664.1468092061149
 30
0.0
 10
847.3684268205698
 20
-664.1463233283092
 30
0.0
 10
847.4313933189994
 20
-664.1458634903369
 30
0.0
 10
847.4882707938993
 20
-664.145450712229
 30
0.0
 10
847.5391494629795
 20
-664.1450831788562
 30
0.0
 10
847.5840376495061
 20
-664.1447601336314
 30
0.0
 10
847.6250363378613
 20
-664.1444646544747
 30
0.0
 10
847.6649230789876
 20
-664.1441807270227
 30
0.0
 10
847.7063579712046
 20
-664.1438896787066
 30
0.0
 10
847.7566394213165
 20
-664.1435410332989
 30
0.0
 10
847.8162570719554
 20
-664.1431342370789
 30
0.0
 10
847.8855409867898
 20
-664.1426701865674
 30
0.0
 10
847.9583263537742
 20
-664.142191656014
 30
0.0
 10
848.0343306573915
 20
-664.1417011211967
 30
0.0
 10
848.1106626813603
 20
-664.1412174275612
 30
0.0
 10
848.1870106630122
 20
-664.1407418524328
 30
0.0
 10
848.2630050619991
 20
-664.1402761389958
 30
0.0
 10
848.340629943709
 20
-664.1398079654901
 30
0.0
 10
848.4194001615199
 20
-664.1393400584062
 30
0.0
 10
848.4976941441006
 20
-664.1388822249693
 30
0.0
 10
848.5734951478335
 20
-664.1384429186909
 30
0.0
 10
848.6475353144076
 20
-664.1380174254474
 30
0.0
 10
848.7190037705375
 20
-664.1376103215854
 30
0.0
 10
848.787637342778
 20
-664.1372226066006
 30
0.0
 10
848.8512963701585
 20
-664.1368659293965
 30
0.0
 10
848.910198069538
 20
-664.136538470979
 30
0.0
 10
848.9678430920981
 20
-664.136220346381
 30
0.0
 10
849.0235688933973
 20
-664.1359150285645
 30
0.0
 10
849.076771627543
 20
-664.1356255715151
 30
0.0
 10
849.118468114712
 20
-664.1353994669836
 30
0.0
 10
849.1518553428274
 20
-664.1352199969762
 30
0.0
 10
849.1793611350065
 20
-664.1350744899145
 30
0.0
 10
849.2071060311225
 20
-664.1349294647811
 30
0.0
 10
849.2336102475022
 20
-664.1347924466276
 30
0.0
 10
849.258590518422
 20
-664.1346642789161
 30
0.0
 10
849.2818245744911
 20
-664.1345455615318
 30
0.0
 10
849.3037849305852
 20
-664.1344332850587
 30
0.0
 10
849.3242430224078
 20
-664.1343279735707
 30
0.0
 10
849.3424970642718
 20
-664.1342322284457
 30
0.0
 10
849.3548019123782
 20
-664.134166658932
 30
0.0
 10
849.3598687194565
 20
-664.1341376728614
 30
0.0
 10
849.385888938966
 20
-664.1339903268994
 30
0.0
  0
SPLINE
  5
21E2E
330
18
100
AcDbEntity
  8
01
  6
CONTINUOUS
100
AcDbSpline
210
0.0
220
0.0
230
1.0
 70
     8
 71
     3
 72
    69
 73
    65
 74
     0
 42
0.000000001
 43
0.00000001
 40
0.0
 40
0.0
 40
0.0
 40
0.0
 40
0.0145475632907566
 40
0.030579529558583
 40
0.0454188298995093
 40
0.0590652179757352
 40
0.0715191340547295
 40
0.0821700646223789
 40
0.0917628859742022
 40
0.1003055863735424
 40
0.108535245249265
 40
0.1169501538635806
 40
0.136397696319749
 40
0.1567563249281052
 40
0.1780160449455583
 40
0.2001653192074081
 40
0.2147191058466303
 40
0.229645406294666
 40
0.2449549868793503
 40
0.260654039210182
 40
0.2767497109422516
 40
0.293230168818351
 40
0.3094128394163328
 40
0.3249604532578589
 40
0.3436055262314632
 40
0.3611682302453699
 40
0.3776068380309412
 40
0.3929410586437909
 40
0.4071863749317386
 40
0.4189702021926219
 40
0.4299055296656436
 40
0.4399970697791175
 40
0.4492481883387071
 40
0.4559288769739742
 40
0.4624047958418793
 40
0.4698798036084358
 40
0.4784766211632983
 40
0.4884181259675757
 40
0.4995457458707531
 40
0.511861843008133
 40
0.5253667662899996
 40
0.5400581648934786
 40
0.55593025371521
 40
0.5729730474947526
 40
0.5891308094941489
 40
0.6061916256941466
 40
0.6241379481981473
 40
0.6429686546025295
 40
0.6626934515105775
 40
0.6829500082952586
 40
0.7041007306536468
 40
0.7261687960419995
 40
0.7491864444372209
 40
0.7694832298908039
 40
0.7904655123848534
 40
0.8121072271637841
 40
0.8343767407931233
 40
0.8572366829449599
 40
0.8806569414021332
 40
0.9033016875208538
 40
0.926526158260034
 40
0.9503601729366484
 40
0.9748382821682111
 40
1.0
 40
1.0
 40
1.0
 40
1.0
 10
841.0817720030766
 20
-664.2127695723293
 30
0.0
 10
841.1009756209742
 20
-664.2125166721993
 30
0.0
 10
841.107606328447
 20
-664.2124294846654
 30
0.0
 10
841.1202217815741
 20
-664.2122556000141
 30
0.0
 10
841.134272269932
 20
-664.2120593293374
 30
0.0
 10
841.1488157915538
 20
-664.2118546820521
 30
0.0
 10
841.1631058898682
 20
-664.2116535506119
 30
0.0
 10
841.1767478977131
 20
-664.2114623545641
 30
0.0
 10
841.189438901238
 20
-664.2112856561185
 30
0.0
 10
841.2014972401257
 20
-664.2111197335736
 30
0.0
 10
841.2135403119544
 20
-664.2109548795189
 30
0.0
 10
841.2317142279304
 20
-664.2107061274841
 30
0.0
 10
841.257950954766
 20
-664.210347760382
 30
0.0
 10
841.2947299994947
 20
-664.2098467057423
 30
0.0
 10
841.3370002968719
 20
-664.2092724970636
 30
0.0
 10
841.3790773307827
 20
-664.208702660498
 30
0.0
 10
841.4193216318804
 20
-664.2081590366266
 30
0.0
 10
841.4560926085483
 20
-664.2076636032972
 30
0.0
 10
841.49573712441
 20
-664.207131031321
 30
0.0
 10
841.538409871092
 20
-664.2065596360559
 30
0.0
 10
841.5842451498623
 20
-664.2059480485008
 30
0.0
 10
841.6326822675649
 20
-664.205304239366
 30
0.0
 10
841.6826973670654
 20
-664.2046419325617
 30
0.0
 10
841.7370887931174
 20
-664.2039243117373
 30
0.0
 10
841.7952945027653
 20
-664.2031594629722
 30
0.0
 10
841.8569513139657
 20
-664.2023528352148
 30
0.0
 10
841.9168677456621
 20
-664.2015723488329
 30
0.0
 10
841.9746022792689
 20
-664.2008233387359
 30
0.0
 10
842.0280287650257
 20
-664.2001328140158
 30
0.0
 10
842.0769681759557
 20
-664.1995022868172
 30
0.0
 10
842.121329266392
 20
-664.1989322103433
 30
0.0
 10
842.1630511570932
 20
-664.1983971591666
 30
0.0
 10
842.1995324287733
 20
-664.1979300072982
 30
0.0
 10
842.2313919196381
 20
-664.1975223013666
 30
0.0
 10
842.2610676739891
 20
-664.1971425645194
 30
0.0
 10
842.2937544935357
 20
-664.1967264550459
 30
0.0
 10
842.3318672071811
 20
-664.1962432798854
 30
0.0
 10
842.3758796056236
 20
-664.1956879758428
 30
0.0
 10
842.4261141462633
 20
-664.1950573251369
 30
0.0
 10
842.4825709261916
 20
-664.1943523551982
 30
0.0
 10
842.5454974384556
 20
-664.1935711185719
 30
0.0
 10
842.6151417480135
 20
-664.1927118577836
 30
0.0
 10
842.6917460291309
 20
-664.1917730987956
 30
0.0
 10
842.7721954291433
 20
-664.1907944505907
 30
0.0
 10
842.856088249576
 20
-664.1897816031541
 30
0.0
 10
842.9429867842041
 20
-664.1887405920694
 30
0.0
 10
843.0360148741703
 20
-664.1876353795245
 30
0.0
 10
843.1353167687988
 20
-664.186465999445
 30
0.0
 10
843.2404376060974
 20
-664.1852397880185
 30
0.0
 10
843.3515092028052
 20
-664.1839571355525
 30
0.0
 10
843.4686725110589
 20
-664.182618486342
 30
0.0
 10
843.5928007330276
 20
-664.1812163127407
 30
0.0
 10
843.7171073606139
 20
-664.179829077798
 30
0.0
 10
843.8409245626111
 20
-664.1784640955258
 30
0.0
 10
843.9634239686444
 20
-664.1771291879962
 30
0.0
 10
844.0910519715026
 20
-664.1757551379484
 30
0.0
 10
844.2236023581336
 20
-664.1743461505408
 30
0.0
 10
844.3608393056875
 20
-664.1729068610329
 30
0.0
 10
844.4998765543609
 20
-664.1714696378803
 30
0.0
 10
844.6405079918998
 20
-664.1700367778843
 30
0.0
 10
844.782687562911
 20
-664.16860910193
 30
0.0
 10
844.9291745125406
 20
-664.167160985428
 30
0.0
 10
845.0800326122139
 20
-664.1656916098169
 30
0.0
 10
845.1820952580244
 20
-664.1647184906327
 30
0.0
 10
845.233829352339
 20
-664.1642252304465
 30
0.0
  0
SPLINE
  5
21E2F
330
18
100
AcDbEntity
  8
01
  6
CONTINUOUS
100
AcDbSpline
210
0.0
220
0.0
230
1.0
 70
     8
 71
     3
 72
    14
 73
    10
 74
     0
 42
0.000000001
 43
0.00000001
 40
0.0
 40
0.0
 40
0.0
 40
0.0
 40
0.2500000000000002
 40
0.2500000000000002
 40
0.5000000000000001
 40
0.5000000000000001
 40
0.75
 40
0.75
 40
1.0
 40
1.0
 40
1.0
 40
1.0
 10
849.4383332413231
 20
-664.1333569818572
 30
0.0
 10
849.55546115093
 20
-664.1319405796856
 30
0.0
 10
849.681426624479
 20
-664.1092037873137
 30
0.0
 10
849.9247653579622
 20
-664.0102012921217
 30
0.0
 10
850.0414002648578
 20
-663.9336295330567
 30
0.0
 10
850.2338209401113
 20
-663.7388679406562
 30
0.0
 10
850.30897678438
 20
-663.621315694828
 30
0.0
 10
850.4050296409845
 20
-663.3767976902308
 30
0.0
 10
850.4262416153649
 20
-663.2505665295154
 30
0.0
 10
850.4262416153649
 20
-663.1334300882387
 30
0.0
  0
SPLINE
  5
21E30
330
18
100
AcDbEntity
  8
01
  6
CONTINUOUS
100
AcDbSpline
210
0.0
220
0.0
230
1.0
 70
    24
 71
     3
 72
    14
 73
    10
 74
     0
 42
0.000000001
 43
0.00000001
 40
0.0
 40
0.0
 40
0.0
 40
0.0
 40
0.25
 40
0.25
 40
0.5
 40
0.5
 40
0.75
 40
0.75
 40
1.0
 40
1.0
 40
1.0
 40
1.0
 10
845.2262414218346
 20
-661.2513304101072
 30
0.0
 10
844.8314401684979
 20
-661.2513304101072
 30
0.0
 10
844.4054990035498
 20
-661.2513304101072
 30
0.0
 10
843.5807495130798
 20
-661.2513304101072
 30
0.0
 10
843.1844979848922
 20
-661.2513304101072
 30
0.0
 10
842.530369818737
 20
-661.2513304101072
 30
0.0
 10
842.2747062257365
 20
-661.2513304101072
 30
0.0
 10
841.9481953210484
 20
-661.2513304101072
 30
0.0
 10
841.8762414874863
 20
-661.2513304101072
 30
0.0
 10
841.8762414218346
 20
-661.2513304101072
 30
0.0
  0
SPLINE
  5
21E31
330
18
100
AcDbEntity
  8
01
  6
CONTINUOUS
100
AcDbSpline
210
0.0
220
0.0
230
1.0
 70
     8
 71
     3
 72
     8
 73
     4
 74
     0
 42
0.000000001
 43
0.00000001
 40
0.0
 40
0.0
 40
0.0
 40
0.0
 40
1.0
 40
1.0
 40
1.0
 40
1.0
 10
829.9262416153649
 20
-664.251330379061
 30
0.0
 10
833.6447730732156
 20
-664.2513303846923
 30
0.0
 10
837.3633276325256
 20
-664.2384766288691
 30
0.0
 10
841.0817720030766
 20
-664.2127695723292
 30
0.0
  0
SPLINE
  5
21E32
330
18
100
AcDbEntity
  8
01
  6
CONTINUOUS
100
AcDbSpline
210
0.0
220
0.0
230
1.0
 70
     8
 71
     3
 72
     8
 73
     4
 74
     0
 42
0.000000001
 43
0.00000001
 40
0.0
 40
0.0
 40
0.0
 40
0.0
 40
1.0
 40
1.0
 40
1.0
 40
1.0
 10
810.4141498892724
 20
-664.1333569806465
 30
0.0
 10
816.9178238287572
 20
-664.2120044665102
 30
0.0
 10
823.4220921598518
 20
-664.2513303701595
 30
0.0
 10
829.9262416153649
 20
-664.251330379061
 30
0.0
  0
SPLINE
  5
21E33
330
18
100
AcDbEntity
  8
01
  6
CONTINUOUS
100
AcDbSpline
210
0.0
220
0.0
230
1.0
 70
     8
 71
     3
 72
    14
 73
    10
 74
     0
 42
0.000000001
 43
0.00000001
 40
0.0
 40
0.0
 40
0.0
 40
0.0
 40
0.25
 40
0.25
 40
0.5
 40
0.5
 40
0.75
 40
0.75
 40
1.0
 40
1.0
 40
1.0
 40
1.0
 10
809.4262416153648
 20
-663.1334300882387
 30
0.0
 10
809.4262416153648
 20
-663.2505665295154
 30
0.0
 10
809.4474535875953
 20
-663.3767976902049
 30
0.0
 10
809.5435064344639
 20
-663.6213156946843
 30
0.0
 10
809.6186622711147
 20
-663.7388679404204
 30
0.0
 10
809.8110829268645
 20
-663.9336295325851
 30
0.0
 10
809.927717821938
 20
-664.0102012915071
 30
0.0
 10
810.1710565307563
 20
-664.1092037864008
 30
0.0
 10
810.2970219915375
 20
-664.1319405786181
 30
0.0
 10
810.4141498892724
 20
-664.1333569806465
 30
0.0
  0
LINE
  5
21E34
330
18
100
AcDbEntity
  8
01
  6
CONTINUOUS
100
AcDbLine
 10
809.4262416153648
 20
-661.2513304101072
 30
0.0
 11
809.4262416153648
 21
-663.1334300882387
 31
0.0
  0
LINE
  5
21E35
330
18
100
AcDbEntity
  8
01
  6
CONTINUOUS
100
AcDbLine
 10
841.8762414218346
 20
-661.2513304101072
 30
0.0
 11
809.4262416153648
 21
-661.2513304101072
 31
0.0
  0
SPLINE
  5
21E36
330
18
100
AcDbEntity
  8
01
  6
CONTINUOUS
100
AcDbSpline
210
0.0
220
0.0
230
1.0
 70
    24
 71
     3
 72
    14
 73
    10
 74
     0
 42
0.000000001
 43
0.00000001
 40
0.0
 40
0.0
 40
0.0
 40
0.0
 40
0.2499999999999998
 40
0.2499999999999998
 40
0.4999999999999999
 40
0.4999999999999999
 40
0.7499999999999999
 40
0.7499999999999999
 40
1.0
 40
1.0
 40
1.0
 40
1.0
 10
845.2262414218346
 20
-661.2513304101072
 30
0.0
 10
845.6210426751712
 20
-661.2513304101072
 30
0.0
 10
846.0469838401193
 20
-661.2513304101072
 30
0.0
 10
846.8717333305894
 20
-661.2513304101072
 30
0.0
 10
847.2679848587769
 20
-661.2513304101072
 30
0.0
 10
847.9221130249323
 20
-661.2513304101072
 30
0.0
 10
848.1777766179328
 20
-661.2513304101072
 30
0.0
 10
848.5042875226209
 20
-661.2513304101072
 30
0.0
 10
848.5762413561829
 20
-661.2513304101072
 30
0.0
 10
848.5762414218345
 20
-661.2513304101072
 30
0.0
  0
LINE
  5
21E37
330
18
100
AcDbEntity
  8
01
  6
CONTINUOUS
100
AcDbLine
 10
850.4262416153649
 20
-661.2513304101072
 30
0.0
 11
848.5762414218345
 21
-661.2513304101072
 31
0.0
  0
LINE
  5
21E38
330
18
100
AcDbEntity
  8
01
  6
CONTINUOUS
100
AcDbLine
 10
850.4262416153649
 20
-663.1334300882387
 30
0.0
 11
850.4262416153649
 21
-661.2513304101072
 31
0.0
  0
LINE
  5
21E3A
330
18
100
AcDbEntity
  8
1PHANTOM
100
AcDbLine
 10
833.2262414653649
 20
-661.4513303512662
 30
0.0
 11
832.2262417653649
 21
-660.4513303512662
 31
0.0
  0
LINE
  5
21E3B
330
18
100
AcDbEntity
  8
1PHANTOM
100
AcDbLine
 10
836.5262416153648
 20
-661.4513303512662
 30
0.0
 11
836.5262416153648
 21
-660.4513303512662
 31
0.0
  0
LINE
  5
21E3C
330
18
100
AcDbEntity
  8
1PHANTOM
100
AcDbLine
 10
836.5262416153648
 20
-660.4513303512662
 30
0.0
 11
828.9262416153649
 21
-660.4513303512662
 31
0.0
  0
LINE
  5
21E3D
330
18
100
AcDbEntity
  8
1PHANTOM
100
AcDbLine
 10
836.5262416153648
 20
-661.4513303512662
 30
0.0
 11
828.9262416153649
 21
-661.4513303512662
 31
0.0
  0
LINE
  5
21E3E
330
18
100
AcDbEntity
  8
1PHANTOM
100
AcDbLine
 10
828.9262416153649
 20
-661.4513303512662
 30
0.0
 11
828.9262416153649
 21
-660.4513303512662
 31
0.0
  0
LINE
  5
21E3F
330
18
100
AcDbEntity
  8
1PHANTOM
100
AcDbLine
 10
830.7262881512629
 20
-651.8013268612362
 30
0.0
 11
830.726288151263
 21
-661.4513303512662
 31
0.0
  0
LINE
  5
21E40
330
18
100
AcDbEntity
  8
1PHANTOM
100
AcDbLine
 10
829.226241615365
 20
-661.4513222074839
 30
0.0
 11
836.2262416153649
 21
-661.4513384950484
 31
0.0
  0
LINE
  5
21E41
330
18
100
AcDbEntity
  8
1PHANTOM
100
AcDbLine
 10
829.226241615365
 20
-661.4513222074839
 30
0.0
 11
829.2262416153649
 21
-662.5513256976793
 31
0.0
  0
ARC
  5
21E42
330
18
100
AcDbEntity
  8
1PHANTOM
100
AcDbCircle
 10
830.7262416153649
 20
-662.5513256976793
 30
0.0
 40
1.5
100
AcDbArc
 50
180.0
 51
269.9998666844662
  0
LINE
  5
21E43
330
18
100
AcDbEntity
  8
1PHANTOM
100
AcDbLine
 10
836.2262416153649
 20
-661.4513384950484
 30
0.0
 11
836.2262416153649
 21
-662.551335004859
 31
0.0
  0
LINE
  5
21E44
330
18
100
AcDbEntity
  8
1PHANTOM
100
AcDbLine
 10
830.7262381251725
 20
-664.0513256976752
 30
0.0
 11
834.7262381251725
 21
-664.0513350048549
 31
0.0
  0
ARC
  5
21E45
330
18
100
AcDbEntity
  8
1PHANTOM
100
AcDbCircle
 10
834.7262416153649
 20
-662.551335004859
 30
0.0
 40
1.5
100
AcDbArc
 50
269.9998666844662
 51
0.0
  0
LINE
  5
21E46
330
18
100
AcDbEntity
  8
1CENTER
100
AcDbLine
 10
832.7262881512629
 20
-650.4513268612362
 30
0.0
 11
832.7262529460139
 21
-665.0513268611937
 31
0.0
  0
LINE
  5
21E47
330
18
100
AcDbEntity
  8
1PHANTOM
100
AcDbLine
 10
831.0762881512629
 20
-651.4513268612362
 30
0.0
 11
834.3762881512629
 21
-651.4513268612362
 31
0.0
  0
LINE
  5
21E48
330
18
100
AcDbEntity
  8
1DIM
100
AcDbLine
 10
834.3762881512629
 20
-651.4513268612362
 30
0.0
 11
834.376288151263
 21
-661.4513341905861
 31
0.0
  0
LINE
  5
21E49
330
18
100
AcDbEntity
  8
1DIM
100
AcDbLine
 10
831.0762881512629
 20
-651.4513268612362
 30
0.0
 11
831.076288151263
 21
-661.4513303512662
 31
0.0
  0
LINE
  5
21E4A
330
18
100
AcDbEntity
  8
1DIM
100
AcDbLine
 10
830.7262830824552
 20
-651.801326861273
 30
0.0
 11
834.7262830824552
 21
-651.801326861273
 31
0.0
  0
LINE
  5
21E4B
330
18
100
AcDbEntity
  8
1PHANTOM
100
AcDbLine
 10
831.0762881512629
 20
-651.4513268612362
 30
0.0
 11
830.7262881512262
 21
-651.801326861273
 31
0.0
  0
LINE
  5
21E4C
330
18
100
AcDbEntity
  8
1PHANTOM
100
AcDbLine
 10
834.3762881512629
 20
-651.4513268612362
 30
0.0
 11
834.7262881512629
 21
-651.8013268612362
 31
0.0
  0
LINE
  5
21E4D
330
18
100
AcDbEntity
  8
1PHANTOM
100
AcDbLine
 10
834.7262881512629
 20
-651.8013268612362
 30
0.0
 11
834.726288151263
 21
-661.4513350049643
 31
0.0
  0
LINE
  5
21E4E
330
18
100
AcDbEntity
  8
1PHANTOM
 48
0.5
100
AcDbLine
 10
846.2262416153653
 20
-643.2513303481618
 30
0.0
 11
850.7262416153649
 21
-643.2513303481618
 31
0.0
  0
SPLINE
  5
21E4F
330
18
100
AcDbEntity
  8
1PHANTOM
 48
0.5
100
AcDbSpline
210
0.0
220
0.0
230
1.0
 70
     8
 71
     3
 72
    14
 73
    10
 74
     0
 42
0.000000001
 43
0.00000001
 40
0.0
 40
0.0
 40
0.0
 40
0.0
 40
0.25
 40
0.25
 40
0.5
 40
0.5
 40
0.75
 40
0.75
 40
1.0
 40
1.0
 40
1.0
 40
1.0
 10
845.7262416153653
 20
-653.2513303481618
 30
0.0
 10
845.7262416153653
 20
-653.3102559132607
 30
0.0
 10
845.7155022459585
 20
-653.3738292277508
 30
0.0
 10
845.6667692858343
 20
-653.4969261781346
 30
0.0
 10
845.6286105424274
 20
-653.5560682022862
 30
0.0
 10
845.5309794694897
 20
-653.653699275224
 30
0.0
 10
845.4718374453382
 20
-653.6918580186309
 30
0.0
 10
845.3487404949542
 20
-653.740590978755
 30
0.0
 10
845.2851671804642
 20
-653.7513303481618
 30
0.0
 10
845.2262416153653
 20
-653.7513303481618
 30
0.0
  0
SPLINE
  5
21E50
330
18
100
AcDbEntity
  8
1PHANTOM
 48
0.5
100
AcDbSpline
210
0.0
220
0.0
230
1.0
 70
     8
 71
     3
 72
    14
 73
    10
 74
     0
 42
0.000000001
 43
0.00000001
 40
0.0
 40
0.0
 40
0.0
 40
0.0
 40
0.25
 40
0.25
 40
0.5
 40
0.5
 40
0.75
 40
0.75
 40
1.0
 40
1.0
 40
1.0
 40
1.0
 10
846.2262416153653
 20
-643.2513303481618
 30
0.0
 10
846.1673160502664
 20
-643.2513303481618
 30
0.0
 10
846.1037427357762
 20
-643.2620697175685
 30
0.0
 10
845.9806457853924
 20
-643.3108026776925
 30
0.0
 10
845.921503761241
 20
-643.3489614210996
 30
0.0
 10
845.823872688303
 20
-643.4465924940374
 30
0.0
 10
845.7857139448961
 20
-643.5057345181889
 30
0.0
 10
845.7369809847719
 20
-643.6288314685728
 30
0.0
 10
845.7262416153653
 20
-643.6924047830629
 30
0.0
 10
845.7262416153653
 20
-643.7513303481618
 30
0.0
  0
SPLINE
  5
21E51
330
18
100
AcDbEntity
  8
1PHANTOM
 48
0.5
100
AcDbSpline
210
0.0
220
0.0
230
1.0
 70
     8
 71
     3
 72
    14
 73
    10
 74
     0
 42
0.000000001
 43
0.00000001
 40
0.0
 40
0.0
 40
0.0
 40
0.0
 40
0.2499999999999994
 40
0.2499999999999994
 40
0.4999999999999989
 40
0.4999999999999989
 40
0.7499999999999994
 40
0.7499999999999994
 40
1.0
 40
1.0
 40
1.0
 40
1.0
 10
828.7262416153653
 20
-658.7513303481618
 30
0.0
 10
828.6083904851675
 20
-658.7513303481618
 30
0.0
 10
828.4812438561873
 20
-658.7298516093482
 30
0.0
 10
828.2350499554195
 20
-658.6323856891
 30
0.0
 10
828.1167659071165
 20
-658.5560682022862
 30
0.0
 10
827.921503761241
 20
-658.3608060564105
 30
0.0
 10
827.8451862744269
 20
-658.2425220081075
 30
0.0
 10
827.7477203541787
 20
-657.9963281073398
 30
0.0
 10
827.7262416153653
 20
-657.8691814783595
 30
0.0
 10
827.7262416153653
 20
-657.7513303481618
 30
0.0
  0
SPLINE
  5
21E52
330
18
100
AcDbEntity
  8
1PHANTOM
 48
0.5
100
AcDbSpline
210
0.0
220
0.0
230
1.0
 70
     8
 71
     3
 72
    14
 73
    10
 74
     0
 42
0.000000001
 43
0.00000001
 40
0.0
 40
0.0
 40
0.0
 40
0.0
 40
0.25
 40
0.25
 40
0.5
 40
0.5
 40
0.75
 40
0.75
 40
1.0
 40
1.0
 40
1.0
 40
1.0
 10
828.2262416153653
 20
-653.7513303481618
 30
0.0
 10
828.1673160502664
 20
-653.7513303481618
 30
0.0
 10
828.1037427357762
 20
-653.7620697175685
 30
0.0
 10
827.9806457853924
 20
-653.8108026776925
 30
0.0
 10
827.921503761241
 20
-653.8489614210996
 30
0.0
 10
827.823872688303
 20
-653.9465924940374
 30
0.0
 10
827.7857139448961
 20
-654.0057345181889
 30
0.0
 10
827.736980984772
 20
-654.1288314685728
 30
0.0
 10
827.7262416153653
 20
-654.1924047830629
 30
0.0
 10
827.7262416153653
 20
-654.2513303481618
 30
0.0
  0
LINE
  5
21E53
330
18
100
AcDbEntity
  8
1PHANTOM
 48
0.5
100
AcDbLine
 10
827.7262416153653
 20
-657.7513303481618
 30
0.0
 11
827.7262416153653
 21
-654.2513303481618
 31
0.0
  0
LINE
  5
21E54
330
18
100
AcDbEntity
  8
01
100
AcDbLine
 10
844.7262416153653
 20
-649.2513301981618
 30
0.0
 11
845.7262416153653
 21
-648.2513304981618
 31
0.0
  0
LINE
  5
21E55
330
18
100
AcDbEntity
  8
01
100
AcDbLine
 10
844.7262416153653
 20
-652.5513303481617
 30
0.0
 11
845.7262416153653
 21
-652.5513303481617
 31
0.0
  0
LINE
  5
21E56
330
18
100
AcDbEntity
  8
01
100
AcDbLine
 10
845.7262416153653
 20
-652.5513303481617
 30
0.0
 11
845.7262416153653
 21
-644.9513303481618
 31
0.0
  0
LINE
  5
21E57
330
18
100
AcDbEntity
  8
01
100
AcDbLine
 10
844.7262416153653
 20
-652.5513303481617
 30
0.0
 11
844.7262416153653
 21
-644.9513303481618
 31
0.0
  0
LINE
  5
21E58
330
18
100
AcDbEntity
  8
01
100
AcDbLine
 10
844.7262416153653
 20
-644.9513303481618
 30
0.0
 11
845.7262416153653
 21
-644.9513303481618
 31
0.0
  0
LINE
  5
21E5A
330
18
100
AcDbEntity
  8
1PHANTOM
 48
0.5
100
AcDbLine
 10
845.7262416153653
 20
-643.7513303481619
 30
0.0
 11
845.7262416153653
 21
-653.2513303481618
 31
0.0
  0
LINE
  5
21E5B
330
18
100
AcDbEntity
  8
1PHANTOM
 48
0.5
100
AcDbLine
 10
850.7262416153649
 20
-643.2513303481618
 30
0.0
 11
850.7262416153649
 21
-658.7513303481618
 31
0.0
  0
LINE
  5
21E5C
330
18
100
AcDbEntity
  8
1PHANTOM
 48
0.5
100
AcDbLine
 10
828.7262416153653
 20
-658.7513303481618
 30
0.0
 11
850.7262416153649
 21
-658.7513303481618
 31
0.0
  0
LINE
  5
21E5D
330
18
100
AcDbEntity
  8
1PHANTOM
 48
0.5
100
AcDbLine
 10
828.2262416153653
 20
-653.7513303481618
 30
0.0
 11
845.2262416153652
 21
-653.7513303481618
 31
0.0
  0
LINE
  5
21ECC
330
18
100
AcDbEntity
  8
01
100
AcDbLine
 10
725.0462414762612
 20
-589.9513312693034
 30
0.0
 11
726.0462411762612
 21
-588.9513312693034
 31
0.0
  0
LINE
  5
21ECD
330
18
100
AcDbEntity
  8
01
100
AcDbLine
 10
721.7462413262613
 20
-589.9513312693034
 30
0.0
 11
721.7462413262613
 21
-588.9513312693034
 31
0.0
  0
LINE
  5
21ECE
330
18
100
AcDbEntity
  8
01
100
AcDbLine
 10
721.7462413262613
 20
-588.9513312693034
 30
0.0
 11
729.3462413262612
 21
-588.9513312693034
 31
0.0
  0
LINE
  5
21ECF
330
18
100
AcDbEntity
  8
01
100
AcDbLine
 10
721.7462413262613
 20
-589.9513312693034
 30
0.0
 11
729.3462413262612
 21
-589.9513312693034
 31
0.0
  0
LINE
  5
21ED0
330
18
100
AcDbEntity
  8
01
100
AcDbLine
 10
729.3462413262612
 20
-589.9513312693034
 30
0.0
 11
729.3462413262612
 21
-588.9513312693034
 31
0.0
  0
LINE
  5
21ED2
330
18
100
AcDbEntity
  8
01
100
AcDbLine
 10
705.546243975812
 20
-619.2513311563109
 30
0.0
 11
705.5462439758115
 21
-628.6513327954385
 31
0.0
  0
LINE
  5
21ED3
330
18
100
AcDbEntity
  8
01
  6
CONTINUOUS
100
AcDbLine
 10
738.2962417210775
 20
-583.9513307885877
 30
0.0
 11
738.2962417210775
 21
-622.2513336583315
 31
0.0
  0
SPLINE
  5
21ED5
330
18
100
AcDbEntity
  8
01
  6
CONTINUOUS
100
AcDbSpline
210
0.0
220
0.0
230
1.0
 70
     8
 71
     3
 72
    14
 73
    10
 74
     0
 42
0.000000001
 43
0.00000001
 40
0.0
 40
0.0
 40
0.0
 40
0.0
 40
0.25
 40
0.25
 40
0.5
 40
0.5
 40
0.75
 40
0.75
 40
1.0
 40
1.0
 40
1.0
 40
1.0
 10
712.796241329365
 20
-619.4513310595908
 30
0.0
 10
712.7962413293649
 20
-619.3579258934872
 30
0.0
 10
712.7975745015851
 20
-619.2644009815701
 30
0.0
 10
712.7842126477381
 20
-619.0787908139312
 30
0.0
 10
712.7680993719349
 20
-618.9848138571838
 30
0.0
 10
712.6948784052188
 20
-618.8103318581968
 30
0.0
 10
712.6380199270262
 20
-618.7313990039684
 30
0.0
 10
712.4846764035411
 20
-618.6173642075753
 30
0.0
 10
712.3919938093679
 20
-618.5853056218336
 30
0.0
 10
712.2962413293656
 20
-618.5853056218336
 30
0.0
  0
LINE
  5
21ED6
330
18
100
AcDbEntity
  8
01
  6
CONTINUOUS
100
AcDbLine
 10
712.2962413293656
 20
-618.5853056218336
 30
0.0
 11
711.1045107037716
 21
-618.5853056218341
 31
0.0
  0
SPLINE
  5
21ED7
330
18
100
AcDbEntity
  8
01
  6
CONTINUOUS
100
AcDbSpline
210
0.0
220
0.0
230
1.0
 70
     8
 71
     3
 72
    15
 73
    11
 74
     0
 42
0.000000001
 43
0.00000001
 40
0.0
 40
0.0
 40
0.0
 40
0.0
 40
0.1015351284422764
 40
0.1849084236838882
 40
0.2501347018091021
 40
0.3802909988857769
 40
0.4998047248272087
 40
0.67050967685247
 40
0.836458446520511
 40
1.0
 40
1.0
 40
1.0
 40
1.0
 10
709.5462413293656
 20
-618.4513310595912
 30
0.0
 10
709.5951102936231
 20
-618.4520102199419
 30
0.0
 10
709.6841069126901
 20
-618.4532470575944
 30
0.0
 10
709.8053275381707
 20
-618.4615698024975
 30
0.0
 10
709.9416464984248
 20
-618.4744758922166
 30
0.0
 10
710.098984803951
 20
-618.4938327328025
 30
0.0
 10
710.3147165006097
 20
-618.5237690162719
 30
0.0
 10
710.5570977366652
 20
-618.5549197468677
 30
0.0
 10
710.830673552148
 20
-618.58029078407
 30
0.0
 10
711.0136773209824
 20
-618.5836421878821
 30
0.0
 10
711.1045107037717
 20
-618.5853056473138
 30
0.0
  0
LINE
  5
21ED8
330
18
100
AcDbEntity
  8
01
  6
CONTINUOUS
100
AcDbLine
 10
709.5462413293656
 20
-618.4513310595908
 30
0.0
 11
706.3462414723135
 21
-618.4513310595908
 31
0.0
  0
LINE
  5
21ED9
330
18
100
AcDbEntity
  8
01
  6
CONTINUOUS
100
AcDbLine
 10
712.7962413293656
 20
-622.2513336583315
 30
0.0
 11
712.7962413293652
 21
-619.4513310595908
 31
0.0
  0
ARC
  5
21EDA
330
18
100
AcDbEntity
  8
01
  6
CONTINUOUS
100
AcDbCircle
 10
716.0462413293656
 20
-622.2513336583313
 30
0.0
 40
3.250000000000169
100
AcDbArc
 50
180.0000005836383
 51
270.0
  0
LINE
  5
21EDB
330
18
100
AcDbEntity
  8
01
  6
CONTINUOUS
100
AcDbLine
 10
735.0462417210775
 20
-625.5013336583315
 30
0.0
 11
716.0462413293656
 21
-625.5013336583314
 31
0.0
  0
ARC
  5
21EDC
330
18
100
AcDbEntity
  8
01
  6
CONTINUOUS
100
AcDbCircle
 10
735.0462417210775
 20
-622.2513325625134
 30
0.0
 40
3.250001095818105
100
AcDbArc
 50
269.999999999998
 51
359.9999806813054
  0
LINE
  5
21EDD
330
18
100
AcDbEntity
  8
01
  6
CONTINUOUS
100
AcDbLine
 10
706.3462414723135
 20
-629.4513310560853
 30
0.0
 11
735.2462414723135
 21
-629.4513310560853
 31
0.0
  0
ARC
  5
21EDE
330
18
100
AcDbEntity
  8
01
  6
CONTINUOUS
100
AcDbCircle
 10
706.3462414723135
 20
-619.2513310595908
 30
0.0
 40
0.8000000000000679
100
AcDbArc
 50
90.0
 51
180.0
  0
ARC
  5
21EDF
330
18
100
AcDbEntity
  8
01
  6
CONTINUOUS
100
AcDbCircle
 10
706.3462414723135
 20
-628.6513310560852
 30
0.0
 40
0.8000000000001247
100
AcDbArc
 50
180.0
 51
270.0
  0
LINE
  5
21EE0
330
18
100
AcDbEntity
  8
01
  6
CONTINUOUS
100
AcDbLine
 10
742.2462414723135
 20
-622.4513310560853
 30
0.0
 11
742.2462414723135
 21
-583.9513305175847
 31
0.0
  0
LINE
  5
21EE1
330
18
100
AcDbEntity
  8
01
  6
CONTINUOUS
100
AcDbLine
 10
741.2462414723135
 20
-583.9513305175847
 30
0.0
 11
742.2462414723135
 21
-583.9513305175847
 31
0.0
  0
ARC
  5
21EE2
330
18
100
AcDbEntity
  8
01
  6
CONTINUOUS
100
AcDbCircle
 10
735.2462414723135
 20
-622.4513310560849
 30
0.0
 40
7.000000000000281
100
AcDbArc
 50
269.9999999999991
 51
0.0000000000018611
  0
LINE
  5
21EE3
330
18
100
AcDbEntity
  8
01
  6
CONTINUOUS
100
AcDbLine
 10
738.7962417210775
 20
-583.9513305175847
 30
0.0
 11
741.2462414723135
 21
-583.9513305175847
 31
0.0
  0
LINE
  5
21EE4
330
18
100
AcDbEntity
  8
01
  6
CONTINUOUS
100
AcDbLine
 10
738.2962417210775
 20
-583.9513307885877
 30
0.0
 11
713.0462413293656
 21
-583.9513310493614
 31
0.0
  0
SPLINE
  5
21EE5
330
18
100
AcDbEntity
  8
01
  6
CONTINUOUS
100
AcDbSpline
210
0.0
220
0.0
230
1.0
 70
     8
 71
     3
 72
    14
 73
    10
 74
     0
 42
0.000000001
 43
0.00000001
 40
0.0
 40
0.0
 40
0.0
 40
0.0
 40
0.25
 40
0.25
 40
0.5
 40
0.5
 40
0.75
 40
0.75
 40
1.0
 40
1.0
 40
1.0
 40
1.0
 10
709.5462413293656
 20
-618.4513310595908
 30
0.0
 10
709.8997947199588
 20
-618.4513310595908
 30
0.0
 10
710.2812346068996
 20
-618.3868948431502
 30
0.0
 10
711.0198163092027
 20
-618.0944970824057
 30
0.0
 10
711.3746684541118
 20
-617.8655446219639
 30
0.0
 10
711.9604548917387
 20
-617.279758184337
 30
0.0
 10
712.1894073521806
 20
-616.9249060394279
 30
0.0
 10
712.481805112925
 20
-616.1863243371247
 30
0.0
 10
712.5462413293656
 20
-615.8048844501839
 30
0.0
 10
712.5462413293656
 20
-615.4513310595908
 30
0.0
  0
LINE
  5
21EE6
330
18
100
AcDbEntity
  8
01
  6
CONTINUOUS
100
AcDbLine
 10
712.5462413293656
 20
-583.9513310542718
 30
0.0
 11
712.5462413293656
 21
-615.4513310595908
 31
0.0
  0
LINE
  5
21EE7
330
18
100
AcDbEntity
  8
01
  6
CONTINUOUS
100
AcDbLine
 10
713.0462413293656
 20
-583.9513310493614
 30
0.0
 11
712.5462413293656
 21
-583.9513310542718
 31
0.0
  0
ARC
  5
21EE8
330
18
100
AcDbEntity
  8
01
  6
CONTINUOUS
100
AcDbCircle
 10
714.0496853511142
 20
-585.2513336583315
 30
0.0
 40
1.000000000000013
100
AcDbArc
 50
90.0
 51
180.0001572442589
  0
LINE
  5
21EE9
330
18
100
AcDbEntity
  8
01
  6
CONTINUOUS
100
AcDbLine
 10
713.0497429836574
 20
-622.25134183502
 30
0.0
 11
713.049685351118
 21
-585.2513364027616
 31
0.0
  0
LINE
  5
21EEA
330
18
100
AcDbEntity
  8
01
  6
CONTINUOUS
100
AcDbLine
 10
714.0496853511142
 20
-584.2513336583315
 30
0.0
 11
737.0497443558413
 21
-584.2513336583315
 31
0.0
  0
LINE
  5
21EEB
330
18
100
AcDbEntity
  8
01
  6
CONTINUOUS
100
AcDbLine
 10
735.0497443558376
 20
-625.2513336583315
 30
0.0
 11
716.0427386946054
 21
-625.2513336583314
 31
0.0
  0
LINE
  5
21EEC
330
18
100
AcDbEntity
  8
01
  6
CONTINUOUS
100
AcDbLine
 10
738.0497443558376
 20
-585.2513364027616
 30
0.0
 11
738.0497443558376
 21
-622.2513336583314
 31
0.0
  0
ARC
  5
21EED
330
18
100
AcDbEntity
  8
01
  6
CONTINUOUS
100
AcDbCircle
 10
735.0497443558376
 20
-622.2513336583315
 30
0.0
 40
3.000000000000012
100
AcDbArc
 50
270.0
 51
0.0000000000021713
  0
ARC
  5
21EEE
330
18
100
AcDbEntity
  8
01
  6
CONTINUOUS
100
AcDbCircle
 10
716.0497429836574
 20
-622.2513418350201
 30
0.0
 40
3.00000000000001
100
AcDbArc
 50
179.9999999999978
 51
270.0
  0
ARC
  5
21EEF
330
18
100
AcDbEntity
  8
01
  6
CONTINUOUS
100
AcDbCircle
 10
737.0497443558413
 20
-585.2513336583315
 30
0.0
 40
1.000000000000013
100
AcDbArc
 50
359.999842755741
 51
90.0
  0
LINE
  5
21EF2
330
18
100
AcDbEntity
  8
1PHANTOM
 48
0.5
100
AcDbLine
 10
736.2962413293656
 20
-588.4513309189741
 30
0.0
 11
736.2962413293656
 21
-583.9513309189746
 31
0.0
  0
SPLINE
  5
21EF3
330
18
100
AcDbEntity
  8
1PHANTOM
 48
0.5
100
AcDbSpline
210
0.0
220
0.0
230
1.0
 70
    24
 71
     3
 72
    14
 73
    10
 74
     0
 42
0.000000001
 43
0.00000001
 40
0.0
 40
0.0
 40
0.0
 40
0.0
 40
0.25
 40
0.25
 40
0.5
 40
0.5
 40
0.75
 40
0.75
 40
1.0
 40
1.0
 40
1.0
 40
1.0
 10
736.2962413293656
 20
-583.9513309189746
 30
0.0
 10
736.2962413293654
 20
-583.9513309189746
 30
0.0
 10
736.274762590552
 20
-583.9513309189746
 30
0.0
 10
736.1772966703038
 20
-583.9513309189746
 30
0.0
 10
736.1009791834898
 20
-583.9513309189746
 30
0.0
 10
735.9057170376141
 20
-583.9513309189746
 30
0.0
 10
735.7874329893112
 20
-583.9513309189746
 30
0.0
 10
735.5412390885434
 20
-583.9513309189746
 30
0.0
 10
735.4140924595632
 20
-583.9513309189746
 30
0.0
 10
735.2962413293656
 20
-583.9513309189746
 30
0.0
  0
LINE
  5
21EF4
330
18
100
AcDbEntity
  8
1PHANTOM
 48
0.5
100
AcDbLine
 10
735.2962413293656
 20
-583.9513309189746
 30
0.0
 11
715.7962413293656
 21
-583.9513309189746
 31
0.0
  0
LINE
  5
21EF8
330
18
100
AcDbEntity
  8
1PHANTOM
 48
0.5
100
AcDbLine
 10
714.7962413293656
 20
-583.9513309189746
 30
0.0
 11
714.7962413293656
 21
-588.4513309189741
 31
0.0
  0
SPLINE
  5
21EF9
330
18
100
AcDbEntity
  8
1PHANTOM
 48
0.5
100
AcDbSpline
210
0.0
220
0.0
230
1.0
 70
    24
 71
     3
 72
    14
 73
    10
 74
     0
 42
0.000000001
 43
0.00000001
 40
0.0
 40
0.0
 40
0.0
 40
0.0
 40
0.25
 40
0.25
 40
0.5
 40
0.5
 40
0.75
 40
0.75
 40
1.0
 40
1.0
 40
1.0
 40
1.0
 10
715.7962413293656
 20
-583.9513309189746
 30
0.0
 10
715.6783901991678
 20
-583.9513309189746
 30
0.0
 10
715.5512435701877
 20
-583.9513309189746
 30
0.0
 10
715.3050496694199
 20
-583.9513309189746
 30
0.0
 10
715.1867656211169
 20
-583.9513309189746
 30
0.0
 10
714.9915034752412
 20
-583.9513309189746
 30
0.0
 10
714.9151859884273
 20
-583.9513309189746
 30
0.0
 10
714.817720068179
 20
-583.9513309189746
 30
0.0
 10
714.7962413293656
 20
-583.9513309189746
 30
0.0
 10
714.7962413293656
 20
-583.9513309189746
 30
0.0
  0
SPLINE
  5
21EFA
330
18
100
AcDbEntity
  8
1PHANTOM
 48
0.5
100
AcDbSpline
210
0.0
220
0.0
230
1.0
 70
    24
 71
     3
 72
    14
 73
    10
 74
     0
 42
0.000000001
 43
0.00000001
 40
0.0
 40
0.0
 40
0.0
 40
0.0
 40
0.2499999999999998
 40
0.2499999999999998
 40
0.4999999999999999
 40
0.4999999999999999
 40
0.75
 40
0.75
 40
1.0
 40
1.0
 40
1.0
 40
1.0
 10
736.2962413293656
 20
-589.4513309189742
 30
0.0
 10
736.2962413293656
 20
-589.3334797887765
 30
0.0
 10
736.2962413293656
 20
-589.2063331597961
 30
0.0
 10
736.2962413293654
 20
-588.9601392590284
 30
0.0
 10
736.2962413293654
 20
-588.8418552107254
 30
0.0
 10
736.2962413293654
 20
-588.6465930648498
 30
0.0
 10
736.2962413293654
 20
-588.5702755780359
 30
0.0
 10
736.2962413293654
 20
-588.4728096577877
 30
0.0
 10
736.2962413293654
 20
-588.4513309189741
 30
0.0
 10
736.2962413293656
 20
-588.4513309189741
 30
0.0
  0
SPLINE
  5
21EFB
330
18
100
AcDbEntity
  8
1PHANTOM
 48
0.5
100
AcDbSpline
210
0.0
220
0.0
230
1.0
 70
    24
 71
     3
 72
    14
 73
    10
 74
     0
 42
0.000000001
 43
0.00000001
 40
0.0
 40
0.0
 40
0.0
 40
0.0
 40
0.2499999999999999
 40
0.2499999999999999
 40
0.4999999999999998
 40
0.4999999999999998
 40
0.7499999999999997
 40
0.7499999999999997
 40
1.0
 40
1.0
 40
1.0
 40
1.0
 10
714.7962413293656
 20
-588.4513309189741
 30
0.0
 10
714.7962413293656
 20
-588.4513309189741
 30
0.0
 10
714.7962413293656
 20
-588.4728096577877
 30
0.0
 10
714.7962413293656
 20
-588.5702755780359
 30
0.0
 10
714.7962413293656
 20
-588.6465930648498
 30
0.0
 10
714.7962413293656
 20
-588.8418552107254
 30
0.0
 10
714.7962413293656
 20
-588.9601392590284
 30
0.0
 10
714.7962413293656
 20
-589.2063331597961
 30
0.0
 10
714.7962413293656
 20
-589.3334797887765
 30
0.0
 10
714.7962413293656
 20
-589.4513309189742
 30
0.0
  0
LINE
  5
21EFE
330
18
100
AcDbEntity
  8
1PHANTOM
 48
0.5
100
AcDbLine
 10
736.2962413293656
 20
-605.9513309189742
 30
0.0
 11
736.2962413293656
 21
-589.4513309189742
 31
0.0
  0
LINE
  5
21EFF
330
18
100
AcDbEntity
  8
1PHANTOM
 48
0.5
100
AcDbLine
 10
714.7962413293656
 20
-589.4513309189742
 30
0.0
 11
714.7962413293656
 21
-605.9513309189742
 31
0.0
  0
LINE
  5
21F00
330
18
100
AcDbEntity
  8
1PHANTOM
 48
0.5
100
AcDbLine
 10
715.7962413293656
 20
-606.9513309189742
 30
0.0
 11
735.2962413293656
 21
-606.9513309189742
 31
0.0
  0
SPLINE
  5
21F01
330
18
100
AcDbEntity
  8
1PHANTOM
 48
0.5
100
AcDbSpline
210
0.0
220
0.0
230
1.0
 70
     8
 71
     3
 72
    14
 73
    10
 74
     0
 42
0.000000001
 43
0.00000001
 40
0.0
 40
0.0
 40
0.0
 40
0.0
 40
0.25
 40
0.25
 40
0.5
 40
0.5
 40
0.75
 40
0.75
 40
1.0
 40
1.0
 40
1.0
 40
1.0
 10
735.2962413293656
 20
-606.9513309189742
 30
0.0
 10
735.4140924595632
 20
-606.9513309189742
 30
0.0
 10
735.5412390885435
 20
-606.9298521801607
 30
0.0
 10
735.7874329893111
 20
-606.8323862599126
 30
0.0
 10
735.9057170376142
 20
-606.7560687730986
 30
0.0
 10
736.1009791834898
 20
-606.560806627223
 30
0.0
 10
736.1772966703038
 20
-606.4425225789199
 30
0.0
 10
736.274762590552
 20
-606.1963286781522
 30
0.0
 10
736.2962413293654
 20
-606.0691820491719
 30
0.0
 10
736.2962413293656
 20
-605.9513309189742
 30
0.0
  0
SPLINE
  5
21F02
330
18
100
AcDbEntity
  8
1PHANTOM
 48
0.5
100
AcDbSpline
210
0.0
220
0.0
230
1.0
 70
     8
 71
     3
 72
    14
 73
    10
 74
     0
 42
0.000000001
 43
0.00000001
 40
0.0
 40
0.0
 40
0.0
 40
0.0
 40
0.25
 40
0.25
 40
0.5
 40
0.5
 40
0.75
 40
0.75
 40
1.0
 40
1.0
 40
1.0
 40
1.0
 10
714.7962413293656
 20
-605.9513309189742
 30
0.0
 10
714.7962413293656
 20
-606.0691820491719
 30
0.0
 10
714.817720068179
 20
-606.1963286781522
 30
0.0
 10
714.9151859884272
 20
-606.4425225789199
 30
0.0
 10
714.9915034752412
 20
-606.560806627223
 30
0.0
 10
715.1867656211169
 20
-606.7560687730986
 30
0.0
 10
715.3050496694199
 20
-606.8323862599126
 30
0.0
 10
715.5512435701877
 20
-606.9298521801607
 30
0.0
 10
715.6783901991678
 20
-606.9513309189742
 30
0.0
 10
715.7962413293656
 20
-606.9513309189742
 30
0.0
  0
LINE
  5
21F03
330
18
100
AcDbEntity
  8
01
100
AcDbLine
 10
45.54624056632292
 20
-660.4513301277489
 30
0.0
 11
45.54624056632292
 21
-641.0513305747836
 31
0.0
  0
ARC
  5
21F04
330
18
100
AcDbEntity
  8
01
100
AcDbCircle
 10
45.84624056632288
 20
-641.0513305747836
 30
0.0
 40
0.3
100
AcDbArc
 50
90.0
 51
180.0
  0
ARC
  5
21F05
330
18
100
AcDbEntity
  8
01
100
AcDbCircle
 10
45.84624056632288
 20
-660.4513301277489
 30
0.0
 40
0.3
100
AcDbArc
 50
180.0
 51
270.0
  0
ARC
  5
21F07
330
18
100
AcDbEntity
  8
01
  6
CONTINUOUS
100
AcDbCircle
 10
706.3462370854122
 20
-660.4513304101081
 30
0.0
 40
0.8000000000000114
100
AcDbArc
 50
180.0
 51
270.0
  0
ARC
  5
21F08
330
18
100
AcDbEntity
  8
01
  6
CONTINUOUS
100
AcDbCircle
 10
706.3462370854122
 20
-641.0513302924244
 30
0.0
 40
0.8000000000000114
100
AcDbArc
 50
90.0
 51
180.0
  0
ARC
  5
21F09
330
18
100
AcDbEntity
  8
01
  6
CONTINUOUS
100
AcDbCircle
 10
741.2462370854123
 20
-641.2513302924249
 30
0.0
 40
1.000000000000256
100
AcDbArc
 50
0.0000000000130276
 51
90.0
  0
LINE
  5
21F0A
330
18
100
AcDbEntity
  8
01
  6
CONTINUOUS
100
AcDbLine
 10
741.2462370854123
 20
-640.2513302924247
 30
0.0
 11
735.2462370854123
 21
-640.2513302924247
 31
0.0
  0
LINE
  5
21F0B
330
18
100
AcDbEntity
  8
01
  6
CONTINUOUS
100
AcDbLine
 10
735.2462370854123
 20
-640.2513302924247
 30
0.0
 11
706.3462370854122
 21
-640.2513302924247
 31
0.0
  0
LINE
  5
21F0C
330
18
100
AcDbEntity
  8
01
  6
CONTINUOUS
100
AcDbLine
 10
735.2462370854123
 20
-661.251330410108
 30
0.0
 11
741.2462370854123
 21
-661.251330410108
 31
0.0
  0
ARC
  5
21F0D
330
18
100
AcDbEntity
  8
01
  6
CONTINUOUS
100
AcDbCircle
 10
741.2462370854123
 20
-660.251330410108
 30
0.0
 40
1.000000000000028
100
AcDbArc
 50
270.0
 51
0.0000000000130276
  0
LINE
  5
21F0E
330
18
100
AcDbEntity
  8
01
  6
CONTINUOUS
100
AcDbLine
 10
706.3462370854122
 20
-661.251330410108
 30
0.0
 11
735.2462370854123
 21
-661.251330410108
 31
0.0
  0
LINE
  5
21F0F
330
18
100
AcDbEntity
  8
01
  6
CONTINUOUS
100
AcDbLine
 10
742.2462370854123
 20
-660.251330410108
 30
0.0
 11
742.2462370854123
 21
-641.2513302924247
 31
0.0
  0
LINE
  5
21F10
330
18
100
AcDbEntity
  8
01
  6
CONTINUOUS
100
AcDbLine
 10
716.0497392828458
 20
-640.2513302924247
 30
0.0
 11
735.0497392828461
 21
-640.2513302924247
 31
0.0
  0
LINE
  5
21F11
330
18
100
AcDbEntity
  8
01
  6
CONTINUOUS
100
AcDbLine
 10
713.0497392828461
 20
-640.2513302924247
 30
0.0
 11
713.0497392828461
 21
-638.3617328182213
 31
0.0
  0
SPLINE
  5
21F12
330
18
100
AcDbEntity
  8
01
  6
CONTINUOUS
100
AcDbSpline
210
0.0
220
0.0
230
1.0
 70
    24
 71
     3
 72
    22
 73
    18
 74
     0
 42
0.000000001
 43
0.00000001
 40
0.0
 40
0.0
 40
0.0
 40
0.0
 40
0.034550635079117
 40
0.0688550610754859
 40
0.1030127308718936
 40
0.1371243809831122
 40
0.1712911549764206
 40
0.2056137090964062
 40
0.240191339176251
 40
0.3700530874473478
 40
0.5000286264676261
 40
0.6298904259562502
 40
0.7598660162387701
 40
0.8201490091755944
 40
0.879905326471936
 40
0.9396755782493204
 40
1.0
 40
1.0
 40
1.0
 40
1.0
 10
713.0497392828461
 20
-640.2513302924247
 30
0.0
 10
713.0505593955775
 20
-640.2513302924247
 30
0.0
 10
713.0521937768867
 20
-640.2513302924247
 30
0.0
 10
713.0655618918081
 20
-640.2513302924247
 30
0.0
 10
713.0869472354398
 20
-640.2513302924247
 30
0.0
 10
713.1171179516527
 20
-640.2513302924247
 30
0.0
 10
713.1558644522256
 20
-640.2513302924247
 30
0.0
 10
713.2032559198185
 20
-640.2513302924247
 30
0.0
 10
713.3103774086683
 20
-640.2513302924247
 30
0.0
 10
713.5237050956252
 20
-640.2513302924247
 30
0.0
 10
713.9139631819751
 20
-640.2513302924247
 30
0.0
 10
714.3903236720428
 20
-640.2513302924247
 30
0.0
 10
714.8403983797505
 20
-640.2513302924247
 30
0.0
 10
715.2118210274502
 20
-640.2513302924247
 30
0.0
 10
715.486603581277
 20
-640.2513302924247
 30
0.0
 10
715.7664876369117
 20
-640.2513302924247
 30
0.0
 10
715.9550320584001
 20
-640.2513302924247
 30
0.0
 10
716.0497392828461
 20
-640.2513302924247
 30
0.0
  0
LINE
  5
21F13
330
18
100
AcDbEntity
  8
01
  6
CONTINUOUS
100
AcDbLine
 10
738.0497392828461
 20
-640.2513302924247
 30
0.0
 11
738.0497392828461
 21
-638.3617328182213
 31
0.0
  0
SPLINE
  5
21F14
330
18
100
AcDbEntity
  8
01
  6
CONTINUOUS
100
AcDbSpline
210
0.0
220
0.0
230
1.0
 70
    24
 71
     3
 72
    22
 73
    18
 74
     0
 42
0.000000001
 43
0.00000001
 40
0.0
 40
0.0
 40
0.0
 40
0.0
 40
0.0345506350787961
 40
0.0688550610749545
 40
0.1030127308712564
 40
0.1371243809824784
 40
0.1712911549758936
 40
0.205613709096086
 40
0.2401913391762349
 40
0.3700530874466947
 40
0.500028626467639
 40
0.6298904259560504
 40
0.7598660162387711
 40
0.8201490091754445
 40
0.879905326471732
 40
0.9396755782491651
 40
1.0
 40
1.0
 40
1.0
 40
1.0
 10
735.0497392828461
 20
-640.2513302924247
 30
0.0
 10
735.1039678366849
 20
-640.2513302924247
 30
0.0
 10
735.2120385097151
 20
-640.2513302924247
 30
0.0
 10
735.3732654176656
 20
-640.2513302924247
 30
0.0
 10
735.5328750729161
 20
-640.2513302924247
 30
0.0
 10
735.6908647668761
 20
-640.2513302924247
 30
0.0
 10
735.8472260012761
 20
-640.2513302924247
 30
0.0
 10
736.0019708845375
 20
-640.2513302924247
 30
0.0
 10
736.2949836838341
 20
-640.2513302924247
 30
0.0
 10
736.7090279435047
 20
-640.2513302924247
 30
0.0
 10
737.1852426052944
 20
-640.2513302924247
 30
0.0
 10
737.5757272093501
 20
-640.2513302924247
 30
0.0
 10
737.807521300793
 20
-640.2513302924247
 30
0.0
 10
737.9353915074321
 20
-640.2513302924247
 30
0.0
 10
738.0011987859436
 20
-640.2513302924247
 30
0.0
 10
738.0422591484323
 20
-640.2513302924247
 30
0.0
 10
738.0472382461212
 20
-640.2513302924247
 30
0.0
 10
738.0497392828461
 20
-640.2513302924247
 30
0.0
  0
ARC
  5
21F15
330
18
100
AcDbEntity
  8
01
100
AcDbCircle
 10
725.5497392828461
 20
-1237.251330323471
 30
0.0
 40
600.0
100
AcDbArc
 50
88.89992996929912
 51
91.1000700307009
  0
ARC
  5
21F16
330
18
100
AcDbEntity
  8
01
100
AcDbCircle
 10
714.0497392828461
 20
-638.3617328182213
 30
0.0
 40
1.0
100
AcDbArc
 50
91.10007003070828
 51
180.0
  0
ARC
  5
21F17
330
18
100
AcDbEntity
  8
01
100
AcDbCircle
 10
737.0497392828461
 20
-638.3617328182213
 30
0.0
 40
1.0
100
AcDbArc
 50
0.0
 51
88.89992996930475
  0
LINE
  5
21F18
330
18
100
AcDbEntity
  8
01
  6
CONTINUOUS
100
AcDbLine
 10
713.0497392828461
 20
-661.251330410108
 30
0.0
 11
713.0497392828461
 21
-663.1409278843114
 31
0.0
  0
LINE
  5
21F19
330
18
100
AcDbEntity
  8
01
  6
CONTINUOUS
100
AcDbLine
 10
738.0497392828461
 20
-661.251330410108
 30
0.0
 11
738.0497392828461
 21
-663.1409278843114
 31
0.0
  0
ARC
  5
21F1A
330
18
100
AcDbEntity
  8
01
100
AcDbCircle
 10
725.5497392828461
 20
-64.25133037906176
 30
0.0
 40
600.0
100
AcDbArc
 50
268.8999299692991
 51
271.1000700307009
  0
ARC
  5
21F1B
330
18
100
AcDbEntity
  8
01
100
AcDbCircle
 10
714.0497392828461
 20
-663.1409278843114
 30
0.0
 40
1.0
100
AcDbArc
 50
180.0
 51
268.8999299692917
  0
ARC
  5
21F1C
330
18
100
AcDbEntity
  8
01
100
AcDbCircle
 10
737.0497392828461
 20
-663.1409278843114
 30
0.0
 40
1.0
100
AcDbArc
 50
271.1000700306952
 51
0.0
  0
SPLINE
  5
21F1D
330
18
100
AcDbEntity
  8
01
  6
CONTINUOUS
100
AcDbSpline
210
0.0
220
0.0
230
1.0
 70
     8
 71
     3
 72
    14
 73
    10
 74
     0
 42
0.000000001
 43
0.00000001
 40
0.0
 40
0.0
 40
0.0
 40
0.0
 40
0.2499999999999999
 40
0.2499999999999999
 40
0.4999999999999998
 40
0.4999999999999998
 40
0.7499999999999999
 40
0.7499999999999999
 40
1.0
 40
1.0
 40
1.0
 40
1.0
 10
722.0462379914546
 20
-648.7513303512663
 30
0.0
 10
722.0462379914546
 20
-648.4861653083209
 30
0.0
 10
722.0945651537851
 20
-648.2000853931149
 30
0.0
 10
722.3138634743442
 20
-647.6461491163865
 30
0.0
 10
722.4855778196765
 20
-647.3800100077043
 30
0.0
 10
722.9249176478982
 20
-646.9406701794838
 30
0.0
 10
723.1910567565808
 20
-646.7689558341526
 30
0.0
 10
723.7449930333099
 20
-646.5496575135951
 30
0.0
 10
724.0310729485162
 20
-646.5013303512654
 30
0.0
 10
724.2962379914617
 20
-646.5013303512663
 30
0.0
  0
SPLINE
  5
21F1E
330
18
100
AcDbEntity
  8
01
  6
CONTINUOUS
100
AcDbSpline
210
0.0
220
0.0
230
1.0
 70
     8
 71
     3
 72
    14
 73
    10
 74
     0
 42
0.000000001
 43
0.00000001
 40
0.0
 40
0.0
 40
0.0
 40
0.0
 40
0.2500000000000001
 40
0.2500000000000001
 40
0.5000000000000001
 40
0.5000000000000001
 40
0.7500000000000002
 40
0.7500000000000002
 40
1.0
 40
1.0
 40
1.0
 40
1.0
 10
724.2962379914617
 20
-651.0013303512663
 30
0.0
 10
724.0310729485162
 20
-651.0013303512671
 30
0.0
 10
723.7449930333102
 20
-650.9530031889375
 30
0.0
 10
723.191056756581
 20
-650.7337048683801
 30
0.0
 10
722.9249176478983
 20
-650.5619905230487
 30
0.0
 10
722.4855778196765
 20
-650.1226506948283
 30
0.0
 10
722.3138634743443
 20
-649.8565115861462
 30
0.0
 10
722.0945651537852
 20
-649.3025753094178
 30
0.0
 10
722.0462379914546
 20
-649.0164953942117
 30
0.0
 10
722.0462379914546
 20
-648.7513303512663
 30
0.0
  0
LINE
  5
21F1F
330
18
100
AcDbEntity
  8
01
  6
CONTINUOUS
100
AcDbLine
 10
726.7962379915497
 20
-651.0013303512663
 30
0.0
 11
724.2962379914617
 21
-651.0013303512663
 31
0.0
  0
SPLINE
  5
21F20
330
18
100
AcDbEntity
  8
01
  6
CONTINUOUS
100
AcDbSpline
210
0.0
220
0.0
230
1.0
 70
     8
 71
     3
 72
    14
 73
    10
 74
     0
 42
0.000000001
 43
0.00000001
 40
0.0
 40
0.0
 40
0.0
 40
0.0
 40
0.2500000000000001
 40
0.2500000000000001
 40
0.5000000000000002
 40
0.5000000000000002
 40
0.7500000000000001
 40
0.7500000000000001
 40
1.0
 40
1.0
 40
1.0
 40
1.0
 10
726.7962379915497
 20
-646.5013303512663
 30
0.0
 10
727.061403034489
 20
-646.5013303512663
 30
0.0
 10
727.3474829496876
 20
-646.5496575135967
 30
0.0
 10
727.9014192263986
 20
-646.768955834155
 30
0.0
 10
728.1675583350712
 20
-646.9406701794865
 30
0.0
 10
728.6068981632728
 20
-647.3800100077067
 30
0.0
 10
728.7786125085951
 20
-647.6461491163884
 30
0.0
 10
728.9979108291371
 20
-648.2000853931158
 30
0.0
 10
729.0462379914603
 20
-648.4861653083213
 30
0.0
 10
729.0462379914546
 20
-648.7513303512663
 30
0.0
  0
LINE
  5
21F21
330
18
100
AcDbEntity
  8
01
  6
CONTINUOUS
100
AcDbLine
 10
724.2962379914617
 20
-646.5013303512663
 30
0.0
 11
726.7962379915497
 21
-646.5013303512663
 31
0.0
  0
SPLINE
  5
21F22
330
18
100
AcDbEntity
  8
01
  6
CONTINUOUS
100
AcDbSpline
210
0.0
220
0.0
230
1.0
 70
     8
 71
     3
 72
    14
 73
    10
 74
     0
 42
0.000000001
 43
0.00000001
 40
0.0
 40
0.0
 40
0.0
 40
0.0
 40
0.25
 40
0.25
 40
0.5
 40
0.5
 40
0.75
 40
0.75
 40
1.0
 40
1.0
 40
1.0
 40
1.0
 10
729.0462379914546
 20
-648.7513303512663
 30
0.0
 10
729.0462379914603
 20
-649.0164953942112
 30
0.0
 10
728.997910829137
 20
-649.3025753094169
 30
0.0
 10
728.7786125085951
 20
-649.8565115861443
 30
0.0
 10
728.6068981632728
 20
-650.122650694826
 30
0.0
 10
728.1675583350712
 20
-650.5619905230461
 30
0.0
 10
727.9014192263986
 20
-650.7337048683776
 30
0.0
 10
727.3474829496876
 20
-650.953003188936
 30
0.0
 10
727.061403034489
 20
-651.0013303512663
 30
0.0
 10
726.7962379915497
 20
-651.0013303512663
 30
0.0
  0
LINE
  5
21F23
330
18
100
AcDbEntity
  8
1CENTER
100
AcDbLine
 10
730.0462379915057
 20
-648.7513303512663
 30
0.0
 11
721.0462379915057
 21
-648.7513303512663
 31
0.0
  0
LINE
  5
21F24
330
18
100
AcDbEntity
  8
1CENTER
100
AcDbLine
 10
724.2962379915057
 20
-645.5013303512663
 30
0.0
 11
724.2962379915057
 21
-652.0013303512663
 31
0.0
  0
LINE
  5
21F25
330
18
100
AcDbEntity
  8
1CENTER
100
AcDbLine
 10
726.7962379915057
 20
-645.5013303512663
 30
0.0
 11
726.7962379915057
 21
-652.0013303512663
 31
0.0
  0
LINE
  5
21F26
330
18
100
AcDbEntity
  8
01
100
AcDbLine
 10
705.5462370854123
 20
-660.4513301277489
 30
0.0
 11
705.5462370854123
 21
-641.0513305747836
 31
0.0
  0
TEXT
  5
21FB5
330
18
100
AcDbEntity
  8
01
  6
CONTINUOUS
100
AcDbText
 10
857.4637571261874
 20
-606.3202613041474
 30
0.0
 40
3.5
  1
PB
100
AcDbText
  0
TEXT
  5
21FB6
330
18
100
AcDbEntity
  8
01
  6
CONTINUOUS
100
AcDbText
 10
870.5991752713526
 20
-606.3202613041474
 30
0.0
 40
3.5
  1
合板9mm以上
100
AcDbText
  0
LINE
  5
21FB7
330
18
100
AcDbEntity
  8
01
  6
CONTINUOUS
100
AcDbLine
 10
12.29623593065745
 20
-583.9513305175847
 30
0.0
 11
12.33981380464778
 21
-583.9513305299099
 31
0.0
  0
LINE
  5
21FB8
330
18
100
AcDbEntity
  8
01
  6
CONTINUOUS
100
AcDbLine
 10
12.33981380464778
 20
-583.9513305299099
 30
0.0
 11
12.38306002472692
 21
-583.9513305431728
 31
0.0
  0
LINE
  5
21FB9
330
18
100
AcDbEntity
  8
01
  6
CONTINUOUS
100
AcDbLine
 10
12.38306002472692
 20
-583.9513305431728
 30
0.0
 11
12.42564546100121
 21
-583.9513305572721
 31
0.0
  0
LINE
  5
21FBA
330
18
100
AcDbEntity
  8
01
  6
CONTINUOUS
100
AcDbLine
 10
12.42564546100121
 20
-583.9513305572721
 30
0.0
 11
12.46724601254138
 21
-583.9513305721007
 31
0.0
  0
LINE
  5
21FBB
330
18
100
AcDbEntity
  8
01
  6
CONTINUOUS
100
AcDbLine
 10
12.46724601254138
 20
-583.9513305721007
 30
0.0
 11
12.50754507398668
 21
-583.9513305875455
 31
0.0
  0
LINE
  5
21FBC
330
18
100
AcDbEntity
  8
01
  6
CONTINUOUS
100
AcDbLine
 10
12.50754507398668
 20
-583.9513305875455
 30
0.0
 11
12.5462359451034
 21
-583.9513306034892
 31
0.0
  0
LINE
  5
21FBD
330
18
100
AcDbEntity
  8
01
  6
CONTINUOUS
100
AcDbLine
 10
12.5462359451034
 20
-583.9513306034892
 30
0.0
 11
12.58302416495886
 21
-583.9513306198103
 31
0.0
  0
LINE
  5
21FBE
330
18
100
AcDbEntity
  8
01
  6
CONTINUOUS
100
AcDbLine
 10
12.58302416495886
 20
-583.9513306198103
 30
0.0
 11
12.61762975294735
 21
-583.9513306363847
 31
0.0
  0
LINE
  5
21FBF
330
18
100
AcDbEntity
  8
01
  6
CONTINUOUS
100
AcDbLine
 10
12.61762975294735
 20
-583.9513306363847
 30
0.0
 11
12.649789339612
 21
-583.9513306530862
 31
0.0
  0
LINE
  5
21FC0
330
18
100
AcDbEntity
  8
01
  6
CONTINUOUS
100
AcDbLine
 10
12.649789339612
 20
-583.9513306530862
 30
0.0
 11
12.67925817104546
 21
-583.9513306697875
 31
0.0
  0
LINE
  5
21FC1
330
18
100
AcDbEntity
  8
01
  6
CONTINUOUS
100
AcDbLine
 10
12.67925817104546
 20
-583.9513306697875
 30
0.0
 11
12.7058119716153
 21
-583.9513306863619
 31
0.0
  0
LINE
  5
21FC2
330
18
100
AcDbEntity
  8
01
  6
CONTINUOUS
100
AcDbLine
 10
12.7058119716153
 20
-583.9513306863619
 30
0.0
 11
12.72924865083738
 21
-583.9513307026832
 31
0.0
  0
LINE
  5
21FC3
330
18
100
AcDbEntity
  8
01
  6
CONTINUOUS
100
AcDbLine
 10
12.72924865083738
 20
-583.9513307026832
 30
0.0
 11
12.74938984140616
 21
-583.9513307186269
 31
0.0
  0
LINE
  5
21FC4
330
18
100
AcDbEntity
  8
01
  6
CONTINUOUS
100
AcDbLine
 10
12.74938984140616
 20
-583.9513307186269
 30
0.0
 11
12.76608225667852
 21
-583.9513307340717
 31
0.0
  0
LINE
  5
21FC5
330
18
100
AcDbEntity
  8
01
  6
CONTINUOUS
100
AcDbLine
 10
12.76608225667852
 20
-583.9513307340717
 30
0.0
 11
12.77919885727724
 21
-583.9513307489001
 31
0.0
  0
LINE
  5
21FC6
330
18
100
AcDbEntity
  8
01
  6
CONTINUOUS
100
AcDbLine
 10
12.77919885727724
 20
-583.9513307489001
 30
0.0
 11
12.78863981793771
 21
-583.9513307629995
 31
0.0
  0
LINE
  5
21FC7
330
18
100
AcDbEntity
  8
01
  6
CONTINUOUS
100
AcDbLine
 10
12.78863981793771
 20
-583.9513307629995
 30
0.0
 11
12.79433328723869
 21
-583.9513307762622
 31
0.0
  0
LINE
  5
21FC8
330
18
100
AcDbEntity
  8
01
  6
CONTINUOUS
100
AcDbLine
 10
12.79433328723869
 20
-583.9513307762622
 30
0.0
 11
12.79623593065745
 21
-583.9513307885877
 31
0.0
  0
LINE
  5
21FC9
330
18
100
AcDbEntity
  8
01
  6
CONTINUOUS
100
AcDbLine
 10
849.385888938966
 20
-637.3686703756329
 30
0.0
 11
849.4152577508223
 21
-637.3690248388515
 31
0.0
  0
LINE
  5
21FCA
330
18
100
AcDbEntity
  8
01
  6
CONTINUOUS
100
AcDbLine
 10
849.4152577508223
 20
-637.3690248388515
 30
0.0
 11
849.4383332413231
 21
-637.369303720675
 31
0.0
  0
LINE
  5
21FCB
330
18
100
AcDbEntity
  8
01
  6
CONTINUOUS
100
AcDbLine
 10
849.385888938966
 20
-664.1339903268994
 30
0.0
 11
849.4152577508223
 21
-664.1336358636808
 31
0.0
  0
LINE
  5
21FCC
330
18
100
AcDbEntity
  8
01
  6
CONTINUOUS
100
AcDbLine
 10
849.4152577508223
 20
-664.1336358636808
 30
0.0
 11
849.4383332413231
 21
-664.1333569818572
 31
0.0
  0
LINE
  5
21FCD
330
18
100
AcDbEntity
  8
01
  6
CONTINUOUS
100
AcDbLine
 10
738.7962417210775
 20
-583.9513305175847
 30
0.0
 11
738.7526638470872
 21
-583.9513305299099
 31
0.0
  0
LINE
  5
21FCE
330
18
100
AcDbEntity
  8
01
  6
CONTINUOUS
100
AcDbLine
 10
738.7526638470872
 20
-583.9513305299099
 30
0.0
 11
738.7094176270081
 21
-583.9513305431728
 31
0.0
  0
LINE
  5
21FCF
330
18
100
AcDbEntity
  8
01
  6
CONTINUOUS
100
AcDbLine
 10
738.7094176270081
 20
-583.9513305431728
 30
0.0
 11
738.6668321907338
 21
-583.9513305572721
 31
0.0
  0
LINE
  5
21FD0
330
18
100
AcDbEntity
  8
01
  6
CONTINUOUS
100
AcDbLine
 10
738.6668321907338
 20
-583.9513305572721
 30
0.0
 11
738.6252316391935
 21
-583.9513305721007
 31
0.0
  0
LINE
  5
21FD1
330
18
100
AcDbEntity
  8
01
  6
CONTINUOUS
100
AcDbLine
 10
738.6252316391935
 20
-583.9513305721007
 30
0.0
 11
738.5849325777483
 21
-583.9513305875455
 31
0.0
  0
LINE
  5
21FD2
330
18
100
AcDbEntity
  8
01
  6
CONTINUOUS
100
AcDbLine
 10
738.5849325777483
 20
-583.9513305875455
 30
0.0
 11
738.5462417066316
 21
-583.9513306034892
 31
0.0
  0
LINE
  5
21FD3
330
18
100
AcDbEntity
  8
01
  6
CONTINUOUS
100
AcDbLine
 10
738.5462417066316
 20
-583.9513306034892
 30
0.0
 11
738.5094534867761
 21
-583.9513306198103
 31
0.0
  0
LINE
  5
21FD4
330
18
100
AcDbEntity
  8
01
  6
CONTINUOUS
100
AcDbLine
 10
738.5094534867761
 20
-583.9513306198103
 30
0.0
 11
738.4748478987876
 21
-583.9513306363847
 31
0.0
  0
LINE
  5
21FD5
330
18
100
AcDbEntity
  8
01
  6
CONTINUOUS
100
AcDbLine
 10
738.4748478987876
 20
-583.9513306363847
 30
0.0
 11
738.442688312123
 21
-583.9513306530862
 31
0.0
  0
LINE
  5
21FD6
330
18
100
AcDbEntity
  8
01
  6
CONTINUOUS
100
AcDbLine
 10
738.442688312123
 20
-583.9513306530862
 30
0.0
 11
738.4132194806895
 21
-583.9513306697875
 31
0.0
  0
LINE
  5
21FD7
330
18
100
AcDbEntity
  8
01
  6
CONTINUOUS
100
AcDbLine
 10
738.4132194806895
 20
-583.9513306697875
 30
0.0
 11
738.3866656801197
 21
-583.9513306863619
 31
0.0
  0
LINE
  5
21FD8
330
18
100
AcDbEntity
  8
01
  6
CONTINUOUS
100
AcDbLine
 10
738.3866656801197
 20
-583.9513306863619
 30
0.0
 11
738.3632290008976
 21
-583.9513307026832
 31
0.0
  0
LINE
  5
21FD9
330
18
100
AcDbEntity
  8
01
  6
CONTINUOUS
100
AcDbLine
 10
738.3632290008976
 20
-583.9513307026832
 30
0.0
 11
738.3430878103288
 21
-583.9513307186269
 31
0.0
  0
LINE
  5
21FDA
330
18
100
AcDbEntity
  8
01
  6
CONTINUOUS
100
AcDbLine
 10
738.3430878103288
 20
-583.9513307186269
 30
0.0
 11
738.3263953950565
 21
-583.9513307340717
 31
0.0
  0
LINE
  5
21FDB
330
18
100
AcDbEntity
  8
01
  6
CONTINUOUS
100
AcDbLine
 10
738.3263953950565
 20
-583.9513307340717
 30
0.0
 11
738.3132787944577
 21
-583.9513307489001
 31
0.0
  0
LINE
  5
21FDC
330
18
100
AcDbEntity
  8
01
  6
CONTINUOUS
100
AcDbLine
 10
738.3132787944577
 20
-583.9513307489001
 30
0.0
 11
738.3038378337973
 21
-583.9513307629995
 31
0.0
  0
LINE
  5
21FDD
330
18
100
AcDbEntity
  8
01
  6
CONTINUOUS
100
AcDbLine
 10
738.3038378337973
 20
-583.9513307629995
 30
0.0
 11
738.2981443644962
 21
-583.9513307762622
 31
0.0
  0
LINE
  5
21FDE
330
18
100
AcDbEntity
  8
01
  6
CONTINUOUS
100
AcDbLine
 10
738.2981443644962
 20
-583.9513307762622
 30
0.0
 11
738.2962417210775
 21
-583.9513307885877
 31
0.0
  0
LINE
  5
21FDF
330
18
100
AcDbEntity
  8
1DIM1
100
AcDbLine
 10
25.54623882586765
 20
-648.7513303512663
 30
0.0
 11
25.54623882586765
 21
-704.9813303512678
 31
0.0
1001
ACAD
1000
DSTYLE
1002
{
1070
    40
1040
3.0
1070
    45
1040
0.5
1002
}
  0
LINE
  5
21FE0
330
18
100
AcDbEntity
  8
1DIM1
100
AcDbLine
 10
725.5462379915057
 20
-651.0013303512663
 30
0.0
 11
725.5462379915057
 21
-704.9813303512678
 31
0.0
1001
ACAD
1000
DSTYLE
1002
{
1070
    40
1040
3.0
1070
    45
1040
0.5
1002
}
  0
LINE
  5
21FE1
330
18
100
AcDbEntity
  8
1DIM1
100
AcDbLine
 10
31.54623882586765
 20
-701.9813303512678
 30
0.0
 11
719.5462379915057
 21
-701.9813303512678
 31
0.0
1001
ACAD
1000
DSTYLE
1002
{
1070
    40
1040
3.0
1070
    45
1040
0.5
1002
}
  0
LINE
  5
21FE5
330
18
100
AcDbEntity
  8
1DIM
100
AcDbLine
 10
680.9606799763474
 20
-660.7513301277488
 30
0.0
 11
690.7758279968277
 21
-660.7513301277488
 31
0.0
1001
ACAD
1000
DSTYLE
1002
{
1070
    45
1040
0.5
1002
}
  0
LINE
  5
21FE6
330
18
100
AcDbEntity
  8
1DIM
100
AcDbLine
 10
680.9606799763474
 20
-640.7513305747834
 30
0.0
 11
690.7758279968277
 21
-640.7513305747834
 31
0.0
1001
ACAD
1000
DSTYLE
1002
{
1070
    45
1040
0.5
1002
}
  0
LINE
  5
21FE7
330
18
100
AcDbEntity
  8
1DIM
100
AcDbLine
 10
689.7758279968277
 20
-640.7513305747834
 30
0.0
 11
689.7758279968277
 21
-631.6846639081165
 31
0.0
1001
ACAD
1000
DSTYLE
1002
{
1070
    45
1040
0.5
1002
}
  0
LINE
  5
21FE8
330
18
100
AcDbEntity
  8
1DIM
100
AcDbLine
 10
689.7758279968277
 20
-658.7513301277488
 30
0.0
 11
689.7758279968277
 21
-642.7513305747834
 31
0.0
1001
ACAD
1000
DSTYLE
1002
{
1070
    45
1040
0.5
1002
}
  0
LINE
  5
21FEC
330
18
100
AcDbEntity
  8
1DIM
100
AcDbLine
 10
680.2488957253152
 20
-628.951331877402
 30
0.0
 11
690.775827996828
 21
-628.951331877402
 31
0.0
1001
ACAD
1000
DSTYLE
1002
{
1070
    45
1040
0.5
1002
}
  0
LINE
  5
21FED
330
18
100
AcDbEntity
  8
1DIM
100
AcDbLine
 10
680.2488957253152
 20
-618.9513302382743
 30
0.0
 11
690.775827996828
 21
-618.9513302382743
 31
0.0
1001
ACAD
1000
DSTYLE
1002
{
1070
    45
1040
0.5
1002
}
  0
LINE
  5
21FEE
330
18
100
AcDbEntity
  8
1DIM
100
AcDbLine
 10
689.775827996828
 20
-618.9513302382743
 30
0.0
 11
689.775827996828
 21
-610.3846635716073
 31
0.0
1001
ACAD
1000
DSTYLE
1002
{
1070
    45
1040
0.5
1002
}
  0
LINE
  5
21FEF
330
18
100
AcDbEntity
  8
1DIM
100
AcDbLine
 10
689.775827996828
 20
-626.951331877402
 30
0.0
 11
689.775827996828
 21
-620.9513302382743
 31
0.0
1001
ACAD
1000
DSTYLE
1002
{
1070
    45
1040
0.5
1002
}
  0
LINE
  5
21FF3
330
18
100
AcDbEntity
  8
1DIM
100
AcDbLine
 10
805.2262410768642
 20
-641.2513302924248
 30
0.0
 11
805.2262410768642
 21
-621.254085763379
 31
0.0
1001
ACAD
1000
DSTYLE
1002
{
1070
    45
1040
0.5
1002
}
  0
LINE
  5
21FF4
330
18
100
AcDbEntity
  8
1DIM
100
AcDbLine
 10
850.7262411351985
 20
-622.254085763379
 30
0.0
 11
850.7262411351985
 21
-621.254085763379
 31
0.0
1001
ACAD
1000
DSTYLE
1002
{
1070
    45
1040
0.5
1002
}
  0
LINE
  5
21FF5
330
18
100
AcDbEntity
  8
1DIM
100
AcDbLine
 10
807.2262410768642
 20
-622.254085763379
 30
0.0
 11
848.7262411351985
 21
-622.254085763379
 31
0.0
1001
ACAD
1000
DSTYLE
1002
{
1070
    45
1040
0.5
1002
}
  0
LINE
  5
21FF9
330
18
100
AcDbEntity
  8
1DIM
100
AcDbLine
 10
850.7262416153649
 20
-629.2494609787307
 30
0.0
 11
850.7262416153649
 21
-628.2494609787307
 31
0.0
1001
ACAD
1000
DSTYLE
1002
{
1070
    45
1040
0.5
1002
}
  0
LINE
  5
21FFA
330
18
100
AcDbEntity
  8
1DIM
100
AcDbLine
 10
832.7262881512629
 20
-650.4513268612362
 30
0.0
 11
832.7262881512629
 21
-628.2494609787307
 31
0.0
1001
ACAD
1000
DSTYLE
1002
{
1070
    45
1040
0.5
1002
}
  0
LINE
  5
21FFB
330
18
100
AcDbEntity
  8
1DIM
100
AcDbLine
 10
848.7262416153649
 20
-629.2494609787307
 30
0.0
 11
834.7262881512629
 21
-629.2494609787307
 31
0.0
1001
ACAD
1000
DSTYLE
1002
{
1070
    45
1040
0.5
1002
}
  0
LINE
  5
21FFF
330
18
100
AcDbEntity
  8
1DIM1
100
AcDbLine
 10
8.846240566322933
 20
-660.251330410108
 30
0.0
 11
8.846240566322933
 21
-725.9813303512674
 31
0.0
1001
ACAD
1000
DSTYLE
1002
{
1070
    40
1040
3.0
1070
    45
1040
0.5
1002
}
  0
LINE
  5
22000
330
18
100
AcDbEntity
  8
1DIM1
100
AcDbLine
 10
742.2462370854123
 20
-660.251330410108
 30
0.0
 11
742.2462370854123
 21
-725.9813303512674
 31
0.0
1001
ACAD
1000
DSTYLE
1002
{
1070
    40
1040
3.0
1070
    45
1040
0.5
1002
}
  0
LINE
  5
22001
330
18
100
AcDbEntity
  8
1DIM1
100
AcDbLine
 10
14.84624056632293
 20
-722.9813303512674
 30
0.0
 11
736.2462370854123
 21
-722.9813303512674
 31
0.0
1001
ACAD
1000
DSTYLE
1002
{
1070
    40
1040
3.0
1070
    45
1040
0.5
1002
}
  0
LINE
  5
22005
330
18
100
AcDbEntity
  8
1DIM
100
AcDbLine
 10
742.2462414723135
 20
-583.9513305175847
 30
0.0
 11
742.2462414723135
 21
-547.9513303512663
 31
0.0
1001
ACAD
1000
DSTYLE
1002
{
1070
    45
1040
0.5
1002
}
  0
LINE
  5
22006
330
18
100
AcDbEntity
  8
1DIM
100
AcDbLine
 10
712.5462413293656
 20
-583.9513298710999
 30
0.0
 11
712.5462413293656
 21
-547.9513303512663
 31
0.0
1001
ACAD
1000
DSTYLE
1002
{
1070
    45
1040
0.5
1002
}
  0
LINE
  5
22007
330
18
100
AcDbEntity
  8
1DIM
100
AcDbLine
 10
740.2462414723135
 20
-548.9513303512663
 30
0.0
 11
714.5462413293656
 21
-548.9513303512663
 31
0.0
1001
ACAD
1000
DSTYLE
1002
{
1070
    45
1040
0.5
1002
}
  0
SOLID
  5
2200B
330
18
100
AcDbEntity
  8
1DIM
100
AcDbTrace
 10
854.3808479197652
 20
-619.8654292138318
 30
0.0
 11
853.6399131930723
 21
-621.752788968063
 31
0.0
 12
853.7286807169501
 22
-619.7271455054033
 32
0.0
 13
853.7286807169501
 23
-619.7271455054033
 33
0.0
1001
ACAD
1000
DSTYLE
1002
{
1070
    45
1040
0.5
1002
}
  0
LINE
  5
2200C
330
18
100
AcDbEntity
  8
1DIM
100
AcDbLine
 10
854.0547643183576
 20
-619.7962873596175
 30
0.0
 11
856.7637571261873
 21
-607.0202613041474
 31
0.0
1001
ACAD
1000
DSTYLE
1002
{
1070
    45
1040
0.5
1002
}
  0
SOLID
  5
2200D
330
18
100
AcDbEntity
  8
1DIM
100
AcDbTrace
 10
867.5162660649304
 20
-619.8654292138318
 30
0.0
 11
866.7753313382375
 21
-621.752788968063
 31
0.0
 12
866.8640988621153
 22
-619.7271455054033
 32
0.0
 13
866.8640988621153
 23
-619.7271455054033
 33
0.0
1001
ACAD
1000
DSTYLE
1002
{
1070
    45
1040
0.5
1002
}
  0
LINE
  5
2200E
330
18
100
AcDbEntity
  8
1DIM
100
AcDbLine
 10
867.1901824635228
 20
-619.7962873596175
 30
0.0
 11
869.8991752713525
 21
-607.0202613041474
 31
0.0
1001
ACAD
1000
DSTYLE
1002
{
1070
    45
1040
0.5
1002
}
  0
TEXT
  5
2200F
330
18
100
AcDbEntity
  8
1DIM
  6
CONTINUOUS
100
AcDbText
 10
735.0098698607229
 20
-675.4469435457618
 30
0.0
 40
3.5
  1
材質：ABS樹脂
100
AcDbText
1001
ACADANNOTATIVE
1000
AnnotativeData
1002
{
1070
     1
1070
     0
1002
}
  0
TEXT
  5
22010
330
18
100
AcDbEntity
  8
1DIM
  6
CONTINUOUS
100
AcDbText
 10
735.1265365273896
 20
-681.2802768790951
 30
0.0
 40
3.5
  1
仕上げ：各種仕上げ
100
AcDbText
1001
ACADANNOTATIVE
1000
AnnotativeData
1002
{
1070
     1
1070
     0
1002
}
  0
SOLID
  5
22011
330
18
100
AcDbEntity
  8
1DIM
100
AcDbTrace
 10
725.97355569105
 20
-666.2341290988637
 30
0.0
 11
725.549739282846
 21
-664.2513303790618
 31
0.0
 12
726.5937165510828
 22
-665.9894968194568
 32
0.0
 13
726.5937165510828
 23
-665.9894968194568
 33
0.0
1001
ACAD
1000
DSTYLE
1002
{
1070
    45
1040
0.5
1002
}
  0
LINE
  5
22012
330
18
100
AcDbEntity
  8
1DIM
100
AcDbLine
 10
726.2836361210665
 20
-666.1118129591603
 30
0.0
 11
732.5432031940562
 21
-681.9802768790951
 31
0.0
1001
ACAD
1000
DSTYLE
1002
{
1070
    45
1040
0.5
1002
}
  0
LINE
  5
22013
330
18
100
AcDbEntity
  8
1DIM
100
AcDbLine
 10
732.5432031940562
 20
-681.9802768790951
 30
0.0
 11
772.2265365273895
 21
-681.9802768790951
 31
0.0
1001
ACAD
1000
DSTYLE
1002
{
1070
    45
1040
0.5
1002
}
  0
TEXT
  5
22014
330
18
100
AcDbEntity
  8
1DIM
  6
CONTINUOUS
100
AcDbText
 10
751.7063676632893
 20
-637.222383851233
 30
0.0
 40
3.5
  1
材質：亜鉛ダイキャスト
100
AcDbText
1001
ACADANNOTATIVE
1000
AnnotativeData
1002
{
1070
     1
1070
     0
1002
}
  0
TEXT
  5
22015
330
18
100
AcDbEntity
  8
1DIM
  6
CONTINUOUS
100
AcDbText
 10
751.8230343299559
 20
-643.0557171845663
 30
0.0
 40
3.5
  1
仕上げ：各種メッキ
100
AcDbText
1001
ACADANNOTATIVE
1000
AnnotativeData
1002
{
1070
     1
1070
     0
1002
}
  0
SOLID
  5
22016
330
18
100
AcDbEntity
  8
1DIM
100
AcDbTrace
 10
743.8959718244505
 20
-649.5725655732373
 30
0.0
 11
742.2462370854123
 21
-650.7513303512663
 31
0.0
 12
743.4244948835201
 22
-649.101233483713
 32
0.0
 13
743.4244948835201
 23
-649.101233483713
 33
0.0
1001
ACAD
1000
DSTYLE
1002
{
1070
    45
1040
0.5
1002
}
  0
LINE
  5
22017
330
18
100
AcDbEntity
  8
1DIM
100
AcDbLine
 10
743.6602333539853
 20
-649.3368995284752
 30
0.0
 11
749.2397009966226
 21
-643.7557171845664
 31
0.0
1001
ACAD
1000
DSTYLE
1002
{
1070
    45
1040
0.5
1002
}
  0
LINE
  5
22018
330
18
100
AcDbEntity
  8
1DIM
100
AcDbLine
 10
749.2397009966226
 20
-643.7557171845664
 30
0.0
 11
796.5063676632892
 21
-643.7557171845664
 31
0.0
1001
ACAD
1000
DSTYLE
1002
{
1070
    45
1040
0.5
1002
}
  0
TEXT
  5
22019
330
18
100
AcDbEntity
  8
1DIM
  6
CONTINUOUS
100
AcDbText
 10
625.7623640856175
 20
-671.9469432944488
 30
0.0
 40
3.5
  1
材質：ステンレス
100
AcDbText
1001
ACADANNOTATIVE
1000
AnnotativeData
1002
{
1070
     1
1070
     0
1002
}
  0
TEXT
  5
2201A
330
18
100
AcDbEntity
  8
1DIM
  6
CONTINUOUS
100
AcDbText
 10
621.2123640856174
 20
-677.7802766277822
 30
0.0
 40
3.5
  1
仕上げ：各種仕上げ
100
AcDbText
1001
ACADANNOTATIVE
1000
AnnotativeData
1002
{
1070
     1
1070
     0
1002
}
  0
SOLID
  5
2201B
330
18
100
AcDbEntity
  8
1DIM
100
AcDbTrace
 10
666.9618507285909
 20
-662.4894965681439
 30
0.0
 11
668.0058279968277
 21
-660.7513301277488
 31
0.0
 12
667.5820115886237
 22
-662.7341288475508
 32
0.0
 13
667.5820115886237
 23
-662.7341288475508
 33
0.0
1001
ACAD
1000
DSTYLE
1002
{
1070
    45
1040
0.5
1002
}
  0
LINE
  5
2201C
330
18
100
AcDbEntity
  8
1DIM
100
AcDbLine
 10
667.2719311586072
 20
-662.6118127078473
 30
0.0
 11
661.0123640856175
 21
-678.4802766277821
 31
0.0
1001
ACAD
1000
DSTYLE
1002
{
1070
    45
1040
0.5
1002
}
  0
LINE
  5
2201D
330
18
100
AcDbEntity
  8
1DIM
100
AcDbLine
 10
661.0123640856175
 20
-678.4802766277821
 30
0.0
 11
621.3290307522841
 21
-678.4802766277821
 31
0.0
1001
ACAD
1000
DSTYLE
1002
{
1070
    45
1040
0.5
1002
}
  0
LINE
  5
2201E
330
18
100
AcDbEntity
  8
1DIM
100
AcDbLine
 10
881.1570365326684
 20
-648.7513303450575
 30
0.0
 11
893.2262416153649
 21
-648.7513303450575
 31
0.0
1001
ACAD
1000
DSTYLE
1002
{
1070
    45
1040
0.5
1070
   271
1070
     0
1002
}
  0
LINE
  5
2201F
330
18
100
AcDbEntity
  8
1DIM
100
AcDbLine
 10
829.9262416153649
 20
-637.2513303234713
 30
0.0
 11
893.2262416153649
 21
-637.2513303234713
 31
0.0
1001
ACAD
1000
DSTYLE
1002
{
1070
    45
1040
0.5
1070
   271
1070
     0
1002
}
  0
LINE
  5
22020
330
18
100
AcDbEntity
  8
1DIM
100
AcDbLine
 10
892.2262416153649
 20
-646.7513303450575
 30
0.0
 11
892.2262416153649
 21
-639.2513303234713
 31
0.0
1001
ACAD
1000
DSTYLE
1002
{
1070
    45
1040
0.5
1070
   271
1070
     0
1002
}
  0
LINE
  5
22024
330
18
100
AcDbEntity
  8
1DIM
100
AcDbLine
 10
829.9262416153649
 20
-664.251330379061
 30
0.0
 11
903.2262416153649
 21
-664.251330379061
 31
0.0
1001
ACAD
1000
DSTYLE
1002
{
1070
    45
1040
0.5
1002
}
  0
LINE
  5
22025
330
18
100
AcDbEntity
  8
1DIM
100
AcDbLine
 10
829.9262416153649
 20
-637.2513303234713
 30
0.0
 11
903.2262416153649
 21
-637.2513303234713
 31
0.0
1001
ACAD
1000
DSTYLE
1002
{
1070
    45
1040
0.5
1002
}
  0
LINE
  5
22026
330
18
100
AcDbEntity
  8
1DIM
100
AcDbLine
 10
902.2262416153649
 20
-662.251330379061
 30
0.0
 11
902.2262416153649
 21
-639.2513303234713
 31
0.0
1001
ACAD
1000
DSTYLE
1002
{
1070
    45
1040
0.5
1002
}
  0
LINE
  5
2202A
330
18
100
AcDbEntity
  8
0
100
AcDbLine
 10
25.54628285826738
 20
-554.9513312694658
 30
0.0
 11
24.04628285826738
 21
-560.2513277793274
 31
0.0
  0
LINE
  5
2202B
330
18
100
AcDbEntity
  8
0
100
AcDbLine
 10
24.04628285826738
 20
-560.2513277793274
 30
0.0
 11
24.0462828582676
 21
-589.9513277792194
 31
0.0
  0
LINE
  5
2202C
330
18
100
AcDbEntity
  8
0
100
AcDbLine
 10
25.54628285826738
 20
-554.9513312694658
 30
0.0
 11
27.0462828582675
 21
-560.2513347597111
 31
0.0
  0
LINE
  5
2202D
330
18
100
AcDbEntity
  8
0
100
AcDbLine
 10
22.04623632236957
 20
-589.9513231255212
 30
0.0
 11
29.04623632236945
 21
-589.9513394130856
 31
0.0
  0
LINE
  5
2202E
330
18
100
AcDbEntity
  8
0
100
AcDbLine
 10
27.0462828582675
 20
-560.2513347597111
 30
0.0
 11
27.0462828582676
 21
-589.951334759604
 31
0.0
  0
LINE
  5
2202F
330
18
100
AcDbEntity
  8
0
100
AcDbLine
 10
22.04623632236957
 20
-589.9513231255212
 30
0.0
 11
22.04623632236945
 21
-591.0513266157166
 31
0.0
  0
ARC
  5
22030
330
18
100
AcDbEntity
  8
0
100
AcDbCircle
 10
23.54623632236945
 20
-591.0513266157166
 30
0.0
 40
1.5
100
AcDbArc
 50
180.0
 51
269.9998666844684
  0
LINE
  5
22031
330
18
100
AcDbEntity
  8
0
100
AcDbLine
 10
29.04623632236945
 20
-589.9513394130856
 30
0.0
 11
29.04623632236945
 21
-591.0513359228962
 31
0.0
  0
LINE
  5
22032
330
18
100
AcDbEntity
  8
0
100
AcDbLine
 10
23.54623283217705
 20
-592.5513266157125
 30
0.0
 11
27.54623283217705
 21
-592.5513359228921
 31
0.0
  0
ARC
  5
22033
330
18
100
AcDbEntity
  8
0
100
AcDbCircle
 10
27.54623632236945
 20
-591.0513359228962
 30
0.0
 40
1.5
100
AcDbArc
 50
269.9998666844684
 51
0.0
  0
LINE
  5
22034
330
18
100
AcDbEntity
  8
1CENTER
100
AcDbLine
 10
25.54623632236946
 20
-553.5205363520004
 30
0.0
 11
25.54623632236945
 21
-593.6216076786122
 31
0.0
  0
LINE
  5
22035
330
18
100
AcDbEntity
  8
0
100
AcDbLine
 10
24.4519125083744
 20
-557.0513287231436
 30
0.0
 11
26.41424759724982
 21
-556.2513332890926
 31
0.0
  0
LINE
  5
22036
330
18
100
AcDbEntity
  8
0
100
AcDbLine
 10
26.41424759724982
 20
-556.2513332890926
 30
0.0
 11
25.8259710222074
 21
-555.9395634328405
 31
0.0
  0
LINE
  5
22037
330
18
100
AcDbEntity
  8
0
100
AcDbLine
 10
23.54628285826738
 20
-579.4513266159336
 30
0.0
 11
27.54628285826738
 21
-578.6513359231153
 31
0.0
  0
LINE
  5
22038
330
18
100
AcDbEntity
  8
0
100
AcDbLine
 10
23.54628285826738
 20
-568.2513266159292
 30
0.0
 11
27.54628285826738
 21
-567.4513359231066
 31
0.0
  0
LINE
  5
22039
330
18
100
AcDbEntity
  8
0
100
AcDbLine
 10
23.54628285826738
 20
-565.0513266159292
 30
0.0
 11
27.54628285826738
 21
-564.2513359231066
 31
0.0
  0
LINE
  5
2203A
330
18
100
AcDbEntity
  8
0
100
AcDbLine
 10
27.54628285826738
 20
-564.2513359231066
 30
0.0
 11
27.04628285826738
 21
-564.1513347597094
 31
0.0
  0
LINE
  5
2203B
330
18
100
AcDbEntity
  8
0
100
AcDbLine
 10
24.04628285826738
 20
-563.5513277793264
 30
0.0
 11
23.54628285826738
 21
-563.4513266159291
 31
0.0
  0
LINE
  5
2203C
330
18
100
AcDbEntity
  8
0
100
AcDbLine
 10
27.54628285826738
 20
-567.4513359231066
 30
0.0
 11
27.04628285826738
 21
-567.3513347597094
 31
0.0
  0
LINE
  5
2203D
330
18
100
AcDbEntity
  8
0
100
AcDbLine
 10
27.54628285826738
 20
-565.8513359231065
 30
0.0
 11
27.04628285826738
 21
-565.7513347597094
 31
0.0
  0
LINE
  5
2203E
330
18
100
AcDbEntity
  8
0
100
AcDbLine
 10
24.04628285826738
 20
-565.1513277793263
 30
0.0
 11
23.54628285826738
 21
-565.0513266159292
 31
0.0
  0
LINE
  5
2203F
330
18
100
AcDbEntity
  8
0
100
AcDbLine
 10
24.04628285826738
 20
-566.7513277793262
 30
0.0
 11
23.54628285826738
 21
-566.6513266159291
 31
0.0
  0
LINE
  5
22040
330
18
100
AcDbEntity
  8
0
100
AcDbLine
 10
23.54628285826738
 20
-566.6513266159291
 30
0.0
 11
27.54628285826738
 21
-565.8513359231065
 31
0.0
  0
LINE
  5
22041
330
18
100
AcDbEntity
  8
0
100
AcDbLine
 10
26.86706170165662
 20
-557.8513343426982
 30
0.0
 11
26.31531223785334
 21
-557.6685702000702
 31
0.0
  0
LINE
  5
22042
330
18
100
AcDbEntity
  8
0
100
AcDbLine
 10
27.54628285826738
 20
-561.0513359231065
 30
0.0
 11
27.04628285826738
 21
-560.9513347597094
 31
0.0
  0
LINE
  5
22043
330
18
100
AcDbEntity
  8
0
100
AcDbLine
 10
27.54628285826738
 20
-562.6513359231066
 30
0.0
 11
27.04628285826738
 21
-562.5513347597096
 31
0.0
  0
LINE
  5
22044
330
18
100
AcDbEntity
  8
0
100
AcDbLine
 10
27.31987580606341
 20
-559.4513353963039
 30
0.0
 11
26.78328207079227
 21
-559.322064698674
 31
0.0
  0
LINE
  5
22045
330
18
100
AcDbEntity
  8
0
100
AcDbLine
 10
24.46719745547609
 20
-558.7640971818894
 30
0.0
 11
23.99909900032612
 21
-558.6513276695393
 31
0.0
  0
LINE
  5
22046
330
18
100
AcDbEntity
  8
0
100
AcDbLine
 10
24.04628285826738
 20
-561.9513277793262
 30
0.0
 11
23.54628285826738
 21
-561.8513266159291
 31
0.0
  0
LINE
  5
22047
330
18
100
AcDbEntity
  8
0
100
AcDbLine
 10
24.04628285826738
 20
-560.3513277793263
 30
0.0
 11
23.54628285826738
 21
-560.2513266159292
 31
0.0
  0
LINE
  5
22048
330
18
100
AcDbEntity
  8
0
100
AcDbLine
 10
24.90908434900548
 20
-557.202764519584
 30
0.0
 11
24.4519125083744
 21
-557.0513287231436
 31
0.0
  0
LINE
  5
22049
330
18
100
AcDbEntity
  8
0
100
AcDbLine
 10
23.99909900032612
 20
-558.6513276695393
 30
0.0
 11
26.86706170165662
 21
-557.8513343426982
 31
0.0
  0
LINE
  5
2204A
330
18
100
AcDbEntity
  8
0
100
AcDbLine
 10
23.54628285826738
 20
-561.8513266159291
 30
0.0
 11
27.54628285826738
 21
-561.0513359231065
 31
0.0
  0
LINE
  5
2204B
330
18
100
AcDbEntity
  8
0
100
AcDbLine
 10
23.54628285826738
 20
-560.2513266159292
 30
0.0
 11
27.31987580606341
 21
-559.4513353963039
 31
0.0
  0
LINE
  5
2204C
330
18
100
AcDbEntity
  8
0
100
AcDbLine
 10
23.54628285826738
 20
-563.4513266159291
 30
0.0
 11
27.54628285826738
 21
-562.6513359231066
 31
0.0
  0
LINE
  5
2204D
330
18
100
AcDbEntity
  8
0
100
AcDbLine
 10
23.54628285826738
 20
-576.2513266159335
 30
0.0
 11
27.54628285826738
 21
-575.4513359231153
 31
0.0
  0
LINE
  5
2204E
330
18
100
AcDbEntity
  8
0
100
AcDbLine
 10
27.54628285826738
 20
-575.4513359231153
 30
0.0
 11
27.04628285826738
 21
-575.3513347597176
 31
0.0
  0
LINE
  5
2204F
330
18
100
AcDbEntity
  8
0
100
AcDbLine
 10
24.04628285826738
 20
-574.7513277793269
 30
0.0
 11
23.54628285826738
 21
-574.6513266159292
 31
0.0
  0
LINE
  5
22050
330
18
100
AcDbEntity
  8
0
100
AcDbLine
 10
27.54628285826738
 20
-577.0513359231154
 30
0.0
 11
27.04628285826738
 21
-576.9513347597177
 31
0.0
  0
LINE
  5
22051
330
18
100
AcDbEntity
  8
0
100
AcDbLine
 10
27.54628285826738
 20
-578.6513359231153
 30
0.0
 11
27.04628285826738
 21
-578.5513347597176
 31
0.0
  0
LINE
  5
22052
330
18
100
AcDbEntity
  8
0
100
AcDbLine
 10
24.04628285826738
 20
-576.3513277793312
 30
0.0
 11
23.54628285826738
 21
-576.2513266159335
 31
0.0
  0
LINE
  5
22053
330
18
100
AcDbEntity
  8
0
100
AcDbLine
 10
24.04628285826738
 20
-577.9513277793313
 30
0.0
 11
23.54628285826738
 21
-577.8513266159337
 31
0.0
  0
LINE
  5
22054
330
18
100
AcDbEntity
  8
0
100
AcDbLine
 10
23.54628285826738
 20
-577.8513266159337
 30
0.0
 11
27.54628285826738
 21
-577.0513359231154
 31
0.0
  0
LINE
  5
22055
330
18
100
AcDbEntity
  8
0
100
AcDbLine
 10
27.54628285826738
 20
-570.6513359231109
 30
0.0
 11
27.04628285826738
 21
-570.5513347597132
 31
0.0
  0
LINE
  5
22056
330
18
100
AcDbEntity
  8
0
100
AcDbLine
 10
27.54628285826738
 20
-569.0513359231065
 30
0.0
 11
27.04628285826738
 21
-568.9513347597094
 31
0.0
  0
LINE
  5
22057
330
18
100
AcDbEntity
  8
0
100
AcDbLine
 10
27.54628285826738
 20
-573.8513359231109
 30
0.0
 11
27.04628285826738
 21
-573.7513347597132
 31
0.0
  0
LINE
  5
22058
330
18
100
AcDbEntity
  8
0
100
AcDbLine
 10
27.54628285826738
 20
-572.251335923111
 30
0.0
 11
27.04628285826738
 21
-572.1513347597133
 31
0.0
  0
LINE
  5
22059
330
18
100
AcDbEntity
  8
0
100
AcDbLine
 10
24.04628285826738
 20
-568.3513277793263
 30
0.0
 11
23.54628285826738
 21
-568.2513266159292
 31
0.0
  0
LINE
  5
2205A
330
18
100
AcDbEntity
  8
0
100
AcDbLine
 10
24.04628285826738
 20
-569.9513277793269
 30
0.0
 11
23.54628285826738
 21
-569.8513266159291
 31
0.0
  0
LINE
  5
2205B
330
18
100
AcDbEntity
  8
0
100
AcDbLine
 10
24.04628285826738
 20
-573.151327779327
 30
0.0
 11
23.54628285826738
 21
-573.0513266159293
 31
0.0
  0
LINE
  5
2205C
330
18
100
AcDbEntity
  8
0
100
AcDbLine
 10
24.04628285826738
 20
-571.5513277793268
 30
0.0
 11
23.54628285826738
 21
-571.4513266159291
 31
0.0
  0
LINE
  5
2205D
330
18
100
AcDbEntity
  8
0
100
AcDbLine
 10
23.54628285826738
 20
-571.4513266159291
 30
0.0
 11
27.54628285826738
 21
-570.6513359231109
 31
0.0
  0
LINE
  5
2205E
330
18
100
AcDbEntity
  8
0
100
AcDbLine
 10
23.54628285826738
 20
-569.8513266159291
 30
0.0
 11
27.54628285826738
 21
-569.0513359231065
 31
0.0
  0
LINE
  5
2205F
330
18
100
AcDbEntity
  8
0
100
AcDbLine
 10
23.54628285826738
 20
-573.0513266159293
 30
0.0
 11
27.54628285826738
 21
-572.251335923111
 31
0.0
  0
LINE
  5
22060
330
18
100
AcDbEntity
  8
0
100
AcDbLine
 10
23.54628285826738
 20
-574.6513266159292
 30
0.0
 11
27.54628285826738
 21
-573.8513359231109
 31
0.0
  0
LINE
  5
22061
330
18
100
AcDbEntity
  8
0
100
AcDbLine
 10
24.04628285826738
 20
-584.3513277793354
 30
0.0
 11
23.54628285826738
 21
-584.2513266159377
 31
0.0
  0
LINE
  5
22062
330
18
100
AcDbEntity
  8
0
100
AcDbLine
 10
23.54628285826738
 20
-584.2513266159377
 30
0.0
 11
27.54628285826738
 21
-583.4513359231195
 31
0.0
  0
LINE
  5
22063
330
18
100
AcDbEntity
  8
0
100
AcDbLine
 10
27.54628285826738
 20
-583.4513359231195
 30
0.0
 11
27.04628285826738
 21
-583.3513347597218
 31
0.0
  0
LINE
  5
22064
330
18
100
AcDbEntity
  8
0
100
AcDbLine
 10
24.04628285826738
 20
-582.7513277793355
 30
0.0
 11
23.54628285826738
 21
-582.6513266159378
 31
0.0
  0
LINE
  5
22065
330
18
100
AcDbEntity
  8
0
100
AcDbLine
 10
24.04628285826738
 20
-581.1513277793356
 30
0.0
 11
23.54628285826738
 21
-581.0513266159379
 31
0.0
  0
LINE
  5
22066
330
18
100
AcDbEntity
  8
0
100
AcDbLine
 10
23.54628285826738
 20
-581.0513266159379
 30
0.0
 11
27.54628285826738
 21
-580.2513359231197
 31
0.0
  0
LINE
  5
22067
330
18
100
AcDbEntity
  8
0
100
AcDbLine
 10
27.54628285826738
 20
-581.8513359231196
 30
0.0
 11
27.04628285826738
 21
-581.7513347597219
 31
0.0
  0
LINE
  5
22068
330
18
100
AcDbEntity
  8
0
100
AcDbLine
 10
27.54628285826738
 20
-580.2513359231197
 30
0.0
 11
27.04628285826738
 21
-580.151334759722
 31
0.0
  0
LINE
  5
22069
330
18
100
AcDbEntity
  8
0
100
AcDbLine
 10
23.54628285826738
 20
-582.6513266159378
 30
0.0
 11
27.54628285826738
 21
-581.8513359231196
 31
0.0
  0
LINE
  5
2206A
330
18
100
AcDbEntity
  8
0
100
AcDbLine
 10
24.04628285826738
 20
-579.5513277793312
 30
0.0
 11
23.54628285826738
 21
-579.4513266159336
 31
0.0
  0
LINE
  5
2206B
330
18
100
AcDbEntity
  8
0
100
AcDbLine
 10
24.04628285826738
 20
-585.9513277793353
 30
0.0
 11
23.54628285826738
 21
-585.8513266159376
 31
0.0
  0
LINE
  5
2206C
330
18
100
AcDbEntity
  8
0
100
AcDbLine
 10
23.54628285826738
 20
-585.8513266159376
 30
0.0
 11
27.54628285826738
 21
-585.0513359231194
 31
0.0
  0
LINE
  5
2206D
330
18
100
AcDbEntity
  8
0
100
AcDbLine
 10
27.54628285826738
 20
-585.0513359231194
 30
0.0
 11
27.04628285826738
 21
-584.9513347597217
 31
0.0
  0
LINE
  5
2206E
330
18
100
AcDbEntity
  8
0
100
AcDbLine
 10
24.04628285826738
 20
-587.5513277793352
 30
0.0
 11
23.54628285826738
 21
-587.4513266159375
 31
0.0
  0
LINE
  5
2206F
330
18
100
AcDbEntity
  8
0
100
AcDbLine
 10
23.54628285826738
 20
-587.4513266159375
 30
0.0
 11
27.54628285826738
 21
-586.6513359231193
 31
0.0
  0
LINE
  5
22070
330
18
100
AcDbEntity
  8
0
100
AcDbLine
 10
27.54628285826738
 20
-586.6513359231193
 30
0.0
 11
27.04628285826738
 21
-586.5513347597216
 31
0.0
  0
LINE
  5
22071
330
18
100
AcDbEntity
  8
0
100
AcDbLine
 10
24.04628285826738
 20
-589.1513277793351
 30
0.0
 11
23.54628285826738
 21
-589.0513266159375
 31
0.0
  0
LINE
  5
22072
330
18
100
AcDbEntity
  8
0
100
AcDbLine
 10
23.54628285826738
 20
-589.0513266159375
 30
0.0
 11
27.54628285826738
 21
-588.2513359231192
 31
0.0
  0
LINE
  5
22073
330
18
100
AcDbEntity
  8
0
100
AcDbLine
 10
27.54628285826738
 20
-588.2513359231192
 30
0.0
 11
27.04628285826738
 21
-588.1513347597215
 31
0.0
  0
LINE
  5
22074
330
18
100
AcDbEntity
  8
0
100
AcDbLine
 10
879.726241615203
 20
-648.7513768809554
 30
0.0
 11
874.4262451053413
 21
-647.2513768809554
 31
0.0
  0
LINE
  5
22075
330
18
100
AcDbEntity
  8
0
100
AcDbLine
 10
874.4262451053413
 20
-647.2513768809554
 30
0.0
 11
844.7262451054494
 21
-647.2513768809556
 31
0.0
  0
LINE
  5
22076
330
18
100
AcDbEntity
  8
0
100
AcDbLine
 10
879.726241615203
 20
-648.7513768809554
 30
0.0
 11
874.4262381249576
 21
-650.2513768809555
 31
0.0
  0
LINE
  5
22077
330
18
100
AcDbEntity
  8
0
100
AcDbLine
 10
844.7262497591475
 20
-645.2513303450576
 30
0.0
 11
844.7262334715831
 21
-652.2513303450575
 31
0.0
  0
LINE
  5
22078
330
18
100
AcDbEntity
  8
0
100
AcDbLine
 10
874.4262381249576
 20
-650.2513768809555
 30
0.0
 11
844.7262381250647
 21
-650.2513768809556
 31
0.0
  0
LINE
  5
22079
330
18
100
AcDbEntity
  8
0
100
AcDbLine
 10
844.7262497591475
 20
-645.2513303450576
 30
0.0
 11
843.6262462689522
 21
-645.2513303450575
 31
0.0
  0
ARC
  5
2207A
330
18
100
AcDbEntity
  8
0
100
AcDbCircle
 10
843.6262462689522
 20
-646.7513303450575
 30
0.0
 40
1.5
100
AcDbArc
 50
90.0
 51
179.9998666844663
  0
LINE
  5
2207B
330
18
100
AcDbEntity
  8
0
100
AcDbLine
 10
844.7262334715831
 20
-652.2513303450575
 30
0.0
 11
843.6262369617725
 21
-652.2513303450575
 31
0.0
  0
LINE
  5
2207C
330
18
100
AcDbEntity
  8
0
100
AcDbLine
 10
842.1262462689563
 20
-646.751326854865
 30
0.0
 11
842.1262369617766
 21
-650.751326854865
 31
0.0
  0
ARC
  5
2207D
330
18
100
AcDbEntity
  8
0
100
AcDbCircle
 10
843.6262369617725
 20
-650.7513303450575
 30
0.0
 40
1.5
100
AcDbArc
 50
179.9998666844663
 51
270.0
  0
LINE
  5
2207E
330
18
100
AcDbEntity
  8
1CENTER
100
AcDbLine
 10
881.1570365326684
 20
-648.7513303450575
 30
0.0
 11
841.0559652060565
 21
-648.7513303450575
 31
0.0
  0
LINE
  5
2207F
330
18
100
AcDbEntity
  8
0
100
AcDbLine
 10
877.6262441615252
 20
-647.6570065310624
 30
0.0
 11
878.4262395955761
 21
-649.6193416199378
 31
0.0
  0
LINE
  5
22080
330
18
100
AcDbEntity
  8
0
100
AcDbLine
 10
878.4262395955761
 20
-649.6193416199378
 30
0.0
 11
878.7380094518282
 21
-649.0310650448954
 31
0.0
  0
LINE
  5
22081
330
18
100
AcDbEntity
  8
0
100
AcDbLine
 10
855.2262462687352
 20
-646.7513768809554
 30
0.0
 11
856.0262369615534
 21
-650.7513768809554
 31
0.0
  0
LINE
  5
22082
330
18
100
AcDbEntity
  8
0
100
AcDbLine
 10
866.4262462687395
 20
-646.7513768809554
 30
0.0
 11
867.2262369615621
 21
-650.7513768809554
 31
0.0
  0
LINE
  5
22083
330
18
100
AcDbEntity
  8
0
100
AcDbLine
 10
869.6262462687396
 20
-646.7513768809554
 30
0.0
 11
870.4262369615622
 21
-650.7513768809554
 31
0.0
  0
LINE
  5
22084
330
18
100
AcDbEntity
  8
0
100
AcDbLine
 10
870.4262369615622
 20
-650.7513768809554
 30
0.0
 11
870.5262381249594
 21
-650.2513768809554
 31
0.0
  0
LINE
  5
22085
330
18
100
AcDbEntity
  8
0
100
AcDbLine
 10
871.1262451053424
 20
-647.2513768809554
 30
0.0
 11
871.2262462687396
 21
-646.7513768809554
 31
0.0
  0
LINE
  5
22086
330
18
100
AcDbEntity
  8
0
100
AcDbLine
 10
867.2262369615621
 20
-650.7513768809554
 30
0.0
 11
867.3262381249593
 21
-650.2513768809554
 31
0.0
  0
LINE
  5
22087
330
18
100
AcDbEntity
  8
0
100
AcDbLine
 10
868.8262369615622
 20
-650.7513768809554
 30
0.0
 11
868.9262381249594
 21
-650.2513768809554
 31
0.0
  0
LINE
  5
22088
330
18
100
AcDbEntity
  8
0
100
AcDbLine
 10
869.5262451053425
 20
-647.2513768809554
 30
0.0
 11
869.6262462687396
 21
-646.7513768809554
 31
0.0
  0
LINE
  5
22089
330
18
100
AcDbEntity
  8
0
100
AcDbLine
 10
867.9262451053426
 20
-647.2513768809554
 30
0.0
 11
868.0262462687397
 21
-646.7513768809554
 31
0.0
  0
LINE
  5
2208A
330
18
100
AcDbEntity
  8
0
100
AcDbLine
 10
868.0262462687397
 20
-646.7513768809554
 30
0.0
 11
868.8262369615622
 21
-650.7513768809554
 31
0.0
  0
LINE
  5
2208B
330
18
100
AcDbEntity
  8
0
100
AcDbLine
 10
876.8262385419705
 20
-650.0721557243446
 30
0.0
 11
877.0090026845985
 21
-649.5204062605413
 31
0.0
  0
LINE
  5
2208C
330
18
100
AcDbEntity
  8
0
100
AcDbLine
 10
873.6262369615622
 20
-650.7513768809554
 30
0.0
 11
873.7262381249593
 21
-650.2513768809554
 31
0.0
  0
LINE
  5
2208D
330
18
100
AcDbEntity
  8
0
100
AcDbLine
 10
872.0262369615622
 20
-650.7513768809554
 30
0.0
 11
872.1262381249592
 21
-650.2513768809554
 31
0.0
  0
LINE
  5
2208E
330
18
100
AcDbEntity
  8
0
100
AcDbLine
 10
875.2262374883649
 20
-650.5249698287514
 30
0.0
 11
875.3555081859947
 21
-649.9883760934803
 31
0.0
  0
LINE
  5
2208F
330
18
100
AcDbEntity
  8
0
100
AcDbLine
 10
875.9134757027794
 20
-647.6722914781641
 30
0.0
 11
876.0262452151294
 21
-647.2041930230141
 31
0.0
  0
LINE
  5
22090
330
18
100
AcDbEntity
  8
0
100
AcDbLine
 10
872.7262451053425
 20
-647.2513768809554
 30
0.0
 11
872.8262462687396
 21
-646.7513768809554
 31
0.0
  0
LINE
  5
22091
330
18
100
AcDbEntity
  8
0
100
AcDbLine
 10
874.3262451053424
 20
-647.2513768809554
 30
0.0
 11
874.4262462687395
 21
-646.7513768809554
 31
0.0
  0
LINE
  5
22092
330
18
100
AcDbEntity
  8
0
100
AcDbLine
 10
877.4748083650848
 20
-648.1141783716935
 30
0.0
 11
877.6262441615252
 21
-647.6570065310624
 31
0.0
  0
LINE
  5
22093
330
18
100
AcDbEntity
  8
0
100
AcDbLine
 10
876.0262452151294
 20
-647.2041930230141
 30
0.0
 11
876.8262385419705
 21
-650.0721557243446
 31
0.0
  0
LINE
  5
22094
330
18
100
AcDbEntity
  8
0
100
AcDbLine
 10
872.8262462687396
 20
-646.7513768809554
 30
0.0
 11
873.6262369615622
 21
-650.7513768809554
 31
0.0
  0
LINE
  5
22095
330
18
100
AcDbEntity
  8
0
100
AcDbLine
 10
874.4262462687395
 20
-646.7513768809554
 30
0.0
 11
875.2262374883649
 21
-650.5249698287514
 31
0.0
  0
LINE
  5
22096
330
18
100
AcDbEntity
  8
0
100
AcDbLine
 10
871.2262462687396
 20
-646.7513768809554
 30
0.0
 11
872.0262369615622
 21
-650.7513768809554
 31
0.0
  0
LINE
  5
22097
330
18
100
AcDbEntity
  8
0
100
AcDbLine
 10
858.4262462687352
 20
-646.7513768809554
 30
0.0
 11
859.2262369615535
 21
-650.7513768809554
 31
0.0
  0
LINE
  5
22098
330
18
100
AcDbEntity
  8
0
100
AcDbLine
 10
859.2262369615535
 20
-650.7513768809554
 30
0.0
 11
859.3262381249511
 21
-650.2513768809554
 31
0.0
  0
LINE
  5
22099
330
18
100
AcDbEntity
  8
0
100
AcDbLine
 10
859.9262451053419
 20
-647.2513768809554
 30
0.0
 11
860.0262462687396
 21
-646.7513768809554
 31
0.0
  0
LINE
  5
2209A
330
18
100
AcDbEntity
  8
0
100
AcDbLine
 10
857.6262369615533
 20
-650.7513768809554
 30
0.0
 11
857.726238124951
 21
-650.2513768809554
 31
0.0
  0
LINE
  5
2209B
330
18
100
AcDbEntity
  8
0
100
AcDbLine
 10
856.0262369615534
 20
-650.7513768809554
 30
0.0
 11
856.1262381249511
 21
-650.2513768809554
 31
0.0
  0
LINE
  5
2209C
330
18
100
AcDbEntity
  8
0
100
AcDbLine
 10
858.3262451053375
 20
-647.2513768809554
 30
0.0
 11
858.4262462687352
 21
-646.7513768809554
 31
0.0
  0
LINE
  5
2209D
330
18
100
AcDbEntity
  8
0
100
AcDbLine
 10
856.7262451053374
 20
-647.2513768809554
 30
0.0
 11
856.8262462687351
 21
-646.7513768809554
 31
0.0
  0
LINE
  5
2209E
330
18
100
AcDbEntity
  8
0
100
AcDbLine
 10
856.8262462687351
 20
-646.7513768809554
 30
0.0
 11
857.6262369615533
 21
-650.7513768809554
 31
0.0
  0
LINE
  5
2209F
330
18
100
AcDbEntity
  8
0
100
AcDbLine
 10
864.0262369615579
 20
-650.7513768809554
 30
0.0
 11
864.1262381249555
 21
-650.2513768809554
 31
0.0
  0
LINE
  5
220A0
330
18
100
AcDbEntity
  8
0
100
AcDbLine
 10
865.6262369615622
 20
-650.7513768809554
 30
0.0
 11
865.7262381249593
 21
-650.2513768809554
 31
0.0
  0
LINE
  5
220A1
330
18
100
AcDbEntity
  8
0
100
AcDbLine
 10
860.8262369615578
 20
-650.7513768809554
 30
0.0
 11
860.9262381249555
 21
-650.2513768809554
 31
0.0
  0
LINE
  5
220A2
330
18
100
AcDbEntity
  8
0
100
AcDbLine
 10
862.4262369615577
 20
-650.7513768809554
 30
0.0
 11
862.5262381249554
 21
-650.2513768809554
 31
0.0
  0
LINE
  5
220A3
330
18
100
AcDbEntity
  8
0
100
AcDbLine
 10
866.3262451053424
 20
-647.2513768809554
 30
0.0
 11
866.4262462687395
 21
-646.7513768809554
 31
0.0
  0
LINE
  5
220A4
330
18
100
AcDbEntity
  8
0
100
AcDbLine
 10
864.7262451053418
 20
-647.2513768809554
 30
0.0
 11
864.8262462687396
 21
-646.7513768809554
 31
0.0
  0
LINE
  5
220A5
330
18
100
AcDbEntity
  8
0
100
AcDbLine
 10
861.5262451053418
 20
-647.2513768809554
 30
0.0
 11
861.6262462687395
 21
-646.7513768809554
 31
0.0
  0
LINE
  5
220A6
330
18
100
AcDbEntity
  8
0
100
AcDbLine
 10
863.1262451053419
 20
-647.2513768809554
 30
0.0
 11
863.2262462687396
 21
-646.7513768809554
 31
0.0
  0
LINE
  5
220A7
330
18
100
AcDbEntity
  8
0
100
AcDbLine
 10
863.2262462687396
 20
-646.7513768809554
 30
0.0
 11
864.0262369615579
 21
-650.7513768809554
 31
0.0
  0
LINE
  5
220A8
330
18
100
AcDbEntity
  8
0
100
AcDbLine
 10
864.8262462687396
 20
-646.7513768809554
 30
0.0
 11
865.6262369615622
 21
-650.7513768809554
 31
0.0
  0
LINE
  5
220A9
330
18
100
AcDbEntity
  8
0
100
AcDbLine
 10
861.6262462687395
 20
-646.7513768809554
 30
0.0
 11
862.4262369615577
 21
-650.7513768809554
 31
0.0
  0
LINE
  5
220AA
330
18
100
AcDbEntity
  8
0
100
AcDbLine
 10
860.0262462687396
 20
-646.7513768809554
 30
0.0
 11
860.8262369615578
 21
-650.7513768809554
 31
0.0
  0
LINE
  5
220AB
330
18
100
AcDbEntity
  8
0
100
AcDbLine
 10
850.3262451053333
 20
-647.2513768809554
 30
0.0
 11
850.426246268731
 21
-646.7513768809554
 31
0.0
  0
LINE
  5
220AC
330
18
100
AcDbEntity
  8
0
100
AcDbLine
 10
850.426246268731
 20
-646.7513768809554
 30
0.0
 11
851.2262369615493
 21
-650.7513768809554
 31
0.0
  0
LINE
  5
220AD
330
18
100
AcDbEntity
  8
0
100
AcDbLine
 10
851.2262369615493
 20
-650.7513768809554
 30
0.0
 11
851.3262381249469
 21
-650.2513768809554
 31
0.0
  0
LINE
  5
220AE
330
18
100
AcDbEntity
  8
0
100
AcDbLine
 10
851.9262451053332
 20
-647.2513768809554
 30
0.0
 11
852.0262462687309
 21
-646.7513768809554
 31
0.0
  0
LINE
  5
220AF
330
18
100
AcDbEntity
  8
0
100
AcDbLine
 10
853.5262451053331
 20
-647.2513768809554
 30
0.0
 11
853.6262462687308
 21
-646.7513768809554
 31
0.0
  0
LINE
  5
220B0
330
18
100
AcDbEntity
  8
0
100
AcDbLine
 10
853.6262462687308
 20
-646.7513768809554
 30
0.0
 11
854.4262369615491
 21
-650.7513768809554
 31
0.0
  0
LINE
  5
220B1
330
18
100
AcDbEntity
  8
0
100
AcDbLine
 10
852.8262369615492
 20
-650.7513768809554
 30
0.0
 11
852.9262381249468
 21
-650.2513768809554
 31
0.0
  0
LINE
  5
220B2
330
18
100
AcDbEntity
  8
0
100
AcDbLine
 10
854.4262369615491
 20
-650.7513768809554
 30
0.0
 11
854.5262381249468
 21
-650.2513768809554
 31
0.0
  0
LINE
  5
220B3
330
18
100
AcDbEntity
  8
0
100
AcDbLine
 10
852.0262462687309
 20
-646.7513768809554
 30
0.0
 11
852.8262369615492
 21
-650.7513768809554
 31
0.0
  0
LINE
  5
220B4
330
18
100
AcDbEntity
  8
0
100
AcDbLine
 10
855.1262451053375
 20
-647.2513768809554
 30
0.0
 11
855.2262462687352
 21
-646.7513768809554
 31
0.0
  0
LINE
  5
220B5
330
18
100
AcDbEntity
  8
0
100
AcDbLine
 10
848.7262451053334
 20
-647.2513768809554
 30
0.0
 11
848.8262462687311
 21
-646.7513768809554
 31
0.0
  0
LINE
  5
220B6
330
18
100
AcDbEntity
  8
0
100
AcDbLine
 10
848.8262462687311
 20
-646.7513768809554
 30
0.0
 11
849.6262369615494
 21
-650.7513768809554
 31
0.0
  0
LINE
  5
220B7
330
18
100
AcDbEntity
  8
0
100
AcDbLine
 10
849.6262369615494
 20
-650.7513768809554
 30
0.0
 11
849.726238124947
 21
-650.2513768809554
 31
0.0
  0
LINE
  5
220B8
330
18
100
AcDbEntity
  8
0
100
AcDbLine
 10
847.1262451053335
 20
-647.2513768809554
 30
0.0
 11
847.2262462687312
 21
-646.7513768809554
 31
0.0
  0
LINE
  5
220B9
330
18
100
AcDbEntity
  8
0
100
AcDbLine
 10
847.2262462687312
 20
-646.7513768809554
 30
0.0
 11
848.0262369615494
 21
-650.7513768809554
 31
0.0
  0
LINE
  5
220BA
330
18
100
AcDbEntity
  8
0
100
AcDbLine
 10
848.0262369615494
 20
-650.7513768809554
 30
0.0
 11
848.1262381249471
 21
-650.2513768809554
 31
0.0
  0
LINE
  5
220BB
330
18
100
AcDbEntity
  8
0
100
AcDbLine
 10
845.5262451053336
 20
-647.2513768809554
 30
0.0
 11
845.6262462687313
 21
-646.7513768809554
 31
0.0
  0
LINE
  5
220BC
330
18
100
AcDbEntity
  8
0
100
AcDbLine
 10
845.6262462687313
 20
-646.7513768809554
 30
0.0
 11
846.4262369615495
 21
-650.7513768809554
 31
0.0
  0
LINE
  5
220BD
330
18
100
AcDbEntity
  8
0
100
AcDbLine
 10
846.4262369615495
 20
-650.7513768809554
 30
0.0
 11
846.5262381249472
 21
-650.2513768809554
 31
0.0
  0
LINE
  5
220BE
330
18
100
AcDbEntity
  8
0
100
AcDbLine
 10
725.5462878652634
 20
-554.9513312694658
 30
0.0
 11
724.0462878652634
 21
-560.2513277793274
 31
0.0
  0
LINE
  5
220BF
330
18
100
AcDbEntity
  8
0
100
AcDbLine
 10
724.0462878652634
 20
-560.2513277793274
 30
0.0
 11
724.0462878652636
 21
-589.9513277792194
 31
0.0
  0
LINE
  5
220C0
330
18
100
AcDbEntity
  8
0
100
AcDbLine
 10
725.5462878652634
 20
-554.9513312694658
 30
0.0
 11
727.0462878652635
 21
-560.2513347597111
 31
0.0
  0
LINE
  5
220C1
330
18
100
AcDbEntity
  8
0
100
AcDbLine
 10
722.0462413293656
 20
-589.9513231255212
 30
0.0
 11
729.0462413293654
 21
-589.9513394130856
 31
0.0
  0
LINE
  5
220C2
330
18
100
AcDbEntity
  8
0
100
AcDbLine
 10
727.0462878652635
 20
-560.2513347597111
 30
0.0
 11
727.0462878652636
 21
-589.951334759604
 31
0.0
  0
LINE
  5
220C3
330
18
100
AcDbEntity
  8
0
100
AcDbLine
 10
722.0462413293656
 20
-589.9513231255212
 30
0.0
 11
722.0462413293654
 21
-591.0513266157166
 31
0.0
  0
ARC
  5
220C4
330
18
100
AcDbEntity
  8
0
100
AcDbCircle
 10
723.5462413293654
 20
-591.0513266157166
 30
0.0
 40
1.5
100
AcDbArc
 50
180.0
 51
269.9998666844662
  0
LINE
  5
220C5
330
18
100
AcDbEntity
  8
0
100
AcDbLine
 10
729.0462413293654
 20
-589.9513394130856
 30
0.0
 11
729.0462413293654
 21
-591.0513359228962
 31
0.0
  0
LINE
  5
220C6
330
18
100
AcDbEntity
  8
0
100
AcDbLine
 10
723.546237839173
 20
-592.5513266157125
 30
0.0
 11
727.546237839173
 21
-592.5513359228921
 31
0.0
  0
ARC
  5
220C7
330
18
100
AcDbEntity
  8
0
100
AcDbCircle
 10
727.5462413293654
 20
-591.0513359228962
 30
0.0
 40
1.5
100
AcDbArc
 50
269.9998666844662
 51
0.0
  0
LINE
  5
220C8
330
18
100
AcDbEntity
  8
1CENTER
100
AcDbLine
 10
725.5462413293654
 20
-553.5205363520004
 30
0.0
 11
725.5462413293654
 21
-593.6216076786122
 31
0.0
  0
LINE
  5
220C9
330
18
100
AcDbEntity
  8
0
100
AcDbLine
 10
724.4519175153704
 20
-557.0513287231436
 30
0.0
 11
726.4142526042458
 21
-556.2513332890926
 31
0.0
  0
LINE
  5
220CA
330
18
100
AcDbEntity
  8
0
100
AcDbLine
 10
726.4142526042458
 20
-556.2513332890926
 30
0.0
 11
725.8259760292034
 21
-555.9395634328405
 31
0.0
  0
LINE
  5
220CB
330
18
100
AcDbEntity
  8
0
100
AcDbLine
 10
723.5462878652634
 20
-579.4513266159336
 30
0.0
 11
727.5462878652634
 21
-578.6513359231153
 31
0.0
  0
LINE
  5
220CC
330
18
100
AcDbEntity
  8
0
100
AcDbLine
 10
723.5462878652634
 20
-568.2513266159292
 30
0.0
 11
727.5462878652634
 21
-567.4513359231066
 31
0.0
  0
LINE
  5
220CD
330
18
100
AcDbEntity
  8
0
100
AcDbLine
 10
723.5462878652634
 20
-565.0513266159292
 30
0.0
 11
727.5462878652634
 21
-564.2513359231066
 31
0.0
  0
LINE
  5
220CE
330
18
100
AcDbEntity
  8
0
100
AcDbLine
 10
727.5462878652634
 20
-564.2513359231066
 30
0.0
 11
727.0462878652634
 21
-564.1513347597094
 31
0.0
  0
LINE
  5
220CF
330
18
100
AcDbEntity
  8
0
100
AcDbLine
 10
724.0462878652634
 20
-563.5513277793264
 30
0.0
 11
723.5462878652634
 21
-563.4513266159291
 31
0.0
  0
LINE
  5
220D0
330
18
100
AcDbEntity
  8
0
100
AcDbLine
 10
727.5462878652634
 20
-567.4513359231066
 30
0.0
 11
727.0462878652634
 21
-567.3513347597094
 31
0.0
  0
LINE
  5
220D1
330
18
100
AcDbEntity
  8
0
100
AcDbLine
 10
727.5462878652634
 20
-565.8513359231065
 30
0.0
 11
727.0462878652634
 21
-565.7513347597094
 31
0.0
  0
LINE
  5
220D2
330
18
100
AcDbEntity
  8
0
100
AcDbLine
 10
724.0462878652634
 20
-565.1513277793263
 30
0.0
 11
723.5462878652634
 21
-565.0513266159292
 31
0.0
  0
LINE
  5
220D3
330
18
100
AcDbEntity
  8
0
100
AcDbLine
 10
724.0462878652634
 20
-566.7513277793262
 30
0.0
 11
723.5462878652634
 21
-566.6513266159291
 31
0.0
  0
LINE
  5
220D4
330
18
100
AcDbEntity
  8
0
100
AcDbLine
 10
723.5462878652634
 20
-566.6513266159291
 30
0.0
 11
727.5462878652634
 21
-565.8513359231065
 31
0.0
  0
LINE
  5
220D5
330
18
100
AcDbEntity
  8
0
100
AcDbLine
 10
726.8670667086526
 20
-557.8513343426982
 30
0.0
 11
726.3153172448493
 21
-557.6685702000702
 31
0.0
  0
LINE
  5
220D6
330
18
100
AcDbEntity
  8
0
100
AcDbLine
 10
727.5462878652634
 20
-561.0513359231065
 30
0.0
 11
727.0462878652634
 21
-560.9513347597094
 31
0.0
  0
LINE
  5
220D7
330
18
100
AcDbEntity
  8
0
100
AcDbLine
 10
727.5462878652634
 20
-562.6513359231066
 30
0.0
 11
727.0462878652634
 21
-562.5513347597096
 31
0.0
  0
LINE
  5
220D8
330
18
100
AcDbEntity
  8
0
100
AcDbLine
 10
727.3198808130594
 20
-559.4513353963039
 30
0.0
 11
726.7832870777883
 21
-559.322064698674
 31
0.0
  0
LINE
  5
220D9
330
18
100
AcDbEntity
  8
0
100
AcDbLine
 10
724.4672024624721
 20
-558.7640971818894
 30
0.0
 11
723.9991040073221
 21
-558.6513276695393
 31
0.0
  0
LINE
  5
220DA
330
18
100
AcDbEntity
  8
0
100
AcDbLine
 10
724.0462878652634
 20
-561.9513277793262
 30
0.0
 11
723.5462878652634
 21
-561.8513266159291
 31
0.0
  0
LINE
  5
220DB
330
18
100
AcDbEntity
  8
0
100
AcDbLine
 10
724.0462878652634
 20
-560.3513277793263
 30
0.0
 11
723.5462878652634
 21
-560.2513266159292
 31
0.0
  0
LINE
  5
220DC
330
18
100
AcDbEntity
  8
0
100
AcDbLine
 10
724.9090893560015
 20
-557.202764519584
 30
0.0
 11
724.4519175153704
 21
-557.0513287231436
 31
0.0
  0
LINE
  5
220DD
330
18
100
AcDbEntity
  8
0
100
AcDbLine
 10
723.9991040073221
 20
-558.6513276695393
 30
0.0
 11
726.8670667086526
 21
-557.8513343426982
 31
0.0
  0
LINE
  5
220DE
330
18
100
AcDbEntity
  8
0
100
AcDbLine
 10
723.5462878652634
 20
-561.8513266159291
 30
0.0
 11
727.5462878652634
 21
-561.0513359231065
 31
0.0
  0
LINE
  5
220DF
330
18
100
AcDbEntity
  8
0
100
AcDbLine
 10
723.5462878652634
 20
-560.2513266159292
 30
0.0
 11
727.3198808130594
 21
-559.4513353963039
 31
0.0
  0
LINE
  5
220E0
330
18
100
AcDbEntity
  8
0
100
AcDbLine
 10
723.5462878652634
 20
-563.4513266159291
 30
0.0
 11
727.5462878652634
 21
-562.6513359231066
 31
0.0
  0
LINE
  5
220E1
330
18
100
AcDbEntity
  8
0
100
AcDbLine
 10
723.5462878652634
 20
-576.2513266159335
 30
0.0
 11
727.5462878652634
 21
-575.4513359231153
 31
0.0
  0
LINE
  5
220E2
330
18
100
AcDbEntity
  8
0
100
AcDbLine
 10
727.5462878652634
 20
-575.4513359231153
 30
0.0
 11
727.0462878652634
 21
-575.3513347597176
 31
0.0
  0
LINE
  5
220E3
330
18
100
AcDbEntity
  8
0
100
AcDbLine
 10
724.0462878652634
 20
-574.7513277793269
 30
0.0
 11
723.5462878652634
 21
-574.6513266159292
 31
0.0
  0
LINE
  5
220E4
330
18
100
AcDbEntity
  8
0
100
AcDbLine
 10
727.5462878652634
 20
-577.0513359231154
 30
0.0
 11
727.0462878652634
 21
-576.9513347597177
 31
0.0
  0
LINE
  5
220E5
330
18
100
AcDbEntity
  8
0
100
AcDbLine
 10
727.5462878652634
 20
-578.6513359231153
 30
0.0
 11
727.0462878652634
 21
-578.5513347597176
 31
0.0
  0
LINE
  5
220E6
330
18
100
AcDbEntity
  8
0
100
AcDbLine
 10
724.0462878652634
 20
-576.3513277793312
 30
0.0
 11
723.5462878652634
 21
-576.2513266159335
 31
0.0
  0
LINE
  5
220E7
330
18
100
AcDbEntity
  8
0
100
AcDbLine
 10
724.0462878652634
 20
-577.9513277793313
 30
0.0
 11
723.5462878652634
 21
-577.8513266159337
 31
0.0
  0
LINE
  5
220E8
330
18
100
AcDbEntity
  8
0
100
AcDbLine
 10
723.5462878652634
 20
-577.8513266159337
 30
0.0
 11
727.5462878652634
 21
-577.0513359231154
 31
0.0
  0
LINE
  5
220E9
330
18
100
AcDbEntity
  8
0
100
AcDbLine
 10
727.5462878652634
 20
-570.6513359231109
 30
0.0
 11
727.0462878652634
 21
-570.5513347597132
 31
0.0
  0
LINE
  5
220EA
330
18
100
AcDbEntity
  8
0
100
AcDbLine
 10
727.5462878652634
 20
-569.0513359231065
 30
0.0
 11
727.0462878652634
 21
-568.9513347597094
 31
0.0
  0
LINE
  5
220EB
330
18
100
AcDbEntity
  8
0
100
AcDbLine
 10
727.5462878652634
 20
-573.8513359231109
 30
0.0
 11
727.0462878652634
 21
-573.7513347597132
 31
0.0
  0
LINE
  5
220EC
330
18
100
AcDbEntity
  8
0
100
AcDbLine
 10
727.5462878652634
 20
-572.251335923111
 30
0.0
 11
727.0462878652634
 21
-572.1513347597133
 31
0.0
  0
LINE
  5
220ED
330
18
100
AcDbEntity
  8
0
100
AcDbLine
 10
724.0462878652634
 20
-568.3513277793263
 30
0.0
 11
723.5462878652634
 21
-568.2513266159292
 31
0.0
  0
LINE
  5
220EE
330
18
100
AcDbEntity
  8
0
100
AcDbLine
 10
724.0462878652634
 20
-569.9513277793269
 30
0.0
 11
723.5462878652634
 21
-569.8513266159291
 31
0.0
  0
LINE
  5
220EF
330
18
100
AcDbEntity
  8
0
100
AcDbLine
 10
724.0462878652634
 20
-573.151327779327
 30
0.0
 11
723.5462878652634
 21
-573.0513266159293
 31
0.0
  0
LINE
  5
220F0
330
18
100
AcDbEntity
  8
0
100
AcDbLine
 10
724.0462878652634
 20
-571.5513277793268
 30
0.0
 11
723.5462878652634
 21
-571.4513266159291
 31
0.0
  0
LINE
  5
220F1
330
18
100
AcDbEntity
  8
0
100
AcDbLine
 10
723.5462878652634
 20
-571.4513266159291
 30
0.0
 11
727.5462878652634
 21
-570.6513359231109
 31
0.0
  0
LINE
  5
220F2
330
18
100
AcDbEntity
  8
0
100
AcDbLine
 10
723.5462878652634
 20
-569.8513266159291
 30
0.0
 11
727.5462878652634
 21
-569.0513359231065
 31
0.0
  0
LINE
  5
220F3
330
18
100
AcDbEntity
  8
0
100
AcDbLine
 10
723.5462878652634
 20
-573.0513266159293
 30
0.0
 11
727.5462878652634
 21
-572.251335923111
 31
0.0
  0
LINE
  5
220F4
330
18
100
AcDbEntity
  8
0
100
AcDbLine
 10
723.5462878652634
 20
-574.6513266159292
 30
0.0
 11
727.5462878652634
 21
-573.8513359231109
 31
0.0
  0
LINE
  5
220F5
330
18
100
AcDbEntity
  8
0
100
AcDbLine
 10
724.0462878652634
 20
-584.3513277793354
 30
0.0
 11
723.5462878652634
 21
-584.2513266159377
 31
0.0
  0
LINE
  5
220F6
330
18
100
AcDbEntity
  8
0
100
AcDbLine
 10
723.5462878652634
 20
-584.2513266159377
 30
0.0
 11
727.5462878652634
 21
-583.4513359231195
 31
0.0
  0
LINE
  5
220F7
330
18
100
AcDbEntity
  8
0
100
AcDbLine
 10
727.5462878652634
 20
-583.4513359231195
 30
0.0
 11
727.0462878652634
 21
-583.3513347597218
 31
0.0
  0
LINE
  5
220F8
330
18
100
AcDbEntity
  8
0
100
AcDbLine
 10
724.0462878652634
 20
-582.7513277793355
 30
0.0
 11
723.5462878652634
 21
-582.6513266159378
 31
0.0
  0
LINE
  5
220F9
330
18
100
AcDbEntity
  8
0
100
AcDbLine
 10
724.0462878652634
 20
-581.1513277793356
 30
0.0
 11
723.5462878652634
 21
-581.0513266159379
 31
0.0
  0
LINE
  5
220FA
330
18
100
AcDbEntity
  8
0
100
AcDbLine
 10
723.5462878652634
 20
-581.0513266159379
 30
0.0
 11
727.5462878652634
 21
-580.2513359231197
 31
0.0
  0
LINE
  5
220FB
330
18
100
AcDbEntity
  8
0
100
AcDbLine
 10
727.5462878652634
 20
-581.8513359231196
 30
0.0
 11
727.0462878652634
 21
-581.7513347597219
 31
0.0
  0
LINE
  5
220FC
330
18
100
AcDbEntity
  8
0
100
AcDbLine
 10
727.5462878652634
 20
-580.2513359231197
 30
0.0
 11
727.0462878652634
 21
-580.151334759722
 31
0.0
  0
LINE
  5
220FD
330
18
100
AcDbEntity
  8
0
100
AcDbLine
 10
723.5462878652634
 20
-582.6513266159378
 30
0.0
 11
727.5462878652634
 21
-581.8513359231196
 31
0.0
  0
LINE
  5
220FE
330
18
100
AcDbEntity
  8
0
100
AcDbLine
 10
724.0462878652634
 20
-579.5513277793312
 30
0.0
 11
723.5462878652634
 21
-579.4513266159336
 31
0.0
  0
LINE
  5
220FF
330
18
100
AcDbEntity
  8
0
100
AcDbLine
 10
724.0462878652634
 20
-585.9513277793353
 30
0.0
 11
723.5462878652634
 21
-585.8513266159376
 31
0.0
  0
LINE
  5
22100
330
18
100
AcDbEntity
  8
0
100
AcDbLine
 10
723.5462878652634
 20
-585.8513266159376
 30
0.0
 11
727.5462878652634
 21
-585.0513359231194
 31
0.0
  0
LINE
  5
22101
330
18
100
AcDbEntity
  8
0
100
AcDbLine
 10
727.5462878652634
 20
-585.0513359231194
 30
0.0
 11
727.0462878652634
 21
-584.9513347597217
 31
0.0
  0
LINE
  5
22102
330
18
100
AcDbEntity
  8
0
100
AcDbLine
 10
724.0462878652634
 20
-587.5513277793352
 30
0.0
 11
723.5462878652634
 21
-587.4513266159375
 31
0.0
  0
LINE
  5
22103
330
18
100
AcDbEntity
  8
0
100
AcDbLine
 10
723.5462878652634
 20
-587.4513266159375
 30
0.0
 11
727.5462878652634
 21
-586.6513359231193
 31
0.0
  0
LINE
  5
22104
330
18
100
AcDbEntity
  8
0
100
AcDbLine
 10
727.5462878652634
 20
-586.6513359231193
 30
0.0
 11
727.0462878652634
 21
-586.5513347597216
 31
0.0
  0
LINE
  5
22105
330
18
100
AcDbEntity
  8
0
100
AcDbLine
 10
724.0462878652634
 20
-589.1513277793351
 30
0.0
 11
723.5462878652634
 21
-589.0513266159375
 31
0.0
  0
LINE
  5
22106
330
18
100
AcDbEntity
  8
0
100
AcDbLine
 10
723.5462878652634
 20
-589.0513266159375
 30
0.0
 11
727.5462878652634
 21
-588.2513359231192
 31
0.0
  0
LINE
  5
22107
330
18
100
AcDbEntity
  8
0
100
AcDbLine
 10
727.5462878652634
 20
-588.2513359231192
 30
0.0
 11
727.0462878652634
 21
-588.1513347597215
 31
0.0
  0
LINE
  5
22108
330
18
100
AcDbEntity
  8
0
  6
BYBLOCK
100
AcDbLine
 10
31.54623882586765
 20
-703.5890254912679
 30
0.0
 11
25.54623882586765
 21
-701.9813303512678
 31
0.0
  0
LINE
  5
22109
330
18
100
AcDbEntity
  8
0
  6
BYBLOCK
100
AcDbLine
 10
25.54623882586765
 20
-701.9813303512678
 30
0.0
 11
31.54623882586765
 21
-700.3736352112678
 31
0.0
  0
LINE
  5
2210A
330
18
100
AcDbEntity
  8
0
  6
BYBLOCK
100
AcDbLine
 10
25.54623882586765
 20
-701.9813303512678
 30
0.0
 11
31.54623882586765
 21
-701.9813303512678
 31
0.0
  0
LINE
  5
2210B
330
18
100
AcDbEntity
  8
0
  6
BYBLOCK
100
AcDbLine
 10
719.5462379915057
 20
-700.3736352112678
 30
0.0
 11
725.5462379915057
 21
-701.9813303512678
 31
0.0
  0
LINE
  5
2210C
330
18
100
AcDbEntity
  8
0
  6
BYBLOCK
100
AcDbLine
 10
725.5462379915057
 20
-701.9813303512678
 30
0.0
 11
719.5462379915057
 21
-703.5890254912679
 31
0.0
  0
LINE
  5
2210D
330
18
100
AcDbEntity
  8
0
  6
BYBLOCK
100
AcDbLine
 10
725.5462379915057
 20
-701.9813303512678
 30
0.0
 11
719.5462379915057
 21
-701.9813303512678
 31
0.0
  0
TEXT
  5
2210E
330
18
100
AcDbEntity
  8
1DIM1
  6
CONTINUOUS
100
AcDbText
 10
357.8274884086867
 20
-699.8813303512678
 30
0.0
 40
10.5
  1
P700
100
AcDbText
1001
ACAD
1000
DSTYLE
1002
{
1070
    40
1040
3.0
1070
    45
1040
0.5
1002
}
  0
LINE
  5
2210F
330
18
100
AcDbEntity
  8
0
  6
BYBLOCK
100
AcDbLine
 10
690.3117263768278
 20
-658.7513301277488
 30
0.0
 11
689.7758279968277
 21
-660.7513301277488
 31
0.0
  0
LINE
  5
22110
330
18
100
AcDbEntity
  8
0
  6
BYBLOCK
100
AcDbLine
 10
689.7758279968277
 20
-660.7513301277488
 30
0.0
 11
689.2399296168277
 21
-658.7513301277488
 31
0.0
  0
LINE
  5
22111
330
18
100
AcDbEntity
  8
0
  6
BYBLOCK
100
AcDbLine
 10
689.7758279968277
 20
-660.7513301277488
 30
0.0
 11
689.7758279968277
 21
-658.7513301277488
 31
0.0
  0
LINE
  5
22112
330
18
100
AcDbEntity
  8
0
  6
BYBLOCK
100
AcDbLine
 10
689.2399296168277
 20
-642.7513305747834
 30
0.0
 11
689.7758279968277
 21
-640.7513305747834
 31
0.0
  0
LINE
  5
22113
330
18
100
AcDbEntity
  8
0
  6
BYBLOCK
100
AcDbLine
 10
689.7758279968277
 20
-640.7513305747834
 30
0.0
 11
690.3117263768278
 21
-642.7513305747834
 31
0.0
  0
LINE
  5
22114
330
18
100
AcDbEntity
  8
0
  6
BYBLOCK
100
AcDbLine
 10
689.7758279968277
 20
-640.7513305747834
 30
0.0
 11
689.7758279968277
 21
-642.7513305747834
 31
0.0
  0
TEXT
  5
22115
330
18
100
AcDbEntity
  8
1DIM
  6
CONTINUOUS
100
AcDbText
 10
689.0758279968277
 20
-637.9159139081165
 30
0.0
 40
3.5
  1
20
 50
90.0
100
AcDbText
1001
ACAD
1000
DSTYLE
1002
{
1070
    45
1040
0.5
1002
}
  0
LINE
  5
22116
330
18
100
AcDbEntity
  8
0
  6
BYBLOCK
100
AcDbLine
 10
690.311726376828
 20
-626.951331877402
 30
0.0
 11
689.775827996828
 21
-628.951331877402
 31
0.0
  0
LINE
  5
22117
330
18
100
AcDbEntity
  8
0
  6
BYBLOCK
100
AcDbLine
 10
689.775827996828
 20
-628.951331877402
 30
0.0
 11
689.2399296168279
 21
-626.951331877402
 31
0.0
  0
LINE
  5
22118
330
18
100
AcDbEntity
  8
0
  6
BYBLOCK
100
AcDbLine
 10
689.775827996828
 20
-628.951331877402
 30
0.0
 11
689.775827996828
 21
-626.951331877402
 31
0.0
  0
LINE
  5
22119
330
18
100
AcDbEntity
  8
0
  6
BYBLOCK
100
AcDbLine
 10
689.2399296168279
 20
-620.9513302382743
 30
0.0
 11
689.775827996828
 21
-618.9513302382743
 31
0.0
  0
LINE
  5
2211A
330
18
100
AcDbEntity
  8
0
  6
BYBLOCK
100
AcDbLine
 10
689.775827996828
 20
-618.9513302382743
 30
0.0
 11
690.311726376828
 21
-620.9513302382743
 31
0.0
  0
LINE
  5
2211B
330
18
100
AcDbEntity
  8
0
  6
BYBLOCK
100
AcDbLine
 10
689.775827996828
 20
-618.9513302382743
 30
0.0
 11
689.775827996828
 21
-620.9513302382743
 31
0.0
  0
TEXT
  5
2211C
330
18
100
AcDbEntity
  8
1DIM
  6
CONTINUOUS
100
AcDbText
 10
689.0758279968279
 20
-615.7825802382741
 30
0.0
 40
3.5
  1
10
 50
90.0
100
AcDbText
1001
ACAD
1000
DSTYLE
1002
{
1070
    45
1040
0.5
1002
}
  0
LINE
  5
2211D
330
18
100
AcDbEntity
  8
0
  6
BYBLOCK
100
AcDbLine
 10
807.2262410768642
 20
-622.789984143379
 30
0.0
 11
805.2262410768642
 21
-622.254085763379
 31
0.0
  0
LINE
  5
2211E
330
18
100
AcDbEntity
  8
0
  6
BYBLOCK
100
AcDbLine
 10
805.2262410768642
 20
-622.254085763379
 30
0.0
 11
807.2262410768642
 21
-621.7181873833789
 31
0.0
  0
LINE
  5
2211F
330
18
100
AcDbEntity
  8
0
  6
BYBLOCK
100
AcDbLine
 10
805.2262410768642
 20
-622.254085763379
 30
0.0
 11
807.2262410768642
 21
-622.254085763379
 31
0.0
  0
LINE
  5
22120
330
18
100
AcDbEntity
  8
0
  6
BYBLOCK
100
AcDbLine
 10
848.7262411351985
 20
-621.7181873833789
 30
0.0
 11
850.7262411351985
 21
-622.254085763379
 31
0.0
  0
LINE
  5
22121
330
18
100
AcDbEntity
  8
0
  6
BYBLOCK
100
AcDbLine
 10
850.7262411351985
 20
-622.254085763379
 30
0.0
 11
848.7262411351985
 21
-622.789984143379
 31
0.0
  0
LINE
  5
22122
330
18
100
AcDbEntity
  8
0
  6
BYBLOCK
100
AcDbLine
 10
850.7262411351985
 20
-622.254085763379
 30
0.0
 11
848.7262411351985
 21
-622.254085763379
 31
0.0
  0
TEXT
  5
22123
330
18
100
AcDbEntity
  8
1DIM
  6
CONTINUOUS
100
AcDbText
 10
822.8140887285056
 20
-621.5540857633788
 30
0.0
 40
3.5
  1
45.5
100
AcDbText
1001
ACAD
1000
DSTYLE
1002
{
1070
    45
1040
0.5
1002
}
  0
LINE
  5
22124
330
18
100
AcDbEntity
  8
0
  6
BYBLOCK
100
AcDbLine
 10
848.7262416153649
 20
-628.7135625987306
 30
0.0
 11
850.7262416153649
 21
-629.2494609787307
 31
0.0
  0
LINE
  5
22125
330
18
100
AcDbEntity
  8
0
  6
BYBLOCK
100
AcDbLine
 10
850.7262416153649
 20
-629.2494609787307
 30
0.0
 11
848.7262416153649
 21
-629.7853593587307
 31
0.0
  0
LINE
  5
22126
330
18
100
AcDbEntity
  8
0
  6
BYBLOCK
100
AcDbLine
 10
850.7262416153649
 20
-629.2494609787307
 30
0.0
 11
848.7262416153649
 21
-629.2494609787307
 31
0.0
  0
LINE
  5
22127
330
18
100
AcDbEntity
  8
0
  6
BYBLOCK
100
AcDbLine
 10
834.7262881512629
 20
-629.7853593587307
 30
0.0
 11
832.7262881512629
 21
-629.2494609787307
 31
0.0
  0
LINE
  5
22128
330
18
100
AcDbEntity
  8
0
  6
BYBLOCK
100
AcDbLine
 10
832.7262881512629
 20
-629.2494609787307
 30
0.0
 11
834.7262881512629
 21
-628.7135625987306
 31
0.0
  0
LINE
  5
22129
330
18
100
AcDbEntity
  8
0
  6
BYBLOCK
100
AcDbLine
 10
832.7262881512629
 20
-629.2494609787307
 30
0.0
 11
834.7262881512629
 21
-629.2494609787307
 31
0.0
  0
TEXT
  5
2212A
330
18
100
AcDbEntity
  8
1DIM
  6
CONTINUOUS
100
AcDbText
 10
838.1429082820315
 20
-628.5494609787306
 30
0.0
 40
3.5
  1
18
100
AcDbText
1001
ACAD
1000
DSTYLE
1002
{
1070
    45
1040
0.5
1002
}
  0
LINE
  5
2212B
330
18
100
AcDbEntity
  8
0
  6
BYBLOCK
100
AcDbLine
 10
14.84624056632293
 20
-724.5890254912674
 30
0.0
 11
8.846240566322933
 21
-722.9813303512674
 31
0.0
  0
LINE
  5
2212C
330
18
100
AcDbEntity
  8
0
  6
BYBLOCK
100
AcDbLine
 10
8.846240566322933
 20
-722.9813303512674
 30
0.0
 11
14.84624056632293
 21
-721.3736352112674
 31
0.0
  0
LINE
  5
2212D
330
18
100
AcDbEntity
  8
0
  6
BYBLOCK
100
AcDbLine
 10
8.846240566322933
 20
-722.9813303512674
 30
0.0
 11
14.84624056632293
 21
-722.9813303512674
 31
0.0
  0
LINE
  5
2212E
330
18
100
AcDbEntity
  8
0
  6
BYBLOCK
100
AcDbLine
 10
736.2462370854123
 20
-721.3736352112674
 30
0.0
 11
742.2462370854123
 21
-722.9813303512674
 31
0.0
  0
LINE
  5
2212F
330
18
100
AcDbEntity
  8
0
  6
BYBLOCK
100
AcDbLine
 10
742.2462370854123
 20
-722.9813303512674
 30
0.0
 11
736.2462370854123
 21
-724.5890254912674
 31
0.0
  0
LINE
  5
22130
330
18
100
AcDbEntity
  8
0
  6
BYBLOCK
100
AcDbLine
 10
742.2462370854123
 20
-722.9813303512674
 30
0.0
 11
736.2462370854123
 21
-722.9813303512674
 31
0.0
  0
TEXT
  5
22131
330
18
100
AcDbEntity
  8
1DIM1
  6
CONTINUOUS
100
AcDbText
 10
354.5462388258676
 20
-720.8813303512674
 30
0.0
 40
10.5
  1
733.5
100
AcDbText
1001
ACAD
1000
DSTYLE
1002
{
1070
    40
1040
3.0
1070
    45
1040
0.5
1002
}
  0
LINE
  5
22132
330
18
100
AcDbEntity
  8
0
  6
BYBLOCK
100
AcDbLine
 10
740.2462414723135
 20
-548.4154319712662
 30
0.0
 11
742.2462414723135
 21
-548.9513303512663
 31
0.0
  0
LINE
  5
22133
330
18
100
AcDbEntity
  8
0
  6
BYBLOCK
100
AcDbLine
 10
742.2462414723135
 20
-548.9513303512663
 30
0.0
 11
740.2462414723135
 21
-549.4872287312663
 31
0.0
  0
LINE
  5
22134
330
18
100
AcDbEntity
  8
0
  6
BYBLOCK
100
AcDbLine
 10
742.2462414723135
 20
-548.9513303512663
 30
0.0
 11
740.2462414723135
 21
-548.9513303512663
 31
0.0
  0
LINE
  5
22135
330
18
100
AcDbEntity
  8
0
  6
BYBLOCK
100
AcDbLine
 10
714.5462413293656
 20
-549.4872287312663
 30
0.0
 11
712.5462413293656
 21
-548.9513303512663
 31
0.0
  0
LINE
  5
22136
330
18
100
AcDbEntity
  8
0
  6
BYBLOCK
100
AcDbLine
 10
712.5462413293656
 20
-548.9513303512663
 30
0.0
 11
714.5462413293656
 21
-548.4154319712662
 31
0.0
  0
LINE
  5
22137
330
18
100
AcDbEntity
  8
0
  6
BYBLOCK
100
AcDbLine
 10
712.5462413293656
 20
-548.9513303512663
 30
0.0
 11
714.5462413293656
 21
-548.9513303512663
 31
0.0
  0
TEXT
  5
22138
330
18
100
AcDbEntity
  8
1DIM
  6
CONTINUOUS
100
AcDbText
 10
722.1454312156543
 20
-548.2513303512663
 30
0.0
 40
3.5
  1
29.5
100
AcDbText
1001
ACAD
1000
DSTYLE
1002
{
1070
    45
1040
0.5
1002
}
  0
LINE
  5
22139
330
18
100
AcDbEntity
  8
0
  6
BYBLOCK
100
AcDbLine
 10
892.7621399953649
 20
-646.7513303450575
 30
0.0
 11
892.2262416153649
 21
-648.7513303450575
 31
0.0
  0
LINE
  5
2213A
330
18
100
AcDbEntity
  8
0
  6
BYBLOCK
100
AcDbLine
 10
892.2262416153649
 20
-648.7513303450575
 30
0.0
 11
891.6903432353648
 21
-646.7513303450575
 31
0.0
  0
LINE
  5
2213B
330
18
100
AcDbEntity
  8
0
  6
BYBLOCK
100
AcDbLine
 10
892.2262416153649
 20
-648.7513303450575
 30
0.0
 11
892.2262416153649
 21
-646.7513303450575
 31
0.0
  0
LINE
  5
2213C
330
18
100
AcDbEntity
  8
0
  6
BYBLOCK
100
AcDbLine
 10
891.6903432353648
 20
-639.2513303234713
 30
0.0
 11
892.2262416153649
 21
-637.2513303234713
 31
0.0
  0
LINE
  5
2213D
330
18
100
AcDbEntity
  8
0
  6
BYBLOCK
100
AcDbLine
 10
892.2262416153649
 20
-637.2513303234713
 30
0.0
 11
892.7621399953649
 21
-639.2513303234713
 31
0.0
  0
LINE
  5
2213E
330
18
100
AcDbEntity
  8
0
  6
BYBLOCK
100
AcDbLine
 10
892.2262416153649
 20
-637.2513303234713
 30
0.0
 11
892.2262416153649
 21
-639.2513303234713
 31
0.0
  0
TEXT
  5
2213F
330
18
100
AcDbEntity
  8
1DIM
  6
CONTINUOUS
100
AcDbText
 10
891.5262416153648
 20
-645.3346636675977
 30
0.0
 40
3.5
  1
12
 50
90.0
100
AcDbText
1001
ACAD
1000
DSTYLE
1002
{
1070
    45
1040
0.5
1070
   271
1070
     0
1002
}
  0
LINE
  5
22140
330
18
100
AcDbEntity
  8
0
  6
BYBLOCK
100
AcDbLine
 10
902.7621399953649
 20
-662.251330379061
 30
0.0
 11
902.2262416153649
 21
-664.251330379061
 31
0.0
  0
LINE
  5
22141
330
18
100
AcDbEntity
  8
0
  6
BYBLOCK
100
AcDbLine
 10
902.2262416153649
 20
-664.251330379061
 30
0.0
 11
901.6903432353648
 21
-662.251330379061
 31
0.0
  0
LINE
  5
22142
330
18
100
AcDbEntity
  8
0
  6
BYBLOCK
100
AcDbLine
 10
902.2262416153649
 20
-664.251330379061
 30
0.0
 11
902.2262416153649
 21
-662.251330379061
 31
0.0
  0
LINE
  5
22143
330
18
100
AcDbEntity
  8
0
  6
BYBLOCK
100
AcDbLine
 10
901.6903432353648
 20
-639.2513303234713
 30
0.0
 11
902.2262416153649
 21
-637.2513303234713
 31
0.0
  0
LINE
  5
22144
330
18
100
AcDbEntity
  8
0
  6
BYBLOCK
100
AcDbLine
 10
902.2262416153649
 20
-637.2513303234713
 30
0.0
 11
902.7621399953649
 21
-639.2513303234713
 31
0.0
  0
LINE
  5
22145
330
18
100
AcDbEntity
  8
0
  6
BYBLOCK
100
AcDbLine
 10
902.2262416153649
 20
-637.2513303234713
 30
0.0
 11
902.2262416153649
 21
-639.2513303234713
 31
0.0
  0
TEXT
  5
22146
330
18
100
AcDbEntity
  8
1DIM
  6
CONTINUOUS
100
AcDbText
 10
901.5262416153648
 20
-653.6679970179329
 30
0.0
 40
3.5
  1
27
 50
90.0
100
AcDbText
1001
ACAD
1000
DSTYLE
1002
{
1070
    45
1040
0.5
1002
}
  0
VIEWPORT
  5
57
330
15
100
AcDbEntity
 67
     1
  8
0
100
AcDbViewport
 68
     1
 10
0.0
 20
0.0
 30
0.0
 40
634.7234042553191
 41
297.0
 68
     1
 69
     1
1001
ACAD
1000
MVIEW
1002
{
1070
    16
1010
0.0
1020
0.0
1030
0.0
1010
0.0
1020
0.0
1030
1.0
1040
0.0
1040
297.0
1040
-4.171999999925333
1040
12.83903210976956
1040
50.0
1040
0.0
1040
0.0
1070
    16
1070
   100
1070
     0
1070
     1
1070
     0
1070
     0
1070
     0
1070
     0
1040
0.0
1040
0.0
1040
0.0
1040
10.0
1040
10.0
1040
10.0
1040
10.0
1070
     0
1002
{
1002
}
1002
}
  0
ENDSEC
  0
SECTION
  2
OBJECTS
  0
DICTIONARY
  5
C
330
0
100
AcDbDictionary
  3
ACAD_COLOR
350
2D0
  3
ACAD_GROUP
350
D
  3
ACAD_LAYOUT
350
2D1
  3
ACAD_MATERIAL
350
2CF
  3
ACAD_MLEADERSTYLE
350
19E18
  3
ACAD_MLINESTYLE
350
1B
  3
ACAD_PLOTSETTINGS
350
2D2
  3
ACAD_SCALELIST
350
19DF6
  3
ACAD_VISUALSTYLE
350
19DE5
  3
ACDBHEADERROUNDTRIPXREC
350
22147
  3
ACDBVARIABLEDICTIONARY
350
37
  3
CONTENTDICTIONARY
350
D8
  3
DRAWINGVARIABLESDICT
350
20
  3
DWGPROPS
350
2214A
1001
ACAD
1000
TREAT_AS_HARD
1070
     0
  0
DICTIONARY
  5
18FE8
330
2
100
AcDbDictionary
  3
ACAD_LAYERSTATES
360
18FE9
1001
ACAD
1000
TREAT_AS_HARD
1070
     1
  0
DICTIONARY
  5
1A20A
330
E
100
AcDbDictionary
  3
ADSK_XREC_LAYER_RECONCILED
360
1A20B
1001
ACAD
1000
TREAT_AS_HARD
1070
     1
  0
DICTIONARY
  5
1A20C
330
29
100
AcDbDictionary
  3
ADSK_XREC_LAYER_RECONCILED
360
1A20D
1001
ACAD
1000
TREAT_AS_HARD
1070
     1
  0
DICTIONARY
  5
1A20E
330
31
100
AcDbDictionary
  3
ADSK_XREC_LAYER_RECONCILED
360
1A20F
1001
ACAD
1000
TREAT_AS_HARD
1070
     1
  0
DICTIONARY
  5
1A218
330
101
100
AcDbDictionary
  3
ADSK_XREC_LAYER_RECONCILED
360
1A219
1001
ACAD
1000
TREAT_AS_HARD
1070
     1
  0
DICTIONARY
  5
1A21C
330
103
100
AcDbDictionary
  3
ADSK_XREC_LAYER_RECONCILED
360
1A21D
1001
ACAD
1000
TREAT_AS_HARD
1070
     1
  0
DICTIONARY
  5
1A220
330
25F
100
AcDbDictionary
  3
ADSK_XREC_LAYER_RECONCILED
360
1A221
1001
ACAD
1000
TREAT_AS_HARD
1070
     1
  0
DICTIONARY
  5
1A236
330
26A
100
AcDbDictionary
  3
ADSK_XREC_LAYER_RECONCILED
360
1A237
1001
ACAD
1000
TREAT_AS_HARD
1070
     1
  0
DICTIONARY
  5
6E9
330
18
100
AcDbDictionary
  3
ACAD_SORTENTS
360
6EA
1001
ACAD
1000
TREAT_AS_HARD
1070
     1
  0
DICTIONARY
  5
59B
330
15
100
AcDbDictionary
  3
ACAD_SORTENTS
360
59C
1001
ACAD
1000
TREAT_AS_HARD
1070
     1
  0
DICTIONARY
  5
2D0
102
{ACAD_REACTORS
330
C
102
}
330
C
100
AcDbDictionary
1001
ACAD
1000
TREAT_AS_HARD
1070
     0
  0
DICTIONARY
  5
D
102
{ACAD_REACTORS
330
C
102
}
330
C
100
AcDbDictionary
  3
*A1
350
1EDFD
1001
ACAD
1000
TREAT_AS_HARD
1070
     0
  0
DICTIONARY
  5
2D1
102
{ACAD_REACTORS
330
C
102
}
330
C
100
AcDbDictionary
1001
ACAD
1000
TREAT_AS_HARD
1070
     0
  0
DICTIONARY
  5
2CF
102
{ACAD_REACTORS
330
C
102
}
330
C
100
AcDbDictionary
  3
BYBLOCK
350
19DD5
  3
BYLAYER
350
19DCD
  3
GLOBAL
350
19DDD
1001
ACAD
1000
TREAT_AS_HARD
1070
     0
  0
DICTIONARY
  5
19E18
102
{ACAD_REACTORS
330
C
102
}
330
C
100
AcDbDictionary
  3
STANDARD
350
19E19
1001
ACAD
1000
TREAT_AS_HARD
1070
     0
  0
DICTIONARY
  5
1B
102
{ACAD_REACTORS
330
C
102
}
330
C
100
AcDbDictionary
  3
STANDARD
350
1C
1001
ACAD
1000
TREAT_AS_HARD
1070
     0
  0
DICTIONARY
  5
2D2
102
{ACAD_REACTORS
330
C
102
}
330
C
100
AcDbDictionary
1001
ACAD
1000
TREAT_AS_HARD
1070
     0
  0
DICTIONARY
  5
19DF6
102
{ACAD_REACTORS
330
C
102
}
330
C
100
AcDbDictionary
  3
A0
350
19DF7
  3
A1
350
19DF8
  3
A2
350
19DF9
  3
A3
350
19DFA
  3
A4
350
19DFB
  3
A5
350
19DFC
  3
A6
350
19DFD
  3
A7
350
19DFE
  3
A8
350
19DFF
  3
A9
350
19E00
  3
B0
350
19E01
  3
B1
350
19E02
  3
B2
350
19E03
  3
B3
350
19E04
  3
B4
350
19E05
  3
B5
350
19E06
  3
B6
350
19E07
  3
B7
350
19E08
  3
B8
350
19E09
  3
B9
350
19E0A
  3
C0
350
19E0B
  3
C1
350
19E0C
  3
C2
350
19E0D
  3
C3
350
19E0E
  3
C4
350
19E0F
  3
C5
350
19E10
  3
C6
350
19E11
  3
C7
350
19E12
  3
C8
350
19E13
  3
C9
350
19E14
  3
D0
350
19E15
  3
D1
350
19E16
  3
D2
350
19E17
1001
ACAD
1000
TREAT_AS_HARD
1070
     0
  0
DICTIONARY
  5
19DE5
102
{ACAD_REACTORS
330
C
102
}
330
C
100
AcDbDictionary
  3
2DWIREFRAME
350
19DEB
  3
3D_HIDDEN
350
19DED
  3
3DWIREFRAME
350
19DEC
  3
BASIC
350
19DEA
  3
BRIGHTEN
350
19DF1
  3
COLORCHANGE
350
19DF5
  3
CONCEPTUAL
350
19DEE
  3
DIM
350
19DF0
  3
EDGECOLOROFF
350
1E02A
  3
FACEPATTERN
350
19DF4
  3
FLAT
350
19DE6
  3
FLATWITHEDGES
350
19DE7
  3
GOURAUD
350
19DE8
  3
GOURAUDWITHEDGES
350
19DE9
  3
HIDDEN
350
1F381
  3
JITTEROFF
350
1E028
  3
LINEPATTERN
350
19DF3
  3
MODELING
350
1F387
  3
OVERHANGOFF
350
1E029
  3
REALISTIC
350
19DEF
  3
SHADED
350
1F386
  3
SHADED_WITH_EDGES
350
1F385
  3
SHADES_OF_GRAY
350
1F382
  3
SKETCHY
350
1F383
  3
THICKEN
350
19DF2
  3
WIREFRAME
350
1F380
  3
X-RAY
350
1F384
1001
ACAD
1000
TREAT_AS_HARD
1070
     0
  0
DICTIONARY
  5
22147
102
{ACAD_REACTORS
330
C
102
}
330
C
100
AcDbDictionary
  3
COLORDICT
350
22148
  3
MATERIALDICT
350
22149
1001
ACAD
1000
TREAT_AS_HARD
1070
     0
  0
DICTIONARY
  5
37
102
{ACAD_REACTORS
330
C
102
}
330
C
100
AcDbDictionary
  3
CANNOSCALE
350
20A45
  3
CMLEADERSTYLE
350
1AC19
  3
CTABLESTYLE
350
4F1
  3
DIMADEC
350
38
  3
DIMASSOC
350
408
  3
HIDETEXT
350
1891
  3
INDEXCTL
350
1AC1C
  3
INTERSECTIONCOLOR
350
1895
  3
INTERSECTIONDISPLAY
350
1894
  3
MSLTSCALE
350
20A9B
  3
OBSCOLOR
350
1892
  3
OBSLTYPE
350
1893
  3
PROJECTNAME
350
409
  3
SORTENTS
350
1AC1B
  3
XCLIPFRAME
350
1F37F
1001
ACAD
1000
TREAT_AS_HARD
1070
     0
  0
DICTIONARY
  5
D8
102
{ACAD_REACTORS
330
C
102
}
330
C
100
AcDbDictionary
1001
CONTENTTABDATA
1070
    11
1000
Child
1000
D:\ACLT\TABset\CHILDREN.dwg
1070
     0
1070
     0
1070
     1
1000
PK
1000
D:\ACLT\TABset\PK.dwg
1070
     0
1070
     0
1070
     1
1000
Lev1
1000
D:\ACLT\TABset\Lever01.dwg
1070
     0
1070
     0
1070
     1
1000
Lev2
1000
D:\ACLT\TABset\Lever02.dwg
1070
     0
1070
     0
1070
     1
1000
L3
1000
D:\Aclt\TABset\Lever03.dwg
1070
     0
1070
     0
1070
     1
1000
Form
1000
D:\ACLT\FORMAT
1070
     1
1070
     0
1070
     1
1000
Jnt
1000
D:\ACLT\TABset\JOINTPARTS.dwg
1070
     0
1070
     0
1070
     1
1000
ISO
1000
D:\ACLT\TABset\Isome01.dwg
1070
     0
1070
     0
1070
     1
1000
R
1000
D:\ACLT\TABset\REGION.dwg
1070
     0
1070
     0
1070
     1
1000
std
1000
D:\ACLT\TABset\std_sym_all.dwg
1070
     0
1070
     0
1070
     1
1000
丸
1000
D:\Aclt\TABset\MARU.dwg
1070
     0
1070
     0
1070
     1
1001
CONTENTCURRENTTAB
1070
     0
1001
ACAD
1000
TREAT_AS_HARD
1070
     0
  0
DICTIONARY
  5
20
102
{ACAD_REACTORS
330
C
102
}
330
C
100
AcDbDictionary
1001
DRAWINGVARIABLESXDATA
1000
POLARANG
1000
0.261799387799149410000000
1000
POLARMODE
1000
1
1000
POLARSTYLE
1000
1
1001
ACAD
1000
TREAT_AS_HARD
1070
     0
  0
XRECORD
  5
2214A
102
{ACAD_REACTORS
330
C
102
}
330
C
100
AcDbXrecord
  1
DWGPROPS COOKIE
  2

  3

  4

  6

  7

  8
3684
  9

300
=
301
=
302
=
303
=
304
=
305
=
306
=
307
=
308
=
309
=
 40
0.0
 41
2453033.357663484
 42
2459535.011657095
  1

 90
        0
  0
DICTIONARY
  5
18FE9
102
{ACAD_REACTORS
330
18FE8
102
}
330
18FE8
100
AcDbDictionary
1001
ACAD
1000
TREAT_AS_HARD
1070
     0
  0
ACAD_PROXY_OBJECT
  5
1A20B
102
{ACAD_REACTORS
330
1A20A
102
}
330
1A20A
100
AcDbZombieObject
 90
      499
 91
      517
 93
       34
310
40C8804040
  0
ACAD_PROXY_OBJECT
  5
1A20D
102
{ACAD_REACTORS
330
1A20C
102
}
330
1A20C
100
AcDbZombieObject
 90
      499
 91
      517
 93
       34
310
40C8804040
  0
ACAD_PROXY_OBJECT
  5
1A20F
102
{ACAD_REACTORS
330
1A20E
102
}
330
1A20E
100
AcDbZombieObject
 90
      499
 91
      517
 93
       34
310
40C8804040
  0
ACAD_PROXY_OBJECT
  5
1A219
102
{ACAD_REACTORS
330
1A218
102
}
330
1A218
100
AcDbZombieObject
 90
      499
 91
      517
 93
       34
310
40C8804040
  0
ACAD_PROXY_OBJECT
  5
1A21D
102
{ACAD_REACTORS
330
1A21C
102
}
330
1A21C
100
AcDbZombieObject
 90
      499
 91
      517
 93
       34
310
40C8804040
  0
ACAD_PROXY_OBJECT
  5
1A221
102
{ACAD_REACTORS
330
1A220
102
}
330
1A220
100
AcDbZombieObject
 90
      499
 91
      517
 93
       34
310
40C8804040
  0
ACAD_PROXY_OBJECT
  5
1A237
102
{ACAD_REACTORS
330
1A236
102
}
330
1A236
100
AcDbZombieObject
 90
      499
 91
      517
 93
       34
310
40C8804040
  0
SORTENTSTABLE
  5
6EA
102
{ACAD_REACTORS
330
6E9
102
}
330
6E9
100
AcDbSortentsTable
330
18
331
0
  5
99AB
331
0
  5
AB53
331
0
  5
AB54
331
0
  5
ECB5
331
0
  5
1D308
331
0
  5
1D523
331
1D8CA
  5
21D77
331
1D90A
  5
21D78
331
0
  5
1DB93
331
1DB9B
  5
21D84
331
1DBA4
  5
21D85
331
1DBA5
  5
21D86
331
1DBA6
  5
21D87
331
0
  5
1E232
331
0
  5
1E234
331
0
  5
1E236
331
0
  5
1E7B5
331
0
  5
1E7B6
331
0
  5
20F33
331
0
  5
1E7B8
331
20F33
  5
21DE4
331
21003
  5
21DE5
331
2100D
  5
21DE6
331
211E1
  5
21DE7
331
211E3
  5
21DE8
331
211E9
  5
21DE9
331
211EB
  5
21DEA
331
212B3
  5
21DEB
331
212B4
  5
21E0F
331
212B5
  5
21E10
331
212C7
  5
21E11
331
212C8
  5
21E15
331
212C9
  5
21E16
331
212CA
  5
21E17
331
2131B
  5
21E18
331
2131C
  5
21E19
331
2131D
  5
21E1A
331
2131E
  5
21E1B
331
2131F
  5
21E1C
331
21320
  5
21E1D
331
21321
  5
21E1E
331
21322
  5
21E1F
331
21323
  5
21E20
331
21324
  5
21E21
331
21325
  5
21E22
331
21326
  5
21E23
331
21327
  5
21E24
331
21328
  5
21E25
331
21329
  5
21E26
331
2132A
  5
21E27
331
2132B
  5
21E28
331
2132C
  5
21E29
331
21336
  5
21E2A
331
21337
  5
21E2B
331
21338
  5
21E2D
331
21487
  5
21E2E
331
21488
  5
21E2F
331
21489
  5
21E30
331
2148A
  5
21E31
331
0
  5
214CE
331
0
  5
214D2
331
0
  5
214D3
331
0
  5
214D7
331
0
  5
21D27
331
0
  5
21D29
331
0
  5
21D35
331
0
  5
21D36
331
21D35
  5
21E56
331
21D36
  5
21E57
331
21D37
  5
21E58
331
21D38
  5
21E59
331
21D39
  5
21E5A
331
0
  5
21D74
331
21D41
  5
21F1E
331
21D74
  5
21F1F
331
21D76
  5
21FC0
331
21D77
  5
21FC1
331
21D78
  5
21FC2
331
21D79
  5
21FC3
331
21D7A
  5
21FC4
331
21D7C
  5
21FC5
331
21D7D
  5
21FC6
331
21D7E
  5
21FC7
331
21D7F
  5
21FC8
331
21D80
  5
21FC9
331
21D81
  5
21FCA
331
21D82
  5
21FCB
331
21D83
  5
21FCC
331
21D84
  5
21FCD
331
21D85
  5
21FCE
331
21D86
  5
21FCF
331
21D87
  5
21FD0
331
21D88
  5
21FD1
331
21D89
  5
21FD2
331
21D8A
  5
21FD3
331
21D8B
  5
21FD4
331
21D8C
  5
21FD5
331
21D8D
  5
21FD6
331
21D8E
  5
21FD7
331
21D8F
  5
21FD8
331
21D90
  5
21FD9
331
21D91
  5
21FDA
331
21D94
  5
21FDB
331
21D95
  5
21FDC
331
21D96
  5
21FDD
331
21D9A
  5
21FDE
331
21D9B
  5
21FDF
331
21D9C
  5
21FE0
331
21D9D
  5
21FE1
331
21DA0
  5
21FE2
331
21DA1
  5
21FE3
331
21DA2
  5
21FE4
331
21DA3
  5
21FE5
331
21DA4
  5
21FE6
331
21DD6
  5
21FE7
331
21DD7
  5
21FE8
331
21DD8
  5
21FE9
331
21DD9
  5
21FEA
331
21DDA
  5
21FEB
331
21DDB
  5
21FEC
331
21DDC
  5
21FED
331
21DDD
  5
21FEE
331
21DDE
  5
21FEF
331
21DDF
  5
21FF0
331
21DE0
  5
21FF1
331
21DE1
  5
21FF2
331
21DE2
  5
21FF3
331
21DE3
  5
21FF4
331
21DE4
  5
21FF5
331
21DE5
  5
21FF6
331
21DE6
  5
21FF7
331
21DE7
  5
21FF8
331
21DE8
  5
21FF9
331
21DE9
  5
21FFA
331
21DEA
  5
21FFB
331
21DEB
  5
21FFC
331
21DEC
  5
21FFD
331
21E0D
  5
21FFE
331
21E0E
  5
21FFF
331
21E0F
  5
22000
331
21E10
  5
22001
331
21E11
  5
22002
331
21E12
  5
22003
331
21E13
  5
22004
331
21E14
  5
22005
331
21E15
  5
22006
331
21E16
  5
22007
331
21E17
  5
22008
331
21E18
  5
22009
331
21E19
  5
2200A
331
21E1A
  5
2200B
331
21E1B
  5
2200C
331
21E1C
  5
2200D
331
21E1D
  5
2200E
331
21E1E
  5
2200F
331
21E1F
  5
22010
331
21E20
  5
22011
331
21E21
  5
22012
331
21E22
  5
22013
331
21E23
  5
22014
331
21E24
  5
22015
331
21E25
  5
22016
331
21E26
  5
22017
331
21E27
  5
22018
331
21E28
  5
22019
331
21E29
  5
2201A
331
21E2A
  5
2201B
331
21E2B
  5
2201C
331
21E2D
  5
2201F
331
21E2E
  5
22020
331
21E2F
  5
22021
331
21E30
  5
22022
331
21E31
  5
22023
331
21E32
  5
22024
331
21E33
  5
22025
331
21E34
  5
22026
331
21E35
  5
22027
331
21E36
  5
22028
331
21E37
  5
22029
331
21E38
  5
2202A
331
21E3A
  5
2202D
331
21E3B
  5
2202E
331
21E3C
  5
2202F
331
21E3D
  5
22030
331
21E3E
  5
22031
331
21E3F
  5
22032
331
21E40
  5
22033
331
21E41
  5
22034
331
21E42
  5
22035
331
21E43
  5
22036
331
21E44
  5
22037
331
21E45
  5
22038
331
21E46
  5
22039
331
21E47
  5
2203A
331
21E48
  5
2203B
331
21E49
  5
2203C
331
21E4A
  5
2203D
331
21E4B
  5
2203E
331
21E4C
  5
2203F
331
21E4D
  5
22040
331
21E4E
  5
22041
331
21E4F
  5
22042
331
21E50
  5
22043
331
21E51
  5
22044
331
21E52
  5
22045
331
21E53
  5
22046
331
21E54
  5
22047
331
21E55
  5
22048
331
21E56
  5
22049
331
21E57
  5
2204A
331
21E58
  5
2204B
331
0
  5
21EE0
331
21E5A
  5
22096
331
21E5B
  5
22097
331
21E5C
  5
22098
331
21E5D
  5
22099
331
21ECC
  5
2209A
331
21ECD
  5
2209B
331
21ECE
  5
2209C
331
21ECF
  5
2209D
331
21ED0
  5
2209E
331
0
  5
21EEA
331
21ED2
  5
220E9
331
21ED3
  5
220EA
331
21ED5
  5
220FD
331
21ED6
  5
220FE
331
21ED7
  5
220FF
331
21ED8
  5
22100
331
21ED9
  5
22101
331
21EDA
  5
22102
331
21EDB
  5
22103
331
21EDC
  5
22104
331
21EDD
  5
22105
331
21EDE
  5
22106
331
21EDF
  5
22107
331
21EE0
  5
22108
331
21EE1
  5
22109
331
21EE2
  5
2210A
331
21EE3
  5
2210B
331
21EE4
  5
2210C
331
21EE5
  5
2210D
331
21EE6
  5
2210E
331
21EE7
  5
2210F
331
21EE8
  5
22110
331
21EE9
  5
22111
331
21EEA
  5
22112
331
21EEB
  5
22113
331
21EEC
  5
22114
331
21EED
  5
22115
331
21EEE
  5
22116
331
21EEF
  5
22117
331
21EF2
  5
22118
331
21EF3
  5
22119
331
21EF4
  5
2211A
331
21EF8
  5
2211B
331
21EF9
  5
2211C
331
21EFA
  5
2211D
331
21EFB
  5
2211E
331
21EFE
  5
2211F
331
21EFF
  5
22120
331
21F00
  5
22121
331
21F01
  5
22122
331
21F02
  5
22123
331
21F03
  5
22124
331
21F04
  5
22125
331
21F05
  5
22126
331
21F07
  5
22127
331
21F08
  5
22128
331
21F09
  5
22129
331
21F0A
  5
2212A
331
21F0B
  5
2212B
331
21F0C
  5
2212C
331
21F0D
  5
2212D
331
21F0E
  5
2212E
331
21F0F
  5
2212F
331
21F10
  5
22130
331
21F11
  5
22131
331
21F12
  5
22132
331
21F13
  5
22133
331
21F14
  5
22134
331
21F15
  5
22135
331
21F16
  5
22136
331
21F17
  5
22137
331
21F18
  5
22138
331
21F19
  5
22139
331
21F1A
  5
2213A
331
21F1B
  5
2213B
331
21F1C
  5
2213C
331
21F1D
  5
2213D
331
21F1E
  5
2213E
331
21F1F
  5
2213F
331
21F20
  5
22140
331
21F21
  5
22141
331
21F22
  5
22142
331
21F23
  5
22143
331
21F24
  5
22144
331
21F25
  5
22145
331
21F26
  5
22146
331
21FB5
  5
21DE0
331
21FB6
  5
21DE3
331
21FB7
  5
21F20
331
21FB8
  5
21F21
331
21FB9
  5
21F22
331
21FBA
  5
21F23
331
21FBB
  5
21F24
331
21FBC
  5
21F25
331
21FBD
  5
21F26
331
21FBE
  5
21FB5
331
21FBF
  5
21FB6
331
21FC0
  5
21FB7
331
21FC1
  5
21FB8
331
21FC2
  5
21FB9
331
21FC3
  5
21FBA
331
21FC4
  5
21FBB
331
21FC5
  5
21FBC
331
21FC6
  5
21FBD
331
21FC7
  5
21FBE
331
21FC8
  5
21FBF
331
21FC9
  5
2201D
331
21FCA
  5
2201E
331
21FCB
  5
2202B
331
21FCC
  5
2202C
331
21FCD
  5
220EB
331
21FCE
  5
220EC
331
21FCF
  5
220ED
331
21FD0
  5
220EE
331
21FD1
  5
220EF
331
21FD2
  5
220F0
331
21FD3
  5
220F1
331
21FD4
  5
220F2
331
21FD5
  5
220F3
331
21FD6
  5
220F4
331
21FD7
  5
220F5
331
21FD8
  5
220F6
331
21FD9
  5
220F7
331
21FDA
  5
220F8
331
21FDB
  5
220F9
331
21FDC
  5
220FA
331
21FDD
  5
220FB
331
21FDE
  5
220FC
331
21FDF
  5
1D8CE
331
21FE0
  5
1D910
331
21FE1
  5
1DB9F
331
0
  5
1DBA8
331
0
  5
1DF13
331
0
  5
1DFD9
331
21FE5
  5
212C7
331
21FE6
  5
2131B
331
21FE7
  5
2131C
331
21FE8
  5
2131D
331
0
  5
211E3
331
0
  5
211E9
331
0
  5
211EB
331
21FEC
  5
21328
331
21FED
  5
21329
331
21FEE
  5
21336
331
21FEF
  5
21337
331
0
  5
212C8
331
0
  5
212C9
331
0
  5
212CA
331
21FF3
  5
21D79
331
21FF4
  5
21D7A
331
21FF5
  5
21D7C
331
0
  5
21320
331
0
  5
21321
331
0
  5
21322
331
21FF9
  5
21D88
331
21FFA
  5
21D89
331
21FFB
  5
21D8A
331
0
  5
2132A
331
0
  5
2132B
331
0
  5
2132C
331
21FFF
  5
21D94
331
22000
  5
21D95
331
22001
  5
21D96
331
0
  5
21487
331
0
  5
21488
331
0
  5
21489
331
22005
  5
21DA3
331
22006
  5
21DA4
331
22007
  5
21DD6
331
0
  5
21D37
331
0
  5
21D38
331
0
  5
21D39
331
2200B
  5
21DDE
331
2200C
  5
21DDF
331
2200D
  5
21DE1
331
2200E
  5
21DE2
331
2200F
  5
21E32
331
22010
  5
21E33
331
22011
  5
21E34
331
22012
  5
21E35
331
22013
  5
21E36
331
22014
  5
21E37
331
22015
  5
21E38
331
22016
  5
21E3A
331
22017
  5
21E3B
331
22018
  5
21E3C
331
22019
  5
21E3D
331
2201A
  5
21E3E
331
2201B
  5
21E3F
331
2201C
  5
21E40
331
2201D
  5
21E41
331
2201E
  5
21E42
331
2201F
  5
21E43
331
22020
  5
21E44
331
0
  5
21DEC
331
0
  5
21E0D
331
0
  5
21E0E
331
22024
  5
21E4C
331
22025
  5
21E4D
331
22026
  5
21E4E
331
0
  5
21E12
331
0
  5
21E13
331
0
  5
21E14
331
2202A
  5
21E5B
331
2202B
  5
21E5C
331
2202C
  5
21E5D
331
2202D
  5
21ECC
331
2202E
  5
21ECD
331
2202F
  5
21ECE
331
22030
  5
21ECF
331
22031
  5
21ED0
331
22032
  5
21ED1
331
22033
  5
21ED2
331
22034
  5
21ED3
331
22035
  5
21ED5
331
22036
  5
21ED6
331
22037
  5
21ED7
331
22038
  5
21ED8
331
22039
  5
21ED9
331
2203A
  5
21EDA
331
2203B
  5
21EDB
331
2203C
  5
21EDC
331
2203D
  5
21EDD
331
2203E
  5
21EDE
331
2203F
  5
21EDF
331
22040
  5
21EE1
331
22041
  5
21EE2
331
22042
  5
21EE3
331
22043
  5
21EE4
331
22044
  5
21EE5
331
22045
  5
21EE6
331
22046
  5
21EE7
331
22047
  5
21EE8
331
22048
  5
21EE9
331
22049
  5
21EEB
331
2204A
  5
21EEC
331
2204B
  5
21EED
331
2204C
  5
21EEE
331
2204D
  5
21EEF
331
2204E
  5
21EF2
331
2204F
  5
21EF3
331
22050
  5
21EF4
331
22051
  5
21EF8
331
22052
  5
21EF9
331
22053
  5
21EFA
331
22054
  5
21EFB
331
22055
  5
21EFE
331
22056
  5
21EFF
331
22057
  5
21F00
331
22058
  5
21F01
331
22059
  5
21F02
331
2205A
  5
21F03
331
2205B
  5
21F04
331
2205C
  5
21F05
331
2205D
  5
21F07
331
2205E
  5
21F08
331
2205F
  5
21F09
331
22060
  5
21F0A
331
22061
  5
21F0B
331
22062
  5
21F0C
331
22063
  5
21F0D
331
22064
  5
21F0E
331
22065
  5
21F0F
331
22066
  5
21F10
331
22067
  5
21F11
331
22068
  5
21F12
331
22069
  5
21F13
331
2206A
  5
21F14
331
2206B
  5
21F15
331
2206C
  5
21F16
331
2206D
  5
21F17
331
2206E
  5
21F18
331
2206F
  5
21F19
331
22070
  5
21F1A
331
22071
  5
21F1B
331
22072
  5
21F1C
331
22073
  5
21F1D
331
22074
  5
2204C
331
22075
  5
2204D
331
22076
  5
2204E
331
22077
  5
2204F
331
22078
  5
22050
331
22079
  5
22051
331
2207A
  5
22052
331
2207B
  5
22053
331
2207C
  5
22054
331
2207D
  5
22055
331
2207E
  5
22056
331
2207F
  5
22057
331
22080
  5
22058
331
22081
  5
22059
331
22082
  5
2205A
331
22083
  5
2205B
331
22084
  5
2205C
331
22085
  5
2205D
331
22086
  5
2205E
331
22087
  5
2205F
331
22088
  5
22060
331
22089
  5
22061
331
2208A
  5
22062
331
2208B
  5
22063
331
2208C
  5
22064
331
2208D
  5
22065
331
2208E
  5
22066
331
2208F
  5
22067
331
22090
  5
22068
331
22091
  5
22069
331
22092
  5
2206A
331
22093
  5
2206B
331
22094
  5
2206C
331
22095
  5
2206D
331
22096
  5
2206E
331
22097
  5
2206F
331
22098
  5
22070
331
22099
  5
22071
331
2209A
  5
22072
331
2209B
  5
22073
331
2209C
  5
22074
331
2209D
  5
22075
331
2209E
  5
22076
331
2209F
  5
22077
331
220A0
  5
22078
331
220A1
  5
22079
331
220A2
  5
2207A
331
220A3
  5
2207B
331
220A4
  5
2207C
331
220A5
  5
2207D
331
220A6
  5
2207E
331
220A7
  5
2207F
331
220A8
  5
22080
331
220A9
  5
22081
331
220AA
  5
22082
331
220AB
  5
22083
331
220AC
  5
22084
331
220AD
  5
22085
331
220AE
  5
22086
331
220AF
  5
22087
331
220B0
  5
22088
331
220B1
  5
22089
331
220B2
  5
2208A
331
220B3
  5
2208B
331
220B4
  5
2208C
331
220B5
  5
2208D
331
220B6
  5
2208E
331
220B7
  5
2208F
331
220B8
  5
22090
331
220B9
  5
22091
331
220BA
  5
22092
331
220BB
  5
22093
331
220BC
  5
22094
331
220BD
  5
22095
331
220BE
  5
2209F
331
220BF
  5
220A0
331
220C0
  5
220A1
331
220C1
  5
220A2
331
220C2
  5
220A3
331
220C3
  5
220A4
331
220C4
  5
220A5
331
220C5
  5
220A6
331
220C6
  5
220A7
331
220C7
  5
220A8
331
220C8
  5
220A9
331
220C9
  5
220AA
331
220CA
  5
220AB
331
220CB
  5
220AC
331
220CC
  5
220AD
331
220CD
  5
220AE
331
220CE
  5
220AF
331
220CF
  5
220B0
331
220D0
  5
220B1
331
220D1
  5
220B2
331
220D2
  5
220B3
331
220D3
  5
220B4
331
220D4
  5
220B5
331
220D5
  5
220B6
331
220D6
  5
220B7
331
220D7
  5
220B8
331
220D8
  5
220B9
331
220D9
  5
220BA
331
220DA
  5
220BB
331
220DB
  5
220BC
331
220DC
  5
220BD
331
220DD
  5
220BE
331
220DE
  5
220BF
331
220DF
  5
220C0
331
220E0
  5
220C1
331
220E1
  5
220C2
331
220E2
  5
220C3
331
220E3
  5
220C4
331
220E4
  5
220C5
331
220E5
  5
220C6
331
220E6
  5
220C7
331
220E7
  5
220C8
331
220E8
  5
220C9
331
220E9
  5
220CA
331
220EA
  5
220CB
331
220EB
  5
220CC
331
220EC
  5
220CD
331
220ED
  5
220CE
331
220EE
  5
220CF
331
220EF
  5
220D0
331
220F0
  5
220D1
331
220F1
  5
220D2
331
220F2
  5
220D3
331
220F3
  5
220D4
331
220F4
  5
220D5
331
220F5
  5
220D6
331
220F6
  5
220D7
331
220F7
  5
220D8
331
220F8
  5
220D9
331
220F9
  5
220DA
331
220FA
  5
220DB
331
220FB
  5
220DC
331
220FC
  5
220DD
331
220FD
  5
220DE
331
220FE
  5
220DF
331
220FF
  5
220E0
331
22100
  5
220E1
331
22101
  5
220E2
331
22102
  5
220E3
331
22103
  5
220E4
331
22104
  5
220E5
331
22105
  5
220E6
331
22106
  5
220E7
331
22107
  5
220E8
331
22108
  5
1E7B7
331
22109
  5
21003
331
2210A
  5
2100D
331
2210B
  5
211E1
331
2210C
  5
212B3
331
2210D
  5
212B4
331
2210E
  5
212B5
331
2210F
  5
2131E
331
22110
  5
2131F
331
22111
  5
21323
331
22112
  5
21324
331
22113
  5
21325
331
22114
  5
21326
331
22115
  5
21327
331
22116
  5
21338
331
22117
  5
2148A
331
22118
  5
214C8
331
22119
  5
214CC
331
2211A
  5
21D3A
331
2211B
  5
21D41
331
2211C
  5
21D76
331
2211D
  5
21D7D
331
2211E
  5
21D7E
331
2211F
  5
21D7F
331
22120
  5
21D80
331
22121
  5
21D81
331
22122
  5
21D82
331
22123
  5
21D83
331
22124
  5
21D8B
331
22125
  5
21D8C
331
22126
  5
21D8D
331
22127
  5
21D8E
331
22128
  5
21D8F
331
22129
  5
21D90
331
2212A
  5
21D91
331
2212B
  5
21D9A
331
2212C
  5
21D9B
331
2212D
  5
21D9C
331
2212E
  5
21D9D
331
2212F
  5
21DA0
331
22130
  5
21DA1
331
22131
  5
21DA2
331
22132
  5
21DD7
331
22133
  5
21DD8
331
22134
  5
21DD9
331
22135
  5
21DDA
331
22136
  5
21DDB
331
22137
  5
21DDC
331
22138
  5
21DDD
331
22139
  5
21E45
331
2213A
  5
21E46
331
2213B
  5
21E47
331
2213C
  5
21E48
331
2213D
  5
21E49
331
2213E
  5
21E4A
331
2213F
  5
21E4B
331
22140
  5
21E4F
331
22141
  5
21E50
331
22142
  5
21E51
331
22143
  5
21E52
331
22144
  5
21E53
331
22145
  5
21E54
331
22146
  5
21E55
  0
SORTENTSTABLE
  5
59C
102
{ACAD_REACTORS
330
59B
102
}
330
59B
100
AcDbSortentsTable
330
15
331
57
  5
57
331
0
  5
70
  0
GROUP
  5
1EDFD
102
{ACAD_REACTORS
330
D
102
}
330
D
100
AcDbGroup
300

 70
     1
 71
     1
340
1DBA6
340
1DBA5
340
1DBA4
  0
MATERIAL
  5
19DD5
102
{ACAD_REACTORS
330
2CF
102
}
102
{ACAD_XDICTIONARY
360
222E5
102
}
330
2CF
100
AcDbMaterial
  1
BYBLOCK
 72
     0
 73
     2
 43
0.0208333333333333
 43
0.0
 43
0.0
 43
0.0
 43
0.0
 43
0.0208333333333333
 43
0.0
 43
0.0
 43
0.0
 43
0.0
 43
1.0
 43
0.0
 43
0.0
 43
0.0
 43
0.0
 43
1.0
 77
     0
 78
     2
 47
0.0208333333333333
 47
0.0
 47
0.0
 47
0.0
 47
0.0
 47
0.0208333333333333
 47
0.0
 47
0.0
 47
0.0
 47
0.0
 47
1.0
 47
0.0
 47
0.0
 47
0.0
 47
0.0
 47
1.0
171
     0
172
     2
 49
0.0208333333333333
 49
0.0
 49
0.0
 49
0.0
 49
0.0
 49
0.0208333333333333
 49
0.0
 49
0.0
 49
0.0
 49
0.0
 49
1.0
 49
0.0
 49
0.0
 49
0.0
 49
0.0
 49
1.0
175
     0
176
     2
142
0.0208333333333333
142
0.0
142
0.0
142
0.0
142
0.0
142
0.0208333333333333
142
0.0
142
0.0
142
0.0
142
0.0
142
1.0
142
0.0
142
0.0
142
0.0
142
0.0
142
1.0
179
     0
270
     2
144
0.0208333333333333
144
0.0
144
0.0
144
0.0
144
0.0
144
0.0208333333333333
144
0.0
144
0.0
144
0.0
144
0.0
144
1.0
144
0.0
144
0.0
144
0.0
144
0.0
144
1.0
274
     2
147
0.0208333333333333
147
0.0
147
0.0
147
0.0
147
0.0
147
0.0208333333333333
147
0.0
147
0.0
147
0.0
147
0.0
147
1.0
147
0.0
147
0.0
147
0.0
147
0.0
147
1.0
  0
MATERIAL
  5
19DCD
102
{ACAD_REACTORS
330
2CF
102
}
102
{ACAD_XDICTIONARY
360
222E7
102
}
330
2CF
100
AcDbMaterial
  1
BYLAYER
 72
     0
 73
     2
 43
0.0208333333333333
 43
0.0
 43
0.0
 43
0.0
 43
0.0
 43
0.0208333333333333
 43
0.0
 43
0.0
 43
0.0
 43
0.0
 43
1.0
 43
0.0
 43
0.0
 43
0.0
 43
0.0
 43
1.0
 77
     0
 78
     2
 47
0.0208333333333333
 47
0.0
 47
0.0
 47
0.0
 47
0.0
 47
0.0208333333333333
 47
0.0
 47
0.0
 47
0.0
 47
0.0
 47
1.0
 47
0.0
 47
0.0
 47
0.0
 47
0.0
 47
1.0
171
     0
172
     2
 49
0.0208333333333333
 49
0.0
 49
0.0
 49
0.0
 49
0.0
 49
0.0208333333333333
 49
0.0
 49
0.0
 49
0.0
 49
0.0
 49
1.0
 49
0.0
 49
0.0
 49
0.0
 49
0.0
 49
1.0
175
     0
176
     2
142
0.0208333333333333
142
0.0
142
0.0
142
0.0
142
0.0
142
0.0208333333333333
142
0.0
142
0.0
142
0.0
142
0.0
142
1.0
142
0.0
142
0.0
142
0.0
142
0.0
142
1.0
179
     0
270
     2
144
0.0208333333333333
144
0.0
144
0.0
144
0.0
144
0.0
144
0.0208333333333333
144
0.0
144
0.0
144
0.0
144
0.0
144
1.0
144
0.0
144
0.0
144
0.0
144
0.0
144
1.0
274
     2
147
0.0208333333333333
147
0.0
147
0.0
147
0.0
147
0.0
147
0.0208333333333333
147
0.0
147
0.0
147
0.0
147
0.0
147
1.0
147
0.0
147
0.0
147
0.0
147
0.0
147
1.0
  0
MATERIAL
  5
19DDD
102
{ACAD_REACTORS
330
2CF
102
}
102
{ACAD_XDICTIONARY
360
222E9
102
}
330
2CF
100
AcDbMaterial
  1
GLOBAL
 72
     0
 73
     2
 43
0.0208333333333333
 43
0.0
 43
0.0
 43
0.0
 43
0.0
 43
0.0208333333333333
 43
0.0
 43
0.0
 43
0.0
 43
0.0
 43
1.0
 43
0.0
 43
0.0
 43
0.0
 43
0.0
 43
1.0
 77
     0
 78
     2
 47
0.0208333333333333
 47
0.0
 47
0.0
 47
0.0
 47
0.0
 47
0.0208333333333333
 47
0.0
 47
0.0
 47
0.0
 47
0.0
 47
1.0
 47
0.0
 47
0.0
 47
0.0
 47
0.0
 47
1.0
171
     0
172
     2
 49
0.0208333333333333
 49
0.0
 49
0.0
 49
0.0
 49
0.0
 49
0.0208333333333333
 49
0.0
 49
0.0
 49
0.0
 49
0.0
 49
1.0
 49
0.0
 49
0.0
 49
0.0
 49
0.0
 49
1.0
175
     0
176
     2
142
0.0208333333333333
142
0.0
142
0.0
142
0.0
142
0.0
142
0.0208333333333333
142
0.0
142
0.0
142
0.0
142
0.0
142
1.0
142
0.0
142
0.0
142
0.0
142
0.0
142
1.0
179
     0
270
     2
144
0.0208333333333333
144
0.0
144
0.0
144
0.0
144
0.0
144
0.0208333333333333
144
0.0
144
0.0
144
0.0
144
0.0
144
1.0
144
0.0
144
0.0
144
0.0
144
0.0
144
1.0
274
     2
147
0.0208333333333333
147
0.0
147
0.0
147
0.0
147
0.0
147
0.0208333333333333
147
0.0
147
0.0
147
0.0
147
0.0
147
1.0
147
0.0
147
0.0
147
0.0
147
0.0
147
1.0
  0
ACAD_PROXY_OBJECT
  5
19E19
102
{ACAD_REACTORS
330
19E18
102
}
330
19E18
100
AcDbZombieObject
 90
      499
 91
      512
 93
      610
310
40901902A4063FBFFFFFE000000000000002040AD7A3703D0AD73F4214DD185B99185C990000000000000104090141901A00000000000004100000000000000041025764000000000000300FC0
340
12
340
0
340
F
340
0
 94
        0
1001
ACAD_MLEADERVER
1070
     2
  0
MLINESTYLE
  5
1C
102
{ACAD_REACTORS
330
1B
102
}
330
1B
100
AcDbMlineStyle
  2
STANDARD
 70
     0
  3

 62
   256
 51
90.0
 52
90.0
 71
     2
 49
0.5
 62
   256
  6
BYLAYER
 49
-0.5
 62
   256
  6
BYLAYER
  0
ACAD_PROXY_OBJECT
  5
19DF7
102
{ACAD_REACTORS
330
19DF6
102
}
330
19DF6
100
AcDbZombieObject
 90
      499
 91
      511
 93
       41
310
903313A31580
  0
ACAD_PROXY_OBJECT
  5
19DF8
102
{ACAD_REACTORS
330
19DF6
102
}
330
19DF6
100
AcDbZombieObject
 90
      499
 91
      511
 93
      105
310
903313A324000000000000004000
  0
ACAD_PROXY_OBJECT
  5
19DF9
102
{ACAD_REACTORS
330
19DF6
102
}
330
19DF6
100
AcDbZombieObject
 90
      499
 91
      511
 93
      105
310
903313A344000000000000104000
  0
ACAD_PROXY_OBJECT
  5
19DFA
102
{ACAD_REACTORS
330
19DF6
102
}
330
19DF6
100
AcDbZombieObject
 90
      499
 91
      511
 93
      105
310
903313A354000000000000144000
  0
ACAD_PROXY_OBJECT
  5
19DFB
102
{ACAD_REACTORS
330
19DF6
102
}
330
19DF6
100
AcDbZombieObject
 90
      499
 91
      511
 93
      105
310
903313A384000000000000204000
  0
ACAD_PROXY_OBJECT
  5
19DFC
102
{ACAD_REACTORS
330
19DF6
102
}
330
19DF6
100
AcDbZombieObject
 90
      499
 91
      511
 93
      113
310
904313A31304000000000000244000
  0
ACAD_PROXY_OBJECT
  5
19DFD
102
{ACAD_REACTORS
330
19DF6
102
}
330
19DF6
100
AcDbZombieObject
 90
      499
 91
      511
 93
      113
310
904313A31364000000000000304000
  0
ACAD_PROXY_OBJECT
  5
19DFE
102
{ACAD_REACTORS
330
19DF6
102
}
330
19DF6
100
AcDbZombieObject
 90
      499
 91
      511
 93
      113
310
904313A32304000000000000344000
  0
ACAD_PROXY_OBJECT
  5
19DFF
102
{ACAD_REACTORS
330
19DF6
102
}
330
19DF6
100
AcDbZombieObject
 90
      499
 91
      511
 93
      113
310
904313A333040000000000003E4000
  0
ACAD_PROXY_OBJECT
  5
19E00
102
{ACAD_REACTORS
330
19DF6
102
}
330
19DF6
100
AcDbZombieObject
 90
      499
 91
      511
 93
      113
310
904313A34304000000000000444000
  0
ACAD_PROXY_OBJECT
  5
19E01
102
{ACAD_REACTORS
330
19DF6
102
}
330
19DF6
100
AcDbZombieObject
 90
      499
 91
      511
 93
      113
310
904313A35304000000000000494000
  0
ACAD_PROXY_OBJECT
  5
19E02
102
{ACAD_REACTORS
330
19DF6
102
}
330
19DF6
100
AcDbZombieObject
 90
      499
 91
      511
 93
      121
310
905313A3130304000000000000594000
  0
ACAD_PROXY_OBJECT
  5
19E03
102
{ACAD_REACTORS
330
19DF6
102
}
330
19DF6
100
AcDbZombieObject
 90
      499
 91
      511
 93
      105
310
903323A310000000000000010100
  0
ACAD_PROXY_OBJECT
  5
19E04
102
{ACAD_REACTORS
330
19DF6
102
}
330
19DF6
100
AcDbZombieObject
 90
      499
 91
      511
 93
      105
310
903343A310000000000000410100
  0
ACAD_PROXY_OBJECT
  5
19E05
102
{ACAD_REACTORS
330
19DF6
102
}
330
19DF6
100
AcDbZombieObject
 90
      499
 91
      511
 93
      105
310
903383A310000000000000810100
  0
ACAD_PROXY_OBJECT
  5
19E06
102
{ACAD_REACTORS
330
19DF6
102
}
330
19DF6
100
AcDbZombieObject
 90
      499
 91
      511
 93
      113
310
90431303A310000000000000910100
  0
ACAD_PROXY_OBJECT
  5
19E07
102
{ACAD_REACTORS
330
19DF6
102
}
330
19DF6
100
AcDbZombieObject
 90
      499
 91
      511
 93
      121
310
9053130303A310000000000001650100
  0
ACAD_PROXY_OBJECT
  5
19E08
102
{ACAD_REACTORS
330
19DF6
102
}
330
19DF6
100
AcDbZombieObject
 90
      499
 91
      511
 93
      257
310
90E312F31323822203D2031272D3022000000000000200FC000000000000284000
  0
ACAD_PROXY_OBJECT
  5
19E09
102
{ACAD_REACTORS
330
19DF6
102
}
330
19DF6
100
AcDbZombieObject
 90
      499
 91
      511
 93
      249
310
90D312F363422203D2031272D3022000000000000240FC000000000000284000
  0
ACAD_PROXY_OBJECT
  5
19E0A
102
{ACAD_REACTORS
330
19DF6
102
}
330
19DF6
100
AcDbZombieObject
 90
      499
 91
      511
 93
      249
310
90D312F333222203D2031272D3022000000000000280FC000000000000284000
  0
ACAD_PROXY_OBJECT
  5
19E0B
102
{ACAD_REACTORS
330
19DF6
102
}
330
19DF6
100
AcDbZombieObject
 90
      499
 91
      511
 93
      249
310
90D312F313622203D2031272D30220000000000002C0FC000000000000284000
  0
ACAD_PROXY_OBJECT
  5
19E0C
102
{ACAD_REACTORS
330
19DF6
102
}
330
19DF6
100
AcDbZombieObject
 90
      499
 91
      511
 93
      249
310
90D332F333222203D2031272D30220000000000002E0FC000000000000284000
  0
ACAD_PROXY_OBJECT
  5
19E0D
102
{ACAD_REACTORS
330
19DF6
102
}
330
19DF6
100
AcDbZombieObject
 90
      499
 91
      511
 93
      241
310
90C312F3822203D2031272D3022000000000000300FC000000000000284000
  0
ACAD_PROXY_OBJECT
  5
19E0E
102
{ACAD_REACTORS
330
19DF6
102
}
330
19DF6
100
AcDbZombieObject
 90
      499
 91
      511
 93
      249
310
90D332F313622203D2031272D3022000000000000320FC000000000000284000
  0
ACAD_PROXY_OBJECT
  5
19E0F
102
{ACAD_REACTORS
330
19DF6
102
}
330
19DF6
100
AcDbZombieObject
 90
      499
 91
      511
 93
      241
310
90C312F3422203D2031272D3022000000000000340FC000000000000284000
  0
ACAD_PROXY_OBJECT
  5
19E10
102
{ACAD_REACTORS
330
19DF6
102
}
330
19DF6
100
AcDbZombieObject
 90
      499
 91
      511
 93
      241
310
90C332F3822203D2031272D3022000000000000360FC000000000000284000
  0
ACAD_PROXY_OBJECT
  5
19E11
102
{ACAD_REACTORS
330
19DF6
102
}
330
19DF6
100
AcDbZombieObject
 90
      499
 91
      511
 93
      241
310
90C312F3222203D2031272D3022000000000000380FC000000000000284000
  0
ACAD_PROXY_OBJECT
  5
19E12
102
{ACAD_REACTORS
330
19DF6
102
}
330
19DF6
100
AcDbZombieObject
 90
      499
 91
      511
 93
      241
310
90C332F3422203D2031272D30220000000000003A0FC000000000000284000
  0
ACAD_PROXY_OBJECT
  5
19E13
102
{ACAD_REACTORS
330
19DF6
102
}
330
19DF6
100
AcDbZombieObject
 90
      499
 91
      511
 93
      161
310
90A3122203D2031272D30224000000000000284000
  0
ACAD_PROXY_OBJECT
  5
19E14
102
{ACAD_REACTORS
330
19DF6
102
}
330
19DF6
100
AcDbZombieObject
 90
      499
 91
      511
 93
      257
310
90E312D312F3222203D2031272D30220000000000003E0FC000000000000284000
  0
ACAD_PROXY_OBJECT
  5
19E15
102
{ACAD_REACTORS
330
19DF6
102
}
330
19DF6
100
AcDbZombieObject
 90
      499
 91
      511
 93
      225
310
90A3322203D2031272D302200000000000002100000000000000284000
  0
ACAD_PROXY_OBJECT
  5
19E16
102
{ACAD_REACTORS
330
19DF6
102
}
330
19DF6
100
AcDbZombieObject
 90
      499
 91
      511
 93
      225
310
90A3622203D2031272D302200000000000006100000000000000284000
  0
ACAD_PROXY_OBJECT
  5
19E17
102
{ACAD_REACTORS
330
19DF6
102
}
330
19DF6
100
AcDbZombieObject
 90
      499
 91
      511
 93
      249
310
90D31272D3022203D2031272D30220000000000000A100000000000000284000
  0
ACAD_PROXY_OBJECT
  5
19DEB
102
{ACAD_REACTORS
330
19DE5
102
}
330
19DE5
100
AcDbZombieObject
 90
      499
 91
      510
 93
      436
310
42CC9915DA5C99599C985B595049028333333333333E3BF0000000000000FB0107901411070040501600405405064090741402480A0340
1001
ACAD
1000
AcDbSavedByObjectVersion
1070
     0
  0
ACAD_PROXY_OBJECT
  5
19DED
102
{ACAD_REACTORS
330
19DE5
102
}
330
19DE5
100
AcDbZombieObject
 90
      499
 91
      510
 93
      500
310
424CD108121A5919195B90640502408333333333333E3BF0000000000000FB01079024090700405020000000000001110200405405064090740C02480A0340
1001
ACAD
1000
AcDbSavedByObjectVersion
1070
     0
  0
ACAD_PROXY_OBJECT
  5
19DEC
102
{ACAD_REACTORS
330
19DE5
102
}
330
19DE5
100
AcDbZombieObject
 90
      499
 91
      510
 93
      436
310
42CCD915DA5C99599C985B595059028333333333333E3BF0000000000000FB0107901411070040501600405405064090741402480A0340
1001
ACAD
1000
AcDbSavedByObjectVersion
1070
     0
  0
ACAD_PROXY_OBJECT
  5
19DEA
102
{ACAD_REACTORS
330
19DE5
102
}
330
19DE5
100
AcDbZombieObject
 90
      499
 91
      510
 93
      388
310
4150985CDA58D07406404333333333333E3BF0000000000000FB0107A41107004050150841D405064090741402480A0350
1001
ACAD
1000
AcDbSavedByObjectVersion
1070
     0
  0
ACAD_PROXY_OBJECT
  5
19DF1
102
{ACAD_REACTORS
330
19DE5
102
}
330
19DE5
100
AcDbZombieObject
 90
      499
 91
      510
 93
      428
310
42109C9A59DA1D195B90C409028333333333333E3BF0000000000000FB010790141107004050150841D405064090741402480A029950
1001
ACAD
1000
AcDbSavedByObjectVersion
1070
     0
  0
ACAD_PROXY_OBJECT
  5
19DF5
102
{ACAD_REACTORS
330
19DE5
102
}
330
19DE5
100
AcDbZombieObject
 90
      499
 91
      510
 93
      452
310
42D0DBDB1BDC90DA185B99D95104090240C333333333333E3BF0000000000000FB0108901411070040501508421405064090741402480A0350
1001
ACAD
1000
AcDbSavedByObjectVersion
1070
     0
  0
ACAD_PROXY_OBJECT
  5
19DEE
102
{ACAD_REACTORS
330
19DE5
102
}
330
19DE5
100
AcDbZombieObject
 90
      499
 91
      510
 93
      500
310
4290DBDB98D95C1D1D585B10940D028333333333333E3BF0000000000000FB0107902409070040501000000000000111010841D405064090740C02480A0340
1001
ACAD
1000
AcDbSavedByObjectVersion
1070
     0
  0
ACAD_PROXY_OBJECT
  5
19DF0
102
{ACAD_REACTORS
330
19DE5
102
}
330
19DE5
100
AcDbZombieObject
 90
      499
 91
      510
 93
      412
310
40D11A5B50B409028333333333333E3BF0000000000000FB010790141107004050150841D405064090741402480A02677FFFFFD0
1001
ACAD
1000
AcDbSavedByObjectVersion
1070
     0
  0
ACAD_PROXY_OBJECT
  5
1E02A
102
{ACAD_REACTORS
330
19DE5
102
}
330
19DE5
100
AcDbZombieObject
 90
      499
 91
      510
 93
      452
310
43115919D950DBDB1BDC93D999916409028333333333333E3BF0000000000000FB010790141107004050150841D405064090741402480A0350
1001
ACAD
1000
AcDbSavedByObjectVersion
1070
     0
  0
ACAD_PROXY_OBJECT
  5
19DF4
102
{ACAD_REACTORS
330
19DE5
102
}
330
19DE5
100
AcDbZombieObject
 90
      499
 91
      510
 93
      444
310
42D19858D95C185D1D195C9B90F409028333333333333E3BF0000000000000FB010790141107004050150841D405064090741402480A0350
1001
ACAD
1000
AcDbSavedByObjectVersion
1070
     0
  0
ACAD_PROXY_OBJECT
  5
19DE6
102
{ACAD_REACTORS
330
19DE5
102
}
330
19DE5
100
AcDbZombieObject
 90
      499
 91
      510
 93
      388
310
41119B185D240901404333333333333E3BF0000000000000F9010740A41107004050150841D405064090741402480A1B50
1001
ACAD
1000
AcDbSavedByObjectVersion
1070
     0
  0
ACAD_PROXY_OBJECT
  5
19DE7
102
{ACAD_REACTORS
330
19DE5
102
}
330
19DE5
100
AcDbZombieObject
 90
      499
 91
      510
 93
      476
310
43519B185D15DA5D1A115919D95CD0140901404333333333333E3BF0000000000000F9010740901411070040501600405405064090741402480A1B50
1001
ACAD
1000
AcDbSavedByObjectVersion
1070
     0
  0
ACAD_PROXY_OBJECT
  5
19DE8
102
{ACAD_REACTORS
330
19DE5
102
}
330
19DE5
100
AcDbZombieObject
 90
      499
 91
      510
 93
      412
310
41D1DBDD5C985D5910240902404333333333333E3BF0000000000000F9010740A411070040501641D405064090741402480A1B50
1001
ACAD
1000
AcDbSavedByObjectVersion
1070
     0
  0
ACAD_PROXY_OBJECT
  5
19DE9
102
{ACAD_REACTORS
330
19DE5
102
}
330
19DE5
100
AcDbZombieObject
 90
      499
 91
      510
 93
      500
310
4411DBDD5C985D5915DA5D1A115919D95CD0340902404333333333333E3BF0000000000000F9010740901411070040501600405405064090741402480A1B50
1001
ACAD
1000
AcDbSavedByObjectVersion
1070
     0
  0
ACAD_PROXY_OBJECT
  5
1F381
102
{ACAD_REACTORS
330
19DE5
102
}
330
19DE5
100
AcDbZombieObject
 90
      499
 91
      510
 93
      476
310
41921A5919195B90640502408333333333333E33F0000000000000F901079024090700405020000000000001110200405405064090740C02480A0340
1001
ACAD
1000
AcDbSavedByObjectVersion
1070
     0
  0
ACAD_PROXY_OBJECT
  5
1E028
102
{ACAD_REACTORS
330
19DE5
102
}
330
19DE5
100
AcDbZombieObject
 90
      499
 91
      510
 93
      428
310
42529A5D1D195C93D999914409028333333333333E3BF0000000000000FB010790141107004050150A41D405064090741402480A0350
1001
ACAD
1000
AcDbSavedByObjectVersion
1070
     0
  0
ACAD_PROXY_OBJECT
  5
19DF3
102
{ACAD_REACTORS
330
19DE5
102
}
330
19DE5
100
AcDbZombieObject
 90
      499
 91
      510
 93
      444
310
42D31A5B995C185D1D195C9B90E409028333333333333E3BF0000000000000FB010790141107004050750841D405064090741402483A0350
1001
ACAD
1000
AcDbSavedByObjectVersion
1070
     0
  0
ACAD_PROXY_OBJECT
  5
1F387
102
{ACAD_REACTORS
330
19DE5
102
}
330
19DE5
100
AcDbZombieObject
 90
      499
 91
      510
 93
      484
310
42135BD9195B1A5B99D0A409038333333333333E33F0000000000000F901074090290700405010000000000201990108421405064090741402480A1B40
1001
ACAD
1000
AcDbSavedByObjectVersion
1070
     0
  0
ACAD_PROXY_OBJECT
  5
1E029
102
{ACAD_REACTORS
330
19DE5
102
}
330
19DE5
100
AcDbZombieObject
 90
      499
 91
      510
 93
      444
310
42D3DD995C9A185B99D3D999915409028333333333333E3BF0000000000000FB010790141107004050150941D405064090741402480A0350
1001
ACAD
1000
AcDbSavedByObjectVersion
1070
     0
  0
ACAD_PROXY_OBJECT
  5
19DEF
102
{ACAD_REACTORS
330
19DE5
102
}
330
19DE5
100
AcDbZombieObject
 90
      499
 91
      510
 93
      420
310
425499585B1A5CDD1A58D08409028333333333333E3BF0000000000000FB01079019070040501508421405064090741402480A1B40
1001
ACAD
1000
AcDbSavedByObjectVersion
1070
     0
  0
ACAD_PROXY_OBJECT
  5
1F386
102
{ACAD_REACTORS
330
19DE5
102
}
330
19DE5
100
AcDbZombieObject
 90
      499
 91
      510
 93
      420
310
4194DA1859195911B40902404333333333333E33F0000000000000F9010740A41107004050150800405405064090840C02480A0B40
1001
ACAD
1000
AcDbSavedByObjectVersion
1070
     0
  0
ACAD_PROXY_OBJECT
  5
1F385
102
{ACAD_REACTORS
330
19DE5
102
}
330
19DE5
100
AcDbZombieObject
 90
      499
 91
      510
 93
      516
310
4454DA18591959081DDA5D1A08195919D95CD1A40902404333333333333E33F0000000000000F901074090142907004050250800405405064090740C02480A0B40
1001
ACAD
1000
AcDbSavedByObjectVersion
1070
     0
  0
ACAD_PROXY_OBJECT
  5
1F382
102
{ACAD_REACTORS
330
19DE5
102
}
330
19DE5
100
AcDbZombieObject
 90
      499
 91
      510
 93
      532
310
4394DA1859195CC81BD98811DC985E5174090240C333333333333E33F0000000000000F901079024090741D01000000000000111010841D405064090740C02480A0340
1001
ACAD
1000
AcDbSavedByObjectVersion
1070
     0
  0
ACAD_PROXY_OBJECT
  5
1F383
102
{ACAD_REACTORS
330
19DE5
102
}
330
19DE5
100
AcDbZombieObject
 90
      499
 91
      510
 93
      476
310
41D4DAD95D18DA1E51840502408333333333333E33F0000000000000F901079024090741D01000000000000111010B41D405064090741802480A0340
1001
ACAD
1000
AcDbSavedByObjectVersion
1070
     0
  0
ACAD_PROXY_OBJECT
  5
19DF2
102
{ACAD_REACTORS
330
19DE5
102
}
330
19DE5
100
AcDbZombieObject
 90
      499
 91
      510
 93
      412
310
41D51A1A58DAD95B90D409028333333333333E3BF0000000000000FB010790141107004050150C41D405064090741402480A0350
1001
ACAD
1000
AcDbSavedByObjectVersion
1070
     0
  0
ACAD_PROXY_OBJECT
  5
1F380
102
{ACAD_REACTORS
330
19DE5
102
}
330
19DE5
100
AcDbZombieObject
 90
      499
 91
      510
 93
      420
310
4255DA5C99599C985B595059028333333333333E33F0000000000000F90107901411070040501600405405064090740C02480A0340
1001
ACAD
1000
AcDbSavedByObjectVersion
1070
     0
  0
ACAD_PROXY_OBJECT
  5
1F384
102
{ACAD_REACTORS
330
19DE5
102
}
330
19DE5
100
AcDbZombieObject
 90
      499
 91
      510
 93
      404
310
41560B54985E51940902404000000000000E03F0000000000000F9010740501907004050150841D405064090740C02480A1B40
1001
ACAD
1000
AcDbSavedByObjectVersion
1070
     0
  0
XRECORD
  5
22148
102
{ACAD_REACTORS
330
22147
102
}
330
22147
100
AcDbXrecord
340
2D0
  0
XRECORD
  5
22149
102
{ACAD_REACTORS
330
22147
102
}
330
22147
100
AcDbXrecord
340
2CF
  0
DICTIONARYVAR
  5
20A45
102
{ACAD_REACTORS
330
37
102
}
330
37
100
DictionaryVariables
280
     0
  1
1:1
  0
DICTIONARYVAR
  5
1AC19
102
{ACAD_REACTORS
330
37
102
}
330
37
100
DictionaryVariables
280
     0
  1
Standard
  0
DICTIONARYVAR
  5
4F1
102
{ACAD_REACTORS
330
37
102
}
330
37
100
DictionaryVariables
280
     0
  1
Standard
  0
DICTIONARYVAR
  5
38
102
{ACAD_REACTORS
330
37
102
}
330
37
100
DictionaryVariables
280
     0
  1
-1
  0
DICTIONARYVAR
  5
408
102
{ACAD_REACTORS
330
37
102
}
330
37
100
DictionaryVariables
280
     0
  1
2
  0
DICTIONARYVAR
  5
1891
102
{ACAD_REACTORS
330
37
102
}
330
37
100
DictionaryVariables
280
     0
  1
1
  0
DICTIONARYVAR
  5
1AC1C
102
{ACAD_REACTORS
330
37
102
}
330
37
100
DictionaryVariables
280
     0
  1
0
  0
DICTIONARYVAR
  5
1895
102
{ACAD_REACTORS
330
37
102
}
330
37
100
DictionaryVariables
280
     0
  1
8
  0
DICTIONARYVAR
  5
1894
102
{ACAD_REACTORS
330
37
102
}
330
37
100
DictionaryVariables
280
     0
  1
1
  0
DICTIONARYVAR
  5
20A9B
102
{ACAD_REACTORS
330
37
102
}
330
37
100
DictionaryVariables
280
     0
  1
0
  0
DICTIONARYVAR
  5
1892
102
{ACAD_REACTORS
330
37
102
}
330
37
100
DictionaryVariables
280
     0
  1
8
  0
DICTIONARYVAR
  5
1893
102
{ACAD_REACTORS
330
37
102
}
330
37
100
DictionaryVariables
280
     0
  1
2
  0
DICTIONARYVAR
  5
409
102
{ACAD_REACTORS
330
37
102
}
330
37
100
DictionaryVariables
280
     0
  1

  0
DICTIONARYVAR
  5
1AC1B
102
{ACAD_REACTORS
330
37
102
}
330
37
100
DictionaryVariables
280
     0
  1
127
  0
DICTIONARYVAR
  5
1F37F
102
{ACAD_REACTORS
330
37
102
}
330
37
100
DictionaryVariables
280
     0
  1
2
  0
DICTIONARY
  5
222E5
330
19DD5
100
AcDbDictionary
  3
ACAD_XREC_ROUNDTRIP
360
222E6
1001
ACAD
1000
TREAT_AS_HARD
1070
     1
  0
DICTIONARY
  5
222E7
330
19DCD
100
AcDbDictionary
  3
ACAD_XREC_ROUNDTRIP
360
222E8
1001
ACAD
1000
TREAT_AS_HARD
1070
     1
  0
DICTIONARY
  5
222E9
330
19DDD
100
AcDbDictionary
  3
ACAD_XREC_ROUNDTRIP
360
222EA
1001
ACAD
1000
TREAT_AS_HARD
1070
     1
  0
XRECORD
  5
222E6
102
{ACAD_REACTORS
330
222E5
102
}
330
222E5
100
AcDbXrecord
102
MATERIAL
148
0.0
149
0.0
149
0.0
 93
        0
 94
      127
282
     0
 72
     0
 77
     0
171
     0
175
     0
179
     0
273
     0
  0
XRECORD
  5
222E8
102
{ACAD_REACTORS
330
222E7
102
}
330
222E7
100
AcDbXrecord
102
MATERIAL
148
0.0
149
0.0
149
0.0
 93
        0
 94
      127
282
     0
 72
     0
 77
     0
171
     0
175
     0
179
     0
273
     0
  0
XRECORD
  5
222EA
102
{ACAD_REACTORS
330
222E9
102
}
330
222E9
100
AcDbXrecord
102
MATERIAL
148
0.0
149
0.0
149
0.0
 93
        0
 94
      127
282
     0
 72
     0
 77
     0
171
     0
175
     0
179
     0
273
     0
  0
ENDSEC
  0
EOF
