  0
SECTION
  2
HEADER
  9
$ACADVER
  1
AC1012
  9
$DWGCODEPAGE
  3
ansi_932
  9
$INSBASE
 10
0.0
 20
0.0
 30
0.0
  9
$EXTMIN
 10
161.0162386829192
 20
-710.3213303512672
 30
0.0
  9
$EXTMAX
 10
805.3962416153649
 20
-457.295441490976
 30
0.0
  9
$LIMMIN
 10
0.0
 20
0.0
  9
$LIMMAX
 10
420.0
 20
297.0
  9
$ORTHOMODE
 70
     0
  9
$REGENMODE
 70
     1
  9
$FILLMODE
 70
     1
  9
$QTEXTMODE
 70
     0
  9
$MIRRTEXT
 70
     0
  9
$DRAGMODE
 70
     2
  9
$LTSCALE
 40
0.5
  9
$OSMODE
 70
 14463
  9
$ATTMODE
 70
     1
  9
$TEXTSIZE
 40
4.0
  9
$TRACEWID
 40
1.0
  9
$TEXTSTYLE
  7
STANDARD
  9
$CLAYER
  8
1TEXT
  9
$CELTYPE
  6
BYLAYER
  9
$CECOLOR
 62
   256
  9
$CELTSCALE
 40
1.0
  9
$DELOBJ
 70
     1
  9
$DISPSILH
 70
     0
  9
$DIMSCALE
 40
1.0
  9
$DIMASZ
 40
2.0
  9
$DIMEXO
 40
0.0
  9
$DIMDLI
 40
7.0
  9
$DIMRND
 40
0.0
  9
$DIMDLE
 40
0.0
  9
$DIMEXE
 40
1.0
  9
$DIMTP
 40
0.0
  9
$DIMTM
 40
0.0
  9
$DIMTXT
 40
3.5
  9
$DIMCEN
 40
0.0
  9
$DIMTSZ
 40
0.0
  9
$DIMTOL
 70
     0
  9
$DIMLIM
 70
     0
  9
$DIMTIH
 70
     0
  9
$DIMTOH
 70
     0
  9
$DIMSE1
 70
     0
  9
$DIMSE2
 70
     0
  9
$DIMTAD
 70
     1
  9
$DIMZIN
 70
     8
  9
$DIMBLK
  1

  9
$DIMASO
 70
     1
  9
$DIMSHO
 70
     1
  9
$DIMPOST
  1
 
  9
$DIMAPOST
  1

  9
$DIMALT
 70
     0
  9
$DIMALTD
 70
     2
  9
$DIMALTF
 40
25.4
  9
$DIMLFAC
 40
1.0
  9
$DIMTOFL
 70
     1
  9
$DIMTVP
 40
0.0
  9
$DIMTIX
 70
     0
  9
$DIMSOXD
 70
     0
  9
$DIMSAH
 70
     1
  9
$DIMBLK1
  1
OPEN30
  9
$DIMBLK2
  1
OPEN30
  9
$DIMSTYLE
  2
NEWX10
  9
$DIMCLRD
 70
   256
  9
$DIMCLRE
 70
   256
  9
$DIMCLRT
 70
   201
  9
$DIMTFAC
 40
0.7
  9
$DIMGAP
 40
0.7
  9
$DIMJUST
 70
     0
  9
$DIMSD1
 70
     0
  9
$DIMSD2
 70
     0
  9
$DIMTOLJ
 70
     1
  9
$DIMTZIN
 70
     8
  9
$DIMALTZ
 70
     0
  9
$DIMALTTZ
 70
     0
  9
$DIMFIT
 70
     2
  9
$DIMUPT
 70
     0
  9
$DIMUNIT
 70
     2
  9
$DIMDEC
 70
     2
  9
$DIMTDEC
 70
     4
  9
$DIMALTU
 70
     2
  9
$DIMALTTD
 70
     2
  9
$DIMTXSTY
  7
STANDARD
  9
$DIMAUNIT
 70
     0
  9
$LUNITS
 70
     2
  9
$LUPREC
 70
     4
  9
$SKETCHINC
 40
1.0
  9
$FILLETRAD
 40
0.3
  9
$AUNITS
 70
     0
  9
$AUPREC
 70
     2
  9
$MENU
  1
acad
  9
$ELEVATION
 40
0.0
  9
$PELEVATION
 40
0.0
  9
$THICKNESS
 40
0.0
  9
$LIMCHECK
 70
     0
  9
$CHAMFERA
 40
1.0
  9
$CHAMFERB
 40
1.0
  9
$CHAMFERC
 40
20.0
  9
$CHAMFERD
 40
0.0
  9
$SKPOLY
 70
     0
  9
$TDCREATE
 40
2453033.732663484
  9
$TDUPDATE
 40
2459535.387129965
  9
$TDINDWG
 40
2.6969421065
  9
$TDUSRTIMER
 40
2.6969421065
  9
$USRTIMER
 70
     1
  9
$ANGBASE
 50
0.0
  9
$ANGDIR
 70
     0
  9
$PDMODE
 70
     0
  9
$PDSIZE
 40
0.0
  9
$PLINEWID
 40
0.0
  9
$COORDS
 70
     2
  9
$SPLFRAME
 70
     0
  9
$SPLINETYPE
 70
     6
  9
$SPLINESEGS
 70
     8
  9
$ATTDIA
 70
     0
  9
$ATTREQ
 70
     1
  9
$HANDLING
 70
     1
  9
$HANDSEED
  5
22A42
  9
$SURFTAB1
 70
     6
  9
$SURFTAB2
 70
     6
  9
$SURFTYPE
 70
     6
  9
$SURFU
 70
     6
  9
$SURFV
 70
     6
  9
$UCSNAME
  2

  9
$UCSORG
 10
0.0
 20
0.0
 30
0.0
  9
$UCSXDIR
 10
1.0
 20
0.0
 30
0.0
  9
$UCSYDIR
 10
0.0
 20
1.0
 30
0.0
  9
$PUCSNAME
  2

  9
$PUCSORG
 10
0.0
 20
0.0
 30
0.0
  9
$PUCSXDIR
 10
1.0
 20
0.0
 30
0.0
  9
$PUCSYDIR
 10
0.0
 20
1.0
 30
0.0
  9
$USERI1
 70
     0
  9
$USERI2
 70
     0
  9
$USERI3
 70
     0
  9
$USERI4
 70
     0
  9
$USERI5
 70
     0
  9
$USERR1
 40
0.0
  9
$USERR2
 40
0.0
  9
$USERR3
 40
0.0
  9
$USERR4
 40
0.0
  9
$USERR5
 40
0.0
  9
$WORLDVIEW
 70
     1
  9
$SHADEDGE
 70
     3
  9
$SHADEDIF
 70
    70
  9
$TILEMODE
 70
     1
  9
$MAXACTVP
 70
    48
  9
$PINSBASE
 10
0.0
 20
0.0
 30
0.0
  9
$PLIMCHECK
 70
     0
  9
$PEXTMIN
 10
1.000000000000000E+20
 20
1.000000000000000E+20
 30
1.000000000000000E+20
  9
$PEXTMAX
 10
-1.000000000000000E+20
 20
-1.000000000000000E+20
 30
-1.000000000000000E+20
  9
$PLIMMIN
 10
0.0
 20
0.0
  9
$PLIMMAX
 10
420.0
 20
297.0
  9
$UNITMODE
 70
     0
  9
$VISRETAIN
 70
     1
  9
$PLINEGEN
 70
     0
  9
$PSLTSCALE
 70
     1
  9
$TREEDEPTH
 70
  3020
  9
$PICKSTYLE
 70
     0
  9
$CMLSTYLE
  2
STANDARD
  9
$CMLJUST
 70
     0
  9
$CMLSCALE
 40
20.0
  9
$SAVEIMAGES
 70
     1
  0
ENDSEC
  0
SECTION
  2
CLASSES
  0
CLASS
  1
DICTIONARYVAR
  2
AcDbDictionaryVar
  3
ObjectDBX Classes
 90
        0
280
     0
281
     0
  0
CLASS
  1
IDBUFFER
  2
AcDbIdBuffer
  3
ObjectDBX Classes
 90
    32768
280
     0
281
     0
  0
CLASS
  1
LWPOLYLINE
  2
AcDbPolyline
  3
ObjectDBX Classes
 90
    32768
280
     0
281
     1
  0
CLASS
  1
ACDBDICTIONARYWDFLT
  2
AcDbDictionaryWithDefault
  3
ObjectDBX Classes
 90
    32768
280
     0
281
     0
  0
CLASS
  1
ACDBPLACEHOLDER
  2
AcDbPlaceHolder
  3
ObjectDBX Classes
 90
        0
280
     0
281
     0
  0
CLASS
  1
LAYOUT
  2
AcDbLayout
  3
ObjectDBX Classes
 90
        0
280
     0
281
     0
  0
CLASS
  1
TABLESTYLE
  2
AcDbTableStyle
  3
ObjectDBX Classes
 90
     4095
280
     0
281
     0
  0
CLASS
  1
SORTENTSTABLE
  2
AcDbSortentsTable
  3
ObjectDBX Classes
 90
    32768
280
     0
281
     0
  0
CLASS
  1
DIMASSOC
  2
AcDbDimAssoc
  3
"AcDbDimAssoc|Product Desc:     AcDim ARX App For Dimension|Company:          Autodesk, Inc.|WEB Address:      www.autodesk.com"
 90
        0
280
     0
281
     0
  0
CLASS
  1
MATERIAL
  2
AcDbMaterial
  3
ObjectDBX Classes
 90
     1153
280
     0
281
     0
  0
CLASS
  1
VISUALSTYLE
  2
AcDbVisualStyle
  3
ObjectDBX Classes
 90
     4095
280
     0
281
     0
  0
CLASS
  1
SCALE
  2
AcDbScale
  3
ObjectDBX Classes
 90
     1153
280
     0
281
     0
  0
CLASS
  1
MLEADERSTYLE
  2
AcDbMLeaderStyle
  3
ACDB_MLEADERSTYLE_CLASS
 90
     4095
280
     0
281
     0
  0
CLASS
  1
CELLSTYLEMAP
  2
AcDbCellStyleMap
  3
ObjectDBX Classes
 90
     1152
280
     0
281
     0
  0
CLASS
  1
EXACXREFPANELOBJECT
  2
ExAcXREFPanelObject
  3
EXAC_ESW
 90
     1025
280
     1
281
     0
  0
CLASS
  1
NPOCOLLECTION
  2
AcDbImpNonPersistentObjectsCollection
  3
ObjectDBX Classes
 90
     1153
280
     1
281
     0
  0
CLASS
  1
SUN
  2
AcDbSun
  3
SCENEOE
 90
     1153
280
     0
281
     0
  0
CLASS
  1
XRECORD
  2
AcDbXrecord
  3
ObjectDBX Classes
 90
    32768
280
     0
281
     0
  0
CLASS
  1
HATCH
  2
AcDbHatch
  3
ObjectDBX Classes
 90
    32768
280
     0
281
     1
  0
ENDSEC
  0
SECTION
  2
TABLES
  0
TABLE
  2
VPORT
  5
8
330
0
100
AcDbSymbolTable
 70
     1
  0
VPORT
  5
19DC2
330
8
100
AcDbSymbolTableRecord
100
AcDbViewportTableRecord
  2
*ACTIVE
 70
     0
 10
0.0
 20
0.0
 11
1.0
 21
1.0
 12
483.206240149142
 22
-583.8083859211216
 13
0.0
 23
0.0
 14
10.0
 24
10.0
 15
10.0
 25
10.0
 16
0.0
 26
0.0
 36
1.0
 17
0.0
 27
0.0
 37
0.0
 40
323.7356731080963
 41
2.137115839243499
 42
50.0
 43
0.0
 44
0.0
 50
0.0
 51
0.0
 71
    16
 72
   100
 73
     1
 74
     1
 75
     0
 76
     0
 77
     0
 78
     0
  0
ENDTAB
  0
TABLE
  2
LTYPE
  5
5
330
0
100
AcDbSymbolTable
 70
     3
  0
LTYPE
  5
12
330
5
100
AcDbSymbolTableRecord
100
AcDbLinetypeTableRecord
  2
BYBLOCK
 70
     0
  3

 72
    65
 73
     0
 40
0.0
  0
LTYPE
  5
13
330
5
100
AcDbSymbolTableRecord
100
AcDbLinetypeTableRecord
  2
BYLAYER
 70
     0
  3

 72
    65
 73
     0
 40
0.0
  0
LTYPE
  5
14
330
5
100
AcDbSymbolTableRecord
100
AcDbLinetypeTableRecord
  2
CONTINUOUS
 70
     0
  3
Solid line
 72
    65
 73
     0
 40
0.0
  0
LTYPE
  5
26
330
5
100
AcDbSymbolTableRecord
100
AcDbLinetypeTableRecord
  2
CENTER2
 70
     0
  3
Center (.5x) ___ _ ___ _ ___ _ ___ _ ___ _ ___
 72
    65
 73
     4
 40
28.575
 49
19.05
 74
     0
 49
-3.175
 74
     0
 49
3.175
 74
     0
 49
-3.175
 74
     0
  0
LTYPE
  5
100
330
5
100
AcDbSymbolTableRecord
100
AcDbLinetypeTableRecord
  2
PHANTOM2
 70
     0
  3
Phantom (0.5x) ___ _ _ ___ _ _ ___ _ _ ___ _ _
 72
    65
 73
     6
 40
31.75
 49
15.875
 74
     0
 49
-3.175
 74
     0
 49
3.175
 74
     0
 49
-3.175
 74
     0
 49
3.175
 74
     0
 49
-3.175
 74
     0
  0
ENDTAB
  0
TABLE
  2
LAYER
  5
2
102
{ACAD_XDICTIONARY
360
18FE8
102
}
330
0
100
AcDbSymbolTable
 70
     7
  0
LAYER
  5
E
102
{ACAD_XDICTIONARY
360
1A20A
102
}
330
2
100
AcDbSymbolTableRecord
100
AcDbLayerTableRecord
  2
0
 70
     0
 62
     7
  6
CONTINUOUS
  0
LAYER
  5
29
102
{ACAD_XDICTIONARY
360
1A20C
102
}
330
2
100
AcDbSymbolTableRecord
100
AcDbLayerTableRecord
  2
1CENTER
 70
     0
 62
     7
  6
CENTER2
  0
LAYER
  5
31
102
{ACAD_XDICTIONARY
360
1A20E
102
}
330
2
100
AcDbSymbolTableRecord
100
AcDbLayerTableRecord
  2
1TEXT
 70
     0
 62
     7
  6
CONTINUOUS
  0
LAYER
  5
101
102
{ACAD_XDICTIONARY
360
1A218
102
}
330
2
100
AcDbSymbolTableRecord
100
AcDbLayerTableRecord
  2
1DIM
 70
     0
 62
     7
  6
CONTINUOUS
  0
LAYER
  5
103
102
{ACAD_XDICTIONARY
360
1A21C
102
}
330
2
100
AcDbSymbolTableRecord
100
AcDbLayerTableRecord
  2
1PHANTOM
 70
     0
 62
     7
  6
PHANTOM2
  0
LAYER
  5
25F
102
{ACAD_XDICTIONARY
360
1A220
102
}
330
2
100
AcDbSymbolTableRecord
100
AcDbLayerTableRecord
  2
01
 70
     0
 62
     1
  6
CONTINUOUS
  0
LAYER
  5
26A
102
{ACAD_XDICTIONARY
360
1A236
102
}
330
2
100
AcDbSymbolTableRecord
100
AcDbLayerTableRecord
  2
1DIM1
 70
     0
 62
     7
  6
CONTINUOUS
  0
ENDTAB
  0
TABLE
  2
STYLE
  5
3
330
0
100
AcDbSymbolTable
 70
     1
  0
STYLE
  5
F
330
3
100
AcDbSymbolTableRecord
100
AcDbTextStyleTableRecord
  2
STANDARD
 70
     0
 40
0.0
 41
1.0
 50
0.0
 71
     0
 42
4.0
  3
txt.shx
  4
extfont.shx
  0
ENDTAB
  0
TABLE
  2
VIEW
  5
6
330
0
100
AcDbSymbolTable
 70
     0
  0
ENDTAB
  0
TABLE
  2
UCS
  5
7
330
0
100
AcDbSymbolTable
 70
     0
  0
ENDTAB
  0
TABLE
  2
APPID
  5
9
330
0
100
AcDbSymbolTable
 70
    17
  0
APPID
  5
10
330
9
100
AcDbSymbolTableRecord
100
AcDbRegAppTableRecord
  2
ACAD
 70
     0
  0
APPID
  5
21
330
9
100
AcDbSymbolTableRecord
100
AcDbRegAppTableRecord
  2
DRAWINGVARIABLESXDATA
 70
     0
  0
APPID
  5
64
330
9
100
AcDbSymbolTableRecord
100
AcDbRegAppTableRecord
  2
CONTENTTABDATA
 70
     0
  0
APPID
  5
65
330
9
100
AcDbSymbolTableRecord
100
AcDbRegAppTableRecord
  2
CONTENTCURRENTTAB
 70
     0
  0
APPID
  5
66
330
9
100
AcDbSymbolTableRecord
100
AcDbRegAppTableRecord
  2
CONTENTBLOCKDESCRIPTION
 70
     0
  0
APPID
  5
67
330
9
100
AcDbSymbolTableRecord
100
AcDbRegAppTableRecord
  2
CONTENTBLOCKICON
 70
     0
  0
APPID
  5
68
330
9
100
AcDbSymbolTableRecord
100
AcDbRegAppTableRecord
  2
CONTENTLONGBLOCKNAME
 70
     0
  0
APPID
  5
5A9
330
9
100
AcDbSymbolTableRecord
100
AcDbRegAppTableRecord
  2
ACAD_PSEXT
 70
     0
  0
APPID
  5
18AC
330
9
100
AcDbSymbolTableRecord
100
AcDbRegAppTableRecord
  2
ACAD_DSTYLE_DIMTEXT_FILL
 70
     0
  0
APPID
  5
19E1A
330
9
100
AcDbSymbolTableRecord
100
AcDbRegAppTableRecord
  2
ACAD_MLEADERVER
 70
     0
  0
APPID
  5
1A2FA
330
9
100
AcDbSymbolTableRecord
100
AcDbRegAppTableRecord
  2
ACAD_DSTYLE_DIMRADIAL_EXTE
 70
     0
  0
APPID
  5
1DBC1
330
9
100
AcDbSymbolTableRecord
100
AcDbRegAppTableRecord
  2
ACADANNOTATIVE
 70
     0
  0
APPID
  5
1E991
330
9
100
AcDbSymbolTableRecord
100
AcDbRegAppTableRecord
  2
ACAD_EXEMPT_FROM_CAD_STAND
 70
     0
  0
APPID
  5
202C7
330
9
100
AcDbSymbolTableRecord
100
AcDbRegAppTableRecord
  2
ACDBBLOCKREPETAG
 70
     0
  0
APPID
  5
20AA7
330
9
100
AcDbSymbolTableRecord
100
AcDbRegAppTableRecord
  2
ACAD_OBJECT_CHANGE_GUID
 70
     0
  0
APPID
  5
213E8
330
9
100
AcDbSymbolTableRecord
100
AcDbRegAppTableRecord
  2
ACLAYERTOOLS
 70
     0
  0
APPID
  5
213E9
330
9
100
AcDbSymbolTableRecord
100
AcDbRegAppTableRecord
  2
ACAD_NAV_VCDISPLAY
 70
     0
  0
ENDTAB
  0
TABLE
  2
DIMSTYLE
  5
A
330
0
100
AcDbSymbolTable
 70
     2
  0
DIMSTYLE
105
48
330
A
100
AcDbSymbolTableRecord
100
AcDbDimStyleTableRecord
  2
NEWX10
 70
     0
  3
 
  4

  5

  6
OPEN30
  7
OPEN30
 40
1.0
 41
2.0
 42
0.0
 43
7.0
 44
1.0
 45
0.0
 46
0.0
 47
0.0
 48
0.0
140
3.5
141
0.0
142
0.0
143
25.4
144
1.0
145
0.0
146
0.7
147
0.7
 71
     0
 72
     0
 73
     0
 74
     0
 75
     0
 76
     0
 77
     1
 78
     8
170
     0
171
     2
172
     1
173
     1
174
     0
175
     0
176
   256
177
   256
178
   201
179
     2
270
     2
271
     2
272
     4
273
     2
274
     2
340
F
275
     0
280
     0
281
     0
282
     0
283
     1
284
     8
285
     0
286
     0
287
     2
288
     0
  0
DIMSTYLE
105
20B13
330
A
100
AcDbSymbolTableRecord
100
AcDbDimStyleTableRecord
  2
ISO-25
 70
     0
  3

  4

  5

  6

  7

 40
1.0
 41
2.5
 42
0.625
 43
3.75
 44
1.25
 45
0.0
 46
0.0
 47
0.0
 48
0.0
140
2.5
141
2.5
142
0.0
143
0.03937007874016
144
1.0
145
0.0
146
1.0
147
0.625
 71
     0
 72
     0
 73
     0
 74
     0
 75
     0
 76
     0
 77
     1
 78
     8
170
     0
171
     3
172
     1
173
     0
174
     0
175
     0
176
     0
177
     0
178
     0
270
     2
271
     2
272
     2
273
     2
274
     3
340
F
275
     0
280
     0
281
     0
282
     0
283
     0
284
     8
285
     0
286
     0
287
     3
288
     0
  0
ENDTAB
  0
TABLE
  2
BLOCK_RECORD
  5
1
330
0
100
AcDbSymbolTable
 70
     8
  0
BLOCK_RECORD
  5
18
102
{ACAD_XDICTIONARY
360
6E9
102
}
330
1
100
AcDbSymbolTableRecord
100
AcDbBlockTableRecord
  2
*MODEL_SPACE
  0
BLOCK_RECORD
  5
15
102
{ACAD_XDICTIONARY
360
59B
102
}
330
1
100
AcDbSymbolTableRecord
100
AcDbBlockTableRecord
  2
*PAPER_SPACE
  0
BLOCK_RECORD
  5
42
330
1
100
AcDbSymbolTableRecord
100
AcDbBlockTableRecord
  2
_OPEN30
  0
BLOCK_RECORD
  5
20316
330
1
100
AcDbSymbolTableRecord
100
AcDbBlockTableRecord
  2
A3WAKUKAWAJUN2017_HYOUDAI_
  0
BLOCK_RECORD
  5
228A2
330
1
100
AcDbSymbolTableRecord
100
AcDbBlockTableRecord
  2
*X47
  0
BLOCK_RECORD
  5
228F0
330
1
100
AcDbSymbolTableRecord
100
AcDbBlockTableRecord
  2
*X48
  0
BLOCK_RECORD
  5
22942
330
1
100
AcDbSymbolTableRecord
100
AcDbBlockTableRecord
  2
*X49
  0
BLOCK_RECORD
  5
22993
330
1
100
AcDbSymbolTableRecord
100
AcDbBlockTableRecord
  2
*X50
  0
BLOCK_RECORD
  5
229D0
330
1
100
AcDbSymbolTableRecord
100
AcDbBlockTableRecord
  2
*X51
  0
BLOCK_RECORD
  5
22A10
330
1
100
AcDbSymbolTableRecord
100
AcDbBlockTableRecord
  2
*X52
  0
ENDTAB
  0
ENDSEC
  0
SECTION
  2
BLOCKS
  0
BLOCK
  5
19
330
18
100
AcDbEntity
  8
0
100
AcDbBlockBegin
  2
*MODEL_SPACE
 70
     0
 10
0.0
 20
0.0
 30
0.0
  3
*MODEL_SPACE
  1

  0
ENDBLK
  5
1A
330
18
100
AcDbEntity
  8
0
100
AcDbBlockEnd
  0
BLOCK
  5
16
330
15
100
AcDbEntity
 67
     1
  8
0
100
AcDbBlockBegin
  2
*PAPER_SPACE
 70
     0
 10
0.0
 20
0.0
 30
0.0
  3
*PAPER_SPACE
  1

  0
ENDBLK
  5
17
330
15
100
AcDbEntity
 67
     1
  8
0
100
AcDbBlockEnd
  0
BLOCK
  5
43
330
42
100
AcDbEntity
  8
0
100
AcDbBlockBegin
  2
_OPEN30
 70
     0
 10
0.0
 20
0.0
 30
0.0
  3
_OPEN30
  1

  0
LINE
  5
44
330
42
100
AcDbEntity
  8
0
  6
BYBLOCK
 62
     0
100
AcDbLine
 10
-1.0
 20
0.26794919
 30
0.0
 11
0.0
 21
0.0
 31
0.0
  0
LINE
  5
45
330
42
100
AcDbEntity
  8
0
  6
BYBLOCK
 62
     0
100
AcDbLine
 10
0.0
 20
0.0
 30
0.0
 11
-1.0
 21
-0.26794919
 31
0.0
  0
LINE
  5
46
330
42
100
AcDbEntity
  8
0
  6
BYBLOCK
 62
     0
100
AcDbLine
 10
0.0
 20
0.0
 30
0.0
 11
-1.0
 21
0.0
 31
0.0
  0
ENDBLK
  5
47
330
42
100
AcDbEntity
  8
0
100
AcDbBlockEnd
  0
BLOCK
  5
20A15
330
20316
100
AcDbEntity
  8
0
100
AcDbBlockBegin
  2
A3WAKUKAWAJUN2017_HYOUDAI_
 70
     0
 10
0.0
 20
0.0
 30
0.0
  3
A3WAKUKAWAJUN2017_HYOUDAI_
  1

  0
LINE
  5
20318
330
20316
100
AcDbEntity
  8
0
100
AcDbLine
 10
13.26299999998673
 20
-0.0001000000000317
 30
0.0
 11
9.236999999990758
 21
8.999899999990987
 31
0.0
1001
ACAD
1000
ASC_BOUNDS
1002
{
1070
    19
1005
20359
1002
}
  0
LINE
  5
20319
330
20316
100
AcDbEntity
  8
0
100
AcDbLine
 10
5.657999999994331
 20
0.9999999999989768
 30
0.0
 11
9.236999999990758
 21
8.999999999991019
 31
0.0
1001
ACAD
1000
ASC_BOUNDS
1002
{
1070
    19
1005
20359
1002
}
  0
LINE
  5
2031A
330
20316
100
AcDbEntity
  8
0
100
AcDbLine
 10
18.59199999998134
 20
-0.2368999999997641
 30
0.0
 11
16.46099999998353
 21
5.432899999994561
 31
0.0
1001
ACAD
1000
ASC_BOUNDS
1002
{
1070
    19
1005
2035A
1002
}
  0
LINE
  5
2031B
330
20316
100
AcDbEntity
  8
0
100
AcDbLine
 10
18.59199999998134
 20
-0.2368999999997641
 30
0.0
 11
22.38199999997767
 21
8.763099999991255
 31
0.0
1001
ACAD
1000
ASC_BOUNDS
1002
{
1070
    19
1005
2035A
1002
}
  0
LINE
  5
2031C
330
20316
100
AcDbEntity
  8
0
100
AcDbLine
 10
14.32899999998563
 20
-0.2368999999997641
 30
0.0
 11
16.46099999998353
 21
5.432899999994561
 31
0.0
1001
ACAD
1000
ASC_BOUNDS
1002
{
1070
    19
1005
2035A
1002
}
  0
LINE
  5
2031D
330
20316
100
AcDbEntity
  8
0
100
AcDbLine
 10
14.32899999998563
 20
-0.2368999999997641
 30
0.0
 11
10.53899999998941
 21
8.763099999991255
 31
0.0
1001
ACAD
1000
ASC_BOUNDS
1002
{
1070
    19
1005
2035A
1002
}
  0
LINE
  5
2031E
330
20316
100
AcDbEntity
  8
0
100
AcDbLine
 10
19.53899999998043
 20
-0.0001000000000317
 30
0.0
 11
23.56599999997638
 21
8.999899999990987
 31
0.0
1001
ACAD
1000
ASC_BOUNDS
1002
{
1070
    19
1005
2035B
1002
}
  0
LINE
  5
2031F
330
20316
100
AcDbEntity
  8
0
100
AcDbLine
 10
26.97358892824991
 20
1.383099999991202
 30
0.0
 11
23.56599999997638
 21
8.999899999990987
 31
0.0
1001
ACAD
1000
ASC_BOUNDS
1002
{
1070
    19
1005
2035B
1002
}
  0
LINE
  5
20320
330
20316
100
AcDbEntity
  8
0
100
AcDbLine
 10
5.657999999994331
 20
0.9999999999989768
 30
0.0
 11
3.181999999996833
 21
4.668599999995308
 31
0.0
1001
ACAD
1000
ASC_BOUNDS
1002
{
1070
    19
1005
20359
1002
}
  0
LINE
  5
20321
330
20316
100
AcDbEntity
  8
0
100
AcDbLine
 10
4.617999999995391
 20
-0.0001000000000317
 30
0.0
 11
1.420999999998571
 21
4.736799999995242
 31
0.0
1001
ACAD
1000
ASC_BOUNDS
1002
{
1070
    19
1005
20359
1002
}
  0
LINE
  5
20322
330
20316
100
AcDbEntity
  8
0
100
AcDbLine
 10
1.420999999998571
 20
8.763099999991255
 30
0.0
 11
1.420999999998571
 21
0.0
 31
0.0
1001
ACAD
1000
ASC_BOUNDS
1002
{
1070
    19
1005
2035E
1002
}
  0
LINE
  5
20323
330
20316
100
AcDbEntity
  8
0
100
AcDbLine
 10
0.0
 20
8.763099999991255
 30
0.0
 11
0.0
 21
0.0
 31
0.0
1001
ACAD
1000
ASC_BOUNDS
1002
{
1070
    19
1005
2035E
1002
}
  0
LINE
  5
20324
330
20316
100
AcDbEntity
  8
0
100
AcDbLine
 10
6.766999999993232
 20
-0.0001000000000317
 30
0.0
 11
7.826999999992154
 21
2.368399999997621
 31
0.0
1001
ACAD
1000
ASC_BOUNDS
1002
{
1070
    19
1005
20359
1002
}
  0
LINE
  5
20325
330
20316
100
AcDbEntity
  8
0
100
AcDbLine
 10
0.0
 20
0.0
 30
0.0
 11
1.420999999998571
 21
0.0
 31
0.0
1001
ACAD
1000
ASC_BOUNDS
1002
{
1070
    19
1005
2035E
1002
}
  0
LINE
  5
20326
330
20316
100
AcDbEntity
  8
0
100
AcDbLine
 10
4.617999999995391
 20
0.0
 30
0.0
 11
6.766999999993232
 21
0.0
 31
0.0
1001
ACAD
1000
ASC_BOUNDS
1002
{
1070
    19
1005
20359
1002
}
  0
LINE
  5
20327
330
20316
100
AcDbEntity
  8
0
100
AcDbLine
 10
11.70599999998831
 20
-0.0001000000000317
 30
0.0
 11
10.64699999998936
 21
2.368399999997621
 31
0.0
1001
ACAD
1000
ASC_BOUNDS
1002
{
1070
    19
1005
20359
1002
}
  0
LINE
  5
20328
330
20316
100
AcDbEntity
  8
0
100
AcDbLine
 10
7.826999999992154
 20
2.368399999997621
 30
0.0
 11
10.64699999998936
 21
2.368399999997621
 31
0.0
1001
ACAD
1000
ASC_BOUNDS
1002
{
1070
    19
1005
20359
1002
}
  0
LINE
  5
20329
330
20316
100
AcDbEntity
  8
0
100
AcDbLine
 10
11.70599999998831
 20
0.0
 30
0.0
 11
13.26299999998673
 21
0.0
 31
0.0
1001
ACAD
1000
ASC_BOUNDS
1002
{
1070
    19
1005
20359
1002
}
  0
LINE
  5
2032A
330
20316
100
AcDbEntity
  8
0
100
AcDbLine
 10
22.15599999997789
 20
2.368399999997621
 30
0.0
 11
24.97599999997499
 21
2.368399999997621
 31
0.0
1001
ACAD
1000
ASC_BOUNDS
1002
{
1070
    19
1005
2035B
1002
}
  0
LINE
  5
2032B
330
20316
100
AcDbEntity
  8
0
100
AcDbLine
 10
19.53899999998043
 20
0.0
 30
0.0
 11
21.09599999997886
 21
0.0
 31
0.0
1001
ACAD
1000
ASC_BOUNDS
1002
{
1070
    19
1005
2035B
1002
}
  0
LINE
  5
2032C
330
20316
100
AcDbEntity
  8
0
100
AcDbLine
 10
21.09599999997886
 20
-0.0001000000000317
 30
0.0
 11
22.15599999997789
 21
2.368399999997621
 31
0.0
1001
ACAD
1000
ASC_BOUNDS
1002
{
1070
    19
1005
2035B
1002
}
  0
LINE
  5
2032D
330
20316
100
AcDbEntity
  8
0
100
AcDbLine
 10
26.02015566812236
 20
0.0330999999912365
 30
0.0
 11
24.97599999997499
 21
2.368399999997621
 31
0.0
1001
ACAD
1000
ASC_BOUNDS
1002
{
1070
    19
1005
2035B
1002
}
  0
LINE
  5
2032E
330
20316
100
AcDbEntity
  8
0
100
AcDbLine
 10
14.32399999998563
 20
3.315799999996671
 30
0.0
 11
16.46099999998353
 21
8.999899999990987
 31
0.0
1001
ACAD
1000
ASC_BOUNDS
1002
{
1070
    19
1005
2035A
1002
}
  0
LINE
  5
2032F
330
20316
100
AcDbEntity
  8
0
100
AcDbLine
 10
6.432999999993513
 20
8.763099999991255
 30
0.0
 11
3.181999999996833
 21
4.668599999995308
 31
0.0
1001
ACAD
1000
ASC_BOUNDS
1002
{
1070
    19
1005
20359
1002
}
  0
LINE
  5
20330
330
20316
100
AcDbEntity
  8
0
100
AcDbLine
 10
4.617999999995391
 20
8.763099999991255
 30
0.0
 11
1.420999999998571
 21
4.736799999995242
 31
0.0
1001
ACAD
1000
ASC_BOUNDS
1002
{
1070
    19
1005
20359
1002
}
  0
LINE
  5
20331
330
20316
100
AcDbEntity
  8
0
100
AcDbLine
 10
0.0
 20
8.763099999991255
 30
0.0
 11
1.420999999998571
 21
8.763099999991255
 31
0.0
1001
ACAD
1000
ASC_BOUNDS
1002
{
1070
    19
1005
2035E
1002
}
  0
LINE
  5
20332
330
20316
100
AcDbEntity
  8
0
100
AcDbLine
 10
4.617999999995391
 20
8.763099999991255
 30
0.0
 11
6.432999999993513
 21
8.763099999991255
 31
0.0
1001
ACAD
1000
ASC_BOUNDS
1002
{
1070
    19
1005
20359
1002
}
  0
LINE
  5
20333
330
20316
100
AcDbEntity
  8
0
100
AcDbLine
 10
14.32399999998563
 20
3.315799999996671
 30
0.0
 11
12.02999999998792
 21
8.763099999991255
 31
0.0
1001
ACAD
1000
ASC_BOUNDS
1002
{
1070
    19
1005
2035A
1002
}
  0
LINE
  5
20334
330
20316
100
AcDbEntity
  8
0
100
AcDbLine
 10
10.06399999998996
 20
3.670999999996297
 30
0.0
 11
9.236999999990758
 21
5.5200999999945
 31
0.0
1001
ACAD
1000
ASC_BOUNDS
1002
{
1070
    19
1005
20359
1002
}
  0
LINE
  5
20335
330
20316
100
AcDbEntity
  8
0
100
AcDbLine
 10
8.409999999991555
 20
3.670999999996297
 30
0.0
 11
9.236999999990758
 21
5.5200999999945
 31
0.0
1001
ACAD
1000
ASC_BOUNDS
1002
{
1070
    19
1005
20359
1002
}
  0
LINE
  5
20336
330
20316
100
AcDbEntity
  8
0
100
AcDbLine
 10
8.409999999991555
 20
3.670999999996297
 30
0.0
 11
10.06399999998996
 21
3.670999999996297
 31
0.0
1001
ACAD
1000
ASC_BOUNDS
1002
{
1070
    19
1005
20359
1002
}
  0
LINE
  5
20337
330
20316
100
AcDbEntity
  8
0
100
AcDbLine
 10
10.53899999998941
 20
8.763099999991255
 30
0.0
 11
12.02999999998792
 21
8.763099999991255
 31
0.0
1001
ACAD
1000
ASC_BOUNDS
1002
{
1070
    19
1005
2035A
1002
}
  0
LINE
  5
20338
330
20316
100
AcDbEntity
  8
0
100
AcDbLine
 10
22.7389999999773
 20
3.670999999996297
 30
0.0
 11
23.56599999997638
 21
5.5200999999945
 31
0.0
1001
ACAD
1000
ASC_BOUNDS
1002
{
1070
    19
1005
2035B
1002
}
  0
LINE
  5
20339
330
20316
100
AcDbEntity
  8
0
100
AcDbLine
 10
22.7389999999773
 20
3.670999999996297
 30
0.0
 11
24.39299999997559
 21
3.670999999996297
 31
0.0
1001
ACAD
1000
ASC_BOUNDS
1002
{
1070
    19
1005
2035B
1002
}
  0
LINE
  5
2033A
330
20316
100
AcDbEntity
  8
0
100
AcDbLine
 10
18.59799999998143
 20
3.315799999996671
 30
0.0
 11
20.89099999997916
 21
8.763099999991255
 31
0.0
1001
ACAD
1000
ASC_BOUNDS
1002
{
1070
    19
1005
2035A
1002
}
  0
LINE
  5
2033B
330
20316
100
AcDbEntity
  8
0
100
AcDbLine
 10
18.59799999998143
 20
3.315799999996671
 30
0.0
 11
16.46099999998353
 21
8.999899999990987
 31
0.0
1001
ACAD
1000
ASC_BOUNDS
1002
{
1070
    19
1005
2035A
1002
}
  0
LINE
  5
2033C
330
20316
100
AcDbEntity
  8
0
100
AcDbLine
 10
20.89099999997916
 20
8.763099999991255
 30
0.0
 11
22.38199999997767
 21
8.763099999991255
 31
0.0
1001
ACAD
1000
ASC_BOUNDS
1002
{
1070
    19
1005
2035A
1002
}
  0
LINE
  5
2033D
330
20316
100
AcDbEntity
  8
0
100
AcDbLine
 10
24.39299999997559
 20
3.670999999996297
 30
0.0
 11
23.56599999997638
 21
5.5200999999945
 31
0.0
1001
ACAD
1000
ASC_BOUNDS
1002
{
1070
    19
1005
2035B
1002
}
  0
LINE
  5
2033E
330
20316
100
AcDbEntity
  8
0
100
AcDbLine
 10
44.99999999995498
 20
-0.2368999999997641
 30
0.0
 11
40.02599999995994
 21
5.341799999994635
 31
0.0
1001
ACAD
1000
ASC_BOUNDS
1002
{
1070
    19
1005
2035D
1002
}
  0
LINE
  5
2033F
330
20316
100
AcDbEntity
  8
0
100
AcDbLine
 10
40.02599999995994
 20
5.341799999994635
 30
0.0
 11
40.02599999995994
 21
0.0
 31
0.0
1001
ACAD
1000
ASC_BOUNDS
1002
{
1070
    19
1005
2035D
1002
}
  0
LINE
  5
20340
330
20316
100
AcDbEntity
  8
0
100
AcDbLine
 10
38.60499999996136
 20
8.999999999991019
 30
0.0
 11
38.60499999996136
 21
0.0
 31
0.0
1001
ACAD
1000
ASC_BOUNDS
1002
{
1070
    19
1005
2035D
1002
}
  0
LINE
  5
20341
330
20316
100
AcDbEntity
  8
0
100
AcDbLine
 10
44.99999999995498
 20
8.763099999991255
 30
0.0
 11
44.99999999995498
 21
-0.2368999999997641
 31
0.0
1001
ACAD
1000
ASC_BOUNDS
1002
{
1070
    19
1005
2035D
1002
}
  0
LINE
  5
20342
330
20316
100
AcDbEntity
  8
0
100
AcDbLine
 10
38.60499999996136
 20
0.0
 30
0.0
 11
40.02599999995994
 21
0.0
 31
0.0
1001
ACAD
1000
ASC_BOUNDS
1002
{
1070
    19
1005
2035D
1002
}
  0
LINE
  5
20343
330
20316
100
AcDbEntity
  8
0
100
AcDbLine
 10
43.57899999995641
 20
3.421199999996588
 30
0.0
 11
38.60499999996136
 21
8.999899999990987
 31
0.0
1001
ACAD
1000
ASC_BOUNDS
1002
{
1070
    19
1005
2035D
1002
}
  0
LINE
  5
20344
330
20316
100
AcDbEntity
  8
0
100
AcDbLine
 10
43.57899999995641
 20
8.763099999991255
 30
0.0
 11
43.57899999995641
 21
3.421199999996588
 31
0.0
1001
ACAD
1000
ASC_BOUNDS
1002
{
1070
    19
1005
2035D
1002
}
  0
LINE
  5
20345
330
20316
100
AcDbEntity
  8
0
100
AcDbLine
 10
43.57899999995641
 20
8.763099999991255
 30
0.0
 11
44.99999999995498
 21
8.763099999991255
 31
0.0
1001
ACAD
1000
ASC_BOUNDS
1002
{
1070
    19
1005
2035D
1002
}
  0
LINE
  5
20346
330
20316
100
AcDbEntity
  8
0
100
AcDbLine
 10
37.67199999996831
 20
8.763099999991255
 30
0.0
 11
36.23199999996837
 21
8.763099999991255
 31
0.0
  0
LINE
  5
20347
330
20316
100
AcDbEntity
  8
0
100
AcDbLine
 10
31.64199999996833
 20
8.763099999991255
 30
0.0
 11
31.64199999996833
 21
2.481619422925121
 31
0.0
  0
LINE
  5
20348
330
20316
100
AcDbEntity
  8
0
100
AcDbLine
 10
37.67199999996831
 20
8.763099999991255
 30
0.0
 11
37.67199999996831
 21
2.481619422925121
 31
0.0
  0
LINE
  5
20349
330
20316
100
AcDbEntity
  8
0
100
AcDbLine
 10
36.23199999996837
 20
8.763099999991255
 30
0.0
 11
36.23199999996837
 21
2.481619422925064
 31
0.0
  0
LINE
  5
2034A
330
20316
100
AcDbEntity
  8
0
100
AcDbLine
 10
33.08199999996839
 20
8.763099999991255
 30
0.0
 11
33.08199999996839
 21
2.481619422925121
 31
0.0
  0
ARC
  5
2034B
330
20316
100
AcDbEntity
  8
0
100
AcDbCircle
 10
34.65699999996832
 20
3.183099999991214
 30
0.0
 40
3.420000000000007
100
AcDbArc
 50
240.0000000000255
 51
299.9999999999766
  0
ARC
  5
2034C
330
20316
100
AcDbEntity
  8
0
100
AcDbCircle
 10
34.65699999996832
 20
3.183099999991214
 30
0.0
 40
1.97999999999999
100
AcDbArc
 50
240.000000000026
 51
299.9999999999703
  0
LINE
  5
2034D
330
20316
100
AcDbEntity
  8
0
100
AcDbLine
 10
33.08199999996828
 20
8.763099999991255
 30
0.0
 11
31.64199999996833
 21
8.763099999991255
 31
0.0
  0
ARC
  5
2034E
330
20316
100
AcDbEntity
  8
0
100
AcDbCircle
 10
35.06199999996829
 20
2.481619422925064
 30
0.0
 40
1.17
100
AcDbArc
 50
299.9999999999699
 51
0.0
  0
ARC
  5
2034F
330
20316
100
AcDbEntity
  8
0
100
AcDbCircle
 10
34.25199999996835
 20
2.481619422925121
 30
0.0
 40
1.17
100
AcDbArc
 50
180.0
 51
240.0000000000238
  0
ARC
  5
20350
330
20316
100
AcDbEntity
  8
0
100
AcDbCircle
 10
35.06199999996841
 20
2.481619422925121
 30
0.0
 40
2.61
100
AcDbArc
 50
299.9999999999756
 51
0.0
  0
ARC
  5
20351
330
20316
100
AcDbEntity
  8
0
100
AcDbCircle
 10
34.25199999996835
 20
2.481619422925121
 30
0.0
 40
2.61
100
AcDbArc
 50
180.0
 51
240.0000000000244
  0
LINE
  5
20352
330
20316
100
AcDbEntity
  8
0
100
AcDbLine
 10
29.30199999996933
 20
8.763099999991255
 30
0.0
 11
30.74199999996927
 21
8.763099999991255
 31
0.0
1001
ACAD
1000
ASC_BOUNDS
1002
{
1070
    19
1005
2035B
1002
}
  0
LINE
  5
20353
330
20316
100
AcDbEntity
  8
0
100
AcDbLine
 10
30.74199999996927
 20
8.763099999991255
 30
0.0
 11
30.74199999996927
 21
2.373099999991211
 31
0.0
1001
ACAD
1000
ASC_BOUNDS
1002
{
1070
    19
1005
2035B
1002
}
  0
LINE
  5
20354
330
20316
100
AcDbEntity
  8
0
100
AcDbLine
 10
26.02015566812236
 20
0.0330999999912365
 30
0.0
 11
28.40199999996923
 21
0.0330999999912365
 31
0.0
1001
ACAD
1000
ASC_BOUNDS
1002
{
1070
    19
1005
2035B
1002
}
  0
LINE
  5
20355
330
20316
100
AcDbEntity
  8
0
100
AcDbLine
 10
29.30199999996933
 20
8.763099999991255
 30
0.0
 11
29.30199999996933
 21
2.283099999991236
 31
0.0
1001
ACAD
1000
ASC_BOUNDS
1002
{
1070
    19
1005
2035B
1002
}
  0
LINE
  5
20356
330
20316
100
AcDbEntity
  8
0
100
AcDbLine
 10
26.97358892824991
 20
1.383099999991202
 30
0.0
 11
28.40199999996923
 21
1.383099999991202
 31
0.0
1001
ACAD
1000
ASC_BOUNDS
1002
{
1070
    19
1005
2035B
1002
}
  0
ARC
  5
20357
330
20316
100
AcDbEntity
  8
0
100
AcDbCircle
 10
28.40199999996923
 20
2.283099999991236
 30
0.0
 40
0.9
100
AcDbArc
 50
270.0
 51
0.0
1001
ACAD
1000
ASC_BOUNDS
1002
{
1070
    19
1005
2035B
1002
}
  0
ARC
  5
20358
330
20316
100
AcDbEntity
  8
0
100
AcDbCircle
 10
28.40199999996923
 20
2.373099999991211
 30
0.0
 40
2.34
100
AcDbArc
 50
270.0
 51
0.0
1001
ACAD
1000
ASC_BOUNDS
1002
{
1070
    19
1005
2035B
1002
}
  0
INSERT
  5
20359
330
20316
100
AcDbEntity
  8
0
100
AcDbBlockReference
  2
*X47
 10
0.0
 20
0.0
 30
0.0
1001
ACAD
1000
HATCH
1002
{
1070
    19
1000
ANSI37
1040
0.15
1040
0.0
1000
ASC_BOUNDS
1070
     2
1070
     2
1070
    12
1005
20318
1005
20319
1005
20320
1005
2032F
1005
20332
1005
20330
1005
20321
1005
20326
1005
20324
1005
20328
1005
20327
1005
20329
1070
     2
1070
     3
1005
20334
1005
20336
1005
20335
1000
ASC_SEEDPOINT
1011
3.614004224891801
1021
2.996669441146025
1031
0.0
1000
R14_HATCH_DATA
1000
20359
1011
1.0
1021
0.0
1031
0.0
1011
0.0
1021
1.0
1031
0.0
1011
0.0
1021
0.0
1031
1.0
1040
0.0
1010
0.0
1020
0.0
1030
1.0
1000
ANSI37
1070
     0
1070
     1
1071
        2
1071
        7
1070
     0
1070
     1
1071
       17
1040
13.26299999998673
1040
-0.0001000000000317
1040
9.236999999990758
1040
8.999899999990987
1040
9.236999999990758
1040
8.999999999991019
1040
5.657999999994331
1040
0.9999999999989768
1040
3.181999999996833
1040
4.668599999995308
1040
6.432999999993513
1040
8.763099999991255
1040
4.617999999995391
1040
8.763099999991255
1040
1.420999999998571
1040
4.736799999995242
1040
4.617999999995391
1040
-0.0001000000000317
1040
4.617999999995391
1040
0.0
1040
6.766999999993232
1040
0.0
1040
6.766999999993232
1040
-0.0001000000000317
1040
7.826999999992154
1040
2.368399999997621
1040
10.64699999998936
1040
2.368399999997621
1040
11.70599999998831
1040
-0.0001000000000317
1040
11.70599999998831
1040
0.0
1040
13.26299999998673
1040
0.0
1071
       12
1005
20318
1005
20319
1005
20320
1005
2032F
1005
20332
1005
20330
1005
20321
1005
20326
1005
20324
1005
20328
1005
20327
1005
20329
1071
       22
1070
     0
1070
     1
1071
        3
1040
9.236999999990758
1040
5.5200999999945
1040
10.06399999998996
1040
3.670999999996297
1040
8.409999999991555
1040
3.670999999996297
1071
        3
1005
20334
1005
20336
1005
20335
1070
     0
1070
     1
1040
0.0
1040
0.15
1070
     0
1070
     2
1040
0.7853981633974483
1040
49.29960901727088
1040
-10.17736998311392
1040
-0.3367596045400932
1040
0.3367596045400932
1070
     0
1040
2.356194490192345
1040
49.29960901727088
1040
-10.17736998311392
1040
-0.3367596045400932
1040
-0.3367596045400932
1070
     0
1040
0.0110235143455945
1071
        2
1040
3.614004224891801
1040
2.996669441146025
1040
0.0
1040
3.614004224891801
1040
2.996669441146025
1040
0.0
1002
}
  0
INSERT
  5
2035A
330
20316
100
AcDbEntity
  8
0
100
AcDbBlockReference
  2
*X48
 10
0.0
 20
0.0
 30
0.0
1001
ACAD
1000
HATCH
1002
{
1070
    19
1000
ANSI37
1040
0.15
1040
0.0
1000
ASC_BOUNDS
1070
     1
1070
     2
1070
    10
1005
2031A
1005
2031B
1005
2033C
1005
2033A
1005
2033B
1005
2032E
1005
20333
1005
20337
1005
2031D
1005
2031C
1000
ASC_SEEDPOINT
1011
14.73245321214324
1021
2.798246178283421
1031
0.0
1000
R14_HATCH_DATA
1000
2035A
1011
1.0
1021
0.0
1031
0.0
1011
0.0
1021
1.0
1031
0.0
1011
0.0
1021
0.0
1031
1.0
1040
0.0
1010
0.0
1020
0.0
1030
1.0
1000
ANSI37
1070
     0
1070
     1
1071
        1
1071
        7
1070
     0
1070
     1
1071
       10
1040
16.46099999998353
1040
5.432899999994561
1040
18.59199999998134
1040
-0.2368999999997641
1040
22.38199999997767
1040
8.763099999991255
1040
20.89099999997916
1040
8.763099999991255
1040
18.59799999998143
1040
3.315799999996671
1040
16.46099999998353
1040
8.999899999990987
1040
14.32399999998563
1040
3.315799999996671
1040
12.02999999998792
1040
8.763099999991255
1040
10.53899999998941
1040
8.763099999991255
1040
14.32899999998563
1040
-0.2368999999997641
1071
       10
1005
2031A
1005
2031B
1005
2033C
1005
2033A
1005
2033B
1005
2032E
1005
20333
1005
20337
1005
2031D
1005
2031C
1070
     0
1070
     1
1040
0.0
1040
0.15
1070
     0
1070
     2
1040
0.7853981633974483
1040
49.29960901727088
1040
-10.17736998311392
1040
-0.3367596045400932
1040
0.3367596045400932
1070
     0
1040
2.356194490192345
1040
49.29960901727088
1040
-10.17736998311392
1040
-0.3367596045400932
1040
-0.3367596045400932
1070
     0
1040
0.0110235143455945
1071
        1
1040
14.73245321214324
1040
2.798246178283421
1040
0.0
1002
}
  0
INSERT
  5
2035B
330
20316
100
AcDbEntity
  8
0
100
AcDbBlockReference
  2
*X49
 10
0.0
 20
0.0
 30
0.0
1001
ACAD
1000
HATCH
1002
{
1070
    19
1000
ANSI37
1040
0.15
1040
0.0
1000
ASC_BOUNDS
1070
     2
1070
     2
1070
    13
1005
2031E
1005
2032B
1005
2032C
1005
2032A
1005
2032D
1005
20354
1005
20358
1005
20353
1005
20352
1005
20355
1005
20357
1005
20356
1005
2031F
1070
     2
1070
     3
1005
20338
1005
2033D
1005
20339
1000
ASC_SEEDPOINT
1011
21.97929957367762
1021
3.294304244259308
1031
0.0
1000
R14_HATCH_DATA
1000
2035B
1011
1.0
1021
0.0
1031
0.0
1011
0.0
1021
1.0
1031
0.0
1011
0.0
1021
0.0
1031
1.0
1040
0.0
1010
0.0
1020
0.0
1030
1.0
1000
ANSI37
1070
     0
1070
     1
1071
        2
1071
        7
1070
     1
1070
     1
1071
       15
1040
23.56599999997638
1040
8.999899999990987
1040
0.0
1040
19.53899999998043
1040
-0.0001000000000317
1040
0.0
1040
19.53899999998043
1040
0.0
1040
0.0
1040
21.09599999997886
1040
0.0
1040
0.0
1040
21.09599999997886
1040
-0.0001000000000317
1040
0.0
1040
22.15599999997789
1040
2.368399999997621
1040
0.0
1040
24.97599999997499
1040
2.368399999997621
1040
0.0
1040
26.02015566812236
1040
0.0330999999912365
1040
0.0
1040
28.40199999996923
1040
0.0330999999912365
1040
0.414213562373095
1040
30.74199999996923
1040
2.373099999991211
1040
0.0
1040
30.74199999996927
1040
8.763099999991255
1040
0.0
1040
29.30199999996933
1040
8.763099999991255
1040
0.0
1040
29.30199999996933
1040
2.283099999991236
1040
-0.414213562373095
1040
28.40199999996923
1040
1.383099999991237
1040
0.0
1040
26.97358892824991
1040
1.383099999991202
1040
0.0
1071
       13
1005
2031E
1005
2032B
1005
2032C
1005
2032A
1005
2032D
1005
20354
1005
20358
1005
20353
1005
20352
1005
20355
1005
20357
1005
20356
1005
2031F
1071
       22
1070
     0
1070
     1
1071
        3
1040
22.7389999999773
1040
3.670999999996297
1040
23.56599999997638
1040
5.5200999999945
1040
24.39299999997559
1040
3.670999999996297
1071
        3
1005
20338
1005
2033D
1005
20339
1070
     0
1070
     1
1040
0.0
1040
0.15
1070
     0
1070
     2
1040
0.7853981633974483
1040
49.29960901727088
1040
-10.17736998311392
1040
-0.3367596045400932
1040
0.3367596045400932
1070
     0
1040
2.356194490192345
1040
49.29960901727088
1040
-10.17736998311392
1040
-0.3367596045400932
1040
-0.3367596045400932
1070
     0
1040
0.0110235143455945
1071
        2
1040
21.97929957367762
1040
3.294304244259308
1040
0.0
1040
21.97929957367762
1040
3.294304244259308
1040
0.0
1002
}
  0
INSERT
  5
2035C
330
20316
100
AcDbEntity
  8
0
100
AcDbBlockReference
  2
*X50
 10
0.0
 20
0.0
 30
0.0
1001
ACAD
1000
HATCH
1002
{
1070
    19
1000
ANSI37
1040
0.15
1040
0.0
1000
R14_HATCH_DATA
1000
2035C
1011
1.0
1021
0.0
1031
0.0
1011
0.0
1021
1.0
1031
0.0
1011
0.0
1021
0.0
1031
1.0
1040
0.0
1010
0.0
1020
0.0
1030
1.0
1000
ANSI37
1070
     0
1070
     1
1071
        1
1071
        7
1070
     1
1070
     1
1071
       12
1040
31.64199999996833
1040
2.481619422925121
1040
0.2679491924310942
1040
32.94699999997067
1040
0.2212931190493919
1040
0.2679491924301353
1040
36.36699999995983
1040
0.2212931190459813
1040
0.2679491924321411
1040
37.67199999996831
1040
2.481619422928361
1040
0.0
1040
37.67199999996831
1040
8.763099999991255
1040
0.0
1040
36.23199999996837
1040
8.763099999991255
1040
0.0
1040
36.23199999996837
1040
2.481619422925064
1040
-0.2679491924310291
1040
35.64699999996708
1040
1.468369700498386
1040
-0.267949192430519
1040
33.66699999997093
1040
1.468369700497703
1040
-0.267949192431809
1040
33.08199999996839
1040
2.481619422926997
1040
0.0
1040
33.08199999996839
1040
8.763099999991255
1040
0.0
1040
31.64199999996833
1040
8.763099999991255
1040
0.0
1071
        0
1070
     0
1070
     1
1040
0.0
1040
0.15
1070
     0
1070
     2
1040
0.7853981633974483
1040
49.29960901727088
1040
-10.17736998311392
1040
-0.3367596045400932
1040
0.3367596045400932
1070
     0
1040
2.356194490192345
1040
49.29960901727088
1040
-10.17736998311392
1040
-0.3367596045400932
1040
-0.3367596045400932
1070
     0
1040
0.0110235143455945
1071
        1
1040
32.30357378967278
1040
3.988785755459219
1040
0.0
1002
}
  0
INSERT
  5
2035D
330
20316
100
AcDbEntity
  8
0
100
AcDbBlockReference
  2
*X51
 10
0.0
 20
0.0
 30
0.0
1001
ACAD
1000
HATCH
1002
{
1070
    19
1000
ANSI37
1040
0.15
1040
0.0
1000
ASC_BOUNDS
1070
     1
1070
     2
1070
     8
1005
2033E
1005
20341
1005
20345
1005
20344
1005
20343
1005
20340
1005
20342
1005
2033F
1000
ASC_SEEDPOINT
1011
39.74896370716704
1021
4.484843821435049
1031
0.0
1000
R14_HATCH_DATA
1000
2035D
1011
1.0
1021
0.0
1031
0.0
1011
0.0
1021
1.0
1031
0.0
1011
0.0
1021
0.0
1031
1.0
1040
0.0
1010
0.0
1020
0.0
1030
1.0
1000
ANSI37
1070
     0
1070
     1
1071
        1
1071
        7
1070
     0
1070
     1
1071
        9
1040
40.02599999995994
1040
5.341799999994635
1040
44.99999999995498
1040
-0.2368999999997641
1040
44.99999999995498
1040
8.763099999991255
1040
43.57899999995641
1040
8.763099999991255
1040
43.57899999995641
1040
3.421199999996588
1040
38.60499999996136
1040
8.999899999990987
1040
38.60499999996136
1040
8.999999999991019
1040
38.60499999996136
1040
0.0
1040
40.02599999995994
1040
0.0
1071
        8
1005
2033E
1005
20341
1005
20345
1005
20344
1005
20343
1005
20340
1005
20342
1005
2033F
1070
     0
1070
     1
1040
0.0
1040
0.15
1070
     0
1070
     2
1040
0.7853981633974483
1040
49.29960901727088
1040
-10.17736998311392
1040
-0.3367596045400932
1040
0.3367596045400932
1070
     0
1040
2.356194490192345
1040
49.29960901727088
1040
-10.17736998311392
1040
-0.3367596045400932
1040
-0.3367596045400932
1070
     0
1040
0.0110235143455945
1071
        1
1040
39.74896370716704
1040
4.484843821435049
1040
0.0
1002
}
  0
INSERT
  5
2035E
330
20316
100
AcDbEntity
  8
0
100
AcDbBlockReference
  2
*X52
 10
0.0
 20
0.0
 30
0.0
1001
ACAD
1000
HATCH
1002
{
1070
    19
1000
ANSI37
1040
0.15
1040
0.0
1000
ASC_BOUNDS
1070
     1
1070
     2
1070
     4
1005
20322
1005
20331
1005
20323
1005
20325
1000
ASC_SEEDPOINT
1011
1.079051535452663
1021
4.148538732891836
1031
0.0
1000
R14_HATCH_DATA
1000
2035E
1011
1.0
1021
0.0
1031
0.0
1011
0.0
1021
1.0
1031
0.0
1011
0.0
1021
0.0
1031
1.0
1040
0.0
1010
0.0
1020
0.0
1030
1.0
1000
ANSI37
1070
     0
1070
     1
1071
        1
1071
        7
1070
     0
1070
     1
1071
        4
1040
1.420999999998571
1040
0.0
1040
1.420999999998571
1040
8.763099999991255
1040
0.0
1040
8.763099999991255
1040
0.0
1040
0.0
1071
        4
1005
20322
1005
20331
1005
20323
1005
20325
1070
     0
1070
     1
1040
0.0
1040
0.15
1070
     0
1070
     2
1040
0.7853981633974483
1040
49.29960901727088
1040
-10.17736998311392
1040
-0.3367596045400932
1040
0.3367596045400932
1070
     0
1040
2.356194490192345
1040
49.29960901727088
1040
-10.17736998311392
1040
-0.3367596045400932
1040
-0.3367596045400932
1070
     0
1040
0.0053004257112761
1071
        1
1040
1.079051535452663
1040
4.148538732891836
1040
0.0
1002
}
  0
ENDBLK
  5
20A16
330
20316
100
AcDbEntity
  8
0
100
AcDbBlockEnd
  0
BLOCK
  5
22A30
330
228A2
100
AcDbEntity
  8
0
100
AcDbBlockBegin
  2
*X47
 70
     1
 10
0.0
 20
0.0
 30
0.0
  3
*X47
  1

  0
LINE
  5
228A3
330
228A2
100
AcDbEntity
  8
0
  6
CONTINUOUS
100
AcDbLine
 10
3.418023043697893
 20
7.251849696850613
 30
0.0
 11
4.929273346838536
 21
8.763099999991255
 31
0.0
  0
LINE
  5
228A4
330
228A2
100
AcDbEntity
  8
0
  6
CONTINUOUS
100
AcDbLine
 10
1.483656411257782
 20
4.643963855330318
 30
0.0
 11
5.60279255591872
 21
8.763099999991255
 31
0.0
  0
LINE
  5
228A5
330
228A2
100
AcDbEntity
  8
0
  6
CONTINUOUS
100
AcDbLine
 10
1.755053947328235
 20
4.241842182320584
 30
0.0
 11
6.276311764998907
 21
8.763099999991255
 31
0.0
  0
LINE
  5
228A6
330
228A2
100
AcDbEntity
  8
0
  6
CONTINUOUS
100
AcDbLine
 10
2.026451483398688
 20
3.839720509310849
 30
0.0
 11
4.441040904851878
 21
6.254309930764039
 31
0.0
  0
LINE
  5
228A7
330
228A2
100
AcDbEntity
  8
0
  6
CONTINUOUS
100
AcDbLine
 10
2.297849019469139
 20
3.437598836301114
 30
0.0
 11
3.321765168359338
 21
4.461514985191313
 31
0.0
  0
LINE
  5
228A8
330
228A2
100
AcDbEntity
  8
0
  6
CONTINUOUS
100
AcDbLine
 10
2.569246555539591
 20
3.03547716329138
 30
0.0
 11
3.593163397972743
 21
4.059394005724531
 31
0.0
  0
LINE
  5
228A9
330
228A2
100
AcDbEntity
  8
0
  6
CONTINUOUS
100
AcDbLine
 10
2.840644091610043
 20
2.633355490281646
 30
0.0
 11
3.864561627586149
 21
3.657273026257751
 31
0.0
  0
LINE
  5
228AA
330
228A2
100
AcDbEntity
  8
0
  6
CONTINUOUS
100
AcDbLine
 10
3.112041627680496
 20
2.231233817271911
 30
0.0
 11
4.135959857199554
 21
3.25515204679097
 31
0.0
  0
LINE
  5
228AB
330
228A2
100
AcDbEntity
  8
0
  6
CONTINUOUS
100
AcDbLine
 10
3.383439163750948
 20
1.829112144262177
 30
0.0
 11
4.40735808681296
 21
2.853031067324189
 31
0.0
  0
LINE
  5
228AC
330
228A2
100
AcDbEntity
  8
0
  6
CONTINUOUS
100
AcDbLine
 10
3.654836699821399
 20
1.426990471252442
 30
0.0
 11
4.678756316426365
 21
2.450910087857407
 31
0.0
  0
LINE
  5
228AD
330
228A2
100
AcDbEntity
  8
0
  6
CONTINUOUS
100
AcDbLine
 10
3.926234235891853
 20
1.024868798242709
 30
0.0
 11
4.95015454603977
 21
2.048789108390626
 31
0.0
  0
LINE
  5
228AE
330
228A2
100
AcDbEntity
  8
0
  6
CONTINUOUS
100
AcDbLine
 10
4.197631771962304
 20
0.6227471252329737
 30
0.0
 11
5.221552775653176
 21
1.646668128923846
 31
0.0
  0
LINE
  5
228AF
330
228A2
100
AcDbEntity
  8
0
  6
CONTINUOUS
100
AcDbLine
 10
8.715877546767851
 20
7.835069736359266
 30
0.0
 11
9.435953450375058
 21
8.555145639966472
 31
0.0
  0
LINE
  5
228B0
330
228A2
100
AcDbEntity
  8
0
  6
CONTINUOUS
100
AcDbLine
 10
8.170620868422267
 20
6.616293848933497
 30
0.0
 11
9.644120833743461
 21
8.08979381425469
 31
0.0
  0
LINE
  5
228B1
330
228A2
100
AcDbEntity
  8
0
  6
CONTINUOUS
100
AcDbLine
 10
7.625364190076684
 20
5.397517961507727
 30
0.0
 11
9.852288217111864
 21
7.624441988542907
 31
0.0
  0
LINE
  5
228B2
330
228A2
100
AcDbEntity
  8
0
  6
CONTINUOUS
100
AcDbLine
 10
7.080107511731101
 20
4.178742074081957
 30
0.0
 11
10.06045560048027
 21
7.159090162831124
 31
0.0
  0
LINE
  5
228B3
330
228A2
100
AcDbEntity
  8
0
  6
CONTINUOUS
100
AcDbLine
 10
6.534850833385518
 20
2.959966186656187
 30
0.0
 11
10.26862298384867
 21
6.693738337119342
 31
0.0
  0
LINE
  5
228B4
330
228A2
100
AcDbEntity
  8
0
  6
CONTINUOUS
100
AcDbLine
 10
4.469029308032756
 20
0.2206254522232385
 30
0.0
 11
5.492951005266582
 21
1.244547149457064
 31
0.0
  0
LINE
  5
228B5
330
228A2
100
AcDbEntity
  8
0
  6
CONTINUOUS
100
AcDbLine
 10
5.989594155039935
 20
1.741190299230417
 30
0.0
 11
8.806950407233131
 21
4.558546551423613
 31
0.0
  0
LINE
  5
228B6
330
228A2
100
AcDbEntity
  8
0
  6
CONTINUOUS
100
AcDbLine
 10
9.401251593263643
 20
5.152847737454126
 30
0.0
 11
10.47679036721708
 21
6.228386511407559
 31
0.0
  0
LINE
  5
228B7
330
228A2
100
AcDbEntity
  8
0
  6
CONTINUOUS
100
AcDbLine
 10
4.921837203428691
 20
-0.0000858614610131
 30
0.0
 11
8.592923064886001
 21
3.670999999996297
 31
0.0
  0
LINE
  5
228B8
330
228A2
100
AcDbEntity
  8
0
  6
CONTINUOUS
100
AcDbLine
 10
9.609390446785305
 20
4.6874673818956
 30
0.0
 11
10.68495775058548
 21
5.763034685695775
 31
0.0
  0
LINE
  5
228B9
330
228A2
100
AcDbEntity
  8
0
  6
CONTINUOUS
100
AcDbLine
 10
5.595387755019432
 20
-0.0000545189504582
 30
0.0
 11
7.716137258923768
 21
2.120694984953879
 31
0.0
  0
LINE
  5
228BA
330
228A2
100
AcDbEntity
  8
0
  6
CONTINUOUS
100
AcDbLine
 10
6.268938306610172
 20
-0.000023176439905
 30
0.0
 11
7.170485805526503
 21
0.9015243224764267
 31
0.0
  0
LINE
  5
228BB
330
228A2
100
AcDbEntity
  8
0
  6
CONTINUOUS
100
AcDbLine
 10
7.963842273967511
 20
2.368399999997621
 30
0.0
 11
9.266442273966188
 21
3.670999999996297
 31
0.0
  0
LINE
  5
228BC
330
228A2
100
AcDbEntity
  8
0
  6
CONTINUOUS
100
AcDbLine
 10
8.637361483047696
 20
2.368399999997621
 30
0.0
 11
9.939961483046375
 21
3.670999999996297
 31
0.0
  0
LINE
  5
228BD
330
228A2
100
AcDbEntity
  8
0
  6
CONTINUOUS
100
AcDbLine
 10
9.817529300306965
 20
4.222087026337075
 30
0.0
 11
10.89312513395388
 21
5.297682859983993
 31
0.0
  0
LINE
  5
228BE
330
228A2
100
AcDbEntity
  8
0
  6
CONTINUOUS
100
AcDbLine
 10
10.02566815382863
 20
3.756706670778549
 30
0.0
 11
11.10129251732229
 21
4.832331034272211
 31
0.0
  0
LINE
  5
228BF
330
228A2
100
AcDbEntity
  8
0
  6
CONTINUOUS
100
AcDbLine
 10
9.310880692127883
 20
2.368399999997621
 30
0.0
 11
11.30945990069069
 21
4.366979208560428
 31
0.0
  0
LINE
  5
228C0
330
228A2
100
AcDbEntity
  8
0
  6
CONTINUOUS
100
AcDbLine
 10
9.98439990120807
 20
2.36839999999762
 30
0.0
 11
11.5176272840591
 21
3.901627382848645
 31
0.0
  0
LINE
  5
228C1
330
228A2
100
AcDbEntity
  8
0
  6
CONTINUOUS
100
AcDbLine
 10
10.65037369446246
 20
2.36085458417182
 30
0.0
 11
11.7257946674275
 21
3.436275557136862
 31
0.0
  0
LINE
  5
228C2
330
228A2
100
AcDbEntity
  8
0
  6
CONTINUOUS
100
AcDbLine
 10
10.85847197087848
 20
1.895433651507656
 30
0.0
 11
11.9339620507959
 21
2.97092373142508
 31
0.0
  0
LINE
  5
228C3
330
228A2
100
AcDbEntity
  8
0
  6
CONTINUOUS
100
AcDbLine
 10
11.0665702472945
 20
1.430012718843491
 30
0.0
 11
12.14212943416431
 21
2.505571905713296
 31
0.0
  0
LINE
  5
228C4
330
228A2
100
AcDbEntity
  8
0
  6
CONTINUOUS
100
AcDbLine
 10
11.27466852371052
 20
0.9645917861793256
 30
0.0
 11
12.35029681753271
 21
2.040220080001513
 31
0.0
  0
LINE
  5
228C5
330
228A2
100
AcDbEntity
  8
0
  6
CONTINUOUS
100
AcDbLine
 10
11.48276680012654
 20
0.4991708535151611
 30
0.0
 11
12.55846420090111
 21
1.57486825428973
 31
0.0
  0
LINE
  5
228C6
330
228A2
100
AcDbEntity
  8
0
  6
CONTINUOUS
100
AcDbLine
 10
11.69086507654257
 20
0.0337499208509957
 30
0.0
 11
12.76663158426952
 21
1.109516428577947
 31
0.0
  0
LINE
  5
228C7
330
228A2
100
AcDbEntity
  8
0
  6
CONTINUOUS
100
AcDbLine
 10
12.33057447873954
 20
-0.0000598860322123
 30
0.0
 11
12.97479896763792
 21
0.6441646028661663
 31
0.0
  0
LINE
  5
228C8
330
228A2
100
AcDbEntity
  8
0
  6
CONTINUOUS
100
AcDbLine
 10
13.00413694809395
 20
-0.0000166257579952
 30
0.0
 11
13.18296635100632
 21
0.1788127771543824
 31
0.0
  0
LINE
  5
228C9
330
228A2
100
AcDbEntity
  8
0
  6
CONTINUOUS
100
AcDbLine
 10
4.772852165289667
 20
-0.000092794222212
 30
0.0
 11
4.296495091028902
 21
0.4762642800385528
 31
0.0
  0
LINE
  5
228CA
330
228A2
100
AcDbEntity
  8
0
  6
CONTINUOUS
100
AcDbLine
 10
5.446340034776103
 20
-0.0000614546284616
 30
0.0
 11
2.898195908335625
 21
2.548082671812017
 31
0.0
  0
LINE
  5
228CB
330
228A2
100
AcDbEntity
  8
0
  6
CONTINUOUS
100
AcDbLine
 10
6.119827904262539
 20
-0.0000301150347113
 30
0.0
 11
1.499896725642348
 21
4.61990106358548
 31
0.0
  0
LINE
  5
228CC
330
228A2
100
AcDbEntity
  8
0
  6
CONTINUOUS
100
AcDbLine
 10
6.775136745476159
 20
0.0181802528318542
 30
0.0
 11
5.699826040202669
 21
1.093490958105344
 31
0.0
  0
LINE
  5
228CD
330
228A2
100
AcDbEntity
  8
0
  6
CONTINUOUS
100
AcDbLine
 10
6.983376846288489
 20
0.4834593610997118
 30
0.0
 11
5.908008617934405
 21
1.558827589453796
 31
0.0
  0
LINE
  5
228CE
330
228A2
100
AcDbEntity
  8
0
  6
CONTINUOUS
100
AcDbLine
 10
5.377063484962296
 20
1.416253513345719
 30
0.0
 11
1.702276957014131
 21
5.091040041293883
 31
0.0
  0
LINE
  5
228CF
330
228A2
100
AcDbEntity
  8
0
  6
CONTINUOUS
100
AcDbLine
 10
3.978745891735324
 20
3.488090315652877
 30
0.0
 11
2.000373521109399
 21
5.466462686278803
 31
0.0
  0
LINE
  5
228D0
330
228A2
100
AcDbEntity
  8
0
  6
CONTINUOUS
100
AcDbLine
 10
7.191616947100819
 20
0.948738469367568
 30
0.0
 11
6.11619119566614
 21
2.024164220802247
 31
0.0
  0
LINE
  5
228D1
330
228A2
100
AcDbEntity
  8
0
  6
CONTINUOUS
100
AcDbLine
 10
7.399857047913149
 20
1.414017577635424
 30
0.0
 11
6.324373773397875
 21
2.489500852150698
 31
0.0
  0
LINE
  5
228D2
330
228A2
100
AcDbEntity
  8
0
  6
CONTINUOUS
100
AcDbLine
 10
7.608097148725479
 20
1.879296685903281
 30
0.0
 11
6.53255635112961
 21
2.95483748349915
 31
0.0
  0
LINE
  5
228D3
330
228A2
100
AcDbEntity
  8
0
  6
CONTINUOUS
100
AcDbLine
 10
7.816337249537808
 20
2.344575794171138
 30
0.0
 11
6.740738928861345
 21
3.420174114847601
 31
0.0
  0
LINE
  5
228D4
330
228A2
100
AcDbEntity
  8
0
  6
CONTINUOUS
100
AcDbLine
 10
3.310241080789734
 20
4.830114335678653
 30
0.0
 11
2.298470085204666
 21
5.84188533126372
 31
0.0
  0
LINE
  5
228D5
330
228A2
100
AcDbEntity
  8
0
  6
CONTINUOUS
100
AcDbLine
 10
3.60832983563551
 20
5.205544789913063
 30
0.0
 11
2.596566649299935
 21
6.217307976248638
 31
0.0
  0
LINE
  5
228D6
330
228A2
100
AcDbEntity
  8
0
  6
CONTINUOUS
100
AcDbLine
 10
3.906418590481286
 20
5.580975244147473
 30
0.0
 11
2.894663213395203
 21
6.592730621233557
 31
0.0
  0
LINE
  5
228D7
330
228A2
100
AcDbEntity
  8
0
  6
CONTINUOUS
100
AcDbLine
 10
4.204507345327062
 20
5.956405698381884
 30
0.0
 11
3.192759777490472
 21
6.968153266218474
 31
0.0
  0
LINE
  5
228D8
330
228A2
100
AcDbEntity
  8
0
  6
CONTINUOUS
100
AcDbLine
 10
8.466032252791512
 20
2.368399999997621
 30
0.0
 11
6.948921506593081
 21
3.885510746196053
 31
0.0
  0
LINE
  5
228D9
330
228A2
100
AcDbEntity
  8
0
  6
CONTINUOUS
100
AcDbLine
 10
9.139551461871699
 20
2.36839999999762
 30
0.0
 11
7.157104084324816
 21
4.350847377544504
 31
0.0
  0
LINE
  5
228DA
330
228A2
100
AcDbEntity
  8
0
  6
CONTINUOUS
100
AcDbLine
 10
4.502596100172839
 20
6.331836152616295
 30
0.0
 11
3.49085634158574
 21
7.343575911203393
 31
0.0
  0
LINE
  5
228DB
330
228A2
100
AcDbEntity
  8
0
  6
CONTINUOUS
100
AcDbLine
 10
4.800684855018615
 20
6.707266606850705
 30
0.0
 11
3.788952905681008
 21
7.718998556188312
 31
0.0
  0
LINE
  5
228DC
330
228A2
100
AcDbEntity
  8
0
  6
CONTINUOUS
100
AcDbLine
 10
12.18154012887317
 20
-0.0000694579236642
 30
0.0
 11
11.32140332908496
 21
0.8600673418645499
 31
0.0
  0
LINE
  5
228DD
330
228A2
100
AcDbEntity
  8
0
  6
CONTINUOUS
100
AcDbLine
 10
12.85501608323566
 20
-0.0000262032059659
 30
0.0
 11
10.77672456435345
 21
2.078265315676246
 31
0.0
  0
LINE
  5
228DE
330
228A2
100
AcDbEntity
  8
0
  6
CONTINUOUS
100
AcDbLine
 10
9.813070670951886
 20
2.36839999999762
 30
0.0
 11
8.51047067095321
 21
3.670999999996297
 31
0.0
  0
LINE
  5
228DF
330
228A2
100
AcDbEntity
  8
0
  6
CONTINUOUS
100
AcDbLine
 10
10.48658988003207
 20
2.36839999999762
 30
0.0
 11
9.183989880033396
 21
3.670999999996297
 31
0.0
  0
LINE
  5
228E0
330
228A2
100
AcDbEntity
  8
0
  6
CONTINUOUS
100
AcDbLine
 10
8.441048632286794
 20
3.740422038662712
 30
0.0
 11
7.365286662056551
 21
4.816184008892956
 31
0.0
  0
LINE
  5
228E1
330
228A2
100
AcDbEntity
  8
0
  6
CONTINUOUS
100
AcDbLine
 10
8.649187485808454
 20
4.205802394221237
 30
0.0
 11
7.573469239788285
 21
5.281520640241407
 31
0.0
  0
LINE
  5
228E2
330
228A2
100
AcDbEntity
  8
0
  6
CONTINUOUS
100
AcDbLine
 10
5.098773609864391
 20
7.082697061085115
 30
0.0
 11
4.087049469776277
 21
8.09442120117323
 31
0.0
  0
LINE
  5
228E3
330
228A2
100
AcDbEntity
  8
0
  6
CONTINUOUS
100
AcDbLine
 10
5.396862364710167
 20
7.458127515319526
 30
0.0
 11
4.385146033871544
 21
8.469843846158149
 31
0.0
  0
LINE
  5
228E4
330
228A2
100
AcDbEntity
  8
0
  6
CONTINUOUS
100
AcDbLine
 10
13.04801363231285
 20
0.4804954567970334
 30
0.0
 11
9.85750908911358
 21
3.670999999996297
 31
0.0
  0
LINE
  5
228E5
330
228A2
100
AcDbEntity
  8
0
  6
CONTINUOUS
100
AcDbLine
 10
8.857326339330116
 20
4.671182749779763
 30
0.0
 11
7.781651817520021
 21
5.746857271589858
 31
0.0
  0
LINE
  5
228E6
330
228A2
100
AcDbEntity
  8
0
  6
CONTINUOUS
100
AcDbLine
 10
5.694951119555943
 20
7.833557969553937
 30
0.0
 11
4.765409089118624
 21
8.763099999991255
 31
0.0
  0
LINE
  5
228E7
330
228A2
100
AcDbEntity
  8
0
  6
CONTINUOUS
100
AcDbLine
 10
12.50286117236978
 20
1.699167125820288
 30
0.0
 11
9.68611877250287
 21
4.515909525687196
 31
0.0
  0
LINE
  5
228E8
330
228A2
100
AcDbEntity
  8
0
  6
CONTINUOUS
100
AcDbLine
 10
9.065465192851777
 20
5.136563105338288
 30
0.0
 11
7.989834395251757
 21
6.21219390293831
 31
0.0
  0
LINE
  5
228E9
330
228A2
100
AcDbEntity
  8
0
  6
CONTINUOUS
100
AcDbLine
 10
5.993039874401719
 20
8.208988423788346
 30
0.0
 11
5.43892829819881
 21
8.763099999991255
 31
0.0
  0
LINE
  5
228EA
330
228A2
100
AcDbEntity
  8
0
  6
CONTINUOUS
100
AcDbLine
 10
11.95770871242671
 20
2.917838794843543
 30
0.0
 11
8.19801697298349
 21
6.677530534286761
 31
0.0
  0
LINE
  5
228EB
330
228A2
100
AcDbEntity
  8
0
  6
CONTINUOUS
100
AcDbLine
 10
6.291128629247495
 20
8.584418878022756
 30
0.0
 11
6.112447507278997
 21
8.763099999991255
 31
0.0
  0
LINE
  5
228EC
330
228A2
100
AcDbEntity
  8
0
  6
CONTINUOUS
100
AcDbLine
 10
11.41255625248364
 20
4.136510463866797
 30
0.0
 11
8.406199550715227
 21
7.142867165635211
 31
0.0
  0
LINE
  5
228ED
330
228A2
100
AcDbEntity
  8
0
  6
CONTINUOUS
100
AcDbLine
 10
10.86740379254057
 20
5.355182132890051
 30
0.0
 11
8.614382128446962
 21
7.608203796983664
 31
0.0
  0
LINE
  5
228EE
330
228A2
100
AcDbEntity
  8
0
  6
CONTINUOUS
100
AcDbLine
 10
10.3222513325975
 20
6.573853801913305
 30
0.0
 11
8.822564706178696
 21
8.073540428332114
 31
0.0
  0
LINE
  5
228EF
330
228A2
100
AcDbEntity
  8
0
  6
CONTINUOUS
100
AcDbLine
 10
9.777098872654436
 20
7.792525470936562
 30
0.0
 11
9.030747283910433
 21
8.538877059680566
 31
0.0
  0
ENDBLK
  5
22A31
330
228A2
100
AcDbEntity
  8
0
100
AcDbBlockEnd
  0
BLOCK
  5
22A32
330
228F0
100
AcDbEntity
  8
0
100
AcDbBlockBegin
  2
*X48
 70
     1
 10
0.0
 20
0.0
 30
0.0
  3
*X48
  1

  0
LINE
  5
228F1
330
228F0
100
AcDbEntity
  8
0
  6
CONTINUOUS
100
AcDbLine
 10
10.67292308101235
 20
8.445076852443387
 30
0.0
 11
10.99094622856022
 21
8.763099999991255
 31
0.0
  0
LINE
  5
228F2
330
228F0
100
AcDbEntity
  8
0
  6
CONTINUOUS
100
AcDbLine
 10
10.87250383178748
 20
7.971138394138331
 30
0.0
 11
11.6644654376404
 21
8.763099999991255
 31
0.0
  0
LINE
  5
228F3
330
228F0
100
AcDbEntity
  8
0
  6
CONTINUOUS
100
AcDbLine
 10
11.07208458256261
 20
7.497199935833273
 30
0.0
 11
12.12126590876355
 21
8.546381262034211
 31
0.0
  0
LINE
  5
228F4
330
228F0
100
AcDbEntity
  8
0
  6
CONTINUOUS
100
AcDbLine
 10
11.27166533333774
 20
7.023261477528216
 30
0.0
 11
12.32085164573666
 21
8.072447789927136
 31
0.0
  0
LINE
  5
228F5
330
228F0
100
AcDbEntity
  8
0
  6
CONTINUOUS
100
AcDbLine
 10
11.47124608411287
 20
6.549323019223158
 30
0.0
 11
12.52043738270977
 21
7.59851431782006
 31
0.0
  0
LINE
  5
228F6
330
228F0
100
AcDbEntity
  8
0
  6
CONTINUOUS
100
AcDbLine
 10
11.670826834888
 20
6.075384560918101
 30
0.0
 11
12.72002311968288
 21
7.124580845712984
 31
0.0
  0
LINE
  5
228F7
330
228F0
100
AcDbEntity
  8
0
  6
CONTINUOUS
100
AcDbLine
 10
11.87040758566313
 20
5.601446102613043
 30
0.0
 11
12.91960885665599
 21
6.650647373605907
 31
0.0
  0
LINE
  5
228F8
330
228F0
100
AcDbEntity
  8
0
  6
CONTINUOUS
100
AcDbLine
 10
12.06998833643825
 20
5.127507644307986
 30
0.0
 11
13.1191945936291
 21
6.176713901498832
 31
0.0
  0
LINE
  5
228F9
330
228F0
100
AcDbEntity
  8
0
  6
CONTINUOUS
100
AcDbLine
 10
12.26956908721338
 20
4.65356918600293
 30
0.0
 11
13.31878033060221
 21
5.702780429391757
 31
0.0
  0
LINE
  5
228FA
330
228F0
100
AcDbEntity
  8
0
  6
CONTINUOUS
100
AcDbLine
 10
12.46914983798851
 20
4.179630727697873
 30
0.0
 11
13.51836606757532
 21
5.228846957284683
 31
0.0
  0
LINE
  5
228FB
330
228F0
100
AcDbEntity
  8
0
  6
CONTINUOUS
100
AcDbLine
 10
12.66873058876364
 20
3.705692269392816
 30
0.0
 11
13.71795180454843
 21
4.754913485177607
 31
0.0
  0
LINE
  5
228FC
330
228F0
100
AcDbEntity
  8
0
  6
CONTINUOUS
100
AcDbLine
 10
12.86831133953877
 20
3.231753811087759
 30
0.0
 11
13.91753754152154
 21
4.280980013070531
 31
0.0
  0
LINE
  5
228FD
330
228F0
100
AcDbEntity
  8
0
  6
CONTINUOUS
100
AcDbLine
 10
13.0678920903139
 20
2.757815352782702
 30
0.0
 11
14.11712327849465
 21
3.807046540963456
 31
0.0
  0
LINE
  5
228FE
330
228F0
100
AcDbEntity
  8
0
  6
CONTINUOUS
100
AcDbLine
 10
13.26747284108903
 20
2.283876894477644
 30
0.0
 11
14.31670901546777
 21
3.333113068856379
 31
0.0
  0
LINE
  5
228FF
330
228F0
100
AcDbEntity
  8
0
  6
CONTINUOUS
100
AcDbLine
 10
16.36767838827179
 20
8.751678487061342
 30
0.0
 11
16.50332410898388
 21
8.887324207773432
 31
0.0
  0
LINE
  5
22900
330
228F0
100
AcDbEntity
  8
0
  6
CONTINUOUS
100
AcDbLine
 10
15.96190732182191
 20
7.67238821153127
 30
0.0
 11
16.68735328004734
 21
8.397834169756699
 31
0.0
  0
LINE
  5
22901
330
228F0
100
AcDbEntity
  8
0
  6
CONTINUOUS
100
AcDbLine
 10
15.55613625537202
 20
6.593097936001196
 30
0.0
 11
16.87138245111079
 21
7.908344131739965
 31
0.0
  0
LINE
  5
22902
330
228F0
100
AcDbEntity
  8
0
  6
CONTINUOUS
100
AcDbLine
 10
15.15036518892213
 20
5.513807660471122
 30
0.0
 11
17.05541162217424
 21
7.418854093723231
 31
0.0
  0
LINE
  5
22903
330
228F0
100
AcDbEntity
  8
0
  6
CONTINUOUS
100
AcDbLine
 10
14.74459412247225
 20
4.434517384941048
 30
0.0
 11
17.2394407932377
 21
6.929364055706499
 31
0.0
  0
LINE
  5
22904
330
228F0
100
AcDbEntity
  8
0
  6
CONTINUOUS
100
AcDbLine
 10
14.33882305602236
 20
3.355227109410975
 30
0.0
 11
17.42346996430115
 21
6.439874017689766
 31
0.0
  0
LINE
  5
22905
330
228F0
100
AcDbEntity
  8
0
  6
CONTINUOUS
100
AcDbLine
 10
13.46705359186416
 20
1.809938436172586
 30
0.0
 11
16.0819338255367
 21
4.424818669845129
 31
0.0
  0
LINE
  5
22906
330
228F0
100
AcDbEntity
  8
0
  6
CONTINUOUS
100
AcDbLine
 10
16.63283254238972
 20
4.975717386698149
 30
0.0
 11
17.60749913536461
 21
5.950383979673033
 31
0.0
  0
LINE
  5
22907
330
228F0
100
AcDbEntity
  8
0
  6
CONTINUOUS
100
AcDbLine
 10
13.66663434263929
 20
1.335999977867529
 30
0.0
 11
15.67604797733754
 21
3.345413612565779
 31
0.0
  0
LINE
  5
22908
330
228F0
100
AcDbEntity
  8
0
  6
CONTINUOUS
100
AcDbLine
 10
13.86621509341442
 20
0.8620615195624723
 30
0.0
 11
15.27016212913838
 21
2.26600855528643
 31
0.0
  0
LINE
  5
22909
330
228F0
100
AcDbEntity
  8
0
  6
CONTINUOUS
100
AcDbLine
 10
16.81682257348267
 20
4.486188208710908
 30
0.0
 11
17.79152830642806
 21
5.460893941656299
 31
0.0
  0
LINE
  5
2290A
330
228F0
100
AcDbEntity
  8
0
  6
CONTINUOUS
100
AcDbLine
 10
17.00081260457561
 20
3.996659030723667
 30
0.0
 11
17.97555747749151
 21
4.971403903639565
 31
0.0
  0
LINE
  5
2290B
330
228F0
100
AcDbEntity
  8
0
  6
CONTINUOUS
100
AcDbLine
 10
20.74362343514722
 20
8.412989070375462
 30
0.0
 11
21.09373436476302
 21
8.763099999991256
 31
0.0
  0
LINE
  5
2290C
330
228F0
100
AcDbEntity
  8
0
  6
CONTINUOUS
100
AcDbLine
 10
20.25401257174777
 20
7.249858997895826
 30
0.0
 11
21.7672535738432
 21
8.763099999991255
 31
0.0
  0
LINE
  5
2290D
330
228F0
100
AcDbEntity
  8
0
  6
CONTINUOUS
100
AcDbLine
 10
14.06579584418955
 20
0.3881230612574149
 30
0.0
 11
14.86427628093921
 21
1.186603498007082
 31
0.0
  0
LINE
  5
2290E
330
228F0
100
AcDbEntity
  8
0
  6
CONTINUOUS
100
AcDbLine
 10
14.26537659496467
 20
-0.0858153970476412
 30
0.0
 11
14.45839043274005
 21
0.1071984407277329
 31
0.0
  0
LINE
  5
2290F
330
228F0
100
AcDbEntity
  8
0
  6
CONTINUOUS
100
AcDbLine
 10
17.18480263566856
 20
3.507129852736426
 30
0.0
 11
18.15958664855496
 21
4.481913865622833
 31
0.0
  0
LINE
  5
22910
330
228F0
100
AcDbEntity
  8
0
  6
CONTINUOUS
100
AcDbLine
 10
17.3687926667615
 20
3.017600674749186
 30
0.0
 11
18.34361581961842
 21
3.9924238276061
 31
0.0
  0
LINE
  5
22911
330
228F0
100
AcDbEntity
  8
0
  6
CONTINUOUS
100
AcDbLine
 10
19.76440170834832
 20
6.086728925416191
 30
0.0
 11
22.33924590259489
 21
8.661573119662755
 31
0.0
  0
LINE
  5
22912
330
228F0
100
AcDbEntity
  8
0
  6
CONTINUOUS
100
AcDbLine
 10
19.27479084494887
 20
4.923598852936555
 30
0.0
 11
21.84929622842713
 21
7.498104236414807
 31
0.0
  0
LINE
  5
22913
330
228F0
100
AcDbEntity
  8
0
  6
CONTINUOUS
100
AcDbLine
 10
17.55278269785445
 20
2.528071496761945
 30
0.0
 11
18.52764499068187
 21
3.502933789589366
 31
0.0
  0
LINE
  5
22914
330
228F0
100
AcDbEntity
  8
0
  6
CONTINUOUS
100
AcDbLine
 10
18.78517998154942
 20
3.760468780456919
 30
0.0
 11
21.35934655425936
 21
6.33463535316686
 31
0.0
  0
LINE
  5
22915
330
228F0
100
AcDbEntity
  8
0
  6
CONTINUOUS
100
AcDbLine
 10
17.73677272894739
 20
2.038542318774704
 30
0.0
 11
20.8693968800916
 21
5.171166469918914
 31
0.0
  0
LINE
  5
22916
330
228F0
100
AcDbEntity
  8
0
  6
CONTINUOUS
100
AcDbLine
 10
17.92076276004034
 20
1.549013140787464
 30
0.0
 11
20.37944720592384
 21
4.007697586670968
 31
0.0
  0
LINE
  5
22917
330
228F0
100
AcDbEntity
  8
0
  6
CONTINUOUS
100
AcDbLine
 10
18.10475279113329
 20
1.059483962800223
 30
0.0
 11
19.88949753175608
 21
2.84422870342302
 31
0.0
  0
LINE
  5
22918
330
228F0
100
AcDbEntity
  8
0
  6
CONTINUOUS
100
AcDbLine
 10
18.28874282222623
 20
0.5699547848129822
 30
0.0
 11
19.39954785758832
 21
1.680759820175074
 31
0.0
  0
LINE
  5
22919
330
228F0
100
AcDbEntity
  8
0
  6
CONTINUOUS
100
AcDbLine
 10
18.47273285331918
 20
0.0804256068257416
 30
0.0
 11
18.90959818342056
 21
0.517290936927127
 31
0.0
  0
LINE
  5
2291A
330
228F0
100
AcDbEntity
  8
0
  6
CONTINUOUS
100
AcDbLine
 10
14.3590401358224
 20
-0.1570118376323384
 30
0.0
 11
14.24903296539946
 21
-0.0470046672093929
 31
0.0
  0
LINE
  5
2291B
330
228F0
100
AcDbEntity
  8
0
  6
CONTINUOUS
100
AcDbLine
 10
14.54309291258661
 20
0.332454594683643
 30
0.0
 11
13.75908329123172
 21
1.116464216038529
 31
0.0
  0
LINE
  5
2291C
330
228F0
100
AcDbEntity
  8
0
  6
CONTINUOUS
100
AcDbLine
 10
14.72714568935081
 20
0.8219210269996244
 30
0.0
 11
13.26913361706399
 21
2.27993309928645
 31
0.0
  0
LINE
  5
2291D
330
228F0
100
AcDbEntity
  8
0
  6
CONTINUOUS
100
AcDbLine
 10
14.91119846611502
 20
1.311387459315606
 30
0.0
 11
12.77918394289625
 21
3.443401982534371
 31
0.0
  0
LINE
  5
2291E
330
228F0
100
AcDbEntity
  8
0
  6
CONTINUOUS
100
AcDbLine
 10
15.09525124287922
 20
1.800853891631587
 30
0.0
 11
12.28923426872852
 21
4.606870865782293
 31
0.0
  0
LINE
  5
2291F
330
228F0
100
AcDbEntity
  8
0
  6
CONTINUOUS
100
AcDbLine
 10
15.27930401964343
 20
2.290320323947569
 30
0.0
 11
11.79928459456078
 21
5.770339749030213
 31
0.0
  0
LINE
  5
22920
330
228F0
100
AcDbEntity
  8
0
  6
CONTINUOUS
100
AcDbLine
 10
15.46335679640763
 20
2.77978675626355
 30
0.0
 11
14.48885470994921
 21
3.754288842721972
 31
0.0
  0
LINE
  5
22921
330
228F0
100
AcDbEntity
  8
0
  6
CONTINUOUS
100
AcDbLine
 10
13.88507249233704
 20
4.358071060334137
 30
0.0
 11
11.30933492039305
 21
6.933808632278135
 31
0.0
  0
LINE
  5
22922
330
228F0
100
AcDbEntity
  8
0
  6
CONTINUOUS
100
AcDbLine
 10
18.75840522805855
 20
0.1582575336928151
 30
0.0
 11
18.25383727664818
 21
0.6628254851031863
 31
0.0
  0
LINE
  5
22923
330
228F0
100
AcDbEntity
  8
0
  6
CONTINUOUS
100
AcDbLine
 10
15.64740957317184
 20
3.269253188579531
 30
0.0
 11
14.67288388101266
 21
4.243778880738705
 31
0.0
  0
LINE
  5
22924
330
228F0
100
AcDbEntity
  8
0
  6
CONTINUOUS
100
AcDbLine
 10
13.39509276772158
 20
5.521569994029786
 30
0.0
 11
10.81938524622531
 21
8.097277515526056
 31
0.0
  0
LINE
  5
22925
330
228F0
100
AcDbEntity
  8
0
  6
CONTINUOUS
100
AcDbLine
 10
18.95798597883369
 20
0.6321959919978686
 30
0.0
 11
17.84825644852853
 21
1.741925522303024
 31
0.0
  0
LINE
  5
22926
330
228F0
100
AcDbEntity
  8
0
  6
CONTINUOUS
100
AcDbLine
 10
19.15756672960882
 20
1.106134450302922
 30
0.0
 11
17.44267562040888
 21
2.821025559502861
 31
0.0
  0
LINE
  5
22927
330
228F0
100
AcDbEntity
  8
0
  6
CONTINUOUS
100
AcDbLine
 10
15.83146234993604
 20
3.758719620895513
 30
0.0
 11
14.85691305207612
 21
4.733268918755439
 31
0.0
  0
LINE
  5
22928
330
228F0
100
AcDbEntity
  8
0
  6
CONTINUOUS
100
AcDbLine
 10
16.01551512670025
 20
4.248186053211494
 30
0.0
 11
15.04094222313957
 21
5.222758956772172
 31
0.0
  0
LINE
  5
22929
330
228F0
100
AcDbEntity
  8
0
  6
CONTINUOUS
100
AcDbLine
 10
12.90511304310612
 20
6.685068927725435
 30
0.0
 11
10.8270819708403
 21
8.763099999991255
 31
0.0
  0
LINE
  5
2292A
330
228F0
100
AcDbEntity
  8
0
  6
CONTINUOUS
100
AcDbLine
 10
12.41513331849066
 20
7.848567861421083
 30
0.0
 11
11.50060117992049
 21
8.763099999991255
 31
0.0
  0
LINE
  5
2292B
330
228F0
100
AcDbEntity
  8
0
  6
CONTINUOUS
100
AcDbLine
 10
19.35714748038395
 20
1.580072908607975
 30
0.0
 11
17.03709479228923
 21
3.900125596702697
 31
0.0
  0
LINE
  5
2292C
330
228F0
100
AcDbEntity
  8
0
  6
CONTINUOUS
100
AcDbLine
 10
19.55672823115909
 20
2.054011366913028
 30
0.0
 11
16.63151396416958
 21
4.979225633902534
 31
0.0
  0
LINE
  5
2292D
330
228F0
100
AcDbEntity
  8
0
  6
CONTINUOUS
100
AcDbLine
 10
16.19956790346445
 20
4.737652485527476
 30
0.0
 11
15.22497139420302
 21
5.712248994788904
 31
0.0
  0
LINE
  5
2292E
330
228F0
100
AcDbEntity
  8
0
  6
CONTINUOUS
100
AcDbLine
 10
16.38362068022866
 20
5.227118917843457
 30
0.0
 11
15.40900056526648
 21
6.201739032805637
 31
0.0
  0
LINE
  5
2292F
330
228F0
100
AcDbEntity
  8
0
  6
CONTINUOUS
100
AcDbLine
 10
19.75630898193422
 20
2.527949825218081
 30
0.0
 11
18.70774536448286
 21
3.576513442669441
 31
0.0
  0
LINE
  5
22930
330
228F0
100
AcDbEntity
  8
0
  6
CONTINUOUS
100
AcDbLine
 10
19.95588973270936
 20
3.001888283523134
 30
0.0
 11
18.90726987211446
 21
4.050508144118028
 31
0.0
  0
LINE
  5
22931
330
228F0
100
AcDbEntity
  8
0
  6
CONTINUOUS
100
AcDbLine
 10
20.15547048348449
 20
3.475826741828186
 30
0.0
 11
19.10679437974606
 21
4.524502845566614
 31
0.0
  0
LINE
  5
22932
330
228F0
100
AcDbEntity
  8
0
  6
CONTINUOUS
100
AcDbLine
 10
20.35505123425962
 20
3.94976520013324
 30
0.0
 11
19.30631888737766
 21
4.998497547015201
 31
0.0
  0
LINE
  5
22933
330
228F0
100
AcDbEntity
  8
0
  6
CONTINUOUS
100
AcDbLine
 10
20.55463198503475
 20
4.423703658438292
 30
0.0
 11
19.50584339500926
 21
5.472492248463787
 31
0.0
  0
LINE
  5
22934
330
228F0
100
AcDbEntity
  8
0
  6
CONTINUOUS
100
AcDbLine
 10
18.37481191085755
 20
3.909446896294752
 30
0.0
 11
15.59302973632993
 21
6.691229070822371
 31
0.0
  0
LINE
  5
22935
330
228F0
100
AcDbEntity
  8
0
  6
CONTINUOUS
100
AcDbLine
 10
17.96904084440766
 20
4.988737171824825
 30
0.0
 11
15.77705890739338
 21
7.180719108839104
 31
0.0
  0
LINE
  5
22936
330
228F0
100
AcDbEntity
  8
0
  6
CONTINUOUS
100
AcDbLine
 10
17.56326977795777
 20
6.068027447354899
 30
0.0
 11
15.96108807845684
 21
7.670209146855838
 31
0.0
  0
LINE
  5
22937
330
228F0
100
AcDbEntity
  8
0
  6
CONTINUOUS
100
AcDbLine
 10
17.15749871150789
 20
7.147317722884972
 30
0.0
 11
16.14511724952029
 21
8.15969918487257
 31
0.0
  0
LINE
  5
22938
330
228F0
100
AcDbEntity
  8
0
  6
CONTINUOUS
100
AcDbLine
 10
16.751727645058
 20
8.226607998415046
 30
0.0
 11
16.32914642058374
 21
8.649189222889303
 31
0.0
  0
LINE
  5
22939
330
228F0
100
AcDbEntity
  8
0
  6
CONTINUOUS
100
AcDbLine
 10
20.75421273580989
 20
4.897642116743345
 30
0.0
 11
19.70536790264086
 21
5.946486949912374
 31
0.0
  0
LINE
  5
2293A
330
228F0
100
AcDbEntity
  8
0
  6
CONTINUOUS
100
AcDbLine
 10
20.95379348658502
 20
5.371580575048398
 30
0.0
 11
19.90489241027246
 21
6.42048165136096
 31
0.0
  0
LINE
  5
2293B
330
228F0
100
AcDbEntity
  8
0
  6
CONTINUOUS
100
AcDbLine
 10
21.15337423736015
 20
5.845519033353452
 30
0.0
 11
20.10441691790406
 21
6.894476352809547
 31
0.0
  0
LINE
  5
2293C
330
228F0
100
AcDbEntity
  8
0
  6
CONTINUOUS
100
AcDbLine
 10
21.35295498813529
 20
6.319457491658505
 30
0.0
 11
20.30394142553566
 21
7.368471054258134
 31
0.0
  0
LINE
  5
2293D
330
228F0
100
AcDbEntity
  8
0
  6
CONTINUOUS
100
AcDbLine
 10
21.55253573891042
 20
6.793395949963558
 30
0.0
 11
20.50346593316726
 21
7.842465755706721
 31
0.0
  0
LINE
  5
2293E
330
228F0
100
AcDbEntity
  8
0
  6
CONTINUOUS
100
AcDbLine
 10
21.75211648968556
 20
7.267334408268612
 30
0.0
 11
20.70299044079886
 21
8.316460457155308
 31
0.0
  0
LINE
  5
2293F
330
228F0
100
AcDbEntity
  8
0
  6
CONTINUOUS
100
AcDbLine
 10
21.95169724046069
 20
7.741272866573663
 30
0.0
 11
20.9298701070431
 21
8.763099999991256
 31
0.0
  0
LINE
  5
22940
330
228F0
100
AcDbEntity
  8
0
  6
CONTINUOUS
100
AcDbLine
 10
22.15127799123582
 20
8.215211324878716
 30
0.0
 11
21.60338931612328
 21
8.763099999991256
 31
0.0
  0
LINE
  5
22941
330
228F0
100
AcDbEntity
  8
0
  6
CONTINUOUS
100
AcDbLine
 10
22.35085874201096
 20
8.689149783183769
 30
0.0
 11
22.27690852520347
 21
8.763099999991255
 31
0.0
  0
ENDBLK
  5
22A33
330
228F0
100
AcDbEntity
  8
0
100
AcDbBlockEnd
  0
BLOCK
  5
22A34
330
22942
100
AcDbEntity
  8
0
100
AcDbBlockBegin
  2
*X49
 70
     1
 10
0.0
 20
0.0
 30
0.0
  3
*X49
  1

  0
LINE
  5
22943
330
22942
100
AcDbEntity
  8
0
  6
CONTINUOUS
100
AcDbLine
 10
23.19462913593892
 20
8.169917934846424
 30
0.0
 11
23.70775465517246
 21
8.683043454079957
 31
0.0
  0
LINE
  5
22944
330
22942
100
AcDbEntity
  8
0
  6
CONTINUOUS
100
AcDbLine
 10
22.64923161835078
 20
6.951001208178088
 30
0.0
 11
23.9159364069932
 21
8.217705996820516
 31
0.0
  0
LINE
  5
22945
330
22942
100
AcDbEntity
  8
0
  6
CONTINUOUS
100
AcDbLine
 10
22.10383410076263
 20
5.732084481509751
 30
0.0
 11
24.12411815881395
 21
7.752368539561078
 31
0.0
  0
LINE
  5
22946
330
22942
100
AcDbEntity
  8
0
  6
CONTINUOUS
100
AcDbLine
 10
21.55843658317447
 20
4.513167754841414
 30
0.0
 11
24.3322999106347
 21
7.287031082301639
 31
0.0
  0
LINE
  5
22947
330
22942
100
AcDbEntity
  8
0
  6
CONTINUOUS
100
AcDbLine
 10
21.01303906558632
 20
3.294251028173077
 30
0.0
 11
24.54048166245544
 21
6.821693625042199
 31
0.0
  0
LINE
  5
22948
330
22942
100
AcDbEntity
  8
0
  6
CONTINUOUS
100
AcDbLine
 10
20.46764154799817
 20
2.075334301504738
 30
0.0
 11
23.28571549467848
 21
4.89340824818505
 31
0.0
  0
LINE
  5
22949
330
22942
100
AcDbEntity
  8
0
  6
CONTINUOUS
100
AcDbLine
 10
19.92224403041002
 20
0.8564175748364002
 30
0.0
 11
22.74075865492779
 21
3.674932199354171
 31
0.0
  0
LINE
  5
2294A
330
22942
100
AcDbEntity
  8
0
  6
CONTINUOUS
100
AcDbLine
 10
23.67305085490148
 20
5.280743608408048
 30
0.0
 11
24.74866341427619
 21
6.356356167782759
 31
0.0
  0
LINE
  5
2294B
330
22942
100
AcDbEntity
  8
0
  6
CONTINUOUS
100
AcDbLine
 10
23.88118970842314
 20
4.815363252849522
 30
0.0
 11
24.95684516609694
 21
5.89101871052332
 31
0.0
  0
LINE
  5
2294C
330
22942
100
AcDbEntity
  8
0
  6
CONTINUOUS
100
AcDbLine
 10
19.73925852647308
 20
-0.0000871381807288
 30
0.0
 11
23.4103456646501
 21
3.670999999996297
 31
0.0
  0
LINE
  5
2294D
330
22942
100
AcDbEntity
  8
0
  6
CONTINUOUS
100
AcDbLine
 10
24.0893285619448
 20
4.349982897290997
 30
0.0
 11
25.16502691791769
 21
5.42568125326388
 31
0.0
  0
LINE
  5
2294E
330
22942
100
AcDbEntity
  8
0
  6
CONTINUOUS
100
AcDbLine
 10
20.41282099582748
 20
-0.0000438779065108
 30
0.0
 11
21.64944178675636
 21
1.236576913022366
 31
0.0
  0
LINE
  5
2294F
330
22942
100
AcDbEntity
  8
0
  6
CONTINUOUS
100
AcDbLine
 10
22.78126487373161
 20
2.36839999999762
 30
0.0
 11
24.08386487373029
 21
3.670999999996297
 31
0.0
  0
LINE
  5
22950
330
22942
100
AcDbEntity
  8
0
  6
CONTINUOUS
100
AcDbLine
 10
24.29746741546646
 20
3.884602541732471
 30
0.0
 11
25.37320866973843
 21
4.960343796004441
 31
0.0
  0
LINE
  5
22951
330
22942
100
AcDbEntity
  8
0
  6
CONTINUOUS
100
AcDbLine
 10
21.08638346518189
 20
-0.0000006176322938
 30
0.0
 11
21.10379033335899
 21
0.0174062505448083
 31
0.0
  0
LINE
  5
22952
330
22942
100
AcDbEntity
  8
0
  6
CONTINUOUS
100
AcDbLine
 10
23.4547840828118
 20
2.36839999999762
 30
0.0
 11
25.58139042155918
 21
4.495006338745002
 31
0.0
  0
LINE
  5
22953
330
22942
100
AcDbEntity
  8
0
  6
CONTINUOUS
100
AcDbLine
 10
29.30199999996933
 20
8.215615917155148
 30
0.0
 11
29.84948408280543
 21
8.763099999991255
 31
0.0
  0
LINE
  5
22954
330
22942
100
AcDbEntity
  8
0
  6
CONTINUOUS
100
AcDbLine
 10
24.12830329189199
 20
2.36839999999762
 30
0.0
 11
25.78957217337993
 21
4.029668881485562
 31
0.0
  0
LINE
  5
22955
330
22942
100
AcDbEntity
  8
0
  6
CONTINUOUS
100
AcDbLine
 10
29.30199999996933
 20
7.54209670807496
 30
0.0
 11
30.52300329188562
 21
8.763099999991255
 31
0.0
  0
LINE
  5
22956
330
22942
100
AcDbEntity
  8
0
  6
CONTINUOUS
100
AcDbLine
 10
24.80182250097217
 20
2.36839999999762
 30
0.0
 11
25.99775392520067
 21
3.564331424226122
 31
0.0
  0
LINE
  5
22957
330
22942
100
AcDbEntity
  8
0
  6
CONTINUOUS
100
AcDbLine
 10
29.30199999996933
 20
6.868577498994774
 30
0.0
 11
30.74199999996926
 21
8.308577498994712
 31
0.0
  0
LINE
  5
22958
330
22942
100
AcDbEntity
  8
0
  6
CONTINUOUS
100
AcDbLine
 10
25.13028238392013
 20
2.023340673865392
 30
0.0
 11
26.20593567702142
 21
3.098993966966683
 31
0.0
  0
LINE
  5
22959
330
22942
100
AcDbEntity
  8
0
  6
CONTINUOUS
100
AcDbLine
 10
25.33838066033617
 20
1.557919741201244
 30
0.0
 11
26.41411742884217
 21
2.633656509707244
 31
0.0
  0
LINE
  5
2295A
330
22942
100
AcDbEntity
  8
0
  6
CONTINUOUS
100
AcDbLine
 10
25.54647893675221
 20
1.092498808537098
 30
0.0
 11
26.62229918066291
 21
2.168319052447804
 31
0.0
  0
LINE
  5
2295B
330
22942
100
AcDbEntity
  8
0
  6
CONTINUOUS
100
AcDbLine
 10
25.75457721316825
 20
0.62707787587295
 30
0.0
 11
26.83048093248366
 21
1.702981595188365
 31
0.0
  0
LINE
  5
2295C
330
22942
100
AcDbEntity
  8
0
  6
CONTINUOUS
100
AcDbLine
 10
29.30199999996933
 20
6.195058289914587
 30
0.0
 11
30.74199999996926
 21
7.635058289914522
 31
0.0
  0
LINE
  5
2295D
330
22942
100
AcDbEntity
  8
0
  6
CONTINUOUS
100
AcDbLine
 10
29.30199999996933
 20
5.521539080834401
 30
0.0
 11
30.74199999996926
 21
6.961539080834331
 31
0.0
  0
LINE
  5
2295E
330
22942
100
AcDbEntity
  8
0
  6
CONTINUOUS
100
AcDbLine
 10
29.30199999996933
 20
4.848019871754214
 30
0.0
 11
30.74199999996925
 21
6.288019871754143
 31
0.0
  0
LINE
  5
2295F
330
22942
100
AcDbEntity
  8
0
  6
CONTINUOUS
100
AcDbLine
 10
29.30199999996933
 20
4.174500662674028
 30
0.0
 11
30.74199999996925
 21
5.614500662673953
 31
0.0
  0
LINE
  5
22960
330
22942
100
AcDbEntity
  8
0
  6
CONTINUOUS
100
AcDbLine
 10
25.96267548958429
 20
0.1616569432088024
 30
0.0
 11
27.18411854636669
 21
1.383099999991207
 31
0.0
  0
LINE
  5
22961
330
22942
100
AcDbEntity
  8
0
  6
CONTINUOUS
100
AcDbLine
 10
29.30199999996933
 20
3.500981453593841
 30
0.0
 11
30.74199999996925
 21
4.940981453593762
 31
0.0
  0
LINE
  5
22962
330
22942
100
AcDbEntity
  8
0
  6
CONTINUOUS
100
AcDbLine
 10
26.50763775544691
 20
0.0330999999912356
 30
0.0
 11
27.85763775544689
 21
1.383099999991223
 31
0.0
  0
LINE
  5
22963
330
22942
100
AcDbEntity
  8
0
  6
CONTINUOUS
100
AcDbLine
 10
29.30199999996933
 20
2.827462244513656
 30
0.0
 11
30.74199999996925
 21
4.267462244513574
 31
0.0
  0
LINE
  5
22964
330
22942
100
AcDbEntity
  8
0
  6
CONTINUOUS
100
AcDbLine
 10
27.18115696452709
 20
0.0330999999912356
 30
0.0
 11
28.6224847300034
 21
1.474427765467545
 31
0.0
  0
LINE
  5
22965
330
22942
100
AcDbEntity
  8
0
  6
CONTINUOUS
100
AcDbLine
 10
29.21067223449293
 20
2.062615269957069
 30
0.0
 11
30.74199999996924
 21
3.593943035433383
 31
0.0
  0
LINE
  5
22966
330
22942
100
AcDbEntity
  8
0
  6
CONTINUOUS
100
AcDbLine
 10
27.85467617360728
 20
0.0330999999912356
 30
0.0
 11
30.74199999996924
 21
2.920423826353195
 31
0.0
  0
LINE
  5
22967
330
22942
100
AcDbEntity
  8
0
  6
CONTINUOUS
100
AcDbLine
 10
28.57438609860264
 20
0.0792907159064073
 30
0.0
 11
30.69580928405405
 21
2.200713901357819
 31
0.0
  0
LINE
  5
22968
330
22942
100
AcDbEntity
  8
0
  6
CONTINUOUS
100
AcDbLine
 10
29.49443044814297
 20
0.3258158563665496
 30
0.0
 11
30.44928414359389
 21
1.280669551817477
 31
0.0
  0
LINE
  5
22969
330
22942
100
AcDbEntity
  8
0
  6
CONTINUOUS
100
AcDbLine
 10
19.59027867740337
 20
-0.0000967065718083
 30
0.0
 11
19.55485265190471
 21
0.035329318926844
 31
0.0
  0
LINE
  5
2296A
330
22942
100
AcDbEntity
  8
0
  6
CONTINUOUS
100
AcDbLine
 10
20.26375463176586
 20
-0.0000534518541091
 30
0.0
 11
19.76305575737534
 21
0.5006454225364014
 31
0.0
  0
LINE
  5
2296B
330
22942
100
AcDbEntity
  8
0
  6
CONTINUOUS
100
AcDbLine
 10
20.93723058612834
 20
-0.0000101971364099
 30
0.0
 11
19.97125886284597
 21
0.965961526145958
 31
0.0
  0
LINE
  5
2296C
330
22942
100
AcDbEntity
  8
0
  6
CONTINUOUS
100
AcDbLine
 10
21.25514828313686
 20
0.355591314935257
 30
0.0
 11
20.1794619683166
 21
1.431277629755512
 31
0.0
  0
LINE
  5
2296D
330
22942
100
AcDbEntity
  8
0
  6
CONTINUOUS
100
AcDbLine
 10
21.46338838394921
 20
0.8208704232030986
 30
0.0
 11
20.38766507378723
 21
1.896593733365069
 31
0.0
  0
LINE
  5
2296E
330
22942
100
AcDbEntity
  8
0
  6
CONTINUOUS
100
AcDbLine
 10
21.67162848476155
 20
1.28614953147094
 30
0.0
 11
20.59586817925786
 21
2.361909836974626
 31
0.0
  0
LINE
  5
2296F
330
22942
100
AcDbEntity
  8
0
  6
CONTINUOUS
100
AcDbLine
 10
21.8798685855739
 20
1.751428639738782
 30
0.0
 11
20.80407128472849
 21
2.827225940584183
 31
0.0
  0
LINE
  5
22970
330
22942
100
AcDbEntity
  8
0
  6
CONTINUOUS
100
AcDbLine
 10
22.08810868638624
 20
2.216707748006623
 30
0.0
 11
21.01227439019912
 21
3.292542044193739
 31
0.0
  0
LINE
  5
22971
330
22942
100
AcDbEntity
  8
0
  6
CONTINUOUS
100
AcDbLine
 10
22.60993564347543
 20
2.36839999999762
 30
0.0
 11
21.22047749566975
 21
3.757858147803296
 31
0.0
  0
LINE
  5
22972
330
22942
100
AcDbEntity
  8
0
  6
CONTINUOUS
100
AcDbLine
 10
23.28345485255561
 20
2.36839999999762
 30
0.0
 11
21.42868060114038
 21
4.223174251412853
 31
0.0
  0
LINE
  5
22973
330
22942
100
AcDbEntity
  8
0
  6
CONTINUOUS
100
AcDbLine
 10
26.29227406164219
 20
0.0330999999912356
 30
0.0
 11
25.80009199592872
 21
0.5252820657046957
 31
0.0
  0
LINE
  5
22974
330
22942
100
AcDbEntity
  8
0
  6
CONTINUOUS
100
AcDbLine
 10
23.9569740616358
 20
2.36839999999762
 30
0.0
 11
21.63688370661101
 21
4.688490355022409
 31
0.0
  0
LINE
  5
22975
330
22942
100
AcDbEntity
  8
0
  6
CONTINUOUS
100
AcDbLine
 10
26.96579327072237
 20
0.0330999999912356
 30
0.0
 11
25.2554132311971
 21
1.743480039516508
 31
0.0
  0
LINE
  5
22976
330
22942
100
AcDbEntity
  8
0
  6
CONTINUOUS
100
AcDbLine
 10
24.63049327071599
 20
2.36839999999762
 30
0.0
 11
23.32789327071731
 21
3.670999999996297
 31
0.0
  0
LINE
  5
22977
330
22942
100
AcDbEntity
  8
0
  6
CONTINUOUS
100
AcDbLine
 10
22.92098674744635
 20
4.077906523267254
 30
0.0
 11
21.84508681208164
 21
5.153806458631966
 31
0.0
  0
LINE
  5
22978
330
22942
100
AcDbEntity
  8
0
  6
CONTINUOUS
100
AcDbLine
 10
27.63931247980256
 20
0.0330999999912356
 30
0.0
 11
24.0014124797975
 21
3.670999999996297
 31
0.0
  0
LINE
  5
22979
330
22942
100
AcDbEntity
  8
0
  6
CONTINUOUS
100
AcDbLine
 10
23.129125600968
 20
4.5432868788258
 30
0.0
 11
22.05328991755227
 21
5.619122562241522
 31
0.0
  0
LINE
  5
2297A
330
22942
100
AcDbEntity
  8
0
  6
CONTINUOUS
100
AcDbLine
 10
28.31283168888275
 20
0.0330999999912356
 30
0.0
 11
24.16488385994816
 21
4.181047828925828
 31
0.0
  0
LINE
  5
2297B
330
22942
100
AcDbEntity
  8
0
  6
CONTINUOUS
100
AcDbLine
 10
23.33726445448964
 20
5.008667234384345
 30
0.0
 11
22.2614930230229
 21
6.084438665851079
 31
0.0
  0
LINE
  5
2297C
330
22942
100
AcDbEntity
  8
0
  6
CONTINUOUS
100
AcDbLine
 10
28.86286302309502
 20
0.1565878748591523
 30
0.0
 11
27.63635089796295
 21
1.383099999991217
 31
0.0
  0
LINE
  5
2297D
330
22942
100
AcDbEntity
  8
0
  6
CONTINUOUS
100
AcDbLine
 10
26.43704649509776
 20
2.582404402856405
 30
0.0
 11
23.61992702019732
 21
5.399523877756844
 31
0.0
  0
LINE
  5
2297E
330
22942
100
AcDbEntity
  8
0
  6
CONTINUOUS
100
AcDbLine
 10
23.54540330801128
 20
5.47404758994289
 30
0.0
 11
22.46969612849353
 21
6.549754769460635
 31
0.0
  0
LINE
  5
2297F
330
22942
100
AcDbEntity
  8
0
  6
CONTINUOUS
100
AcDbLine
 10
29.39405087596853
 20
0.2989192310658284
 30
0.0
 11
28.30987010704312
 21
1.383099999991234
 31
0.0
  0
LINE
  5
22980
330
22942
100
AcDbEntity
  8
0
  6
CONTINUOUS
100
AcDbLine
 10
25.89179548232307
 20
3.801174624711282
 30
0.0
 11
22.67789923396416
 21
7.015070873070191
 31
0.0
  0
LINE
  5
22981
330
22942
100
AcDbEntity
  8
0
  6
CONTINUOUS
100
AcDbLine
 10
29.79594438047407
 20
0.570544935640473
 30
0.0
 11
28.81310432793121
 21
1.553384988183336
 31
0.0
  0
LINE
  5
22982
330
22942
100
AcDbEntity
  8
0
  6
CONTINUOUS
100
AcDbLine
 10
25.34654446954838
 20
5.01994484656616
 30
0.0
 11
22.88610233943479
 21
7.480386976679748
 31
0.0
  0
LINE
  5
22983
330
22942
100
AcDbEntity
  8
0
  6
CONTINUOUS
100
AcDbLine
 10
30.13270398501416
 20
0.9073045401805646
 30
0.0
 11
29.14234640337737
 21
1.897662121817355
 31
0.0
  0
LINE
  5
22984
330
22942
100
AcDbEntity
  8
0
  6
CONTINUOUS
100
AcDbLine
 10
24.80129345677369
 20
6.238715068421037
 30
0.0
 11
23.09430544490542
 21
7.945703080289305
 31
0.0
  0
LINE
  5
22985
330
22942
100
AcDbEntity
  8
0
  6
CONTINUOUS
100
AcDbLine
 10
30.44581292956759
 20
1.26771480470732
 30
0.0
 11
29.30199999996933
 21
2.411527734305588
 31
0.0
  0
LINE
  5
22986
330
22942
100
AcDbEntity
  8
0
  6
CONTINUOUS
100
AcDbLine
 10
30.58814428577427
 20
1.798902657580827
 30
0.0
 11
29.30199999996933
 21
3.085046943385775
 31
0.0
  0
LINE
  5
22987
330
22942
100
AcDbEntity
  8
0
  6
CONTINUOUS
100
AcDbLine
 10
24.256042443999
 20
7.457485290275915
 30
0.0
 11
23.30250855037605
 21
8.411019183898862
 31
0.0
  0
LINE
  5
22988
330
22942
100
AcDbEntity
  8
0
  6
CONTINUOUS
100
AcDbLine
 10
23.71079143122431
 20
8.676255512130794
 30
0.0
 11
23.51071165584668
 21
8.876335287508418
 31
0.0
  0
LINE
  5
22989
330
22942
100
AcDbEntity
  8
0
  6
CONTINUOUS
100
AcDbLine
 10
30.73047564198095
 20
2.330090510454333
 30
0.0
 11
29.30199999996933
 21
3.758566152465961
 31
0.0
  0
LINE
  5
2298A
330
22942
100
AcDbEntity
  8
0
  6
CONTINUOUS
100
AcDbLine
 10
30.74199999996924
 20
2.992085361546236
 30
0.0
 11
29.30199999996933
 21
4.432085361546148
 31
0.0
  0
LINE
  5
2298B
330
22942
100
AcDbEntity
  8
0
  6
CONTINUOUS
100
AcDbLine
 10
30.74199999996924
 20
3.665604570626419
 30
0.0
 11
29.30199999996933
 21
5.105604570626333
 31
0.0
  0
LINE
  5
2298C
330
22942
100
AcDbEntity
  8
0
  6
CONTINUOUS
100
AcDbLine
 10
30.74199999996925
 20
4.339123779706602
 30
0.0
 11
29.30199999996933
 21
5.77912377970652
 31
0.0
  0
LINE
  5
2298D
330
22942
100
AcDbEntity
  8
0
  6
CONTINUOUS
100
AcDbLine
 10
30.74199999996925
 20
5.012642988786785
 30
0.0
 11
29.30199999996933
 21
6.452642988786707
 31
0.0
  0
LINE
  5
2298E
330
22942
100
AcDbEntity
  8
0
  6
CONTINUOUS
100
AcDbLine
 10
30.74199999996925
 20
5.68616219786697
 30
0.0
 11
29.30199999996933
 21
7.126162197866894
 31
0.0
  0
LINE
  5
2298F
330
22942
100
AcDbEntity
  8
0
  6
CONTINUOUS
100
AcDbLine
 10
30.74199999996925
 20
6.359681406947153
 30
0.0
 11
29.30199999996933
 21
7.799681406947081
 31
0.0
  0
LINE
  5
22990
330
22942
100
AcDbEntity
  8
0
  6
CONTINUOUS
100
AcDbLine
 10
30.74199999996926
 20
7.033200616027337
 30
0.0
 11
29.30199999996933
 21
8.473200616027269
 31
0.0
  0
LINE
  5
22991
330
22942
100
AcDbEntity
  8
0
  6
CONTINUOUS
100
AcDbLine
 10
30.74199999996926
 20
7.706719825107518
 30
0.0
 11
29.68561982508552
 21
8.763099999991255
 31
0.0
  0
LINE
  5
22992
330
22942
100
AcDbEntity
  8
0
  6
CONTINUOUS
100
AcDbLine
 10
30.74199999996926
 20
8.380239034187703
 30
0.0
 11
30.35913903416571
 21
8.763099999991255
 31
0.0
  0
ENDBLK
  5
22A35
330
22942
100
AcDbEntity
  8
0
100
AcDbBlockEnd
  0
BLOCK
  5
22A36
330
22993
100
AcDbEntity
  8
0
100
AcDbBlockBegin
  2
*X50
 70
     1
 10
0.0
 20
0.0
 30
0.0
  3
*X50
  1

  0
LINE
  5
22994
330
22993
100
AcDbEntity
  8
0
  6
CONTINUOUS
100
AcDbLine
 10
31.64199999996833
 20
8.5350582899136
 30
0.0
 11
31.87004171004599
 21
8.763099999991255
 31
0.0
  0
LINE
  5
22995
330
22993
100
AcDbEntity
  8
0
  6
CONTINUOUS
100
AcDbLine
 10
31.64199999996833
 20
7.861539080833413
 30
0.0
 11
32.54356091912618
 21
8.763099999991255
 31
0.0
  0
LINE
  5
22996
330
22993
100
AcDbEntity
  8
0
  6
CONTINUOUS
100
AcDbLine
 10
31.64199999996833
 20
7.188019871753227
 30
0.0
 11
33.08199999996839
 21
8.628019871753281
 31
0.0
  0
LINE
  5
22997
330
22993
100
AcDbEntity
  8
0
  6
CONTINUOUS
100
AcDbLine
 10
31.64199999996833
 20
6.514500662673041
 30
0.0
 11
33.08199999996839
 21
7.954500662673095
 31
0.0
  0
LINE
  5
22998
330
22993
100
AcDbEntity
  8
0
  6
CONTINUOUS
100
AcDbLine
 10
31.64199999996833
 20
5.840981453592855
 30
0.0
 11
33.08199999996839
 21
7.28098145359291
 31
0.0
  0
LINE
  5
22999
330
22993
100
AcDbEntity
  8
0
  6
CONTINUOUS
100
AcDbLine
 10
31.64199999996833
 20
5.167462244512668
 30
0.0
 11
33.08199999996839
 21
6.607462244512723
 31
0.0
  0
LINE
  5
2299A
330
22993
100
AcDbEntity
  8
0
  6
CONTINUOUS
100
AcDbLine
 10
31.64199999996833
 20
4.493943035432482
 30
0.0
 11
33.08199999996839
 21
5.933943035432536
 31
0.0
  0
LINE
  5
2299B
330
22993
100
AcDbEntity
  8
0
  6
CONTINUOUS
100
AcDbLine
 10
31.64199999996833
 20
3.820423826352294
 30
0.0
 11
33.08199999996839
 21
5.260423826352349
 31
0.0
  0
LINE
  5
2299C
330
22993
100
AcDbEntity
  8
0
  6
CONTINUOUS
100
AcDbLine
 10
31.64199999996833
 20
3.146904617272108
 30
0.0
 11
33.08199999996839
 21
4.586904617272163
 31
0.0
  0
LINE
  5
2299D
330
22993
100
AcDbEntity
  8
0
  6
CONTINUOUS
100
AcDbLine
 10
36.23199999996837
 20
8.410423826352327
 30
0.0
 11
36.58467617360729
 21
8.763099999991255
 31
0.0
  0
LINE
  5
2299E
330
22993
100
AcDbEntity
  8
0
  6
CONTINUOUS
100
AcDbLine
 10
36.23199999996837
 20
7.73690461727214
 30
0.0
 11
37.25819538268748
 21
8.763099999991255
 31
0.0
  0
LINE
  5
2299F
330
22993
100
AcDbEntity
  8
0
  6
CONTINUOUS
100
AcDbLine
 10
31.64323424774199
 20
2.474619655965573
 30
0.0
 11
33.08199999996839
 21
3.913385408191976
 31
0.0
  0
LINE
  5
229A0
330
22993
100
AcDbEntity
  8
0
  6
CONTINUOUS
100
AcDbLine
 10
31.74419223861915
 20
1.902058437762552
 30
0.0
 11
33.08199999996839
 21
3.239866199111789
 31
0.0
  0
LINE
  5
229A1
330
22993
100
AcDbEntity
  8
0
  6
CONTINUOUS
100
AcDbLine
 10
36.23199999996837
 20
7.063385408191953
 30
0.0
 11
37.67199999996831
 21
8.503385408191894
 31
0.0
  0
LINE
  5
229A2
330
22993
100
AcDbEntity
  8
0
  6
CONTINUOUS
100
AcDbLine
 10
36.23199999996837
 20
6.389866199111767
 30
0.0
 11
37.67199999996831
 21
7.829866199111708
 31
0.0
  0
LINE
  5
229A3
330
22993
100
AcDbEntity
  8
0
  6
CONTINUOUS
100
AcDbLine
 10
31.91111233414976
 20
1.39545932421297
 30
0.0
 11
33.08199999996839
 21
2.566346990031603
 31
0.0
  0
LINE
  5
229A4
330
22993
100
AcDbEntity
  8
0
  6
CONTINUOUS
100
AcDbLine
 10
36.23199999996837
 20
5.71634699003158
 30
0.0
 11
37.67199999996831
 21
7.156346990031522
 31
0.0
  0
LINE
  5
229A5
330
22993
100
AcDbEntity
  8
0
  6
CONTINUOUS
100
AcDbLine
 10
32.1576374746103
 20
0.9684652555933289
 30
0.0
 11
33.20642631446081
 21
2.017254095443838
 31
0.0
  0
LINE
  5
229A6
330
22993
100
AcDbEntity
  8
0
  6
CONTINUOUS
100
AcDbLine
 10
36.23199999996837
 20
5.042827780951393
 30
0.0
 11
37.67199999996831
 21
6.482827780951334
 31
0.0
  0
LINE
  5
229A7
330
22993
100
AcDbEntity
  8
0
  6
CONTINUOUS
100
AcDbLine
 10
32.47774023927325
 20
0.6150488111760914
 30
0.0
 11
33.49903056428258
 21
1.636339136185419
 31
0.0
  0
LINE
  5
229A8
330
22993
100
AcDbEntity
  8
0
  6
CONTINUOUS
100
AcDbLine
 10
36.23199999996837
 20
4.369308571871207
 30
0.0
 11
37.67199999996831
 21
5.809308571871148
 31
0.0
  0
LINE
  5
229A9
330
22993
100
AcDbEntity
  8
0
  6
CONTINUOUS
100
AcDbLine
 10
32.84396249154443
 20
0.3077518543670883
 30
0.0
 11
33.93324121824649
 21
1.397030581069146
 31
0.0
  0
LINE
  5
229AA
330
22993
100
AcDbEntity
  8
0
  6
CONTINUOUS
100
AcDbLine
 10
36.23199999996837
 20
3.695789362791021
 30
0.0
 11
37.67199999996831
 21
5.135789362790963
 31
0.0
  0
LINE
  5
229AB
330
22993
100
AcDbEntity
  8
0
  6
CONTINUOUS
100
AcDbLine
 10
33.30186329036846
 20
0.0921334441109263
 30
0.0
 11
34.46442907112041
 21
1.254699224862875
 31
0.0
  0
LINE
  5
229AC
330
22993
100
AcDbEntity
  8
0
  6
CONTINUOUS
100
AcDbLine
 10
36.23199999996837
 20
3.022270153710834
 30
0.0
 11
37.67199999996831
 21
4.462270153710776
 31
0.0
  0
LINE
  5
229AD
330
22993
100
AcDbEntity
  8
0
  6
CONTINUOUS
100
AcDbLine
 10
33.79565647746294
 20
-0.0875925778747773
 30
0.0
 11
35.24350171668284
 21
1.360252661345124
 31
0.0
  0
LINE
  5
229AE
330
22993
100
AcDbEntity
  8
0
  6
CONTINUOUS
100
AcDbLine
 10
36.18336676155003
 20
2.300117706212308
 30
0.0
 11
37.67199999996831
 21
3.788750944630589
 31
0.0
  0
LINE
  5
229AF
330
22993
100
AcDbEntity
  8
0
  6
CONTINUOUS
100
AcDbLine
 10
34.37182574910968
 20
-0.184942515308224
 30
0.0
 11
37.67199999996831
 21
3.115231735550402
 31
0.0
  0
LINE
  5
229B0
330
22993
100
AcDbEntity
  8
0
  6
CONTINUOUS
100
AcDbLine
 10
35.0453449581892
 20
-0.1849425153088955
 30
0.0
 11
37.66345697088136
 21
2.433169497383271
 31
0.0
  0
LINE
  5
229B1
330
22993
100
AcDbEntity
  8
0
  6
CONTINUOUS
100
AcDbLine
 10
35.98667157609191
 20
0.0828648935136398
 30
0.0
 11
37.51927401744566
 21
1.615467334867382
 31
0.0
  0
LINE
  5
229B2
330
22993
100
AcDbEntity
  8
0
  6
CONTINUOUS
100
AcDbLine
 10
32.27747408544484
 20
0.7830920669904482
 30
0.0
 11
32.24716210471949
 21
0.8134040477157893
 31
0.0
  0
LINE
  5
229B3
330
22993
100
AcDbEntity
  8
0
  6
CONTINUOUS
100
AcDbLine
 10
33.83656881101902
 20
-0.1024834495035494
 30
0.0
 11
31.72538911593758
 21
2.008696245577891
 31
0.0
  0
LINE
  5
229B4
330
22993
100
AcDbEntity
  8
0
  6
CONTINUOUS
100
AcDbLine
 10
34.5925470859041
 20
-0.1849425153084434
 30
0.0
 11
31.64199999996833
 21
2.765604570627322
 31
0.0
  0
LINE
  5
229B5
330
22993
100
AcDbEntity
  8
0
  6
CONTINUOUS
100
AcDbLine
 10
35.26201302775981
 20
-0.1808892480839752
 30
0.0
 11
31.64199999996833
 21
3.439123779707508
 31
0.0
  0
LINE
  5
229B6
330
22993
100
AcDbEntity
  8
0
  6
CONTINUOUS
100
AcDbLine
 10
35.75580621485512
 20
-0.0011632260990879
 30
0.0
 11
34.51294304365551
 21
1.241699945100514
 31
0.0
  0
LINE
  5
229B7
330
22993
100
AcDbEntity
  8
0
  6
CONTINUOUS
100
AcDbLine
 10
33.08199999996839
 20
2.672642988787641
 30
0.0
 11
31.64199999996833
 21
4.112642988787695
 31
0.0
  0
LINE
  5
229B8
330
22993
100
AcDbEntity
  8
0
  6
CONTINUOUS
100
AcDbLine
 10
36.24959940195042
 20
0.1785627958857976
 30
0.0
 11
35.10501653033629
 21
1.323145667499924
 31
0.0
  0
LINE
  5
229B9
330
22993
100
AcDbEntity
  8
0
  6
CONTINUOUS
100
AcDbLine
 10
33.08199999996839
 20
3.346162197867827
 30
0.0
 11
31.64199999996833
 21
4.786162197867881
 31
0.0
  0
LINE
  5
229BA
330
22993
100
AcDbEntity
  8
0
  6
CONTINUOUS
100
AcDbLine
 10
36.64615197150552
 20
0.4555294354108876
 30
0.0
 11
35.6362043832099
 21
1.465477023706505
 31
0.0
  0
LINE
  5
229BB
330
22993
100
AcDbEntity
  8
0
  6
CONTINUOUS
100
AcDbLine
 10
33.08199999996839
 20
4.019681406948013
 30
0.0
 11
31.64199999996833
 21
5.459681406948068
 31
0.0
  0
LINE
  5
229BC
330
22993
100
AcDbEntity
  8
0
  6
CONTINUOUS
100
AcDbLine
 10
37.0123742237774
 20
0.7628263922191891
 30
0.0
 11
35.97691545773309
 21
1.798285158263504
 31
0.0
  0
LINE
  5
229BD
330
22993
100
AcDbEntity
  8
0
  6
CONTINUOUS
100
AcDbLine
 10
33.08199999996839
 20
4.6932006160282
 30
0.0
 11
31.64199999996833
 21
6.133200616028255
 31
0.0
  0
LINE
  5
229BE
330
22993
100
AcDbEntity
  8
0
  6
CONTINUOUS
100
AcDbLine
 10
37.27491524157143
 20
1.173804583505349
 30
0.0
 11
36.17602012811361
 21
2.272699696963169
 31
0.0
  0
LINE
  5
229BF
330
22993
100
AcDbEntity
  8
0
  6
CONTINUOUS
100
AcDbLine
 10
33.08199999996839
 20
5.366719825108387
 30
0.0
 11
31.64199999996833
 21
6.806719825108441
 31
0.0
  0
LINE
  5
229C0
330
22993
100
AcDbEntity
  8
0
  6
CONTINUOUS
100
AcDbLine
 10
37.51739996707661
 20
1.604839067080355
 30
0.0
 11
36.23199999996837
 21
2.890239034188595
 31
0.0
  0
LINE
  5
229C1
330
22993
100
AcDbEntity
  8
0
  6
CONTINUOUS
100
AcDbLine
 10
37.6183579579535
 20
2.177400285283649
 30
0.0
 11
36.23199999996837
 21
3.563758243268782
 31
0.0
  0
LINE
  5
229C2
330
22993
100
AcDbEntity
  8
0
  6
CONTINUOUS
100
AcDbLine
 10
33.08199999996839
 20
6.040239034188573
 30
0.0
 11
31.64199999996833
 21
7.480239034188628
 31
0.0
  0
LINE
  5
229C3
330
22993
100
AcDbEntity
  8
0
  6
CONTINUOUS
100
AcDbLine
 10
33.08199999996839
 20
6.713758243268759
 30
0.0
 11
31.64199999996833
 21
8.153758243268815
 31
0.0
  0
LINE
  5
229C4
330
22993
100
AcDbEntity
  8
0
  6
CONTINUOUS
100
AcDbLine
 10
37.67199999996831
 20
2.797277452349027
 30
0.0
 11
36.23199999996837
 21
4.237277452348969
 31
0.0
  0
LINE
  5
229C5
330
22993
100
AcDbEntity
  8
0
  6
CONTINUOUS
100
AcDbLine
 10
37.67199999996831
 20
3.470796661429214
 30
0.0
 11
36.23199999996837
 21
4.910796661429155
 31
0.0
  0
LINE
  5
229C6
330
22993
100
AcDbEntity
  8
0
  6
CONTINUOUS
100
AcDbLine
 10
37.67199999996831
 20
4.1443158705094
 30
0.0
 11
36.23199999996837
 21
5.584315870509341
 31
0.0
  0
LINE
  5
229C7
330
22993
100
AcDbEntity
  8
0
  6
CONTINUOUS
100
AcDbLine
 10
33.08199999996839
 20
7.387277452348946
 30
0.0
 11
31.70617745232608
 21
8.763099999991255
 31
0.0
  0
LINE
  5
229C8
330
22993
100
AcDbEntity
  8
0
  6
CONTINUOUS
100
AcDbLine
 10
33.08199999996839
 20
8.060796661429134
 30
0.0
 11
32.37969666140626
 21
8.763099999991255
 31
0.0
  0
LINE
  5
229C9
330
22993
100
AcDbEntity
  8
0
  6
CONTINUOUS
100
AcDbLine
 10
33.08199999996839
 20
8.734315870509318
 30
0.0
 11
33.05321587048645
 21
8.763099999991255
 31
0.0
  0
LINE
  5
229CA
330
22993
100
AcDbEntity
  8
0
  6
CONTINUOUS
100
AcDbLine
 10
37.67199999996831
 20
4.817835079589586
 30
0.0
 11
36.23199999996837
 21
6.257835079589528
 31
0.0
  0
LINE
  5
229CB
330
22993
100
AcDbEntity
  8
0
  6
CONTINUOUS
100
AcDbLine
 10
37.67199999996831
 20
5.491354288669772
 30
0.0
 11
36.23199999996837
 21
6.931354288669715
 31
0.0
  0
LINE
  5
229CC
330
22993
100
AcDbEntity
  8
0
  6
CONTINUOUS
100
AcDbLine
 10
37.67199999996831
 20
6.164873497749959
 30
0.0
 11
36.23199999996837
 21
7.6048734977499
 31
0.0
  0
LINE
  5
229CD
330
22993
100
AcDbEntity
  8
0
  6
CONTINUOUS
100
AcDbLine
 10
37.67199999996831
 20
6.838392706830145
 30
0.0
 11
36.23199999996837
 21
8.278392706830086
 31
0.0
  0
LINE
  5
229CE
330
22993
100
AcDbEntity
  8
0
  6
CONTINUOUS
100
AcDbLine
 10
37.67199999996831
 20
7.511911915910333
 30
0.0
 11
36.42081191588738
 21
8.763099999991255
 31
0.0
  0
LINE
  5
229CF
330
22993
100
AcDbEntity
  8
0
  6
CONTINUOUS
100
AcDbLine
 10
37.67199999996831
 20
8.185431124990519
 30
0.0
 11
37.09433112496757
 21
8.763099999991255
 31
0.0
  0
ENDBLK
  5
22A37
330
22993
100
AcDbEntity
  8
0
100
AcDbBlockEnd
  0
BLOCK
  5
22A38
330
229D0
100
AcDbEntity
  8
0
100
AcDbBlockBegin
  2
*X51
 70
     1
 10
0.0
 20
0.0
 30
0.0
  3
*X51
  1

  0
LINE
  5
229D1
330
229D0
100
AcDbEntity
  8
0
  6
CONTINUOUS
100
AcDbLine
 10
38.60499999996136
 20
8.762866199104765
 30
0.0
 11
38.71672554182345
 21
8.874591740966855
 31
0.0
  0
LINE
  5
229D2
330
229D0
100
AcDbEntity
  8
0
  6
CONTINUOUS
100
AcDbLine
 10
38.60499999996136
 20
8.089346990024577
 30
0.0
 11
39.03418785440363
 21
8.518534844466847
 31
0.0
  0
LINE
  5
229D3
330
229D0
100
AcDbEntity
  8
0
  6
CONTINUOUS
100
AcDbLine
 10
38.60499999996136
 20
7.41582778094439
 30
0.0
 11
39.35165016698382
 21
8.16247794796684
 31
0.0
  0
LINE
  5
229D4
330
229D0
100
AcDbEntity
  8
0
  6
CONTINUOUS
100
AcDbLine
 10
38.60499999996136
 20
6.742308571864204
 30
0.0
 11
39.66911247956399
 21
7.806421051466834
 31
0.0
  0
LINE
  5
229D5
330
229D0
100
AcDbEntity
  8
0
  6
CONTINUOUS
100
AcDbLine
 10
38.60499999996136
 20
6.068789362784018
 30
0.0
 11
39.98657479214418
 21
7.450364154966827
 31
0.0
  0
LINE
  5
229D6
330
229D0
100
AcDbEntity
  8
0
  6
CONTINUOUS
100
AcDbLine
 10
38.60499999996136
 20
5.395270153703832
 30
0.0
 11
40.30403710472435
 21
7.09430725846682
 31
0.0
  0
LINE
  5
229D7
330
229D0
100
AcDbEntity
  8
0
  6
CONTINUOUS
100
AcDbLine
 10
38.60499999996136
 20
4.721750944623645
 30
0.0
 11
40.62149941730453
 21
6.738250361966813
 31
0.0
  0
LINE
  5
229D8
330
229D0
100
AcDbEntity
  8
0
  6
CONTINUOUS
100
AcDbLine
 10
38.60499999996136
 20
4.048231735543458
 30
0.0
 11
40.93896172988471
 21
6.382193465466806
 31
0.0
  0
LINE
  5
229D9
330
229D0
100
AcDbEntity
  8
0
  6
CONTINUOUS
100
AcDbLine
 10
38.60499999996136
 20
3.374712526463272
 30
0.0
 11
40.02599999995994
 21
4.795712526461843
 31
0.0
  0
LINE
  5
229DA
330
229D0
100
AcDbEntity
  8
0
  6
CONTINUOUS
100
AcDbLine
 10
38.60499999996136
 20
2.701193317383085
 30
0.0
 11
40.02599999995994
 21
4.122193317381657
 31
0.0
  0
LINE
  5
229DB
330
229D0
100
AcDbEntity
  8
0
  6
CONTINUOUS
100
AcDbLine
 10
40.28339754687704
 20
5.053110073378947
 30
0.0
 11
41.25642404246489
 21
6.026136568966799
 31
0.0
  0
LINE
  5
229DC
330
229D0
100
AcDbEntity
  8
0
  6
CONTINUOUS
100
AcDbLine
 10
40.60085985945722
 20
4.697053176878939
 30
0.0
 11
41.57388635504507
 21
5.670079672466793
 31
0.0
  0
LINE
  5
229DD
330
229D0
100
AcDbEntity
  8
0
  6
CONTINUOUS
100
AcDbLine
 10
43.57899999995641
 20
8.348712526458318
 30
0.0
 11
43.99338747348935
 21
8.763099999991255
 31
0.0
  0
LINE
  5
229DE
330
229D0
100
AcDbEntity
  8
0
  6
CONTINUOUS
100
AcDbLine
 10
43.57899999995641
 20
7.675193317378131
 30
0.0
 11
44.66690668256953
 21
8.763099999991255
 31
0.0
  0
LINE
  5
229DF
330
229D0
100
AcDbEntity
  8
0
  6
CONTINUOUS
100
AcDbLine
 10
38.60499999996136
 20
2.027674108302898
 30
0.0
 11
40.02599999995994
 21
3.44867410830147
 31
0.0
  0
LINE
  5
229E0
330
229D0
100
AcDbEntity
  8
0
  6
CONTINUOUS
100
AcDbLine
 10
38.60499999996136
 20
1.354154899222712
 30
0.0
 11
40.02599999995994
 21
2.775154899221284
 31
0.0
  0
LINE
  5
229E1
330
229D0
100
AcDbEntity
  8
0
  6
CONTINUOUS
100
AcDbLine
 10
38.60499999996136
 20
0.6806356901425255
 30
0.0
 11
40.02599999995994
 21
2.101635690141098
 31
0.0
  0
LINE
  5
229E2
330
229D0
100
AcDbEntity
  8
0
  6
CONTINUOUS
100
AcDbLine
 10
38.60499999996136
 20
0.0071164810623383
 30
0.0
 11
40.02599999995994
 21
1.428116481060911
 31
0.0
  0
LINE
  5
229E3
330
229D0
100
AcDbEntity
  8
0
  6
CONTINUOUS
100
AcDbLine
 10
40.9183221720374
 20
4.340996280378933
 30
0.0
 11
41.89134866762525
 21
5.314022775966786
 31
0.0
  0
LINE
  5
229E4
330
229D0
100
AcDbEntity
  8
0
  6
CONTINUOUS
100
AcDbLine
 10
41.23578448461758
 20
3.984939383878926
 30
0.0
 11
42.20881098020543
 21
4.957965879466778
 31
0.0
  0
LINE
  5
229E5
330
229D0
100
AcDbEntity
  8
0
  6
CONTINUOUS
100
AcDbLine
 10
41.55324679719776
 20
3.628882487378919
 30
0.0
 11
42.52627329278561
 21
4.601908982966772
 31
0.0
  0
LINE
  5
229E6
330
229D0
100
AcDbEntity
  8
0
  6
CONTINUOUS
100
AcDbLine
 10
41.87070910977793
 20
3.272825590878912
 30
0.0
 11
42.84373560536579
 21
4.245852086466765
 31
0.0
  0
LINE
  5
229E7
330
229D0
100
AcDbEntity
  8
0
  6
CONTINUOUS
100
AcDbLine
 10
43.57899999995641
 20
7.001674108297943
 30
0.0
 11
44.99999999995498
 21
8.422674108296516
 31
0.0
  0
LINE
  5
229E8
330
229D0
100
AcDbEntity
  8
0
  6
CONTINUOUS
100
AcDbLine
 10
43.57899999995641
 20
6.328154899217758
 30
0.0
 11
44.99999999995498
 21
7.749154899216329
 31
0.0
  0
LINE
  5
229E9
330
229D0
100
AcDbEntity
  8
0
  6
CONTINUOUS
100
AcDbLine
 10
43.57899999995641
 20
5.654635690137571
 30
0.0
 11
44.99999999995498
 21
7.075635690136142
 31
0.0
  0
LINE
  5
229EA
330
229D0
100
AcDbEntity
  8
0
  6
CONTINUOUS
100
AcDbLine
 10
43.57899999995641
 20
4.981116481057384
 30
0.0
 11
44.99999999995498
 21
6.402116481055955
 31
0.0
  0
LINE
  5
229EB
330
229D0
100
AcDbEntity
  8
0
  6
CONTINUOUS
100
AcDbLine
 10
39.27140272797921
 20
-0.0000000000000009
 30
0.0
 11
40.02599999995994
 21
0.7545972719807246
 31
0.0
  0
LINE
  5
229EC
330
229D0
100
AcDbEntity
  8
0
  6
CONTINUOUS
100
AcDbLine
 10
39.9449219370594
 20
-0.0000000000000009
 30
0.0
 11
40.02599999995994
 21
0.0810780629005379
 31
0.0
  0
LINE
  5
229ED
330
229D0
100
AcDbEntity
  8
0
  6
CONTINUOUS
100
AcDbLine
 10
42.18817142235812
 20
2.916768694378905
 30
0.0
 11
43.16119791794597
 21
3.889795189966758
 31
0.0
  0
LINE
  5
229EE
330
229D0
100
AcDbEntity
  8
0
  6
CONTINUOUS
100
AcDbLine
 10
42.50563373493829
 20
2.560711797878898
 30
0.0
 11
43.47866023052615
 21
3.533738293466751
 31
0.0
  0
LINE
  5
229EF
330
229D0
100
AcDbEntity
  8
0
  6
CONTINUOUS
100
AcDbLine
 10
43.57899999995641
 20
4.307597271977198
 30
0.0
 11
44.99999999995498
 21
5.728597271975769
 31
0.0
  0
LINE
  5
229F0
330
229D0
100
AcDbEntity
  8
0
  6
CONTINUOUS
100
AcDbLine
 10
43.57899999995641
 20
3.634078062897011
 30
0.0
 11
44.99999999995498
 21
5.055078062895582
 31
0.0
  0
LINE
  5
229F1
330
229D0
100
AcDbEntity
  8
0
  6
CONTINUOUS
100
AcDbLine
 10
42.82309604751848
 20
2.204654901378891
 30
0.0
 11
44.99999999995498
 21
4.381558853815395
 31
0.0
  0
LINE
  5
229F2
330
229D0
100
AcDbEntity
  8
0
  6
CONTINUOUS
100
AcDbLine
 10
43.14055836009865
 20
1.848598004878885
 30
0.0
 11
44.99999999995498
 21
3.70803964473521
 31
0.0
  0
LINE
  5
229F3
330
229D0
100
AcDbEntity
  8
0
  6
CONTINUOUS
100
AcDbLine
 10
43.45802067267883
 20
1.492541108378878
 30
0.0
 11
44.99999999995498
 21
3.034520435655023
 31
0.0
  0
LINE
  5
229F4
330
229D0
100
AcDbEntity
  8
0
  6
CONTINUOUS
100
AcDbLine
 10
43.77548298525902
 20
1.136484211878871
 30
0.0
 11
44.99999999995498
 21
2.361001226574837
 31
0.0
  0
LINE
  5
229F5
330
229D0
100
AcDbEntity
  8
0
  6
CONTINUOUS
100
AcDbLine
 10
44.09294529783919
 20
0.7804273153788639
 30
0.0
 11
44.99999999995498
 21
1.687482017494649
 31
0.0
  0
LINE
  5
229F6
330
229D0
100
AcDbEntity
  8
0
  6
CONTINUOUS
100
AcDbLine
 10
44.41040761041938
 20
0.4243704188788566
 30
0.0
 11
44.99999999995498
 21
1.013962808414463
 31
0.0
  0
LINE
  5
229F7
330
229D0
100
AcDbEntity
  8
0
  6
CONTINUOUS
100
AcDbLine
 10
44.72786992299955
 20
0.0683135223788494
 30
0.0
 11
44.99999999995498
 21
0.340443599334276
 31
0.0
  0
LINE
  5
229F8
330
229D0
100
AcDbEntity
  8
0
  6
CONTINUOUS
100
AcDbLine
 10
39.12223903415696
 20
-0.0000000000000009
 30
0.0
 11
38.60499999996136
 21
0.5172390341955961
 31
0.0
  0
LINE
  5
229F9
330
229D0
100
AcDbEntity
  8
0
  6
CONTINUOUS
100
AcDbLine
 10
39.79575824323715
 20
-0.0000000000000009
 30
0.0
 11
38.60499999996136
 21
1.190758243275783
 31
0.0
  0
LINE
  5
229FA
330
229D0
100
AcDbEntity
  8
0
  6
CONTINUOUS
100
AcDbLine
 10
40.02599999995994
 20
0.443277452357397
 30
0.0
 11
38.60499999996136
 21
1.864277452355969
 31
0.0
  0
LINE
  5
229FB
330
229D0
100
AcDbEntity
  8
0
  6
CONTINUOUS
100
AcDbLine
 10
40.02599999995994
 20
1.116796661437583
 30
0.0
 11
38.60499999996136
 21
2.537796661436155
 31
0.0
  0
LINE
  5
229FC
330
229D0
100
AcDbEntity
  8
0
  6
CONTINUOUS
100
AcDbLine
 10
40.02599999995994
 20
1.79031587051777
 30
0.0
 11
38.60499999996136
 21
3.211315870516341
 31
0.0
  0
LINE
  5
229FD
330
229D0
100
AcDbEntity
  8
0
  6
CONTINUOUS
100
AcDbLine
 10
40.02599999995994
 20
2.463835079597956
 30
0.0
 11
38.60499999996136
 21
3.884835079596527
 31
0.0
  0
LINE
  5
229FE
330
229D0
100
AcDbEntity
  8
0
  6
CONTINUOUS
100
AcDbLine
 10
40.02599999995994
 20
3.137354288678143
 30
0.0
 11
38.60499999996136
 21
4.558354288676714
 31
0.0
  0
LINE
  5
229FF
330
229D0
100
AcDbEntity
  8
0
  6
CONTINUOUS
100
AcDbLine
 10
40.02599999995994
 20
3.810873497758329
 30
0.0
 11
38.60499999996136
 21
5.2318734977569
 31
0.0
  0
LINE
  5
22A00
330
229D0
100
AcDbEntity
  8
0
  6
CONTINUOUS
100
AcDbLine
 10
40.02599999995994
 20
4.484392706838515
 30
0.0
 11
38.60499999996136
 21
5.905392706837086
 31
0.0
  0
LINE
  5
22A01
330
229D0
100
AcDbEntity
  8
0
  6
CONTINUOUS
100
AcDbLine
 10
44.99999999995498
 20
0.183911915923658
 30
0.0
 11
41.53858364506288
 21
3.64532827081576
 31
0.0
  0
LINE
  5
22A02
330
229D0
100
AcDbEntity
  8
0
  6
CONTINUOUS
100
AcDbLine
 10
40.02599999995994
 20
5.157911915918703
 30
0.0
 11
38.60499999996136
 21
6.578911915917274
 31
0.0
  0
LINE
  5
22A03
330
229D0
100
AcDbEntity
  8
0
  6
CONTINUOUS
100
AcDbLine
 10
44.99999999995498
 20
0.8574311250038447
 30
0.0
 11
38.60499999996136
 21
7.25243112499746
 31
0.0
  0
LINE
  5
22A04
330
229D0
100
AcDbEntity
  8
0
  6
CONTINUOUS
100
AcDbLine
 10
44.99999999995498
 20
1.530950334084031
 30
0.0
 11
38.60499999996136
 21
7.925950334077647
 31
0.0
  0
LINE
  5
22A05
330
229D0
100
AcDbEntity
  8
0
  6
CONTINUOUS
100
AcDbLine
 10
44.99999999995498
 20
2.204469543164218
 30
0.0
 11
43.57899999995641
 21
3.625469543162789
 31
0.0
  0
LINE
  5
22A06
330
229D0
100
AcDbEntity
  8
0
  6
CONTINUOUS
100
AcDbLine
 10
41.89876730984767
 20
5.305702233271528
 30
0.0
 11
38.60499999996136
 21
8.599469543157834
 31
0.0
  0
LINE
  5
22A07
330
229D0
100
AcDbEntity
  8
0
  6
CONTINUOUS
100
AcDbLine
 10
44.99999999995498
 20
2.877988752244405
 30
0.0
 11
43.57899999995641
 21
4.298988752242975
 31
0.0
  0
LINE
  5
22A08
330
229D0
100
AcDbEntity
  8
0
  6
CONTINUOUS
100
AcDbLine
 10
44.99999999995498
 20
3.551507961324591
 30
0.0
 11
43.57899999995641
 21
4.972507961323163
 31
0.0
  0
LINE
  5
22A09
330
229D0
100
AcDbEntity
  8
0
  6
CONTINUOUS
100
AcDbLine
 10
44.99999999995498
 20
4.225027170404777
 30
0.0
 11
43.57899999995641
 21
5.646027170403348
 31
0.0
  0
LINE
  5
22A0A
330
229D0
100
AcDbEntity
  8
0
  6
CONTINUOUS
100
AcDbLine
 10
44.99999999995498
 20
4.898546379484964
 30
0.0
 11
43.57899999995641
 21
6.319546379483535
 31
0.0
  0
LINE
  5
22A0B
330
229D0
100
AcDbEntity
  8
0
  6
CONTINUOUS
100
AcDbLine
 10
44.99999999995498
 20
5.572065588565151
 30
0.0
 11
43.57899999995641
 21
6.993065588563722
 31
0.0
  0
LINE
  5
22A0C
330
229D0
100
AcDbEntity
  8
0
  6
CONTINUOUS
100
AcDbLine
 10
44.99999999995498
 20
6.245584797645336
 30
0.0
 11
43.57899999995641
 21
7.666584797643908
 31
0.0
  0
LINE
  5
22A0D
330
229D0
100
AcDbEntity
  8
0
  6
CONTINUOUS
100
AcDbLine
 10
44.99999999995498
 20
6.919104006725522
 30
0.0
 11
43.57899999995641
 21
8.340104006724093
 31
0.0
  0
LINE
  5
22A0E
330
229D0
100
AcDbEntity
  8
0
  6
CONTINUOUS
100
AcDbLine
 10
44.99999999995498
 20
7.592623215805709
 30
0.0
 11
43.82952321576943
 21
8.763099999991255
 31
0.0
  0
LINE
  5
22A0F
330
229D0
100
AcDbEntity
  8
0
  6
CONTINUOUS
100
AcDbLine
 10
44.99999999995498
 20
8.266142424885896
 30
0.0
 11
44.50304242484962
 21
8.763099999991255
 31
0.0
  0
ENDBLK
  5
22A39
330
229D0
100
AcDbEntity
  8
0
100
AcDbBlockEnd
  0
BLOCK
  5
22A3A
330
22A10
100
AcDbEntity
  8
0
100
AcDbBlockBegin
  2
*X52
 70
     1
 10
0.0
 20
0.0
 30
0.0
  3
*X52
  1

  0
LINE
  5
22A11
330
22A10
100
AcDbEntity
  8
0
  6
CONTINUOUS
100
AcDbLine
 10
0.0
 20
8.548461116714023
 30
0.0
 11
0.2146388832772324
 21
8.763099999991255
 31
0.0
  0
LINE
  5
22A12
330
22A10
100
AcDbEntity
  8
0
  6
CONTINUOUS
100
AcDbLine
 10
-0.0000000000000002
 20
7.874941907633837
 30
0.0
 11
0.8881580923574184
 21
8.763099999991255
 31
0.0
  0
LINE
  5
22A13
330
22A10
100
AcDbEntity
  8
0
  6
CONTINUOUS
100
AcDbLine
 10
0.0
 20
7.20142269855365
 30
0.0
 11
1.420999999998572
 21
8.622422698552223
 31
0.0
  0
LINE
  5
22A14
330
22A10
100
AcDbEntity
  8
0
  6
CONTINUOUS
100
AcDbLine
 10
-0.0000000000000001
 20
6.527903489473465
 30
0.0
 11
1.420999999998571
 21
7.948903489472036
 31
0.0
  0
LINE
  5
22A15
330
22A10
100
AcDbEntity
  8
0
  6
CONTINUOUS
100
AcDbLine
 10
-0.0000000000000002
 20
5.854384280393278
 30
0.0
 11
1.420999999998571
 21
7.275384280391849
 31
0.0
  0
LINE
  5
22A16
330
22A10
100
AcDbEntity
  8
0
  6
CONTINUOUS
100
AcDbLine
 10
-0.0000000000000002
 20
5.180865071313091
 30
0.0
 11
1.420999999998571
 21
6.601865071311663
 31
0.0
  0
LINE
  5
22A17
330
22A10
100
AcDbEntity
  8
0
  6
CONTINUOUS
100
AcDbLine
 10
0.0
 20
4.507345862232905
 30
0.0
 11
1.420999999998571
 21
5.928345862231477
 31
0.0
  0
LINE
  5
22A18
330
22A10
100
AcDbEntity
  8
0
  6
CONTINUOUS
100
AcDbLine
 10
-0.0000000000000003
 20
3.833826653152718
 30
0.0
 11
1.420999999998571
 21
5.25482665315129
 31
0.0
  0
LINE
  5
22A19
330
22A10
100
AcDbEntity
  8
0
  6
CONTINUOUS
100
AcDbLine
 10
-0.0000000000000002
 20
3.160307444072532
 30
0.0
 11
1.420999999998571
 21
4.581307444071103
 31
0.0
  0
LINE
  5
22A1A
330
22A10
100
AcDbEntity
  8
0
  6
CONTINUOUS
100
AcDbLine
 10
-0.0000000000000001
 20
2.486788234992345
 30
0.0
 11
1.420999999998571
 21
3.907788234990917
 31
0.0
  0
LINE
  5
22A1B
330
22A10
100
AcDbEntity
  8
0
  6
CONTINUOUS
100
AcDbLine
 10
-0.0000000000000006
 20
1.813269025912159
 30
0.0
 11
1.420999999998571
 21
3.234269025910731
 31
0.0
  0
LINE
  5
22A1C
330
22A10
100
AcDbEntity
  8
0
  6
CONTINUOUS
100
AcDbLine
 10
0.0
 20
1.139749816831973
 30
0.0
 11
1.420999999998571
 21
2.560749816830544
 31
0.0
  0
LINE
  5
22A1D
330
22A10
100
AcDbEntity
  8
0
  6
CONTINUOUS
100
AcDbLine
 10
0.0000000000000002
 20
0.466230607751787
 30
0.0
 11
1.420999999998571
 21
1.887230607750358
 31
0.0
  0
LINE
  5
22A1E
330
22A10
100
AcDbEntity
  8
0
  6
CONTINUOUS
100
AcDbLine
 10
0.2072886013284003
 20
-0.0000000000000009
 30
0.0
 11
1.420999999998571
 21
1.213711398670171
 31
0.0
  0
LINE
  5
22A1F
330
22A10
100
AcDbEntity
  8
0
  6
CONTINUOUS
100
AcDbLine
 10
0.8808078104085864
 20
-0.0000000000000009
 30
0.0
 11
1.420999999998571
 21
0.5401921895899839
 31
0.0
  0
LINE
  5
22A20
330
22A10
100
AcDbEntity
  8
0
  6
CONTINUOUS
100
AcDbLine
 10
0.0581249075061505
 20
-0.0000000000000009
 30
0.0
 11
-0.0000000000000002
 21
0.0581249075061496
 31
0.0
  0
LINE
  5
22A21
330
22A10
100
AcDbEntity
  8
0
  6
CONTINUOUS
100
AcDbLine
 10
0.7316441165863372
 20
-0.0000000000000009
 30
0.0
 11
-0.0000000000000002
 21
0.7316441165863363
 31
0.0
  0
LINE
  5
22A22
330
22A10
100
AcDbEntity
  8
0
  6
CONTINUOUS
100
AcDbLine
 10
1.405163325666523
 20
-0.0000000000000009
 30
0.0
 11
-0.0000000000000002
 21
1.405163325666523
 31
0.0
  0
LINE
  5
22A23
330
22A10
100
AcDbEntity
  8
0
  6
CONTINUOUS
100
AcDbLine
 10
1.420999999998572
 20
0.6576825347481381
 30
0.0
 11
-0.0000000000000001
 21
2.07868253474671
 31
0.0
  0
LINE
  5
22A24
330
22A10
100
AcDbEntity
  8
0
  6
CONTINUOUS
100
AcDbLine
 10
1.420999999998571
 20
1.331201743828324
 30
0.0
 11
-0.0000000000000001
 21
2.752201743826896
 31
0.0
  0
LINE
  5
22A25
330
22A10
100
AcDbEntity
  8
0
  6
CONTINUOUS
100
AcDbLine
 10
1.420999999998571
 20
2.004720952908511
 30
0.0
 11
-0.0000000000000002
 21
3.425720952907082
 31
0.0
  0
LINE
  5
22A26
330
22A10
100
AcDbEntity
  8
0
  6
CONTINUOUS
100
AcDbLine
 10
1.420999999998571
 20
2.678240161988697
 30
0.0
 11
-0.0000000000000001
 21
4.099240161987269
 31
0.0
  0
LINE
  5
22A27
330
22A10
100
AcDbEntity
  8
0
  6
CONTINUOUS
100
AcDbLine
 10
1.420999999998572
 20
3.351759371068884
 30
0.0
 11
0.0
 21
4.772759371067455
 31
0.0
  0
LINE
  5
22A28
330
22A10
100
AcDbEntity
  8
0
  6
CONTINUOUS
100
AcDbLine
 10
1.420999999998571
 20
4.02527858014907
 30
0.0
 11
-0.0000000000000003
 21
5.446278580147642
 31
0.0
  0
LINE
  5
22A29
330
22A10
100
AcDbEntity
  8
0
  6
CONTINUOUS
100
AcDbLine
 10
1.420999999998571
 20
4.698797789229257
 30
0.0
 11
0.0
 21
6.119797789227828
 31
0.0
  0
LINE
  5
22A2A
330
22A10
100
AcDbEntity
  8
0
  6
CONTINUOUS
100
AcDbLine
 10
1.420999999998571
 20
5.372316998309444
 30
0.0
 11
-0.0000000000000001
 21
6.793316998308015
 31
0.0
  0
LINE
  5
22A2B
330
22A10
100
AcDbEntity
  8
0
  6
CONTINUOUS
100
AcDbLine
 10
1.420999999998572
 20
6.045836207389629
 30
0.0
 11
-0.0000000000000004
 21
7.466836207388202
 31
0.0
  0
LINE
  5
22A2C
330
22A10
100
AcDbEntity
  8
0
  6
CONTINUOUS
100
AcDbLine
 10
1.420999999998571
 20
6.719355416469816
 30
0.0
 11
0.0
 21
8.140355416468388
 31
0.0
  0
LINE
  5
22A2D
330
22A10
100
AcDbEntity
  8
0
  6
CONTINUOUS
100
AcDbLine
 10
1.420999999998571
 20
7.392874625550003
 30
0.0
 11
0.0507746255573185
 21
8.763099999991255
 31
0.0
  0
LINE
  5
22A2E
330
22A10
100
AcDbEntity
  8
0
  6
CONTINUOUS
100
AcDbLine
 10
1.420999999998571
 20
8.06639383463019
 30
0.0
 11
0.7242938346375052
 21
8.763099999991255
 31
0.0
  0
LINE
  5
22A2F
330
22A10
100
AcDbEntity
  8
0
  6
CONTINUOUS
100
AcDbLine
 10
1.420999999998571
 20
8.739913043710375
 30
0.0
 11
1.397813043717691
 21
8.763099999991255
 31
0.0
  0
ENDBLK
  5
22A3B
330
22A10
100
AcDbEntity
  8
0
100
AcDbBlockEnd
  0
ENDSEC
  0
SECTION
  2
ENTITIES
  0
LINE
  5
1D8CA
330
18
100
AcDbEntity
  8
01
100
AcDbLine
 10
752.8962416153649
 20
-629.9413303512658
 30
0.0
 11
752.8962416153649
 21
-652.0913303512673
 31
0.0
  0
LINE
  5
1D90A
330
18
100
AcDbEntity
  8
01
100
AcDbLine
 10
752.8962416153649
 20
-632.4413303512665
 30
0.0
 11
752.8962416153649
 21
-650.0913303512659
 31
0.0
  0
TEXT
  5
1DB9B
330
18
100
AcDbEntity
  8
1TEXT
100
AcDbText
 10
510.0206615454182
 20
-465.295441490976
 30
0.0
 40
8.0
  1
SE-331-X
100
AcDbText
  0
LINE
  5
1DBA4
102
{ACAD_REACTORS
330
1EDFD
102
}
330
18
100
AcDbEntity
  8
01
100
AcDbLine
 10
765.3962416153649
 20
-597.8631567659845
 30
0.0
 11
765.3962416153649
 21
-672.3195039365482
 31
0.0
  0
LINE
  5
1DBA5
102
{ACAD_REACTORS
330
1EDFD
102
}
330
18
100
AcDbEntity
  8
01
100
AcDbLine
 10
774.3962416153649
 20
-597.8631567659845
 30
0.0
 11
774.3962416153649
 21
-672.3195039365482
 31
0.0
  0
LINE
  5
1DBA6
102
{ACAD_REACTORS
330
1EDFD
102
}
330
18
100
AcDbEntity
  8
01
100
AcDbLine
 10
752.8962416153649
 20
-597.8631567659845
 30
0.0
 11
752.8962416153649
 21
-672.3195039365482
 31
0.0
  0
LINE
  5
1E9D4
102
{ACAD_REACTORS
330
1E9DA
102
}
330
18
100
AcDbEntity
  8
01
100
AcDbLine
 10
628.2162386789722
 20
-553.291330351266
 30
0.0
 11
627.2162389789722
 21
-552.291330351266
 31
0.0
  0
LINE
  5
1E9D5
102
{ACAD_REACTORS
330
1E9DA
102
}
330
18
100
AcDbEntity
  8
01
100
AcDbLine
 10
631.5162388289722
 20
-553.291330351266
 30
0.0
 11
631.5162388289722
 21
-552.291330351266
 31
0.0
  0
LINE
  5
1E9D6
102
{ACAD_REACTORS
330
1E9DA
102
}
330
18
100
AcDbEntity
  8
01
100
AcDbLine
 10
631.5162388289722
 20
-552.291330351266
 30
0.0
 11
623.9162388289723
 21
-552.291330351266
 31
0.0
  0
LINE
  5
1E9D7
102
{ACAD_REACTORS
330
1E9DA
102
}
330
18
100
AcDbEntity
  8
01
100
AcDbLine
 10
631.5162388289722
 20
-553.291330351266
 30
0.0
 11
623.9162388289723
 21
-553.291330351266
 31
0.0
  0
LINE
  5
1E9D8
102
{ACAD_REACTORS
330
1E9DA
102
}
330
18
100
AcDbEntity
  8
01
100
AcDbLine
 10
623.9162388289723
 20
-553.291330351266
 30
0.0
 11
623.9162388289723
 21
-552.291330351266
 31
0.0
  0
LINE
  5
1E9E5
102
{ACAD_REACTORS
330
1E9F2
102
}
330
18
100
AcDbEntity
  8
01
100
AcDbLine
 10
178.216238678972
 20
-553.2913303512664
 30
0.0
 11
177.216238978972
 21
-552.2913303512664
 31
0.0
  0
LINE
  5
1E9E6
102
{ACAD_REACTORS
330
1E9F2
102
}
330
18
100
AcDbEntity
  8
01
100
AcDbLine
 10
181.516238828972
 20
-553.2913303512664
 30
0.0
 11
181.516238828972
 21
-552.2913303512664
 31
0.0
  0
LINE
  5
1E9E7
102
{ACAD_REACTORS
330
1E9F2
102
}
330
18
100
AcDbEntity
  8
01
100
AcDbLine
 10
181.516238828972
 20
-552.2913303512664
 30
0.0
 11
173.916238828972
 21
-552.2913303512664
 31
0.0
  0
LINE
  5
1E9E8
102
{ACAD_REACTORS
330
1E9F2
102
}
330
18
100
AcDbEntity
  8
01
100
AcDbLine
 10
181.516238828972
 20
-553.2913303512664
 30
0.0
 11
173.916238828972
 21
-553.2913303512664
 31
0.0
  0
LINE
  5
1E9E9
102
{ACAD_REACTORS
330
1E9F2
102
}
330
18
100
AcDbEntity
  8
01
100
AcDbLine
 10
173.916238828972
 20
-553.2913303512664
 30
0.0
 11
173.916238828972
 21
-552.2913303512664
 31
0.0
  0
LINE
  5
20F33
330
18
100
AcDbEntity
  8
01
  6
CONTINUOUS
100
AcDbLine
 10
607.4162414723137
 20
-592.2913318774017
 30
0.0
 11
198.0162361794216
 21
-592.2913318774017
 31
0.0
  0
LINE
  5
21003
330
18
100
AcDbEntity
  8
01
  6
CONTINUOUS
100
AcDbLine
 10
607.416238968816
 20
-645.0913301277485
 30
0.0
 11
198.0162386829194
 21
-645.0913301277486
 31
0.0
  0
LINE
  5
211E1
330
18
100
AcDbEntity
  8
01
  6
CONTINUOUS
100
AcDbLine
 10
752.8962416153649
 20
-648.5913304928272
 30
0.0
 11
752.8962411351986
 21
-648.5913304928272
 31
0.0
  0
LINE
  5
211E3
330
18
100
AcDbEntity
  8
01
  6
CONTINUOUS
100
AcDbLine
 10
752.8962411351986
 20
-623.1912786457269
 30
0.0
 11
752.8962411999162
 21
-623.1912786457269
 31
0.0
  0
LINE
  5
211E9
330
18
100
AcDbEntity
  8
01
  6
CONTINUOUS
100
AcDbLine
 10
752.8962416153649
 20
-621.5913297924726
 30
0.0
 11
752.8962411351986
 21
-621.5913297924726
 31
0.0
  0
LINE
  5
211EB
330
18
100
AcDbEntity
  8
01
  6
CONTINUOUS
100
AcDbLine
 10
752.8962411999162
 20
-646.9913304168315
 30
0.0
 11
752.8962411351986
 21
-646.9913304168315
 31
0.0
  0
LINE
  5
212B3
330
18
100
AcDbEntity
  8
01
100
AcDbLine
 10
197.7162361794212
 20
-582.5913302382739
 30
0.0
 11
197.7162361794217
 21
-591.9913318774015
 31
0.0
  0
ARC
  5
212B4
330
18
100
AcDbEntity
  8
01
100
AcDbCircle
 10
198.0162361794216
 20
-591.9913318774015
 30
0.0
 40
0.3
100
AcDbArc
 50
180.0
 51
270.0
  0
ARC
  5
212B5
330
18
100
AcDbEntity
  8
01
100
AcDbCircle
 10
198.0162361794212
 20
-582.5913302382739
 30
0.0
 40
0.3
100
AcDbArc
 50
90.0
 51
180.0
  0
LINE
  5
212C7
330
18
100
AcDbEntity
  8
01
100
AcDbLine
 10
607.7162414723141
 20
-582.5913302382739
 30
0.0
 11
607.7162414723136
 21
-591.9913318774015
 31
0.0
  0
ARC
  5
212C8
330
18
100
AcDbEntity
  8
01
100
AcDbCircle
 10
607.4162414723137
 20
-591.9913318774015
 30
0.0
 40
0.2999999999999999
100
AcDbArc
 50
270.0
 51
0.0
  0
ARC
  5
212C9
330
18
100
AcDbEntity
  8
01
100
AcDbCircle
 10
607.4162414723141
 20
-582.5913302382739
 30
0.0
 40
0.2999999999999999
100
AcDbArc
 50
0.0
 51
90.0
  0
LINE
  5
212CA
330
18
100
AcDbEntity
  8
01
100
AcDbLine
 10
198.0162361794212
 20
-582.291330238274
 30
0.0
 11
607.4162414723141
 21
-582.291330238274
 31
0.0
  0
TEXT
  5
2131B
330
18
100
AcDbEntity
  8
1TEXT
100
AcDbText
 10
512.6006615454178
 20
-475.795441490976
 30
0.0
 40
4.0
  1
表面処理：脚部
 41
0.9
 72
     1
 11
527.4206615454178
 21
-475.795441490976
 31
0.0
100
AcDbText
  0
TEXT
  5
2131C
330
18
100
AcDbEntity
  8
1TEXT
100
AcDbText
 10
517.9539948787511
 20
-482.6307301505004
 30
0.0
 40
4.0
  1
クローム
 72
     1
 11
527.4206615454178
 21
-482.6307301505004
 31
0.0
100
AcDbText
  0
LINE
  5
2131D
330
18
100
AcDbEntity
  8
1DIM
100
AcDbLine
 10
510.0206615454182
 20
-470.295441490976
 30
0.0
 11
650.0206615454182
 21
-470.295441490976
 31
0.0
  0
LINE
  5
2131E
330
18
100
AcDbEntity
  8
1DIM
100
AcDbLine
 10
510.0206615454182
 20
-484.295441490976
 30
0.0
 11
650.0206615454182
 21
-484.295441490976
 31
0.0
  0
LINE
  5
2131F
330
18
100
AcDbEntity
  8
1DIM
100
AcDbLine
 10
510.0206615454182
 20
-477.295441490976
 30
0.0
 11
650.0206615454182
 21
-477.295441490976
 31
0.0
  0
LINE
  5
21320
330
18
100
AcDbEntity
  8
1DIM
100
AcDbLine
 10
510.0206615454182
 20
-491.295441490976
 30
0.0
 11
650.0206615454182
 21
-491.295441490976
 31
0.0
  0
LINE
  5
21321
330
18
100
AcDbEntity
  8
1DIM
100
AcDbLine
 10
510.0206615454182
 20
-491.295441490976
 30
0.0
 11
650.0206615454182
 21
-491.295441490976
 31
0.0
  0
LINE
  5
21322
330
18
100
AcDbEntity
  8
1DIM
100
AcDbLine
 10
580.0206615454182
 20
-470.295441490976
 30
0.0
 11
580.0206615454182
 21
-491.295441490976
 31
0.0
  0
TEXT
  5
21323
330
18
100
AcDbEntity
  8
1TEXT
100
AcDbText
 10
625.5539948787512
 20
-475.795441490976
 30
0.0
 40
4.0
  1
コード
 72
     1
 11
632.4206615454178
 21
-475.795441490976
 31
0.0
100
AcDbText
  0
LINE
  5
21324
330
18
100
AcDbEntity
  8
1DIM
100
AcDbLine
 10
545.0206615454182
 20
-491.295441490976
 30
0.0
 11
545.0206615454182
 21
-470.295441490976
 31
0.0
  0
LINE
  5
21325
330
18
100
AcDbEntity
  8
1DIM
100
AcDbLine
 10
615.0206615454182
 20
-491.295441490976
 30
0.0
 11
615.0206615454182
 21
-470.295441490976
 31
0.0
  0
TEXT
  5
21326
330
18
100
AcDbEntity
  8
1TEXT
100
AcDbText
 10
510.8873282120845
 20
-489.6307301505004
 30
0.0
 40
4.0
  1
サテンニッケル
 72
     1
 11
527.4206615454178
 21
-489.6307301505004
 31
0.0
100
AcDbText
  0
TEXT
  5
21327
330
18
100
AcDbEntity
  8
1TEXT
100
AcDbText
 10
545.6806615454178
 20
-475.795441490976
 30
0.0
 40
4.0
  1
表面処理：カバー
 41
0.9
 72
     1
 11
562.4206615454178
 21
-475.795441490976
 31
0.0
100
AcDbText
  0
TEXT
  5
21328
330
18
100
AcDbEntity
  8
1TEXT
100
AcDbText
 10
545.8206615454178
 20
-482.6307301505004
 30
0.0
 40
4.0
  1
スノーマーブル
 72
     1
 11
562.4206615454178
 21
-482.6307301505004
 31
0.0
100
AcDbText
  0
TEXT
  5
21329
330
18
100
AcDbEntity
  8
1TEXT
100
AcDbText
 10
545.8873282120845
 20
-489.6307301505004
 30
0.0
 40
4.0
  1
サンドマーブル
 72
     1
 11
562.4206615454178
 21
-489.6307301505004
 31
0.0
100
AcDbText
  0
LINE
  5
2132A
330
18
100
AcDbEntity
  8
1DIM
100
AcDbLine
 10
510.0206615454182
 20
-491.295441490976
 30
0.0
 11
510.0206615454182
 21
-470.295441490976
 31
0.0
  0
TEXT
  5
2132B
330
18
100
AcDbEntity
  8
1TEXT
100
AcDbText
 10
620.2201059898632
 20
-483.0097984746253
 30
0.0
 40
4.0
  1
SE-331-C092
 41
0.6
 72
     1
 11
632.4206615454187
 21
-483.0097984746253
 31
0.0
100
AcDbText
  0
TEXT
  5
2132C
330
18
100
AcDbEntity
  8
1TEXT
100
AcDbText
 10
620.2201059898632
 20
-490.0097984746253
 30
0.0
 40
4.0
  1
SE-331-N093
 41
0.6
 72
     1
 11
632.4206615454187
 21
-490.0097984746253
 31
0.0
100
AcDbText
  0
LINE
  5
21336
330
18
100
AcDbEntity
  8
01
100
AcDbLine
 10
607.7162389688159
 20
-644.7913301277486
 30
0.0
 11
607.7162389688159
 21
-625.3913305747833
 31
0.0
  0
ARC
  5
21337
330
18
100
AcDbEntity
  8
01
100
AcDbCircle
 10
607.416238968816
 20
-625.3913305747833
 30
0.0
 40
0.3
100
AcDbArc
 50
0.0
 51
90.0
  0
ARC
  5
21338
330
18
100
AcDbEntity
  8
01
100
AcDbCircle
 10
607.416238968816
 20
-644.7913301277486
 30
0.0
 40
0.3
100
AcDbArc
 50
270.0
 51
0.0
  0
LINE
  5
21339
330
18
100
AcDbEntity
  8
01
100
AcDbLine
 10
197.7162386829194
 20
-644.7913301277487
 30
0.0
 11
197.7162386829194
 21
-625.3913305747832
 31
0.0
  0
LINE
  5
21342
330
18
100
AcDbEntity
  8
1CENTER
100
AcDbLine
 10
632.2162398749093
 20
-633.0913303512658
 30
0.0
 11
623.2162398749093
 21
-633.0913303512658
 31
0.0
  0
ARC
  5
21345
330
18
100
AcDbEntity
  8
01
100
AcDbCircle
 10
198.0162386829194
 20
-625.3913305747832
 30
0.0
 40
0.3
100
AcDbArc
 50
90.0
 51
180.0
  0
ARC
  5
21346
330
18
100
AcDbEntity
  8
01
100
AcDbCircle
 10
198.0162386829194
 20
-644.7913301277487
 30
0.0
 40
0.3
100
AcDbArc
 50
180.0
 51
270.0
  0
LINE
  5
21487
330
18
100
AcDbEntity
  8
1DIM
100
AcDbLine
 10
650.0206615454182
 20
-491.295441490976
 30
0.0
 11
650.0206615454182
 21
-470.295441490976
 31
0.0
  0
TEXT
  5
21488
330
18
100
AcDbEntity
  8
1TEXT
100
AcDbText
 10
580.3806615454179
 20
-475.795441490976
 30
0.0
 40
4.0
  1
表面処理：レール
 41
0.9
 72
     1
 11
597.4206615454178
 21
-475.795441490976
 31
0.0
100
AcDbText
  0
TEXT
  5
21489
330
18
100
AcDbEntity
  8
1TEXT
100
AcDbText
 10
593.0873282120845
 20
-482.6307301505004
 30
0.0
 40
4.0
  1
鏡面
 72
     1
 11
597.4206615454178
 21
-482.6307301505004
 31
0.0
100
AcDbText
  0
TEXT
  5
2148A
330
18
100
AcDbEntity
  8
1TEXT
100
AcDbText
 10
585.8873282120845
 20
-489.6307301505004
 30
0.0
 40
4.0
  1
ヘアライン
 72
     1
 11
597.4206615454178
 21
-489.6307301505004
 31
0.0
100
AcDbText
  0
LINE
  5
21D38
330
18
100
AcDbEntity
  8
01
  6
CONTINUOUS
100
AcDbLine
 10
164.9662384341557
 20
-547.2913298705507
 30
0.0
 11
164.9662384341557
 21
-585.5913327402945
 31
0.0
  0
SPLINE
  5
21D3A
330
18
100
AcDbEntity
  8
01
  6
CONTINUOUS
100
AcDbSpline
210
0.0
220
0.0
230
1.0
 70
     8
 71
     3
 72
    14
 73
    10
 74
     0
 42
0.000000001
 43
0.00000001
 40
0.0
 40
0.0
 40
0.0
 40
0.0
 40
0.25
 40
0.25
 40
0.5
 40
0.5
 40
0.75
 40
0.75
 40
1.0
 40
1.0
 40
1.0
 40
1.0
 10
190.4662388258682
 20
-582.7913301415538
 30
0.0
 10
190.4662388258683
 20
-582.6979249754502
 30
0.0
 10
190.4649056536481
 20
-582.6044000635331
 30
0.0
 10
190.4782675074952
 20
-582.4187898958942
 30
0.0
 10
190.4943807832983
 20
-582.3248129391468
 30
0.0
 10
190.5676017500144
 20
-582.1503309401598
 30
0.0
 10
190.624460228207
 20
-582.0713980859314
 30
0.0
 10
190.7778037516921
 20
-581.9573632895383
 30
0.0
 10
190.8704863458653
 20
-581.9253047037967
 30
0.0
 10
190.9662388258677
 20
-581.9253047037967
 30
0.0
  0
LINE
  5
21D3B
330
18
100
AcDbEntity
  8
01
  6
CONTINUOUS
100
AcDbLine
 10
190.9662388258677
 20
-581.9253047037967
 30
0.0
 11
192.1579694514617
 21
-581.9253047037971
 31
0.0
  0
SPLINE
  5
21D3C
330
18
100
AcDbEntity
  8
01
  6
CONTINUOUS
100
AcDbSpline
210
0.0
220
0.0
230
1.0
 70
     8
 71
     3
 72
    15
 73
    11
 74
     0
 42
0.000000001
 43
0.00000001
 40
0.0
 40
0.0
 40
0.0
 40
0.0
 40
0.1015351284422764
 40
0.1849084236838882
 40
0.2501347018091021
 40
0.3802909988857769
 40
0.4998047248272087
 40
0.67050967685247
 40
0.836458446520511
 40
1.0
 40
1.0
 40
1.0
 40
1.0
 10
193.7162388258677
 20
-581.7913301415542
 30
0.0
 10
193.6673698616102
 20
-581.792009301905
 30
0.0
 10
193.5783732425431
 20
-581.7932461395574
 30
0.0
 10
193.4571526170625
 20
-581.8015688844605
 30
0.0
 10
193.3208336568084
 20
-581.8144749741796
 30
0.0
 10
193.1634953512822
 20
-581.8338318147655
 30
0.0
 10
192.9477636546235
 20
-581.8637680982349
 30
0.0
 10
192.705382418568
 20
-581.8949188288307
 30
0.0
 10
192.4318066030852
 20
-581.920289866033
 30
0.0
 10
192.2488028342508
 20
-581.9236412698451
 30
0.0
 10
192.1579694514616
 20
-581.9253047292768
 30
0.0
  0
LINE
  5
21D3D
330
18
100
AcDbEntity
  8
01
  6
CONTINUOUS
100
AcDbLine
 10
193.7162388258677
 20
-581.7913301415538
 30
0.0
 11
196.9162386829197
 21
-581.7913301415538
 31
0.0
  0
LINE
  5
21D3E
330
18
100
AcDbEntity
  8
01
  6
CONTINUOUS
100
AcDbLine
 10
190.4662388258677
 20
-585.5913327402945
 30
0.0
 11
190.466238825868
 21
-582.7913301415538
 31
0.0
  0
LINE
  5
21D3F
330
18
100
AcDbEntity
  8
01
  6
CONTINUOUS
100
AcDbLine
 10
197.7162386829197
 20
-582.7913301415538
 30
0.0
 11
197.7162386829197
 21
-591.7913301380484
 31
0.0
  0
ARC
  5
21D40
330
18
100
AcDbEntity
  8
01
  6
CONTINUOUS
100
AcDbCircle
 10
187.2162388258677
 20
-585.5913327402943
 30
0.0
 40
3.250000000000171
100
AcDbArc
 50
270.0
 51
359.9999994163617
  0
LINE
  5
21D41
330
18
100
AcDbEntity
  8
01
  6
CONTINUOUS
100
AcDbLine
 10
168.2162384341557
 20
-588.8413327402945
 30
0.0
 11
187.2162388258677
 21
-588.8413327402944
 31
0.0
  0
ARC
  5
21D42
330
18
100
AcDbEntity
  8
01
  6
CONTINUOUS
100
AcDbCircle
 10
168.2162384341557
 20
-585.5913316444764
 30
0.0
 40
3.250001095818106
100
AcDbArc
 50
180.0000193186946
 51
270.000000000001
  0
LINE
  5
21D43
330
18
100
AcDbEntity
  8
01
  6
CONTINUOUS
100
AcDbLine
 10
196.9162386829197
 20
-592.7913301380484
 30
0.0
 11
168.0162386829197
 21
-592.7913301380484
 31
0.0
  0
ARC
  5
21D44
330
18
100
AcDbEntity
  8
01
  6
CONTINUOUS
100
AcDbCircle
 10
196.9162386829197
 20
-582.5913301415537
 30
0.0
 40
0.8000000000000682
100
AcDbArc
 50
0.0
 51
90.0
  0
ARC
  5
21D45
330
18
100
AcDbEntity
  8
01
  6
CONTINUOUS
100
AcDbCircle
 10
196.9162386829197
 20
-591.9913301380482
 30
0.0
 40
0.8000000000001251
100
AcDbArc
 50
270.0
 51
0.0
  0
LINE
  5
21D46
330
18
100
AcDbEntity
  8
01
  6
CONTINUOUS
100
AcDbLine
 10
161.0162386829197
 20
-585.7913301380484
 30
0.0
 11
161.0162386829197
 21
-547.2913295995477
 31
0.0
  0
LINE
  5
21D47
330
18
100
AcDbEntity
  8
01
  6
CONTINUOUS
100
AcDbLine
 10
162.0162386829197
 20
-547.2913295995477
 30
0.0
 11
161.0162386829197
 21
-547.2913295995477
 31
0.0
  0
ARC
  5
21D48
330
18
100
AcDbEntity
  8
01
  6
CONTINUOUS
100
AcDbCircle
 10
168.0162386829197
 20
-585.7913301380479
 30
0.0
 40
7.000000000000284
100
AcDbArc
 50
179.9999999999982
 51
270.0000000000005
  0
LINE
  5
21D49
330
18
100
AcDbEntity
  8
01
  6
CONTINUOUS
100
AcDbLine
 10
164.4662384341557
 20
-547.2913295995477
 30
0.0
 11
162.0162386829197
 21
-547.2913295995477
 31
0.0
  0
LINE
  5
21D4A
330
18
100
AcDbEntity
  8
01
  6
CONTINUOUS
100
AcDbLine
 10
164.9662384341557
 20
-547.2913298705507
 30
0.0
 11
190.2162388258677
 21
-547.2913301313245
 31
0.0
  0
SPLINE
  5
21D4B
330
18
100
AcDbEntity
  8
01
  6
CONTINUOUS
100
AcDbSpline
210
0.0
220
0.0
230
1.0
 70
     8
 71
     3
 72
    14
 73
    10
 74
     0
 42
0.000000001
 43
0.00000001
 40
0.0
 40
0.0
 40
0.0
 40
0.0
 40
0.25
 40
0.25
 40
0.5
 40
0.5
 40
0.75
 40
0.75
 40
1.0
 40
1.0
 40
1.0
 40
1.0
 10
193.7162388258677
 20
-581.7913301415538
 30
0.0
 10
193.3626854352744
 20
-581.7913301415538
 30
0.0
 10
192.9812455483336
 20
-581.7268939251132
 30
0.0
 10
192.2426638460305
 20
-581.4344961643687
 30
0.0
 10
191.8878117011214
 20
-581.2055437039269
 30
0.0
 10
191.3020252634946
 20
-580.6197572663
 30
0.0
 10
191.0730728030526
 20
-580.2649051213909
 30
0.0
 10
190.7806750423082
 20
-579.5263234190877
 30
0.0
 10
190.7162388258677
 20
-579.1448835321469
 30
0.0
 10
190.7162388258677
 20
-578.7913301415538
 30
0.0
  0
LINE
  5
21D4C
330
18
100
AcDbEntity
  8
01
  6
CONTINUOUS
100
AcDbLine
 10
190.7162388258677
 20
-547.2913301362348
 30
0.0
 11
190.7162388258677
 21
-578.7913301415538
 31
0.0
  0
LINE
  5
21D4D
330
18
100
AcDbEntity
  8
01
  6
CONTINUOUS
100
AcDbLine
 10
190.2162388258677
 20
-547.2913301313245
 30
0.0
 11
190.7162388258677
 21
-547.2913301362348
 31
0.0
  0
ARC
  5
21D4E
330
18
100
AcDbEntity
  8
01
  6
CONTINUOUS
100
AcDbCircle
 10
189.212794804119
 20
-548.5913327402945
 30
0.0
 40
1.000000000000014
100
AcDbArc
 50
359.999842755741
 51
90.0
  0
LINE
  5
21D4F
330
18
100
AcDbEntity
  8
01
  6
CONTINUOUS
100
AcDbLine
 10
190.2127371715758
 20
-585.591340916983
 30
0.0
 11
190.2127948041152
 21
-548.5913354847246
 31
0.0
  0
LINE
  5
21D50
330
18
100
AcDbEntity
  8
01
  6
CONTINUOUS
100
AcDbLine
 10
189.212794804119
 20
-547.5913327402945
 30
0.0
 11
166.2127357993918
 21
-547.5913327402945
 31
0.0
  0
LINE
  5
21D51
330
18
100
AcDbEntity
  8
01
  6
CONTINUOUS
100
AcDbLine
 10
168.2127357993956
 20
-588.5913327402945
 30
0.0
 11
187.2197414606278
 21
-588.5913327402944
 31
0.0
  0
LINE
  5
21D52
330
18
100
AcDbEntity
  8
01
  6
CONTINUOUS
100
AcDbLine
 10
165.2127357993956
 20
-548.5913354847246
 30
0.0
 11
165.2127357993956
 21
-585.5913327402944
 31
0.0
  0
ARC
  5
21D53
330
18
100
AcDbEntity
  8
01
  6
CONTINUOUS
100
AcDbCircle
 10
168.2127357993956
 20
-585.5913327402945
 30
0.0
 40
3.000000000000013
100
AcDbArc
 50
179.9999999999978
 51
270.0
  0
ARC
  5
21D54
330
18
100
AcDbEntity
  8
01
  6
CONTINUOUS
100
AcDbCircle
 10
187.2127371715758
 20
-585.5913409169831
 30
0.0
 40
3.000000000000012
100
AcDbArc
 50
270.0
 51
0.0000000000021713
  0
ARC
  5
21D55
330
18
100
AcDbEntity
  8
01
  6
CONTINUOUS
100
AcDbCircle
 10
166.2127357993918
 20
-548.5913327402945
 30
0.0
 40
1.000000000000014
100
AcDbArc
 50
90.0
 51
180.0001572442589
  0
LINE
  5
21DE6
330
18
100
AcDbEntity
  8
1PHANTOM
 48
0.5
100
AcDbLine
 10
166.9662388258677
 20
-551.7913300009371
 30
0.0
 11
166.9662388258677
 21
-547.2913300009376
 31
0.0
  0
SPLINE
  5
21DE7
330
18
100
AcDbEntity
  8
1PHANTOM
 48
0.5
100
AcDbSpline
210
0.0
220
0.0
230
1.0
 70
    24
 71
     3
 72
    14
 73
    10
 74
     0
 42
0.000000001
 43
0.00000001
 40
0.0
 40
0.0
 40
0.0
 40
0.0
 40
0.25
 40
0.25
 40
0.5
 40
0.5
 40
0.75
 40
0.75
 40
1.0
 40
1.0
 40
1.0
 40
1.0
 10
166.9662388258677
 20
-547.2913300009376
 30
0.0
 10
166.9662388258677
 20
-547.2913300009376
 30
0.0
 10
166.9877175646812
 20
-547.2913300009376
 30
0.0
 10
167.0851834849294
 20
-547.2913300009376
 30
0.0
 10
167.1615009717434
 20
-547.2913300009376
 30
0.0
 10
167.3567631176191
 20
-547.2913300009376
 30
0.0
 10
167.475047165922
 20
-547.2913300009376
 30
0.0
 10
167.7212410666897
 20
-547.2913300009376
 30
0.0
 10
167.8483876956699
 20
-547.2913300009376
 30
0.0
 10
167.9662388258677
 20
-547.2913300009376
 30
0.0
  0
LINE
  5
21DE8
330
18
100
AcDbEntity
  8
1PHANTOM
 48
0.5
100
AcDbLine
 10
167.9662388258677
 20
-547.2913300009376
 30
0.0
 11
187.4662388258677
 21
-547.2913300009376
 31
0.0
  0
LINE
  5
21DEC
330
18
100
AcDbEntity
  8
1PHANTOM
 48
0.5
100
AcDbLine
 10
188.4662388258677
 20
-547.2913300009376
 30
0.0
 11
188.4662388258677
 21
-551.7913300009371
 31
0.0
  0
SPLINE
  5
21DED
330
18
100
AcDbEntity
  8
1PHANTOM
 48
0.5
100
AcDbSpline
210
0.0
220
0.0
230
1.0
 70
    24
 71
     3
 72
    14
 73
    10
 74
     0
 42
0.000000001
 43
0.00000001
 40
0.0
 40
0.0
 40
0.0
 40
0.0
 40
0.25
 40
0.25
 40
0.5
 40
0.5
 40
0.75
 40
0.75
 40
1.0
 40
1.0
 40
1.0
 40
1.0
 10
187.4662388258677
 20
-547.2913300009376
 30
0.0
 10
187.5840899560654
 20
-547.2913300009376
 30
0.0
 10
187.7112365850455
 20
-547.2913300009376
 30
0.0
 10
187.9574304858133
 20
-547.2913300009376
 30
0.0
 10
188.0757145341163
 20
-547.2913300009376
 30
0.0
 10
188.270976679992
 20
-547.2913300009376
 30
0.0
 10
188.3472941668059
 20
-547.2913300009376
 30
0.0
 10
188.4447600870541
 20
-547.2913300009376
 30
0.0
 10
188.4662388258677
 20
-547.2913300009376
 30
0.0
 10
188.4662388258677
 20
-547.2913300009376
 30
0.0
  0
SPLINE
  5
21DEE
330
18
100
AcDbEntity
  8
1PHANTOM
 48
0.5
100
AcDbSpline
210
0.0
220
0.0
230
1.0
 70
    24
 71
     3
 72
    14
 73
    10
 74
     0
 42
0.000000001
 43
0.00000001
 40
0.0
 40
0.0
 40
0.0
 40
0.0
 40
0.2499999999999998
 40
0.2499999999999998
 40
0.4999999999999999
 40
0.4999999999999999
 40
0.75
 40
0.75
 40
1.0
 40
1.0
 40
1.0
 40
1.0
 10
166.9662388258677
 20
-552.7913300009373
 30
0.0
 10
166.9662388258676
 20
-552.6734788707395
 30
0.0
 10
166.9662388258676
 20
-552.5463322417592
 30
0.0
 10
166.9662388258678
 20
-552.3001383409915
 30
0.0
 10
166.9662388258677
 20
-552.1818542926884
 30
0.0
 10
166.9662388258677
 20
-551.9865921468128
 30
0.0
 10
166.9662388258677
 20
-551.9102746599989
 30
0.0
 10
166.9662388258677
 20
-551.8128087397507
 30
0.0
 10
166.9662388258677
 20
-551.7913300009371
 30
0.0
 10
166.9662388258677
 20
-551.7913300009371
 30
0.0
  0
SPLINE
  5
21DEF
330
18
100
AcDbEntity
  8
1PHANTOM
 48
0.5
100
AcDbSpline
210
0.0
220
0.0
230
1.0
 70
    24
 71
     3
 72
    14
 73
    10
 74
     0
 42
0.000000001
 43
0.00000001
 40
0.0
 40
0.0
 40
0.0
 40
0.0
 40
0.2499999999999999
 40
0.2499999999999999
 40
0.4999999999999998
 40
0.4999999999999998
 40
0.7499999999999997
 40
0.7499999999999997
 40
1.0
 40
1.0
 40
1.0
 40
1.0
 10
188.4662388258677
 20
-551.7913300009371
 30
0.0
 10
188.4662388258677
 20
-551.7913300009371
 30
0.0
 10
188.4662388258676
 20
-551.8128087397507
 30
0.0
 10
188.4662388258677
 20
-551.9102746599989
 30
0.0
 10
188.4662388258677
 20
-551.9865921468128
 30
0.0
 10
188.4662388258677
 20
-552.1818542926884
 30
0.0
 10
188.4662388258677
 20
-552.3001383409915
 30
0.0
 10
188.4662388258676
 20
-552.5463322417592
 30
0.0
 10
188.4662388258677
 20
-552.6734788707395
 30
0.0
 10
188.4662388258677
 20
-552.7913300009373
 30
0.0
  0
LINE
  5
21DF2
330
18
100
AcDbEntity
  8
1PHANTOM
 48
0.5
100
AcDbLine
 10
166.9662388258677
 20
-569.2913300009373
 30
0.0
 11
166.9662388258677
 21
-552.7913300009373
 31
0.0
  0
LINE
  5
21DF3
330
18
100
AcDbEntity
  8
1PHANTOM
 48
0.5
100
AcDbLine
 10
188.4662388258677
 20
-552.7913300009373
 30
0.0
 11
188.4662388258677
 21
-569.2913300009373
 31
0.0
  0
LINE
  5
21DF4
330
18
100
AcDbEntity
  8
1PHANTOM
 48
0.5
100
AcDbLine
 10
187.4662388258677
 20
-570.2913300009373
 30
0.0
 11
167.9662388258677
 21
-570.2913300009373
 31
0.0
  0
SPLINE
  5
21DF5
330
18
100
AcDbEntity
  8
1PHANTOM
 48
0.5
100
AcDbSpline
210
0.0
220
0.0
230
1.0
 70
     8
 71
     3
 72
    14
 73
    10
 74
     0
 42
0.000000001
 43
0.00000001
 40
0.0
 40
0.0
 40
0.0
 40
0.0
 40
0.25
 40
0.25
 40
0.5
 40
0.5
 40
0.75
 40
0.75
 40
1.0
 40
1.0
 40
1.0
 40
1.0
 10
167.9662388258677
 20
-570.2913300009373
 30
0.0
 10
167.8483876956699
 20
-570.2913300009373
 30
0.0
 10
167.7212410666897
 20
-570.2698512621237
 30
0.0
 10
167.475047165922
 20
-570.1723853418756
 30
0.0
 10
167.356763117619
 20
-570.0960678550616
 30
0.0
 10
167.1615009717434
 20
-569.900805709186
 30
0.0
 10
167.0851834849294
 20
-569.7825216608829
 30
0.0
 10
166.9877175646812
 20
-569.5363277601152
 30
0.0
 10
166.9662388258677
 20
-569.4091811311349
 30
0.0
 10
166.9662388258677
 20
-569.2913300009373
 30
0.0
  0
SPLINE
  5
21DF6
330
18
100
AcDbEntity
  8
1PHANTOM
 48
0.5
100
AcDbSpline
210
0.0
220
0.0
230
1.0
 70
     8
 71
     3
 72
    14
 73
    10
 74
     0
 42
0.000000001
 43
0.00000001
 40
0.0
 40
0.0
 40
0.0
 40
0.0
 40
0.25
 40
0.25
 40
0.5
 40
0.5
 40
0.75
 40
0.75
 40
1.0
 40
1.0
 40
1.0
 40
1.0
 10
188.4662388258677
 20
-569.2913300009373
 30
0.0
 10
188.4662388258677
 20
-569.4091811311349
 30
0.0
 10
188.4447600870541
 20
-569.5363277601152
 30
0.0
 10
188.347294166806
 20
-569.7825216608829
 30
0.0
 10
188.270976679992
 20
-569.900805709186
 30
0.0
 10
188.0757145341163
 20
-570.0960678550616
 30
0.0
 10
187.9574304858133
 20
-570.1723853418756
 30
0.0
 10
187.7112365850455
 20
-570.2698512621237
 30
0.0
 10
187.5840899560654
 20
-570.2913300009373
 30
0.0
 10
187.4662388258677
 20
-570.2913300009373
 30
0.0
  0
LINE
  5
21E32
330
18
100
AcDbEntity
  8
01
100
AcDbLine
 10
607.716241472314
 20
-582.5913302382739
 30
0.0
 11
607.7162414723135
 21
-591.9913318774015
 31
0.0
  0
LINE
  5
21E33
330
18
100
AcDbEntity
  8
01
  6
CONTINUOUS
100
AcDbLine
 10
640.4662392175795
 20
-547.2913298705507
 30
0.0
 11
640.4662392175795
 21
-585.5913327402945
 31
0.0
  0
SPLINE
  5
21E35
330
18
100
AcDbEntity
  8
01
  6
CONTINUOUS
100
AcDbSpline
210
0.0
220
0.0
230
1.0
 70
     8
 71
     3
 72
    14
 73
    10
 74
     0
 42
0.000000001
 43
0.00000001
 40
0.0
 40
0.0
 40
0.0
 40
0.0
 40
0.25
 40
0.25
 40
0.5
 40
0.5
 40
0.75
 40
0.75
 40
1.0
 40
1.0
 40
1.0
 40
1.0
 10
614.966238825867
 20
-582.7913301415538
 30
0.0
 10
614.9662388258669
 20
-582.6979249754502
 30
0.0
 10
614.9675719980871
 20
-582.6044000635331
 30
0.0
 10
614.95421014424
 20
-582.4187898958942
 30
0.0
 10
614.9380968684369
 20
-582.3248129391468
 30
0.0
 10
614.8648759017208
 20
-582.1503309401598
 30
0.0
 10
614.8080174235282
 20
-582.0713980859314
 30
0.0
 10
614.6546739000431
 20
-581.9573632895383
 30
0.0
 10
614.5619913058699
 20
-581.9253047037967
 30
0.0
 10
614.4662388258675
 20
-581.9253047037967
 30
0.0
  0
LINE
  5
21E36
330
18
100
AcDbEntity
  8
01
  6
CONTINUOUS
100
AcDbLine
 10
614.4662388258675
 20
-581.9253047037967
 30
0.0
 11
613.2745082002735
 21
-581.9253047037971
 31
0.0
  0
SPLINE
  5
21E37
330
18
100
AcDbEntity
  8
01
  6
CONTINUOUS
100
AcDbSpline
210
0.0
220
0.0
230
1.0
 70
     8
 71
     3
 72
    15
 73
    11
 74
     0
 42
0.000000001
 43
0.00000001
 40
0.0
 40
0.0
 40
0.0
 40
0.0
 40
0.1015351284422764
 40
0.1849084236838882
 40
0.2501347018091021
 40
0.3802909988857769
 40
0.4998047248272087
 40
0.67050967685247
 40
0.836458446520511
 40
1.0
 40
1.0
 40
1.0
 40
1.0
 10
611.7162388258675
 20
-581.7913301415542
 30
0.0
 10
611.7651077901251
 20
-581.792009301905
 30
0.0
 10
611.8541044091921
 20
-581.7932461395574
 30
0.0
 10
611.9753250346727
 20
-581.8015688844605
 30
0.0
 10
612.1116439949268
 20
-581.8144749741796
 30
0.0
 10
612.268982300453
 20
-581.8338318147655
 30
0.0
 10
612.4847139971117
 20
-581.8637680982349
 30
0.0
 10
612.7270952331672
 20
-581.8949188288307
 30
0.0
 10
613.00067104865
 20
-581.920289866033
 30
0.0
 10
613.1836748174844
 20
-581.9236412698451
 30
0.0
 10
613.2745082002737
 20
-581.9253047292768
 30
0.0
  0
LINE
  5
21E38
330
18
100
AcDbEntity
  8
01
  6
CONTINUOUS
100
AcDbLine
 10
611.7162388258675
 20
-581.7913301415538
 30
0.0
 11
608.5162389688155
 21
-581.7913301415538
 31
0.0
  0
LINE
  5
21E39
330
18
100
AcDbEntity
  8
01
  6
CONTINUOUS
100
AcDbLine
 10
614.9662388258675
 20
-585.5913327402945
 30
0.0
 11
614.9662388258672
 21
-582.7913301415538
 31
0.0
  0
ARC
  5
21E3A
330
18
100
AcDbEntity
  8
01
  6
CONTINUOUS
100
AcDbCircle
 10
618.2162388258675
 20
-585.5913327402943
 30
0.0
 40
3.250000000000169
100
AcDbArc
 50
180.0000005836383
 51
270.0
  0
LINE
  5
21E3B
330
18
100
AcDbEntity
  8
01
  6
CONTINUOUS
100
AcDbLine
 10
637.2162392175795
 20
-588.8413327402945
 30
0.0
 11
618.2162388258675
 21
-588.8413327402944
 31
0.0
  0
ARC
  5
21E3C
330
18
100
AcDbEntity
  8
01
  6
CONTINUOUS
100
AcDbCircle
 10
637.2162392175795
 20
-585.5913316444764
 30
0.0
 40
3.250001095818105
100
AcDbArc
 50
269.999999999998
 51
359.9999806813054
  0
LINE
  5
21E3D
330
18
100
AcDbEntity
  8
01
  6
CONTINUOUS
100
AcDbLine
 10
608.5162389688155
 20
-592.7913301380484
 30
0.0
 11
637.4162389688155
 21
-592.7913301380484
 31
0.0
  0
ARC
  5
21E3E
330
18
100
AcDbEntity
  8
01
  6
CONTINUOUS
100
AcDbCircle
 10
608.5162389688155
 20
-582.5913301415537
 30
0.0
 40
0.8000000000000679
100
AcDbArc
 50
90.0
 51
180.0
  0
ARC
  5
21E3F
330
18
100
AcDbEntity
  8
01
  6
CONTINUOUS
100
AcDbCircle
 10
608.5162389688155
 20
-591.9913301380482
 30
0.0
 40
0.8000000000001247
100
AcDbArc
 50
180.0
 51
270.0
  0
LINE
  5
21E40
330
18
100
AcDbEntity
  8
01
  6
CONTINUOUS
100
AcDbLine
 10
644.4162389688155
 20
-585.7913301380484
 30
0.0
 11
644.4162389688155
 21
-547.2913295995477
 31
0.0
  0
LINE
  5
21E41
330
18
100
AcDbEntity
  8
01
  6
CONTINUOUS
100
AcDbLine
 10
643.4162389688155
 20
-547.2913295995477
 30
0.0
 11
644.4162389688155
 21
-547.2913295995477
 31
0.0
  0
ARC
  5
21E42
330
18
100
AcDbEntity
  8
01
  6
CONTINUOUS
100
AcDbCircle
 10
637.4162389688155
 20
-585.7913301380479
 30
0.0
 40
7.000000000000281
100
AcDbArc
 50
269.9999999999991
 51
0.0000000000018611
  0
LINE
  5
21E43
330
18
100
AcDbEntity
  8
01
  6
CONTINUOUS
100
AcDbLine
 10
640.9662392175795
 20
-547.2913295995477
 30
0.0
 11
643.4162389688155
 21
-547.2913295995477
 31
0.0
  0
LINE
  5
21E44
330
18
100
AcDbEntity
  8
01
  6
CONTINUOUS
100
AcDbLine
 10
640.4662392175795
 20
-547.2913298705507
 30
0.0
 11
615.2162388258675
 21
-547.2913301313245
 31
0.0
  0
SPLINE
  5
21E45
330
18
100
AcDbEntity
  8
01
  6
CONTINUOUS
100
AcDbSpline
210
0.0
220
0.0
230
1.0
 70
     8
 71
     3
 72
    14
 73
    10
 74
     0
 42
0.000000001
 43
0.00000001
 40
0.0
 40
0.0
 40
0.0
 40
0.0
 40
0.25
 40
0.25
 40
0.5
 40
0.5
 40
0.75
 40
0.75
 40
1.0
 40
1.0
 40
1.0
 40
1.0
 10
611.7162388258675
 20
-581.7913301415538
 30
0.0
 10
612.0697922164608
 20
-581.7913301415538
 30
0.0
 10
612.4512321034016
 20
-581.7268939251132
 30
0.0
 10
613.1898138057047
 20
-581.4344961643687
 30
0.0
 10
613.5446659506138
 20
-581.2055437039269
 30
0.0
 10
614.1304523882407
 20
-580.6197572663
 30
0.0
 10
614.3594048486826
 20
-580.2649051213909
 30
0.0
 10
614.651802609427
 20
-579.5263234190877
 30
0.0
 10
614.7162388258675
 20
-579.1448835321469
 30
0.0
 10
614.7162388258675
 20
-578.7913301415538
 30
0.0
  0
LINE
  5
21E46
330
18
100
AcDbEntity
  8
01
  6
CONTINUOUS
100
AcDbLine
 10
614.7162388258675
 20
-547.2913301362348
 30
0.0
 11
614.7162388258675
 21
-578.7913301415538
 31
0.0
  0
LINE
  5
21E47
330
18
100
AcDbEntity
  8
01
  6
CONTINUOUS
100
AcDbLine
 10
615.2162388258675
 20
-547.2913301313245
 30
0.0
 11
614.7162388258675
 21
-547.2913301362348
 31
0.0
  0
ARC
  5
21E48
330
18
100
AcDbEntity
  8
01
  6
CONTINUOUS
100
AcDbCircle
 10
616.2196828476162
 20
-548.5913327402945
 30
0.0
 40
1.000000000000013
100
AcDbArc
 50
90.0
 51
180.0001572442589
  0
LINE
  5
21E49
330
18
100
AcDbEntity
  8
01
  6
CONTINUOUS
100
AcDbLine
 10
615.2197404801594
 20
-585.591340916983
 30
0.0
 11
615.21968284762
 21
-548.5913354847246
 31
0.0
  0
LINE
  5
21E4A
330
18
100
AcDbEntity
  8
01
  6
CONTINUOUS
100
AcDbLine
 10
616.2196828476162
 20
-547.5913327402945
 30
0.0
 11
639.2197418523433
 21
-547.5913327402945
 31
0.0
  0
LINE
  5
21E4B
330
18
100
AcDbEntity
  8
01
  6
CONTINUOUS
100
AcDbLine
 10
637.2197418523397
 20
-588.5913327402945
 30
0.0
 11
618.2127361911074
 21
-588.5913327402944
 31
0.0
  0
LINE
  5
21E4C
330
18
100
AcDbEntity
  8
01
  6
CONTINUOUS
100
AcDbLine
 10
640.2197418523397
 20
-548.5913354847246
 30
0.0
 11
640.2197418523397
 21
-585.5913327402944
 31
0.0
  0
ARC
  5
21E4D
330
18
100
AcDbEntity
  8
01
  6
CONTINUOUS
100
AcDbCircle
 10
637.2197418523397
 20
-585.5913327402945
 30
0.0
 40
3.000000000000012
100
AcDbArc
 50
270.0
 51
0.0000000000021713
  0
ARC
  5
21E4E
330
18
100
AcDbEntity
  8
01
  6
CONTINUOUS
100
AcDbCircle
 10
618.2197404801594
 20
-585.5913409169831
 30
0.0
 40
3.00000000000001
100
AcDbArc
 50
179.9999999999978
 51
270.0
  0
ARC
  5
21E4F
330
18
100
AcDbEntity
  8
01
  6
CONTINUOUS
100
AcDbCircle
 10
639.2197418523433
 20
-548.5913327402945
 30
0.0
 40
1.000000000000013
100
AcDbArc
 50
359.999842755741
 51
90.0
  0
LINE
  5
21E52
330
18
100
AcDbEntity
  8
1PHANTOM
 48
0.5
100
AcDbLine
 10
638.4662388258675
 20
-551.7913300009371
 30
0.0
 11
638.4662388258675
 21
-547.2913300009376
 31
0.0
  0
SPLINE
  5
21E53
330
18
100
AcDbEntity
  8
1PHANTOM
 48
0.5
100
AcDbSpline
210
0.0
220
0.0
230
1.0
 70
    24
 71
     3
 72
    14
 73
    10
 74
     0
 42
0.000000001
 43
0.00000001
 40
0.0
 40
0.0
 40
0.0
 40
0.0
 40
0.25
 40
0.25
 40
0.5
 40
0.5
 40
0.75
 40
0.75
 40
1.0
 40
1.0
 40
1.0
 40
1.0
 10
638.4662388258675
 20
-547.2913300009376
 30
0.0
 10
638.4662388258675
 20
-547.2913300009376
 30
0.0
 10
638.444760087054
 20
-547.2913300009376
 30
0.0
 10
638.3472941668058
 20
-547.2913300009376
 30
0.0
 10
638.2709766799918
 20
-547.2913300009376
 30
0.0
 10
638.0757145341161
 20
-547.2913300009376
 30
0.0
 10
637.9574304858132
 20
-547.2913300009376
 30
0.0
 10
637.7112365850454
 20
-547.2913300009376
 30
0.0
 10
637.5840899560653
 20
-547.2913300009376
 30
0.0
 10
637.4662388258675
 20
-547.2913300009376
 30
0.0
  0
LINE
  5
21E54
330
18
100
AcDbEntity
  8
1PHANTOM
 48
0.5
100
AcDbLine
 10
637.4662388258675
 20
-547.2913300009376
 30
0.0
 11
617.9662388258675
 21
-547.2913300009376
 31
0.0
  0
LINE
  5
21E58
330
18
100
AcDbEntity
  8
1PHANTOM
 48
0.5
100
AcDbLine
 10
616.9662388258675
 20
-547.2913300009376
 30
0.0
 11
616.9662388258675
 21
-551.7913300009371
 31
0.0
  0
SPLINE
  5
21E59
330
18
100
AcDbEntity
  8
1PHANTOM
 48
0.5
100
AcDbSpline
210
0.0
220
0.0
230
1.0
 70
    24
 71
     3
 72
    14
 73
    10
 74
     0
 42
0.000000001
 43
0.00000001
 40
0.0
 40
0.0
 40
0.0
 40
0.0
 40
0.25
 40
0.25
 40
0.5
 40
0.5
 40
0.75
 40
0.75
 40
1.0
 40
1.0
 40
1.0
 40
1.0
 10
617.9662388258675
 20
-547.2913300009376
 30
0.0
 10
617.8483876956698
 20
-547.2913300009376
 30
0.0
 10
617.7212410666897
 20
-547.2913300009376
 30
0.0
 10
617.4750471659219
 20
-547.2913300009376
 30
0.0
 10
617.3567631176189
 20
-547.2913300009376
 30
0.0
 10
617.1615009717432
 20
-547.2913300009376
 30
0.0
 10
617.0851834849293
 20
-547.2913300009376
 30
0.0
 10
616.987717564681
 20
-547.2913300009376
 30
0.0
 10
616.9662388258675
 20
-547.2913300009376
 30
0.0
 10
616.9662388258675
 20
-547.2913300009376
 30
0.0
  0
SPLINE
  5
21E5A
330
18
100
AcDbEntity
  8
1PHANTOM
 48
0.5
100
AcDbSpline
210
0.0
220
0.0
230
1.0
 70
    24
 71
     3
 72
    14
 73
    10
 74
     0
 42
0.000000001
 43
0.00000001
 40
0.0
 40
0.0
 40
0.0
 40
0.0
 40
0.2499999999999998
 40
0.2499999999999998
 40
0.4999999999999999
 40
0.4999999999999999
 40
0.75
 40
0.75
 40
1.0
 40
1.0
 40
1.0
 40
1.0
 10
638.4662388258675
 20
-552.7913300009373
 30
0.0
 10
638.4662388258675
 20
-552.6734788707395
 30
0.0
 10
638.4662388258675
 20
-552.5463322417592
 30
0.0
 10
638.4662388258674
 20
-552.3001383409915
 30
0.0
 10
638.4662388258674
 20
-552.1818542926884
 30
0.0
 10
638.4662388258674
 20
-551.9865921468128
 30
0.0
 10
638.4662388258674
 20
-551.9102746599989
 30
0.0
 10
638.4662388258674
 20
-551.8128087397507
 30
0.0
 10
638.4662388258675
 20
-551.7913300009371
 30
0.0
 10
638.4662388258675
 20
-551.7913300009371
 30
0.0
  0
SPLINE
  5
21E5B
330
18
100
AcDbEntity
  8
1PHANTOM
 48
0.5
100
AcDbSpline
210
0.0
220
0.0
230
1.0
 70
    24
 71
     3
 72
    14
 73
    10
 74
     0
 42
0.000000001
 43
0.00000001
 40
0.0
 40
0.0
 40
0.0
 40
0.0
 40
0.2499999999999999
 40
0.2499999999999999
 40
0.4999999999999998
 40
0.4999999999999998
 40
0.7499999999999997
 40
0.7499999999999997
 40
1.0
 40
1.0
 40
1.0
 40
1.0
 10
616.9662388258675
 20
-551.7913300009371
 30
0.0
 10
616.9662388258675
 20
-551.7913300009371
 30
0.0
 10
616.9662388258675
 20
-551.8128087397507
 30
0.0
 10
616.9662388258675
 20
-551.9102746599989
 30
0.0
 10
616.9662388258675
 20
-551.9865921468128
 30
0.0
 10
616.9662388258675
 20
-552.1818542926884
 30
0.0
 10
616.9662388258675
 20
-552.3001383409915
 30
0.0
 10
616.9662388258675
 20
-552.5463322417592
 30
0.0
 10
616.9662388258675
 20
-552.6734788707395
 30
0.0
 10
616.9662388258675
 20
-552.7913300009373
 30
0.0
  0
LINE
  5
21E5C
330
18
100
AcDbEntity
  8
1PHANTOM
 48
0.5
100
AcDbLine
 10
638.4662388258675
 20
-569.2913300009373
 30
0.0
 11
638.4662388258675
 21
-552.7913300009373
 31
0.0
  0
LINE
  5
21E5D
330
18
100
AcDbEntity
  8
1PHANTOM
 48
0.5
100
AcDbLine
 10
616.9662388258675
 20
-552.7913300009373
 30
0.0
 11
616.9662388258675
 21
-569.2913300009373
 31
0.0
  0
LINE
  5
21E5E
330
18
100
AcDbEntity
  8
1PHANTOM
 48
0.5
100
AcDbLine
 10
617.9662388258675
 20
-570.2913300009373
 30
0.0
 11
637.4662388258675
 21
-570.2913300009373
 31
0.0
  0
SPLINE
  5
21E5F
330
18
100
AcDbEntity
  8
1PHANTOM
 48
0.5
100
AcDbSpline
210
0.0
220
0.0
230
1.0
 70
     8
 71
     3
 72
    14
 73
    10
 74
     0
 42
0.000000001
 43
0.00000001
 40
0.0
 40
0.0
 40
0.0
 40
0.0
 40
0.25
 40
0.25
 40
0.5
 40
0.5
 40
0.75
 40
0.75
 40
1.0
 40
1.0
 40
1.0
 40
1.0
 10
637.4662388258675
 20
-570.2913300009373
 30
0.0
 10
637.5840899560652
 20
-570.2913300009373
 30
0.0
 10
637.7112365850455
 20
-570.2698512621237
 30
0.0
 10
637.9574304858131
 20
-570.1723853418756
 30
0.0
 10
638.0757145341162
 20
-570.0960678550616
 30
0.0
 10
638.2709766799918
 20
-569.900805709186
 30
0.0
 10
638.3472941668058
 20
-569.7825216608829
 30
0.0
 10
638.444760087054
 20
-569.5363277601152
 30
0.0
 10
638.4662388258675
 20
-569.4091811311349
 30
0.0
 10
638.4662388258675
 20
-569.2913300009373
 30
0.0
  0
SPLINE
  5
21E60
330
18
100
AcDbEntity
  8
1PHANTOM
 48
0.5
100
AcDbSpline
210
0.0
220
0.0
230
1.0
 70
     8
 71
     3
 72
    14
 73
    10
 74
     0
 42
0.000000001
 43
0.00000001
 40
0.0
 40
0.0
 40
0.0
 40
0.0
 40
0.25
 40
0.25
 40
0.5
 40
0.5
 40
0.75
 40
0.75
 40
1.0
 40
1.0
 40
1.0
 40
1.0
 10
616.9662388258675
 20
-569.2913300009373
 30
0.0
 10
616.9662388258675
 20
-569.4091811311349
 30
0.0
 10
616.987717564681
 20
-569.5363277601152
 30
0.0
 10
617.0851834849292
 20
-569.7825216608829
 30
0.0
 10
617.1615009717432
 20
-569.900805709186
 30
0.0
 10
617.3567631176189
 20
-570.0960678550616
 30
0.0
 10
617.4750471659219
 20
-570.1723853418756
 30
0.0
 10
617.7212410666897
 20
-570.2698512621237
 30
0.0
 10
617.8483876956698
 20
-570.2913300009373
 30
0.0
 10
617.9662388258675
 20
-570.2913300009373
 30
0.0
  0
ARC
  5
21EAC
330
18
100
AcDbEntity
  8
01
  6
CONTINUOUS
100
AcDbCircle
 10
196.9162386829194
 20
-644.7913304101075
 30
0.0
 40
0.8000000000000114
100
AcDbArc
 50
270.0
 51
0.0
  0
ARC
  5
21EAD
330
18
100
AcDbEntity
  8
01
  6
CONTINUOUS
100
AcDbCircle
 10
196.9162386829194
 20
-625.3913302924238
 30
0.0
 40
0.8000000000000114
100
AcDbArc
 50
0.0
 51
90.0
  0
ARC
  5
21EAE
330
18
100
AcDbEntity
  8
01
  6
CONTINUOUS
100
AcDbCircle
 10
162.0162386829194
 20
-625.5913302924243
 30
0.0
 40
1.000000000000256
100
AcDbArc
 50
90.0
 51
179.999999999987
  0
LINE
  5
21EAF
330
18
100
AcDbEntity
  8
01
  6
CONTINUOUS
100
AcDbLine
 10
162.0162386829194
 20
-624.5913302924241
 30
0.0
 11
168.0162386829194
 21
-624.5913302924241
 31
0.0
  0
LINE
  5
21EB0
330
18
100
AcDbEntity
  8
01
  6
CONTINUOUS
100
AcDbLine
 10
168.0162386829194
 20
-624.5913302924241
 30
0.0
 11
196.9162386829194
 21
-624.5913302924241
 31
0.0
  0
LINE
  5
21EB1
330
18
100
AcDbEntity
  8
01
  6
CONTINUOUS
100
AcDbLine
 10
168.0162386829194
 20
-645.5913304101075
 30
0.0
 11
162.0162386829194
 21
-645.5913304101075
 31
0.0
  0
ARC
  5
21EB2
330
18
100
AcDbEntity
  8
01
  6
CONTINUOUS
100
AcDbCircle
 10
162.0162386829194
 20
-644.5913304101075
 30
0.0
 40
1.000000000000028
100
AcDbArc
 50
179.999999999987
 51
270.0
  0
LINE
  5
21EB3
330
18
100
AcDbEntity
  8
01
  6
CONTINUOUS
100
AcDbLine
 10
196.9162386829194
 20
-645.5913304101075
 30
0.0
 11
168.0162386829194
 21
-645.5913304101075
 31
0.0
  0
LINE
  5
21EB4
330
18
100
AcDbEntity
  8
01
  6
CONTINUOUS
100
AcDbLine
 10
197.7162386829194
 20
-625.3913302924238
 30
0.0
 11
197.7162386829194
 21
-644.7913304101075
 31
0.0
  0
LINE
  5
21EB5
330
18
100
AcDbEntity
  8
01
  6
CONTINUOUS
100
AcDbLine
 10
161.0162386829194
 20
-644.5913304101075
 30
0.0
 11
161.0162386829194
 21
-625.5913302924241
 31
0.0
  0
LINE
  5
21EB7
330
18
100
AcDbEntity
  8
01
  6
CONTINUOUS
100
AcDbLine
 10
187.2127364854857
 20
-624.5913302924241
 30
0.0
 11
168.2127364854856
 21
-624.5913302924241
 31
0.0
  0
LINE
  5
21EB8
330
18
100
AcDbEntity
  8
01
  6
CONTINUOUS
100
AcDbLine
 10
190.2127364854856
 20
-624.5913302924241
 30
0.0
 11
190.2127364854856
 21
-622.7017328182208
 31
0.0
  0
SPLINE
  5
21EB9
330
18
100
AcDbEntity
  8
01
  6
CONTINUOUS
100
AcDbSpline
210
0.0
220
0.0
230
1.0
 70
    24
 71
     3
 72
    22
 73
    18
 74
     0
 42
0.000000001
 43
0.00000001
 40
0.0
 40
0.0
 40
0.0
 40
0.0
 40
0.034550635079117
 40
0.0688550610754859
 40
0.1030127308718936
 40
0.1371243809831122
 40
0.1712911549764206
 40
0.2056137090964062
 40
0.240191339176251
 40
0.3700530874473478
 40
0.5000286264676261
 40
0.6298904259562502
 40
0.7598660162387701
 40
0.8201490091755944
 40
0.879905326471936
 40
0.9396755782493204
 40
1.0
 40
1.0
 40
1.0
 40
1.0
 10
190.2127364854856
 20
-624.5913302924241
 30
0.0
 10
190.2119163727542
 20
-624.5913302924241
 30
0.0
 10
190.2102819914449
 20
-624.5913302924241
 30
0.0
 10
190.1969138765236
 20
-624.5913302924241
 30
0.0
 10
190.1755285328918
 20
-624.5913302924241
 30
0.0
 10
190.145357816679
 20
-624.5913302924241
 30
0.0
 10
190.1066113161061
 20
-624.5913302924241
 30
0.0
 10
190.0592198485131
 20
-624.5913302924241
 30
0.0
 10
189.9520983596633
 20
-624.5913302924241
 30
0.0
 10
189.7387706727065
 20
-624.5913302924241
 30
0.0
 10
189.3485125863565
 20
-624.5913302924241
 30
0.0
 10
188.8721520962888
 20
-624.5913302924241
 30
0.0
 10
188.4220773885812
 20
-624.5913302924241
 30
0.0
 10
188.0506547408814
 20
-624.5913302924241
 30
0.0
 10
187.7758721870547
 20
-624.5913302924241
 30
0.0
 10
187.4959881314199
 20
-624.5913302924241
 30
0.0
 10
187.3074437099316
 20
-624.5913302924241
 30
0.0
 10
187.2127364854856
 20
-624.5913302924241
 30
0.0
  0
LINE
  5
21EBA
330
18
100
AcDbEntity
  8
01
  6
CONTINUOUS
100
AcDbLine
 10
165.2127364854856
 20
-624.5913302924241
 30
0.0
 11
165.2127364854856
 21
-622.7017328182208
 31
0.0
  0
SPLINE
  5
21EBB
330
18
100
AcDbEntity
  8
01
  6
CONTINUOUS
100
AcDbSpline
210
0.0
220
0.0
230
1.0
 70
    24
 71
     3
 72
    22
 73
    18
 74
     0
 42
0.000000001
 43
0.00000001
 40
0.0
 40
0.0
 40
0.0
 40
0.0
 40
0.0345506350787961
 40
0.0688550610749545
 40
0.1030127308712564
 40
0.1371243809824784
 40
0.1712911549758936
 40
0.205613709096086
 40
0.2401913391762349
 40
0.3700530874466947
 40
0.500028626467639
 40
0.6298904259560504
 40
0.7598660162387711
 40
0.8201490091754445
 40
0.879905326471732
 40
0.9396755782491651
 40
1.0
 40
1.0
 40
1.0
 40
1.0
 10
168.2127364854856
 20
-624.5913302924241
 30
0.0
 10
168.1585079316468
 20
-624.5913302924241
 30
0.0
 10
168.0504372586167
 20
-624.5913302924241
 30
0.0
 10
167.8892103506661
 20
-624.5913302924241
 30
0.0
 10
167.7296006954156
 20
-624.5913302924241
 30
0.0
 10
167.5716110014555
 20
-624.5913302924241
 30
0.0
 10
167.4152497670556
 20
-624.5913302924241
 30
0.0
 10
167.2605048837942
 20
-624.5913302924241
 30
0.0
 10
166.9674920844975
 20
-624.5913302924241
 30
0.0
 10
166.5534478248269
 20
-624.5913302924241
 30
0.0
 10
166.0772331630372
 20
-624.5913302924241
 30
0.0
 10
165.6867485589815
 20
-624.5913302924241
 30
0.0
 10
165.4549544675386
 20
-624.5913302924241
 30
0.0
 10
165.3270842608996
 20
-624.5913302924241
 30
0.0
 10
165.2612769823881
 20
-624.5913302924241
 30
0.0
 10
165.2202166198994
 20
-624.5913302924241
 30
0.0
 10
165.2152375222104
 20
-624.5913302924241
 30
0.0
 10
165.2127364854856
 20
-624.5913302924241
 30
0.0
  0
ARC
  5
21EBC
330
18
100
AcDbEntity
  8
01
100
AcDbCircle
 10
177.7127364854856
 20
-1221.59133032347
 30
0.0
 40
600.0
100
AcDbArc
 50
88.89992996929911
 51
91.10007003070089
  0
ARC
  5
21EBD
330
18
100
AcDbEntity
  8
01
100
AcDbCircle
 10
189.2127364854856
 20
-622.7017328182208
 30
0.0
 40
1.0
100
AcDbArc
 50
0.0
 51
88.89992996929823
  0
ARC
  5
21EBE
330
18
100
AcDbEntity
  8
01
100
AcDbCircle
 10
166.2127364854856
 20
-622.7017328182208
 30
0.0
 40
1.0
100
AcDbArc
 50
91.10007003069852
 51
180.0
  0
LINE
  5
21EBF
330
18
100
AcDbEntity
  8
01
  6
CONTINUOUS
100
AcDbLine
 10
190.2127364854856
 20
-645.5913304101075
 30
0.0
 11
190.2127364854856
 21
-647.4809278843109
 31
0.0
  0
LINE
  5
21EC0
330
18
100
AcDbEntity
  8
01
  6
CONTINUOUS
100
AcDbLine
 10
165.2127364854856
 20
-645.5913304101075
 30
0.0
 11
165.2127364854856
 21
-647.4809278843109
 31
0.0
  0
ARC
  5
21EC1
330
18
100
AcDbEntity
  8
01
100
AcDbCircle
 10
177.7127364854856
 20
-48.59133037906122
 30
0.0
 40
600.0
100
AcDbArc
 50
268.8999299692991
 51
271.1000700307009
  0
ARC
  5
21EC2
330
18
100
AcDbEntity
  8
01
100
AcDbCircle
 10
189.2127364854856
 20
-647.4809278843109
 30
0.0
 40
1.0
100
AcDbArc
 50
271.1000700307018
 51
0.0
  0
ARC
  5
21EC3
330
18
100
AcDbEntity
  8
01
100
AcDbCircle
 10
166.2127364854856
 20
-647.4809278843109
 30
0.0
 40
1.0
100
AcDbArc
 50
180.0
 51
268.8999299693015
  0
LINE
  5
21EC6
330
18
100
AcDbEntity
  8
01
  6
CONTINUOUS
100
AcDbLine
 10
198.0162386829194
 20
-625.0913305747832
 30
0.0
 11
607.416238968816
 21
-625.0913305747833
 31
0.0
  0
ARC
  5
21EC8
330
18
100
AcDbEntity
  8
01
  6
CONTINUOUS
100
AcDbCircle
 10
608.516238968816
 20
-644.7913304101075
 30
0.0
 40
0.8000000000000114
100
AcDbArc
 50
180.0
 51
270.0
  0
ARC
  5
21EC9
330
18
100
AcDbEntity
  8
01
  6
CONTINUOUS
100
AcDbCircle
 10
608.516238968816
 20
-625.3913302924238
 30
0.0
 40
0.8000000000000114
100
AcDbArc
 50
90.0
 51
180.0
  0
ARC
  5
21ECA
330
18
100
AcDbEntity
  8
01
  6
CONTINUOUS
100
AcDbCircle
 10
643.416238968816
 20
-625.5913302924243
 30
0.0
 40
1.000000000000256
100
AcDbArc
 50
0.0000000000130276
 51
90.0
  0
LINE
  5
21ECB
330
18
100
AcDbEntity
  8
01
  6
CONTINUOUS
100
AcDbLine
 10
643.416238968816
 20
-624.5913302924241
 30
0.0
 11
637.416238968816
 21
-624.5913302924241
 31
0.0
  0
LINE
  5
21ECC
330
18
100
AcDbEntity
  8
01
  6
CONTINUOUS
100
AcDbLine
 10
637.416238968816
 20
-624.5913302924241
 30
0.0
 11
608.516238968816
 21
-624.5913302924241
 31
0.0
  0
LINE
  5
21ECD
330
18
100
AcDbEntity
  8
01
  6
CONTINUOUS
100
AcDbLine
 10
637.416238968816
 20
-645.5913304101075
 30
0.0
 11
643.416238968816
 21
-645.5913304101075
 31
0.0
  0
ARC
  5
21ECE
330
18
100
AcDbEntity
  8
01
  6
CONTINUOUS
100
AcDbCircle
 10
643.416238968816
 20
-644.5913304101075
 30
0.0
 40
1.000000000000028
100
AcDbArc
 50
270.0
 51
0.0000000000130276
  0
LINE
  5
21ECF
330
18
100
AcDbEntity
  8
01
  6
CONTINUOUS
100
AcDbLine
 10
608.516238968816
 20
-645.5913304101075
 30
0.0
 11
637.416238968816
 21
-645.5913304101075
 31
0.0
  0
LINE
  5
21ED0
330
18
100
AcDbEntity
  8
01
  6
CONTINUOUS
100
AcDbLine
 10
607.7162389688159
 20
-625.3913302924238
 30
0.0
 11
607.7162389688159
 21
-644.7913304101075
 31
0.0
  0
LINE
  5
21ED1
330
18
100
AcDbEntity
  8
01
  6
CONTINUOUS
100
AcDbLine
 10
644.416238968816
 20
-644.5913304101075
 30
0.0
 11
644.416238968816
 21
-625.5913302924241
 31
0.0
  0
LINE
  5
21ED2
330
18
100
AcDbEntity
  8
01
  6
CONTINUOUS
100
AcDbLine
 10
618.2197411662496
 20
-624.5913302924241
 30
0.0
 11
637.2197411662497
 21
-624.5913302924241
 31
0.0
  0
LINE
  5
21ED3
330
18
100
AcDbEntity
  8
01
  6
CONTINUOUS
100
AcDbLine
 10
615.2197411662497
 20
-624.5913302924241
 30
0.0
 11
615.2197411662497
 21
-622.7017328182208
 31
0.0
  0
SPLINE
  5
21ED4
330
18
100
AcDbEntity
  8
01
  6
CONTINUOUS
100
AcDbSpline
210
0.0
220
0.0
230
1.0
 70
    24
 71
     3
 72
    22
 73
    18
 74
     0
 42
0.000000001
 43
0.00000001
 40
0.0
 40
0.0
 40
0.0
 40
0.0
 40
0.034550635079117
 40
0.0688550610754859
 40
0.1030127308718936
 40
0.1371243809831122
 40
0.1712911549764206
 40
0.2056137090964062
 40
0.240191339176251
 40
0.3700530874473478
 40
0.5000286264676261
 40
0.6298904259562502
 40
0.7598660162387701
 40
0.8201490091755944
 40
0.879905326471936
 40
0.9396755782493204
 40
1.0
 40
1.0
 40
1.0
 40
1.0
 10
615.2197411662497
 20
-624.5913302924241
 30
0.0
 10
615.2205612789811
 20
-624.5913302924241
 30
0.0
 10
615.2221956602905
 20
-624.5913302924241
 30
0.0
 10
615.2355637752117
 20
-624.5913302924241
 30
0.0
 10
615.2569491188435
 20
-624.5913302924241
 30
0.0
 10
615.2871198350564
 20
-624.5913302924241
 30
0.0
 10
615.3258663356293
 20
-624.5913302924241
 30
0.0
 10
615.3732578032223
 20
-624.5913302924241
 30
0.0
 10
615.480379292072
 20
-624.5913302924241
 30
0.0
 10
615.6937069790289
 20
-624.5913302924241
 30
0.0
 10
616.0839650653788
 20
-624.5913302924241
 30
0.0
 10
616.5603255554465
 20
-624.5913302924241
 30
0.0
 10
617.0104002631541
 20
-624.5913302924241
 30
0.0
 10
617.381822910854
 20
-624.5913302924241
 30
0.0
 10
617.6566054646806
 20
-624.5913302924241
 30
0.0
 10
617.9364895203155
 20
-624.5913302924241
 30
0.0
 10
618.1250339418037
 20
-624.5913302924241
 30
0.0
 10
618.2197411662497
 20
-624.5913302924241
 30
0.0
  0
LINE
  5
21ED5
330
18
100
AcDbEntity
  8
01
  6
CONTINUOUS
100
AcDbLine
 10
640.2197411662497
 20
-624.5913302924241
 30
0.0
 11
640.2197411662497
 21
-622.7017328182208
 31
0.0
  0
SPLINE
  5
21ED6
330
18
100
AcDbEntity
  8
01
  6
CONTINUOUS
100
AcDbSpline
210
0.0
220
0.0
230
1.0
 70
    24
 71
     3
 72
    22
 73
    18
 74
     0
 42
0.000000001
 43
0.00000001
 40
0.0
 40
0.0
 40
0.0
 40
0.0
 40
0.0345506350787961
 40
0.0688550610749545
 40
0.1030127308712564
 40
0.1371243809824784
 40
0.1712911549758936
 40
0.205613709096086
 40
0.2401913391762349
 40
0.3700530874466947
 40
0.500028626467639
 40
0.6298904259560504
 40
0.7598660162387711
 40
0.8201490091754445
 40
0.879905326471732
 40
0.9396755782491651
 40
1.0
 40
1.0
 40
1.0
 40
1.0
 10
637.2197411662497
 20
-624.5913302924241
 30
0.0
 10
637.2739697200885
 20
-624.5913302924241
 30
0.0
 10
637.3820403931187
 20
-624.5913302924241
 30
0.0
 10
637.5432673010692
 20
-624.5913302924241
 30
0.0
 10
637.7028769563198
 20
-624.5913302924241
 30
0.0
 10
637.8608666502798
 20
-624.5913302924241
 30
0.0
 10
638.0172278846798
 20
-624.5913302924241
 30
0.0
 10
638.1719727679412
 20
-624.5913302924241
 30
0.0
 10
638.4649855672378
 20
-624.5913302924241
 30
0.0
 10
638.8790298269084
 20
-624.5913302924241
 30
0.0
 10
639.3552444886982
 20
-624.5913302924241
 30
0.0
 10
639.7457290927539
 20
-624.5913302924241
 30
0.0
 10
639.9775231841968
 20
-624.5913302924241
 30
0.0
 10
640.1053933908357
 20
-624.5913302924241
 30
0.0
 10
640.1712006693473
 20
-624.5913302924241
 30
0.0
 10
640.212261031836
 20
-624.5913302924241
 30
0.0
 10
640.217240129525
 20
-624.5913302924241
 30
0.0
 10
640.2197411662497
 20
-624.5913302924241
 30
0.0
  0
ARC
  5
21ED7
330
18
100
AcDbEntity
  8
01
100
AcDbCircle
 10
627.7197411662497
 20
-1221.59133032347
 30
0.0
 40
600.0
100
AcDbArc
 50
88.89992996929912
 51
91.10007003070089
  0
ARC
  5
21ED8
330
18
100
AcDbEntity
  8
01
100
AcDbCircle
 10
616.2197411662497
 20
-622.7017328182208
 30
0.0
 40
1.0
100
AcDbArc
 50
91.10007003070177
 51
180.0
  0
ARC
  5
21ED9
330
18
100
AcDbEntity
  8
01
100
AcDbCircle
 10
639.2197411662497
 20
-622.7017328182208
 30
0.0
 40
1.0
100
AcDbArc
 50
0.0
 51
88.89992996930475
  0
LINE
  5
21EDA
330
18
100
AcDbEntity
  8
01
  6
CONTINUOUS
100
AcDbLine
 10
615.2197411662497
 20
-645.5913304101075
 30
0.0
 11
615.2197411662497
 21
-647.4809278843109
 31
0.0
  0
LINE
  5
21EDB
330
18
100
AcDbEntity
  8
01
  6
CONTINUOUS
100
AcDbLine
 10
640.2197411662497
 20
-645.5913304101075
 30
0.0
 11
640.2197411662497
 21
-647.4809278843109
 31
0.0
  0
ARC
  5
21EDC
330
18
100
AcDbEntity
  8
01
100
AcDbCircle
 10
627.7197411662497
 20
-48.59133037906122
 30
0.0
 40
600.0
100
AcDbArc
 50
268.8999299692991
 51
271.1000700307009
  0
ARC
  5
21EDD
330
18
100
AcDbEntity
  8
01
100
AcDbCircle
 10
616.2197411662497
 20
-647.4809278843109
 30
0.0
 40
1.0
100
AcDbArc
 50
180.0
 51
268.8999299692982
  0
ARC
  5
21EDE
330
18
100
AcDbEntity
  8
01
100
AcDbCircle
 10
639.2197411662497
 20
-647.4809278843109
 30
0.0
 40
1.0
100
AcDbArc
 50
271.1000700306952
 51
0.0
  0
SPLINE
  5
21FD4
330
18
100
AcDbEntity
  8
01
  6
CONTINUOUS
100
AcDbSpline
210
0.0
220
0.0
230
1.0
 70
     8
 71
     3
 72
    14
 73
    10
 74
     0
 42
0.000000001
 43
0.00000001
 40
0.0
 40
0.0
 40
0.0
 40
0.0
 40
0.2499999999999999
 40
0.2499999999999999
 40
0.4999999999999998
 40
0.4999999999999998
 40
0.7499999999999999
 40
0.7499999999999999
 40
1.0
 40
1.0
 40
1.0
 40
1.0
 10
624.2162398748583
 20
-633.0913303512658
 30
0.0
 10
624.2162398748583
 20
-632.8261653083204
 30
0.0
 10
624.2645670371887
 20
-632.5400853931144
 30
0.0
 10
624.4838653577478
 20
-631.986149116386
 30
0.0
 10
624.6555797030801
 20
-631.7200100077038
 30
0.0
 10
625.0949195313018
 20
-631.2806701794833
 30
0.0
 10
625.3610586399844
 20
-631.1089558341521
 30
0.0
 10
625.9149949167136
 20
-630.8896575135946
 30
0.0
 10
626.2010748319199
 20
-630.8413303512649
 30
0.0
 10
626.4662398748653
 20
-630.8413303512658
 30
0.0
  0
SPLINE
  5
21FD5
330
18
100
AcDbEntity
  8
01
  6
CONTINUOUS
100
AcDbSpline
210
0.0
220
0.0
230
1.0
 70
     8
 71
     3
 72
    14
 73
    10
 74
     0
 42
0.000000001
 43
0.00000001
 40
0.0
 40
0.0
 40
0.0
 40
0.0
 40
0.2500000000000001
 40
0.2500000000000001
 40
0.5000000000000001
 40
0.5000000000000001
 40
0.7500000000000002
 40
0.7500000000000002
 40
1.0
 40
1.0
 40
1.0
 40
1.0
 10
626.4662398748653
 20
-635.3413303512658
 30
0.0
 10
626.2010748319199
 20
-635.3413303512666
 30
0.0
 10
625.9149949167138
 20
-635.293003188937
 30
0.0
 10
625.3610586399847
 20
-635.0737048683795
 30
0.0
 10
625.0949195313019
 20
-634.9019905230482
 30
0.0
 10
624.6555797030801
 20
-634.4626506948277
 30
0.0
 10
624.483865357748
 20
-634.1965115861457
 30
0.0
 10
624.2645670371888
 20
-633.6425753094172
 30
0.0
 10
624.2162398748583
 20
-633.3564953942112
 30
0.0
 10
624.2162398748583
 20
-633.0913303512658
 30
0.0
  0
LINE
  5
21FD6
330
18
100
AcDbEntity
  8
01
  6
CONTINUOUS
100
AcDbLine
 10
628.9662398749533
 20
-635.3413303512658
 30
0.0
 11
626.4662398748653
 21
-635.3413303512658
 31
0.0
  0
SPLINE
  5
21FD7
330
18
100
AcDbEntity
  8
01
  6
CONTINUOUS
100
AcDbSpline
210
0.0
220
0.0
230
1.0
 70
     8
 71
     3
 72
    14
 73
    10
 74
     0
 42
0.000000001
 43
0.00000001
 40
0.0
 40
0.0
 40
0.0
 40
0.0
 40
0.2500000000000001
 40
0.2500000000000001
 40
0.5000000000000002
 40
0.5000000000000002
 40
0.7500000000000001
 40
0.7500000000000001
 40
1.0
 40
1.0
 40
1.0
 40
1.0
 10
628.9662398749533
 20
-630.8413303512658
 30
0.0
 10
629.2314049178926
 20
-630.8413303512658
 30
0.0
 10
629.5174848330912
 20
-630.8896575135961
 30
0.0
 10
630.0714211098023
 20
-631.1089558341545
 30
0.0
 10
630.3375602184749
 20
-631.2806701794859
 30
0.0
 10
630.7769000466765
 20
-631.7200100077062
 30
0.0
 10
630.9486143919987
 20
-631.9861491163879
 30
0.0
 10
631.1679127125408
 20
-632.5400853931153
 30
0.0
 10
631.216239874864
 20
-632.8261653083208
 30
0.0
 10
631.2162398748583
 20
-633.0913303512658
 30
0.0
  0
LINE
  5
21FD8
330
18
100
AcDbEntity
  8
01
  6
CONTINUOUS
100
AcDbLine
 10
626.4662398748653
 20
-630.8413303512658
 30
0.0
 11
628.9662398749533
 21
-630.8413303512658
 31
0.0
  0
SPLINE
  5
21FD9
330
18
100
AcDbEntity
  8
01
  6
CONTINUOUS
100
AcDbSpline
210
0.0
220
0.0
230
1.0
 70
     8
 71
     3
 72
    14
 73
    10
 74
     0
 42
0.000000001
 43
0.00000001
 40
0.0
 40
0.0
 40
0.0
 40
0.0
 40
0.25
 40
0.25
 40
0.5
 40
0.5
 40
0.75
 40
0.75
 40
1.0
 40
1.0
 40
1.0
 40
1.0
 10
631.2162398748583
 20
-633.0913303512658
 30
0.0
 10
631.216239874864
 20
-633.3564953942107
 30
0.0
 10
631.1679127125407
 20
-633.6425753094163
 30
0.0
 10
630.9486143919987
 20
-634.1965115861437
 30
0.0
 10
630.7769000466765
 20
-634.4626506948255
 30
0.0
 10
630.3375602184749
 20
-634.9019905230456
 30
0.0
 10
630.0714211098023
 20
-635.073704868377
 30
0.0
 10
629.5174848330912
 20
-635.2930031889355
 30
0.0
 10
629.2314049178926
 20
-635.3413303512658
 30
0.0
 10
628.9662398749533
 20
-635.3413303512658
 30
0.0
  0
LINE
  5
22056
330
18
100
AcDbEntity
  8
1CENTER
100
AcDbLine
 10
626.4662398749093
 20
-629.8413303512658
 30
0.0
 11
626.4662398749093
 21
-636.3413303512658
 31
0.0
  0
LINE
  5
22057
330
18
100
AcDbEntity
  8
1CENTER
100
AcDbLine
 10
628.9662398749093
 20
-629.8413303512658
 30
0.0
 11
628.9662398749093
 21
-636.3413303512658
 31
0.0
  0
SPLINE
  5
22059
330
18
100
AcDbEntity
  8
01
  6
CONTINUOUS
100
AcDbSpline
210
0.0
220
0.0
230
1.0
 70
     8
 71
     3
 72
    14
 73
    10
 74
     0
 42
0.000000001
 43
0.00000001
 40
0.0
 40
0.0
 40
0.0
 40
0.0
 40
0.2499999999999999
 40
0.2499999999999999
 40
0.4999999999999998
 40
0.4999999999999998
 40
0.7499999999999999
 40
0.7499999999999999
 40
1.0
 40
1.0
 40
1.0
 40
1.0
 10
181.2162377768771
 20
-633.0913303512658
 30
0.0
 10
181.2162377768771
 20
-632.8261653083204
 30
0.0
 10
181.1679106145466
 20
-632.5400853931144
 30
0.0
 10
180.9486122939875
 20
-631.986149116386
 30
0.0
 10
180.7768979486552
 20
-631.7200100077038
 30
0.0
 10
180.3375581204335
 20
-631.2806701794833
 30
0.0
 10
180.0714190117509
 20
-631.1089558341521
 30
0.0
 10
179.5174827350218
 20
-630.8896575135946
 30
0.0
 10
179.2314028198155
 20
-630.8413303512649
 30
0.0
 10
178.96623777687
 20
-630.8413303512658
 30
0.0
  0
SPLINE
  5
2205A
330
18
100
AcDbEntity
  8
01
  6
CONTINUOUS
100
AcDbSpline
210
0.0
220
0.0
230
1.0
 70
     8
 71
     3
 72
    14
 73
    10
 74
     0
 42
0.000000001
 43
0.00000001
 40
0.0
 40
0.0
 40
0.0
 40
0.0
 40
0.2500000000000001
 40
0.2500000000000001
 40
0.5000000000000001
 40
0.5000000000000001
 40
0.7500000000000002
 40
0.7500000000000002
 40
1.0
 40
1.0
 40
1.0
 40
1.0
 10
178.96623777687
 20
-635.3413303512658
 30
0.0
 10
179.2314028198155
 20
-635.3413303512666
 30
0.0
 10
179.5174827350215
 20
-635.293003188937
 30
0.0
 10
180.0714190117507
 20
-635.0737048683795
 30
0.0
 10
180.3375581204334
 20
-634.9019905230482
 30
0.0
 10
180.7768979486552
 20
-634.4626506948277
 30
0.0
 10
180.9486122939874
 20
-634.1965115861457
 30
0.0
 10
181.1679106145465
 20
-633.6425753094172
 30
0.0
 10
181.2162377768771
 20
-633.3564953942112
 30
0.0
 10
181.2162377768771
 20
-633.0913303512658
 30
0.0
  0
LINE
  5
2205B
330
18
100
AcDbEntity
  8
01
  6
CONTINUOUS
100
AcDbLine
 10
176.466237776782
 20
-635.3413303512658
 30
0.0
 11
178.96623777687
 21
-635.3413303512658
 31
0.0
  0
SPLINE
  5
2205C
330
18
100
AcDbEntity
  8
01
  6
CONTINUOUS
100
AcDbSpline
210
0.0
220
0.0
230
1.0
 70
     8
 71
     3
 72
    14
 73
    10
 74
     0
 42
0.000000001
 43
0.00000001
 40
0.0
 40
0.0
 40
0.0
 40
0.0
 40
0.2500000000000001
 40
0.2500000000000001
 40
0.5000000000000002
 40
0.5000000000000002
 40
0.7500000000000001
 40
0.7500000000000001
 40
1.0
 40
1.0
 40
1.0
 40
1.0
 10
176.466237776782
 20
-630.8413303512658
 30
0.0
 10
176.2010727338427
 20
-630.8413303512658
 30
0.0
 10
175.9149928186441
 20
-630.8896575135961
 30
0.0
 10
175.3610565419331
 20
-631.1089558341545
 30
0.0
 10
175.0949174332604
 20
-631.2806701794859
 30
0.0
 10
174.6555776050589
 20
-631.7200100077062
 30
0.0
 10
174.4838632597366
 20
-631.9861491163879
 30
0.0
 10
174.2645649391945
 20
-632.5400853931153
 30
0.0
 10
174.2162377768714
 20
-632.8261653083208
 30
0.0
 10
174.2162377768771
 20
-633.0913303512658
 30
0.0
  0
LINE
  5
2205D
330
18
100
AcDbEntity
  8
01
  6
CONTINUOUS
100
AcDbLine
 10
178.96623777687
 20
-630.8413303512658
 30
0.0
 11
176.466237776782
 21
-630.8413303512658
 31
0.0
  0
SPLINE
  5
2205E
330
18
100
AcDbEntity
  8
01
  6
CONTINUOUS
100
AcDbSpline
210
0.0
220
0.0
230
1.0
 70
     8
 71
     3
 72
    14
 73
    10
 74
     0
 42
0.000000001
 43
0.00000001
 40
0.0
 40
0.0
 40
0.0
 40
0.0
 40
0.25
 40
0.25
 40
0.5
 40
0.5
 40
0.75
 40
0.75
 40
1.0
 40
1.0
 40
1.0
 40
1.0
 10
174.2162377768771
 20
-633.0913303512658
 30
0.0
 10
174.2162377768714
 20
-633.3564953942107
 30
0.0
 10
174.2645649391947
 20
-633.6425753094163
 30
0.0
 10
174.4838632597366
 20
-634.1965115861437
 30
0.0
 10
174.6555776050589
 20
-634.4626506948255
 30
0.0
 10
175.0949174332604
 20
-634.9019905230456
 30
0.0
 10
175.3610565419331
 20
-635.073704868377
 30
0.0
 10
175.9149928186441
 20
-635.2930031889355
 30
0.0
 10
176.2010727338427
 20
-635.3413303512658
 30
0.0
 10
176.466237776782
 20
-635.3413303512658
 30
0.0
  0
LINE
  5
22063
330
18
100
AcDbEntity
  8
1CENTER
100
AcDbLine
 10
173.216237776826
 20
-633.0913303512658
 30
0.0
 11
182.216237776826
 21
-633.0913303512658
 31
0.0
  0
LINE
  5
22064
330
18
100
AcDbEntity
  8
1CENTER
100
AcDbLine
 10
178.966237776826
 20
-629.8413303512658
 30
0.0
 11
178.966237776826
 21
-636.3413303512658
 31
0.0
  0
LINE
  5
22065
330
18
100
AcDbEntity
  8
1CENTER
100
AcDbLine
 10
176.466237776826
 20
-629.8413303512658
 30
0.0
 11
176.466237776826
 21
-636.3413303512658
 31
0.0
  0
LINE
  5
220B8
330
18
100
AcDbEntity
  8
01
  6
CONTINUOUS
100
AcDbLine
 10
714.3962410768643
 20
-624.5913302924247
 30
0.0
 11
752.8962416153649
 21
-624.5913302924247
 31
0.0
  0
LINE
  5
220B9
330
18
100
AcDbEntity
  8
01
  6
CONTINUOUS
100
AcDbLine
 10
752.8962416153649
 20
-625.5913302924247
 30
0.0
 11
752.8962416153649
 21
-624.5913302924247
 31
0.0
  0
LINE
  5
220BA
330
18
100
AcDbEntity
  8
01
  6
CONTINUOUS
100
AcDbLine
 10
752.8962416153649
 20
-645.5913304101081
 30
0.0
 11
714.3962410768643
 21
-645.5913304101081
 31
0.0
  0
LINE
  5
220BB
330
18
100
AcDbEntity
  8
01
  6
CONTINUOUS
100
AcDbLine
 10
752.8962416153649
 20
-645.5913304101081
 30
0.0
 11
752.8962416153649
 21
-644.5913304101081
 31
0.0
  0
LINE
  5
220BC
330
18
100
AcDbEntity
  8
01
  6
CONTINUOUS
100
AcDbLine
 10
752.8962416153649
 20
-644.5913304101081
 30
0.0
 11
752.8962416153649
 21
-625.5913302924247
 31
0.0
  0
LINE
  5
220BD
330
18
100
AcDbEntity
  8
01
  6
CONTINUOUS
100
AcDbLine
 10
707.3962410768643
 20
-644.5913304101081
 30
0.0
 11
707.3962410768643
 21
-625.5913302924247
 31
0.0
  0
LINE
  5
220BE
330
18
100
AcDbEntity
  8
01
  6
CONTINUOUS
100
AcDbLine
 10
708.3962410768643
 20
-624.5913302924247
 30
0.0
 11
714.3962410768643
 21
-624.5913302924247
 31
0.0
  0
ARC
  5
220BF
330
18
100
AcDbEntity
  8
01
  6
CONTINUOUS
100
AcDbCircle
 10
708.3962410768643
 20
-625.5913302924247
 30
0.0
 40
1.000000000000028
100
AcDbArc
 50
90.0
 51
179.999999999987
  0
LINE
  5
220C0
330
18
100
AcDbEntity
  8
01
  6
CONTINUOUS
100
AcDbLine
 10
714.3962410768643
 20
-645.5913304101081
 30
0.0
 11
708.3962410768643
 21
-645.5913304101081
 31
0.0
  0
ARC
  5
220C1
330
18
100
AcDbEntity
  8
01
  6
CONTINUOUS
100
AcDbCircle
 10
708.3962410768643
 20
-644.5913304101081
 30
0.0
 40
1.000000000000057
100
AcDbArc
 50
180.0
 51
270.0
  0
SPLINE
  5
22112
330
18
100
AcDbEntity
  8
01
  6
CONTINUOUS
100
AcDbSpline
210
0.0
220
0.0
230
1.0
 70
     8
 71
     3
 72
    66
 73
    62
 74
     0
 42
0.000000001
 43
0.00000001
 40
0.0
 40
0.0
 40
0.0
 40
0.0
 40
0.0227786175924677
 40
0.044982061993746
 40
0.0666030317217794
 40
0.0876346772285196
 40
0.1080707663534947
 40
0.1279057957191263
 40
0.150504515170152
 40
0.1722556374555276
 40
0.1931545117292749
 40
0.2131980112280084
 40
0.2327253081132301
 40
0.2513636337407225
 40
0.2691138205937842
 40
0.2859973189376639
 40
0.3020343859985118
 40
0.3169658124991637
 40
0.3310882858757505
 40
0.3444033336362425
 40
0.3569112798745331
 40
0.3701889259280596
 40
0.3824137328431345
 40
0.3935822725293894
 40
0.4036892911892869
 40
0.4127057810144205
 40
0.4205761348587685
 40
0.4285907402119079
 40
0.4371027347420257
 40
0.4461113947679181
 40
0.4598418578445955
 40
0.4745862177242292
 40
0.4903478307731237
 40
0.5071330198269555
 40
0.5249515640910882
 40
0.542062509704677
 40
0.5600844362597178
 40
0.5790200443184054
 40
0.5988587293546446
 40
0.6195316324737764
 40
0.6401439401465637
 40
0.6603656903082361
 40
0.6821346361928873
 40
0.7034025983323596
 40
0.724190981601948
 40
0.744520080803882
 40
0.7644077819584085
 40
0.7874793654302803
 40
0.8099734719442008
 40
0.8319103009771942
 40
0.8451603267233563
 40
0.8594523814767945
 40
0.8747809041523048
 40
0.8911360578091561
 40
0.9065948342072943
 40
0.9228468062706905
 40
0.9398751574279431
 40
0.9576969300056809
 40
0.9763361327797849
 40
0.9958079894291472
 40
1.0
 40
1.0
 40
1.0
 40
1.0
 10
747.4038293519593
 20
-621.6784355121091
 30
0.0
 10
747.449901020914
 20
-621.6788705073731
 30
0.0
 10
747.5408810226925
 20
-621.6797295140203
 30
0.0
 10
747.675435562156
 20
-621.6809746826235
 30
0.0
 10
747.8061746646225
 20
-621.6821677476038
 30
0.0
 10
747.9329553934633
 20
-621.6833074956161
 30
0.0
 10
748.0556609144402
 20
-621.6843951394477
 30
0.0
 10
748.1809098257686
 20
-621.6854900881948
 30
0.0
 10
748.3080310526716
 20
-621.6865853024266
 30
0.0
 10
748.4363236179059
 20
-621.6876737626827
 30
0.0
 10
748.5586042781924
 20
-621.6886958429872
 30
0.0
 10
748.6755195635851
 20
-621.6896589785291
 30
0.0
 10
748.7870036865736
 20
-621.6905643355523
 30
0.0
 10
748.8930177554298
 20
-621.6914132926994
 30
0.0
 10
748.9929454106526
 20
-621.6922025249158
 30
0.0
 10
749.0869687652711
 20
-621.6929356992399
 30
0.0
 10
749.174799968481
 20
-621.6936127084504
 30
0.0
 10
749.2566578461109
 20
-621.6942368650292
 30
0.0
 10
749.3327373609402
 20
-621.6948112057313
 30
0.0
 10
749.4036867143436
 20
-621.6953419052194
 30
0.0
 10
749.472389533327
 20
-621.695851496417
 30
0.0
 10
749.5384268205698
 20
-621.6963373742227
 30
0.0
 10
749.6013933189995
 20
-621.6967972121951
 30
0.0
 10
749.6582707938994
 20
-621.6972099903029
 30
0.0
 10
749.7091494629796
 20
-621.6975775236757
 30
0.0
 10
749.7540376495061
 20
-621.6979005689005
 30
0.0
 10
749.7950363378613
 20
-621.6981960480572
 30
0.0
 10
749.8349230789877
 20
-621.6984799755093
 30
0.0
 10
749.8763579712047
 20
-621.6987710238253
 30
0.0
 10
749.9266394213166
 20
-621.699119669233
 30
0.0
 10
749.9862570719555
 20
-621.699526465453
 30
0.0
 10
750.0555409867899
 20
-621.6999905159645
 30
0.0
 10
750.1283263537742
 20
-621.7004690465179
 30
0.0
 10
750.2043306573916
 20
-621.7009595813353
 30
0.0
 10
750.2806626813604
 20
-621.7014432749708
 30
0.0
 10
750.3570106630123
 20
-621.7019188500991
 30
0.0
 10
750.4330050619992
 20
-621.7023845635362
 30
0.0
 10
750.5106299437091
 20
-621.7028527370418
 30
0.0
 10
750.58940016152
 20
-621.7033206441257
 30
0.0
 10
750.6676941441007
 20
-621.7037784775627
 30
0.0
 10
750.7434951478335
 20
-621.704217783841
 30
0.0
 10
750.8175353144077
 20
-621.7046432770845
 30
0.0
 10
750.8890037705376
 20
-621.7050503809465
 30
0.0
 10
750.9576373427781
 20
-621.7054380959313
 30
0.0
 10
751.0212963701586
 20
-621.7057947731354
 30
0.0
 10
751.080198069538
 20
-621.706122231553
 30
0.0
 10
751.1378430920981
 20
-621.7064403561509
 30
0.0
 10
751.1935688933974
 20
-621.7067456739675
 30
0.0
 10
751.2467716275431
 20
-621.7070351310168
 30
0.0
 10
751.288468114712
 20
-621.7072612355483
 30
0.0
 10
751.3218553428275
 20
-621.7074407055558
 30
0.0
 10
751.3493611350066
 20
-621.7075862126175
 30
0.0
 10
751.3771060311226
 20
-621.7077312377509
 30
0.0
 10
751.4036102475022
 20
-621.7078682559044
 30
0.0
 10
751.4285905184221
 20
-621.7079964236158
 30
0.0
 10
751.4518245744912
 20
-621.7081151410001
 30
0.0
 10
751.4737849305852
 20
-621.7082274174733
 30
0.0
 10
751.4942430224079
 20
-621.7083327289612
 30
0.0
 10
751.5124970642719
 20
-621.7084284740862
 30
0.0
 10
751.5248019123783
 20
-621.7084940435999
 30
0.0
 10
751.5298687194565
 20
-621.7085230296706
 30
0.0
 10
751.5558889389661
 20
-621.7086703756326
 30
0.0
  0
SPLINE
  5
22113
330
18
100
AcDbEntity
  8
01
  6
CONTINUOUS
100
AcDbSpline
210
0.0
220
0.0
230
1.0
 70
     8
 71
     3
 72
    69
 73
    65
 74
     0
 42
0.000000001
 43
0.00000001
 40
0.0
 40
0.0
 40
0.0
 40
0.0
 40
0.0145475632907566
 40
0.030579529558583
 40
0.0454188298995093
 40
0.0590652179757352
 40
0.0715191340547295
 40
0.0821700646223789
 40
0.0917628859742022
 40
0.1003055863735424
 40
0.108535245249265
 40
0.1169501538635806
 40
0.136397696319749
 40
0.1567563249281052
 40
0.1780160449455583
 40
0.2001653192074081
 40
0.2147191058466303
 40
0.229645406294666
 40
0.2449549868793503
 40
0.260654039210182
 40
0.2767497109422516
 40
0.293230168818351
 40
0.3094128394163328
 40
0.3249604532578589
 40
0.3436055262314632
 40
0.3611682302453699
 40
0.3776068380309412
 40
0.3929410586437909
 40
0.4071863749317386
 40
0.4189702021926219
 40
0.4299055296656436
 40
0.4399970697791175
 40
0.4492481883387071
 40
0.4559288769739742
 40
0.4624047958418793
 40
0.4698798036084358
 40
0.4784766211632983
 40
0.4884181259675757
 40
0.4995457458707531
 40
0.511861843008133
 40
0.5253667662899996
 40
0.5400581648934786
 40
0.55593025371521
 40
0.5729730474947526
 40
0.5891308094941489
 40
0.6061916256941466
 40
0.6241379481981473
 40
0.6429686546025295
 40
0.6626934515105775
 40
0.6829500082952586
 40
0.7041007306536468
 40
0.7261687960419995
 40
0.7491864444372209
 40
0.7694832298908039
 40
0.7904655123848534
 40
0.8121072271637841
 40
0.8343767407931233
 40
0.8572366829449599
 40
0.8806569414021332
 40
0.9033016875208538
 40
0.926526158260034
 40
0.9503601729366484
 40
0.9748382821682111
 40
1.0
 40
1.0
 40
1.0
 40
1.0
 10
743.2517720026968
 20
-621.6298911702263
 30
0.0
 10
743.2709756205944
 20
-621.6301440703563
 30
0.0
 10
743.2776063280672
 20
-621.6302312578902
 30
0.0
 10
743.2902217811943
 20
-621.6304051425415
 30
0.0
 10
743.3042722695523
 20
-621.6306014132182
 30
0.0
 10
743.3188157911741
 20
-621.6308060605035
 30
0.0
 10
743.3331058894885
 20
-621.6310071919437
 30
0.0
 10
743.3467478973333
 20
-621.6311983879915
 30
0.0
 10
743.3594389008582
 20
-621.6313750864371
 30
0.0
 10
743.371497239746
 20
-621.631541008982
 30
0.0
 10
743.3835403115746
 20
-621.6317058630367
 30
0.0
 10
743.4017142275507
 20
-621.6319546150715
 30
0.0
 10
743.4279509543862
 20
-621.6323129821736
 30
0.0
 10
743.464729999115
 20
-621.6328140368133
 30
0.0
 10
743.5070002964922
 20
-621.633388245492
 30
0.0
 10
743.549077330403
 20
-621.6339580820576
 30
0.0
 10
743.5893216315006
 20
-621.634501705929
 30
0.0
 10
743.6260926081685
 20
-621.6349971392584
 30
0.0
 10
743.6657371240302
 20
-621.6355297112347
 30
0.0
 10
743.7084098707122
 20
-621.6361011064997
 30
0.0
 10
743.7542451494826
 20
-621.6367126940548
 30
0.0
 10
743.8026822671851
 20
-621.6373565031896
 30
0.0
 10
743.8526973666857
 20
-621.6380188099939
 30
0.0
 10
743.9070887927377
 20
-621.6387364308183
 30
0.0
 10
743.9652945023855
 20
-621.6395012795834
 30
0.0
 10
744.026951313586
 20
-621.6403079073408
 30
0.0
 10
744.0868677452823
 20
-621.6410883937227
 30
0.0
 10
744.1446022788891
 20
-621.6418374038197
 30
0.0
 10
744.198028764646
 20
-621.6425279285398
 30
0.0
 10
744.246968175576
 20
-621.6431584557384
 30
0.0
 10
744.2913292660122
 20
-621.6437285322123
 30
0.0
 10
744.3330511567134
 20
-621.644263583389
 30
0.0
 10
744.3695324283935
 20
-621.6447307352574
 30
0.0
 10
744.4013919192583
 20
-621.645138441189
 30
0.0
 10
744.4310676736094
 20
-621.6455181780362
 30
0.0
 10
744.463754493156
 20
-621.6459342875097
 30
0.0
 10
744.5018672068013
 20
-621.6464174626702
 30
0.0
 10
744.5458796052438
 20
-621.6469727667128
 30
0.0
 10
744.5961141458836
 20
-621.6476034174187
 30
0.0
 10
744.6525709258118
 20
-621.6483083873574
 30
0.0
 10
744.7154974380759
 20
-621.6490896239837
 30
0.0
 10
744.7851417476337
 20
-621.649948884772
 30
0.0
 10
744.8617460287511
 20
-621.65088764376
 30
0.0
 10
744.9421954287635
 20
-621.6518662919649
 30
0.0
 10
745.0260882491963
 20
-621.6528791394015
 30
0.0
 10
745.1129867838243
 20
-621.6539201504862
 30
0.0
 10
745.2060148737905
 20
-621.6550253630311
 30
0.0
 10
745.3053167684191
 20
-621.6561947431106
 30
0.0
 10
745.4104376057177
 20
-621.6574209545371
 30
0.0
 10
745.5215092024255
 20
-621.6587036070031
 30
0.0
 10
745.6386725106792
 20
-621.6600422562136
 30
0.0
 10
745.7628007326479
 20
-621.6614444298149
 30
0.0
 10
745.8871073602342
 20
-621.6628316647576
 30
0.0
 10
746.0109245622314
 20
-621.6641966470298
 30
0.0
 10
746.1334239682647
 20
-621.6655315545594
 30
0.0
 10
746.2610519711228
 20
-621.6669056046072
 30
0.0
 10
746.3936023577538
 20
-621.6683145920148
 30
0.0
 10
746.5308393053077
 20
-621.6697538815228
 30
0.0
 10
746.6698765539811
 20
-621.6711911046754
 30
0.0
 10
746.81050799152
 20
-621.6726239646713
 30
0.0
 10
746.9526875625312
 20
-621.6740516406256
 30
0.0
 10
747.0991745121609
 20
-621.6754997571276
 30
0.0
 10
747.2500326118342
 20
-621.6769691327387
 30
0.0
 10
747.3520952576447
 20
-621.6779422519229
 30
0.0
 10
747.4038293519592
 20
-621.6784355121091
 30
0.0
  0
SPLINE
  5
22114
330
18
100
AcDbEntity
  8
01
  6
CONTINUOUS
100
AcDbSpline
210
0.0
220
0.0
230
1.0
 70
     8
 71
     3
 72
    14
 73
    10
 74
     0
 42
0.000000001
 43
0.00000001
 40
0.0
 40
0.0
 40
0.0
 40
0.0
 40
0.2500000000000002
 40
0.2500000000000002
 40
0.5000000000000001
 40
0.5000000000000001
 40
0.75
 40
0.75
 40
1.0
 40
1.0
 40
1.0
 40
1.0
 10
751.6083332413232
 20
-621.7093037206747
 30
0.0
 10
751.7254611509301
 20
-621.7107201228463
 30
0.0
 10
751.851426624479
 20
-621.7334569152182
 30
0.0
 10
752.0947653579623
 20
-621.8324594104103
 30
0.0
 10
752.2114002648578
 20
-621.9090311694753
 30
0.0
 10
752.4038209401114
 20
-622.1037927618758
 30
0.0
 10
752.47897678438
 20
-622.2213450077039
 30
0.0
 10
752.5750296409846
 20
-622.4658630123012
 30
0.0
 10
752.596241615365
 20
-622.5920941730166
 30
0.0
 10
752.596241615365
 20
-622.7092306142932
 30
0.0
  0
SPLINE
  5
22115
330
18
100
AcDbEntity
  8
01
  6
CONTINUOUS
100
AcDbSpline
210
0.0
220
0.0
230
1.0
 70
    24
 71
     3
 72
    14
 73
    10
 74
     0
 42
0.000000001
 43
0.00000001
 40
0.0
 40
0.0
 40
0.0
 40
0.0
 40
0.25
 40
0.25
 40
0.5
 40
0.5
 40
0.75
 40
0.75
 40
1.0
 40
1.0
 40
1.0
 40
1.0
 10
747.3962414218347
 20
-624.5913302924247
 30
0.0
 10
747.001440168498
 20
-624.5913302924247
 30
0.0
 10
746.5754990035499
 20
-624.5913302924247
 30
0.0
 10
745.7507495130799
 20
-624.5913302924247
 30
0.0
 10
745.3544979848923
 20
-624.5913302924247
 30
0.0
 10
744.700369818737
 20
-624.5913302924247
 30
0.0
 10
744.4447062257366
 20
-624.5913302924247
 30
0.0
 10
744.1181953210485
 20
-624.5913302924247
 30
0.0
 10
744.0462414874863
 20
-624.5913302924247
 30
0.0
 10
744.0462414218347
 20
-624.5913302924247
 30
0.0
  0
SPLINE
  5
22116
330
18
100
AcDbEntity
  8
01
  6
CONTINUOUS
100
AcDbSpline
210
0.0
220
0.0
230
1.0
 70
     8
 71
     3
 72
     8
 73
     4
 74
     0
 42
0.000000001
 43
0.00000001
 40
0.0
 40
0.0
 40
0.0
 40
0.0
 40
1.0
 40
1.0
 40
1.0
 40
1.0
 10
732.096241615365
 20
-621.591330323471
 30
0.0
 10
735.8147730732156
 20
-621.5913303178396
 30
0.0
 10
739.5333276325257
 20
-621.6041840736629
 30
0.0
 10
743.2517720030767
 20
-621.6298911302027
 30
0.0
  0
SPLINE
  5
22117
330
18
100
AcDbEntity
  8
01
  6
CONTINUOUS
100
AcDbSpline
210
0.0
220
0.0
230
1.0
 70
     8
 71
     3
 72
     8
 73
     4
 74
     0
 42
0.000000001
 43
0.00000001
 40
0.0
 40
0.0
 40
0.0
 40
0.0
 40
1.0
 40
1.0
 40
1.0
 40
1.0
 10
712.5841498892725
 20
-621.7093037218855
 30
0.0
 10
719.0878238287572
 20
-621.6306562360218
 30
0.0
 10
725.5920921598519
 20
-621.5913303323724
 30
0.0
 10
732.096241615365
 20
-621.591330323471
 30
0.0
  0
SPLINE
  5
22118
330
18
100
AcDbEntity
  8
01
  6
CONTINUOUS
100
AcDbSpline
210
0.0
220
0.0
230
1.0
 70
     8
 71
     3
 72
    14
 73
    10
 74
     0
 42
0.000000001
 43
0.00000001
 40
0.0
 40
0.0
 40
0.0
 40
0.0
 40
0.25
 40
0.25
 40
0.5
 40
0.5
 40
0.75
 40
0.75
 40
1.0
 40
1.0
 40
1.0
 40
1.0
 10
711.5962416153649
 20
-622.7092306142932
 30
0.0
 10
711.5962416153649
 20
-622.5920941730166
 30
0.0
 10
711.6174535875954
 20
-622.4658630123271
 30
0.0
 10
711.713506434464
 20
-622.2213450078476
 30
0.0
 10
711.7886622711147
 20
-622.1037927621115
 30
0.0
 10
711.9810829268646
 20
-621.9090311699468
 30
0.0
 10
712.0977178219381
 20
-621.8324594110248
 30
0.0
 10
712.3410565307564
 20
-621.7334569161311
 30
0.0
 10
712.4670219915375
 20
-621.7107201239138
 30
0.0
 10
712.5841498892725
 20
-621.7093037218855
 30
0.0
  0
LINE
  5
22119
330
18
100
AcDbEntity
  8
01
  6
CONTINUOUS
100
AcDbLine
 10
711.5962416153649
 20
-624.5913302924247
 30
0.0
 11
711.5962416153649
 21
-622.7092306142932
 31
0.0
  0
LINE
  5
2211A
330
18
100
AcDbEntity
  8
01
  6
CONTINUOUS
100
AcDbLine
 10
744.0462414218347
 20
-624.5913302924247
 30
0.0
 11
711.5962416153649
 21
-624.5913302924247
 31
0.0
  0
SPLINE
  5
2211B
330
18
100
AcDbEntity
  8
01
  6
CONTINUOUS
100
AcDbSpline
210
0.0
220
0.0
230
1.0
 70
    24
 71
     3
 72
    14
 73
    10
 74
     0
 42
0.000000001
 43
0.00000001
 40
0.0
 40
0.0
 40
0.0
 40
0.0
 40
0.2499999999999998
 40
0.2499999999999998
 40
0.4999999999999999
 40
0.4999999999999999
 40
0.7499999999999999
 40
0.7499999999999999
 40
1.0
 40
1.0
 40
1.0
 40
1.0
 10
747.3962414218347
 20
-624.5913302924247
 30
0.0
 10
747.7910426751713
 20
-624.5913302924247
 30
0.0
 10
748.2169838401194
 20
-624.5913302924247
 30
0.0
 10
749.0417333305895
 20
-624.5913302924247
 30
0.0
 10
749.437984858777
 20
-624.5913302924247
 30
0.0
 10
750.0921130249324
 20
-624.5913302924247
 30
0.0
 10
750.3477766179328
 20
-624.5913302924247
 30
0.0
 10
750.674287522621
 20
-624.5913302924247
 30
0.0
 10
750.746241356183
 20
-624.5913302924247
 30
0.0
 10
750.7462414218346
 20
-624.5913302924247
 30
0.0
  0
LINE
  5
2211C
330
18
100
AcDbEntity
  8
01
  6
CONTINUOUS
100
AcDbLine
 10
752.596241615365
 20
-624.5913302924247
 30
0.0
 11
750.7462414218346
 21
-624.5913302924247
 31
0.0
  0
LINE
  5
2211D
330
18
100
AcDbEntity
  8
01
  6
CONTINUOUS
100
AcDbLine
 10
752.596241615365
 20
-622.7092306142932
 30
0.0
 11
752.596241615365
 21
-624.5913302924247
 31
0.0
  0
SPLINE
  5
22128
330
18
100
AcDbEntity
  8
01
  6
CONTINUOUS
100
AcDbSpline
210
0.0
220
0.0
230
1.0
 70
     8
 71
     3
 72
    66
 73
    62
 74
     0
 42
0.000000001
 43
0.00000001
 40
0.0
 40
0.0
 40
0.0
 40
0.0
 40
0.0227786175924677
 40
0.044982061993746
 40
0.0666030317217794
 40
0.0876346772285196
 40
0.1080707663534947
 40
0.1279057957191263
 40
0.150504515170152
 40
0.1722556374555276
 40
0.1931545117292749
 40
0.2131980112280084
 40
0.2327253081132301
 40
0.2513636337407225
 40
0.2691138205937842
 40
0.2859973189376639
 40
0.3020343859985118
 40
0.3169658124991637
 40
0.3310882858757505
 40
0.3444033336362425
 40
0.3569112798745331
 40
0.3701889259280596
 40
0.3824137328431345
 40
0.3935822725293894
 40
0.4036892911892869
 40
0.4127057810144205
 40
0.4205761348587685
 40
0.4285907402119079
 40
0.4371027347420257
 40
0.4461113947679181
 40
0.4598418578445955
 40
0.4745862177242292
 40
0.4903478307731237
 40
0.5071330198269555
 40
0.5249515640910882
 40
0.542062509704677
 40
0.5600844362597178
 40
0.5790200443184054
 40
0.5988587293546446
 40
0.6195316324737764
 40
0.6401439401465637
 40
0.6603656903082361
 40
0.6821346361928873
 40
0.7034025983323596
 40
0.724190981601948
 40
0.744520080803882
 40
0.7644077819584085
 40
0.7874793654302803
 40
0.8099734719442008
 40
0.8319103009771942
 40
0.8451603267233563
 40
0.8594523814767945
 40
0.8747809041523048
 40
0.8911360578091561
 40
0.9065948342072943
 40
0.9228468062706905
 40
0.9398751574279431
 40
0.9576969300056809
 40
0.9763361327797849
 40
0.9958079894291472
 40
1.0
 40
1.0
 40
1.0
 40
1.0
 10
747.4038293519593
 20
-648.5042251904225
 30
0.0
 10
747.449901020914
 20
-648.5037901951586
 30
0.0
 10
747.5408810226925
 20
-648.5029311885113
 30
0.0
 10
747.675435562156
 20
-648.5016860199081
 30
0.0
 10
747.8061746646225
 20
-648.5004929549278
 30
0.0
 10
747.9329553934633
 20
-648.4993532069155
 30
0.0
 10
748.0556609144402
 20
-648.4982655630839
 30
0.0
 10
748.1809098257686
 20
-648.4971706143368
 30
0.0
 10
748.3080310526716
 20
-648.496075400105
 30
0.0
 10
748.4363236179059
 20
-648.4949869398489
 30
0.0
 10
748.5586042781924
 20
-648.4939648595445
 30
0.0
 10
748.6755195635851
 20
-648.4930017240025
 30
0.0
 10
748.7870036865736
 20
-648.4920963669794
 30
0.0
 10
748.8930177554298
 20
-648.4912474098322
 30
0.0
 10
748.9929454106526
 20
-648.4904581776158
 30
0.0
 10
749.0869687652711
 20
-648.4897250032917
 30
0.0
 10
749.174799968481
 20
-648.4890479940813
 30
0.0
 10
749.2566578461109
 20
-648.4884238375024
 30
0.0
 10
749.3327373609402
 20
-648.4878494968003
 30
0.0
 10
749.4036867143436
 20
-648.4873187973122
 30
0.0
 10
749.472389533327
 20
-648.4868092061146
 30
0.0
 10
749.5384268205698
 20
-648.4863233283089
 30
0.0
 10
749.6013933189995
 20
-648.4858634903366
 30
0.0
 10
749.6582707938994
 20
-648.4854507122287
 30
0.0
 10
749.7091494629796
 20
-648.4850831788559
 30
0.0
 10
749.7540376495061
 20
-648.4847601336311
 30
0.0
 10
749.7950363378613
 20
-648.4844646544744
 30
0.0
 10
749.8349230789877
 20
-648.4841807270224
 30
0.0
 10
749.8763579712047
 20
-648.4838896787063
 30
0.0
 10
749.9266394213166
 20
-648.4835410332986
 30
0.0
 10
749.9862570719555
 20
-648.4831342370786
 30
0.0
 10
750.0555409867899
 20
-648.4826701865671
 30
0.0
 10
750.1283263537742
 20
-648.4821916560137
 30
0.0
 10
750.2043306573916
 20
-648.4817011211964
 30
0.0
 10
750.2806626813604
 20
-648.4812174275609
 30
0.0
 10
750.3570106630123
 20
-648.4807418524325
 30
0.0
 10
750.4330050619992
 20
-648.4802761389955
 30
0.0
 10
750.5106299437091
 20
-648.4798079654898
 30
0.0
 10
750.58940016152
 20
-648.4793400584059
 30
0.0
 10
750.6676941441007
 20
-648.478882224969
 30
0.0
 10
750.7434951478335
 20
-648.4784429186906
 30
0.0
 10
750.8175353144077
 20
-648.4780174254471
 30
0.0
 10
750.8890037705376
 20
-648.4776103215851
 30
0.0
 10
750.9576373427781
 20
-648.4772226066003
 30
0.0
 10
751.0212963701586
 20
-648.4768659293962
 30
0.0
 10
751.080198069538
 20
-648.4765384709787
 30
0.0
 10
751.1378430920981
 20
-648.4762203463807
 30
0.0
 10
751.1935688933974
 20
-648.4759150285641
 30
0.0
 10
751.2467716275431
 20
-648.4756255715148
 30
0.0
 10
751.288468114712
 20
-648.4753994669833
 30
0.0
 10
751.3218553428275
 20
-648.4752199969759
 30
0.0
 10
751.3493611350066
 20
-648.4750744899142
 30
0.0
 10
751.3771060311226
 20
-648.4749294647808
 30
0.0
 10
751.4036102475022
 20
-648.4747924466272
 30
0.0
 10
751.4285905184221
 20
-648.4746642789158
 30
0.0
 10
751.4518245744912
 20
-648.4745455615315
 30
0.0
 10
751.4737849305852
 20
-648.4744332850584
 30
0.0
 10
751.4942430224079
 20
-648.4743279735704
 30
0.0
 10
751.5124970642719
 20
-648.4742322284454
 30
0.0
 10
751.5248019123783
 20
-648.4741666589317
 30
0.0
 10
751.5298687194565
 20
-648.474137672861
 30
0.0
 10
751.5558889389661
 20
-648.4739903268991
 30
0.0
  0
SPLINE
  5
22129
330
18
100
AcDbEntity
  8
01
  6
CONTINUOUS
100
AcDbSpline
210
0.0
220
0.0
230
1.0
 70
     8
 71
     3
 72
    69
 73
    65
 74
     0
 42
0.000000001
 43
0.00000001
 40
0.0
 40
0.0
 40
0.0
 40
0.0
 40
0.0145475632907566
 40
0.030579529558583
 40
0.0454188298995093
 40
0.0590652179757352
 40
0.0715191340547295
 40
0.0821700646223789
 40
0.0917628859742022
 40
0.1003055863735424
 40
0.108535245249265
 40
0.1169501538635806
 40
0.136397696319749
 40
0.1567563249281052
 40
0.1780160449455583
 40
0.2001653192074081
 40
0.2147191058466303
 40
0.229645406294666
 40
0.2449549868793503
 40
0.260654039210182
 40
0.2767497109422516
 40
0.293230168818351
 40
0.3094128394163328
 40
0.3249604532578589
 40
0.3436055262314632
 40
0.3611682302453699
 40
0.3776068380309412
 40
0.3929410586437909
 40
0.4071863749317386
 40
0.4189702021926219
 40
0.4299055296656436
 40
0.4399970697791175
 40
0.4492481883387071
 40
0.4559288769739742
 40
0.4624047958418793
 40
0.4698798036084358
 40
0.4784766211632983
 40
0.4884181259675757
 40
0.4995457458707531
 40
0.511861843008133
 40
0.5253667662899996
 40
0.5400581648934786
 40
0.55593025371521
 40
0.5729730474947526
 40
0.5891308094941489
 40
0.6061916256941466
 40
0.6241379481981473
 40
0.6429686546025295
 40
0.6626934515105775
 40
0.6829500082952586
 40
0.7041007306536468
 40
0.7261687960419995
 40
0.7491864444372209
 40
0.7694832298908039
 40
0.7904655123848534
 40
0.8121072271637841
 40
0.8343767407931233
 40
0.8572366829449599
 40
0.8806569414021332
 40
0.9033016875208538
 40
0.926526158260034
 40
0.9503601729366484
 40
0.9748382821682111
 40
1.0
 40
1.0
 40
1.0
 40
1.0
 10
743.2517720026968
 20
-648.5527695323053
 30
0.0
 10
743.2709756205944
 20
-648.5525166321753
 30
0.0
 10
743.2776063280672
 20
-648.5524294446415
 30
0.0
 10
743.2902217811943
 20
-648.5522555599902
 30
0.0
 10
743.3042722695523
 20
-648.5520592893134
 30
0.0
 10
743.3188157911741
 20
-648.5518546420282
 30
0.0
 10
743.3331058894885
 20
-648.5516535105879
 30
0.0
 10
743.3467478973333
 20
-648.5514623145401
 30
0.0
 10
743.3594389008582
 20
-648.5512856160946
 30
0.0
 10
743.371497239746
 20
-648.5511196935496
 30
0.0
 10
743.3835403115746
 20
-648.5509548394949
 30
0.0
 10
743.4017142275507
 20
-648.5507060874601
 30
0.0
 10
743.4279509543862
 20
-648.550347720358
 30
0.0
 10
743.464729999115
 20
-648.5498466657183
 30
0.0
 10
743.5070002964922
 20
-648.5492724570396
 30
0.0
 10
743.549077330403
 20
-648.548702620474
 30
0.0
 10
743.5893216315006
 20
-648.5481589966026
 30
0.0
 10
743.6260926081685
 20
-648.5476635632732
 30
0.0
 10
743.6657371240302
 20
-648.547130991297
 30
0.0
 10
743.7084098707122
 20
-648.5465595960319
 30
0.0
 10
743.7542451494826
 20
-648.5459480084768
 30
0.0
 10
743.8026822671851
 20
-648.545304199342
 30
0.0
 10
743.8526973666857
 20
-648.5446418925377
 30
0.0
 10
743.9070887927377
 20
-648.5439242717133
 30
0.0
 10
743.9652945023855
 20
-648.5431594229482
 30
0.0
 10
744.026951313586
 20
-648.5423527951908
 30
0.0
 10
744.0868677452823
 20
-648.5415723088089
 30
0.0
 10
744.1446022788891
 20
-648.5408232987119
 30
0.0
 10
744.198028764646
 20
-648.5401327739918
 30
0.0
 10
744.246968175576
 20
-648.5395022467932
 30
0.0
 10
744.2913292660122
 20
-648.5389321703193
 30
0.0
 10
744.3330511567134
 20
-648.5383971191426
 30
0.0
 10
744.3695324283935
 20
-648.5379299672742
 30
0.0
 10
744.4013919192583
 20
-648.5375222613426
 30
0.0
 10
744.4310676736094
 20
-648.5371425244954
 30
0.0
 10
744.463754493156
 20
-648.5367264150219
 30
0.0
 10
744.5018672068013
 20
-648.5362432398614
 30
0.0
 10
744.5458796052438
 20
-648.5356879358188
 30
0.0
 10
744.5961141458836
 20
-648.5350572851129
 30
0.0
 10
744.6525709258118
 20
-648.5343523151743
 30
0.0
 10
744.7154974380759
 20
-648.5335710785479
 30
0.0
 10
744.7851417476337
 20
-648.5327118177596
 30
0.0
 10
744.8617460287511
 20
-648.5317730587716
 30
0.0
 10
744.9421954287635
 20
-648.5307944105667
 30
0.0
 10
745.0260882491963
 20
-648.5297815631301
 30
0.0
 10
745.1129867838243
 20
-648.5287405520454
 30
0.0
 10
745.2060148737905
 20
-648.5276353395005
 30
0.0
 10
745.3053167684191
 20
-648.526465959421
 30
0.0
 10
745.4104376057177
 20
-648.5252397479945
 30
0.0
 10
745.5215092024255
 20
-648.5239570955285
 30
0.0
 10
745.6386725106792
 20
-648.522618446318
 30
0.0
 10
745.7628007326479
 20
-648.5212162727167
 30
0.0
 10
745.8871073602342
 20
-648.519829037774
 30
0.0
 10
746.0109245622314
 20
-648.5184640555018
 30
0.0
 10
746.1334239682647
 20
-648.5171291479722
 30
0.0
 10
746.2610519711228
 20
-648.5157550979244
 30
0.0
 10
746.3936023577538
 20
-648.5143461105168
 30
0.0
 10
746.5308393053077
 20
-648.5129068210089
 30
0.0
 10
746.6698765539811
 20
-648.5114695978563
 30
0.0
 10
746.81050799152
 20
-648.5100367378603
 30
0.0
 10
746.9526875625312
 20
-648.508609061906
 30
0.0
 10
747.0991745121609
 20
-648.507160945404
 30
0.0
 10
747.2500326118342
 20
-648.5056915697929
 30
0.0
 10
747.3520952576447
 20
-648.5047184506087
 30
0.0
 10
747.4038293519592
 20
-648.5042251904225
 30
0.0
  0
SPLINE
  5
2212A
330
18
100
AcDbEntity
  8
01
  6
CONTINUOUS
100
AcDbSpline
210
0.0
220
0.0
230
1.0
 70
     8
 71
     3
 72
    14
 73
    10
 74
     0
 42
0.000000001
 43
0.00000001
 40
0.0
 40
0.0
 40
0.0
 40
0.0
 40
0.2500000000000002
 40
0.2500000000000002
 40
0.5000000000000001
 40
0.5000000000000001
 40
0.75
 40
0.75
 40
1.0
 40
1.0
 40
1.0
 40
1.0
 10
751.6083332413232
 20
-648.4733569818569
 30
0.0
 10
751.7254611509301
 20
-648.4719405796853
 30
0.0
 10
751.851426624479
 20
-648.4492037873134
 30
0.0
 10
752.0947653579623
 20
-648.3502012921214
 30
0.0
 10
752.2114002648578
 20
-648.2736295330564
 30
0.0
 10
752.4038209401114
 20
-648.0788679406559
 30
0.0
 10
752.47897678438
 20
-647.9613156948277
 30
0.0
 10
752.5750296409846
 20
-647.7167976902305
 30
0.0
 10
752.596241615365
 20
-647.5905665295151
 30
0.0
 10
752.596241615365
 20
-647.4734300882384
 30
0.0
  0
SPLINE
  5
2212B
330
18
100
AcDbEntity
  8
01
  6
CONTINUOUS
100
AcDbSpline
210
0.0
220
0.0
230
1.0
 70
    24
 71
     3
 72
    14
 73
    10
 74
     0
 42
0.000000001
 43
0.00000001
 40
0.0
 40
0.0
 40
0.0
 40
0.0
 40
0.25
 40
0.25
 40
0.5
 40
0.5
 40
0.75
 40
0.75
 40
1.0
 40
1.0
 40
1.0
 40
1.0
 10
747.3962414218347
 20
-645.5913304101069
 30
0.0
 10
747.001440168498
 20
-645.5913304101069
 30
0.0
 10
746.5754990035499
 20
-645.5913304101069
 30
0.0
 10
745.7507495130799
 20
-645.5913304101069
 30
0.0
 10
745.3544979848923
 20
-645.5913304101069
 30
0.0
 10
744.700369818737
 20
-645.5913304101069
 30
0.0
 10
744.4447062257366
 20
-645.5913304101069
 30
0.0
 10
744.1181953210485
 20
-645.5913304101069
 30
0.0
 10
744.0462414874863
 20
-645.5913304101069
 30
0.0
 10
744.0462414218347
 20
-645.5913304101069
 30
0.0
  0
SPLINE
  5
2212C
330
18
100
AcDbEntity
  8
01
  6
CONTINUOUS
100
AcDbSpline
210
0.0
220
0.0
230
1.0
 70
     8
 71
     3
 72
     8
 73
     4
 74
     0
 42
0.000000001
 43
0.00000001
 40
0.0
 40
0.0
 40
0.0
 40
0.0
 40
1.0
 40
1.0
 40
1.0
 40
1.0
 10
732.096241615365
 20
-648.5913303790607
 30
0.0
 10
735.8147730732156
 20
-648.591330384692
 30
0.0
 10
739.5333276325257
 20
-648.5784766288688
 30
0.0
 10
743.2517720030767
 20
-648.5527695723289
 30
0.0
  0
SPLINE
  5
2212D
330
18
100
AcDbEntity
  8
01
  6
CONTINUOUS
100
AcDbSpline
210
0.0
220
0.0
230
1.0
 70
     8
 71
     3
 72
     8
 73
     4
 74
     0
 42
0.000000001
 43
0.00000001
 40
0.0
 40
0.0
 40
0.0
 40
0.0
 40
1.0
 40
1.0
 40
1.0
 40
1.0
 10
712.5841498892725
 20
-648.4733569806461
 30
0.0
 10
719.0878238287572
 20
-648.5520044665099
 30
0.0
 10
725.5920921598519
 20
-648.5913303701592
 30
0.0
 10
732.096241615365
 20
-648.5913303790607
 30
0.0
  0
SPLINE
  5
2212E
330
18
100
AcDbEntity
  8
01
  6
CONTINUOUS
100
AcDbSpline
210
0.0
220
0.0
230
1.0
 70
     8
 71
     3
 72
    14
 73
    10
 74
     0
 42
0.000000001
 43
0.00000001
 40
0.0
 40
0.0
 40
0.0
 40
0.0
 40
0.25
 40
0.25
 40
0.5
 40
0.5
 40
0.75
 40
0.75
 40
1.0
 40
1.0
 40
1.0
 40
1.0
 10
711.5962416153649
 20
-647.4734300882384
 30
0.0
 10
711.5962416153649
 20
-647.5905665295151
 30
0.0
 10
711.6174535875954
 20
-647.7167976902045
 30
0.0
 10
711.713506434464
 20
-647.961315694684
 30
0.0
 10
711.7886622711147
 20
-648.0788679404201
 30
0.0
 10
711.9810829268646
 20
-648.2736295325848
 30
0.0
 10
712.0977178219381
 20
-648.3502012915068
 30
0.0
 10
712.3410565307564
 20
-648.4492037864005
 30
0.0
 10
712.4670219915375
 20
-648.4719405786178
 30
0.0
 10
712.5841498892725
 20
-648.4733569806461
 30
0.0
  0
LINE
  5
2212F
330
18
100
AcDbEntity
  8
01
  6
CONTINUOUS
100
AcDbLine
 10
711.5962416153649
 20
-645.5913304101069
 30
0.0
 11
711.5962416153649
 21
-647.4734300882384
 31
0.0
  0
LINE
  5
22130
330
18
100
AcDbEntity
  8
01
  6
CONTINUOUS
100
AcDbLine
 10
744.0462414218347
 20
-645.5913304101069
 30
0.0
 11
711.5962416153649
 21
-645.5913304101069
 31
0.0
  0
SPLINE
  5
22131
330
18
100
AcDbEntity
  8
01
  6
CONTINUOUS
100
AcDbSpline
210
0.0
220
0.0
230
1.0
 70
    24
 71
     3
 72
    14
 73
    10
 74
     0
 42
0.000000001
 43
0.00000001
 40
0.0
 40
0.0
 40
0.0
 40
0.0
 40
0.2499999999999998
 40
0.2499999999999998
 40
0.4999999999999999
 40
0.4999999999999999
 40
0.7499999999999999
 40
0.7499999999999999
 40
1.0
 40
1.0
 40
1.0
 40
1.0
 10
747.3962414218347
 20
-645.5913304101069
 30
0.0
 10
747.7910426751713
 20
-645.5913304101069
 30
0.0
 10
748.2169838401194
 20
-645.5913304101069
 30
0.0
 10
749.0417333305895
 20
-645.5913304101069
 30
0.0
 10
749.437984858777
 20
-645.5913304101069
 30
0.0
 10
750.0921130249324
 20
-645.5913304101069
 30
0.0
 10
750.3477766179328
 20
-645.5913304101069
 30
0.0
 10
750.674287522621
 20
-645.5913304101069
 30
0.0
 10
750.746241356183
 20
-645.5913304101069
 30
0.0
 10
750.7462414218346
 20
-645.5913304101069
 30
0.0
  0
LINE
  5
22132
330
18
100
AcDbEntity
  8
01
  6
CONTINUOUS
100
AcDbLine
 10
752.596241615365
 20
-645.5913304101069
 30
0.0
 11
750.7462414218346
 21
-645.5913304101069
 31
0.0
  0
LINE
  5
22133
330
18
100
AcDbEntity
  8
01
  6
CONTINUOUS
100
AcDbLine
 10
752.596241615365
 20
-647.4734300882384
 30
0.0
 11
752.596241615365
 21
-645.5913304101069
 31
0.0
  0
LINE
  5
22181
330
18
100
AcDbEntity
  8
1PHANTOM
100
AcDbLine
 10
735.3962414653649
 20
-645.7913303512659
 30
0.0
 11
734.396241765365
 21
-644.7913303512659
 31
0.0
  0
LINE
  5
22182
330
18
100
AcDbEntity
  8
1PHANTOM
100
AcDbLine
 10
738.6962416153649
 20
-645.7913303512659
 30
0.0
 11
738.6962416153649
 21
-644.7913303512659
 31
0.0
  0
LINE
  5
22183
330
18
100
AcDbEntity
  8
1PHANTOM
100
AcDbLine
 10
738.6962416153649
 20
-644.7913303512659
 30
0.0
 11
731.096241615365
 21
-644.7913303512659
 31
0.0
  0
LINE
  5
22184
330
18
100
AcDbEntity
  8
1PHANTOM
100
AcDbLine
 10
738.6962416153649
 20
-645.7913303512659
 30
0.0
 11
731.096241615365
 21
-645.7913303512659
 31
0.0
  0
LINE
  5
22185
330
18
100
AcDbEntity
  8
1PHANTOM
100
AcDbLine
 10
731.096241615365
 20
-645.7913303512659
 30
0.0
 11
731.096241615365
 21
-644.7913303512659
 31
0.0
  0
LINE
  5
22186
330
18
100
AcDbEntity
  8
1PHANTOM
100
AcDbLine
 10
732.896288151263
 20
-636.1413268612359
 30
0.0
 11
732.8962881512631
 21
-645.7913303512659
 31
0.0
  0
LINE
  5
22187
330
18
100
AcDbEntity
  8
1PHANTOM
100
AcDbLine
 10
731.396241615365
 20
-645.7913222074836
 30
0.0
 11
738.3962416153649
 21
-645.7913384950481
 31
0.0
  0
LINE
  5
22188
330
18
100
AcDbEntity
  8
1PHANTOM
100
AcDbLine
 10
731.396241615365
 20
-645.7913222074836
 30
0.0
 11
731.3962416153649
 21
-646.891325697679
 31
0.0
  0
ARC
  5
22189
330
18
100
AcDbEntity
  8
1PHANTOM
100
AcDbCircle
 10
732.8962416153649
 20
-646.891325697679
 30
0.0
 40
1.5
100
AcDbArc
 50
180.0
 51
269.9998666844662
  0
LINE
  5
2218A
330
18
100
AcDbEntity
  8
1PHANTOM
100
AcDbLine
 10
738.3962416153649
 20
-645.7913384950481
 30
0.0
 11
738.3962416153649
 21
-646.8913350048587
 31
0.0
  0
LINE
  5
2218B
330
18
100
AcDbEntity
  8
1PHANTOM
100
AcDbLine
 10
732.8962381251725
 20
-648.3913256976749
 30
0.0
 11
736.8962381251725
 21
-648.3913350048546
 31
0.0
  0
ARC
  5
2218C
330
18
100
AcDbEntity
  8
1PHANTOM
100
AcDbCircle
 10
736.8962416153649
 20
-646.8913350048587
 30
0.0
 40
1.5
100
AcDbArc
 50
269.9998666844662
 51
0.0
  0
LINE
  5
2218D
330
18
100
AcDbEntity
  8
1CENTER
100
AcDbLine
 10
734.896288151263
 20
-634.7913268612359
 30
0.0
 11
734.896252946014
 21
-649.3913268611934
 31
0.0
  0
LINE
  5
2218E
330
18
100
AcDbEntity
  8
1PHANTOM
100
AcDbLine
 10
733.246288151263
 20
-635.7913268612359
 30
0.0
 11
736.546288151263
 21
-635.7913268612359
 31
0.0
  0
LINE
  5
2218F
330
18
100
AcDbEntity
  8
1DIM
100
AcDbLine
 10
736.546288151263
 20
-635.7913268612359
 30
0.0
 11
736.5462881512631
 21
-645.7913341905858
 31
0.0
  0
LINE
  5
22190
330
18
100
AcDbEntity
  8
1DIM
100
AcDbLine
 10
733.246288151263
 20
-635.7913268612359
 30
0.0
 11
733.2462881512631
 21
-645.7913303512659
 31
0.0
  0
LINE
  5
22191
330
18
100
AcDbEntity
  8
1DIM
100
AcDbLine
 10
732.8962830824553
 20
-636.1413268612727
 30
0.0
 11
736.8962830824553
 21
-636.1413268612727
 31
0.0
  0
LINE
  5
22192
330
18
100
AcDbEntity
  8
1PHANTOM
100
AcDbLine
 10
733.246288151263
 20
-635.7913268612359
 30
0.0
 11
732.8962881512263
 21
-636.1413268612727
 31
0.0
  0
LINE
  5
22193
330
18
100
AcDbEntity
  8
1PHANTOM
100
AcDbLine
 10
736.546288151263
 20
-635.7913268612359
 30
0.0
 11
736.896288151263
 21
-636.1413268612359
 31
0.0
  0
LINE
  5
22194
330
18
100
AcDbEntity
  8
1PHANTOM
100
AcDbLine
 10
736.896288151263
 20
-636.1413268612359
 30
0.0
 11
736.8962881512631
 21
-645.791335004964
 31
0.0
  0
LINE
  5
2224E
330
18
100
AcDbEntity
  8
1PHANTOM
 48
0.5
100
AcDbLine
 10
748.3962416153654
 20
-627.5913303481615
 30
0.0
 11
752.8962416153649
 21
-627.5913303481615
 31
0.0
  0
SPLINE
  5
22250
330
18
100
AcDbEntity
  8
1PHANTOM
 48
0.5
100
AcDbSpline
210
0.0
220
0.0
230
1.0
 70
     8
 71
     3
 72
    14
 73
    10
 74
     0
 42
0.000000001
 43
0.00000001
 40
0.0
 40
0.0
 40
0.0
 40
0.0
 40
0.25
 40
0.25
 40
0.5
 40
0.5
 40
0.75
 40
0.75
 40
1.0
 40
1.0
 40
1.0
 40
1.0
 10
747.8962416153654
 20
-637.5913303481615
 30
0.0
 10
747.8962416153654
 20
-637.6502559132604
 30
0.0
 10
747.8855022459586
 20
-637.7138292277505
 30
0.0
 10
747.8367692858344
 20
-637.8369261781343
 30
0.0
 10
747.7986105424275
 20
-637.8960682022858
 30
0.0
 10
747.7009794694898
 20
-637.9936992752237
 30
0.0
 10
747.6418374453383
 20
-638.0318580186306
 30
0.0
 10
747.5187404949543
 20
-638.0805909787547
 30
0.0
 10
747.4551671804643
 20
-638.0913303481615
 30
0.0
 10
747.3962416153654
 20
-638.0913303481615
 30
0.0
  0
SPLINE
  5
22252
330
18
100
AcDbEntity
  8
1PHANTOM
 48
0.5
100
AcDbSpline
210
0.0
220
0.0
230
1.0
 70
     8
 71
     3
 72
    14
 73
    10
 74
     0
 42
0.000000001
 43
0.00000001
 40
0.0
 40
0.0
 40
0.0
 40
0.0
 40
0.25
 40
0.25
 40
0.5
 40
0.5
 40
0.75
 40
0.75
 40
1.0
 40
1.0
 40
1.0
 40
1.0
 10
748.3962416153654
 20
-627.5913303481615
 30
0.0
 10
748.3373160502665
 20
-627.5913303481615
 30
0.0
 10
748.2737427357763
 20
-627.6020697175682
 30
0.0
 10
748.1506457853925
 20
-627.6508026776922
 30
0.0
 10
748.091503761241
 20
-627.6889614210993
 30
0.0
 10
747.9938726883031
 20
-627.7865924940371
 30
0.0
 10
747.9557139448962
 20
-627.8457345181886
 30
0.0
 10
747.906980984772
 20
-627.9688314685725
 30
0.0
 10
747.8962416153654
 20
-628.0324047830626
 30
0.0
 10
747.8962416153654
 20
-628.0913303481615
 30
0.0
  0
SPLINE
  5
22254
330
18
100
AcDbEntity
  8
1PHANTOM
 48
0.5
100
AcDbSpline
210
0.0
220
0.0
230
1.0
 70
     8
 71
     3
 72
    14
 73
    10
 74
     0
 42
0.000000001
 43
0.00000001
 40
0.0
 40
0.0
 40
0.0
 40
0.0
 40
0.2499999999999994
 40
0.2499999999999994
 40
0.4999999999999989
 40
0.4999999999999989
 40
0.7499999999999994
 40
0.7499999999999994
 40
1.0
 40
1.0
 40
1.0
 40
1.0
 10
730.8962416153654
 20
-643.0913303481615
 30
0.0
 10
730.7783904851676
 20
-643.0913303481615
 30
0.0
 10
730.6512438561874
 20
-643.0698516093479
 30
0.0
 10
730.4050499554196
 20
-642.9723856890997
 30
0.0
 10
730.2867659071165
 20
-642.8960682022858
 30
0.0
 10
730.091503761241
 20
-642.7008060564102
 30
0.0
 10
730.0151862744269
 20
-642.5825220081072
 30
0.0
 10
729.9177203541788
 20
-642.3363281073395
 30
0.0
 10
729.8962416153654
 20
-642.2091814783591
 30
0.0
 10
729.8962416153654
 20
-642.0913303481615
 30
0.0
  0
SPLINE
  5
22255
330
18
100
AcDbEntity
  8
1PHANTOM
 48
0.5
100
AcDbSpline
210
0.0
220
0.0
230
1.0
 70
     8
 71
     3
 72
    14
 73
    10
 74
     0
 42
0.000000001
 43
0.00000001
 40
0.0
 40
0.0
 40
0.0
 40
0.0
 40
0.25
 40
0.25
 40
0.5
 40
0.5
 40
0.75
 40
0.75
 40
1.0
 40
1.0
 40
1.0
 40
1.0
 10
730.3962416153654
 20
-638.0913303481615
 30
0.0
 10
730.3373160502665
 20
-638.0913303481615
 30
0.0
 10
730.2737427357763
 20
-638.1020697175682
 30
0.0
 10
730.1506457853925
 20
-638.1508026776922
 30
0.0
 10
730.091503761241
 20
-638.1889614210993
 30
0.0
 10
729.9938726883031
 20
-638.2865924940371
 30
0.0
 10
729.9557139448962
 20
-638.3457345181886
 30
0.0
 10
729.9069809847721
 20
-638.4688314685725
 30
0.0
 10
729.8962416153654
 20
-638.5324047830626
 30
0.0
 10
729.8962416153654
 20
-638.5913303481615
 30
0.0
  0
LINE
  5
22257
330
18
100
AcDbEntity
  8
1PHANTOM
 48
0.5
100
AcDbLine
 10
729.8962416153654
 20
-642.0913303481615
 30
0.0
 11
729.8962416153654
 21
-638.5913303481615
 31
0.0
  0
LINE
  5
2232B
330
18
100
AcDbEntity
  8
01
100
AcDbLine
 10
746.8962416153654
 20
-633.5913301981615
 30
0.0
 11
747.8962416153654
 21
-632.5913304981615
 31
0.0
  0
LINE
  5
2232C
330
18
100
AcDbEntity
  8
01
100
AcDbLine
 10
746.8962416153654
 20
-636.8913303481614
 30
0.0
 11
747.8962416153654
 21
-636.8913303481614
 31
0.0
  0
LINE
  5
2232D
330
18
100
AcDbEntity
  8
01
100
AcDbLine
 10
747.8962416153654
 20
-636.8913303481614
 30
0.0
 11
747.8962416153654
 21
-629.2913303481615
 31
0.0
  0
LINE
  5
2232E
330
18
100
AcDbEntity
  8
01
100
AcDbLine
 10
746.8962416153654
 20
-636.8913303481614
 30
0.0
 11
746.8962416153654
 21
-629.2913303481615
 31
0.0
  0
LINE
  5
2232F
330
18
100
AcDbEntity
  8
01
100
AcDbLine
 10
746.8962416153654
 20
-629.2913303481615
 30
0.0
 11
747.8962416153654
 21
-629.2913303481615
 31
0.0
  0
LINE
  5
22332
330
18
100
AcDbEntity
  8
1PHANTOM
 48
0.5
100
AcDbLine
 10
747.8962416153654
 20
-628.0913303481616
 30
0.0
 11
747.8962416153654
 21
-637.5913303481615
 31
0.0
  0
LINE
  5
22333
330
18
100
AcDbEntity
  8
1PHANTOM
 48
0.5
100
AcDbLine
 10
752.8962416153649
 20
-627.5913303481615
 30
0.0
 11
752.8962416153649
 21
-643.0913303481615
 31
0.0
  0
LINE
  5
22334
330
18
100
AcDbEntity
  8
1PHANTOM
 48
0.5
100
AcDbLine
 10
730.8962416153654
 20
-643.0913303481615
 30
0.0
 11
752.8962416153649
 21
-643.0913303481615
 31
0.0
  0
LINE
  5
22335
330
18
100
AcDbEntity
  8
1PHANTOM
 48
0.5
100
AcDbLine
 10
730.3962416153654
 20
-638.0913303481615
 30
0.0
 11
747.3962416153653
 21
-638.0913303481615
 31
0.0
  0
TEXT
  5
2270C
330
18
100
AcDbEntity
  8
01
  6
CONTINUOUS
100
AcDbText
 10
759.6337571261874
 20
-590.6602613041472
 30
0.0
 40
3.5
  1
PB
100
AcDbText
  0
TEXT
  5
2270D
330
18
100
AcDbEntity
  8
01
  6
CONTINUOUS
100
AcDbText
 10
772.7691752713527
 20
-590.6602613041472
 30
0.0
 40
3.5
  1
合板9mm以上
100
AcDbText
  0
LINE
  5
2270E
330
18
100
AcDbEntity
  8
01
  6
CONTINUOUS
100
AcDbLine
 10
164.4662384341557
 20
-547.2913295995477
 30
0.0
 11
164.509816308146
 21
-547.2913296118729
 31
0.0
  0
LINE
  5
2270F
330
18
100
AcDbEntity
  8
01
  6
CONTINUOUS
100
AcDbLine
 10
164.509816308146
 20
-547.2913296118729
 30
0.0
 11
164.5530625282251
 21
-547.2913296251359
 31
0.0
  0
LINE
  5
22710
330
18
100
AcDbEntity
  8
01
  6
CONTINUOUS
100
AcDbLine
 10
164.5530625282251
 20
-547.2913296251359
 30
0.0
 11
164.5956479644994
 21
-547.2913296392351
 31
0.0
  0
LINE
  5
22711
330
18
100
AcDbEntity
  8
01
  6
CONTINUOUS
100
AcDbLine
 10
164.5956479644994
 20
-547.2913296392351
 30
0.0
 11
164.6372485160396
 21
-547.2913296540637
 31
0.0
  0
LINE
  5
22712
330
18
100
AcDbEntity
  8
01
  6
CONTINUOUS
100
AcDbLine
 10
164.6372485160396
 20
-547.2913296540637
 30
0.0
 11
164.6775475774849
 21
-547.2913296695085
 31
0.0
  0
LINE
  5
22713
330
18
100
AcDbEntity
  8
01
  6
CONTINUOUS
100
AcDbLine
 10
164.6775475774849
 20
-547.2913296695085
 30
0.0
 11
164.7162384486016
 21
-547.2913296854522
 31
0.0
  0
LINE
  5
22714
330
18
100
AcDbEntity
  8
01
  6
CONTINUOUS
100
AcDbLine
 10
164.7162384486016
 20
-547.2913296854522
 30
0.0
 11
164.7530266684571
 21
-547.2913297017733
 31
0.0
  0
LINE
  5
22715
330
18
100
AcDbEntity
  8
01
  6
CONTINUOUS
100
AcDbLine
 10
164.7530266684571
 20
-547.2913297017733
 30
0.0
 11
164.7876322564456
 21
-547.2913297183477
 31
0.0
  0
LINE
  5
22716
330
18
100
AcDbEntity
  8
01
  6
CONTINUOUS
100
AcDbLine
 10
164.7876322564456
 20
-547.2913297183477
 30
0.0
 11
164.8197918431102
 21
-547.2913297350492
 31
0.0
  0
LINE
  5
22717
330
18
100
AcDbEntity
  8
01
  6
CONTINUOUS
100
AcDbLine
 10
164.8197918431102
 20
-547.2913297350492
 30
0.0
 11
164.8492606745437
 21
-547.2913297517505
 31
0.0
  0
LINE
  5
22718
330
18
100
AcDbEntity
  8
01
  6
CONTINUOUS
100
AcDbLine
 10
164.8492606745437
 20
-547.2913297517505
 30
0.0
 11
164.8758144751135
 21
-547.2913297683249
 31
0.0
  0
LINE
  5
22719
330
18
100
AcDbEntity
  8
01
  6
CONTINUOUS
100
AcDbLine
 10
164.8758144751135
 20
-547.2913297683249
 30
0.0
 11
164.8992511543356
 21
-547.2913297846462
 31
0.0
  0
LINE
  5
2271A
330
18
100
AcDbEntity
  8
01
  6
CONTINUOUS
100
AcDbLine
 10
164.8992511543356
 20
-547.2913297846462
 30
0.0
 11
164.9193923449044
 21
-547.2913298005899
 31
0.0
  0
LINE
  5
2271B
330
18
100
AcDbEntity
  8
01
  6
CONTINUOUS
100
AcDbLine
 10
164.9193923449044
 20
-547.2913298005899
 30
0.0
 11
164.9360847601767
 21
-547.2913298160347
 31
0.0
  0
LINE
  5
2271C
330
18
100
AcDbEntity
  8
01
  6
CONTINUOUS
100
AcDbLine
 10
164.9360847601767
 20
-547.2913298160347
 30
0.0
 11
164.9492013607754
 21
-547.2913298308631
 31
0.0
  0
LINE
  5
2271D
330
18
100
AcDbEntity
  8
01
  6
CONTINUOUS
100
AcDbLine
 10
164.9492013607754
 20
-547.2913298308631
 30
0.0
 11
164.9586423214359
 21
-547.2913298449625
 31
0.0
  0
LINE
  5
2271E
330
18
100
AcDbEntity
  8
01
  6
CONTINUOUS
100
AcDbLine
 10
164.9586423214359
 20
-547.2913298449625
 30
0.0
 11
164.9643357907369
 21
-547.2913298582253
 31
0.0
  0
LINE
  5
2271F
330
18
100
AcDbEntity
  8
01
  6
CONTINUOUS
100
AcDbLine
 10
164.9643357907369
 20
-547.2913298582253
 30
0.0
 11
164.9662384341557
 21
-547.2913298705507
 31
0.0
  0
LINE
  5
22720
330
18
100
AcDbEntity
  8
01
  6
CONTINUOUS
100
AcDbLine
 10
640.9662392175795
 20
-547.2913295995477
 30
0.0
 11
640.9226613435892
 21
-547.2913296118729
 31
0.0
  0
LINE
  5
22721
330
18
100
AcDbEntity
  8
01
  6
CONTINUOUS
100
AcDbLine
 10
640.9226613435892
 20
-547.2913296118729
 30
0.0
 11
640.8794151235101
 21
-547.2913296251359
 31
0.0
  0
LINE
  5
22722
330
18
100
AcDbEntity
  8
01
  6
CONTINUOUS
100
AcDbLine
 10
640.8794151235101
 20
-547.2913296251359
 30
0.0
 11
640.8368296872358
 21
-547.2913296392351
 31
0.0
  0
LINE
  5
22723
330
18
100
AcDbEntity
  8
01
  6
CONTINUOUS
100
AcDbLine
 10
640.8368296872358
 20
-547.2913296392351
 30
0.0
 11
640.7952291356955
 21
-547.2913296540637
 31
0.0
  0
LINE
  5
22724
330
18
100
AcDbEntity
  8
01
  6
CONTINUOUS
100
AcDbLine
 10
640.7952291356955
 20
-547.2913296540637
 30
0.0
 11
640.7549300742503
 21
-547.2913296695085
 31
0.0
  0
LINE
  5
22725
330
18
100
AcDbEntity
  8
01
  6
CONTINUOUS
100
AcDbLine
 10
640.7549300742503
 20
-547.2913296695085
 30
0.0
 11
640.7162392031336
 21
-547.2913296854522
 31
0.0
  0
LINE
  5
22726
330
18
100
AcDbEntity
  8
01
  6
CONTINUOUS
100
AcDbLine
 10
640.7162392031336
 20
-547.2913296854522
 30
0.0
 11
640.6794509832781
 21
-547.2913297017733
 31
0.0
  0
LINE
  5
22727
330
18
100
AcDbEntity
  8
01
  6
CONTINUOUS
100
AcDbLine
 10
640.6794509832781
 20
-547.2913297017733
 30
0.0
 11
640.6448453952896
 21
-547.2913297183477
 31
0.0
  0
LINE
  5
22728
330
18
100
AcDbEntity
  8
01
  6
CONTINUOUS
100
AcDbLine
 10
640.6448453952896
 20
-547.2913297183477
 30
0.0
 11
640.612685808625
 21
-547.2913297350492
 31
0.0
  0
LINE
  5
22729
330
18
100
AcDbEntity
  8
01
  6
CONTINUOUS
100
AcDbLine
 10
640.612685808625
 20
-547.2913297350492
 30
0.0
 11
640.5832169771916
 21
-547.2913297517505
 31
0.0
  0
LINE
  5
2272A
330
18
100
AcDbEntity
  8
01
  6
CONTINUOUS
100
AcDbLine
 10
640.5832169771916
 20
-547.2913297517505
 30
0.0
 11
640.5566631766217
 21
-547.2913297683249
 31
0.0
  0
LINE
  5
2272B
330
18
100
AcDbEntity
  8
01
  6
CONTINUOUS
100
AcDbLine
 10
640.5566631766217
 20
-547.2913297683249
 30
0.0
 11
640.5332264973996
 21
-547.2913297846462
 31
0.0
  0
LINE
  5
2272C
330
18
100
AcDbEntity
  8
01
  6
CONTINUOUS
100
AcDbLine
 10
640.5332264973996
 20
-547.2913297846462
 30
0.0
 11
640.5130853068308
 21
-547.2913298005899
 31
0.0
  0
LINE
  5
2272D
330
18
100
AcDbEntity
  8
01
  6
CONTINUOUS
100
AcDbLine
 10
640.5130853068308
 20
-547.2913298005899
 30
0.0
 11
640.4963928915585
 21
-547.2913298160347
 31
0.0
  0
LINE
  5
2272E
330
18
100
AcDbEntity
  8
01
  6
CONTINUOUS
100
AcDbLine
 10
640.4963928915585
 20
-547.2913298160347
 30
0.0
 11
640.4832762909598
 21
-547.2913298308631
 31
0.0
  0
LINE
  5
2272F
330
18
100
AcDbEntity
  8
01
  6
CONTINUOUS
100
AcDbLine
 10
640.4832762909598
 20
-547.2913298308631
 30
0.0
 11
640.4738353302993
 21
-547.2913298449625
 31
0.0
  0
LINE
  5
22730
330
18
100
AcDbEntity
  8
01
  6
CONTINUOUS
100
AcDbLine
 10
640.4738353302993
 20
-547.2913298449625
 30
0.0
 11
640.4681418609982
 21
-547.2913298582253
 31
0.0
  0
LINE
  5
22731
330
18
100
AcDbEntity
  8
01
  6
CONTINUOUS
100
AcDbLine
 10
640.4681418609982
 20
-547.2913298582253
 30
0.0
 11
640.4662392175795
 21
-547.2913298705507
 31
0.0
  0
LINE
  5
22732
330
18
100
AcDbEntity
  8
01
  6
CONTINUOUS
100
AcDbLine
 10
751.5558889389661
 20
-621.7086703756326
 30
0.0
 11
751.5852577508224
 21
-621.7090248388512
 31
0.0
  0
LINE
  5
22733
330
18
100
AcDbEntity
  8
01
  6
CONTINUOUS
100
AcDbLine
 10
751.5852577508224
 20
-621.7090248388512
 30
0.0
 11
751.6083332413232
 21
-621.7093037206747
 31
0.0
  0
LINE
  5
22734
330
18
100
AcDbEntity
  8
01
  6
CONTINUOUS
100
AcDbLine
 10
751.5558889389661
 20
-648.4739903268991
 30
0.0
 11
751.5852577508224
 21
-648.4736358636804
 31
0.0
  0
LINE
  5
22735
330
18
100
AcDbEntity
  8
01
  6
CONTINUOUS
100
AcDbLine
 10
751.5852577508224
 20
-648.4736358636804
 30
0.0
 11
751.6083332413232
 21
-648.4733569818569
 31
0.0
  0
LINE
  5
22736
330
18
100
AcDbEntity
  8
1DIM1
100
AcDbLine
 10
177.716237776826
 20
-633.0913303512658
 30
0.0
 11
177.716237776826
 21
-689.3213303512676
 31
0.0
1001
ACAD
1000
DSTYLE
1002
{
1070
    40
1040
3.0
1070
    45
1040
0.5
1002
}
  0
LINE
  5
22737
330
18
100
AcDbEntity
  8
1DIM1
100
AcDbLine
 10
627.7162398749093
 20
-633.0913303512658
 30
0.0
 11
627.7162398749093
 21
-689.3213303512676
 31
0.0
1001
ACAD
1000
DSTYLE
1002
{
1070
    40
1040
3.0
1070
    45
1040
0.5
1002
}
  0
LINE
  5
22738
330
18
100
AcDbEntity
  8
1DIM1
100
AcDbLine
 10
183.716237776826
 20
-686.3213303512676
 30
0.0
 11
621.7162398749093
 21
-686.3213303512676
 31
0.0
1001
ACAD
1000
DSTYLE
1002
{
1070
    40
1040
3.0
1070
    45
1040
0.5
1002
}
  0
LINE
  5
2273C
330
18
100
AcDbEntity
  8
1DIM
100
AcDbLine
 10
583.1306799763473
 20
-645.0913301277486
 30
0.0
 11
592.9458279968278
 21
-645.0913301277486
 31
0.0
1001
ACAD
1000
DSTYLE
1002
{
1070
    45
1040
0.5
1002
}
  0
LINE
  5
2273D
330
18
100
AcDbEntity
  8
1DIM
100
AcDbLine
 10
583.1306799763473
 20
-625.0913305747832
 30
0.0
 11
592.9458279968278
 21
-625.0913305747832
 31
0.0
1001
ACAD
1000
DSTYLE
1002
{
1070
    45
1040
0.5
1002
}
  0
LINE
  5
2273E
330
18
100
AcDbEntity
  8
1DIM
100
AcDbLine
 10
591.9458279968278
 20
-625.0913305747832
 30
0.0
 11
591.9458279968278
 21
-616.0246639081164
 31
0.0
1001
ACAD
1000
DSTYLE
1002
{
1070
    45
1040
0.5
1002
}
  0
LINE
  5
2273F
330
18
100
AcDbEntity
  8
1DIM
100
AcDbLine
 10
591.9458279968278
 20
-643.0913301277486
 30
0.0
 11
591.9458279968278
 21
-627.0913305747832
 31
0.0
1001
ACAD
1000
DSTYLE
1002
{
1070
    45
1040
0.5
1002
}
  0
LINE
  5
22743
330
18
100
AcDbEntity
  8
1DIM
100
AcDbLine
 10
582.4188957253151
 20
-592.2913318774017
 30
0.0
 11
592.9458279968279
 21
-592.2913318774017
 31
0.0
1001
ACAD
1000
DSTYLE
1002
{
1070
    45
1040
0.5
1002
}
  0
LINE
  5
22744
330
18
100
AcDbEntity
  8
1DIM
100
AcDbLine
 10
582.4188957253151
 20
-582.291330238274
 30
0.0
 11
592.9458279968279
 21
-582.291330238274
 31
0.0
1001
ACAD
1000
DSTYLE
1002
{
1070
    45
1040
0.5
1002
}
  0
LINE
  5
22745
330
18
100
AcDbEntity
  8
1DIM
100
AcDbLine
 10
591.9458279968279
 20
-582.291330238274
 30
0.0
 11
591.9458279968279
 21
-573.724663571607
 31
0.0
1001
ACAD
1000
DSTYLE
1002
{
1070
    45
1040
0.5
1002
}
  0
LINE
  5
22746
330
18
100
AcDbEntity
  8
1DIM
100
AcDbLine
 10
591.9458279968279
 20
-590.2913318774017
 30
0.0
 11
591.9458279968279
 21
-584.291330238274
 31
0.0
1001
ACAD
1000
DSTYLE
1002
{
1070
    45
1040
0.5
1002
}
  0
LINE
  5
2274A
330
18
100
AcDbEntity
  8
1DIM
100
AcDbLine
 10
707.3962410768643
 20
-644.5913304101081
 30
0.0
 11
707.3962410768643
 21
-680.4731828948819
 31
0.0
1001
ACAD
1000
DSTYLE
1002
{
1070
    45
1040
0.5
1002
}
  0
LINE
  5
2274B
330
18
100
AcDbEntity
  8
1DIM
100
AcDbLine
 10
752.8962416153649
 20
-672.3195039365482
 30
0.0
 11
752.8962416153649
 21
-680.4731828948819
 31
0.0
1001
ACAD
1000
DSTYLE
1002
{
1070
    45
1040
0.5
1002
}
  0
LINE
  5
2274C
330
18
100
AcDbEntity
  8
1DIM
100
AcDbLine
 10
709.3962410768643
 20
-679.4731828948819
 30
0.0
 11
750.8962416153649
 21
-679.4731828948819
 31
0.0
1001
ACAD
1000
DSTYLE
1002
{
1070
    45
1040
0.5
1002
}
  0
LINE
  5
22750
330
18
100
AcDbEntity
  8
1DIM
100
AcDbLine
 10
752.8962416153649
 20
-672.3195039365482
 30
0.0
 11
752.8962416153649
 21
-668.0606508201072
 31
0.0
1001
ACAD
1000
DSTYLE
1002
{
1070
    45
1040
0.5
1002
}
  0
LINE
  5
22751
330
18
100
AcDbEntity
  8
1DIM
100
AcDbLine
 10
734.896252946014
 20
-649.3913268611934
 30
0.0
 11
734.896252946014
 21
-670.0606508201072
 31
0.0
1001
ACAD
1000
DSTYLE
1002
{
1070
    45
1040
0.5
1002
}
  0
LINE
  5
22752
330
18
100
AcDbEntity
  8
1DIM
100
AcDbLine
 10
750.8962416153649
 20
-669.0606508201072
 30
0.0
 11
736.896252946014
 21
-669.0606508201072
 31
0.0
1001
ACAD
1000
DSTYLE
1002
{
1070
    45
1040
0.5
1002
}
  0
LINE
  5
22756
330
18
100
AcDbEntity
  8
1DIM
100
AcDbLine
 10
783.3270365326684
 20
-633.0913303450571
 30
0.0
 11
795.3962416153649
 21
-633.0913303450571
 31
0.0
1001
ACAD
1000
DSTYLE
1002
{
1070
    45
1040
0.5
1070
   271
1070
     0
1002
}
  0
LINE
  5
22757
330
18
100
AcDbEntity
  8
1DIM
100
AcDbLine
 10
732.096241615365
 20
-621.591330323471
 30
0.0
 11
795.3962416153649
 21
-621.591330323471
 31
0.0
1001
ACAD
1000
DSTYLE
1002
{
1070
    45
1040
0.5
1070
   271
1070
     0
1002
}
  0
LINE
  5
22758
330
18
100
AcDbEntity
  8
1DIM
100
AcDbLine
 10
794.3962416153649
 20
-631.0913303450571
 30
0.0
 11
794.3962416153649
 21
-623.591330323471
 31
0.0
1001
ACAD
1000
DSTYLE
1002
{
1070
    45
1040
0.5
1070
   271
1070
     0
1002
}
  0
LINE
  5
2275C
330
18
100
AcDbEntity
  8
1DIM1
100
AcDbLine
 10
161.0162386829194
 20
-644.5913304101075
 30
0.0
 11
161.0162386829194
 21
-710.3213303512672
 31
0.0
1001
ACAD
1000
DSTYLE
1002
{
1070
    40
1040
3.0
1070
    45
1040
0.5
1002
}
  0
LINE
  5
2275D
330
18
100
AcDbEntity
  8
1DIM1
100
AcDbLine
 10
644.416238968816
 20
-644.5913304101075
 30
0.0
 11
644.416238968816
 21
-710.3213303512672
 31
0.0
1001
ACAD
1000
DSTYLE
1002
{
1070
    40
1040
3.0
1070
    45
1040
0.5
1002
}
  0
LINE
  5
2275E
330
18
100
AcDbEntity
  8
1DIM1
100
AcDbLine
 10
167.0162386829194
 20
-707.3213303512672
 30
0.0
 11
638.416238968816
 21
-707.3213303512672
 31
0.0
1001
ACAD
1000
DSTYLE
1002
{
1070
    40
1040
3.0
1070
    45
1040
0.5
1002
}
  0
LINE
  5
22762
330
18
100
AcDbEntity
  8
1DIM
100
AcDbLine
 10
732.096241615365
 20
-648.5913303790607
 30
0.0
 11
805.3962416153649
 21
-648.5913303790607
 31
0.0
1001
ACAD
1000
DSTYLE
1002
{
1070
    45
1040
0.5
1002
}
  0
LINE
  5
22763
330
18
100
AcDbEntity
  8
1DIM
100
AcDbLine
 10
732.096241615365
 20
-621.591330323471
 30
0.0
 11
805.3962416153649
 21
-621.591330323471
 31
0.0
1001
ACAD
1000
DSTYLE
1002
{
1070
    45
1040
0.5
1002
}
  0
LINE
  5
22764
330
18
100
AcDbEntity
  8
1DIM
100
AcDbLine
 10
804.3962416153649
 20
-646.5913303790607
 30
0.0
 11
804.3962416153649
 21
-623.591330323471
 31
0.0
1001
ACAD
1000
DSTYLE
1002
{
1070
    45
1040
0.5
1002
}
  0
LINE
  5
22768
330
18
100
AcDbEntity
  8
1DIM
100
AcDbLine
 10
644.4162389688155
 20
-547.2913295995477
 30
0.0
 11
644.4162389688155
 21
-511.291330351266
 31
0.0
1001
ACAD
1000
DSTYLE
1002
{
1070
    45
1040
0.5
1002
}
  0
LINE
  5
22769
330
18
100
AcDbEntity
  8
1DIM
100
AcDbLine
 10
614.7162388258675
 20
-547.2913301362348
 30
0.0
 11
614.7162388258675
 21
-511.291330351266
 31
0.0
1001
ACAD
1000
DSTYLE
1002
{
1070
    45
1040
0.5
1002
}
  0
LINE
  5
2276A
330
18
100
AcDbEntity
  8
1DIM
100
AcDbLine
 10
642.4162389688155
 20
-512.291330351266
 30
0.0
 11
616.7162388258675
 21
-512.291330351266
 31
0.0
1001
ACAD
1000
DSTYLE
1002
{
1070
    45
1040
0.5
1002
}
  0
SOLID
  5
2276E
330
18
100
AcDbEntity
  8
1DIM
100
AcDbTrace
 10
756.5508479197653
 20
-604.2054292138315
 30
0.0
 11
755.8099131930724
 21
-606.0927889680627
 31
0.0
 12
755.8986807169501
 22
-604.067145505403
 32
0.0
 13
755.8986807169501
 23
-604.067145505403
 33
0.0
1001
ACAD
1000
DSTYLE
1002
{
1070
    45
1040
0.5
1002
}
  0
LINE
  5
2276F
330
18
100
AcDbEntity
  8
1DIM
100
AcDbLine
 10
756.2247643183576
 20
-604.1362873596172
 30
0.0
 11
758.9337571261874
 21
-591.3602613041472
 31
0.0
1001
ACAD
1000
DSTYLE
1002
{
1070
    45
1040
0.5
1002
}
  0
SOLID
  5
22770
330
18
100
AcDbEntity
  8
1DIM
100
AcDbTrace
 10
769.6862660649305
 20
-604.2054292138315
 30
0.0
 11
768.9453313382376
 21
-606.0927889680627
 31
0.0
 12
769.0340988621153
 22
-604.067145505403
 32
0.0
 13
769.0340988621153
 23
-604.067145505403
 33
0.0
1001
ACAD
1000
DSTYLE
1002
{
1070
    45
1040
0.5
1002
}
  0
LINE
  5
22771
330
18
100
AcDbEntity
  8
1DIM
100
AcDbLine
 10
769.3601824635228
 20
-604.1362873596172
 30
0.0
 11
772.0691752713526
 21
-591.3602613041472
 31
0.0
1001
ACAD
1000
DSTYLE
1002
{
1070
    45
1040
0.5
1002
}
  0
LINE
  5
22772
330
18
100
AcDbEntity
  8
0
100
AcDbLine
 10
627.7162853617658
 20
-518.2913303514283
 30
0.0
 11
626.2162853617658
 21
-523.59132686129
 31
0.0
  0
LINE
  5
22773
330
18
100
AcDbEntity
  8
0
100
AcDbLine
 10
626.2162853617658
 20
-523.59132686129
 30
0.0
 11
626.216285361766
 21
-553.2913268611819
 31
0.0
  0
LINE
  5
22774
330
18
100
AcDbEntity
  8
0
100
AcDbLine
 10
627.7162853617658
 20
-518.2913303514283
 30
0.0
 11
629.2162853617659
 21
-523.5913338416736
 31
0.0
  0
LINE
  5
22775
330
18
100
AcDbEntity
  8
0
100
AcDbLine
 10
624.216238825868
 20
-553.2913222074837
 30
0.0
 11
631.2162388258679
 21
-553.2913384950482
 31
0.0
  0
LINE
  5
22776
330
18
100
AcDbEntity
  8
0
100
AcDbLine
 10
629.2162853617659
 20
-523.5913338416736
 30
0.0
 11
629.216285361766
 21
-553.2913338415666
 31
0.0
  0
LINE
  5
22777
330
18
100
AcDbEntity
  8
0
100
AcDbLine
 10
624.216238825868
 20
-553.2913222074837
 30
0.0
 11
624.2162388258679
 21
-554.3913256976791
 31
0.0
  0
ARC
  5
22778
330
18
100
AcDbEntity
  8
0
100
AcDbCircle
 10
625.7162388258679
 20
-554.3913256976791
 30
0.0
 40
1.5
100
AcDbArc
 50
180.0
 51
269.9998666844662
  0
LINE
  5
22779
330
18
100
AcDbEntity
  8
0
100
AcDbLine
 10
631.2162388258679
 20
-553.2913384950482
 30
0.0
 11
631.2162388258679
 21
-554.3913350048588
 31
0.0
  0
LINE
  5
2277A
330
18
100
AcDbEntity
  8
0
100
AcDbLine
 10
625.7162353356755
 20
-555.891325697675
 30
0.0
 11
629.7162353356755
 21
-555.8913350048547
 31
0.0
  0
ARC
  5
2277B
330
18
100
AcDbEntity
  8
0
100
AcDbCircle
 10
629.7162388258679
 20
-554.3913350048588
 30
0.0
 40
1.5
100
AcDbArc
 50
269.9998666844662
 51
0.0
  0
LINE
  5
2277C
330
18
100
AcDbEntity
  8
1CENTER
100
AcDbLine
 10
627.7162388258679
 20
-516.8605354339629
 30
0.0
 11
627.7162388258679
 21
-556.9616067605748
 31
0.0
  0
LINE
  5
2277D
330
18
100
AcDbEntity
  8
0
100
AcDbLine
 10
626.6219150118728
 20
-520.3913278051061
 30
0.0
 11
628.5842501007482
 21
-519.5913323710552
 31
0.0
  0
LINE
  5
2277E
330
18
100
AcDbEntity
  8
0
100
AcDbLine
 10
628.5842501007482
 20
-519.5913323710552
 30
0.0
 11
627.9959735257058
 21
-519.279562514803
 31
0.0
  0
LINE
  5
2277F
330
18
100
AcDbEntity
  8
0
100
AcDbLine
 10
625.7162853617658
 20
-542.7913256978961
 30
0.0
 11
629.7162853617658
 21
-541.9913350050779
 31
0.0
  0
LINE
  5
22780
330
18
100
AcDbEntity
  8
0
100
AcDbLine
 10
625.7162853617658
 20
-531.5913256978918
 30
0.0
 11
629.7162853617658
 21
-530.7913350050692
 31
0.0
  0
LINE
  5
22781
330
18
100
AcDbEntity
  8
0
100
AcDbLine
 10
625.7162853617658
 20
-528.3913256978917
 30
0.0
 11
629.7162853617658
 21
-527.5913350050691
 31
0.0
  0
LINE
  5
22782
330
18
100
AcDbEntity
  8
0
100
AcDbLine
 10
629.7162853617658
 20
-527.5913350050691
 30
0.0
 11
629.2162853617658
 21
-527.4913338416719
 31
0.0
  0
LINE
  5
22783
330
18
100
AcDbEntity
  8
0
100
AcDbLine
 10
626.2162853617658
 20
-526.8913268612889
 30
0.0
 11
625.7162853617658
 21
-526.7913256978917
 31
0.0
  0
LINE
  5
22784
330
18
100
AcDbEntity
  8
0
100
AcDbLine
 10
629.7162853617658
 20
-530.7913350050692
 30
0.0
 11
629.2162853617658
 21
-530.691333841672
 31
0.0
  0
LINE
  5
22785
330
18
100
AcDbEntity
  8
0
100
AcDbLine
 10
629.7162853617658
 20
-529.191335005069
 30
0.0
 11
629.2162853617658
 21
-529.0913338416719
 31
0.0
  0
LINE
  5
22786
330
18
100
AcDbEntity
  8
0
100
AcDbLine
 10
626.2162853617658
 20
-528.4913268612888
 30
0.0
 11
625.7162853617658
 21
-528.3913256978917
 31
0.0
  0
LINE
  5
22787
330
18
100
AcDbEntity
  8
0
100
AcDbLine
 10
626.2162853617658
 20
-530.0913268612887
 30
0.0
 11
625.7162853617658
 21
-529.9913256978916
 31
0.0
  0
LINE
  5
22788
330
18
100
AcDbEntity
  8
0
100
AcDbLine
 10
625.7162853617658
 20
-529.9913256978916
 30
0.0
 11
629.7162853617658
 21
-529.191335005069
 31
0.0
  0
LINE
  5
22789
330
18
100
AcDbEntity
  8
0
100
AcDbLine
 10
629.037064205155
 20
-521.1913334246608
 30
0.0
 11
628.4853147413518
 21
-521.0085692820328
 31
0.0
  0
LINE
  5
2278A
330
18
100
AcDbEntity
  8
0
100
AcDbLine
 10
629.7162853617658
 20
-524.3913350050691
 30
0.0
 11
629.2162853617658
 21
-524.291333841672
 31
0.0
  0
LINE
  5
2278B
330
18
100
AcDbEntity
  8
0
100
AcDbLine
 10
629.7162853617658
 20
-525.9913350050691
 30
0.0
 11
629.2162853617658
 21
-525.8913338416721
 31
0.0
  0
LINE
  5
2278C
330
18
100
AcDbEntity
  8
0
100
AcDbLine
 10
629.4898783095618
 20
-522.7913344782664
 30
0.0
 11
628.9532845742907
 21
-522.6620637806366
 31
0.0
  0
LINE
  5
2278D
330
18
100
AcDbEntity
  8
0
100
AcDbLine
 10
626.6371999589745
 20
-522.1040962638519
 30
0.0
 11
626.1691015038245
 21
-521.9913267515019
 31
0.0
  0
LINE
  5
2278E
330
18
100
AcDbEntity
  8
0
100
AcDbLine
 10
626.2162853617658
 20
-525.2913268612888
 30
0.0
 11
625.7162853617658
 21
-525.1913256978917
 31
0.0
  0
LINE
  5
2278F
330
18
100
AcDbEntity
  8
0
100
AcDbLine
 10
626.2162853617658
 20
-523.6913268612889
 30
0.0
 11
625.7162853617658
 21
-523.5913256978918
 31
0.0
  0
LINE
  5
22790
330
18
100
AcDbEntity
  8
0
100
AcDbLine
 10
627.0790868525039
 20
-520.5427636015465
 30
0.0
 11
626.6219150118728
 21
-520.3913278051061
 31
0.0
  0
LINE
  5
22791
330
18
100
AcDbEntity
  8
0
100
AcDbLine
 10
626.1691015038245
 20
-521.9913267515019
 30
0.0
 11
629.037064205155
 21
-521.1913334246608
 31
0.0
  0
LINE
  5
22792
330
18
100
AcDbEntity
  8
0
100
AcDbLine
 10
625.7162853617658
 20
-525.1913256978917
 30
0.0
 11
629.7162853617658
 21
-524.3913350050691
 31
0.0
  0
LINE
  5
22793
330
18
100
AcDbEntity
  8
0
100
AcDbLine
 10
625.7162853617658
 20
-523.5913256978918
 30
0.0
 11
629.4898783095618
 21
-522.7913344782664
 31
0.0
  0
LINE
  5
22794
330
18
100
AcDbEntity
  8
0
100
AcDbLine
 10
625.7162853617658
 20
-526.7913256978917
 30
0.0
 11
629.7162853617658
 21
-525.9913350050691
 31
0.0
  0
LINE
  5
22795
330
18
100
AcDbEntity
  8
0
100
AcDbLine
 10
625.7162853617658
 20
-539.5913256978961
 30
0.0
 11
629.7162853617658
 21
-538.7913350050778
 31
0.0
  0
LINE
  5
22796
330
18
100
AcDbEntity
  8
0
100
AcDbLine
 10
629.7162853617658
 20
-538.7913350050778
 30
0.0
 11
629.2162853617658
 21
-538.6913338416801
 31
0.0
  0
LINE
  5
22797
330
18
100
AcDbEntity
  8
0
100
AcDbLine
 10
626.2162853617658
 20
-538.0913268612894
 30
0.0
 11
625.7162853617658
 21
-537.9913256978917
 31
0.0
  0
LINE
  5
22798
330
18
100
AcDbEntity
  8
0
100
AcDbLine
 10
629.7162853617658
 20
-540.391335005078
 30
0.0
 11
629.2162853617658
 21
-540.2913338416803
 31
0.0
  0
LINE
  5
22799
330
18
100
AcDbEntity
  8
0
100
AcDbLine
 10
629.7162853617658
 20
-541.9913350050779
 30
0.0
 11
629.2162853617658
 21
-541.8913338416802
 31
0.0
  0
LINE
  5
2279A
330
18
100
AcDbEntity
  8
0
100
AcDbLine
 10
626.2162853617658
 20
-539.6913268612938
 30
0.0
 11
625.7162853617658
 21
-539.5913256978961
 31
0.0
  0
LINE
  5
2279B
330
18
100
AcDbEntity
  8
0
100
AcDbLine
 10
626.2162853617658
 20
-541.2913268612939
 30
0.0
 11
625.7162853617658
 21
-541.1913256978962
 31
0.0
  0
LINE
  5
2279C
330
18
100
AcDbEntity
  8
0
100
AcDbLine
 10
625.7162853617658
 20
-541.1913256978962
 30
0.0
 11
629.7162853617658
 21
-540.391335005078
 31
0.0
  0
LINE
  5
2279D
330
18
100
AcDbEntity
  8
0
100
AcDbLine
 10
629.7162853617658
 20
-533.9913350050734
 30
0.0
 11
629.2162853617658
 21
-533.8913338416758
 31
0.0
  0
LINE
  5
2279E
330
18
100
AcDbEntity
  8
0
100
AcDbLine
 10
629.7162853617658
 20
-532.3913350050691
 30
0.0
 11
629.2162853617658
 21
-532.291333841672
 31
0.0
  0
LINE
  5
2279F
330
18
100
AcDbEntity
  8
0
100
AcDbLine
 10
629.7162853617658
 20
-537.1913350050735
 30
0.0
 11
629.2162853617658
 21
-537.0913338416758
 31
0.0
  0
LINE
  5
227A0
330
18
100
AcDbEntity
  8
0
100
AcDbLine
 10
629.7162853617658
 20
-535.5913350050736
 30
0.0
 11
629.2162853617658
 21
-535.4913338416759
 31
0.0
  0
LINE
  5
227A1
330
18
100
AcDbEntity
  8
0
100
AcDbLine
 10
626.2162853617658
 20
-531.6913268612889
 30
0.0
 11
625.7162853617658
 21
-531.5913256978918
 31
0.0
  0
LINE
  5
227A2
330
18
100
AcDbEntity
  8
0
100
AcDbLine
 10
626.2162853617658
 20
-533.2913268612895
 30
0.0
 11
625.7162853617658
 21
-533.1913256978917
 31
0.0
  0
LINE
  5
227A3
330
18
100
AcDbEntity
  8
0
100
AcDbLine
 10
626.2162853617658
 20
-536.4913268612895
 30
0.0
 11
625.7162853617658
 21
-536.3913256978918
 31
0.0
  0
LINE
  5
227A4
330
18
100
AcDbEntity
  8
0
100
AcDbLine
 10
626.2162853617658
 20
-534.8913268612894
 30
0.0
 11
625.7162853617658
 21
-534.7913256978917
 31
0.0
  0
LINE
  5
227A5
330
18
100
AcDbEntity
  8
0
100
AcDbLine
 10
625.7162853617658
 20
-534.7913256978917
 30
0.0
 11
629.7162853617658
 21
-533.9913350050734
 31
0.0
  0
LINE
  5
227A6
330
18
100
AcDbEntity
  8
0
100
AcDbLine
 10
625.7162853617658
 20
-533.1913256978917
 30
0.0
 11
629.7162853617658
 21
-532.3913350050691
 31
0.0
  0
LINE
  5
227A7
330
18
100
AcDbEntity
  8
0
100
AcDbLine
 10
625.7162853617658
 20
-536.3913256978918
 30
0.0
 11
629.7162853617658
 21
-535.5913350050736
 31
0.0
  0
LINE
  5
227A8
330
18
100
AcDbEntity
  8
0
100
AcDbLine
 10
625.7162853617658
 20
-537.9913256978917
 30
0.0
 11
629.7162853617658
 21
-537.1913350050735
 31
0.0
  0
LINE
  5
227A9
330
18
100
AcDbEntity
  8
0
100
AcDbLine
 10
626.2162853617658
 20
-547.691326861298
 30
0.0
 11
625.7162853617658
 21
-547.5913256979003
 31
0.0
  0
LINE
  5
227AA
330
18
100
AcDbEntity
  8
0
100
AcDbLine
 10
625.7162853617658
 20
-547.5913256979003
 30
0.0
 11
629.7162853617658
 21
-546.791335005082
 31
0.0
  0
LINE
  5
227AB
330
18
100
AcDbEntity
  8
0
100
AcDbLine
 10
629.7162853617658
 20
-546.791335005082
 30
0.0
 11
629.2162853617658
 21
-546.6913338416844
 31
0.0
  0
LINE
  5
227AC
330
18
100
AcDbEntity
  8
0
100
AcDbLine
 10
626.2162853617658
 20
-546.0913268612981
 30
0.0
 11
625.7162853617658
 21
-545.9913256979004
 31
0.0
  0
LINE
  5
227AD
330
18
100
AcDbEntity
  8
0
100
AcDbLine
 10
626.2162853617658
 20
-544.4913268612981
 30
0.0
 11
625.7162853617658
 21
-544.3913256979005
 31
0.0
  0
LINE
  5
227AE
330
18
100
AcDbEntity
  8
0
100
AcDbLine
 10
625.7162853617658
 20
-544.3913256979005
 30
0.0
 11
629.7162853617658
 21
-543.5913350050822
 31
0.0
  0
LINE
  5
227AF
330
18
100
AcDbEntity
  8
0
100
AcDbLine
 10
629.7162853617658
 20
-545.1913350050821
 30
0.0
 11
629.2162853617658
 21
-545.0913338416844
 31
0.0
  0
LINE
  5
227B0
330
18
100
AcDbEntity
  8
0
100
AcDbLine
 10
629.7162853617658
 20
-543.5913350050822
 30
0.0
 11
629.2162853617658
 21
-543.4913338416845
 31
0.0
  0
LINE
  5
227B1
330
18
100
AcDbEntity
  8
0
100
AcDbLine
 10
625.7162853617658
 20
-545.9913256979004
 30
0.0
 11
629.7162853617658
 21
-545.1913350050821
 31
0.0
  0
LINE
  5
227B2
330
18
100
AcDbEntity
  8
0
100
AcDbLine
 10
626.2162853617658
 20
-542.8913268612938
 30
0.0
 11
625.7162853617658
 21
-542.7913256978961
 31
0.0
  0
LINE
  5
227B3
330
18
100
AcDbEntity
  8
0
100
AcDbLine
 10
626.2162853617658
 20
-549.2913268612979
 30
0.0
 11
625.7162853617658
 21
-549.1913256979002
 31
0.0
  0
LINE
  5
227B4
330
18
100
AcDbEntity
  8
0
100
AcDbLine
 10
625.7162853617658
 20
-549.1913256979002
 30
0.0
 11
629.7162853617658
 21
-548.3913350050819
 31
0.0
  0
LINE
  5
227B5
330
18
100
AcDbEntity
  8
0
100
AcDbLine
 10
629.7162853617658
 20
-548.3913350050819
 30
0.0
 11
629.2162853617658
 21
-548.2913338416843
 31
0.0
  0
LINE
  5
227B6
330
18
100
AcDbEntity
  8
0
100
AcDbLine
 10
626.2162853617658
 20
-550.8913268612978
 30
0.0
 11
625.7162853617658
 21
-550.7913256979001
 31
0.0
  0
LINE
  5
227B7
330
18
100
AcDbEntity
  8
0
100
AcDbLine
 10
625.7162853617658
 20
-550.7913256979001
 30
0.0
 11
629.7162853617658
 21
-549.9913350050819
 31
0.0
  0
LINE
  5
227B8
330
18
100
AcDbEntity
  8
0
100
AcDbLine
 10
629.7162853617658
 20
-549.9913350050819
 30
0.0
 11
629.2162853617658
 21
-549.8913338416842
 31
0.0
  0
LINE
  5
227B9
330
18
100
AcDbEntity
  8
0
100
AcDbLine
 10
626.2162853617658
 20
-552.4913268612977
 30
0.0
 11
625.7162853617658
 21
-552.3913256979
 31
0.0
  0
LINE
  5
227BA
330
18
100
AcDbEntity
  8
0
100
AcDbLine
 10
625.7162853617658
 20
-552.3913256979
 30
0.0
 11
629.7162853617658
 21
-551.5913350050818
 31
0.0
  0
LINE
  5
227BB
330
18
100
AcDbEntity
  8
0
100
AcDbLine
 10
629.7162853617658
 20
-551.5913350050818
 30
0.0
 11
629.2162853617658
 21
-551.4913338416841
 31
0.0
  0
LINE
  5
227BC
330
18
100
AcDbEntity
  8
0
100
AcDbLine
 10
177.7162853617656
 20
-518.2913303514288
 30
0.0
 11
176.2162853617656
 21
-523.5913268612904
 31
0.0
  0
LINE
  5
227BD
330
18
100
AcDbEntity
  8
0
100
AcDbLine
 10
176.2162853617656
 20
-523.5913268612904
 30
0.0
 11
176.2162853617658
 21
-553.2913268611824
 31
0.0
  0
LINE
  5
227BE
330
18
100
AcDbEntity
  8
0
100
AcDbLine
 10
177.7162853617656
 20
-518.2913303514288
 30
0.0
 11
179.2162853617657
 21
-523.5913338416741
 31
0.0
  0
LINE
  5
227BF
330
18
100
AcDbEntity
  8
0
100
AcDbLine
 10
174.2162388258678
 20
-553.2913222074842
 30
0.0
 11
181.2162388258677
 21
-553.2913384950486
 31
0.0
  0
LINE
  5
227C0
330
18
100
AcDbEntity
  8
0
100
AcDbLine
 10
179.2162853617657
 20
-523.5913338416741
 30
0.0
 11
179.2162853617658
 21
-553.291333841567
 31
0.0
  0
LINE
  5
227C1
330
18
100
AcDbEntity
  8
0
100
AcDbLine
 10
174.2162388258678
 20
-553.2913222074842
 30
0.0
 11
174.2162388258677
 21
-554.3913256976796
 31
0.0
  0
ARC
  5
227C2
330
18
100
AcDbEntity
  8
0
100
AcDbCircle
 10
175.7162388258677
 20
-554.3913256976796
 30
0.0
 40
1.5
100
AcDbArc
 50
180.0
 51
269.9998666844684
  0
LINE
  5
227C3
330
18
100
AcDbEntity
  8
0
100
AcDbLine
 10
181.2162388258677
 20
-553.2913384950486
 30
0.0
 11
181.2162388258677
 21
-554.3913350048592
 31
0.0
  0
LINE
  5
227C4
330
18
100
AcDbEntity
  8
0
100
AcDbLine
 10
175.7162353356753
 20
-555.8913256976755
 30
0.0
 11
179.7162353356753
 21
-555.8913350048551
 31
0.0
  0
ARC
  5
227C5
330
18
100
AcDbEntity
  8
0
100
AcDbCircle
 10
179.7162388258677
 20
-554.3913350048592
 30
0.0
 40
1.5
100
AcDbArc
 50
269.9998666844684
 51
0.0
  0
LINE
  5
227C6
330
18
100
AcDbEntity
  8
1CENTER
100
AcDbLine
 10
177.7162388258677
 20
-516.8605354339634
 30
0.0
 11
177.7162388258677
 21
-556.9616067605753
 31
0.0
  0
LINE
  5
227C7
330
18
100
AcDbEntity
  8
0
100
AcDbLine
 10
176.6219150118726
 20
-520.3913278051066
 30
0.0
 11
178.584250100748
 21
-519.5913323710556
 31
0.0
  0
LINE
  5
227C8
330
18
100
AcDbEntity
  8
0
100
AcDbLine
 10
178.584250100748
 20
-519.5913323710556
 30
0.0
 11
177.9959735257056
 21
-519.2795625148035
 31
0.0
  0
LINE
  5
227C9
330
18
100
AcDbEntity
  8
0
100
AcDbLine
 10
175.7162853617656
 20
-542.7913256978966
 30
0.0
 11
179.7162853617656
 21
-541.9913350050783
 31
0.0
  0
LINE
  5
227CA
330
18
100
AcDbEntity
  8
0
100
AcDbLine
 10
175.7162853617656
 20
-531.5913256978922
 30
0.0
 11
179.7162853617656
 21
-530.7913350050696
 31
0.0
  0
LINE
  5
227CB
330
18
100
AcDbEntity
  8
0
100
AcDbLine
 10
175.7162853617656
 20
-528.3913256978922
 30
0.0
 11
179.7162853617656
 21
-527.5913350050696
 31
0.0
  0
LINE
  5
227CC
330
18
100
AcDbEntity
  8
0
100
AcDbLine
 10
179.7162853617656
 20
-527.5913350050696
 30
0.0
 11
179.2162853617656
 21
-527.4913338416724
 31
0.0
  0
LINE
  5
227CD
330
18
100
AcDbEntity
  8
0
100
AcDbLine
 10
176.2162853617656
 20
-526.8913268612894
 30
0.0
 11
175.7162853617656
 21
-526.7913256978921
 31
0.0
  0
LINE
  5
227CE
330
18
100
AcDbEntity
  8
0
100
AcDbLine
 10
179.7162853617656
 20
-530.7913350050696
 30
0.0
 11
179.2162853617656
 21
-530.6913338416724
 31
0.0
  0
LINE
  5
227CF
330
18
100
AcDbEntity
  8
0
100
AcDbLine
 10
179.7162853617656
 20
-529.1913350050695
 30
0.0
 11
179.2162853617656
 21
-529.0913338416724
 31
0.0
  0
LINE
  5
227D0
330
18
100
AcDbEntity
  8
0
100
AcDbLine
 10
176.2162853617656
 20
-528.4913268612893
 30
0.0
 11
175.7162853617656
 21
-528.3913256978922
 31
0.0
  0
LINE
  5
227D1
330
18
100
AcDbEntity
  8
0
100
AcDbLine
 10
176.2162853617656
 20
-530.0913268612892
 30
0.0
 11
175.7162853617656
 21
-529.9913256978921
 31
0.0
  0
LINE
  5
227D2
330
18
100
AcDbEntity
  8
0
100
AcDbLine
 10
175.7162853617656
 20
-529.9913256978921
 30
0.0
 11
179.7162853617656
 21
-529.1913350050695
 31
0.0
  0
LINE
  5
227D3
330
18
100
AcDbEntity
  8
0
100
AcDbLine
 10
179.0370642051548
 20
-521.1913334246613
 30
0.0
 11
178.4853147413515
 21
-521.0085692820332
 31
0.0
  0
LINE
  5
227D4
330
18
100
AcDbEntity
  8
0
100
AcDbLine
 10
179.7162853617656
 20
-524.3913350050695
 30
0.0
 11
179.2162853617656
 21
-524.2913338416724
 31
0.0
  0
LINE
  5
227D5
330
18
100
AcDbEntity
  8
0
100
AcDbLine
 10
179.7162853617656
 20
-525.9913350050696
 30
0.0
 11
179.2162853617656
 21
-525.8913338416726
 31
0.0
  0
LINE
  5
227D6
330
18
100
AcDbEntity
  8
0
100
AcDbLine
 10
179.4898783095616
 20
-522.7913344782669
 30
0.0
 11
178.9532845742905
 21
-522.662063780637
 31
0.0
  0
LINE
  5
227D7
330
18
100
AcDbEntity
  8
0
100
AcDbLine
 10
176.6371999589743
 20
-522.1040962638524
 30
0.0
 11
176.1691015038243
 21
-521.9913267515024
 31
0.0
  0
LINE
  5
227D8
330
18
100
AcDbEntity
  8
0
100
AcDbLine
 10
176.2162853617656
 20
-525.2913268612892
 30
0.0
 11
175.7162853617656
 21
-525.1913256978921
 31
0.0
  0
LINE
  5
227D9
330
18
100
AcDbEntity
  8
0
100
AcDbLine
 10
176.2162853617656
 20
-523.6913268612893
 30
0.0
 11
175.7162853617656
 21
-523.5913256978922
 31
0.0
  0
LINE
  5
227DA
330
18
100
AcDbEntity
  8
0
100
AcDbLine
 10
177.0790868525037
 20
-520.542763601547
 30
0.0
 11
176.6219150118726
 21
-520.3913278051066
 31
0.0
  0
LINE
  5
227DB
330
18
100
AcDbEntity
  8
0
100
AcDbLine
 10
176.1691015038243
 20
-521.9913267515024
 30
0.0
 11
179.0370642051548
 21
-521.1913334246613
 31
0.0
  0
LINE
  5
227DC
330
18
100
AcDbEntity
  8
0
100
AcDbLine
 10
175.7162853617656
 20
-525.1913256978921
 30
0.0
 11
179.7162853617656
 21
-524.3913350050695
 31
0.0
  0
LINE
  5
227DD
330
18
100
AcDbEntity
  8
0
100
AcDbLine
 10
175.7162853617656
 20
-523.5913256978922
 30
0.0
 11
179.4898783095616
 21
-522.7913344782669
 31
0.0
  0
LINE
  5
227DE
330
18
100
AcDbEntity
  8
0
100
AcDbLine
 10
175.7162853617656
 20
-526.7913256978921
 30
0.0
 11
179.7162853617656
 21
-525.9913350050696
 31
0.0
  0
LINE
  5
227DF
330
18
100
AcDbEntity
  8
0
100
AcDbLine
 10
175.7162853617656
 20
-539.5913256978965
 30
0.0
 11
179.7162853617656
 21
-538.7913350050783
 31
0.0
  0
LINE
  5
227E0
330
18
100
AcDbEntity
  8
0
100
AcDbLine
 10
179.7162853617656
 20
-538.7913350050783
 30
0.0
 11
179.2162853617656
 21
-538.6913338416806
 31
0.0
  0
LINE
  5
227E1
330
18
100
AcDbEntity
  8
0
100
AcDbLine
 10
176.2162853617656
 20
-538.0913268612899
 30
0.0
 11
175.7162853617656
 21
-537.9913256978922
 31
0.0
  0
LINE
  5
227E2
330
18
100
AcDbEntity
  8
0
100
AcDbLine
 10
179.7162853617656
 20
-540.3913350050784
 30
0.0
 11
179.2162853617656
 21
-540.2913338416807
 31
0.0
  0
LINE
  5
227E3
330
18
100
AcDbEntity
  8
0
100
AcDbLine
 10
179.7162853617656
 20
-541.9913350050783
 30
0.0
 11
179.2162853617656
 21
-541.8913338416806
 31
0.0
  0
LINE
  5
227E4
330
18
100
AcDbEntity
  8
0
100
AcDbLine
 10
176.2162853617656
 20
-539.6913268612942
 30
0.0
 11
175.7162853617656
 21
-539.5913256978965
 31
0.0
  0
LINE
  5
227E5
330
18
100
AcDbEntity
  8
0
100
AcDbLine
 10
176.2162853617656
 20
-541.2913268612944
 30
0.0
 11
175.7162853617656
 21
-541.1913256978967
 31
0.0
  0
LINE
  5
227E6
330
18
100
AcDbEntity
  8
0
100
AcDbLine
 10
175.7162853617656
 20
-541.1913256978967
 30
0.0
 11
179.7162853617656
 21
-540.3913350050784
 31
0.0
  0
LINE
  5
227E7
330
18
100
AcDbEntity
  8
0
100
AcDbLine
 10
179.7162853617656
 20
-533.9913350050739
 30
0.0
 11
179.2162853617656
 21
-533.8913338416762
 31
0.0
  0
LINE
  5
227E8
330
18
100
AcDbEntity
  8
0
100
AcDbLine
 10
179.7162853617656
 20
-532.3913350050695
 30
0.0
 11
179.2162853617656
 21
-532.2913338416724
 31
0.0
  0
LINE
  5
227E9
330
18
100
AcDbEntity
  8
0
100
AcDbLine
 10
179.7162853617656
 20
-537.1913350050739
 30
0.0
 11
179.2162853617656
 21
-537.0913338416763
 31
0.0
  0
LINE
  5
227EA
330
18
100
AcDbEntity
  8
0
100
AcDbLine
 10
179.7162853617656
 20
-535.591335005074
 30
0.0
 11
179.2162853617656
 21
-535.4913338416764
 31
0.0
  0
LINE
  5
227EB
330
18
100
AcDbEntity
  8
0
100
AcDbLine
 10
176.2162853617656
 20
-531.6913268612893
 30
0.0
 11
175.7162853617656
 21
-531.5913256978922
 31
0.0
  0
LINE
  5
227EC
330
18
100
AcDbEntity
  8
0
100
AcDbLine
 10
176.2162853617656
 20
-533.2913268612899
 30
0.0
 11
175.7162853617656
 21
-533.1913256978921
 31
0.0
  0
LINE
  5
227ED
330
18
100
AcDbEntity
  8
0
100
AcDbLine
 10
176.2162853617656
 20
-536.49132686129
 30
0.0
 11
175.7162853617656
 21
-536.3913256978923
 31
0.0
  0
LINE
  5
227EE
330
18
100
AcDbEntity
  8
0
100
AcDbLine
 10
176.2162853617656
 20
-534.8913268612898
 30
0.0
 11
175.7162853617656
 21
-534.7913256978921
 31
0.0
  0
LINE
  5
227EF
330
18
100
AcDbEntity
  8
0
100
AcDbLine
 10
175.7162853617656
 20
-534.7913256978921
 30
0.0
 11
179.7162853617656
 21
-533.9913350050739
 31
0.0
  0
LINE
  5
227F0
330
18
100
AcDbEntity
  8
0
100
AcDbLine
 10
175.7162853617656
 20
-533.1913256978921
 30
0.0
 11
179.7162853617656
 21
-532.3913350050695
 31
0.0
  0
LINE
  5
227F1
330
18
100
AcDbEntity
  8
0
100
AcDbLine
 10
175.7162853617656
 20
-536.3913256978923
 30
0.0
 11
179.7162853617656
 21
-535.591335005074
 31
0.0
  0
LINE
  5
227F2
330
18
100
AcDbEntity
  8
0
100
AcDbLine
 10
175.7162853617656
 20
-537.9913256978922
 30
0.0
 11
179.7162853617656
 21
-537.1913350050739
 31
0.0
  0
LINE
  5
227F3
330
18
100
AcDbEntity
  8
0
100
AcDbLine
 10
176.2162853617656
 20
-547.6913268612984
 30
0.0
 11
175.7162853617656
 21
-547.5913256979007
 31
0.0
  0
LINE
  5
227F4
330
18
100
AcDbEntity
  8
0
100
AcDbLine
 10
175.7162853617656
 20
-547.5913256979007
 30
0.0
 11
179.7162853617656
 21
-546.7913350050825
 31
0.0
  0
LINE
  5
227F5
330
18
100
AcDbEntity
  8
0
100
AcDbLine
 10
179.7162853617656
 20
-546.7913350050825
 30
0.0
 11
179.2162853617656
 21
-546.6913338416848
 31
0.0
  0
LINE
  5
227F6
330
18
100
AcDbEntity
  8
0
100
AcDbLine
 10
176.2162853617656
 20
-546.0913268612985
 30
0.0
 11
175.7162853617656
 21
-545.9913256979008
 31
0.0
  0
LINE
  5
227F7
330
18
100
AcDbEntity
  8
0
100
AcDbLine
 10
176.2162853617656
 20
-544.4913268612986
 30
0.0
 11
175.7162853617656
 21
-544.3913256979009
 31
0.0
  0
LINE
  5
227F8
330
18
100
AcDbEntity
  8
0
100
AcDbLine
 10
175.7162853617656
 20
-544.3913256979009
 30
0.0
 11
179.7162853617656
 21
-543.5913350050827
 31
0.0
  0
LINE
  5
227F9
330
18
100
AcDbEntity
  8
0
100
AcDbLine
 10
179.7162853617656
 20
-545.1913350050826
 30
0.0
 11
179.2162853617656
 21
-545.0913338416849
 31
0.0
  0
LINE
  5
227FA
330
18
100
AcDbEntity
  8
0
100
AcDbLine
 10
179.7162853617656
 20
-543.5913350050827
 30
0.0
 11
179.2162853617656
 21
-543.491333841685
 31
0.0
  0
LINE
  5
227FB
330
18
100
AcDbEntity
  8
0
100
AcDbLine
 10
175.7162853617656
 20
-545.9913256979008
 30
0.0
 11
179.7162853617656
 21
-545.1913350050826
 31
0.0
  0
LINE
  5
227FC
330
18
100
AcDbEntity
  8
0
100
AcDbLine
 10
176.2162853617656
 20
-542.8913268612943
 30
0.0
 11
175.7162853617656
 21
-542.7913256978966
 31
0.0
  0
LINE
  5
227FD
330
18
100
AcDbEntity
  8
0
100
AcDbLine
 10
176.2162853617656
 20
-549.2913268612983
 30
0.0
 11
175.7162853617656
 21
-549.1913256979007
 31
0.0
  0
LINE
  5
227FE
330
18
100
AcDbEntity
  8
0
100
AcDbLine
 10
175.7162853617656
 20
-549.1913256979007
 30
0.0
 11
179.7162853617656
 21
-548.3913350050824
 31
0.0
  0
LINE
  5
227FF
330
18
100
AcDbEntity
  8
0
100
AcDbLine
 10
179.7162853617656
 20
-548.3913350050824
 30
0.0
 11
179.2162853617656
 21
-548.2913338416847
 31
0.0
  0
LINE
  5
22800
330
18
100
AcDbEntity
  8
0
100
AcDbLine
 10
176.2162853617656
 20
-550.8913268612982
 30
0.0
 11
175.7162853617656
 21
-550.7913256979006
 31
0.0
  0
LINE
  5
22801
330
18
100
AcDbEntity
  8
0
100
AcDbLine
 10
175.7162853617656
 20
-550.7913256979006
 30
0.0
 11
179.7162853617656
 21
-549.9913350050823
 31
0.0
  0
LINE
  5
22802
330
18
100
AcDbEntity
  8
0
100
AcDbLine
 10
179.7162853617656
 20
-549.9913350050823
 30
0.0
 11
179.2162853617656
 21
-549.8913338416846
 31
0.0
  0
LINE
  5
22803
330
18
100
AcDbEntity
  8
0
100
AcDbLine
 10
176.2162853617656
 20
-552.4913268612981
 30
0.0
 11
175.7162853617656
 21
-552.3913256979005
 31
0.0
  0
LINE
  5
22804
330
18
100
AcDbEntity
  8
0
100
AcDbLine
 10
175.7162853617656
 20
-552.3913256979005
 30
0.0
 11
179.7162853617656
 21
-551.5913350050822
 31
0.0
  0
LINE
  5
22805
330
18
100
AcDbEntity
  8
0
100
AcDbLine
 10
179.7162853617656
 20
-551.5913350050822
 30
0.0
 11
179.2162853617656
 21
-551.4913338416845
 31
0.0
  0
TEXT
  5
22806
330
18
100
AcDbEntity
  8
1DIM
  6
CONTINUOUS
100
AcDbText
 10
637.1796498560923
 20
-608.062383823478
 30
0.0
 40
3.5
  1
材質：ABS樹脂
100
AcDbText
1001
ACADANNOTATIVE
1000
AnnotativeData
1002
{
1070
     1
1070
     0
1002
}
  0
TEXT
  5
22807
330
18
100
AcDbEntity
  8
1DIM
  6
CONTINUOUS
100
AcDbText
 10
637.296316522759
 20
-613.8957171568113
 30
0.0
 40
3.5
  1
仕上げ：各種仕上げ
100
AcDbText
1001
ACADANNOTATIVE
1000
AnnotativeData
1002
{
1070
     1
1070
     0
1002
}
  0
SOLID
  5
22808
330
18
100
AcDbEntity
  8
1DIM
100
AcDbTrace
 10
629.3692540172535
 20
-620.4125655454824
 30
0.0
 11
627.7195192782153
 21
-621.5913303235114
 31
0.0
 12
628.8977770763231
 22
-619.9412334559581
 32
0.0
 13
628.8977770763231
 23
-619.9412334559581
 33
0.0
1001
ACAD
1000
DSTYLE
1002
{
1070
    45
1040
0.5
1002
}
  0
LINE
  5
22809
330
18
100
AcDbEntity
  8
1DIM
100
AcDbLine
 10
629.1335155467883
 20
-620.1768995007202
 30
0.0
 11
634.7129831894256
 21
-614.5957171568114
 31
0.0
1001
ACAD
1000
DSTYLE
1002
{
1070
    45
1040
0.5
1002
}
  0
LINE
  5
2280A
330
18
100
AcDbEntity
  8
1DIM
100
AcDbLine
 10
634.7129831894256
 20
-614.5957171568114
 30
0.0
 11
674.396316522759
 21
-614.5957171568114
 31
0.0
1001
ACAD
1000
DSTYLE
1002
{
1070
    45
1040
0.5
1002
}
  0
TEXT
  5
2280B
330
18
100
AcDbEntity
  8
1DIM
  6
CONTINUOUS
100
AcDbText
 10
653.8763695466929
 20
-621.5623838512323
 30
0.0
 40
3.5
  1
材質：亜鉛ダイキャスト
100
AcDbText
1001
ACADANNOTATIVE
1000
AnnotativeData
1002
{
1070
     1
1070
     0
1002
}
  0
TEXT
  5
2280C
330
18
100
AcDbEntity
  8
1DIM
  6
CONTINUOUS
100
AcDbText
 10
653.9930362133596
 20
-627.3957171845657
 30
0.0
 40
3.5
  1
仕上げ：各種メッキ
100
AcDbText
1001
ACADANNOTATIVE
1000
AnnotativeData
1002
{
1070
     1
1070
     0
1002
}
  0
SOLID
  5
2280D
330
18
100
AcDbEntity
  8
1DIM
100
AcDbTrace
 10
646.0659737078541
 20
-633.9125655732367
 30
0.0
 11
644.416238968816
 21
-635.0913303512658
 31
0.0
 12
645.5944967669237
 22
-633.4412334837125
 32
0.0
 13
645.5944967669237
 23
-633.4412334837125
 33
0.0
1001
ACAD
1000
DSTYLE
1002
{
1070
    45
1040
0.5
1002
}
  0
LINE
  5
2280E
330
18
100
AcDbEntity
  8
1DIM
100
AcDbLine
 10
645.8302352373889
 20
-633.6768995284746
 30
0.0
 11
651.4097028800262
 21
-628.0957171845657
 31
0.0
1001
ACAD
1000
DSTYLE
1002
{
1070
    45
1040
0.5
1002
}
  0
LINE
  5
2280F
330
18
100
AcDbEntity
  8
1DIM
100
AcDbLine
 10
651.4097028800262
 20
-628.0957171845657
 30
0.0
 11
698.6763695466929
 21
-628.0957171845657
 31
0.0
1001
ACAD
1000
DSTYLE
1002
{
1070
    45
1040
0.5
1002
}
  0
TEXT
  5
22810
330
18
100
AcDbEntity
  8
1DIM
  6
CONTINUOUS
100
AcDbText
 10
527.9323640856176
 20
-611.5623840747497
 30
0.0
 40
3.5
  1
材質：ステンレス
100
AcDbText
1001
ACADANNOTATIVE
1000
AnnotativeData
1002
{
1070
     1
1070
     0
1002
}
  0
TEXT
  5
22811
330
18
100
AcDbEntity
  8
1DIM
  6
CONTINUOUS
100
AcDbText
 10
523.3823640856175
 20
-617.3957174080831
 30
0.0
 40
3.5
  1
仕上げ：各種仕上げ
100
AcDbText
1001
ACADANNOTATIVE
1000
AnnotativeData
1002
{
1070
     1
1070
     0
1002
}
  0
SOLID
  5
22812
330
18
100
AcDbEntity
  8
1DIM
100
AcDbTrace
 10
568.99757019872
 20
-623.4412337072299
 30
0.0
 11
570.1758279968278
 21
-625.0913305747832
 31
0.0
 12
568.5260932577896
 22
-623.9125657967542
 32
0.0
 13
568.5260932577896
 23
-623.9125657967542
 33
0.0
1001
ACAD
1000
DSTYLE
1002
{
1070
    45
1040
0.5
1002
}
  0
LINE
  5
22813
330
18
100
AcDbEntity
  8
1DIM
100
AcDbLine
 10
568.7618317282548
 20
-623.676899751992
 30
0.0
 11
563.1823640856176
 21
-618.0957174080831
 31
0.0
1001
ACAD
1000
DSTYLE
1002
{
1070
    45
1040
0.5
1002
}
  0
LINE
  5
22814
330
18
100
AcDbEntity
  8
1DIM
100
AcDbLine
 10
563.1823640856176
 20
-618.0957174080831
 30
0.0
 11
523.4990307522842
 21
-618.0957174080831
 31
0.0
1001
ACAD
1000
DSTYLE
1002
{
1070
    45
1040
0.5
1002
}
  0
LINE
  5
22815
330
18
100
AcDbEntity
  8
0
100
AcDbLine
 10
781.896241615203
 20
-633.0913768809551
 30
0.0
 11
776.5962451053414
 21
-631.5913768809551
 31
0.0
  0
LINE
  5
22816
330
18
100
AcDbEntity
  8
0
100
AcDbLine
 10
776.5962451053414
 20
-631.5913768809551
 30
0.0
 11
746.8962451054495
 21
-631.5913768809553
 31
0.0
  0
LINE
  5
22817
330
18
100
AcDbEntity
  8
0
100
AcDbLine
 10
781.896241615203
 20
-633.0913768809551
 30
0.0
 11
776.5962381249577
 21
-634.5913768809552
 31
0.0
  0
LINE
  5
22818
330
18
100
AcDbEntity
  8
0
100
AcDbLine
 10
746.8962497591476
 20
-629.5913303450573
 30
0.0
 11
746.8962334715832
 21
-636.5913303450571
 31
0.0
  0
LINE
  5
22819
330
18
100
AcDbEntity
  8
0
100
AcDbLine
 10
776.5962381249577
 20
-634.5913768809552
 30
0.0
 11
746.8962381250648
 21
-634.5913768809553
 31
0.0
  0
LINE
  5
2281A
330
18
100
AcDbEntity
  8
0
100
AcDbLine
 10
746.8962497591476
 20
-629.5913303450573
 30
0.0
 11
745.7962462689522
 21
-629.5913303450571
 31
0.0
  0
ARC
  5
2281B
330
18
100
AcDbEntity
  8
0
100
AcDbCircle
 10
745.7962462689522
 20
-631.0913303450571
 30
0.0
 40
1.5
100
AcDbArc
 50
90.0
 51
179.9998666844663
  0
LINE
  5
2281C
330
18
100
AcDbEntity
  8
0
100
AcDbLine
 10
746.8962334715832
 20
-636.5913303450571
 30
0.0
 11
745.7962369617726
 21
-636.5913303450571
 31
0.0
  0
LINE
  5
2281D
330
18
100
AcDbEntity
  8
0
100
AcDbLine
 10
744.2962462689563
 20
-631.0913268548647
 30
0.0
 11
744.2962369617767
 21
-635.0913268548647
 31
0.0
  0
ARC
  5
2281E
330
18
100
AcDbEntity
  8
0
100
AcDbCircle
 10
745.7962369617726
 20
-635.0913303450571
 30
0.0
 40
1.5
100
AcDbArc
 50
179.9998666844663
 51
270.0
  0
LINE
  5
2281F
330
18
100
AcDbEntity
  8
1CENTER
100
AcDbLine
 10
783.3270365326684
 20
-633.0913303450571
 30
0.0
 11
743.2259652060566
 21
-633.0913303450571
 31
0.0
  0
LINE
  5
22820
330
18
100
AcDbEntity
  8
0
100
AcDbLine
 10
779.7962441615252
 20
-631.9970065310621
 30
0.0
 11
780.5962395955762
 21
-633.9593416199375
 31
0.0
  0
LINE
  5
22821
330
18
100
AcDbEntity
  8
0
100
AcDbLine
 10
780.5962395955762
 20
-633.9593416199375
 30
0.0
 11
780.9080094518283
 21
-633.3710650448951
 31
0.0
  0
LINE
  5
22822
330
18
100
AcDbEntity
  8
0
100
AcDbLine
 10
757.3962462687352
 20
-631.0913768809551
 30
0.0
 11
758.1962369615535
 21
-635.0913768809551
 31
0.0
  0
LINE
  5
22823
330
18
100
AcDbEntity
  8
0
100
AcDbLine
 10
768.5962462687396
 20
-631.0913768809551
 30
0.0
 11
769.3962369615622
 21
-635.0913768809551
 31
0.0
  0
LINE
  5
22824
330
18
100
AcDbEntity
  8
0
100
AcDbLine
 10
771.7962462687397
 20
-631.0913768809551
 30
0.0
 11
772.5962369615622
 21
-635.0913768809551
 31
0.0
  0
LINE
  5
22825
330
18
100
AcDbEntity
  8
0
100
AcDbLine
 10
772.5962369615622
 20
-635.0913768809551
 30
0.0
 11
772.6962381249595
 21
-634.5913768809551
 31
0.0
  0
LINE
  5
22826
330
18
100
AcDbEntity
  8
0
100
AcDbLine
 10
773.2962451053425
 20
-631.5913768809551
 30
0.0
 11
773.3962462687397
 21
-631.0913768809551
 31
0.0
  0
LINE
  5
22827
330
18
100
AcDbEntity
  8
0
100
AcDbLine
 10
769.3962369615622
 20
-635.0913768809551
 30
0.0
 11
769.4962381249594
 21
-634.5913768809551
 31
0.0
  0
LINE
  5
22828
330
18
100
AcDbEntity
  8
0
100
AcDbLine
 10
770.9962369615623
 20
-635.0913768809551
 30
0.0
 11
771.0962381249594
 21
-634.5913768809551
 31
0.0
  0
LINE
  5
22829
330
18
100
AcDbEntity
  8
0
100
AcDbLine
 10
771.6962451053425
 20
-631.5913768809551
 30
0.0
 11
771.7962462687397
 21
-631.0913768809551
 31
0.0
  0
LINE
  5
2282A
330
18
100
AcDbEntity
  8
0
100
AcDbLine
 10
770.0962451053426
 20
-631.5913768809551
 30
0.0
 11
770.1962462687397
 21
-631.0913768809551
 31
0.0
  0
LINE
  5
2282B
330
18
100
AcDbEntity
  8
0
100
AcDbLine
 10
770.1962462687397
 20
-631.0913768809551
 30
0.0
 11
770.9962369615623
 21
-635.0913768809551
 31
0.0
  0
LINE
  5
2282C
330
18
100
AcDbEntity
  8
0
100
AcDbLine
 10
778.9962385419706
 20
-634.4121557243443
 30
0.0
 11
779.1790026845986
 21
-633.860406260541
 31
0.0
  0
LINE
  5
2282D
330
18
100
AcDbEntity
  8
0
100
AcDbLine
 10
775.7962369615623
 20
-635.0913768809551
 30
0.0
 11
775.8962381249594
 21
-634.5913768809551
 31
0.0
  0
LINE
  5
2282E
330
18
100
AcDbEntity
  8
0
100
AcDbLine
 10
774.1962369615622
 20
-635.0913768809551
 30
0.0
 11
774.2962381249592
 21
-634.5913768809551
 31
0.0
  0
LINE
  5
2282F
330
18
100
AcDbEntity
  8
0
100
AcDbLine
 10
777.3962374883649
 20
-634.8649698287511
 30
0.0
 11
777.5255081859948
 21
-634.32837609348
 31
0.0
  0
LINE
  5
22830
330
18
100
AcDbEntity
  8
0
100
AcDbLine
 10
778.0834757027794
 20
-632.0122914781638
 30
0.0
 11
778.1962452151295
 21
-631.5441930230138
 31
0.0
  0
LINE
  5
22831
330
18
100
AcDbEntity
  8
0
100
AcDbLine
 10
774.8962451053426
 20
-631.5913768809551
 30
0.0
 11
774.9962462687397
 21
-631.0913768809551
 31
0.0
  0
LINE
  5
22832
330
18
100
AcDbEntity
  8
0
100
AcDbLine
 10
776.4962451053425
 20
-631.5913768809551
 30
0.0
 11
776.5962462687396
 21
-631.0913768809551
 31
0.0
  0
LINE
  5
22833
330
18
100
AcDbEntity
  8
0
100
AcDbLine
 10
779.6448083650848
 20
-632.4541783716932
 30
0.0
 11
779.7962441615252
 21
-631.9970065310621
 31
0.0
  0
LINE
  5
22834
330
18
100
AcDbEntity
  8
0
100
AcDbLine
 10
778.1962452151295
 20
-631.5441930230138
 30
0.0
 11
778.9962385419706
 21
-634.4121557243443
 31
0.0
  0
LINE
  5
22835
330
18
100
AcDbEntity
  8
0
100
AcDbLine
 10
774.9962462687397
 20
-631.0913768809551
 30
0.0
 11
775.7962369615623
 21
-635.0913768809551
 31
0.0
  0
LINE
  5
22836
330
18
100
AcDbEntity
  8
0
100
AcDbLine
 10
776.5962462687396
 20
-631.0913768809551
 30
0.0
 11
777.3962374883649
 21
-634.8649698287511
 31
0.0
  0
LINE
  5
22837
330
18
100
AcDbEntity
  8
0
100
AcDbLine
 10
773.3962462687397
 20
-631.0913768809551
 30
0.0
 11
774.1962369615622
 21
-635.0913768809551
 31
0.0
  0
LINE
  5
22838
330
18
100
AcDbEntity
  8
0
100
AcDbLine
 10
760.5962462687353
 20
-631.0913768809551
 30
0.0
 11
761.3962369615535
 21
-635.0913768809551
 31
0.0
  0
LINE
  5
22839
330
18
100
AcDbEntity
  8
0
100
AcDbLine
 10
761.3962369615535
 20
-635.0913768809551
 30
0.0
 11
761.4962381249512
 21
-634.5913768809551
 31
0.0
  0
LINE
  5
2283A
330
18
100
AcDbEntity
  8
0
100
AcDbLine
 10
762.096245105342
 20
-631.5913768809551
 30
0.0
 11
762.1962462687396
 21
-631.0913768809551
 31
0.0
  0
LINE
  5
2283B
330
18
100
AcDbEntity
  8
0
100
AcDbLine
 10
759.7962369615534
 20
-635.0913768809551
 30
0.0
 11
759.8962381249511
 21
-634.5913768809551
 31
0.0
  0
LINE
  5
2283C
330
18
100
AcDbEntity
  8
0
100
AcDbLine
 10
758.1962369615535
 20
-635.0913768809551
 30
0.0
 11
758.2962381249512
 21
-634.5913768809551
 31
0.0
  0
LINE
  5
2283D
330
18
100
AcDbEntity
  8
0
100
AcDbLine
 10
760.4962451053376
 20
-631.5913768809551
 30
0.0
 11
760.5962462687353
 21
-631.0913768809551
 31
0.0
  0
LINE
  5
2283E
330
18
100
AcDbEntity
  8
0
100
AcDbLine
 10
758.8962451053375
 20
-631.5913768809551
 30
0.0
 11
758.9962462687351
 21
-631.0913768809551
 31
0.0
  0
LINE
  5
2283F
330
18
100
AcDbEntity
  8
0
100
AcDbLine
 10
758.9962462687351
 20
-631.0913768809551
 30
0.0
 11
759.7962369615534
 21
-635.0913768809551
 31
0.0
  0
LINE
  5
22840
330
18
100
AcDbEntity
  8
0
100
AcDbLine
 10
766.1962369615579
 20
-635.0913768809551
 30
0.0
 11
766.2962381249556
 21
-634.5913768809551
 31
0.0
  0
LINE
  5
22841
330
18
100
AcDbEntity
  8
0
100
AcDbLine
 10
767.7962369615623
 20
-635.0913768809551
 30
0.0
 11
767.8962381249594
 21
-634.5913768809551
 31
0.0
  0
LINE
  5
22842
330
18
100
AcDbEntity
  8
0
100
AcDbLine
 10
762.9962369615579
 20
-635.0913768809551
 30
0.0
 11
763.0962381249556
 21
-634.5913768809551
 31
0.0
  0
LINE
  5
22843
330
18
100
AcDbEntity
  8
0
100
AcDbLine
 10
764.5962369615578
 20
-635.0913768809551
 30
0.0
 11
764.6962381249555
 21
-634.5913768809551
 31
0.0
  0
LINE
  5
22844
330
18
100
AcDbEntity
  8
0
100
AcDbLine
 10
768.4962451053425
 20
-631.5913768809551
 30
0.0
 11
768.5962462687396
 21
-631.0913768809551
 31
0.0
  0
LINE
  5
22845
330
18
100
AcDbEntity
  8
0
100
AcDbLine
 10
766.8962451053419
 20
-631.5913768809551
 30
0.0
 11
766.9962462687397
 21
-631.0913768809551
 31
0.0
  0
LINE
  5
22846
330
18
100
AcDbEntity
  8
0
100
AcDbLine
 10
763.6962451053419
 20
-631.5913768809551
 30
0.0
 11
763.7962462687395
 21
-631.0913768809551
 31
0.0
  0
LINE
  5
22847
330
18
100
AcDbEntity
  8
0
100
AcDbLine
 10
765.296245105342
 20
-631.5913768809551
 30
0.0
 11
765.3962462687397
 21
-631.0913768809551
 31
0.0
  0
LINE
  5
22848
330
18
100
AcDbEntity
  8
0
100
AcDbLine
 10
765.3962462687397
 20
-631.0913768809551
 30
0.0
 11
766.1962369615579
 21
-635.0913768809551
 31
0.0
  0
LINE
  5
22849
330
18
100
AcDbEntity
  8
0
100
AcDbLine
 10
766.9962462687397
 20
-631.0913768809551
 30
0.0
 11
767.7962369615623
 21
-635.0913768809551
 31
0.0
  0
LINE
  5
2284A
330
18
100
AcDbEntity
  8
0
100
AcDbLine
 10
763.7962462687395
 20
-631.0913768809551
 30
0.0
 11
764.5962369615578
 21
-635.0913768809551
 31
0.0
  0
LINE
  5
2284B
330
18
100
AcDbEntity
  8
0
100
AcDbLine
 10
762.1962462687396
 20
-631.0913768809551
 30
0.0
 11
762.9962369615579
 21
-635.0913768809551
 31
0.0
  0
LINE
  5
2284C
330
18
100
AcDbEntity
  8
0
100
AcDbLine
 10
752.4962451053334
 20
-631.5913768809551
 30
0.0
 11
752.5962462687311
 21
-631.0913768809551
 31
0.0
  0
LINE
  5
2284D
330
18
100
AcDbEntity
  8
0
100
AcDbLine
 10
752.5962462687311
 20
-631.0913768809551
 30
0.0
 11
753.3962369615493
 21
-635.0913768809551
 31
0.0
  0
LINE
  5
2284E
330
18
100
AcDbEntity
  8
0
100
AcDbLine
 10
753.3962369615493
 20
-635.0913768809551
 30
0.0
 11
753.496238124947
 21
-634.5913768809551
 31
0.0
  0
LINE
  5
2284F
330
18
100
AcDbEntity
  8
0
100
AcDbLine
 10
754.0962451053333
 20
-631.5913768809551
 30
0.0
 11
754.196246268731
 21
-631.0913768809551
 31
0.0
  0
LINE
  5
22850
330
18
100
AcDbEntity
  8
0
100
AcDbLine
 10
755.6962451053332
 20
-631.5913768809551
 30
0.0
 11
755.7962462687309
 21
-631.0913768809551
 31
0.0
  0
LINE
  5
22851
330
18
100
AcDbEntity
  8
0
100
AcDbLine
 10
755.7962462687309
 20
-631.0913768809551
 30
0.0
 11
756.5962369615492
 21
-635.0913768809551
 31
0.0
  0
LINE
  5
22852
330
18
100
AcDbEntity
  8
0
100
AcDbLine
 10
754.9962369615492
 20
-635.0913768809551
 30
0.0
 11
755.0962381249469
 21
-634.5913768809551
 31
0.0
  0
LINE
  5
22853
330
18
100
AcDbEntity
  8
0
100
AcDbLine
 10
756.5962369615492
 20
-635.0913768809551
 30
0.0
 11
756.6962381249468
 21
-634.5913768809551
 31
0.0
  0
LINE
  5
22854
330
18
100
AcDbEntity
  8
0
100
AcDbLine
 10
754.196246268731
 20
-631.0913768809551
 30
0.0
 11
754.9962369615492
 21
-635.0913768809551
 31
0.0
  0
LINE
  5
22855
330
18
100
AcDbEntity
  8
0
100
AcDbLine
 10
757.2962451053376
 20
-631.5913768809551
 30
0.0
 11
757.3962462687352
 21
-631.0913768809551
 31
0.0
  0
LINE
  5
22856
330
18
100
AcDbEntity
  8
0
100
AcDbLine
 10
750.8962451053335
 20
-631.5913768809551
 30
0.0
 11
750.9962462687312
 21
-631.0913768809551
 31
0.0
  0
LINE
  5
22857
330
18
100
AcDbEntity
  8
0
100
AcDbLine
 10
750.9962462687312
 20
-631.0913768809551
 30
0.0
 11
751.7962369615494
 21
-635.0913768809551
 31
0.0
  0
LINE
  5
22858
330
18
100
AcDbEntity
  8
0
100
AcDbLine
 10
751.7962369615494
 20
-635.0913768809551
 30
0.0
 11
751.8962381249471
 21
-634.5913768809551
 31
0.0
  0
LINE
  5
22859
330
18
100
AcDbEntity
  8
0
100
AcDbLine
 10
749.2962451053336
 20
-631.5913768809551
 30
0.0
 11
749.3962462687313
 21
-631.0913768809551
 31
0.0
  0
LINE
  5
2285A
330
18
100
AcDbEntity
  8
0
100
AcDbLine
 10
749.3962462687313
 20
-631.0913768809551
 30
0.0
 11
750.1962369615495
 21
-635.0913768809551
 31
0.0
  0
LINE
  5
2285B
330
18
100
AcDbEntity
  8
0
100
AcDbLine
 10
750.1962369615495
 20
-635.0913768809551
 30
0.0
 11
750.2962381249472
 21
-634.5913768809551
 31
0.0
  0
LINE
  5
2285C
330
18
100
AcDbEntity
  8
0
100
AcDbLine
 10
747.6962451053337
 20
-631.5913768809551
 30
0.0
 11
747.7962462687314
 21
-631.0913768809551
 31
0.0
  0
LINE
  5
2285D
330
18
100
AcDbEntity
  8
0
100
AcDbLine
 10
747.7962462687314
 20
-631.0913768809551
 30
0.0
 11
748.5962369615496
 21
-635.0913768809551
 31
0.0
  0
LINE
  5
2285E
330
18
100
AcDbEntity
  8
0
100
AcDbLine
 10
748.5962369615496
 20
-635.0913768809551
 30
0.0
 11
748.6962381249473
 21
-634.5913768809551
 31
0.0
  0
LINE
  5
2285F
330
18
100
AcDbEntity
  8
0
  6
BYBLOCK
100
AcDbLine
 10
183.716237776826
 20
-687.9290254912677
 30
0.0
 11
177.716237776826
 21
-686.3213303512676
 31
0.0
  0
LINE
  5
22860
330
18
100
AcDbEntity
  8
0
  6
BYBLOCK
100
AcDbLine
 10
177.716237776826
 20
-686.3213303512676
 30
0.0
 11
183.716237776826
 21
-684.7136352112676
 31
0.0
  0
LINE
  5
22861
330
18
100
AcDbEntity
  8
0
  6
BYBLOCK
100
AcDbLine
 10
177.716237776826
 20
-686.3213303512676
 30
0.0
 11
183.716237776826
 21
-686.3213303512676
 31
0.0
  0
LINE
  5
22862
330
18
100
AcDbEntity
  8
0
  6
BYBLOCK
100
AcDbLine
 10
621.7162398749093
 20
-684.7136352112676
 30
0.0
 11
627.7162398749093
 21
-686.3213303512676
 31
0.0
  0
LINE
  5
22863
330
18
100
AcDbEntity
  8
0
  6
BYBLOCK
100
AcDbLine
 10
627.7162398749093
 20
-686.3213303512676
 30
0.0
 11
621.7162398749093
 21
-687.9290254912677
 31
0.0
  0
LINE
  5
22864
330
18
100
AcDbEntity
  8
0
  6
BYBLOCK
100
AcDbLine
 10
627.7162398749093
 20
-686.3213303512676
 30
0.0
 11
621.7162398749093
 21
-686.3213303512676
 31
0.0
  0
TEXT
  5
22865
330
18
100
AcDbEntity
  8
1DIM1
  6
CONTINUOUS
100
AcDbText
 10
384.0860304925343
 20
-684.2213303512676
 30
0.0
 40
10.5
  1
P450
100
AcDbText
1001
ACAD
1000
DSTYLE
1002
{
1070
    40
1040
3.0
1070
    45
1040
0.5
1002
}
  0
LINE
  5
22866
330
18
100
AcDbEntity
  8
0
  6
BYBLOCK
100
AcDbLine
 10
592.4817263768279
 20
-643.0913301277486
 30
0.0
 11
591.9458279968278
 21
-645.0913301277486
 31
0.0
  0
LINE
  5
22867
330
18
100
AcDbEntity
  8
0
  6
BYBLOCK
100
AcDbLine
 10
591.9458279968278
 20
-645.0913301277486
 30
0.0
 11
591.4099296168278
 21
-643.0913301277486
 31
0.0
  0
LINE
  5
22868
330
18
100
AcDbEntity
  8
0
  6
BYBLOCK
100
AcDbLine
 10
591.9458279968278
 20
-645.0913301277486
 30
0.0
 11
591.9458279968278
 21
-643.0913301277486
 31
0.0
  0
LINE
  5
22869
330
18
100
AcDbEntity
  8
0
  6
BYBLOCK
100
AcDbLine
 10
591.4099296168278
 20
-627.0913305747832
 30
0.0
 11
591.9458279968278
 21
-625.0913305747832
 31
0.0
  0
LINE
  5
2286A
330
18
100
AcDbEntity
  8
0
  6
BYBLOCK
100
AcDbLine
 10
591.9458279968278
 20
-625.0913305747832
 30
0.0
 11
592.4817263768279
 21
-627.0913305747832
 31
0.0
  0
LINE
  5
2286B
330
18
100
AcDbEntity
  8
0
  6
BYBLOCK
100
AcDbLine
 10
591.9458279968278
 20
-625.0913305747832
 30
0.0
 11
591.9458279968278
 21
-627.0913305747832
 31
0.0
  0
TEXT
  5
2286C
330
18
100
AcDbEntity
  8
1DIM
  6
CONTINUOUS
100
AcDbText
 10
591.2458279968278
 20
-622.2559139081164
 30
0.0
 40
3.5
  1
20
 50
90.0
100
AcDbText
1001
ACAD
1000
DSTYLE
1002
{
1070
    45
1040
0.5
1002
}
  0
LINE
  5
2286D
330
18
100
AcDbEntity
  8
0
  6
BYBLOCK
100
AcDbLine
 10
592.481726376828
 20
-590.2913318774017
 30
0.0
 11
591.9458279968279
 21
-592.2913318774017
 31
0.0
  0
LINE
  5
2286E
330
18
100
AcDbEntity
  8
0
  6
BYBLOCK
100
AcDbLine
 10
591.9458279968279
 20
-592.2913318774017
 30
0.0
 11
591.4099296168279
 21
-590.2913318774017
 31
0.0
  0
LINE
  5
2286F
330
18
100
AcDbEntity
  8
0
  6
BYBLOCK
100
AcDbLine
 10
591.9458279968279
 20
-592.2913318774017
 30
0.0
 11
591.9458279968279
 21
-590.2913318774017
 31
0.0
  0
LINE
  5
22870
330
18
100
AcDbEntity
  8
0
  6
BYBLOCK
100
AcDbLine
 10
591.4099296168279
 20
-584.291330238274
 30
0.0
 11
591.9458279968279
 21
-582.291330238274
 31
0.0
  0
LINE
  5
22871
330
18
100
AcDbEntity
  8
0
  6
BYBLOCK
100
AcDbLine
 10
591.9458279968279
 20
-582.291330238274
 30
0.0
 11
592.481726376828
 21
-584.291330238274
 31
0.0
  0
LINE
  5
22872
330
18
100
AcDbEntity
  8
0
  6
BYBLOCK
100
AcDbLine
 10
591.9458279968279
 20
-582.291330238274
 30
0.0
 11
591.9458279968279
 21
-584.291330238274
 31
0.0
  0
TEXT
  5
22873
330
18
100
AcDbEntity
  8
1DIM
  6
CONTINUOUS
100
AcDbText
 10
591.2458279968279
 20
-579.1225802382739
 30
0.0
 40
3.5
  1
10
 50
90.0
100
AcDbText
1001
ACAD
1000
DSTYLE
1002
{
1070
    45
1040
0.5
1002
}
  0
LINE
  5
22874
330
18
100
AcDbEntity
  8
0
  6
BYBLOCK
100
AcDbLine
 10
709.3962410768643
 20
-680.009081274882
 30
0.0
 11
707.3962410768643
 21
-679.4731828948819
 31
0.0
  0
LINE
  5
22875
330
18
100
AcDbEntity
  8
0
  6
BYBLOCK
100
AcDbLine
 10
707.3962410768643
 20
-679.4731828948819
 30
0.0
 11
709.3962410768643
 21
-678.9372845148819
 31
0.0
  0
LINE
  5
22876
330
18
100
AcDbEntity
  8
0
  6
BYBLOCK
100
AcDbLine
 10
707.3962410768643
 20
-679.4731828948819
 30
0.0
 11
709.3962410768643
 21
-679.4731828948819
 31
0.0
  0
LINE
  5
22877
330
18
100
AcDbEntity
  8
0
  6
BYBLOCK
100
AcDbLine
 10
750.8962416153649
 20
-678.9372845148819
 30
0.0
 11
752.8962416153649
 21
-679.4731828948819
 31
0.0
  0
LINE
  5
22878
330
18
100
AcDbEntity
  8
0
  6
BYBLOCK
100
AcDbLine
 10
752.8962416153649
 20
-679.4731828948819
 30
0.0
 11
750.8962416153649
 21
-680.009081274882
 31
0.0
  0
LINE
  5
22879
330
18
100
AcDbEntity
  8
0
  6
BYBLOCK
100
AcDbLine
 10
752.8962416153649
 20
-679.4731828948819
 30
0.0
 11
750.8962416153649
 21
-679.4731828948819
 31
0.0
  0
TEXT
  5
2287A
330
18
100
AcDbEntity
  8
1DIM
  6
CONTINUOUS
100
AcDbText
 10
724.9840887285056
 20
-678.7731828948818
 30
0.0
 40
3.5
  1
45.5
100
AcDbText
1001
ACAD
1000
DSTYLE
1002
{
1070
    45
1040
0.5
1002
}
  0
LINE
  5
2287B
330
18
100
AcDbEntity
  8
0
  6
BYBLOCK
100
AcDbLine
 10
750.8962416153649
 20
-668.5247524401071
 30
0.0
 11
752.8962416153649
 21
-669.0606508201072
 31
0.0
  0
LINE
  5
2287C
330
18
100
AcDbEntity
  8
0
  6
BYBLOCK
100
AcDbLine
 10
752.8962416153649
 20
-669.0606508201072
 30
0.0
 11
750.8962416153649
 21
-669.5965492001072
 31
0.0
  0
LINE
  5
2287D
330
18
100
AcDbEntity
  8
0
  6
BYBLOCK
100
AcDbLine
 10
752.8962416153649
 20
-669.0606508201072
 30
0.0
 11
750.8962416153649
 21
-669.0606508201072
 31
0.0
  0
LINE
  5
2287E
330
18
100
AcDbEntity
  8
0
  6
BYBLOCK
100
AcDbLine
 10
736.896252946014
 20
-669.5965492001072
 30
0.0
 11
734.896252946014
 21
-669.0606508201072
 31
0.0
  0
LINE
  5
2287F
330
18
100
AcDbEntity
  8
0
  6
BYBLOCK
100
AcDbLine
 10
734.896252946014
 20
-669.0606508201072
 30
0.0
 11
736.896252946014
 21
-668.5247524401071
 31
0.0
  0
LINE
  5
22880
330
18
100
AcDbEntity
  8
0
  6
BYBLOCK
100
AcDbLine
 10
734.896252946014
 20
-669.0606508201072
 30
0.0
 11
736.896252946014
 21
-669.0606508201072
 31
0.0
  0
TEXT
  5
22881
330
18
100
AcDbEntity
  8
1DIM
  6
CONTINUOUS
100
AcDbText
 10
740.3129082820316
 20
-668.3606508201071
 30
0.0
 40
3.5
  1
18
100
AcDbText
1001
ACAD
1000
DSTYLE
1002
{
1070
    45
1040
0.5
1002
}
  0
LINE
  5
22882
330
18
100
AcDbEntity
  8
0
  6
BYBLOCK
100
AcDbLine
 10
794.932139995365
 20
-631.0913303450571
 30
0.0
 11
794.3962416153649
 21
-633.0913303450571
 31
0.0
  0
LINE
  5
22883
330
18
100
AcDbEntity
  8
0
  6
BYBLOCK
100
AcDbLine
 10
794.3962416153649
 20
-633.0913303450571
 30
0.0
 11
793.8603432353649
 21
-631.0913303450571
 31
0.0
  0
LINE
  5
22884
330
18
100
AcDbEntity
  8
0
  6
BYBLOCK
100
AcDbLine
 10
794.3962416153649
 20
-633.0913303450571
 30
0.0
 11
794.3962416153649
 21
-631.0913303450571
 31
0.0
  0
LINE
  5
22885
330
18
100
AcDbEntity
  8
0
  6
BYBLOCK
100
AcDbLine
 10
793.8603432353649
 20
-623.591330323471
 30
0.0
 11
794.3962416153649
 21
-621.591330323471
 31
0.0
  0
LINE
  5
22886
330
18
100
AcDbEntity
  8
0
  6
BYBLOCK
100
AcDbLine
 10
794.3962416153649
 20
-621.591330323471
 30
0.0
 11
794.932139995365
 21
-623.591330323471
 31
0.0
  0
LINE
  5
22887
330
18
100
AcDbEntity
  8
0
  6
BYBLOCK
100
AcDbLine
 10
794.3962416153649
 20
-621.591330323471
 30
0.0
 11
794.3962416153649
 21
-623.591330323471
 31
0.0
  0
TEXT
  5
22888
330
18
100
AcDbEntity
  8
1DIM
  6
CONTINUOUS
100
AcDbText
 10
793.6962416153649
 20
-629.6746636675974
 30
0.0
 40
3.5
  1
12
 50
90.0
100
AcDbText
1001
ACAD
1000
DSTYLE
1002
{
1070
    45
1040
0.5
1070
   271
1070
     0
1002
}
  0
LINE
  5
22889
330
18
100
AcDbEntity
  8
0
  6
BYBLOCK
100
AcDbLine
 10
167.0162386829194
 20
-708.9290254912672
 30
0.0
 11
161.0162386829194
 21
-707.3213303512672
 31
0.0
  0
LINE
  5
2288A
330
18
100
AcDbEntity
  8
0
  6
BYBLOCK
100
AcDbLine
 10
161.0162386829194
 20
-707.3213303512672
 30
0.0
 11
167.0162386829194
 21
-705.7136352112672
 31
0.0
  0
LINE
  5
2288B
330
18
100
AcDbEntity
  8
0
  6
BYBLOCK
100
AcDbLine
 10
161.0162386829194
 20
-707.3213303512672
 30
0.0
 11
167.0162386829194
 21
-707.3213303512672
 31
0.0
  0
LINE
  5
2288C
330
18
100
AcDbEntity
  8
0
  6
BYBLOCK
100
AcDbLine
 10
638.416238968816
 20
-705.7136352112672
 30
0.0
 11
644.416238968816
 21
-707.3213303512672
 31
0.0
  0
LINE
  5
2288D
330
18
100
AcDbEntity
  8
0
  6
BYBLOCK
100
AcDbLine
 10
644.416238968816
 20
-707.3213303512672
 30
0.0
 11
638.416238968816
 21
-708.9290254912672
 31
0.0
  0
LINE
  5
2288E
330
18
100
AcDbEntity
  8
0
  6
BYBLOCK
100
AcDbLine
 10
644.416238968816
 20
-707.3213303512672
 30
0.0
 11
638.416238968816
 21
-707.3213303512672
 31
0.0
  0
TEXT
  5
2288F
330
18
100
AcDbEntity
  8
1DIM1
  6
CONTINUOUS
100
AcDbText
 10
381.7162388258677
 20
-705.2213303512672
 30
0.0
 40
10.5
  1
483.5
100
AcDbText
1001
ACAD
1000
DSTYLE
1002
{
1070
    40
1040
3.0
1070
    45
1040
0.5
1002
}
  0
LINE
  5
22890
330
18
100
AcDbEntity
  8
0
  6
BYBLOCK
100
AcDbLine
 10
804.932139995365
 20
-646.5913303790607
 30
0.0
 11
804.3962416153649
 21
-648.5913303790607
 31
0.0
  0
LINE
  5
22891
330
18
100
AcDbEntity
  8
0
  6
BYBLOCK
100
AcDbLine
 10
804.3962416153649
 20
-648.5913303790607
 30
0.0
 11
803.8603432353649
 21
-646.5913303790607
 31
0.0
  0
LINE
  5
22892
330
18
100
AcDbEntity
  8
0
  6
BYBLOCK
100
AcDbLine
 10
804.3962416153649
 20
-648.5913303790607
 30
0.0
 11
804.3962416153649
 21
-646.5913303790607
 31
0.0
  0
LINE
  5
22893
330
18
100
AcDbEntity
  8
0
  6
BYBLOCK
100
AcDbLine
 10
803.8603432353649
 20
-623.591330323471
 30
0.0
 11
804.3962416153649
 21
-621.591330323471
 31
0.0
  0
LINE
  5
22894
330
18
100
AcDbEntity
  8
0
  6
BYBLOCK
100
AcDbLine
 10
804.3962416153649
 20
-621.591330323471
 30
0.0
 11
804.932139995365
 21
-623.591330323471
 31
0.0
  0
LINE
  5
22895
330
18
100
AcDbEntity
  8
0
  6
BYBLOCK
100
AcDbLine
 10
804.3962416153649
 20
-621.591330323471
 30
0.0
 11
804.3962416153649
 21
-623.591330323471
 31
0.0
  0
TEXT
  5
22896
330
18
100
AcDbEntity
  8
1DIM
  6
CONTINUOUS
100
AcDbText
 10
803.6962416153649
 20
-638.0079970179326
 30
0.0
 40
3.5
  1
27
 50
90.0
100
AcDbText
1001
ACAD
1000
DSTYLE
1002
{
1070
    45
1040
0.5
1002
}
  0
LINE
  5
22897
330
18
100
AcDbEntity
  8
0
  6
BYBLOCK
100
AcDbLine
 10
642.4162389688155
 20
-511.755431971266
 30
0.0
 11
644.4162389688155
 21
-512.291330351266
 31
0.0
  0
LINE
  5
22898
330
18
100
AcDbEntity
  8
0
  6
BYBLOCK
100
AcDbLine
 10
644.4162389688155
 20
-512.291330351266
 30
0.0
 11
642.4162389688155
 21
-512.827228731266
 31
0.0
  0
LINE
  5
22899
330
18
100
AcDbEntity
  8
0
  6
BYBLOCK
100
AcDbLine
 10
644.4162389688155
 20
-512.291330351266
 30
0.0
 11
642.4162389688155
 21
-512.291330351266
 31
0.0
  0
LINE
  5
2289A
330
18
100
AcDbEntity
  8
0
  6
BYBLOCK
100
AcDbLine
 10
616.7162388258675
 20
-512.827228731266
 30
0.0
 11
614.7162388258675
 21
-512.291330351266
 31
0.0
  0
LINE
  5
2289B
330
18
100
AcDbEntity
  8
0
  6
BYBLOCK
100
AcDbLine
 10
614.7162388258675
 20
-512.291330351266
 30
0.0
 11
616.7162388258675
 21
-511.755431971266
 31
0.0
  0
LINE
  5
2289C
330
18
100
AcDbEntity
  8
0
  6
BYBLOCK
100
AcDbLine
 10
614.7162388258675
 20
-512.291330351266
 30
0.0
 11
616.7162388258675
 21
-512.291330351266
 31
0.0
  0
TEXT
  5
2289D
330
18
100
AcDbEntity
  8
1DIM
  6
CONTINUOUS
100
AcDbText
 10
624.3154287121563
 20
-511.5913303512659
 30
0.0
 40
3.5
  1
29.5
100
AcDbText
1001
ACAD
1000
DSTYLE
1002
{
1070
    45
1040
0.5
1002
}
  0
VIEWPORT
  5
57
330
15
100
AcDbEntity
 67
     1
  8
0
100
AcDbViewport
 68
     1
 10
0.0
 20
0.0
 30
0.0
 40
634.7234042553191
 41
297.0
 68
     1
 69
     1
1001
ACAD
1000
MVIEW
1002
{
1070
    16
1010
0.0
1020
0.0
1030
0.0
1010
0.0
1020
0.0
1030
1.0
1040
0.0
1040
297.0
1040
-4.171999999925333
1040
12.83903210976956
1040
50.0
1040
0.0
1040
0.0
1070
    16
1070
   100
1070
     0
1070
     1
1070
     0
1070
     0
1070
     0
1070
     0
1040
0.0
1040
0.0
1040
0.0
1040
10.0
1040
10.0
1040
10.0
1040
10.0
1070
     0
1002
{
1002
}
1002
}
  0
ENDSEC
  0
SECTION
  2
OBJECTS
  0
DICTIONARY
  5
C
330
0
100
AcDbDictionary
  3
ACAD_COLOR
350
2D0
  3
ACAD_GROUP
350
D
  3
ACAD_LAYOUT
350
2D1
  3
ACAD_MATERIAL
350
2CF
  3
ACAD_MLEADERSTYLE
350
19E18
  3
ACAD_MLINESTYLE
350
1B
  3
ACAD_PLOTSETTINGS
350
2D2
  3
ACAD_SCALELIST
350
19DF6
  3
ACAD_VISUALSTYLE
350
19DE5
  3
ACDBHEADERROUNDTRIPXREC
350
2289E
  3
ACDBVARIABLEDICTIONARY
350
37
  3
CONTENTDICTIONARY
350
D8
  3
DRAWINGVARIABLESDICT
350
20
  3
DWGPROPS
350
228A1
1001
ACAD
1000
TREAT_AS_HARD
1070
     0
  0
DICTIONARY
  5
18FE8
330
2
100
AcDbDictionary
  3
ACAD_LAYERSTATES
360
18FE9
1001
ACAD
1000
TREAT_AS_HARD
1070
     1
  0
DICTIONARY
  5
1A20A
330
E
100
AcDbDictionary
  3
ADSK_XREC_LAYER_RECONCILED
360
1A20B
1001
ACAD
1000
TREAT_AS_HARD
1070
     1
  0
DICTIONARY
  5
1A20C
330
29
100
AcDbDictionary
  3
ADSK_XREC_LAYER_RECONCILED
360
1A20D
1001
ACAD
1000
TREAT_AS_HARD
1070
     1
  0
DICTIONARY
  5
1A20E
330
31
100
AcDbDictionary
  3
ADSK_XREC_LAYER_RECONCILED
360
1A20F
1001
ACAD
1000
TREAT_AS_HARD
1070
     1
  0
DICTIONARY
  5
1A218
330
101
100
AcDbDictionary
  3
ADSK_XREC_LAYER_RECONCILED
360
1A219
1001
ACAD
1000
TREAT_AS_HARD
1070
     1
  0
DICTIONARY
  5
1A21C
330
103
100
AcDbDictionary
  3
ADSK_XREC_LAYER_RECONCILED
360
1A21D
1001
ACAD
1000
TREAT_AS_HARD
1070
     1
  0
DICTIONARY
  5
1A220
330
25F
100
AcDbDictionary
  3
ADSK_XREC_LAYER_RECONCILED
360
1A221
1001
ACAD
1000
TREAT_AS_HARD
1070
     1
  0
DICTIONARY
  5
1A236
330
26A
100
AcDbDictionary
  3
ADSK_XREC_LAYER_RECONCILED
360
1A237
1001
ACAD
1000
TREAT_AS_HARD
1070
     1
  0
DICTIONARY
  5
6E9
330
18
100
AcDbDictionary
  3
ACAD_SORTENTS
360
6EA
1001
ACAD
1000
TREAT_AS_HARD
1070
     1
  0
DICTIONARY
  5
59B
330
15
100
AcDbDictionary
  3
ACAD_SORTENTS
360
59C
1001
ACAD
1000
TREAT_AS_HARD
1070
     1
  0
DICTIONARY
  5
2D0
102
{ACAD_REACTORS
330
C
102
}
330
C
100
AcDbDictionary
1001
ACAD
1000
TREAT_AS_HARD
1070
     0
  0
DICTIONARY
  5
D
102
{ACAD_REACTORS
330
C
102
}
330
C
100
AcDbDictionary
  3
*A1
350
1E9DA
  3
*A2
350
1E9F2
  3
*A3
350
1EDFD
1001
ACAD
1000
TREAT_AS_HARD
1070
     0
  0
DICTIONARY
  5
2D1
102
{ACAD_REACTORS
330
C
102
}
330
C
100
AcDbDictionary
1001
ACAD
1000
TREAT_AS_HARD
1070
     0
  0
DICTIONARY
  5
2CF
102
{ACAD_REACTORS
330
C
102
}
330
C
100
AcDbDictionary
  3
BYBLOCK
350
19DD5
  3
BYLAYER
350
19DCD
  3
GLOBAL
350
19DDD
1001
ACAD
1000
TREAT_AS_HARD
1070
     0
  0
DICTIONARY
  5
19E18
102
{ACAD_REACTORS
330
C
102
}
330
C
100
AcDbDictionary
  3
STANDARD
350
19E19
1001
ACAD
1000
TREAT_AS_HARD
1070
     0
  0
DICTIONARY
  5
1B
102
{ACAD_REACTORS
330
C
102
}
330
C
100
AcDbDictionary
  3
STANDARD
350
1C
1001
ACAD
1000
TREAT_AS_HARD
1070
     0
  0
DICTIONARY
  5
2D2
102
{ACAD_REACTORS
330
C
102
}
330
C
100
AcDbDictionary
1001
ACAD
1000
TREAT_AS_HARD
1070
     0
  0
DICTIONARY
  5
19DF6
102
{ACAD_REACTORS
330
C
102
}
330
C
100
AcDbDictionary
  3
A0
350
19DF7
  3
A1
350
19DF8
  3
A2
350
19DF9
  3
A3
350
19DFA
  3
A4
350
19DFB
  3
A5
350
19DFC
  3
A6
350
19DFD
  3
A7
350
19DFE
  3
A8
350
19DFF
  3
A9
350
19E00
  3
B0
350
19E01
  3
B1
350
19E02
  3
B2
350
19E03
  3
B3
350
19E04
  3
B4
350
19E05
  3
B5
350
19E06
  3
B6
350
19E07
  3
B7
350
19E08
  3
B8
350
19E09
  3
B9
350
19E0A
  3
C0
350
19E0B
  3
C1
350
19E0C
  3
C2
350
19E0D
  3
C3
350
19E0E
  3
C4
350
19E0F
  3
C5
350
19E10
  3
C6
350
19E11
  3
C7
350
19E12
  3
C8
350
19E13
  3
C9
350
19E14
  3
D0
350
19E15
  3
D1
350
19E16
  3
D2
350
19E17
1001
ACAD
1000
TREAT_AS_HARD
1070
     0
  0
DICTIONARY
  5
19DE5
102
{ACAD_REACTORS
330
C
102
}
330
C
100
AcDbDictionary
  3
2DWIREFRAME
350
19DEB
  3
3D_HIDDEN
350
19DED
  3
3DWIREFRAME
350
19DEC
  3
BASIC
350
19DEA
  3
BRIGHTEN
350
19DF1
  3
COLORCHANGE
350
19DF5
  3
CONCEPTUAL
350
19DEE
  3
DIM
350
19DF0
  3
EDGECOLOROFF
350
1E02A
  3
FACEPATTERN
350
19DF4
  3
FLAT
350
19DE6
  3
FLATWITHEDGES
350
19DE7
  3
GOURAUD
350
19DE8
  3
GOURAUDWITHEDGES
350
19DE9
  3
HIDDEN
350
1F381
  3
JITTEROFF
350
1E028
  3
LINEPATTERN
350
19DF3
  3
MODELING
350
1F387
  3
OVERHANGOFF
350
1E029
  3
REALISTIC
350
19DEF
  3
SHADED
350
1F386
  3
SHADED_WITH_EDGES
350
1F385
  3
SHADES_OF_GRAY
350
1F382
  3
SKETCHY
350
1F383
  3
THICKEN
350
19DF2
  3
WIREFRAME
350
1F380
  3
X-RAY
350
1F384
1001
ACAD
1000
TREAT_AS_HARD
1070
     0
  0
DICTIONARY
  5
2289E
102
{ACAD_REACTORS
330
C
102
}
330
C
100
AcDbDictionary
  3
COLORDICT
350
2289F
  3
MATERIALDICT
350
228A0
1001
ACAD
1000
TREAT_AS_HARD
1070
     0
  0
DICTIONARY
  5
37
102
{ACAD_REACTORS
330
C
102
}
330
C
100
AcDbDictionary
  3
CANNOSCALE
350
20A45
  3
CMLEADERSTYLE
350
1AC19
  3
CTABLESTYLE
350
4F1
  3
DIMADEC
350
38
  3
DIMASSOC
350
408
  3
HIDETEXT
350
1891
  3
INDEXCTL
350
1AC1C
  3
INTERSECTIONCOLOR
350
1895
  3
INTERSECTIONDISPLAY
350
1894
  3
MSLTSCALE
350
20A9B
  3
OBSCOLOR
350
1892
  3
OBSLTYPE
350
1893
  3
PROJECTNAME
350
409
  3
SORTENTS
350
1AC1B
  3
XCLIPFRAME
350
1F37F
1001
ACAD
1000
TREAT_AS_HARD
1070
     0
  0
DICTIONARY
  5
D8
102
{ACAD_REACTORS
330
C
102
}
330
C
100
AcDbDictionary
1001
CONTENTTABDATA
1070
    11
1000
Child
1000
D:\ACLT\TABset\CHILDREN.dwg
1070
     0
1070
     0
1070
     1
1000
PK
1000
D:\ACLT\TABset\PK.dwg
1070
     0
1070
     0
1070
     1
1000
Lev1
1000
D:\ACLT\TABset\Lever01.dwg
1070
     0
1070
     0
1070
     1
1000
Lev2
1000
D:\ACLT\TABset\Lever02.dwg
1070
     0
1070
     0
1070
     1
1000
L3
1000
D:\Aclt\TABset\Lever03.dwg
1070
     0
1070
     0
1070
     1
1000
Form
1000
D:\ACLT\FORMAT
1070
     1
1070
     0
1070
     1
1000
Jnt
1000
D:\ACLT\TABset\JOINTPARTS.dwg
1070
     0
1070
     0
1070
     1
1000
ISO
1000
D:\ACLT\TABset\Isome01.dwg
1070
     0
1070
     0
1070
     1
1000
R
1000
D:\ACLT\TABset\REGION.dwg
1070
     0
1070
     0
1070
     1
1000
std
1000
D:\ACLT\TABset\std_sym_all.dwg
1070
     0
1070
     0
1070
     1
1000
丸
1000
D:\Aclt\TABset\MARU.dwg
1070
     0
1070
     0
1070
     1
1001
CONTENTCURRENTTAB
1070
     0
1001
ACAD
1000
TREAT_AS_HARD
1070
     0
  0
DICTIONARY
  5
20
102
{ACAD_REACTORS
330
C
102
}
330
C
100
AcDbDictionary
1001
DRAWINGVARIABLESXDATA
1000
POLARANG
1000
0.261799387799149410000000
1000
POLARMODE
1000
1
1000
POLARSTYLE
1000
1
1001
ACAD
1000
TREAT_AS_HARD
1070
     0
  0
XRECORD
  5
228A1
102
{ACAD_REACTORS
330
C
102
}
330
C
100
AcDbXrecord
  1
DWGPROPS COOKIE
  2

  3

  4

  6

  7

  8
3684
  9

300
=
301
=
302
=
303
=
304
=
305
=
306
=
307
=
308
=
309
=
 40
0.0
 41
2453033.357663484
 42
2459535.012129965
  1

 90
        0
  0
DICTIONARY
  5
18FE9
102
{ACAD_REACTORS
330
18FE8
102
}
330
18FE8
100
AcDbDictionary
1001
ACAD
1000
TREAT_AS_HARD
1070
     0
  0
ACAD_PROXY_OBJECT
  5
1A20B
102
{ACAD_REACTORS
330
1A20A
102
}
330
1A20A
100
AcDbZombieObject
 90
      499
 91
      517
 93
       34
310
40C8804040
  0
ACAD_PROXY_OBJECT
  5
1A20D
102
{ACAD_REACTORS
330
1A20C
102
}
330
1A20C
100
AcDbZombieObject
 90
      499
 91
      517
 93
       34
310
40C8804040
  0
ACAD_PROXY_OBJECT
  5
1A20F
102
{ACAD_REACTORS
330
1A20E
102
}
330
1A20E
100
AcDbZombieObject
 90
      499
 91
      517
 93
       34
310
40C8804040
  0
ACAD_PROXY_OBJECT
  5
1A219
102
{ACAD_REACTORS
330
1A218
102
}
330
1A218
100
AcDbZombieObject
 90
      499
 91
      517
 93
       34
310
40C8804040
  0
ACAD_PROXY_OBJECT
  5
1A21D
102
{ACAD_REACTORS
330
1A21C
102
}
330
1A21C
100
AcDbZombieObject
 90
      499
 91
      517
 93
       34
310
40C8804040
  0
ACAD_PROXY_OBJECT
  5
1A221
102
{ACAD_REACTORS
330
1A220
102
}
330
1A220
100
AcDbZombieObject
 90
      499
 91
      517
 93
       34
310
40C8804040
  0
ACAD_PROXY_OBJECT
  5
1A237
102
{ACAD_REACTORS
330
1A236
102
}
330
1A236
100
AcDbZombieObject
 90
      499
 91
      517
 93
       34
310
40C8804040
  0
SORTENTSTABLE
  5
6EA
102
{ACAD_REACTORS
330
6E9
102
}
330
6E9
100
AcDbSortentsTable
330
18
331
0
  5
99AB
331
0
  5
AB53
331
0
  5
AB54
331
0
  5
ECB5
331
0
  5
1D308
331
0
  5
1D523
331
1D8CA
  5
21489
331
1D90A
  5
2148A
331
0
  5
1DB93
331
1DB9B
  5
21D46
331
1DBA4
  5
21D47
331
1DBA5
  5
21D48
331
1DBA6
  5
21D49
331
0
  5
1E232
331
0
  5
1E233
331
0
  5
1E234
331
0
  5
1E235
331
0
  5
1E236
331
0
  5
1E7B5
331
0
  5
1E7B6
331
0
  5
1E9D9
331
0
  5
1E7B8
331
1E9D4
  5
21E58
331
1E9D5
  5
21E59
331
1E9D6
  5
21E5A
331
1E9D7
  5
21E5B
331
1E9D8
  5
21E5C
331
0
  5
1E9EA
331
1E9E5
  5
220BE
331
1E9E6
  5
220BF
331
1E9E7
  5
220C0
331
1E9E8
  5
220C1
331
1E9E9
  5
22112
331
0
  5
21003
331
20F33
  5
2271B
331
21003
  5
2271C
331
211E1
  5
2271D
331
211E3
  5
2271E
331
211E9
  5
2271F
331
211EB
  5
22720
331
212B3
  5
22721
331
212B4
  5
22722
331
212B5
  5
22723
331
212C7
  5
22724
331
212C8
  5
22725
331
212C9
  5
22726
331
212CA
  5
22727
331
2131B
  5
22728
331
2131C
  5
22729
331
2131D
  5
2272A
331
2131E
  5
2272B
331
2131F
  5
2272C
331
21320
  5
2272D
331
21321
  5
2272E
331
21322
  5
2272F
331
21323
  5
22730
331
21324
  5
22732
331
21325
  5
22733
331
21326
  5
22734
331
21327
  5
22735
331
21328
  5
22736
331
21329
  5
22737
331
2132A
  5
22738
331
2132B
  5
22739
331
2132C
  5
2273A
331
21336
  5
2273B
331
21337
  5
2273C
331
21338
  5
2273D
331
21339
  5
2273E
331
21342
  5
2273F
331
21345
  5
22740
331
21346
  5
22741
331
21487
  5
22742
331
21488
  5
22743
331
21489
  5
22744
331
2148A
  5
22745
331
0
  5
214CE
331
0
  5
214D2
331
0
  5
214D3
331
0
  5
214D7
331
0
  5
21D38
331
0
  5
21D3A
331
21D38
  5
22755
331
21D3A
  5
22768
331
21D3B
  5
22769
331
21D3C
  5
2276A
331
21D3D
  5
2276B
331
21D3E
  5
2276C
331
21D3F
  5
2276D
331
21D40
  5
2276E
331
21D41
  5
2276F
331
21D42
  5
22770
331
21D43
  5
22771
331
21D44
  5
22772
331
21D45
  5
22773
331
21D46
  5
22774
331
21D47
  5
22775
331
21D48
  5
22776
331
21D49
  5
22777
331
21D4A
  5
22778
331
21D4B
  5
22779
331
21D4C
  5
2277A
331
21D4D
  5
2277B
331
21D4E
  5
2277C
331
21D4F
  5
2277D
331
21D50
  5
2277E
331
21D51
  5
2277F
331
21D52
  5
22780
331
21D53
  5
22781
331
21D54
  5
22782
331
21D55
  5
22783
331
21DE6
  5
22784
331
21DE7
  5
22785
331
21DE8
  5
22786
331
21DEC
  5
22787
331
21DED
  5
22788
331
21DEE
  5
22789
331
21DEF
  5
2278A
331
21DF2
  5
2278B
331
21DF3
  5
2278C
331
21DF4
  5
2278D
331
21DF5
  5
2278E
331
21DF6
  5
2278F
331
21E32
  5
22790
331
21E33
  5
22791
331
21E35
  5
227A4
331
21E36
  5
227A5
331
21E37
  5
227A6
331
21E38
  5
227A7
331
21E39
  5
227A8
331
21E3A
  5
227A9
331
21E3B
  5
227AA
331
21E3C
  5
227AB
331
21E3D
  5
227AC
331
21E3E
  5
227AD
331
21E3F
  5
227AE
331
21E40
  5
227AF
331
21E41
  5
227B0
331
21E42
  5
227B1
331
21E43
  5
227B2
331
21E44
  5
227B3
331
21E45
  5
227B4
331
21E46
  5
227B5
331
21E47
  5
227B6
331
21E48
  5
227B7
331
21E49
  5
227B8
331
21E4A
  5
227B9
331
21E4B
  5
227BA
331
21E4C
  5
227BB
331
21E4D
  5
227BC
331
21E4E
  5
227BD
331
21E4F
  5
227BE
331
21E52
  5
227BF
331
21E53
  5
227C0
331
21E54
  5
227C1
331
21E58
  5
227C2
331
21E59
  5
227C3
331
21E5A
  5
227C4
331
21E5B
  5
227C5
331
21E5C
  5
227C6
331
21E5D
  5
227C7
331
21E5E
  5
227C8
331
21E5F
  5
227C9
331
21E60
  5
227CA
331
21EAC
  5
227CB
331
21EAD
  5
227CC
331
21EAE
  5
227CD
331
21EAF
  5
227CE
331
21EB0
  5
227CF
331
21EB1
  5
227D0
331
21EB2
  5
227D1
331
21EB3
  5
227D2
331
21EB4
  5
227D3
331
21EB5
  5
227D4
331
21EB7
  5
227D5
331
21EB8
  5
227D6
331
21EB9
  5
227D7
331
21EBA
  5
227D8
331
21EBB
  5
227D9
331
21EBC
  5
227DA
331
21EBD
  5
227DB
331
21EBE
  5
227DC
331
21EBF
  5
227DD
331
21EC0
  5
227DE
331
21EC1
  5
227DF
331
21EC2
  5
227E0
331
21EC3
  5
227E1
331
21EC6
  5
227E2
331
21EC8
  5
227E3
331
21EC9
  5
227E4
331
21ECA
  5
227E5
331
21ECB
  5
227E6
331
21ECC
  5
227E7
331
21ECD
  5
227E8
331
21ECE
  5
227E9
331
21ECF
  5
227EA
331
21ED0
  5
227EB
331
21ED1
  5
227EC
331
21ED2
  5
227ED
331
21ED3
  5
227EE
331
21ED4
  5
227EF
331
21ED5
  5
227F0
331
21ED6
  5
227F1
331
21ED7
  5
227F2
331
21ED8
  5
227F3
331
21ED9
  5
227F4
331
21EDA
  5
227F5
331
21EDB
  5
227F6
331
21EDC
  5
227F7
331
21EDD
  5
227F8
331
21EDE
  5
227F9
331
21FD4
  5
227FA
331
21FD5
  5
227FB
331
21FD6
  5
227FC
331
21FD7
  5
227FD
331
21FD8
  5
227FE
331
21FD9
  5
227FF
331
22056
  5
22800
331
22057
  5
22801
331
22059
  5
22802
331
2205A
  5
22803
331
2205B
  5
22804
331
2205C
  5
22805
331
2205D
  5
22806
331
2205E
  5
22807
331
22063
  5
22808
331
22064
  5
22809
331
22065
  5
2280A
331
220B8
  5
2280B
331
220B9
  5
2280C
331
220BA
  5
2280D
331
220BB
  5
2280E
331
220BC
  5
2280F
331
220BD
  5
22810
331
220BE
  5
22811
331
220BF
  5
22812
331
220C0
  5
22813
331
220C1
  5
22814
331
22112
  5
22815
331
22113
  5
22816
331
22114
  5
22817
331
22115
  5
22818
331
22116
  5
22819
331
22117
  5
2281A
331
22118
  5
2281B
331
22119
  5
2281C
331
2211A
  5
2281D
331
2211B
  5
2281E
331
2211C
  5
2281F
331
2211D
  5
22820
331
22128
  5
22823
331
22129
  5
22824
331
2212A
  5
22825
331
2212B
  5
22826
331
2212C
  5
22827
331
2212D
  5
22828
331
2212E
  5
22829
331
2212F
  5
2282A
331
22130
  5
2282B
331
22131
  5
2282C
331
22132
  5
2282D
331
22133
  5
2282E
331
22181
  5
22831
331
22182
  5
22832
331
22183
  5
22833
331
22184
  5
22834
331
22185
  5
22835
331
22186
  5
22836
331
22187
  5
22837
331
22188
  5
22838
331
22189
  5
22839
331
2218A
  5
2283A
331
2218B
  5
2283B
331
2218C
  5
2283C
331
2218D
  5
2283D
331
2218E
  5
2283E
331
2218F
  5
2283F
331
22190
  5
22840
331
22191
  5
22841
331
22192
  5
22842
331
22193
  5
22843
331
22194
  5
22844
331
2224E
  5
22845
331
22250
  5
22846
331
22252
  5
22847
331
22254
  5
22848
331
22255
  5
22849
331
22257
  5
2284A
331
2232B
  5
2284B
331
2232C
  5
2284C
331
2232D
  5
2284D
331
2232E
  5
2284E
331
2232F
  5
2284F
331
0
  5
22731
331
22332
  5
2289A
331
22333
  5
2289B
331
22334
  5
2289C
331
22335
  5
2289D
331
2270C
  5
21E4F
331
2270D
  5
21E54
331
2270E
  5
22756
331
2270F
  5
22757
331
22710
  5
22758
331
22711
  5
22759
331
22712
  5
2275A
331
22713
  5
2275B
331
22714
  5
2275C
331
22715
  5
2275D
331
22716
  5
2275E
331
22717
  5
2275F
331
22718
  5
22760
331
22719
  5
22761
331
2271A
  5
22762
331
2271B
  5
22763
331
2271C
  5
22764
331
2271D
  5
22765
331
2271E
  5
22766
331
2271F
  5
22767
331
22720
  5
22792
331
22721
  5
22793
331
22722
  5
22794
331
22723
  5
22795
331
22724
  5
22796
331
22725
  5
22797
331
22726
  5
22798
331
22727
  5
22799
331
22728
  5
2279A
331
22729
  5
2279B
331
2272A
  5
2279C
331
2272B
  5
2279D
331
2272C
  5
2279E
331
2272D
  5
2279F
331
2272E
  5
227A0
331
2272F
  5
227A1
331
22730
  5
227A2
331
22731
  5
227A3
331
22732
  5
22821
331
22733
  5
22822
331
22734
  5
2282F
331
22735
  5
22830
331
22736
  5
1D8CE
331
22737
  5
1D910
331
22738
  5
1DB9F
331
0
  5
1DBA8
331
0
  5
1DF13
331
0
  5
1DFD9
331
2273C
  5
1E9EE
331
2273D
  5
211E9
331
2273E
  5
211EB
331
2273F
  5
212B3
331
0
  5
1E9E7
331
0
  5
1E9E8
331
0
  5
1E9E9
331
22743
  5
2131F
331
22744
  5
21320
331
22745
  5
21324
331
22746
  5
21325
331
0
  5
20F33
331
0
  5
211E1
331
0
  5
211E3
331
2274A
  5
214C8
331
2274B
  5
21D3D
331
2274C
  5
21D3E
331
0
  5
212C7
331
0
  5
212C8
331
0
  5
212C9
331
22750
  5
21D4A
331
22751
  5
21D4B
331
22752
  5
21D4C
331
0
  5
21321
331
0
  5
21322
331
0
  5
21323
331
22756
  5
21D54
331
22757
  5
21D55
331
22758
  5
21DE6
331
0
  5
21327
331
0
  5
21328
331
0
  5
21329
331
2275C
  5
21DF3
331
2275D
  5
21DF4
331
2275E
  5
21DF5
331
0
  5
21336
331
0
  5
21337
331
0
  5
21338
331
22762
  5
21E39
331
22763
  5
21E3A
331
22764
  5
21E3B
331
0
  5
21346
331
0
  5
21487
331
0
  5
21488
331
22768
  5
21E43
331
22769
  5
21E44
331
2276A
  5
21E45
331
0
  5
214CC
331
0
  5
21D3B
331
0
  5
21D3C
331
2276E
  5
21E4D
331
2276F
  5
21E4E
331
22770
  5
21E52
331
22771
  5
21E53
331
22772
  5
21E5D
331
22773
  5
21E5E
331
22774
  5
21E5F
331
22775
  5
21E60
331
22776
  5
21EAC
331
22777
  5
21EAD
331
22778
  5
21EAE
331
22779
  5
21EAF
331
2277A
  5
21EB0
331
2277B
  5
21EB1
331
2277C
  5
21EB2
331
2277D
  5
21EB3
331
2277E
  5
21EB4
331
2277F
  5
21EB5
331
22780
  5
21EB7
331
22781
  5
21EB8
331
22782
  5
21EB9
331
22783
  5
21EBA
331
22784
  5
21EBB
331
22785
  5
21EBC
331
22786
  5
21EBD
331
22787
  5
21EBE
331
22788
  5
21EBF
331
22789
  5
21EC0
331
2278A
  5
21EC1
331
2278B
  5
21EC2
331
2278C
  5
21EC3
331
2278D
  5
21EC6
331
2278E
  5
21EC8
331
2278F
  5
21EC9
331
22790
  5
21ECA
331
22791
  5
21ECB
331
22792
  5
21ECC
331
22793
  5
21ECD
331
22794
  5
21ECE
331
22795
  5
21ECF
331
22796
  5
21ED0
331
22797
  5
21ED1
331
22798
  5
21ED2
331
22799
  5
21ED3
331
2279A
  5
21ED4
331
2279B
  5
21ED5
331
2279C
  5
21ED6
331
2279D
  5
21ED7
331
2279E
  5
21ED8
331
2279F
  5
21ED9
331
227A0
  5
21EDA
331
227A1
  5
21EDB
331
227A2
  5
21EDC
331
227A3
  5
21EDD
331
227A4
  5
21EDE
331
227A5
  5
21FD4
331
227A6
  5
21FD5
331
227A7
  5
21FD6
331
227A8
  5
21FD7
331
227A9
  5
21FD8
331
227AA
  5
21FD9
331
227AB
  5
22056
331
227AC
  5
22057
331
227AD
  5
22059
331
227AE
  5
2205A
331
227AF
  5
2205B
331
227B0
  5
2205C
331
227B1
  5
2205D
331
227B2
  5
2205E
331
227B3
  5
22063
331
227B4
  5
22064
331
227B5
  5
22065
331
227B6
  5
220B8
331
227B7
  5
220B9
331
227B8
  5
220BA
331
227B9
  5
220BB
331
227BA
  5
220BC
331
227BB
  5
220BD
331
227BC
  5
22113
331
227BD
  5
22114
331
227BE
  5
22115
331
227BF
  5
22116
331
227C0
  5
22117
331
227C1
  5
22118
331
227C2
  5
22119
331
227C3
  5
2211A
331
227C4
  5
2211B
331
227C5
  5
2211C
331
227C6
  5
2211D
331
227C7
  5
22128
331
227C8
  5
22129
331
227C9
  5
2212A
331
227CA
  5
2212B
331
227CB
  5
2212C
331
227CC
  5
2212D
331
227CD
  5
2212E
331
227CE
  5
2212F
331
227CF
  5
22130
331
227D0
  5
22131
331
227D1
  5
22132
331
227D2
  5
22133
331
227D3
  5
22181
331
227D4
  5
22182
331
227D5
  5
22183
331
227D6
  5
22184
331
227D7
  5
22185
331
227D8
  5
22186
331
227D9
  5
22187
331
227DA
  5
22188
331
227DB
  5
22189
331
227DC
  5
2218A
331
227DD
  5
2218B
331
227DE
  5
2218C
331
227DF
  5
2218D
331
227E0
  5
2218E
331
227E1
  5
2218F
331
227E2
  5
22190
331
227E3
  5
22191
331
227E4
  5
22192
331
227E5
  5
22193
331
227E6
  5
22194
331
227E7
  5
2224E
331
227E8
  5
22250
331
227E9
  5
22252
331
227EA
  5
22254
331
227EB
  5
22255
331
227EC
  5
22257
331
227ED
  5
2232B
331
227EE
  5
2232C
331
227EF
  5
2232D
331
227F0
  5
2232E
331
227F1
  5
2232F
331
227F2
  5
22330
331
227F3
  5
22332
331
227F4
  5
22333
331
227F5
  5
22334
331
227F6
  5
22335
331
227F7
  5
2270C
331
227F8
  5
2270D
331
227F9
  5
2270E
331
227FA
  5
2270F
331
227FB
  5
22710
331
227FC
  5
22711
331
227FD
  5
22712
331
227FE
  5
22713
331
227FF
  5
22714
331
22800
  5
22715
331
22801
  5
22716
331
22802
  5
22717
331
22803
  5
22718
331
22804
  5
22719
331
22805
  5
2271A
331
22806
  5
22746
331
22807
  5
22747
331
22808
  5
22748
331
22809
  5
22749
331
2280A
  5
2274A
331
2280B
  5
2274B
331
2280C
  5
2274C
331
2280D
  5
2274D
331
2280E
  5
2274E
331
2280F
  5
2274F
331
22810
  5
22750
331
22811
  5
22751
331
22812
  5
22752
331
22813
  5
22753
331
22814
  5
22754
331
22815
  5
22850
331
22816
  5
22851
331
22817
  5
22852
331
22818
  5
22853
331
22819
  5
22854
331
2281A
  5
22855
331
2281B
  5
22856
331
2281C
  5
22857
331
2281D
  5
22858
331
2281E
  5
22859
331
2281F
  5
2285A
331
22820
  5
2285B
331
22821
  5
2285C
331
22822
  5
2285D
331
22823
  5
2285E
331
22824
  5
2285F
331
22825
  5
22860
331
22826
  5
22861
331
22827
  5
22862
331
22828
  5
22863
331
22829
  5
22864
331
2282A
  5
22865
331
2282B
  5
22866
331
2282C
  5
22867
331
2282D
  5
22868
331
2282E
  5
22869
331
2282F
  5
2286A
331
22830
  5
2286B
331
22831
  5
2286C
331
22832
  5
2286D
331
22833
  5
2286E
331
22834
  5
2286F
331
22835
  5
22870
331
22836
  5
22871
331
22837
  5
22872
331
22838
  5
22873
331
22839
  5
22874
331
2283A
  5
22875
331
2283B
  5
22876
331
2283C
  5
22877
331
2283D
  5
22878
331
2283E
  5
22879
331
2283F
  5
2287A
331
22840
  5
2287B
331
22841
  5
2287C
331
22842
  5
2287D
331
22843
  5
2287E
331
22844
  5
2287F
331
22845
  5
22880
331
22846
  5
22881
331
22847
  5
22882
331
22848
  5
22883
331
22849
  5
22884
331
2284A
  5
22885
331
2284B
  5
22886
331
2284C
  5
22887
331
2284D
  5
22888
331
2284E
  5
22889
331
2284F
  5
2288A
331
22850
  5
2288B
331
22851
  5
2288C
331
22852
  5
2288D
331
22853
  5
2288E
331
22854
  5
2288F
331
22855
  5
22890
331
22856
  5
22891
331
22857
  5
22892
331
22858
  5
22893
331
22859
  5
22894
331
2285A
  5
22895
331
2285B
  5
22896
331
2285C
  5
22897
331
2285D
  5
22898
331
2285E
  5
22899
331
2285F
  5
1E7B7
331
22860
  5
1E9DB
331
22861
  5
1E9E5
331
22862
  5
1E9E6
331
22863
  5
1E9EB
331
22864
  5
1E9EC
331
22865
  5
1E9ED
331
22866
  5
212B4
331
22867
  5
212B5
331
22868
  5
212CA
331
22869
  5
2131B
331
2286A
  5
2131C
331
2286B
  5
2131D
331
2286C
  5
2131E
331
2286D
  5
21326
331
2286E
  5
2132A
331
2286F
  5
2132B
331
22870
  5
2132C
331
22871
  5
21339
331
22872
  5
21342
331
22873
  5
21345
331
22874
  5
21D3F
331
22875
  5
21D40
331
22876
  5
21D41
331
22877
  5
21D42
331
22878
  5
21D43
331
22879
  5
21D44
331
2287A
  5
21D45
331
2287B
  5
21D4D
331
2287C
  5
21D4E
331
2287D
  5
21D4F
331
2287E
  5
21D50
331
2287F
  5
21D51
331
22880
  5
21D52
331
22881
  5
21D53
331
22882
  5
21DE7
331
22883
  5
21DE8
331
22884
  5
21DEC
331
22885
  5
21DED
331
22886
  5
21DEE
331
22887
  5
21DEF
331
22888
  5
21DF2
331
22889
  5
21DF6
331
2288A
  5
21E32
331
2288B
  5
21E33
331
2288C
  5
21E35
331
2288D
  5
21E36
331
2288E
  5
21E37
331
2288F
  5
21E38
331
22890
  5
21E3C
331
22891
  5
21E3D
331
22892
  5
21E3E
331
22893
  5
21E3F
331
22894
  5
21E40
331
22895
  5
21E41
331
22896
  5
21E42
331
22897
  5
21E46
331
22898
  5
21E47
331
22899
  5
21E48
331
2289A
  5
21E49
331
2289B
  5
21E4A
331
2289C
  5
21E4B
331
2289D
  5
21E4C
  0
SORTENTSTABLE
  5
59C
102
{ACAD_REACTORS
330
59B
102
}
330
59B
100
AcDbSortentsTable
330
15
331
57
  5
57
331
0
  5
70
  0
GROUP
  5
1E9DA
102
{ACAD_REACTORS
330
D
102
}
330
D
100
AcDbGroup
300

 70
     1
 71
     1
340
1E9D8
340
1E9D7
340
1E9D6
340
1E9D5
340
1E9D4
  0
GROUP
  5
1E9F2
102
{ACAD_REACTORS
330
D
102
}
330
D
100
AcDbGroup
300

 70
     1
 71
     1
340
1E9E9
340
1E9E8
340
1E9E7
340
1E9E6
340
1E9E5
  0
GROUP
  5
1EDFD
102
{ACAD_REACTORS
330
D
102
}
330
D
100
AcDbGroup
300

 70
     1
 71
     1
340
1DBA6
340
1DBA5
340
1DBA4
  0
MATERIAL
  5
19DD5
102
{ACAD_REACTORS
330
2CF
102
}
102
{ACAD_XDICTIONARY
360
22A3C
102
}
330
2CF
100
AcDbMaterial
  1
BYBLOCK
 72
     0
 73
     2
 43
0.0208333333333333
 43
0.0
 43
0.0
 43
0.0
 43
0.0
 43
0.0208333333333333
 43
0.0
 43
0.0
 43
0.0
 43
0.0
 43
1.0
 43
0.0
 43
0.0
 43
0.0
 43
0.0
 43
1.0
 77
     0
 78
     2
 47
0.0208333333333333
 47
0.0
 47
0.0
 47
0.0
 47
0.0
 47
0.0208333333333333
 47
0.0
 47
0.0
 47
0.0
 47
0.0
 47
1.0
 47
0.0
 47
0.0
 47
0.0
 47
0.0
 47
1.0
171
     0
172
     2
 49
0.0208333333333333
 49
0.0
 49
0.0
 49
0.0
 49
0.0
 49
0.0208333333333333
 49
0.0
 49
0.0
 49
0.0
 49
0.0
 49
1.0
 49
0.0
 49
0.0
 49
0.0
 49
0.0
 49
1.0
175
     0
176
     2
142
0.0208333333333333
142
0.0
142
0.0
142
0.0
142
0.0
142
0.0208333333333333
142
0.0
142
0.0
142
0.0
142
0.0
142
1.0
142
0.0
142
0.0
142
0.0
142
0.0
142
1.0
179
     0
270
     2
144
0.0208333333333333
144
0.0
144
0.0
144
0.0
144
0.0
144
0.0208333333333333
144
0.0
144
0.0
144
0.0
144
0.0
144
1.0
144
0.0
144
0.0
144
0.0
144
0.0
144
1.0
274
     2
147
0.0208333333333333
147
0.0
147
0.0
147
0.0
147
0.0
147
0.0208333333333333
147
0.0
147
0.0
147
0.0
147
0.0
147
1.0
147
0.0
147
0.0
147
0.0
147
0.0
147
1.0
  0
MATERIAL
  5
19DCD
102
{ACAD_REACTORS
330
2CF
102
}
102
{ACAD_XDICTIONARY
360
22A3E
102
}
330
2CF
100
AcDbMaterial
  1
BYLAYER
 72
     0
 73
     2
 43
0.0208333333333333
 43
0.0
 43
0.0
 43
0.0
 43
0.0
 43
0.0208333333333333
 43
0.0
 43
0.0
 43
0.0
 43
0.0
 43
1.0
 43
0.0
 43
0.0
 43
0.0
 43
0.0
 43
1.0
 77
     0
 78
     2
 47
0.0208333333333333
 47
0.0
 47
0.0
 47
0.0
 47
0.0
 47
0.0208333333333333
 47
0.0
 47
0.0
 47
0.0
 47
0.0
 47
1.0
 47
0.0
 47
0.0
 47
0.0
 47
0.0
 47
1.0
171
     0
172
     2
 49
0.0208333333333333
 49
0.0
 49
0.0
 49
0.0
 49
0.0
 49
0.0208333333333333
 49
0.0
 49
0.0
 49
0.0
 49
0.0
 49
1.0
 49
0.0
 49
0.0
 49
0.0
 49
0.0
 49
1.0
175
     0
176
     2
142
0.0208333333333333
142
0.0
142
0.0
142
0.0
142
0.0
142
0.0208333333333333
142
0.0
142
0.0
142
0.0
142
0.0
142
1.0
142
0.0
142
0.0
142
0.0
142
0.0
142
1.0
179
     0
270
     2
144
0.0208333333333333
144
0.0
144
0.0
144
0.0
144
0.0
144
0.0208333333333333
144
0.0
144
0.0
144
0.0
144
0.0
144
1.0
144
0.0
144
0.0
144
0.0
144
0.0
144
1.0
274
     2
147
0.0208333333333333
147
0.0
147
0.0
147
0.0
147
0.0
147
0.0208333333333333
147
0.0
147
0.0
147
0.0
147
0.0
147
1.0
147
0.0
147
0.0
147
0.0
147
0.0
147
1.0
  0
MATERIAL
  5
19DDD
102
{ACAD_REACTORS
330
2CF
102
}
102
{ACAD_XDICTIONARY
360
22A40
102
}
330
2CF
100
AcDbMaterial
  1
GLOBAL
 72
     0
 73
     2
 43
0.0208333333333333
 43
0.0
 43
0.0
 43
0.0
 43
0.0
 43
0.0208333333333333
 43
0.0
 43
0.0
 43
0.0
 43
0.0
 43
1.0
 43
0.0
 43
0.0
 43
0.0
 43
0.0
 43
1.0
 77
     0
 78
     2
 47
0.0208333333333333
 47
0.0
 47
0.0
 47
0.0
 47
0.0
 47
0.0208333333333333
 47
0.0
 47
0.0
 47
0.0
 47
0.0
 47
1.0
 47
0.0
 47
0.0
 47
0.0
 47
0.0
 47
1.0
171
     0
172
     2
 49
0.0208333333333333
 49
0.0
 49
0.0
 49
0.0
 49
0.0
 49
0.0208333333333333
 49
0.0
 49
0.0
 49
0.0
 49
0.0
 49
1.0
 49
0.0
 49
0.0
 49
0.0
 49
0.0
 49
1.0
175
     0
176
     2
142
0.0208333333333333
142
0.0
142
0.0
142
0.0
142
0.0
142
0.0208333333333333
142
0.0
142
0.0
142
0.0
142
0.0
142
1.0
142
0.0
142
0.0
142
0.0
142
0.0
142
1.0
179
     0
270
     2
144
0.0208333333333333
144
0.0
144
0.0
144
0.0
144
0.0
144
0.0208333333333333
144
0.0
144
0.0
144
0.0
144
0.0
144
1.0
144
0.0
144
0.0
144
0.0
144
0.0
144
1.0
274
     2
147
0.0208333333333333
147
0.0
147
0.0
147
0.0
147
0.0
147
0.0208333333333333
147
0.0
147
0.0
147
0.0
147
0.0
147
1.0
147
0.0
147
0.0
147
0.0
147
0.0
147
1.0
  0
ACAD_PROXY_OBJECT
  5
19E19
102
{ACAD_REACTORS
330
19E18
102
}
330
19E18
100
AcDbZombieObject
 90
      499
 91
      512
 93
      610
310
40901902A4063FBFFFFFE000000000000002040AD7A3703D0AD73F4214DD185B99185C990000000000000104090141901A00000000000004100000000000000041025764000000000000300FC0
340
12
340
0
340
F
340
0
 94
        0
1001
ACAD_MLEADERVER
1070
     2
  0
MLINESTYLE
  5
1C
102
{ACAD_REACTORS
330
1B
102
}
330
1B
100
AcDbMlineStyle
  2
STANDARD
 70
     0
  3

 62
   256
 51
90.0
 52
90.0
 71
     2
 49
0.5
 62
   256
  6
BYLAYER
 49
-0.5
 62
   256
  6
BYLAYER
  0
ACAD_PROXY_OBJECT
  5
19DF7
102
{ACAD_REACTORS
330
19DF6
102
}
330
19DF6
100
AcDbZombieObject
 90
      499
 91
      511
 93
       41
310
903313A31580
  0
ACAD_PROXY_OBJECT
  5
19DF8
102
{ACAD_REACTORS
330
19DF6
102
}
330
19DF6
100
AcDbZombieObject
 90
      499
 91
      511
 93
      105
310
903313A324000000000000004000
  0
ACAD_PROXY_OBJECT
  5
19DF9
102
{ACAD_REACTORS
330
19DF6
102
}
330
19DF6
100
AcDbZombieObject
 90
      499
 91
      511
 93
      105
310
903313A344000000000000104000
  0
ACAD_PROXY_OBJECT
  5
19DFA
102
{ACAD_REACTORS
330
19DF6
102
}
330
19DF6
100
AcDbZombieObject
 90
      499
 91
      511
 93
      105
310
903313A354000000000000144000
  0
ACAD_PROXY_OBJECT
  5
19DFB
102
{ACAD_REACTORS
330
19DF6
102
}
330
19DF6
100
AcDbZombieObject
 90
      499
 91
      511
 93
      105
310
903313A384000000000000204000
  0
ACAD_PROXY_OBJECT
  5
19DFC
102
{ACAD_REACTORS
330
19DF6
102
}
330
19DF6
100
AcDbZombieObject
 90
      499
 91
      511
 93
      113
310
904313A31304000000000000244000
  0
ACAD_PROXY_OBJECT
  5
19DFD
102
{ACAD_REACTORS
330
19DF6
102
}
330
19DF6
100
AcDbZombieObject
 90
      499
 91
      511
 93
      113
310
904313A31364000000000000304000
  0
ACAD_PROXY_OBJECT
  5
19DFE
102
{ACAD_REACTORS
330
19DF6
102
}
330
19DF6
100
AcDbZombieObject
 90
      499
 91
      511
 93
      113
310
904313A32304000000000000344000
  0
ACAD_PROXY_OBJECT
  5
19DFF
102
{ACAD_REACTORS
330
19DF6
102
}
330
19DF6
100
AcDbZombieObject
 90
      499
 91
      511
 93
      113
310
904313A333040000000000003E4000
  0
ACAD_PROXY_OBJECT
  5
19E00
102
{ACAD_REACTORS
330
19DF6
102
}
330
19DF6
100
AcDbZombieObject
 90
      499
 91
      511
 93
      113
310
904313A34304000000000000444000
  0
ACAD_PROXY_OBJECT
  5
19E01
102
{ACAD_REACTORS
330
19DF6
102
}
330
19DF6
100
AcDbZombieObject
 90
      499
 91
      511
 93
      113
310
904313A35304000000000000494000
  0
ACAD_PROXY_OBJECT
  5
19E02
102
{ACAD_REACTORS
330
19DF6
102
}
330
19DF6
100
AcDbZombieObject
 90
      499
 91
      511
 93
      121
310
905313A3130304000000000000594000
  0
ACAD_PROXY_OBJECT
  5
19E03
102
{ACAD_REACTORS
330
19DF6
102
}
330
19DF6
100
AcDbZombieObject
 90
      499
 91
      511
 93
      105
310
903323A310000000000000010100
  0
ACAD_PROXY_OBJECT
  5
19E04
102
{ACAD_REACTORS
330
19DF6
102
}
330
19DF6
100
AcDbZombieObject
 90
      499
 91
      511
 93
      105
310
903343A310000000000000410100
  0
ACAD_PROXY_OBJECT
  5
19E05
102
{ACAD_REACTORS
330
19DF6
102
}
330
19DF6
100
AcDbZombieObject
 90
      499
 91
      511
 93
      105
310
903383A310000000000000810100
  0
ACAD_PROXY_OBJECT
  5
19E06
102
{ACAD_REACTORS
330
19DF6
102
}
330
19DF6
100
AcDbZombieObject
 90
      499
 91
      511
 93
      113
310
90431303A310000000000000910100
  0
ACAD_PROXY_OBJECT
  5
19E07
102
{ACAD_REACTORS
330
19DF6
102
}
330
19DF6
100
AcDbZombieObject
 90
      499
 91
      511
 93
      121
310
9053130303A310000000000001650100
  0
ACAD_PROXY_OBJECT
  5
19E08
102
{ACAD_REACTORS
330
19DF6
102
}
330
19DF6
100
AcDbZombieObject
 90
      499
 91
      511
 93
      257
310
90E312F31323822203D2031272D3022000000000000200FC000000000000284000
  0
ACAD_PROXY_OBJECT
  5
19E09
102
{ACAD_REACTORS
330
19DF6
102
}
330
19DF6
100
AcDbZombieObject
 90
      499
 91
      511
 93
      249
310
90D312F363422203D2031272D3022000000000000240FC000000000000284000
  0
ACAD_PROXY_OBJECT
  5
19E0A
102
{ACAD_REACTORS
330
19DF6
102
}
330
19DF6
100
AcDbZombieObject
 90
      499
 91
      511
 93
      249
310
90D312F333222203D2031272D3022000000000000280FC000000000000284000
  0
ACAD_PROXY_OBJECT
  5
19E0B
102
{ACAD_REACTORS
330
19DF6
102
}
330
19DF6
100
AcDbZombieObject
 90
      499
 91
      511
 93
      249
310
90D312F313622203D2031272D30220000000000002C0FC000000000000284000
  0
ACAD_PROXY_OBJECT
  5
19E0C
102
{ACAD_REACTORS
330
19DF6
102
}
330
19DF6
100
AcDbZombieObject
 90
      499
 91
      511
 93
      249
310
90D332F333222203D2031272D30220000000000002E0FC000000000000284000
  0
ACAD_PROXY_OBJECT
  5
19E0D
102
{ACAD_REACTORS
330
19DF6
102
}
330
19DF6
100
AcDbZombieObject
 90
      499
 91
      511
 93
      241
310
90C312F3822203D2031272D3022000000000000300FC000000000000284000
  0
ACAD_PROXY_OBJECT
  5
19E0E
102
{ACAD_REACTORS
330
19DF6
102
}
330
19DF6
100
AcDbZombieObject
 90
      499
 91
      511
 93
      249
310
90D332F313622203D2031272D3022000000000000320FC000000000000284000
  0
ACAD_PROXY_OBJECT
  5
19E0F
102
{ACAD_REACTORS
330
19DF6
102
}
330
19DF6
100
AcDbZombieObject
 90
      499
 91
      511
 93
      241
310
90C312F3422203D2031272D3022000000000000340FC000000000000284000
  0
ACAD_PROXY_OBJECT
  5
19E10
102
{ACAD_REACTORS
330
19DF6
102
}
330
19DF6
100
AcDbZombieObject
 90
      499
 91
      511
 93
      241
310
90C332F3822203D2031272D3022000000000000360FC000000000000284000
  0
ACAD_PROXY_OBJECT
  5
19E11
102
{ACAD_REACTORS
330
19DF6
102
}
330
19DF6
100
AcDbZombieObject
 90
      499
 91
      511
 93
      241
310
90C312F3222203D2031272D3022000000000000380FC000000000000284000
  0
ACAD_PROXY_OBJECT
  5
19E12
102
{ACAD_REACTORS
330
19DF6
102
}
330
19DF6
100
AcDbZombieObject
 90
      499
 91
      511
 93
      241
310
90C332F3422203D2031272D30220000000000003A0FC000000000000284000
  0
ACAD_PROXY_OBJECT
  5
19E13
102
{ACAD_REACTORS
330
19DF6
102
}
330
19DF6
100
AcDbZombieObject
 90
      499
 91
      511
 93
      161
310
90A3122203D2031272D30224000000000000284000
  0
ACAD_PROXY_OBJECT
  5
19E14
102
{ACAD_REACTORS
330
19DF6
102
}
330
19DF6
100
AcDbZombieObject
 90
      499
 91
      511
 93
      257
310
90E312D312F3222203D2031272D30220000000000003E0FC000000000000284000
  0
ACAD_PROXY_OBJECT
  5
19E15
102
{ACAD_REACTORS
330
19DF6
102
}
330
19DF6
100
AcDbZombieObject
 90
      499
 91
      511
 93
      225
310
90A3322203D2031272D302200000000000002100000000000000284000
  0
ACAD_PROXY_OBJECT
  5
19E16
102
{ACAD_REACTORS
330
19DF6
102
}
330
19DF6
100
AcDbZombieObject
 90
      499
 91
      511
 93
      225
310
90A3622203D2031272D302200000000000006100000000000000284000
  0
ACAD_PROXY_OBJECT
  5
19E17
102
{ACAD_REACTORS
330
19DF6
102
}
330
19DF6
100
AcDbZombieObject
 90
      499
 91
      511
 93
      249
310
90D31272D3022203D2031272D30220000000000000A100000000000000284000
  0
ACAD_PROXY_OBJECT
  5
19DEB
102
{ACAD_REACTORS
330
19DE5
102
}
330
19DE5
100
AcDbZombieObject
 90
      499
 91
      510
 93
      436
310
42CC9915DA5C99599C985B595049028333333333333E3BF0000000000000FB0107901411070040501600405405064090741402480A0340
1001
ACAD
1000
AcDbSavedByObjectVersion
1070
     0
  0
ACAD_PROXY_OBJECT
  5
19DED
102
{ACAD_REACTORS
330
19DE5
102
}
330
19DE5
100
AcDbZombieObject
 90
      499
 91
      510
 93
      500
310
424CD108121A5919195B90640502408333333333333E3BF0000000000000FB01079024090700405020000000000001110200405405064090740C02480A0340
1001
ACAD
1000
AcDbSavedByObjectVersion
1070
     0
  0
ACAD_PROXY_OBJECT
  5
19DEC
102
{ACAD_REACTORS
330
19DE5
102
}
330
19DE5
100
AcDbZombieObject
 90
      499
 91
      510
 93
      436
310
42CCD915DA5C99599C985B595059028333333333333E3BF0000000000000FB0107901411070040501600405405064090741402480A0340
1001
ACAD
1000
AcDbSavedByObjectVersion
1070
     0
  0
ACAD_PROXY_OBJECT
  5
19DEA
102
{ACAD_REACTORS
330
19DE5
102
}
330
19DE5
100
AcDbZombieObject
 90
      499
 91
      510
 93
      388
310
4150985CDA58D07406404333333333333E3BF0000000000000FB0107A41107004050150841D405064090741402480A0350
1001
ACAD
1000
AcDbSavedByObjectVersion
1070
     0
  0
ACAD_PROXY_OBJECT
  5
19DF1
102
{ACAD_REACTORS
330
19DE5
102
}
330
19DE5
100
AcDbZombieObject
 90
      499
 91
      510
 93
      428
310
42109C9A59DA1D195B90C409028333333333333E3BF0000000000000FB010790141107004050150841D405064090741402480A029950
1001
ACAD
1000
AcDbSavedByObjectVersion
1070
     0
  0
ACAD_PROXY_OBJECT
  5
19DF5
102
{ACAD_REACTORS
330
19DE5
102
}
330
19DE5
100
AcDbZombieObject
 90
      499
 91
      510
 93
      452
310
42D0DBDB1BDC90DA185B99D95104090240C333333333333E3BF0000000000000FB0108901411070040501508421405064090741402480A0350
1001
ACAD
1000
AcDbSavedByObjectVersion
1070
     0
  0
ACAD_PROXY_OBJECT
  5
19DEE
102
{ACAD_REACTORS
330
19DE5
102
}
330
19DE5
100
AcDbZombieObject
 90
      499
 91
      510
 93
      500
310
4290DBDB98D95C1D1D585B10940D028333333333333E3BF0000000000000FB0107902409070040501000000000000111010841D405064090740C02480A0340
1001
ACAD
1000
AcDbSavedByObjectVersion
1070
     0
  0
ACAD_PROXY_OBJECT
  5
19DF0
102
{ACAD_REACTORS
330
19DE5
102
}
330
19DE5
100
AcDbZombieObject
 90
      499
 91
      510
 93
      412
310
40D11A5B50B409028333333333333E3BF0000000000000FB010790141107004050150841D405064090741402480A02677FFFFFD0
1001
ACAD
1000
AcDbSavedByObjectVersion
1070
     0
  0
ACAD_PROXY_OBJECT
  5
1E02A
102
{ACAD_REACTORS
330
19DE5
102
}
330
19DE5
100
AcDbZombieObject
 90
      499
 91
      510
 93
      452
310
43115919D950DBDB1BDC93D999916409028333333333333E3BF0000000000000FB010790141107004050150841D405064090741402480A0350
1001
ACAD
1000
AcDbSavedByObjectVersion
1070
     0
  0
ACAD_PROXY_OBJECT
  5
19DF4
102
{ACAD_REACTORS
330
19DE5
102
}
330
19DE5
100
AcDbZombieObject
 90
      499
 91
      510
 93
      444
310
42D19858D95C185D1D195C9B90F409028333333333333E3BF0000000000000FB010790141107004050150841D405064090741402480A0350
1001
ACAD
1000
AcDbSavedByObjectVersion
1070
     0
  0
ACAD_PROXY_OBJECT
  5
19DE6
102
{ACAD_REACTORS
330
19DE5
102
}
330
19DE5
100
AcDbZombieObject
 90
      499
 91
      510
 93
      388
310
41119B185D240901404333333333333E3BF0000000000000F9010740A41107004050150841D405064090741402480A1B50
1001
ACAD
1000
AcDbSavedByObjectVersion
1070
     0
  0
ACAD_PROXY_OBJECT
  5
19DE7
102
{ACAD_REACTORS
330
19DE5
102
}
330
19DE5
100
AcDbZombieObject
 90
      499
 91
      510
 93
      476
310
43519B185D15DA5D1A115919D95CD0140901404333333333333E3BF0000000000000F9010740901411070040501600405405064090741402480A1B50
1001
ACAD
1000
AcDbSavedByObjectVersion
1070
     0
  0
ACAD_PROXY_OBJECT
  5
19DE8
102
{ACAD_REACTORS
330
19DE5
102
}
330
19DE5
100
AcDbZombieObject
 90
      499
 91
      510
 93
      412
310
41D1DBDD5C985D5910240902404333333333333E3BF0000000000000F9010740A411070040501641D405064090741402480A1B50
1001
ACAD
1000
AcDbSavedByObjectVersion
1070
     0
  0
ACAD_PROXY_OBJECT
  5
19DE9
102
{ACAD_REACTORS
330
19DE5
102
}
330
19DE5
100
AcDbZombieObject
 90
      499
 91
      510
 93
      500
310
4411DBDD5C985D5915DA5D1A115919D95CD0340902404333333333333E3BF0000000000000F9010740901411070040501600405405064090741402480A1B50
1001
ACAD
1000
AcDbSavedByObjectVersion
1070
     0
  0
ACAD_PROXY_OBJECT
  5
1F381
102
{ACAD_REACTORS
330
19DE5
102
}
330
19DE5
100
AcDbZombieObject
 90
      499
 91
      510
 93
      476
310
41921A5919195B90640502408333333333333E33F0000000000000F901079024090700405020000000000001110200405405064090740C02480A0340
1001
ACAD
1000
AcDbSavedByObjectVersion
1070
     0
  0
ACAD_PROXY_OBJECT
  5
1E028
102
{ACAD_REACTORS
330
19DE5
102
}
330
19DE5
100
AcDbZombieObject
 90
      499
 91
      510
 93
      428
310
42529A5D1D195C93D999914409028333333333333E3BF0000000000000FB010790141107004050150A41D405064090741402480A0350
1001
ACAD
1000
AcDbSavedByObjectVersion
1070
     0
  0
ACAD_PROXY_OBJECT
  5
19DF3
102
{ACAD_REACTORS
330
19DE5
102
}
330
19DE5
100
AcDbZombieObject
 90
      499
 91
      510
 93
      444
310
42D31A5B995C185D1D195C9B90E409028333333333333E3BF0000000000000FB010790141107004050750841D405064090741402483A0350
1001
ACAD
1000
AcDbSavedByObjectVersion
1070
     0
  0
ACAD_PROXY_OBJECT
  5
1F387
102
{ACAD_REACTORS
330
19DE5
102
}
330
19DE5
100
AcDbZombieObject
 90
      499
 91
      510
 93
      484
310
42135BD9195B1A5B99D0A409038333333333333E33F0000000000000F901074090290700405010000000000201990108421405064090741402480A1B40
1001
ACAD
1000
AcDbSavedByObjectVersion
1070
     0
  0
ACAD_PROXY_OBJECT
  5
1E029
102
{ACAD_REACTORS
330
19DE5
102
}
330
19DE5
100
AcDbZombieObject
 90
      499
 91
      510
 93
      444
310
42D3DD995C9A185B99D3D999915409028333333333333E3BF0000000000000FB010790141107004050150941D405064090741402480A0350
1001
ACAD
1000
AcDbSavedByObjectVersion
1070
     0
  0
ACAD_PROXY_OBJECT
  5
19DEF
102
{ACAD_REACTORS
330
19DE5
102
}
330
19DE5
100
AcDbZombieObject
 90
      499
 91
      510
 93
      420
310
425499585B1A5CDD1A58D08409028333333333333E3BF0000000000000FB01079019070040501508421405064090741402480A1B40
1001
ACAD
1000
AcDbSavedByObjectVersion
1070
     0
  0
ACAD_PROXY_OBJECT
  5
1F386
102
{ACAD_REACTORS
330
19DE5
102
}
330
19DE5
100
AcDbZombieObject
 90
      499
 91
      510
 93
      420
310
4194DA1859195911B40902404333333333333E33F0000000000000F9010740A41107004050150800405405064090840C02480A0B40
1001
ACAD
1000
AcDbSavedByObjectVersion
1070
     0
  0
ACAD_PROXY_OBJECT
  5
1F385
102
{ACAD_REACTORS
330
19DE5
102
}
330
19DE5
100
AcDbZombieObject
 90
      499
 91
      510
 93
      516
310
4454DA18591959081DDA5D1A08195919D95CD1A40902404333333333333E33F0000000000000F901074090142907004050250800405405064090740C02480A0B40
1001
ACAD
1000
AcDbSavedByObjectVersion
1070
     0
  0
ACAD_PROXY_OBJECT
  5
1F382
102
{ACAD_REACTORS
330
19DE5
102
}
330
19DE5
100
AcDbZombieObject
 90
      499
 91
      510
 93
      532
310
4394DA1859195CC81BD98811DC985E5174090240C333333333333E33F0000000000000F901079024090741D01000000000000111010841D405064090740C02480A0340
1001
ACAD
1000
AcDbSavedByObjectVersion
1070
     0
  0
ACAD_PROXY_OBJECT
  5
1F383
102
{ACAD_REACTORS
330
19DE5
102
}
330
19DE5
100
AcDbZombieObject
 90
      499
 91
      510
 93
      476
310
41D4DAD95D18DA1E51840502408333333333333E33F0000000000000F901079024090741D01000000000000111010B41D405064090741802480A0340
1001
ACAD
1000
AcDbSavedByObjectVersion
1070
     0
  0
ACAD_PROXY_OBJECT
  5
19DF2
102
{ACAD_REACTORS
330
19DE5
102
}
330
19DE5
100
AcDbZombieObject
 90
      499
 91
      510
 93
      412
310
41D51A1A58DAD95B90D409028333333333333E3BF0000000000000FB010790141107004050150C41D405064090741402480A0350
1001
ACAD
1000
AcDbSavedByObjectVersion
1070
     0
  0
ACAD_PROXY_OBJECT
  5
1F380
102
{ACAD_REACTORS
330
19DE5
102
}
330
19DE5
100
AcDbZombieObject
 90
      499
 91
      510
 93
      420
310
4255DA5C99599C985B595059028333333333333E33F0000000000000F90107901411070040501600405405064090740C02480A0340
1001
ACAD
1000
AcDbSavedByObjectVersion
1070
     0
  0
ACAD_PROXY_OBJECT
  5
1F384
102
{ACAD_REACTORS
330
19DE5
102
}
330
19DE5
100
AcDbZombieObject
 90
      499
 91
      510
 93
      404
310
41560B54985E51940902404000000000000E03F0000000000000F9010740501907004050150841D405064090740C02480A1B40
1001
ACAD
1000
AcDbSavedByObjectVersion
1070
     0
  0
XRECORD
  5
2289F
102
{ACAD_REACTORS
330
2289E
102
}
330
2289E
100
AcDbXrecord
340
2D0
  0
XRECORD
  5
228A0
102
{ACAD_REACTORS
330
2289E
102
}
330
2289E
100
AcDbXrecord
340
2CF
  0
DICTIONARYVAR
  5
20A45
102
{ACAD_REACTORS
330
37
102
}
330
37
100
DictionaryVariables
280
     0
  1
1:1
  0
DICTIONARYVAR
  5
1AC19
102
{ACAD_REACTORS
330
37
102
}
330
37
100
DictionaryVariables
280
     0
  1
Standard
  0
DICTIONARYVAR
  5
4F1
102
{ACAD_REACTORS
330
37
102
}
330
37
100
DictionaryVariables
280
     0
  1
Standard
  0
DICTIONARYVAR
  5
38
102
{ACAD_REACTORS
330
37
102
}
330
37
100
DictionaryVariables
280
     0
  1
-1
  0
DICTIONARYVAR
  5
408
102
{ACAD_REACTORS
330
37
102
}
330
37
100
DictionaryVariables
280
     0
  1
2
  0
DICTIONARYVAR
  5
1891
102
{ACAD_REACTORS
330
37
102
}
330
37
100
DictionaryVariables
280
     0
  1
1
  0
DICTIONARYVAR
  5
1AC1C
102
{ACAD_REACTORS
330
37
102
}
330
37
100
DictionaryVariables
280
     0
  1
0
  0
DICTIONARYVAR
  5
1895
102
{ACAD_REACTORS
330
37
102
}
330
37
100
DictionaryVariables
280
     0
  1
8
  0
DICTIONARYVAR
  5
1894
102
{ACAD_REACTORS
330
37
102
}
330
37
100
DictionaryVariables
280
     0
  1
1
  0
DICTIONARYVAR
  5
20A9B
102
{ACAD_REACTORS
330
37
102
}
330
37
100
DictionaryVariables
280
     0
  1
0
  0
DICTIONARYVAR
  5
1892
102
{ACAD_REACTORS
330
37
102
}
330
37
100
DictionaryVariables
280
     0
  1
8
  0
DICTIONARYVAR
  5
1893
102
{ACAD_REACTORS
330
37
102
}
330
37
100
DictionaryVariables
280
     0
  1
2
  0
DICTIONARYVAR
  5
409
102
{ACAD_REACTORS
330
37
102
}
330
37
100
DictionaryVariables
280
     0
  1

  0
DICTIONARYVAR
  5
1AC1B
102
{ACAD_REACTORS
330
37
102
}
330
37
100
DictionaryVariables
280
     0
  1
127
  0
DICTIONARYVAR
  5
1F37F
102
{ACAD_REACTORS
330
37
102
}
330
37
100
DictionaryVariables
280
     0
  1
2
  0
DICTIONARY
  5
22A3C
330
19DD5
100
AcDbDictionary
  3
ACAD_XREC_ROUNDTRIP
360
22A3D
1001
ACAD
1000
TREAT_AS_HARD
1070
     1
  0
DICTIONARY
  5
22A3E
330
19DCD
100
AcDbDictionary
  3
ACAD_XREC_ROUNDTRIP
360
22A3F
1001
ACAD
1000
TREAT_AS_HARD
1070
     1
  0
DICTIONARY
  5
22A40
330
19DDD
100
AcDbDictionary
  3
ACAD_XREC_ROUNDTRIP
360
22A41
1001
ACAD
1000
TREAT_AS_HARD
1070
     1
  0
XRECORD
  5
22A3D
102
{ACAD_REACTORS
330
22A3C
102
}
330
22A3C
100
AcDbXrecord
102
MATERIAL
148
0.0
149
0.0
149
0.0
 93
        0
 94
      127
282
     0
 72
     0
 77
     0
171
     0
175
     0
179
     0
273
     0
  0
XRECORD
  5
22A3F
102
{ACAD_REACTORS
330
22A3E
102
}
330
22A3E
100
AcDbXrecord
102
MATERIAL
148
0.0
149
0.0
149
0.0
 93
        0
 94
      127
282
     0
 72
     0
 77
     0
171
     0
175
     0
179
     0
273
     0
  0
XRECORD
  5
22A41
102
{ACAD_REACTORS
330
22A40
102
}
330
22A40
100
AcDbXrecord
102
MATERIAL
148
0.0
149
0.0
149
0.0
 93
        0
 94
      127
282
     0
 72
     0
 77
     0
171
     0
175
     0
179
     0
273
     0
  0
ENDSEC
  0
EOF
