  0
SECTION
  2
HEADER
  9
$ACADVER
  1
AC1012
  9
$DWGCODEPAGE
  3
ansi_932
  9
$INSBASE
 10
0.0
 20
0.0
 30
0.0
  9
$EXTMIN
 10
167.0162306481105
 20
-725.8213303512676
 30
0.0
  9
$EXTMAX
 10
795.516241615365
 20
-460.025441490976
 30
0.0
  9
$LIMMIN
 10
0.0
 20
0.0
  9
$LIMMAX
 10
420.0
 20
297.0
  9
$ORTHOMODE
 70
     0
  9
$REGENMODE
 70
     1
  9
$FILLMODE
 70
     1
  9
$QTEXTMODE
 70
     0
  9
$MIRRTEXT
 70
     0
  9
$DRAGMODE
 70
     2
  9
$LTSCALE
 40
0.5
  9
$OSMODE
 70
 12415
  9
$ATTMODE
 70
     1
  9
$TEXTSIZE
 40
4.0
  9
$TRACEWID
 40
1.0
  9
$TEXTSTYLE
  7
STANDARD
  9
$CLAYER
  8
1TEXT
  9
$CELTYPE
  6
BYLAYER
  9
$CECOLOR
 62
   256
  9
$CELTSCALE
 40
1.0
  9
$DELOBJ
 70
     1
  9
$DISPSILH
 70
     0
  9
$DIMSCALE
 40
1.0
  9
$DIMASZ
 40
2.0
  9
$DIMEXO
 40
0.0
  9
$DIMDLI
 40
7.0
  9
$DIMRND
 40
0.0
  9
$DIMDLE
 40
0.0
  9
$DIMEXE
 40
1.0
  9
$DIMTP
 40
0.0
  9
$DIMTM
 40
0.0
  9
$DIMTXT
 40
3.5
  9
$DIMCEN
 40
0.0
  9
$DIMTSZ
 40
0.0
  9
$DIMTOL
 70
     0
  9
$DIMLIM
 70
     0
  9
$DIMTIH
 70
     0
  9
$DIMTOH
 70
     0
  9
$DIMSE1
 70
     0
  9
$DIMSE2
 70
     0
  9
$DIMTAD
 70
     1
  9
$DIMZIN
 70
     8
  9
$DIMBLK
  1

  9
$DIMASO
 70
     1
  9
$DIMSHO
 70
     1
  9
$DIMPOST
  1
 
  9
$DIMAPOST
  1

  9
$DIMALT
 70
     0
  9
$DIMALTD
 70
     2
  9
$DIMALTF
 40
25.4
  9
$DIMLFAC
 40
1.0
  9
$DIMTOFL
 70
     1
  9
$DIMTVP
 40
0.0
  9
$DIMTIX
 70
     0
  9
$DIMSOXD
 70
     0
  9
$DIMSAH
 70
     1
  9
$DIMBLK1
  1
OPEN30
  9
$DIMBLK2
  1
OPEN30
  9
$DIMSTYLE
  2
NEWX10
  9
$DIMCLRD
 70
   256
  9
$DIMCLRE
 70
   256
  9
$DIMCLRT
 70
   201
  9
$DIMTFAC
 40
0.7
  9
$DIMGAP
 40
0.7
  9
$DIMJUST
 70
     0
  9
$DIMSD1
 70
     0
  9
$DIMSD2
 70
     0
  9
$DIMTOLJ
 70
     1
  9
$DIMTZIN
 70
     8
  9
$DIMALTZ
 70
     0
  9
$DIMALTTZ
 70
     0
  9
$DIMFIT
 70
     2
  9
$DIMUPT
 70
     0
  9
$DIMUNIT
 70
     2
  9
$DIMDEC
 70
     2
  9
$DIMTDEC
 70
     4
  9
$DIMALTU
 70
     2
  9
$DIMALTTD
 70
     2
  9
$DIMTXSTY
  7
STANDARD
  9
$DIMAUNIT
 70
     0
  9
$LUNITS
 70
     2
  9
$LUPREC
 70
     4
  9
$SKETCHINC
 40
1.0
  9
$FILLETRAD
 40
1.0
  9
$AUNITS
 70
     0
  9
$AUPREC
 70
     2
  9
$MENU
  1
acad
  9
$ELEVATION
 40
0.0
  9
$PELEVATION
 40
0.0
  9
$THICKNESS
 40
0.0
  9
$LIMCHECK
 70
     0
  9
$CHAMFERA
 40
1.0
  9
$CHAMFERB
 40
1.0
  9
$CHAMFERC
 40
20.0
  9
$CHAMFERD
 40
0.0
  9
$SKPOLY
 70
     0
  9
$TDCREATE
 40
2453033.732663484
  9
$TDUPDATE
 40
2459460.424002014
  9
$TDINDWG
 40
2.4535817593
  9
$TDUSRTIMER
 40
2.4535817593
  9
$USRTIMER
 70
     1
  9
$ANGBASE
 50
0.0
  9
$ANGDIR
 70
     0
  9
$PDMODE
 70
     0
  9
$PDSIZE
 40
0.0
  9
$PLINEWID
 40
0.0
  9
$COORDS
 70
     2
  9
$SPLFRAME
 70
     0
  9
$SPLINETYPE
 70
     6
  9
$SPLINESEGS
 70
     8
  9
$ATTDIA
 70
     0
  9
$ATTREQ
 70
     1
  9
$HANDLING
 70
     1
  9
$HANDSEED
  5
211EA
  9
$SURFTAB1
 70
     6
  9
$SURFTAB2
 70
     6
  9
$SURFTYPE
 70
     6
  9
$SURFU
 70
     6
  9
$SURFV
 70
     6
  9
$UCSNAME
  2

  9
$UCSORG
 10
0.0
 20
0.0
 30
0.0
  9
$UCSXDIR
 10
1.0
 20
0.0
 30
0.0
  9
$UCSYDIR
 10
0.0
 20
1.0
 30
0.0
  9
$PUCSNAME
  2

  9
$PUCSORG
 10
0.0
 20
0.0
 30
0.0
  9
$PUCSXDIR
 10
1.0
 20
0.0
 30
0.0
  9
$PUCSYDIR
 10
0.0
 20
1.0
 30
0.0
  9
$USERI1
 70
     0
  9
$USERI2
 70
     0
  9
$USERI3
 70
     0
  9
$USERI4
 70
     0
  9
$USERI5
 70
     0
  9
$USERR1
 40
0.0
  9
$USERR2
 40
0.0
  9
$USERR3
 40
0.0
  9
$USERR4
 40
0.0
  9
$USERR5
 40
0.0
  9
$WORLDVIEW
 70
     1
  9
$SHADEDGE
 70
     3
  9
$SHADEDIF
 70
    70
  9
$TILEMODE
 70
     1
  9
$MAXACTVP
 70
    48
  9
$PINSBASE
 10
0.0
 20
0.0
 30
0.0
  9
$PLIMCHECK
 70
     0
  9
$PEXTMIN
 10
1.000000000000000E+20
 20
1.000000000000000E+20
 30
1.000000000000000E+20
  9
$PEXTMAX
 10
-1.000000000000000E+20
 20
-1.000000000000000E+20
 30
-1.000000000000000E+20
  9
$PLIMMIN
 10
0.0
 20
0.0
  9
$PLIMMAX
 10
420.0
 20
297.0
  9
$UNITMODE
 70
     0
  9
$VISRETAIN
 70
     1
  9
$PLINEGEN
 70
     0
  9
$PSLTSCALE
 70
     1
  9
$TREEDEPTH
 70
  3020
  9
$PICKSTYLE
 70
     0
  9
$CMLSTYLE
  2
STANDARD
  9
$CMLJUST
 70
     0
  9
$CMLSCALE
 40
20.0
  9
$SAVEIMAGES
 70
     1
  0
ENDSEC
  0
SECTION
  2
CLASSES
  0
CLASS
  1
DICTIONARYVAR
  2
AcDbDictionaryVar
  3
ObjectDBX Classes
 90
        0
280
     0
281
     0
  0
CLASS
  1
IDBUFFER
  2
AcDbIdBuffer
  3
ObjectDBX Classes
 90
    32768
280
     0
281
     0
  0
CLASS
  1
LWPOLYLINE
  2
AcDbPolyline
  3
ObjectDBX Classes
 90
    32768
280
     0
281
     1
  0
CLASS
  1
ACDBDICTIONARYWDFLT
  2
AcDbDictionaryWithDefault
  3
ObjectDBX Classes
 90
    32768
280
     0
281
     0
  0
CLASS
  1
ACDBPLACEHOLDER
  2
AcDbPlaceHolder
  3
ObjectDBX Classes
 90
        0
280
     0
281
     0
  0
CLASS
  1
LAYOUT
  2
AcDbLayout
  3
ObjectDBX Classes
 90
        0
280
     0
281
     0
  0
CLASS
  1
TABLESTYLE
  2
AcDbTableStyle
  3
ObjectDBX Classes
 90
     4095
280
     0
281
     0
  0
CLASS
  1
SORTENTSTABLE
  2
AcDbSortentsTable
  3
ObjectDBX Classes
 90
    32768
280
     0
281
     0
  0
CLASS
  1
DIMASSOC
  2
AcDbDimAssoc
  3
"AcDbDimAssoc|Product Desc:     AcDim ARX App For Dimension|Company:          Autodesk, Inc.|WEB Address:      www.autodesk.com"
 90
        0
280
     0
281
     0
  0
CLASS
  1
MATERIAL
  2
AcDbMaterial
  3
ObjectDBX Classes
 90
     1153
280
     0
281
     0
  0
CLASS
  1
VISUALSTYLE
  2
AcDbVisualStyle
  3
ObjectDBX Classes
 90
     4095
280
     0
281
     0
  0
CLASS
  1
SCALE
  2
AcDbScale
  3
ObjectDBX Classes
 90
     1153
280
     0
281
     0
  0
CLASS
  1
MLEADERSTYLE
  2
AcDbMLeaderStyle
  3
ACDB_MLEADERSTYLE_CLASS
 90
     4095
280
     0
281
     0
  0
CLASS
  1
CELLSTYLEMAP
  2
AcDbCellStyleMap
  3
ObjectDBX Classes
 90
     1152
280
     0
281
     0
  0
CLASS
  1
EXACXREFPANELOBJECT
  2
ExAcXREFPanelObject
  3
EXAC_ESW
 90
     1025
280
     1
281
     0
  0
CLASS
  1
NPOCOLLECTION
  2
AcDbImpNonPersistentObjectsCollection
  3
ObjectDBX Classes
 90
     1153
280
     1
281
     0
  0
CLASS
  1
SUN
  2
AcDbSun
  3
SCENEOE
 90
     1153
280
     0
281
     0
  0
CLASS
  1
XRECORD
  2
AcDbXrecord
  3
ObjectDBX Classes
 90
    32768
280
     0
281
     0
  0
CLASS
  1
HATCH
  2
AcDbHatch
  3
ObjectDBX Classes
 90
    32768
280
     0
281
     1
  0
ENDSEC
  0
SECTION
  2
TABLES
  0
TABLE
  2
VPORT
  5
8
330
0
100
AcDbSymbolTable
 70
     1
  0
VPORT
  5
19DC2
330
8
100
AcDbSymbolTableRecord
100
AcDbViewportTableRecord
  2
*ACTIVE
 70
     0
 10
0.0
 20
0.0
 11
1.0
 21
1.0
 12
481.2662361317377
 22
-592.9233859211218
 13
0.0
 23
0.0
 14
10.0
 24
10.0
 15
10.0
 25
10.0
 16
0.0
 26
0.0
 36
1.0
 17
0.0
 27
0.0
 37
0.0
 40
363.1613964536381
 41
1.858156028368794
 42
50.0
 43
0.0
 44
0.0
 50
0.0
 51
0.0
 71
    16
 72
   100
 73
     1
 74
     1
 75
     0
 76
     0
 77
     0
 78
     0
  0
ENDTAB
  0
TABLE
  2
LTYPE
  5
5
330
0
100
AcDbSymbolTable
 70
     3
  0
LTYPE
  5
12
330
5
100
AcDbSymbolTableRecord
100
AcDbLinetypeTableRecord
  2
BYBLOCK
 70
     0
  3

 72
    65
 73
     0
 40
0.0
  0
LTYPE
  5
13
330
5
100
AcDbSymbolTableRecord
100
AcDbLinetypeTableRecord
  2
BYLAYER
 70
     0
  3

 72
    65
 73
     0
 40
0.0
  0
LTYPE
  5
14
330
5
100
AcDbSymbolTableRecord
100
AcDbLinetypeTableRecord
  2
CONTINUOUS
 70
     0
  3
Solid line
 72
    65
 73
     0
 40
0.0
  0
LTYPE
  5
26
330
5
100
AcDbSymbolTableRecord
100
AcDbLinetypeTableRecord
  2
CENTER2
 70
     0
  3
Center (.5x) ___ _ ___ _ ___ _ ___ _ ___ _ ___
 72
    65
 73
     4
 40
28.575
 49
19.05
 74
     0
 49
-3.175
 74
     0
 49
3.175
 74
     0
 49
-3.175
 74
     0
  0
LTYPE
  5
20B13
330
5
100
AcDbSymbolTableRecord
100
AcDbLinetypeTableRecord
  2
PHANTOM
 70
     0
  3
Phantom ______  __  __  ______  __  __  ______
 72
    65
 73
     6
 40
12.7
 49
6.35
 74
     0
 49
-1.27
 74
     0
 49
1.27
 74
     0
 49
-1.27
 74
     0
 49
1.27
 74
     0
 49
-1.27
 74
     0
  0
ENDTAB
  0
TABLE
  2
LAYER
  5
2
102
{ACAD_XDICTIONARY
360
18FE8
102
}
330
0
100
AcDbSymbolTable
 70
     6
  0
LAYER
  5
E
102
{ACAD_XDICTIONARY
360
1A20A
102
}
330
2
100
AcDbSymbolTableRecord
100
AcDbLayerTableRecord
  2
0
 70
     0
 62
     7
  6
CONTINUOUS
  0
LAYER
  5
29
102
{ACAD_XDICTIONARY
360
1A20C
102
}
330
2
100
AcDbSymbolTableRecord
100
AcDbLayerTableRecord
  2
1CENTER
 70
     0
 62
     7
  6
CENTER2
  0
LAYER
  5
31
102
{ACAD_XDICTIONARY
360
1A20E
102
}
330
2
100
AcDbSymbolTableRecord
100
AcDbLayerTableRecord
  2
1TEXT
 70
     0
 62
     7
  6
CONTINUOUS
  0
LAYER
  5
101
102
{ACAD_XDICTIONARY
360
1A218
102
}
330
2
100
AcDbSymbolTableRecord
100
AcDbLayerTableRecord
  2
1DIM
 70
     0
 62
     7
  6
CONTINUOUS
  0
LAYER
  5
25F
102
{ACAD_XDICTIONARY
360
1A220
102
}
330
2
100
AcDbSymbolTableRecord
100
AcDbLayerTableRecord
  2
01
 70
     0
 62
     1
  6
CONTINUOUS
  0
LAYER
  5
26A
102
{ACAD_XDICTIONARY
360
1A236
102
}
330
2
100
AcDbSymbolTableRecord
100
AcDbLayerTableRecord
  2
1DIM1
 70
     0
 62
     7
  6
CONTINUOUS
  0
ENDTAB
  0
TABLE
  2
STYLE
  5
3
330
0
100
AcDbSymbolTable
 70
     1
  0
STYLE
  5
F
330
3
100
AcDbSymbolTableRecord
100
AcDbTextStyleTableRecord
  2
STANDARD
 70
     0
 40
0.0
 41
1.0
 50
0.0
 71
     0
 42
4.0
  3
txt.shx
  4
extfont.shx
  0
ENDTAB
  0
TABLE
  2
VIEW
  5
6
330
0
100
AcDbSymbolTable
 70
     0
  0
ENDTAB
  0
TABLE
  2
UCS
  5
7
330
0
100
AcDbSymbolTable
 70
     0
  0
ENDTAB
  0
TABLE
  2
APPID
  5
9
330
0
100
AcDbSymbolTable
 70
    15
  0
APPID
  5
10
330
9
100
AcDbSymbolTableRecord
100
AcDbRegAppTableRecord
  2
ACAD
 70
     0
  0
APPID
  5
21
330
9
100
AcDbSymbolTableRecord
100
AcDbRegAppTableRecord
  2
DRAWINGVARIABLESXDATA
 70
     0
  0
APPID
  5
64
330
9
100
AcDbSymbolTableRecord
100
AcDbRegAppTableRecord
  2
CONTENTTABDATA
 70
     0
  0
APPID
  5
65
330
9
100
AcDbSymbolTableRecord
100
AcDbRegAppTableRecord
  2
CONTENTCURRENTTAB
 70
     0
  0
APPID
  5
66
330
9
100
AcDbSymbolTableRecord
100
AcDbRegAppTableRecord
  2
CONTENTBLOCKDESCRIPTION
 70
     0
  0
APPID
  5
67
330
9
100
AcDbSymbolTableRecord
100
AcDbRegAppTableRecord
  2
CONTENTBLOCKICON
 70
     0
  0
APPID
  5
68
330
9
100
AcDbSymbolTableRecord
100
AcDbRegAppTableRecord
  2
CONTENTLONGBLOCKNAME
 70
     0
  0
APPID
  5
5A9
330
9
100
AcDbSymbolTableRecord
100
AcDbRegAppTableRecord
  2
ACAD_PSEXT
 70
     0
  0
APPID
  5
18AC
330
9
100
AcDbSymbolTableRecord
100
AcDbRegAppTableRecord
  2
ACAD_DSTYLE_DIMTEXT_FILL
 70
     0
  0
APPID
  5
19E1A
330
9
100
AcDbSymbolTableRecord
100
AcDbRegAppTableRecord
  2
ACAD_MLEADERVER
 70
     0
  0
APPID
  5
1A2FA
330
9
100
AcDbSymbolTableRecord
100
AcDbRegAppTableRecord
  2
ACAD_DSTYLE_DIMRADIAL_EXTE
 70
     0
  0
APPID
  5
1DBC1
330
9
100
AcDbSymbolTableRecord
100
AcDbRegAppTableRecord
  2
ACADANNOTATIVE
 70
     0
  0
APPID
  5
1E991
330
9
100
AcDbSymbolTableRecord
100
AcDbRegAppTableRecord
  2
ACAD_EXEMPT_FROM_CAD_STAND
 70
     0
  0
APPID
  5
202C7
330
9
100
AcDbSymbolTableRecord
100
AcDbRegAppTableRecord
  2
ACDBBLOCKREPETAG
 70
     0
  0
APPID
  5
20AA7
330
9
100
AcDbSymbolTableRecord
100
AcDbRegAppTableRecord
  2
ACAD_OBJECT_CHANGE_GUID
 70
     0
  0
ENDTAB
  0
TABLE
  2
DIMSTYLE
  5
A
330
0
100
AcDbSymbolTable
 70
     2
  0
DIMSTYLE
105
48
330
A
100
AcDbSymbolTableRecord
100
AcDbDimStyleTableRecord
  2
NEWX10
 70
     0
  3
 
  4

  5

  6
OPEN30
  7
OPEN30
 40
1.0
 41
2.0
 42
0.0
 43
7.0
 44
1.0
 45
0.0
 46
0.0
 47
0.0
 48
0.0
140
3.5
141
0.0
142
0.0
143
25.4
144
1.0
145
0.0
146
0.7
147
0.7
 71
     0
 72
     0
 73
     0
 74
     0
 75
     0
 76
     0
 77
     1
 78
     8
170
     0
171
     2
172
     1
173
     1
174
     0
175
     0
176
   256
177
   256
178
   201
179
     2
270
     2
271
     2
272
     4
273
     2
274
     2
340
F
275
     0
280
     0
281
     0
282
     0
283
     1
284
     8
285
     0
286
     0
287
     2
288
     0
  0
DIMSTYLE
105
20B14
330
A
100
AcDbSymbolTableRecord
100
AcDbDimStyleTableRecord
  2
ISO-25
 70
     0
  3

  4

  5

  6

  7

 40
1.0
 41
2.5
 42
0.625
 43
3.75
 44
1.25
 45
0.0
 46
0.0
 47
0.0
 48
0.0
140
2.5
141
2.5
142
0.0
143
0.03937007874016
144
1.0
145
0.0
146
1.0
147
0.625
 71
     0
 72
     0
 73
     0
 74
     0
 75
     0
 76
     0
 77
     1
 78
     8
170
     0
171
     3
172
     1
173
     0
174
     0
175
     0
176
     0
177
     0
178
     0
270
     2
271
     2
272
     2
273
     2
274
     3
340
F
275
     0
280
     0
281
     0
282
     0
283
     0
284
     8
285
     0
286
     0
287
     3
288
     0
  0
ENDTAB
  0
TABLE
  2
BLOCK_RECORD
  5
1
330
0
100
AcDbSymbolTable
 70
     8
  0
BLOCK_RECORD
  5
18
102
{ACAD_XDICTIONARY
360
6E9
102
}
330
1
100
AcDbSymbolTableRecord
100
AcDbBlockTableRecord
  2
*MODEL_SPACE
  0
BLOCK_RECORD
  5
15
102
{ACAD_XDICTIONARY
360
59B
102
}
330
1
100
AcDbSymbolTableRecord
100
AcDbBlockTableRecord
  2
*PAPER_SPACE
  0
BLOCK_RECORD
  5
42
330
1
100
AcDbSymbolTableRecord
100
AcDbBlockTableRecord
  2
_OPEN30
  0
BLOCK_RECORD
  5
20316
330
1
100
AcDbSymbolTableRecord
100
AcDbBlockTableRecord
  2
A3WAKUKAWAJUN2017_HYOUDAI_
  0
BLOCK_RECORD
  5
2104A
330
1
100
AcDbSymbolTableRecord
100
AcDbBlockTableRecord
  2
*X47
  0
BLOCK_RECORD
  5
21098
330
1
100
AcDbSymbolTableRecord
100
AcDbBlockTableRecord
  2
*X48
  0
BLOCK_RECORD
  5
210EA
330
1
100
AcDbSymbolTableRecord
100
AcDbBlockTableRecord
  2
*X49
  0
BLOCK_RECORD
  5
2113B
330
1
100
AcDbSymbolTableRecord
100
AcDbBlockTableRecord
  2
*X50
  0
BLOCK_RECORD
  5
21178
330
1
100
AcDbSymbolTableRecord
100
AcDbBlockTableRecord
  2
*X51
  0
BLOCK_RECORD
  5
211B8
330
1
100
AcDbSymbolTableRecord
100
AcDbBlockTableRecord
  2
*X52
  0
ENDTAB
  0
ENDSEC
  0
SECTION
  2
BLOCKS
  0
BLOCK
  5
19
330
18
100
AcDbEntity
  8
0
100
AcDbBlockBegin
  2
*MODEL_SPACE
 70
     0
 10
0.0
 20
0.0
 30
0.0
  3
*MODEL_SPACE
  1

  0
ENDBLK
  5
1A
330
18
100
AcDbEntity
  8
0
100
AcDbBlockEnd
  0
BLOCK
  5
16
330
15
100
AcDbEntity
 67
     1
  8
0
100
AcDbBlockBegin
  2
*PAPER_SPACE
 70
     0
 10
0.0
 20
0.0
 30
0.0
  3
*PAPER_SPACE
  1

  0
ENDBLK
  5
17
330
15
100
AcDbEntity
 67
     1
  8
0
100
AcDbBlockEnd
  0
BLOCK
  5
43
330
42
100
AcDbEntity
  8
0
100
AcDbBlockBegin
  2
_OPEN30
 70
     0
 10
0.0
 20
0.0
 30
0.0
  3
_OPEN30
  1

  0
LINE
  5
44
330
42
100
AcDbEntity
  8
0
  6
BYBLOCK
 62
     0
100
AcDbLine
 10
-1.0
 20
0.26794919
 30
0.0
 11
0.0
 21
0.0
 31
0.0
  0
LINE
  5
45
330
42
100
AcDbEntity
  8
0
  6
BYBLOCK
 62
     0
100
AcDbLine
 10
0.0
 20
0.0
 30
0.0
 11
-1.0
 21
-0.26794919
 31
0.0
  0
LINE
  5
46
330
42
100
AcDbEntity
  8
0
  6
BYBLOCK
 62
     0
100
AcDbLine
 10
0.0
 20
0.0
 30
0.0
 11
-1.0
 21
0.0
 31
0.0
  0
ENDBLK
  5
47
330
42
100
AcDbEntity
  8
0
100
AcDbBlockEnd
  0
BLOCK
  5
20A15
330
20316
100
AcDbEntity
  8
0
100
AcDbBlockBegin
  2
A3WAKUKAWAJUN2017_HYOUDAI_
 70
     0
 10
0.0
 20
0.0
 30
0.0
  3
A3WAKUKAWAJUN2017_HYOUDAI_
  1

  0
LINE
  5
20318
330
20316
100
AcDbEntity
  8
0
100
AcDbLine
 10
13.26299999998673
 20
-0.0001000000000317
 30
0.0
 11
9.236999999990758
 21
8.999899999990987
 31
0.0
1001
ACAD
1000
ASC_BOUNDS
1002
{
1070
    19
1005
20359
1002
}
  0
LINE
  5
20319
330
20316
100
AcDbEntity
  8
0
100
AcDbLine
 10
5.657999999994331
 20
0.9999999999989768
 30
0.0
 11
9.236999999990758
 21
8.999999999991019
 31
0.0
1001
ACAD
1000
ASC_BOUNDS
1002
{
1070
    19
1005
20359
1002
}
  0
LINE
  5
2031A
330
20316
100
AcDbEntity
  8
0
100
AcDbLine
 10
18.59199999998134
 20
-0.2368999999997641
 30
0.0
 11
16.46099999998353
 21
5.432899999994561
 31
0.0
1001
ACAD
1000
ASC_BOUNDS
1002
{
1070
    19
1005
2035A
1002
}
  0
LINE
  5
2031B
330
20316
100
AcDbEntity
  8
0
100
AcDbLine
 10
18.59199999998134
 20
-0.2368999999997641
 30
0.0
 11
22.38199999997767
 21
8.763099999991255
 31
0.0
1001
ACAD
1000
ASC_BOUNDS
1002
{
1070
    19
1005
2035A
1002
}
  0
LINE
  5
2031C
330
20316
100
AcDbEntity
  8
0
100
AcDbLine
 10
14.32899999998563
 20
-0.2368999999997641
 30
0.0
 11
16.46099999998353
 21
5.432899999994561
 31
0.0
1001
ACAD
1000
ASC_BOUNDS
1002
{
1070
    19
1005
2035A
1002
}
  0
LINE
  5
2031D
330
20316
100
AcDbEntity
  8
0
100
AcDbLine
 10
14.32899999998563
 20
-0.2368999999997641
 30
0.0
 11
10.53899999998941
 21
8.763099999991255
 31
0.0
1001
ACAD
1000
ASC_BOUNDS
1002
{
1070
    19
1005
2035A
1002
}
  0
LINE
  5
2031E
330
20316
100
AcDbEntity
  8
0
100
AcDbLine
 10
19.53899999998043
 20
-0.0001000000000317
 30
0.0
 11
23.56599999997638
 21
8.999899999990987
 31
0.0
1001
ACAD
1000
ASC_BOUNDS
1002
{
1070
    19
1005
2035B
1002
}
  0
LINE
  5
2031F
330
20316
100
AcDbEntity
  8
0
100
AcDbLine
 10
26.97358892824991
 20
1.383099999991202
 30
0.0
 11
23.56599999997638
 21
8.999899999990987
 31
0.0
1001
ACAD
1000
ASC_BOUNDS
1002
{
1070
    19
1005
2035B
1002
}
  0
LINE
  5
20320
330
20316
100
AcDbEntity
  8
0
100
AcDbLine
 10
5.657999999994331
 20
0.9999999999989768
 30
0.0
 11
3.181999999996833
 21
4.668599999995308
 31
0.0
1001
ACAD
1000
ASC_BOUNDS
1002
{
1070
    19
1005
20359
1002
}
  0
LINE
  5
20321
330
20316
100
AcDbEntity
  8
0
100
AcDbLine
 10
4.617999999995391
 20
-0.0001000000000317
 30
0.0
 11
1.420999999998571
 21
4.736799999995242
 31
0.0
1001
ACAD
1000
ASC_BOUNDS
1002
{
1070
    19
1005
20359
1002
}
  0
LINE
  5
20322
330
20316
100
AcDbEntity
  8
0
100
AcDbLine
 10
1.420999999998571
 20
8.763099999991255
 30
0.0
 11
1.420999999998571
 21
0.0
 31
0.0
1001
ACAD
1000
ASC_BOUNDS
1002
{
1070
    19
1005
2035E
1002
}
  0
LINE
  5
20323
330
20316
100
AcDbEntity
  8
0
100
AcDbLine
 10
0.0
 20
8.763099999991255
 30
0.0
 11
0.0
 21
0.0
 31
0.0
1001
ACAD
1000
ASC_BOUNDS
1002
{
1070
    19
1005
2035E
1002
}
  0
LINE
  5
20324
330
20316
100
AcDbEntity
  8
0
100
AcDbLine
 10
6.766999999993232
 20
-0.0001000000000317
 30
0.0
 11
7.826999999992154
 21
2.368399999997621
 31
0.0
1001
ACAD
1000
ASC_BOUNDS
1002
{
1070
    19
1005
20359
1002
}
  0
LINE
  5
20325
330
20316
100
AcDbEntity
  8
0
100
AcDbLine
 10
0.0
 20
0.0
 30
0.0
 11
1.420999999998571
 21
0.0
 31
0.0
1001
ACAD
1000
ASC_BOUNDS
1002
{
1070
    19
1005
2035E
1002
}
  0
LINE
  5
20326
330
20316
100
AcDbEntity
  8
0
100
AcDbLine
 10
4.617999999995391
 20
0.0
 30
0.0
 11
6.766999999993232
 21
0.0
 31
0.0
1001
ACAD
1000
ASC_BOUNDS
1002
{
1070
    19
1005
20359
1002
}
  0
LINE
  5
20327
330
20316
100
AcDbEntity
  8
0
100
AcDbLine
 10
11.70599999998831
 20
-0.0001000000000317
 30
0.0
 11
10.64699999998936
 21
2.368399999997621
 31
0.0
1001
ACAD
1000
ASC_BOUNDS
1002
{
1070
    19
1005
20359
1002
}
  0
LINE
  5
20328
330
20316
100
AcDbEntity
  8
0
100
AcDbLine
 10
7.826999999992154
 20
2.368399999997621
 30
0.0
 11
10.64699999998936
 21
2.368399999997621
 31
0.0
1001
ACAD
1000
ASC_BOUNDS
1002
{
1070
    19
1005
20359
1002
}
  0
LINE
  5
20329
330
20316
100
AcDbEntity
  8
0
100
AcDbLine
 10
11.70599999998831
 20
0.0
 30
0.0
 11
13.26299999998673
 21
0.0
 31
0.0
1001
ACAD
1000
ASC_BOUNDS
1002
{
1070
    19
1005
20359
1002
}
  0
LINE
  5
2032A
330
20316
100
AcDbEntity
  8
0
100
AcDbLine
 10
22.15599999997789
 20
2.368399999997621
 30
0.0
 11
24.97599999997499
 21
2.368399999997621
 31
0.0
1001
ACAD
1000
ASC_BOUNDS
1002
{
1070
    19
1005
2035B
1002
}
  0
LINE
  5
2032B
330
20316
100
AcDbEntity
  8
0
100
AcDbLine
 10
19.53899999998043
 20
0.0
 30
0.0
 11
21.09599999997886
 21
0.0
 31
0.0
1001
ACAD
1000
ASC_BOUNDS
1002
{
1070
    19
1005
2035B
1002
}
  0
LINE
  5
2032C
330
20316
100
AcDbEntity
  8
0
100
AcDbLine
 10
21.09599999997886
 20
-0.0001000000000317
 30
0.0
 11
22.15599999997789
 21
2.368399999997621
 31
0.0
1001
ACAD
1000
ASC_BOUNDS
1002
{
1070
    19
1005
2035B
1002
}
  0
LINE
  5
2032D
330
20316
100
AcDbEntity
  8
0
100
AcDbLine
 10
26.02015566812236
 20
0.0330999999912365
 30
0.0
 11
24.97599999997499
 21
2.368399999997621
 31
0.0
1001
ACAD
1000
ASC_BOUNDS
1002
{
1070
    19
1005
2035B
1002
}
  0
LINE
  5
2032E
330
20316
100
AcDbEntity
  8
0
100
AcDbLine
 10
14.32399999998563
 20
3.315799999996671
 30
0.0
 11
16.46099999998353
 21
8.999899999990987
 31
0.0
1001
ACAD
1000
ASC_BOUNDS
1002
{
1070
    19
1005
2035A
1002
}
  0
LINE
  5
2032F
330
20316
100
AcDbEntity
  8
0
100
AcDbLine
 10
6.432999999993513
 20
8.763099999991255
 30
0.0
 11
3.181999999996833
 21
4.668599999995308
 31
0.0
1001
ACAD
1000
ASC_BOUNDS
1002
{
1070
    19
1005
20359
1002
}
  0
LINE
  5
20330
330
20316
100
AcDbEntity
  8
0
100
AcDbLine
 10
4.617999999995391
 20
8.763099999991255
 30
0.0
 11
1.420999999998571
 21
4.736799999995242
 31
0.0
1001
ACAD
1000
ASC_BOUNDS
1002
{
1070
    19
1005
20359
1002
}
  0
LINE
  5
20331
330
20316
100
AcDbEntity
  8
0
100
AcDbLine
 10
0.0
 20
8.763099999991255
 30
0.0
 11
1.420999999998571
 21
8.763099999991255
 31
0.0
1001
ACAD
1000
ASC_BOUNDS
1002
{
1070
    19
1005
2035E
1002
}
  0
LINE
  5
20332
330
20316
100
AcDbEntity
  8
0
100
AcDbLine
 10
4.617999999995391
 20
8.763099999991255
 30
0.0
 11
6.432999999993513
 21
8.763099999991255
 31
0.0
1001
ACAD
1000
ASC_BOUNDS
1002
{
1070
    19
1005
20359
1002
}
  0
LINE
  5
20333
330
20316
100
AcDbEntity
  8
0
100
AcDbLine
 10
14.32399999998563
 20
3.315799999996671
 30
0.0
 11
12.02999999998792
 21
8.763099999991255
 31
0.0
1001
ACAD
1000
ASC_BOUNDS
1002
{
1070
    19
1005
2035A
1002
}
  0
LINE
  5
20334
330
20316
100
AcDbEntity
  8
0
100
AcDbLine
 10
10.06399999998996
 20
3.670999999996297
 30
0.0
 11
9.236999999990758
 21
5.5200999999945
 31
0.0
1001
ACAD
1000
ASC_BOUNDS
1002
{
1070
    19
1005
20359
1002
}
  0
LINE
  5
20335
330
20316
100
AcDbEntity
  8
0
100
AcDbLine
 10
8.409999999991555
 20
3.670999999996297
 30
0.0
 11
9.236999999990758
 21
5.5200999999945
 31
0.0
1001
ACAD
1000
ASC_BOUNDS
1002
{
1070
    19
1005
20359
1002
}
  0
LINE
  5
20336
330
20316
100
AcDbEntity
  8
0
100
AcDbLine
 10
8.409999999991555
 20
3.670999999996297
 30
0.0
 11
10.06399999998996
 21
3.670999999996297
 31
0.0
1001
ACAD
1000
ASC_BOUNDS
1002
{
1070
    19
1005
20359
1002
}
  0
LINE
  5
20337
330
20316
100
AcDbEntity
  8
0
100
AcDbLine
 10
10.53899999998941
 20
8.763099999991255
 30
0.0
 11
12.02999999998792
 21
8.763099999991255
 31
0.0
1001
ACAD
1000
ASC_BOUNDS
1002
{
1070
    19
1005
2035A
1002
}
  0
LINE
  5
20338
330
20316
100
AcDbEntity
  8
0
100
AcDbLine
 10
22.7389999999773
 20
3.670999999996297
 30
0.0
 11
23.56599999997638
 21
5.5200999999945
 31
0.0
1001
ACAD
1000
ASC_BOUNDS
1002
{
1070
    19
1005
2035B
1002
}
  0
LINE
  5
20339
330
20316
100
AcDbEntity
  8
0
100
AcDbLine
 10
22.7389999999773
 20
3.670999999996297
 30
0.0
 11
24.39299999997559
 21
3.670999999996297
 31
0.0
1001
ACAD
1000
ASC_BOUNDS
1002
{
1070
    19
1005
2035B
1002
}
  0
LINE
  5
2033A
330
20316
100
AcDbEntity
  8
0
100
AcDbLine
 10
18.59799999998143
 20
3.315799999996671
 30
0.0
 11
20.89099999997916
 21
8.763099999991255
 31
0.0
1001
ACAD
1000
ASC_BOUNDS
1002
{
1070
    19
1005
2035A
1002
}
  0
LINE
  5
2033B
330
20316
100
AcDbEntity
  8
0
100
AcDbLine
 10
18.59799999998143
 20
3.315799999996671
 30
0.0
 11
16.46099999998353
 21
8.999899999990987
 31
0.0
1001
ACAD
1000
ASC_BOUNDS
1002
{
1070
    19
1005
2035A
1002
}
  0
LINE
  5
2033C
330
20316
100
AcDbEntity
  8
0
100
AcDbLine
 10
20.89099999997916
 20
8.763099999991255
 30
0.0
 11
22.38199999997767
 21
8.763099999991255
 31
0.0
1001
ACAD
1000
ASC_BOUNDS
1002
{
1070
    19
1005
2035A
1002
}
  0
LINE
  5
2033D
330
20316
100
AcDbEntity
  8
0
100
AcDbLine
 10
24.39299999997559
 20
3.670999999996297
 30
0.0
 11
23.56599999997638
 21
5.5200999999945
 31
0.0
1001
ACAD
1000
ASC_BOUNDS
1002
{
1070
    19
1005
2035B
1002
}
  0
LINE
  5
2033E
330
20316
100
AcDbEntity
  8
0
100
AcDbLine
 10
44.99999999995498
 20
-0.2368999999997641
 30
0.0
 11
40.02599999995994
 21
5.341799999994635
 31
0.0
1001
ACAD
1000
ASC_BOUNDS
1002
{
1070
    19
1005
2035D
1002
}
  0
LINE
  5
2033F
330
20316
100
AcDbEntity
  8
0
100
AcDbLine
 10
40.02599999995994
 20
5.341799999994635
 30
0.0
 11
40.02599999995994
 21
0.0
 31
0.0
1001
ACAD
1000
ASC_BOUNDS
1002
{
1070
    19
1005
2035D
1002
}
  0
LINE
  5
20340
330
20316
100
AcDbEntity
  8
0
100
AcDbLine
 10
38.60499999996136
 20
8.999999999991019
 30
0.0
 11
38.60499999996136
 21
0.0
 31
0.0
1001
ACAD
1000
ASC_BOUNDS
1002
{
1070
    19
1005
2035D
1002
}
  0
LINE
  5
20341
330
20316
100
AcDbEntity
  8
0
100
AcDbLine
 10
44.99999999995498
 20
8.763099999991255
 30
0.0
 11
44.99999999995498
 21
-0.2368999999997641
 31
0.0
1001
ACAD
1000
ASC_BOUNDS
1002
{
1070
    19
1005
2035D
1002
}
  0
LINE
  5
20342
330
20316
100
AcDbEntity
  8
0
100
AcDbLine
 10
38.60499999996136
 20
0.0
 30
0.0
 11
40.02599999995994
 21
0.0
 31
0.0
1001
ACAD
1000
ASC_BOUNDS
1002
{
1070
    19
1005
2035D
1002
}
  0
LINE
  5
20343
330
20316
100
AcDbEntity
  8
0
100
AcDbLine
 10
43.57899999995641
 20
3.421199999996588
 30
0.0
 11
38.60499999996136
 21
8.999899999990987
 31
0.0
1001
ACAD
1000
ASC_BOUNDS
1002
{
1070
    19
1005
2035D
1002
}
  0
LINE
  5
20344
330
20316
100
AcDbEntity
  8
0
100
AcDbLine
 10
43.57899999995641
 20
8.763099999991255
 30
0.0
 11
43.57899999995641
 21
3.421199999996588
 31
0.0
1001
ACAD
1000
ASC_BOUNDS
1002
{
1070
    19
1005
2035D
1002
}
  0
LINE
  5
20345
330
20316
100
AcDbEntity
  8
0
100
AcDbLine
 10
43.57899999995641
 20
8.763099999991255
 30
0.0
 11
44.99999999995498
 21
8.763099999991255
 31
0.0
1001
ACAD
1000
ASC_BOUNDS
1002
{
1070
    19
1005
2035D
1002
}
  0
LINE
  5
20346
330
20316
100
AcDbEntity
  8
0
100
AcDbLine
 10
37.67199999996831
 20
8.763099999991255
 30
0.0
 11
36.23199999996837
 21
8.763099999991255
 31
0.0
  0
LINE
  5
20347
330
20316
100
AcDbEntity
  8
0
100
AcDbLine
 10
31.64199999996833
 20
8.763099999991255
 30
0.0
 11
31.64199999996833
 21
2.481619422925121
 31
0.0
  0
LINE
  5
20348
330
20316
100
AcDbEntity
  8
0
100
AcDbLine
 10
37.67199999996831
 20
8.763099999991255
 30
0.0
 11
37.67199999996831
 21
2.481619422925121
 31
0.0
  0
LINE
  5
20349
330
20316
100
AcDbEntity
  8
0
100
AcDbLine
 10
36.23199999996837
 20
8.763099999991255
 30
0.0
 11
36.23199999996837
 21
2.481619422925064
 31
0.0
  0
LINE
  5
2034A
330
20316
100
AcDbEntity
  8
0
100
AcDbLine
 10
33.08199999996839
 20
8.763099999991255
 30
0.0
 11
33.08199999996839
 21
2.481619422925121
 31
0.0
  0
ARC
  5
2034B
330
20316
100
AcDbEntity
  8
0
100
AcDbCircle
 10
34.65699999996832
 20
3.183099999991214
 30
0.0
 40
3.420000000000007
100
AcDbArc
 50
240.0000000000255
 51
299.9999999999766
  0
ARC
  5
2034C
330
20316
100
AcDbEntity
  8
0
100
AcDbCircle
 10
34.65699999996832
 20
3.183099999991214
 30
0.0
 40
1.97999999999999
100
AcDbArc
 50
240.000000000026
 51
299.9999999999703
  0
LINE
  5
2034D
330
20316
100
AcDbEntity
  8
0
100
AcDbLine
 10
33.08199999996828
 20
8.763099999991255
 30
0.0
 11
31.64199999996833
 21
8.763099999991255
 31
0.0
  0
ARC
  5
2034E
330
20316
100
AcDbEntity
  8
0
100
AcDbCircle
 10
35.06199999996829
 20
2.481619422925064
 30
0.0
 40
1.17
100
AcDbArc
 50
299.9999999999699
 51
0.0
  0
ARC
  5
2034F
330
20316
100
AcDbEntity
  8
0
100
AcDbCircle
 10
34.25199999996835
 20
2.481619422925121
 30
0.0
 40
1.17
100
AcDbArc
 50
180.0
 51
240.0000000000238
  0
ARC
  5
20350
330
20316
100
AcDbEntity
  8
0
100
AcDbCircle
 10
35.06199999996841
 20
2.481619422925121
 30
0.0
 40
2.61
100
AcDbArc
 50
299.9999999999756
 51
0.0
  0
ARC
  5
20351
330
20316
100
AcDbEntity
  8
0
100
AcDbCircle
 10
34.25199999996835
 20
2.481619422925121
 30
0.0
 40
2.61
100
AcDbArc
 50
180.0
 51
240.0000000000244
  0
LINE
  5
20352
330
20316
100
AcDbEntity
  8
0
100
AcDbLine
 10
29.30199999996933
 20
8.763099999991255
 30
0.0
 11
30.74199999996927
 21
8.763099999991255
 31
0.0
1001
ACAD
1000
ASC_BOUNDS
1002
{
1070
    19
1005
2035B
1002
}
  0
LINE
  5
20353
330
20316
100
AcDbEntity
  8
0
100
AcDbLine
 10
30.74199999996927
 20
8.763099999991255
 30
0.0
 11
30.74199999996927
 21
2.373099999991211
 31
0.0
1001
ACAD
1000
ASC_BOUNDS
1002
{
1070
    19
1005
2035B
1002
}
  0
LINE
  5
20354
330
20316
100
AcDbEntity
  8
0
100
AcDbLine
 10
26.02015566812236
 20
0.0330999999912365
 30
0.0
 11
28.40199999996923
 21
0.0330999999912365
 31
0.0
1001
ACAD
1000
ASC_BOUNDS
1002
{
1070
    19
1005
2035B
1002
}
  0
LINE
  5
20355
330
20316
100
AcDbEntity
  8
0
100
AcDbLine
 10
29.30199999996933
 20
8.763099999991255
 30
0.0
 11
29.30199999996933
 21
2.283099999991236
 31
0.0
1001
ACAD
1000
ASC_BOUNDS
1002
{
1070
    19
1005
2035B
1002
}
  0
LINE
  5
20356
330
20316
100
AcDbEntity
  8
0
100
AcDbLine
 10
26.97358892824991
 20
1.383099999991202
 30
0.0
 11
28.40199999996923
 21
1.383099999991202
 31
0.0
1001
ACAD
1000
ASC_BOUNDS
1002
{
1070
    19
1005
2035B
1002
}
  0
ARC
  5
20357
330
20316
100
AcDbEntity
  8
0
100
AcDbCircle
 10
28.40199999996923
 20
2.283099999991236
 30
0.0
 40
0.9
100
AcDbArc
 50
270.0
 51
0.0
1001
ACAD
1000
ASC_BOUNDS
1002
{
1070
    19
1005
2035B
1002
}
  0
ARC
  5
20358
330
20316
100
AcDbEntity
  8
0
100
AcDbCircle
 10
28.40199999996923
 20
2.373099999991211
 30
0.0
 40
2.34
100
AcDbArc
 50
270.0
 51
0.0
1001
ACAD
1000
ASC_BOUNDS
1002
{
1070
    19
1005
2035B
1002
}
  0
INSERT
  5
20359
330
20316
100
AcDbEntity
  8
0
100
AcDbBlockReference
  2
*X47
 10
0.0
 20
0.0
 30
0.0
1001
ACAD
1000
HATCH
1002
{
1070
    19
1000
ANSI37
1040
0.15
1040
0.0
1000
ASC_BOUNDS
1070
     2
1070
     2
1070
    12
1005
20318
1005
20319
1005
20320
1005
2032F
1005
20332
1005
20330
1005
20321
1005
20326
1005
20324
1005
20328
1005
20327
1005
20329
1070
     2
1070
     3
1005
20334
1005
20336
1005
20335
1000
ASC_SEEDPOINT
1011
3.614004224891801
1021
2.996669441146025
1031
0.0
1000
R14_HATCH_DATA
1000
20359
1011
1.0
1021
0.0
1031
0.0
1011
0.0
1021
1.0
1031
0.0
1011
0.0
1021
0.0
1031
1.0
1040
0.0
1010
0.0
1020
0.0
1030
1.0
1000
ANSI37
1070
     0
1070
     1
1071
        2
1071
        7
1070
     0
1070
     1
1071
       17
1040
13.26299999998673
1040
-0.0001000000000317
1040
9.236999999990758
1040
8.999899999990987
1040
9.236999999990758
1040
8.999999999991019
1040
5.657999999994331
1040
0.9999999999989768
1040
3.181999999996833
1040
4.668599999995308
1040
6.432999999993513
1040
8.763099999991255
1040
4.617999999995391
1040
8.763099999991255
1040
1.420999999998571
1040
4.736799999995242
1040
4.617999999995391
1040
-0.0001000000000317
1040
4.617999999995391
1040
0.0
1040
6.766999999993232
1040
0.0
1040
6.766999999993232
1040
-0.0001000000000317
1040
7.826999999992154
1040
2.368399999997621
1040
10.64699999998936
1040
2.368399999997621
1040
11.70599999998831
1040
-0.0001000000000317
1040
11.70599999998831
1040
0.0
1040
13.26299999998673
1040
0.0
1071
       12
1005
20318
1005
20319
1005
20320
1005
2032F
1005
20332
1005
20330
1005
20321
1005
20326
1005
20324
1005
20328
1005
20327
1005
20329
1071
       22
1070
     0
1070
     1
1071
        3
1040
9.236999999990758
1040
5.5200999999945
1040
10.06399999998996
1040
3.670999999996297
1040
8.409999999991555
1040
3.670999999996297
1071
        3
1005
20334
1005
20336
1005
20335
1070
     0
1070
     1
1040
0.0
1040
0.15
1070
     0
1070
     2
1040
0.7853981633974483
1040
49.29960901727088
1040
-10.17736998311392
1040
-0.3367596045400932
1040
0.3367596045400932
1070
     0
1040
2.356194490192345
1040
49.29960901727088
1040
-10.17736998311392
1040
-0.3367596045400932
1040
-0.3367596045400932
1070
     0
1040
0.0110235143455945
1071
        2
1040
3.614004224891801
1040
2.996669441146025
1040
0.0
1040
3.614004224891801
1040
2.996669441146025
1040
0.0
1002
}
  0
INSERT
  5
2035A
330
20316
100
AcDbEntity
  8
0
100
AcDbBlockReference
  2
*X48
 10
0.0
 20
0.0
 30
0.0
1001
ACAD
1000
HATCH
1002
{
1070
    19
1000
ANSI37
1040
0.15
1040
0.0
1000
ASC_BOUNDS
1070
     1
1070
     2
1070
    10
1005
2031A
1005
2031B
1005
2033C
1005
2033A
1005
2033B
1005
2032E
1005
20333
1005
20337
1005
2031D
1005
2031C
1000
ASC_SEEDPOINT
1011
14.73245321214324
1021
2.798246178283421
1031
0.0
1000
R14_HATCH_DATA
1000
2035A
1011
1.0
1021
0.0
1031
0.0
1011
0.0
1021
1.0
1031
0.0
1011
0.0
1021
0.0
1031
1.0
1040
0.0
1010
0.0
1020
0.0
1030
1.0
1000
ANSI37
1070
     0
1070
     1
1071
        1
1071
        7
1070
     0
1070
     1
1071
       10
1040
16.46099999998353
1040
5.432899999994561
1040
18.59199999998134
1040
-0.2368999999997641
1040
22.38199999997767
1040
8.763099999991255
1040
20.89099999997916
1040
8.763099999991255
1040
18.59799999998143
1040
3.315799999996671
1040
16.46099999998353
1040
8.999899999990987
1040
14.32399999998563
1040
3.315799999996671
1040
12.02999999998792
1040
8.763099999991255
1040
10.53899999998941
1040
8.763099999991255
1040
14.32899999998563
1040
-0.2368999999997641
1071
       10
1005
2031A
1005
2031B
1005
2033C
1005
2033A
1005
2033B
1005
2032E
1005
20333
1005
20337
1005
2031D
1005
2031C
1070
     0
1070
     1
1040
0.0
1040
0.15
1070
     0
1070
     2
1040
0.7853981633974483
1040
49.29960901727088
1040
-10.17736998311392
1040
-0.3367596045400932
1040
0.3367596045400932
1070
     0
1040
2.356194490192345
1040
49.29960901727088
1040
-10.17736998311392
1040
-0.3367596045400932
1040
-0.3367596045400932
1070
     0
1040
0.0110235143455945
1071
        1
1040
14.73245321214324
1040
2.798246178283421
1040
0.0
1002
}
  0
INSERT
  5
2035B
330
20316
100
AcDbEntity
  8
0
100
AcDbBlockReference
  2
*X49
 10
0.0
 20
0.0
 30
0.0
1001
ACAD
1000
HATCH
1002
{
1070
    19
1000
ANSI37
1040
0.15
1040
0.0
1000
ASC_BOUNDS
1070
     2
1070
     2
1070
    13
1005
2031E
1005
2032B
1005
2032C
1005
2032A
1005
2032D
1005
20354
1005
20358
1005
20353
1005
20352
1005
20355
1005
20357
1005
20356
1005
2031F
1070
     2
1070
     3
1005
20338
1005
2033D
1005
20339
1000
ASC_SEEDPOINT
1011
21.97929957367762
1021
3.294304244259308
1031
0.0
1000
R14_HATCH_DATA
1000
2035B
1011
1.0
1021
0.0
1031
0.0
1011
0.0
1021
1.0
1031
0.0
1011
0.0
1021
0.0
1031
1.0
1040
0.0
1010
0.0
1020
0.0
1030
1.0
1000
ANSI37
1070
     0
1070
     1
1071
        2
1071
        7
1070
     1
1070
     1
1071
       15
1040
23.56599999997638
1040
8.999899999990987
1040
0.0
1040
19.53899999998043
1040
-0.0001000000000317
1040
0.0
1040
19.53899999998043
1040
0.0
1040
0.0
1040
21.09599999997886
1040
0.0
1040
0.0
1040
21.09599999997886
1040
-0.0001000000000317
1040
0.0
1040
22.15599999997789
1040
2.368399999997621
1040
0.0
1040
24.97599999997499
1040
2.368399999997621
1040
0.0
1040
26.02015566812236
1040
0.0330999999912365
1040
0.0
1040
28.40199999996923
1040
0.0330999999912365
1040
0.414213562373095
1040
30.74199999996923
1040
2.373099999991211
1040
0.0
1040
30.74199999996927
1040
8.763099999991255
1040
0.0
1040
29.30199999996933
1040
8.763099999991255
1040
0.0
1040
29.30199999996933
1040
2.283099999991236
1040
-0.414213562373095
1040
28.40199999996923
1040
1.383099999991237
1040
0.0
1040
26.97358892824991
1040
1.383099999991202
1040
0.0
1071
       13
1005
2031E
1005
2032B
1005
2032C
1005
2032A
1005
2032D
1005
20354
1005
20358
1005
20353
1005
20352
1005
20355
1005
20357
1005
20356
1005
2031F
1071
       22
1070
     0
1070
     1
1071
        3
1040
22.7389999999773
1040
3.670999999996297
1040
23.56599999997638
1040
5.5200999999945
1040
24.39299999997559
1040
3.670999999996297
1071
        3
1005
20338
1005
2033D
1005
20339
1070
     0
1070
     1
1040
0.0
1040
0.15
1070
     0
1070
     2
1040
0.7853981633974483
1040
49.29960901727088
1040
-10.17736998311392
1040
-0.3367596045400932
1040
0.3367596045400932
1070
     0
1040
2.356194490192345
1040
49.29960901727088
1040
-10.17736998311392
1040
-0.3367596045400932
1040
-0.3367596045400932
1070
     0
1040
0.0110235143455945
1071
        2
1040
21.97929957367762
1040
3.294304244259308
1040
0.0
1040
21.97929957367762
1040
3.294304244259308
1040
0.0
1002
}
  0
INSERT
  5
2035C
330
20316
100
AcDbEntity
  8
0
100
AcDbBlockReference
  2
*X50
 10
0.0
 20
0.0
 30
0.0
1001
ACAD
1000
HATCH
1002
{
1070
    19
1000
ANSI37
1040
0.15
1040
0.0
1000
R14_HATCH_DATA
1000
2035C
1011
1.0
1021
0.0
1031
0.0
1011
0.0
1021
1.0
1031
0.0
1011
0.0
1021
0.0
1031
1.0
1040
0.0
1010
0.0
1020
0.0
1030
1.0
1000
ANSI37
1070
     0
1070
     1
1071
        1
1071
        7
1070
     1
1070
     1
1071
       12
1040
31.64199999996833
1040
2.481619422925121
1040
0.2679491924310942
1040
32.94699999997067
1040
0.2212931190493919
1040
0.2679491924301353
1040
36.36699999995983
1040
0.2212931190459813
1040
0.2679491924321411
1040
37.67199999996831
1040
2.481619422928361
1040
0.0
1040
37.67199999996831
1040
8.763099999991255
1040
0.0
1040
36.23199999996837
1040
8.763099999991255
1040
0.0
1040
36.23199999996837
1040
2.481619422925064
1040
-0.2679491924310291
1040
35.64699999996708
1040
1.468369700498386
1040
-0.267949192430519
1040
33.66699999997093
1040
1.468369700497703
1040
-0.267949192431809
1040
33.08199999996839
1040
2.481619422926997
1040
0.0
1040
33.08199999996839
1040
8.763099999991255
1040
0.0
1040
31.64199999996833
1040
8.763099999991255
1040
0.0
1071
        0
1070
     0
1070
     1
1040
0.0
1040
0.15
1070
     0
1070
     2
1040
0.7853981633974483
1040
49.29960901727088
1040
-10.17736998311392
1040
-0.3367596045400932
1040
0.3367596045400932
1070
     0
1040
2.356194490192345
1040
49.29960901727088
1040
-10.17736998311392
1040
-0.3367596045400932
1040
-0.3367596045400932
1070
     0
1040
0.0110235143455945
1071
        1
1040
32.30357378967278
1040
3.988785755459219
1040
0.0
1002
}
  0
INSERT
  5
2035D
330
20316
100
AcDbEntity
  8
0
100
AcDbBlockReference
  2
*X51
 10
0.0
 20
0.0
 30
0.0
1001
ACAD
1000
HATCH
1002
{
1070
    19
1000
ANSI37
1040
0.15
1040
0.0
1000
ASC_BOUNDS
1070
     1
1070
     2
1070
     8
1005
2033E
1005
20341
1005
20345
1005
20344
1005
20343
1005
20340
1005
20342
1005
2033F
1000
ASC_SEEDPOINT
1011
39.74896370716704
1021
4.484843821435049
1031
0.0
1000
R14_HATCH_DATA
1000
2035D
1011
1.0
1021
0.0
1031
0.0
1011
0.0
1021
1.0
1031
0.0
1011
0.0
1021
0.0
1031
1.0
1040
0.0
1010
0.0
1020
0.0
1030
1.0
1000
ANSI37
1070
     0
1070
     1
1071
        1
1071
        7
1070
     0
1070
     1
1071
        9
1040
40.02599999995994
1040
5.341799999994635
1040
44.99999999995498
1040
-0.2368999999997641
1040
44.99999999995498
1040
8.763099999991255
1040
43.57899999995641
1040
8.763099999991255
1040
43.57899999995641
1040
3.421199999996588
1040
38.60499999996136
1040
8.999899999990987
1040
38.60499999996136
1040
8.999999999991019
1040
38.60499999996136
1040
0.0
1040
40.02599999995994
1040
0.0
1071
        8
1005
2033E
1005
20341
1005
20345
1005
20344
1005
20343
1005
20340
1005
20342
1005
2033F
1070
     0
1070
     1
1040
0.0
1040
0.15
1070
     0
1070
     2
1040
0.7853981633974483
1040
49.29960901727088
1040
-10.17736998311392
1040
-0.3367596045400932
1040
0.3367596045400932
1070
     0
1040
2.356194490192345
1040
49.29960901727088
1040
-10.17736998311392
1040
-0.3367596045400932
1040
-0.3367596045400932
1070
     0
1040
0.0110235143455945
1071
        1
1040
39.74896370716704
1040
4.484843821435049
1040
0.0
1002
}
  0
INSERT
  5
2035E
330
20316
100
AcDbEntity
  8
0
100
AcDbBlockReference
  2
*X52
 10
0.0
 20
0.0
 30
0.0
1001
ACAD
1000
HATCH
1002
{
1070
    19
1000
ANSI37
1040
0.15
1040
0.0
1000
ASC_BOUNDS
1070
     1
1070
     2
1070
     4
1005
20322
1005
20331
1005
20323
1005
20325
1000
ASC_SEEDPOINT
1011
1.079051535452663
1021
4.148538732891836
1031
0.0
1000
R14_HATCH_DATA
1000
2035E
1011
1.0
1021
0.0
1031
0.0
1011
0.0
1021
1.0
1031
0.0
1011
0.0
1021
0.0
1031
1.0
1040
0.0
1010
0.0
1020
0.0
1030
1.0
1000
ANSI37
1070
     0
1070
     1
1071
        1
1071
        7
1070
     0
1070
     1
1071
        4
1040
1.420999999998571
1040
0.0
1040
1.420999999998571
1040
8.763099999991255
1040
0.0
1040
8.763099999991255
1040
0.0
1040
0.0
1071
        4
1005
20322
1005
20331
1005
20323
1005
20325
1070
     0
1070
     1
1040
0.0
1040
0.15
1070
     0
1070
     2
1040
0.7853981633974483
1040
49.29960901727088
1040
-10.17736998311392
1040
-0.3367596045400932
1040
0.3367596045400932
1070
     0
1040
2.356194490192345
1040
49.29960901727088
1040
-10.17736998311392
1040
-0.3367596045400932
1040
-0.3367596045400932
1070
     0
1040
0.0053004257112761
1071
        1
1040
1.079051535452663
1040
4.148538732891836
1040
0.0
1002
}
  0
ENDBLK
  5
20A16
330
20316
100
AcDbEntity
  8
0
100
AcDbBlockEnd
  0
BLOCK
  5
211D8
330
2104A
100
AcDbEntity
  8
0
100
AcDbBlockBegin
  2
*X47
 70
     1
 10
0.0
 20
0.0
 30
0.0
  3
*X47
  1

  0
LINE
  5
2104B
330
2104A
100
AcDbEntity
  8
0
  6
CONTINUOUS
100
AcDbLine
 10
3.418023043697893
 20
7.251849696850613
 30
0.0
 11
4.929273346838536
 21
8.763099999991255
 31
0.0
  0
LINE
  5
2104C
330
2104A
100
AcDbEntity
  8
0
  6
CONTINUOUS
100
AcDbLine
 10
1.483656411257782
 20
4.643963855330318
 30
0.0
 11
5.60279255591872
 21
8.763099999991255
 31
0.0
  0
LINE
  5
2104D
330
2104A
100
AcDbEntity
  8
0
  6
CONTINUOUS
100
AcDbLine
 10
1.755053947328235
 20
4.241842182320584
 30
0.0
 11
6.276311764998907
 21
8.763099999991255
 31
0.0
  0
LINE
  5
2104E
330
2104A
100
AcDbEntity
  8
0
  6
CONTINUOUS
100
AcDbLine
 10
2.026451483398688
 20
3.839720509310849
 30
0.0
 11
4.441040904851878
 21
6.254309930764039
 31
0.0
  0
LINE
  5
2104F
330
2104A
100
AcDbEntity
  8
0
  6
CONTINUOUS
100
AcDbLine
 10
2.297849019469139
 20
3.437598836301114
 30
0.0
 11
3.321765168359338
 21
4.461514985191313
 31
0.0
  0
LINE
  5
21050
330
2104A
100
AcDbEntity
  8
0
  6
CONTINUOUS
100
AcDbLine
 10
2.569246555539591
 20
3.03547716329138
 30
0.0
 11
3.593163397972743
 21
4.059394005724531
 31
0.0
  0
LINE
  5
21051
330
2104A
100
AcDbEntity
  8
0
  6
CONTINUOUS
100
AcDbLine
 10
2.840644091610043
 20
2.633355490281646
 30
0.0
 11
3.864561627586149
 21
3.657273026257751
 31
0.0
  0
LINE
  5
21052
330
2104A
100
AcDbEntity
  8
0
  6
CONTINUOUS
100
AcDbLine
 10
3.112041627680496
 20
2.231233817271911
 30
0.0
 11
4.135959857199554
 21
3.25515204679097
 31
0.0
  0
LINE
  5
21053
330
2104A
100
AcDbEntity
  8
0
  6
CONTINUOUS
100
AcDbLine
 10
3.383439163750948
 20
1.829112144262177
 30
0.0
 11
4.40735808681296
 21
2.853031067324189
 31
0.0
  0
LINE
  5
21054
330
2104A
100
AcDbEntity
  8
0
  6
CONTINUOUS
100
AcDbLine
 10
3.654836699821399
 20
1.426990471252442
 30
0.0
 11
4.678756316426365
 21
2.450910087857407
 31
0.0
  0
LINE
  5
21055
330
2104A
100
AcDbEntity
  8
0
  6
CONTINUOUS
100
AcDbLine
 10
3.926234235891853
 20
1.024868798242709
 30
0.0
 11
4.95015454603977
 21
2.048789108390626
 31
0.0
  0
LINE
  5
21056
330
2104A
100
AcDbEntity
  8
0
  6
CONTINUOUS
100
AcDbLine
 10
4.197631771962304
 20
0.6227471252329737
 30
0.0
 11
5.221552775653176
 21
1.646668128923846
 31
0.0
  0
LINE
  5
21057
330
2104A
100
AcDbEntity
  8
0
  6
CONTINUOUS
100
AcDbLine
 10
8.715877546767851
 20
7.835069736359266
 30
0.0
 11
9.435953450375058
 21
8.555145639966472
 31
0.0
  0
LINE
  5
21058
330
2104A
100
AcDbEntity
  8
0
  6
CONTINUOUS
100
AcDbLine
 10
8.170620868422267
 20
6.616293848933497
 30
0.0
 11
9.644120833743461
 21
8.08979381425469
 31
0.0
  0
LINE
  5
21059
330
2104A
100
AcDbEntity
  8
0
  6
CONTINUOUS
100
AcDbLine
 10
7.625364190076684
 20
5.397517961507727
 30
0.0
 11
9.852288217111864
 21
7.624441988542907
 31
0.0
  0
LINE
  5
2105A
330
2104A
100
AcDbEntity
  8
0
  6
CONTINUOUS
100
AcDbLine
 10
7.080107511731101
 20
4.178742074081957
 30
0.0
 11
10.06045560048027
 21
7.159090162831124
 31
0.0
  0
LINE
  5
2105B
330
2104A
100
AcDbEntity
  8
0
  6
CONTINUOUS
100
AcDbLine
 10
6.534850833385518
 20
2.959966186656187
 30
0.0
 11
10.26862298384867
 21
6.693738337119342
 31
0.0
  0
LINE
  5
2105C
330
2104A
100
AcDbEntity
  8
0
  6
CONTINUOUS
100
AcDbLine
 10
4.469029308032756
 20
0.2206254522232385
 30
0.0
 11
5.492951005266582
 21
1.244547149457064
 31
0.0
  0
LINE
  5
2105D
330
2104A
100
AcDbEntity
  8
0
  6
CONTINUOUS
100
AcDbLine
 10
5.989594155039935
 20
1.741190299230417
 30
0.0
 11
8.806950407233131
 21
4.558546551423613
 31
0.0
  0
LINE
  5
2105E
330
2104A
100
AcDbEntity
  8
0
  6
CONTINUOUS
100
AcDbLine
 10
9.401251593263643
 20
5.152847737454126
 30
0.0
 11
10.47679036721708
 21
6.228386511407559
 31
0.0
  0
LINE
  5
2105F
330
2104A
100
AcDbEntity
  8
0
  6
CONTINUOUS
100
AcDbLine
 10
4.921837203428691
 20
-0.0000858614610131
 30
0.0
 11
8.592923064886001
 21
3.670999999996297
 31
0.0
  0
LINE
  5
21060
330
2104A
100
AcDbEntity
  8
0
  6
CONTINUOUS
100
AcDbLine
 10
9.609390446785305
 20
4.6874673818956
 30
0.0
 11
10.68495775058548
 21
5.763034685695775
 31
0.0
  0
LINE
  5
21061
330
2104A
100
AcDbEntity
  8
0
  6
CONTINUOUS
100
AcDbLine
 10
5.595387755019432
 20
-0.0000545189504582
 30
0.0
 11
7.716137258923768
 21
2.120694984953879
 31
0.0
  0
LINE
  5
21062
330
2104A
100
AcDbEntity
  8
0
  6
CONTINUOUS
100
AcDbLine
 10
6.268938306610172
 20
-0.000023176439905
 30
0.0
 11
7.170485805526503
 21
0.9015243224764267
 31
0.0
  0
LINE
  5
21063
330
2104A
100
AcDbEntity
  8
0
  6
CONTINUOUS
100
AcDbLine
 10
7.963842273967511
 20
2.368399999997621
 30
0.0
 11
9.266442273966188
 21
3.670999999996297
 31
0.0
  0
LINE
  5
21064
330
2104A
100
AcDbEntity
  8
0
  6
CONTINUOUS
100
AcDbLine
 10
8.637361483047696
 20
2.368399999997621
 30
0.0
 11
9.939961483046375
 21
3.670999999996297
 31
0.0
  0
LINE
  5
21065
330
2104A
100
AcDbEntity
  8
0
  6
CONTINUOUS
100
AcDbLine
 10
9.817529300306965
 20
4.222087026337075
 30
0.0
 11
10.89312513395388
 21
5.297682859983993
 31
0.0
  0
LINE
  5
21066
330
2104A
100
AcDbEntity
  8
0
  6
CONTINUOUS
100
AcDbLine
 10
10.02566815382863
 20
3.756706670778549
 30
0.0
 11
11.10129251732229
 21
4.832331034272211
 31
0.0
  0
LINE
  5
21067
330
2104A
100
AcDbEntity
  8
0
  6
CONTINUOUS
100
AcDbLine
 10
9.310880692127883
 20
2.368399999997621
 30
0.0
 11
11.30945990069069
 21
4.366979208560428
 31
0.0
  0
LINE
  5
21068
330
2104A
100
AcDbEntity
  8
0
  6
CONTINUOUS
100
AcDbLine
 10
9.98439990120807
 20
2.36839999999762
 30
0.0
 11
11.5176272840591
 21
3.901627382848645
 31
0.0
  0
LINE
  5
21069
330
2104A
100
AcDbEntity
  8
0
  6
CONTINUOUS
100
AcDbLine
 10
10.65037369446246
 20
2.36085458417182
 30
0.0
 11
11.7257946674275
 21
3.436275557136862
 31
0.0
  0
LINE
  5
2106A
330
2104A
100
AcDbEntity
  8
0
  6
CONTINUOUS
100
AcDbLine
 10
10.85847197087848
 20
1.895433651507656
 30
0.0
 11
11.9339620507959
 21
2.97092373142508
 31
0.0
  0
LINE
  5
2106B
330
2104A
100
AcDbEntity
  8
0
  6
CONTINUOUS
100
AcDbLine
 10
11.0665702472945
 20
1.430012718843491
 30
0.0
 11
12.14212943416431
 21
2.505571905713296
 31
0.0
  0
LINE
  5
2106C
330
2104A
100
AcDbEntity
  8
0
  6
CONTINUOUS
100
AcDbLine
 10
11.27466852371052
 20
0.9645917861793256
 30
0.0
 11
12.35029681753271
 21
2.040220080001513
 31
0.0
  0
LINE
  5
2106D
330
2104A
100
AcDbEntity
  8
0
  6
CONTINUOUS
100
AcDbLine
 10
11.48276680012654
 20
0.4991708535151611
 30
0.0
 11
12.55846420090111
 21
1.57486825428973
 31
0.0
  0
LINE
  5
2106E
330
2104A
100
AcDbEntity
  8
0
  6
CONTINUOUS
100
AcDbLine
 10
11.69086507654257
 20
0.0337499208509957
 30
0.0
 11
12.76663158426952
 21
1.109516428577947
 31
0.0
  0
LINE
  5
2106F
330
2104A
100
AcDbEntity
  8
0
  6
CONTINUOUS
100
AcDbLine
 10
12.33057447873954
 20
-0.0000598860322123
 30
0.0
 11
12.97479896763792
 21
0.6441646028661663
 31
0.0
  0
LINE
  5
21070
330
2104A
100
AcDbEntity
  8
0
  6
CONTINUOUS
100
AcDbLine
 10
13.00413694809395
 20
-0.0000166257579952
 30
0.0
 11
13.18296635100632
 21
0.1788127771543824
 31
0.0
  0
LINE
  5
21071
330
2104A
100
AcDbEntity
  8
0
  6
CONTINUOUS
100
AcDbLine
 10
4.772852165289667
 20
-0.000092794222212
 30
0.0
 11
4.296495091028902
 21
0.4762642800385528
 31
0.0
  0
LINE
  5
21072
330
2104A
100
AcDbEntity
  8
0
  6
CONTINUOUS
100
AcDbLine
 10
5.446340034776103
 20
-0.0000614546284616
 30
0.0
 11
2.898195908335625
 21
2.548082671812017
 31
0.0
  0
LINE
  5
21073
330
2104A
100
AcDbEntity
  8
0
  6
CONTINUOUS
100
AcDbLine
 10
6.119827904262539
 20
-0.0000301150347113
 30
0.0
 11
1.499896725642348
 21
4.61990106358548
 31
0.0
  0
LINE
  5
21074
330
2104A
100
AcDbEntity
  8
0
  6
CONTINUOUS
100
AcDbLine
 10
6.775136745476159
 20
0.0181802528318542
 30
0.0
 11
5.699826040202669
 21
1.093490958105344
 31
0.0
  0
LINE
  5
21075
330
2104A
100
AcDbEntity
  8
0
  6
CONTINUOUS
100
AcDbLine
 10
6.983376846288489
 20
0.4834593610997118
 30
0.0
 11
5.908008617934405
 21
1.558827589453796
 31
0.0
  0
LINE
  5
21076
330
2104A
100
AcDbEntity
  8
0
  6
CONTINUOUS
100
AcDbLine
 10
5.377063484962296
 20
1.416253513345719
 30
0.0
 11
1.702276957014131
 21
5.091040041293883
 31
0.0
  0
LINE
  5
21077
330
2104A
100
AcDbEntity
  8
0
  6
CONTINUOUS
100
AcDbLine
 10
3.978745891735324
 20
3.488090315652877
 30
0.0
 11
2.000373521109399
 21
5.466462686278803
 31
0.0
  0
LINE
  5
21078
330
2104A
100
AcDbEntity
  8
0
  6
CONTINUOUS
100
AcDbLine
 10
7.191616947100819
 20
0.948738469367568
 30
0.0
 11
6.11619119566614
 21
2.024164220802247
 31
0.0
  0
LINE
  5
21079
330
2104A
100
AcDbEntity
  8
0
  6
CONTINUOUS
100
AcDbLine
 10
7.399857047913149
 20
1.414017577635424
 30
0.0
 11
6.324373773397875
 21
2.489500852150698
 31
0.0
  0
LINE
  5
2107A
330
2104A
100
AcDbEntity
  8
0
  6
CONTINUOUS
100
AcDbLine
 10
7.608097148725479
 20
1.879296685903281
 30
0.0
 11
6.53255635112961
 21
2.95483748349915
 31
0.0
  0
LINE
  5
2107B
330
2104A
100
AcDbEntity
  8
0
  6
CONTINUOUS
100
AcDbLine
 10
7.816337249537808
 20
2.344575794171138
 30
0.0
 11
6.740738928861345
 21
3.420174114847601
 31
0.0
  0
LINE
  5
2107C
330
2104A
100
AcDbEntity
  8
0
  6
CONTINUOUS
100
AcDbLine
 10
3.310241080789734
 20
4.830114335678653
 30
0.0
 11
2.298470085204666
 21
5.84188533126372
 31
0.0
  0
LINE
  5
2107D
330
2104A
100
AcDbEntity
  8
0
  6
CONTINUOUS
100
AcDbLine
 10
3.60832983563551
 20
5.205544789913063
 30
0.0
 11
2.596566649299935
 21
6.217307976248638
 31
0.0
  0
LINE
  5
2107E
330
2104A
100
AcDbEntity
  8
0
  6
CONTINUOUS
100
AcDbLine
 10
3.906418590481286
 20
5.580975244147473
 30
0.0
 11
2.894663213395203
 21
6.592730621233557
 31
0.0
  0
LINE
  5
2107F
330
2104A
100
AcDbEntity
  8
0
  6
CONTINUOUS
100
AcDbLine
 10
4.204507345327062
 20
5.956405698381884
 30
0.0
 11
3.192759777490472
 21
6.968153266218474
 31
0.0
  0
LINE
  5
21080
330
2104A
100
AcDbEntity
  8
0
  6
CONTINUOUS
100
AcDbLine
 10
8.466032252791512
 20
2.368399999997621
 30
0.0
 11
6.948921506593081
 21
3.885510746196053
 31
0.0
  0
LINE
  5
21081
330
2104A
100
AcDbEntity
  8
0
  6
CONTINUOUS
100
AcDbLine
 10
9.139551461871699
 20
2.36839999999762
 30
0.0
 11
7.157104084324816
 21
4.350847377544504
 31
0.0
  0
LINE
  5
21082
330
2104A
100
AcDbEntity
  8
0
  6
CONTINUOUS
100
AcDbLine
 10
4.502596100172839
 20
6.331836152616295
 30
0.0
 11
3.49085634158574
 21
7.343575911203393
 31
0.0
  0
LINE
  5
21083
330
2104A
100
AcDbEntity
  8
0
  6
CONTINUOUS
100
AcDbLine
 10
4.800684855018615
 20
6.707266606850705
 30
0.0
 11
3.788952905681008
 21
7.718998556188312
 31
0.0
  0
LINE
  5
21084
330
2104A
100
AcDbEntity
  8
0
  6
CONTINUOUS
100
AcDbLine
 10
12.18154012887317
 20
-0.0000694579236642
 30
0.0
 11
11.32140332908496
 21
0.8600673418645499
 31
0.0
  0
LINE
  5
21085
330
2104A
100
AcDbEntity
  8
0
  6
CONTINUOUS
100
AcDbLine
 10
12.85501608323566
 20
-0.0000262032059659
 30
0.0
 11
10.77672456435345
 21
2.078265315676246
 31
0.0
  0
LINE
  5
21086
330
2104A
100
AcDbEntity
  8
0
  6
CONTINUOUS
100
AcDbLine
 10
9.813070670951886
 20
2.36839999999762
 30
0.0
 11
8.51047067095321
 21
3.670999999996297
 31
0.0
  0
LINE
  5
21087
330
2104A
100
AcDbEntity
  8
0
  6
CONTINUOUS
100
AcDbLine
 10
10.48658988003207
 20
2.36839999999762
 30
0.0
 11
9.183989880033396
 21
3.670999999996297
 31
0.0
  0
LINE
  5
21088
330
2104A
100
AcDbEntity
  8
0
  6
CONTINUOUS
100
AcDbLine
 10
8.441048632286794
 20
3.740422038662712
 30
0.0
 11
7.365286662056551
 21
4.816184008892956
 31
0.0
  0
LINE
  5
21089
330
2104A
100
AcDbEntity
  8
0
  6
CONTINUOUS
100
AcDbLine
 10
8.649187485808454
 20
4.205802394221237
 30
0.0
 11
7.573469239788285
 21
5.281520640241407
 31
0.0
  0
LINE
  5
2108A
330
2104A
100
AcDbEntity
  8
0
  6
CONTINUOUS
100
AcDbLine
 10
5.098773609864391
 20
7.082697061085115
 30
0.0
 11
4.087049469776277
 21
8.09442120117323
 31
0.0
  0
LINE
  5
2108B
330
2104A
100
AcDbEntity
  8
0
  6
CONTINUOUS
100
AcDbLine
 10
5.396862364710167
 20
7.458127515319526
 30
0.0
 11
4.385146033871544
 21
8.469843846158149
 31
0.0
  0
LINE
  5
2108C
330
2104A
100
AcDbEntity
  8
0
  6
CONTINUOUS
100
AcDbLine
 10
13.04801363231285
 20
0.4804954567970334
 30
0.0
 11
9.85750908911358
 21
3.670999999996297
 31
0.0
  0
LINE
  5
2108D
330
2104A
100
AcDbEntity
  8
0
  6
CONTINUOUS
100
AcDbLine
 10
8.857326339330116
 20
4.671182749779763
 30
0.0
 11
7.781651817520021
 21
5.746857271589858
 31
0.0
  0
LINE
  5
2108E
330
2104A
100
AcDbEntity
  8
0
  6
CONTINUOUS
100
AcDbLine
 10
5.694951119555943
 20
7.833557969553937
 30
0.0
 11
4.765409089118624
 21
8.763099999991255
 31
0.0
  0
LINE
  5
2108F
330
2104A
100
AcDbEntity
  8
0
  6
CONTINUOUS
100
AcDbLine
 10
12.50286117236978
 20
1.699167125820288
 30
0.0
 11
9.68611877250287
 21
4.515909525687196
 31
0.0
  0
LINE
  5
21090
330
2104A
100
AcDbEntity
  8
0
  6
CONTINUOUS
100
AcDbLine
 10
9.065465192851777
 20
5.136563105338288
 30
0.0
 11
7.989834395251757
 21
6.21219390293831
 31
0.0
  0
LINE
  5
21091
330
2104A
100
AcDbEntity
  8
0
  6
CONTINUOUS
100
AcDbLine
 10
5.993039874401719
 20
8.208988423788346
 30
0.0
 11
5.43892829819881
 21
8.763099999991255
 31
0.0
  0
LINE
  5
21092
330
2104A
100
AcDbEntity
  8
0
  6
CONTINUOUS
100
AcDbLine
 10
11.95770871242671
 20
2.917838794843543
 30
0.0
 11
8.19801697298349
 21
6.677530534286761
 31
0.0
  0
LINE
  5
21093
330
2104A
100
AcDbEntity
  8
0
  6
CONTINUOUS
100
AcDbLine
 10
6.291128629247495
 20
8.584418878022756
 30
0.0
 11
6.112447507278997
 21
8.763099999991255
 31
0.0
  0
LINE
  5
21094
330
2104A
100
AcDbEntity
  8
0
  6
CONTINUOUS
100
AcDbLine
 10
11.41255625248364
 20
4.136510463866797
 30
0.0
 11
8.406199550715227
 21
7.142867165635211
 31
0.0
  0
LINE
  5
21095
330
2104A
100
AcDbEntity
  8
0
  6
CONTINUOUS
100
AcDbLine
 10
10.86740379254057
 20
5.355182132890051
 30
0.0
 11
8.614382128446962
 21
7.608203796983664
 31
0.0
  0
LINE
  5
21096
330
2104A
100
AcDbEntity
  8
0
  6
CONTINUOUS
100
AcDbLine
 10
10.3222513325975
 20
6.573853801913305
 30
0.0
 11
8.822564706178696
 21
8.073540428332114
 31
0.0
  0
LINE
  5
21097
330
2104A
100
AcDbEntity
  8
0
  6
CONTINUOUS
100
AcDbLine
 10
9.777098872654436
 20
7.792525470936562
 30
0.0
 11
9.030747283910433
 21
8.538877059680566
 31
0.0
  0
ENDBLK
  5
211D9
330
2104A
100
AcDbEntity
  8
0
100
AcDbBlockEnd
  0
BLOCK
  5
211DA
330
21098
100
AcDbEntity
  8
0
100
AcDbBlockBegin
  2
*X48
 70
     1
 10
0.0
 20
0.0
 30
0.0
  3
*X48
  1

  0
LINE
  5
21099
330
21098
100
AcDbEntity
  8
0
  6
CONTINUOUS
100
AcDbLine
 10
10.67292308101235
 20
8.445076852443387
 30
0.0
 11
10.99094622856022
 21
8.763099999991255
 31
0.0
  0
LINE
  5
2109A
330
21098
100
AcDbEntity
  8
0
  6
CONTINUOUS
100
AcDbLine
 10
10.87250383178748
 20
7.971138394138331
 30
0.0
 11
11.6644654376404
 21
8.763099999991255
 31
0.0
  0
LINE
  5
2109B
330
21098
100
AcDbEntity
  8
0
  6
CONTINUOUS
100
AcDbLine
 10
11.07208458256261
 20
7.497199935833273
 30
0.0
 11
12.12126590876355
 21
8.546381262034211
 31
0.0
  0
LINE
  5
2109C
330
21098
100
AcDbEntity
  8
0
  6
CONTINUOUS
100
AcDbLine
 10
11.27166533333774
 20
7.023261477528216
 30
0.0
 11
12.32085164573666
 21
8.072447789927136
 31
0.0
  0
LINE
  5
2109D
330
21098
100
AcDbEntity
  8
0
  6
CONTINUOUS
100
AcDbLine
 10
11.47124608411287
 20
6.549323019223158
 30
0.0
 11
12.52043738270977
 21
7.59851431782006
 31
0.0
  0
LINE
  5
2109E
330
21098
100
AcDbEntity
  8
0
  6
CONTINUOUS
100
AcDbLine
 10
11.670826834888
 20
6.075384560918101
 30
0.0
 11
12.72002311968288
 21
7.124580845712984
 31
0.0
  0
LINE
  5
2109F
330
21098
100
AcDbEntity
  8
0
  6
CONTINUOUS
100
AcDbLine
 10
11.87040758566313
 20
5.601446102613043
 30
0.0
 11
12.91960885665599
 21
6.650647373605907
 31
0.0
  0
LINE
  5
210A0
330
21098
100
AcDbEntity
  8
0
  6
CONTINUOUS
100
AcDbLine
 10
12.06998833643825
 20
5.127507644307986
 30
0.0
 11
13.1191945936291
 21
6.176713901498832
 31
0.0
  0
LINE
  5
210A1
330
21098
100
AcDbEntity
  8
0
  6
CONTINUOUS
100
AcDbLine
 10
12.26956908721338
 20
4.65356918600293
 30
0.0
 11
13.31878033060221
 21
5.702780429391757
 31
0.0
  0
LINE
  5
210A2
330
21098
100
AcDbEntity
  8
0
  6
CONTINUOUS
100
AcDbLine
 10
12.46914983798851
 20
4.179630727697873
 30
0.0
 11
13.51836606757532
 21
5.228846957284683
 31
0.0
  0
LINE
  5
210A3
330
21098
100
AcDbEntity
  8
0
  6
CONTINUOUS
100
AcDbLine
 10
12.66873058876364
 20
3.705692269392816
 30
0.0
 11
13.71795180454843
 21
4.754913485177607
 31
0.0
  0
LINE
  5
210A4
330
21098
100
AcDbEntity
  8
0
  6
CONTINUOUS
100
AcDbLine
 10
12.86831133953877
 20
3.231753811087759
 30
0.0
 11
13.91753754152154
 21
4.280980013070531
 31
0.0
  0
LINE
  5
210A5
330
21098
100
AcDbEntity
  8
0
  6
CONTINUOUS
100
AcDbLine
 10
13.0678920903139
 20
2.757815352782702
 30
0.0
 11
14.11712327849465
 21
3.807046540963456
 31
0.0
  0
LINE
  5
210A6
330
21098
100
AcDbEntity
  8
0
  6
CONTINUOUS
100
AcDbLine
 10
13.26747284108903
 20
2.283876894477644
 30
0.0
 11
14.31670901546777
 21
3.333113068856379
 31
0.0
  0
LINE
  5
210A7
330
21098
100
AcDbEntity
  8
0
  6
CONTINUOUS
100
AcDbLine
 10
16.36767838827179
 20
8.751678487061342
 30
0.0
 11
16.50332410898388
 21
8.887324207773432
 31
0.0
  0
LINE
  5
210A8
330
21098
100
AcDbEntity
  8
0
  6
CONTINUOUS
100
AcDbLine
 10
15.96190732182191
 20
7.67238821153127
 30
0.0
 11
16.68735328004734
 21
8.397834169756699
 31
0.0
  0
LINE
  5
210A9
330
21098
100
AcDbEntity
  8
0
  6
CONTINUOUS
100
AcDbLine
 10
15.55613625537202
 20
6.593097936001196
 30
0.0
 11
16.87138245111079
 21
7.908344131739965
 31
0.0
  0
LINE
  5
210AA
330
21098
100
AcDbEntity
  8
0
  6
CONTINUOUS
100
AcDbLine
 10
15.15036518892213
 20
5.513807660471122
 30
0.0
 11
17.05541162217424
 21
7.418854093723231
 31
0.0
  0
LINE
  5
210AB
330
21098
100
AcDbEntity
  8
0
  6
CONTINUOUS
100
AcDbLine
 10
14.74459412247225
 20
4.434517384941048
 30
0.0
 11
17.2394407932377
 21
6.929364055706499
 31
0.0
  0
LINE
  5
210AC
330
21098
100
AcDbEntity
  8
0
  6
CONTINUOUS
100
AcDbLine
 10
14.33882305602236
 20
3.355227109410975
 30
0.0
 11
17.42346996430115
 21
6.439874017689766
 31
0.0
  0
LINE
  5
210AD
330
21098
100
AcDbEntity
  8
0
  6
CONTINUOUS
100
AcDbLine
 10
13.46705359186416
 20
1.809938436172586
 30
0.0
 11
16.0819338255367
 21
4.424818669845129
 31
0.0
  0
LINE
  5
210AE
330
21098
100
AcDbEntity
  8
0
  6
CONTINUOUS
100
AcDbLine
 10
16.63283254238972
 20
4.975717386698149
 30
0.0
 11
17.60749913536461
 21
5.950383979673033
 31
0.0
  0
LINE
  5
210AF
330
21098
100
AcDbEntity
  8
0
  6
CONTINUOUS
100
AcDbLine
 10
13.66663434263929
 20
1.335999977867529
 30
0.0
 11
15.67604797733754
 21
3.345413612565779
 31
0.0
  0
LINE
  5
210B0
330
21098
100
AcDbEntity
  8
0
  6
CONTINUOUS
100
AcDbLine
 10
13.86621509341442
 20
0.8620615195624723
 30
0.0
 11
15.27016212913838
 21
2.26600855528643
 31
0.0
  0
LINE
  5
210B1
330
21098
100
AcDbEntity
  8
0
  6
CONTINUOUS
100
AcDbLine
 10
16.81682257348267
 20
4.486188208710908
 30
0.0
 11
17.79152830642806
 21
5.460893941656299
 31
0.0
  0
LINE
  5
210B2
330
21098
100
AcDbEntity
  8
0
  6
CONTINUOUS
100
AcDbLine
 10
17.00081260457561
 20
3.996659030723667
 30
0.0
 11
17.97555747749151
 21
4.971403903639565
 31
0.0
  0
LINE
  5
210B3
330
21098
100
AcDbEntity
  8
0
  6
CONTINUOUS
100
AcDbLine
 10
20.74362343514722
 20
8.412989070375462
 30
0.0
 11
21.09373436476302
 21
8.763099999991256
 31
0.0
  0
LINE
  5
210B4
330
21098
100
AcDbEntity
  8
0
  6
CONTINUOUS
100
AcDbLine
 10
20.25401257174777
 20
7.249858997895826
 30
0.0
 11
21.7672535738432
 21
8.763099999991255
 31
0.0
  0
LINE
  5
210B5
330
21098
100
AcDbEntity
  8
0
  6
CONTINUOUS
100
AcDbLine
 10
14.06579584418955
 20
0.3881230612574149
 30
0.0
 11
14.86427628093921
 21
1.186603498007082
 31
0.0
  0
LINE
  5
210B6
330
21098
100
AcDbEntity
  8
0
  6
CONTINUOUS
100
AcDbLine
 10
14.26537659496467
 20
-0.0858153970476412
 30
0.0
 11
14.45839043274005
 21
0.1071984407277329
 31
0.0
  0
LINE
  5
210B7
330
21098
100
AcDbEntity
  8
0
  6
CONTINUOUS
100
AcDbLine
 10
17.18480263566856
 20
3.507129852736426
 30
0.0
 11
18.15958664855496
 21
4.481913865622833
 31
0.0
  0
LINE
  5
210B8
330
21098
100
AcDbEntity
  8
0
  6
CONTINUOUS
100
AcDbLine
 10
17.3687926667615
 20
3.017600674749186
 30
0.0
 11
18.34361581961842
 21
3.9924238276061
 31
0.0
  0
LINE
  5
210B9
330
21098
100
AcDbEntity
  8
0
  6
CONTINUOUS
100
AcDbLine
 10
19.76440170834832
 20
6.086728925416191
 30
0.0
 11
22.33924590259489
 21
8.661573119662755
 31
0.0
  0
LINE
  5
210BA
330
21098
100
AcDbEntity
  8
0
  6
CONTINUOUS
100
AcDbLine
 10
19.27479084494887
 20
4.923598852936555
 30
0.0
 11
21.84929622842713
 21
7.498104236414807
 31
0.0
  0
LINE
  5
210BB
330
21098
100
AcDbEntity
  8
0
  6
CONTINUOUS
100
AcDbLine
 10
17.55278269785445
 20
2.528071496761945
 30
0.0
 11
18.52764499068187
 21
3.502933789589366
 31
0.0
  0
LINE
  5
210BC
330
21098
100
AcDbEntity
  8
0
  6
CONTINUOUS
100
AcDbLine
 10
18.78517998154942
 20
3.760468780456919
 30
0.0
 11
21.35934655425936
 21
6.33463535316686
 31
0.0
  0
LINE
  5
210BD
330
21098
100
AcDbEntity
  8
0
  6
CONTINUOUS
100
AcDbLine
 10
17.73677272894739
 20
2.038542318774704
 30
0.0
 11
20.8693968800916
 21
5.171166469918914
 31
0.0
  0
LINE
  5
210BE
330
21098
100
AcDbEntity
  8
0
  6
CONTINUOUS
100
AcDbLine
 10
17.92076276004034
 20
1.549013140787464
 30
0.0
 11
20.37944720592384
 21
4.007697586670968
 31
0.0
  0
LINE
  5
210BF
330
21098
100
AcDbEntity
  8
0
  6
CONTINUOUS
100
AcDbLine
 10
18.10475279113329
 20
1.059483962800223
 30
0.0
 11
19.88949753175608
 21
2.84422870342302
 31
0.0
  0
LINE
  5
210C0
330
21098
100
AcDbEntity
  8
0
  6
CONTINUOUS
100
AcDbLine
 10
18.28874282222623
 20
0.5699547848129822
 30
0.0
 11
19.39954785758832
 21
1.680759820175074
 31
0.0
  0
LINE
  5
210C1
330
21098
100
AcDbEntity
  8
0
  6
CONTINUOUS
100
AcDbLine
 10
18.47273285331918
 20
0.0804256068257416
 30
0.0
 11
18.90959818342056
 21
0.517290936927127
 31
0.0
  0
LINE
  5
210C2
330
21098
100
AcDbEntity
  8
0
  6
CONTINUOUS
100
AcDbLine
 10
14.3590401358224
 20
-0.1570118376323384
 30
0.0
 11
14.24903296539946
 21
-0.0470046672093929
 31
0.0
  0
LINE
  5
210C3
330
21098
100
AcDbEntity
  8
0
  6
CONTINUOUS
100
AcDbLine
 10
14.54309291258661
 20
0.332454594683643
 30
0.0
 11
13.75908329123172
 21
1.116464216038529
 31
0.0
  0
LINE
  5
210C4
330
21098
100
AcDbEntity
  8
0
  6
CONTINUOUS
100
AcDbLine
 10
14.72714568935081
 20
0.8219210269996244
 30
0.0
 11
13.26913361706399
 21
2.27993309928645
 31
0.0
  0
LINE
  5
210C5
330
21098
100
AcDbEntity
  8
0
  6
CONTINUOUS
100
AcDbLine
 10
14.91119846611502
 20
1.311387459315606
 30
0.0
 11
12.77918394289625
 21
3.443401982534371
 31
0.0
  0
LINE
  5
210C6
330
21098
100
AcDbEntity
  8
0
  6
CONTINUOUS
100
AcDbLine
 10
15.09525124287922
 20
1.800853891631587
 30
0.0
 11
12.28923426872852
 21
4.606870865782293
 31
0.0
  0
LINE
  5
210C7
330
21098
100
AcDbEntity
  8
0
  6
CONTINUOUS
100
AcDbLine
 10
15.27930401964343
 20
2.290320323947569
 30
0.0
 11
11.79928459456078
 21
5.770339749030213
 31
0.0
  0
LINE
  5
210C8
330
21098
100
AcDbEntity
  8
0
  6
CONTINUOUS
100
AcDbLine
 10
15.46335679640763
 20
2.77978675626355
 30
0.0
 11
14.48885470994921
 21
3.754288842721972
 31
0.0
  0
LINE
  5
210C9
330
21098
100
AcDbEntity
  8
0
  6
CONTINUOUS
100
AcDbLine
 10
13.88507249233704
 20
4.358071060334137
 30
0.0
 11
11.30933492039305
 21
6.933808632278135
 31
0.0
  0
LINE
  5
210CA
330
21098
100
AcDbEntity
  8
0
  6
CONTINUOUS
100
AcDbLine
 10
18.75840522805855
 20
0.1582575336928151
 30
0.0
 11
18.25383727664818
 21
0.6628254851031863
 31
0.0
  0
LINE
  5
210CB
330
21098
100
AcDbEntity
  8
0
  6
CONTINUOUS
100
AcDbLine
 10
15.64740957317184
 20
3.269253188579531
 30
0.0
 11
14.67288388101266
 21
4.243778880738705
 31
0.0
  0
LINE
  5
210CC
330
21098
100
AcDbEntity
  8
0
  6
CONTINUOUS
100
AcDbLine
 10
13.39509276772158
 20
5.521569994029786
 30
0.0
 11
10.81938524622531
 21
8.097277515526056
 31
0.0
  0
LINE
  5
210CD
330
21098
100
AcDbEntity
  8
0
  6
CONTINUOUS
100
AcDbLine
 10
18.95798597883369
 20
0.6321959919978686
 30
0.0
 11
17.84825644852853
 21
1.741925522303024
 31
0.0
  0
LINE
  5
210CE
330
21098
100
AcDbEntity
  8
0
  6
CONTINUOUS
100
AcDbLine
 10
19.15756672960882
 20
1.106134450302922
 30
0.0
 11
17.44267562040888
 21
2.821025559502861
 31
0.0
  0
LINE
  5
210CF
330
21098
100
AcDbEntity
  8
0
  6
CONTINUOUS
100
AcDbLine
 10
15.83146234993604
 20
3.758719620895513
 30
0.0
 11
14.85691305207612
 21
4.733268918755439
 31
0.0
  0
LINE
  5
210D0
330
21098
100
AcDbEntity
  8
0
  6
CONTINUOUS
100
AcDbLine
 10
16.01551512670025
 20
4.248186053211494
 30
0.0
 11
15.04094222313957
 21
5.222758956772172
 31
0.0
  0
LINE
  5
210D1
330
21098
100
AcDbEntity
  8
0
  6
CONTINUOUS
100
AcDbLine
 10
12.90511304310612
 20
6.685068927725435
 30
0.0
 11
10.8270819708403
 21
8.763099999991255
 31
0.0
  0
LINE
  5
210D2
330
21098
100
AcDbEntity
  8
0
  6
CONTINUOUS
100
AcDbLine
 10
12.41513331849066
 20
7.848567861421083
 30
0.0
 11
11.50060117992049
 21
8.763099999991255
 31
0.0
  0
LINE
  5
210D3
330
21098
100
AcDbEntity
  8
0
  6
CONTINUOUS
100
AcDbLine
 10
19.35714748038395
 20
1.580072908607975
 30
0.0
 11
17.03709479228923
 21
3.900125596702697
 31
0.0
  0
LINE
  5
210D4
330
21098
100
AcDbEntity
  8
0
  6
CONTINUOUS
100
AcDbLine
 10
19.55672823115909
 20
2.054011366913028
 30
0.0
 11
16.63151396416958
 21
4.979225633902534
 31
0.0
  0
LINE
  5
210D5
330
21098
100
AcDbEntity
  8
0
  6
CONTINUOUS
100
AcDbLine
 10
16.19956790346445
 20
4.737652485527476
 30
0.0
 11
15.22497139420302
 21
5.712248994788904
 31
0.0
  0
LINE
  5
210D6
330
21098
100
AcDbEntity
  8
0
  6
CONTINUOUS
100
AcDbLine
 10
16.38362068022866
 20
5.227118917843457
 30
0.0
 11
15.40900056526648
 21
6.201739032805637
 31
0.0
  0
LINE
  5
210D7
330
21098
100
AcDbEntity
  8
0
  6
CONTINUOUS
100
AcDbLine
 10
19.75630898193422
 20
2.527949825218081
 30
0.0
 11
18.70774536448286
 21
3.576513442669441
 31
0.0
  0
LINE
  5
210D8
330
21098
100
AcDbEntity
  8
0
  6
CONTINUOUS
100
AcDbLine
 10
19.95588973270936
 20
3.001888283523134
 30
0.0
 11
18.90726987211446
 21
4.050508144118028
 31
0.0
  0
LINE
  5
210D9
330
21098
100
AcDbEntity
  8
0
  6
CONTINUOUS
100
AcDbLine
 10
20.15547048348449
 20
3.475826741828186
 30
0.0
 11
19.10679437974606
 21
4.524502845566614
 31
0.0
  0
LINE
  5
210DA
330
21098
100
AcDbEntity
  8
0
  6
CONTINUOUS
100
AcDbLine
 10
20.35505123425962
 20
3.94976520013324
 30
0.0
 11
19.30631888737766
 21
4.998497547015201
 31
0.0
  0
LINE
  5
210DB
330
21098
100
AcDbEntity
  8
0
  6
CONTINUOUS
100
AcDbLine
 10
20.55463198503475
 20
4.423703658438292
 30
0.0
 11
19.50584339500926
 21
5.472492248463787
 31
0.0
  0
LINE
  5
210DC
330
21098
100
AcDbEntity
  8
0
  6
CONTINUOUS
100
AcDbLine
 10
18.37481191085755
 20
3.909446896294752
 30
0.0
 11
15.59302973632993
 21
6.691229070822371
 31
0.0
  0
LINE
  5
210DD
330
21098
100
AcDbEntity
  8
0
  6
CONTINUOUS
100
AcDbLine
 10
17.96904084440766
 20
4.988737171824825
 30
0.0
 11
15.77705890739338
 21
7.180719108839104
 31
0.0
  0
LINE
  5
210DE
330
21098
100
AcDbEntity
  8
0
  6
CONTINUOUS
100
AcDbLine
 10
17.56326977795777
 20
6.068027447354899
 30
0.0
 11
15.96108807845684
 21
7.670209146855838
 31
0.0
  0
LINE
  5
210DF
330
21098
100
AcDbEntity
  8
0
  6
CONTINUOUS
100
AcDbLine
 10
17.15749871150789
 20
7.147317722884972
 30
0.0
 11
16.14511724952029
 21
8.15969918487257
 31
0.0
  0
LINE
  5
210E0
330
21098
100
AcDbEntity
  8
0
  6
CONTINUOUS
100
AcDbLine
 10
16.751727645058
 20
8.226607998415046
 30
0.0
 11
16.32914642058374
 21
8.649189222889303
 31
0.0
  0
LINE
  5
210E1
330
21098
100
AcDbEntity
  8
0
  6
CONTINUOUS
100
AcDbLine
 10
20.75421273580989
 20
4.897642116743345
 30
0.0
 11
19.70536790264086
 21
5.946486949912374
 31
0.0
  0
LINE
  5
210E2
330
21098
100
AcDbEntity
  8
0
  6
CONTINUOUS
100
AcDbLine
 10
20.95379348658502
 20
5.371580575048398
 30
0.0
 11
19.90489241027246
 21
6.42048165136096
 31
0.0
  0
LINE
  5
210E3
330
21098
100
AcDbEntity
  8
0
  6
CONTINUOUS
100
AcDbLine
 10
21.15337423736015
 20
5.845519033353452
 30
0.0
 11
20.10441691790406
 21
6.894476352809547
 31
0.0
  0
LINE
  5
210E4
330
21098
100
AcDbEntity
  8
0
  6
CONTINUOUS
100
AcDbLine
 10
21.35295498813529
 20
6.319457491658505
 30
0.0
 11
20.30394142553566
 21
7.368471054258134
 31
0.0
  0
LINE
  5
210E5
330
21098
100
AcDbEntity
  8
0
  6
CONTINUOUS
100
AcDbLine
 10
21.55253573891042
 20
6.793395949963558
 30
0.0
 11
20.50346593316726
 21
7.842465755706721
 31
0.0
  0
LINE
  5
210E6
330
21098
100
AcDbEntity
  8
0
  6
CONTINUOUS
100
AcDbLine
 10
21.75211648968556
 20
7.267334408268612
 30
0.0
 11
20.70299044079886
 21
8.316460457155308
 31
0.0
  0
LINE
  5
210E7
330
21098
100
AcDbEntity
  8
0
  6
CONTINUOUS
100
AcDbLine
 10
21.95169724046069
 20
7.741272866573663
 30
0.0
 11
20.9298701070431
 21
8.763099999991256
 31
0.0
  0
LINE
  5
210E8
330
21098
100
AcDbEntity
  8
0
  6
CONTINUOUS
100
AcDbLine
 10
22.15127799123582
 20
8.215211324878716
 30
0.0
 11
21.60338931612328
 21
8.763099999991256
 31
0.0
  0
LINE
  5
210E9
330
21098
100
AcDbEntity
  8
0
  6
CONTINUOUS
100
AcDbLine
 10
22.35085874201096
 20
8.689149783183769
 30
0.0
 11
22.27690852520347
 21
8.763099999991255
 31
0.0
  0
ENDBLK
  5
211DB
330
21098
100
AcDbEntity
  8
0
100
AcDbBlockEnd
  0
BLOCK
  5
211DC
330
210EA
100
AcDbEntity
  8
0
100
AcDbBlockBegin
  2
*X49
 70
     1
 10
0.0
 20
0.0
 30
0.0
  3
*X49
  1

  0
LINE
  5
210EB
330
210EA
100
AcDbEntity
  8
0
  6
CONTINUOUS
100
AcDbLine
 10
23.19462913593892
 20
8.169917934846424
 30
0.0
 11
23.70775465517246
 21
8.683043454079957
 31
0.0
  0
LINE
  5
210EC
330
210EA
100
AcDbEntity
  8
0
  6
CONTINUOUS
100
AcDbLine
 10
22.64923161835078
 20
6.951001208178088
 30
0.0
 11
23.9159364069932
 21
8.217705996820516
 31
0.0
  0
LINE
  5
210ED
330
210EA
100
AcDbEntity
  8
0
  6
CONTINUOUS
100
AcDbLine
 10
22.10383410076263
 20
5.732084481509751
 30
0.0
 11
24.12411815881395
 21
7.752368539561078
 31
0.0
  0
LINE
  5
210EE
330
210EA
100
AcDbEntity
  8
0
  6
CONTINUOUS
100
AcDbLine
 10
21.55843658317447
 20
4.513167754841414
 30
0.0
 11
24.3322999106347
 21
7.287031082301639
 31
0.0
  0
LINE
  5
210EF
330
210EA
100
AcDbEntity
  8
0
  6
CONTINUOUS
100
AcDbLine
 10
21.01303906558632
 20
3.294251028173077
 30
0.0
 11
24.54048166245544
 21
6.821693625042199
 31
0.0
  0
LINE
  5
210F0
330
210EA
100
AcDbEntity
  8
0
  6
CONTINUOUS
100
AcDbLine
 10
20.46764154799817
 20
2.075334301504738
 30
0.0
 11
23.28571549467848
 21
4.89340824818505
 31
0.0
  0
LINE
  5
210F1
330
210EA
100
AcDbEntity
  8
0
  6
CONTINUOUS
100
AcDbLine
 10
19.92224403041002
 20
0.8564175748364002
 30
0.0
 11
22.74075865492779
 21
3.674932199354171
 31
0.0
  0
LINE
  5
210F2
330
210EA
100
AcDbEntity
  8
0
  6
CONTINUOUS
100
AcDbLine
 10
23.67305085490148
 20
5.280743608408048
 30
0.0
 11
24.74866341427619
 21
6.356356167782759
 31
0.0
  0
LINE
  5
210F3
330
210EA
100
AcDbEntity
  8
0
  6
CONTINUOUS
100
AcDbLine
 10
23.88118970842314
 20
4.815363252849522
 30
0.0
 11
24.95684516609694
 21
5.89101871052332
 31
0.0
  0
LINE
  5
210F4
330
210EA
100
AcDbEntity
  8
0
  6
CONTINUOUS
100
AcDbLine
 10
19.73925852647308
 20
-0.0000871381807288
 30
0.0
 11
23.4103456646501
 21
3.670999999996297
 31
0.0
  0
LINE
  5
210F5
330
210EA
100
AcDbEntity
  8
0
  6
CONTINUOUS
100
AcDbLine
 10
24.0893285619448
 20
4.349982897290997
 30
0.0
 11
25.16502691791769
 21
5.42568125326388
 31
0.0
  0
LINE
  5
210F6
330
210EA
100
AcDbEntity
  8
0
  6
CONTINUOUS
100
AcDbLine
 10
20.41282099582748
 20
-0.0000438779065108
 30
0.0
 11
21.64944178675636
 21
1.236576913022366
 31
0.0
  0
LINE
  5
210F7
330
210EA
100
AcDbEntity
  8
0
  6
CONTINUOUS
100
AcDbLine
 10
22.78126487373161
 20
2.36839999999762
 30
0.0
 11
24.08386487373029
 21
3.670999999996297
 31
0.0
  0
LINE
  5
210F8
330
210EA
100
AcDbEntity
  8
0
  6
CONTINUOUS
100
AcDbLine
 10
24.29746741546646
 20
3.884602541732471
 30
0.0
 11
25.37320866973843
 21
4.960343796004441
 31
0.0
  0
LINE
  5
210F9
330
210EA
100
AcDbEntity
  8
0
  6
CONTINUOUS
100
AcDbLine
 10
21.08638346518189
 20
-0.0000006176322938
 30
0.0
 11
21.10379033335899
 21
0.0174062505448083
 31
0.0
  0
LINE
  5
210FA
330
210EA
100
AcDbEntity
  8
0
  6
CONTINUOUS
100
AcDbLine
 10
23.4547840828118
 20
2.36839999999762
 30
0.0
 11
25.58139042155918
 21
4.495006338745002
 31
0.0
  0
LINE
  5
210FB
330
210EA
100
AcDbEntity
  8
0
  6
CONTINUOUS
100
AcDbLine
 10
29.30199999996933
 20
8.215615917155148
 30
0.0
 11
29.84948408280543
 21
8.763099999991255
 31
0.0
  0
LINE
  5
210FC
330
210EA
100
AcDbEntity
  8
0
  6
CONTINUOUS
100
AcDbLine
 10
24.12830329189199
 20
2.36839999999762
 30
0.0
 11
25.78957217337993
 21
4.029668881485562
 31
0.0
  0
LINE
  5
210FD
330
210EA
100
AcDbEntity
  8
0
  6
CONTINUOUS
100
AcDbLine
 10
29.30199999996933
 20
7.54209670807496
 30
0.0
 11
30.52300329188562
 21
8.763099999991255
 31
0.0
  0
LINE
  5
210FE
330
210EA
100
AcDbEntity
  8
0
  6
CONTINUOUS
100
AcDbLine
 10
24.80182250097217
 20
2.36839999999762
 30
0.0
 11
25.99775392520067
 21
3.564331424226122
 31
0.0
  0
LINE
  5
210FF
330
210EA
100
AcDbEntity
  8
0
  6
CONTINUOUS
100
AcDbLine
 10
29.30199999996933
 20
6.868577498994774
 30
0.0
 11
30.74199999996926
 21
8.308577498994712
 31
0.0
  0
LINE
  5
21100
330
210EA
100
AcDbEntity
  8
0
  6
CONTINUOUS
100
AcDbLine
 10
25.13028238392013
 20
2.023340673865392
 30
0.0
 11
26.20593567702142
 21
3.098993966966683
 31
0.0
  0
LINE
  5
21101
330
210EA
100
AcDbEntity
  8
0
  6
CONTINUOUS
100
AcDbLine
 10
25.33838066033617
 20
1.557919741201244
 30
0.0
 11
26.41411742884217
 21
2.633656509707244
 31
0.0
  0
LINE
  5
21102
330
210EA
100
AcDbEntity
  8
0
  6
CONTINUOUS
100
AcDbLine
 10
25.54647893675221
 20
1.092498808537098
 30
0.0
 11
26.62229918066291
 21
2.168319052447804
 31
0.0
  0
LINE
  5
21103
330
210EA
100
AcDbEntity
  8
0
  6
CONTINUOUS
100
AcDbLine
 10
25.75457721316825
 20
0.62707787587295
 30
0.0
 11
26.83048093248366
 21
1.702981595188365
 31
0.0
  0
LINE
  5
21104
330
210EA
100
AcDbEntity
  8
0
  6
CONTINUOUS
100
AcDbLine
 10
29.30199999996933
 20
6.195058289914587
 30
0.0
 11
30.74199999996926
 21
7.635058289914522
 31
0.0
  0
LINE
  5
21105
330
210EA
100
AcDbEntity
  8
0
  6
CONTINUOUS
100
AcDbLine
 10
29.30199999996933
 20
5.521539080834401
 30
0.0
 11
30.74199999996926
 21
6.961539080834331
 31
0.0
  0
LINE
  5
21106
330
210EA
100
AcDbEntity
  8
0
  6
CONTINUOUS
100
AcDbLine
 10
29.30199999996933
 20
4.848019871754214
 30
0.0
 11
30.74199999996925
 21
6.288019871754143
 31
0.0
  0
LINE
  5
21107
330
210EA
100
AcDbEntity
  8
0
  6
CONTINUOUS
100
AcDbLine
 10
29.30199999996933
 20
4.174500662674028
 30
0.0
 11
30.74199999996925
 21
5.614500662673953
 31
0.0
  0
LINE
  5
21108
330
210EA
100
AcDbEntity
  8
0
  6
CONTINUOUS
100
AcDbLine
 10
25.96267548958429
 20
0.1616569432088024
 30
0.0
 11
27.18411854636669
 21
1.383099999991207
 31
0.0
  0
LINE
  5
21109
330
210EA
100
AcDbEntity
  8
0
  6
CONTINUOUS
100
AcDbLine
 10
29.30199999996933
 20
3.500981453593841
 30
0.0
 11
30.74199999996925
 21
4.940981453593762
 31
0.0
  0
LINE
  5
2110A
330
210EA
100
AcDbEntity
  8
0
  6
CONTINUOUS
100
AcDbLine
 10
26.50763775544691
 20
0.0330999999912356
 30
0.0
 11
27.85763775544689
 21
1.383099999991223
 31
0.0
  0
LINE
  5
2110B
330
210EA
100
AcDbEntity
  8
0
  6
CONTINUOUS
100
AcDbLine
 10
29.30199999996933
 20
2.827462244513656
 30
0.0
 11
30.74199999996925
 21
4.267462244513574
 31
0.0
  0
LINE
  5
2110C
330
210EA
100
AcDbEntity
  8
0
  6
CONTINUOUS
100
AcDbLine
 10
27.18115696452709
 20
0.0330999999912356
 30
0.0
 11
28.6224847300034
 21
1.474427765467545
 31
0.0
  0
LINE
  5
2110D
330
210EA
100
AcDbEntity
  8
0
  6
CONTINUOUS
100
AcDbLine
 10
29.21067223449293
 20
2.062615269957069
 30
0.0
 11
30.74199999996924
 21
3.593943035433383
 31
0.0
  0
LINE
  5
2110E
330
210EA
100
AcDbEntity
  8
0
  6
CONTINUOUS
100
AcDbLine
 10
27.85467617360728
 20
0.0330999999912356
 30
0.0
 11
30.74199999996924
 21
2.920423826353195
 31
0.0
  0
LINE
  5
2110F
330
210EA
100
AcDbEntity
  8
0
  6
CONTINUOUS
100
AcDbLine
 10
28.57438609860264
 20
0.0792907159064073
 30
0.0
 11
30.69580928405405
 21
2.200713901357819
 31
0.0
  0
LINE
  5
21110
330
210EA
100
AcDbEntity
  8
0
  6
CONTINUOUS
100
AcDbLine
 10
29.49443044814297
 20
0.3258158563665496
 30
0.0
 11
30.44928414359389
 21
1.280669551817477
 31
0.0
  0
LINE
  5
21111
330
210EA
100
AcDbEntity
  8
0
  6
CONTINUOUS
100
AcDbLine
 10
19.59027867740337
 20
-0.0000967065718083
 30
0.0
 11
19.55485265190471
 21
0.035329318926844
 31
0.0
  0
LINE
  5
21112
330
210EA
100
AcDbEntity
  8
0
  6
CONTINUOUS
100
AcDbLine
 10
20.26375463176586
 20
-0.0000534518541091
 30
0.0
 11
19.76305575737534
 21
0.5006454225364014
 31
0.0
  0
LINE
  5
21113
330
210EA
100
AcDbEntity
  8
0
  6
CONTINUOUS
100
AcDbLine
 10
20.93723058612834
 20
-0.0000101971364099
 30
0.0
 11
19.97125886284597
 21
0.965961526145958
 31
0.0
  0
LINE
  5
21114
330
210EA
100
AcDbEntity
  8
0
  6
CONTINUOUS
100
AcDbLine
 10
21.25514828313686
 20
0.355591314935257
 30
0.0
 11
20.1794619683166
 21
1.431277629755512
 31
0.0
  0
LINE
  5
21115
330
210EA
100
AcDbEntity
  8
0
  6
CONTINUOUS
100
AcDbLine
 10
21.46338838394921
 20
0.8208704232030986
 30
0.0
 11
20.38766507378723
 21
1.896593733365069
 31
0.0
  0
LINE
  5
21116
330
210EA
100
AcDbEntity
  8
0
  6
CONTINUOUS
100
AcDbLine
 10
21.67162848476155
 20
1.28614953147094
 30
0.0
 11
20.59586817925786
 21
2.361909836974626
 31
0.0
  0
LINE
  5
21117
330
210EA
100
AcDbEntity
  8
0
  6
CONTINUOUS
100
AcDbLine
 10
21.8798685855739
 20
1.751428639738782
 30
0.0
 11
20.80407128472849
 21
2.827225940584183
 31
0.0
  0
LINE
  5
21118
330
210EA
100
AcDbEntity
  8
0
  6
CONTINUOUS
100
AcDbLine
 10
22.08810868638624
 20
2.216707748006623
 30
0.0
 11
21.01227439019912
 21
3.292542044193739
 31
0.0
  0
LINE
  5
21119
330
210EA
100
AcDbEntity
  8
0
  6
CONTINUOUS
100
AcDbLine
 10
22.60993564347543
 20
2.36839999999762
 30
0.0
 11
21.22047749566975
 21
3.757858147803296
 31
0.0
  0
LINE
  5
2111A
330
210EA
100
AcDbEntity
  8
0
  6
CONTINUOUS
100
AcDbLine
 10
23.28345485255561
 20
2.36839999999762
 30
0.0
 11
21.42868060114038
 21
4.223174251412853
 31
0.0
  0
LINE
  5
2111B
330
210EA
100
AcDbEntity
  8
0
  6
CONTINUOUS
100
AcDbLine
 10
26.29227406164219
 20
0.0330999999912356
 30
0.0
 11
25.80009199592872
 21
0.5252820657046957
 31
0.0
  0
LINE
  5
2111C
330
210EA
100
AcDbEntity
  8
0
  6
CONTINUOUS
100
AcDbLine
 10
23.9569740616358
 20
2.36839999999762
 30
0.0
 11
21.63688370661101
 21
4.688490355022409
 31
0.0
  0
LINE
  5
2111D
330
210EA
100
AcDbEntity
  8
0
  6
CONTINUOUS
100
AcDbLine
 10
26.96579327072237
 20
0.0330999999912356
 30
0.0
 11
25.2554132311971
 21
1.743480039516508
 31
0.0
  0
LINE
  5
2111E
330
210EA
100
AcDbEntity
  8
0
  6
CONTINUOUS
100
AcDbLine
 10
24.63049327071599
 20
2.36839999999762
 30
0.0
 11
23.32789327071731
 21
3.670999999996297
 31
0.0
  0
LINE
  5
2111F
330
210EA
100
AcDbEntity
  8
0
  6
CONTINUOUS
100
AcDbLine
 10
22.92098674744635
 20
4.077906523267254
 30
0.0
 11
21.84508681208164
 21
5.153806458631966
 31
0.0
  0
LINE
  5
21120
330
210EA
100
AcDbEntity
  8
0
  6
CONTINUOUS
100
AcDbLine
 10
27.63931247980256
 20
0.0330999999912356
 30
0.0
 11
24.0014124797975
 21
3.670999999996297
 31
0.0
  0
LINE
  5
21121
330
210EA
100
AcDbEntity
  8
0
  6
CONTINUOUS
100
AcDbLine
 10
23.129125600968
 20
4.5432868788258
 30
0.0
 11
22.05328991755227
 21
5.619122562241522
 31
0.0
  0
LINE
  5
21122
330
210EA
100
AcDbEntity
  8
0
  6
CONTINUOUS
100
AcDbLine
 10
28.31283168888275
 20
0.0330999999912356
 30
0.0
 11
24.16488385994816
 21
4.181047828925828
 31
0.0
  0
LINE
  5
21123
330
210EA
100
AcDbEntity
  8
0
  6
CONTINUOUS
100
AcDbLine
 10
23.33726445448964
 20
5.008667234384345
 30
0.0
 11
22.2614930230229
 21
6.084438665851079
 31
0.0
  0
LINE
  5
21124
330
210EA
100
AcDbEntity
  8
0
  6
CONTINUOUS
100
AcDbLine
 10
28.86286302309502
 20
0.1565878748591523
 30
0.0
 11
27.63635089796295
 21
1.383099999991217
 31
0.0
  0
LINE
  5
21125
330
210EA
100
AcDbEntity
  8
0
  6
CONTINUOUS
100
AcDbLine
 10
26.43704649509776
 20
2.582404402856405
 30
0.0
 11
23.61992702019732
 21
5.399523877756844
 31
0.0
  0
LINE
  5
21126
330
210EA
100
AcDbEntity
  8
0
  6
CONTINUOUS
100
AcDbLine
 10
23.54540330801128
 20
5.47404758994289
 30
0.0
 11
22.46969612849353
 21
6.549754769460635
 31
0.0
  0
LINE
  5
21127
330
210EA
100
AcDbEntity
  8
0
  6
CONTINUOUS
100
AcDbLine
 10
29.39405087596853
 20
0.2989192310658284
 30
0.0
 11
28.30987010704312
 21
1.383099999991234
 31
0.0
  0
LINE
  5
21128
330
210EA
100
AcDbEntity
  8
0
  6
CONTINUOUS
100
AcDbLine
 10
25.89179548232307
 20
3.801174624711282
 30
0.0
 11
22.67789923396416
 21
7.015070873070191
 31
0.0
  0
LINE
  5
21129
330
210EA
100
AcDbEntity
  8
0
  6
CONTINUOUS
100
AcDbLine
 10
29.79594438047407
 20
0.570544935640473
 30
0.0
 11
28.81310432793121
 21
1.553384988183336
 31
0.0
  0
LINE
  5
2112A
330
210EA
100
AcDbEntity
  8
0
  6
CONTINUOUS
100
AcDbLine
 10
25.34654446954838
 20
5.01994484656616
 30
0.0
 11
22.88610233943479
 21
7.480386976679748
 31
0.0
  0
LINE
  5
2112B
330
210EA
100
AcDbEntity
  8
0
  6
CONTINUOUS
100
AcDbLine
 10
30.13270398501416
 20
0.9073045401805646
 30
0.0
 11
29.14234640337737
 21
1.897662121817355
 31
0.0
  0
LINE
  5
2112C
330
210EA
100
AcDbEntity
  8
0
  6
CONTINUOUS
100
AcDbLine
 10
24.80129345677369
 20
6.238715068421037
 30
0.0
 11
23.09430544490542
 21
7.945703080289305
 31
0.0
  0
LINE
  5
2112D
330
210EA
100
AcDbEntity
  8
0
  6
CONTINUOUS
100
AcDbLine
 10
30.44581292956759
 20
1.26771480470732
 30
0.0
 11
29.30199999996933
 21
2.411527734305588
 31
0.0
  0
LINE
  5
2112E
330
210EA
100
AcDbEntity
  8
0
  6
CONTINUOUS
100
AcDbLine
 10
30.58814428577427
 20
1.798902657580827
 30
0.0
 11
29.30199999996933
 21
3.085046943385775
 31
0.0
  0
LINE
  5
2112F
330
210EA
100
AcDbEntity
  8
0
  6
CONTINUOUS
100
AcDbLine
 10
24.256042443999
 20
7.457485290275915
 30
0.0
 11
23.30250855037605
 21
8.411019183898862
 31
0.0
  0
LINE
  5
21130
330
210EA
100
AcDbEntity
  8
0
  6
CONTINUOUS
100
AcDbLine
 10
23.71079143122431
 20
8.676255512130794
 30
0.0
 11
23.51071165584668
 21
8.876335287508418
 31
0.0
  0
LINE
  5
21131
330
210EA
100
AcDbEntity
  8
0
  6
CONTINUOUS
100
AcDbLine
 10
30.73047564198095
 20
2.330090510454333
 30
0.0
 11
29.30199999996933
 21
3.758566152465961
 31
0.0
  0
LINE
  5
21132
330
210EA
100
AcDbEntity
  8
0
  6
CONTINUOUS
100
AcDbLine
 10
30.74199999996924
 20
2.992085361546236
 30
0.0
 11
29.30199999996933
 21
4.432085361546148
 31
0.0
  0
LINE
  5
21133
330
210EA
100
AcDbEntity
  8
0
  6
CONTINUOUS
100
AcDbLine
 10
30.74199999996924
 20
3.665604570626419
 30
0.0
 11
29.30199999996933
 21
5.105604570626333
 31
0.0
  0
LINE
  5
21134
330
210EA
100
AcDbEntity
  8
0
  6
CONTINUOUS
100
AcDbLine
 10
30.74199999996925
 20
4.339123779706602
 30
0.0
 11
29.30199999996933
 21
5.77912377970652
 31
0.0
  0
LINE
  5
21135
330
210EA
100
AcDbEntity
  8
0
  6
CONTINUOUS
100
AcDbLine
 10
30.74199999996925
 20
5.012642988786785
 30
0.0
 11
29.30199999996933
 21
6.452642988786707
 31
0.0
  0
LINE
  5
21136
330
210EA
100
AcDbEntity
  8
0
  6
CONTINUOUS
100
AcDbLine
 10
30.74199999996925
 20
5.68616219786697
 30
0.0
 11
29.30199999996933
 21
7.126162197866894
 31
0.0
  0
LINE
  5
21137
330
210EA
100
AcDbEntity
  8
0
  6
CONTINUOUS
100
AcDbLine
 10
30.74199999996925
 20
6.359681406947153
 30
0.0
 11
29.30199999996933
 21
7.799681406947081
 31
0.0
  0
LINE
  5
21138
330
210EA
100
AcDbEntity
  8
0
  6
CONTINUOUS
100
AcDbLine
 10
30.74199999996926
 20
7.033200616027337
 30
0.0
 11
29.30199999996933
 21
8.473200616027269
 31
0.0
  0
LINE
  5
21139
330
210EA
100
AcDbEntity
  8
0
  6
CONTINUOUS
100
AcDbLine
 10
30.74199999996926
 20
7.706719825107518
 30
0.0
 11
29.68561982508552
 21
8.763099999991255
 31
0.0
  0
LINE
  5
2113A
330
210EA
100
AcDbEntity
  8
0
  6
CONTINUOUS
100
AcDbLine
 10
30.74199999996926
 20
8.380239034187703
 30
0.0
 11
30.35913903416571
 21
8.763099999991255
 31
0.0
  0
ENDBLK
  5
211DD
330
210EA
100
AcDbEntity
  8
0
100
AcDbBlockEnd
  0
BLOCK
  5
211DE
330
2113B
100
AcDbEntity
  8
0
100
AcDbBlockBegin
  2
*X50
 70
     1
 10
0.0
 20
0.0
 30
0.0
  3
*X50
  1

  0
LINE
  5
2113C
330
2113B
100
AcDbEntity
  8
0
  6
CONTINUOUS
100
AcDbLine
 10
31.64199999996833
 20
8.5350582899136
 30
0.0
 11
31.87004171004599
 21
8.763099999991255
 31
0.0
  0
LINE
  5
2113D
330
2113B
100
AcDbEntity
  8
0
  6
CONTINUOUS
100
AcDbLine
 10
31.64199999996833
 20
7.861539080833413
 30
0.0
 11
32.54356091912618
 21
8.763099999991255
 31
0.0
  0
LINE
  5
2113E
330
2113B
100
AcDbEntity
  8
0
  6
CONTINUOUS
100
AcDbLine
 10
31.64199999996833
 20
7.188019871753227
 30
0.0
 11
33.08199999996839
 21
8.628019871753281
 31
0.0
  0
LINE
  5
2113F
330
2113B
100
AcDbEntity
  8
0
  6
CONTINUOUS
100
AcDbLine
 10
31.64199999996833
 20
6.514500662673041
 30
0.0
 11
33.08199999996839
 21
7.954500662673095
 31
0.0
  0
LINE
  5
21140
330
2113B
100
AcDbEntity
  8
0
  6
CONTINUOUS
100
AcDbLine
 10
31.64199999996833
 20
5.840981453592855
 30
0.0
 11
33.08199999996839
 21
7.28098145359291
 31
0.0
  0
LINE
  5
21141
330
2113B
100
AcDbEntity
  8
0
  6
CONTINUOUS
100
AcDbLine
 10
31.64199999996833
 20
5.167462244512668
 30
0.0
 11
33.08199999996839
 21
6.607462244512723
 31
0.0
  0
LINE
  5
21142
330
2113B
100
AcDbEntity
  8
0
  6
CONTINUOUS
100
AcDbLine
 10
31.64199999996833
 20
4.493943035432482
 30
0.0
 11
33.08199999996839
 21
5.933943035432536
 31
0.0
  0
LINE
  5
21143
330
2113B
100
AcDbEntity
  8
0
  6
CONTINUOUS
100
AcDbLine
 10
31.64199999996833
 20
3.820423826352294
 30
0.0
 11
33.08199999996839
 21
5.260423826352349
 31
0.0
  0
LINE
  5
21144
330
2113B
100
AcDbEntity
  8
0
  6
CONTINUOUS
100
AcDbLine
 10
31.64199999996833
 20
3.146904617272108
 30
0.0
 11
33.08199999996839
 21
4.586904617272163
 31
0.0
  0
LINE
  5
21145
330
2113B
100
AcDbEntity
  8
0
  6
CONTINUOUS
100
AcDbLine
 10
36.23199999996837
 20
8.410423826352327
 30
0.0
 11
36.58467617360729
 21
8.763099999991255
 31
0.0
  0
LINE
  5
21146
330
2113B
100
AcDbEntity
  8
0
  6
CONTINUOUS
100
AcDbLine
 10
36.23199999996837
 20
7.73690461727214
 30
0.0
 11
37.25819538268748
 21
8.763099999991255
 31
0.0
  0
LINE
  5
21147
330
2113B
100
AcDbEntity
  8
0
  6
CONTINUOUS
100
AcDbLine
 10
31.64323424774199
 20
2.474619655965573
 30
0.0
 11
33.08199999996839
 21
3.913385408191976
 31
0.0
  0
LINE
  5
21148
330
2113B
100
AcDbEntity
  8
0
  6
CONTINUOUS
100
AcDbLine
 10
31.74419223861915
 20
1.902058437762552
 30
0.0
 11
33.08199999996839
 21
3.239866199111789
 31
0.0
  0
LINE
  5
21149
330
2113B
100
AcDbEntity
  8
0
  6
CONTINUOUS
100
AcDbLine
 10
36.23199999996837
 20
7.063385408191953
 30
0.0
 11
37.67199999996831
 21
8.503385408191894
 31
0.0
  0
LINE
  5
2114A
330
2113B
100
AcDbEntity
  8
0
  6
CONTINUOUS
100
AcDbLine
 10
36.23199999996837
 20
6.389866199111767
 30
0.0
 11
37.67199999996831
 21
7.829866199111708
 31
0.0
  0
LINE
  5
2114B
330
2113B
100
AcDbEntity
  8
0
  6
CONTINUOUS
100
AcDbLine
 10
31.91111233414976
 20
1.39545932421297
 30
0.0
 11
33.08199999996839
 21
2.566346990031603
 31
0.0
  0
LINE
  5
2114C
330
2113B
100
AcDbEntity
  8
0
  6
CONTINUOUS
100
AcDbLine
 10
36.23199999996837
 20
5.71634699003158
 30
0.0
 11
37.67199999996831
 21
7.156346990031522
 31
0.0
  0
LINE
  5
2114D
330
2113B
100
AcDbEntity
  8
0
  6
CONTINUOUS
100
AcDbLine
 10
32.1576374746103
 20
0.9684652555933289
 30
0.0
 11
33.20642631446081
 21
2.017254095443838
 31
0.0
  0
LINE
  5
2114E
330
2113B
100
AcDbEntity
  8
0
  6
CONTINUOUS
100
AcDbLine
 10
36.23199999996837
 20
5.042827780951393
 30
0.0
 11
37.67199999996831
 21
6.482827780951334
 31
0.0
  0
LINE
  5
2114F
330
2113B
100
AcDbEntity
  8
0
  6
CONTINUOUS
100
AcDbLine
 10
32.47774023927325
 20
0.6150488111760914
 30
0.0
 11
33.49903056428258
 21
1.636339136185419
 31
0.0
  0
LINE
  5
21150
330
2113B
100
AcDbEntity
  8
0
  6
CONTINUOUS
100
AcDbLine
 10
36.23199999996837
 20
4.369308571871207
 30
0.0
 11
37.67199999996831
 21
5.809308571871148
 31
0.0
  0
LINE
  5
21151
330
2113B
100
AcDbEntity
  8
0
  6
CONTINUOUS
100
AcDbLine
 10
32.84396249154443
 20
0.3077518543670883
 30
0.0
 11
33.93324121824649
 21
1.397030581069146
 31
0.0
  0
LINE
  5
21152
330
2113B
100
AcDbEntity
  8
0
  6
CONTINUOUS
100
AcDbLine
 10
36.23199999996837
 20
3.695789362791021
 30
0.0
 11
37.67199999996831
 21
5.135789362790963
 31
0.0
  0
LINE
  5
21153
330
2113B
100
AcDbEntity
  8
0
  6
CONTINUOUS
100
AcDbLine
 10
33.30186329036846
 20
0.0921334441109263
 30
0.0
 11
34.46442907112041
 21
1.254699224862875
 31
0.0
  0
LINE
  5
21154
330
2113B
100
AcDbEntity
  8
0
  6
CONTINUOUS
100
AcDbLine
 10
36.23199999996837
 20
3.022270153710834
 30
0.0
 11
37.67199999996831
 21
4.462270153710776
 31
0.0
  0
LINE
  5
21155
330
2113B
100
AcDbEntity
  8
0
  6
CONTINUOUS
100
AcDbLine
 10
33.79565647746294
 20
-0.0875925778747773
 30
0.0
 11
35.24350171668284
 21
1.360252661345124
 31
0.0
  0
LINE
  5
21156
330
2113B
100
AcDbEntity
  8
0
  6
CONTINUOUS
100
AcDbLine
 10
36.18336676155003
 20
2.300117706212308
 30
0.0
 11
37.67199999996831
 21
3.788750944630589
 31
0.0
  0
LINE
  5
21157
330
2113B
100
AcDbEntity
  8
0
  6
CONTINUOUS
100
AcDbLine
 10
34.37182574910968
 20
-0.184942515308224
 30
0.0
 11
37.67199999996831
 21
3.115231735550402
 31
0.0
  0
LINE
  5
21158
330
2113B
100
AcDbEntity
  8
0
  6
CONTINUOUS
100
AcDbLine
 10
35.0453449581892
 20
-0.1849425153088955
 30
0.0
 11
37.66345697088136
 21
2.433169497383271
 31
0.0
  0
LINE
  5
21159
330
2113B
100
AcDbEntity
  8
0
  6
CONTINUOUS
100
AcDbLine
 10
35.98667157609191
 20
0.0828648935136398
 30
0.0
 11
37.51927401744566
 21
1.615467334867382
 31
0.0
  0
LINE
  5
2115A
330
2113B
100
AcDbEntity
  8
0
  6
CONTINUOUS
100
AcDbLine
 10
32.27747408544484
 20
0.7830920669904482
 30
0.0
 11
32.24716210471949
 21
0.8134040477157893
 31
0.0
  0
LINE
  5
2115B
330
2113B
100
AcDbEntity
  8
0
  6
CONTINUOUS
100
AcDbLine
 10
33.83656881101902
 20
-0.1024834495035494
 30
0.0
 11
31.72538911593758
 21
2.008696245577891
 31
0.0
  0
LINE
  5
2115C
330
2113B
100
AcDbEntity
  8
0
  6
CONTINUOUS
100
AcDbLine
 10
34.5925470859041
 20
-0.1849425153084434
 30
0.0
 11
31.64199999996833
 21
2.765604570627322
 31
0.0
  0
LINE
  5
2115D
330
2113B
100
AcDbEntity
  8
0
  6
CONTINUOUS
100
AcDbLine
 10
35.26201302775981
 20
-0.1808892480839752
 30
0.0
 11
31.64199999996833
 21
3.439123779707508
 31
0.0
  0
LINE
  5
2115E
330
2113B
100
AcDbEntity
  8
0
  6
CONTINUOUS
100
AcDbLine
 10
35.75580621485512
 20
-0.0011632260990879
 30
0.0
 11
34.51294304365551
 21
1.241699945100514
 31
0.0
  0
LINE
  5
2115F
330
2113B
100
AcDbEntity
  8
0
  6
CONTINUOUS
100
AcDbLine
 10
33.08199999996839
 20
2.672642988787641
 30
0.0
 11
31.64199999996833
 21
4.112642988787695
 31
0.0
  0
LINE
  5
21160
330
2113B
100
AcDbEntity
  8
0
  6
CONTINUOUS
100
AcDbLine
 10
36.24959940195042
 20
0.1785627958857976
 30
0.0
 11
35.10501653033629
 21
1.323145667499924
 31
0.0
  0
LINE
  5
21161
330
2113B
100
AcDbEntity
  8
0
  6
CONTINUOUS
100
AcDbLine
 10
33.08199999996839
 20
3.346162197867827
 30
0.0
 11
31.64199999996833
 21
4.786162197867881
 31
0.0
  0
LINE
  5
21162
330
2113B
100
AcDbEntity
  8
0
  6
CONTINUOUS
100
AcDbLine
 10
36.64615197150552
 20
0.4555294354108876
 30
0.0
 11
35.6362043832099
 21
1.465477023706505
 31
0.0
  0
LINE
  5
21163
330
2113B
100
AcDbEntity
  8
0
  6
CONTINUOUS
100
AcDbLine
 10
33.08199999996839
 20
4.019681406948013
 30
0.0
 11
31.64199999996833
 21
5.459681406948068
 31
0.0
  0
LINE
  5
21164
330
2113B
100
AcDbEntity
  8
0
  6
CONTINUOUS
100
AcDbLine
 10
37.0123742237774
 20
0.7628263922191891
 30
0.0
 11
35.97691545773309
 21
1.798285158263504
 31
0.0
  0
LINE
  5
21165
330
2113B
100
AcDbEntity
  8
0
  6
CONTINUOUS
100
AcDbLine
 10
33.08199999996839
 20
4.6932006160282
 30
0.0
 11
31.64199999996833
 21
6.133200616028255
 31
0.0
  0
LINE
  5
21166
330
2113B
100
AcDbEntity
  8
0
  6
CONTINUOUS
100
AcDbLine
 10
37.27491524157143
 20
1.173804583505349
 30
0.0
 11
36.17602012811361
 21
2.272699696963169
 31
0.0
  0
LINE
  5
21167
330
2113B
100
AcDbEntity
  8
0
  6
CONTINUOUS
100
AcDbLine
 10
33.08199999996839
 20
5.366719825108387
 30
0.0
 11
31.64199999996833
 21
6.806719825108441
 31
0.0
  0
LINE
  5
21168
330
2113B
100
AcDbEntity
  8
0
  6
CONTINUOUS
100
AcDbLine
 10
37.51739996707661
 20
1.604839067080355
 30
0.0
 11
36.23199999996837
 21
2.890239034188595
 31
0.0
  0
LINE
  5
21169
330
2113B
100
AcDbEntity
  8
0
  6
CONTINUOUS
100
AcDbLine
 10
37.6183579579535
 20
2.177400285283649
 30
0.0
 11
36.23199999996837
 21
3.563758243268782
 31
0.0
  0
LINE
  5
2116A
330
2113B
100
AcDbEntity
  8
0
  6
CONTINUOUS
100
AcDbLine
 10
33.08199999996839
 20
6.040239034188573
 30
0.0
 11
31.64199999996833
 21
7.480239034188628
 31
0.0
  0
LINE
  5
2116B
330
2113B
100
AcDbEntity
  8
0
  6
CONTINUOUS
100
AcDbLine
 10
33.08199999996839
 20
6.713758243268759
 30
0.0
 11
31.64199999996833
 21
8.153758243268815
 31
0.0
  0
LINE
  5
2116C
330
2113B
100
AcDbEntity
  8
0
  6
CONTINUOUS
100
AcDbLine
 10
37.67199999996831
 20
2.797277452349027
 30
0.0
 11
36.23199999996837
 21
4.237277452348969
 31
0.0
  0
LINE
  5
2116D
330
2113B
100
AcDbEntity
  8
0
  6
CONTINUOUS
100
AcDbLine
 10
37.67199999996831
 20
3.470796661429214
 30
0.0
 11
36.23199999996837
 21
4.910796661429155
 31
0.0
  0
LINE
  5
2116E
330
2113B
100
AcDbEntity
  8
0
  6
CONTINUOUS
100
AcDbLine
 10
37.67199999996831
 20
4.1443158705094
 30
0.0
 11
36.23199999996837
 21
5.584315870509341
 31
0.0
  0
LINE
  5
2116F
330
2113B
100
AcDbEntity
  8
0
  6
CONTINUOUS
100
AcDbLine
 10
33.08199999996839
 20
7.387277452348946
 30
0.0
 11
31.70617745232608
 21
8.763099999991255
 31
0.0
  0
LINE
  5
21170
330
2113B
100
AcDbEntity
  8
0
  6
CONTINUOUS
100
AcDbLine
 10
33.08199999996839
 20
8.060796661429134
 30
0.0
 11
32.37969666140626
 21
8.763099999991255
 31
0.0
  0
LINE
  5
21171
330
2113B
100
AcDbEntity
  8
0
  6
CONTINUOUS
100
AcDbLine
 10
33.08199999996839
 20
8.734315870509318
 30
0.0
 11
33.05321587048645
 21
8.763099999991255
 31
0.0
  0
LINE
  5
21172
330
2113B
100
AcDbEntity
  8
0
  6
CONTINUOUS
100
AcDbLine
 10
37.67199999996831
 20
4.817835079589586
 30
0.0
 11
36.23199999996837
 21
6.257835079589528
 31
0.0
  0
LINE
  5
21173
330
2113B
100
AcDbEntity
  8
0
  6
CONTINUOUS
100
AcDbLine
 10
37.67199999996831
 20
5.491354288669772
 30
0.0
 11
36.23199999996837
 21
6.931354288669715
 31
0.0
  0
LINE
  5
21174
330
2113B
100
AcDbEntity
  8
0
  6
CONTINUOUS
100
AcDbLine
 10
37.67199999996831
 20
6.164873497749959
 30
0.0
 11
36.23199999996837
 21
7.6048734977499
 31
0.0
  0
LINE
  5
21175
330
2113B
100
AcDbEntity
  8
0
  6
CONTINUOUS
100
AcDbLine
 10
37.67199999996831
 20
6.838392706830145
 30
0.0
 11
36.23199999996837
 21
8.278392706830086
 31
0.0
  0
LINE
  5
21176
330
2113B
100
AcDbEntity
  8
0
  6
CONTINUOUS
100
AcDbLine
 10
37.67199999996831
 20
7.511911915910333
 30
0.0
 11
36.42081191588738
 21
8.763099999991255
 31
0.0
  0
LINE
  5
21177
330
2113B
100
AcDbEntity
  8
0
  6
CONTINUOUS
100
AcDbLine
 10
37.67199999996831
 20
8.185431124990519
 30
0.0
 11
37.09433112496757
 21
8.763099999991255
 31
0.0
  0
ENDBLK
  5
211DF
330
2113B
100
AcDbEntity
  8
0
100
AcDbBlockEnd
  0
BLOCK
  5
211E0
330
21178
100
AcDbEntity
  8
0
100
AcDbBlockBegin
  2
*X51
 70
     1
 10
0.0
 20
0.0
 30
0.0
  3
*X51
  1

  0
LINE
  5
21179
330
21178
100
AcDbEntity
  8
0
  6
CONTINUOUS
100
AcDbLine
 10
38.60499999996136
 20
8.762866199104765
 30
0.0
 11
38.71672554182345
 21
8.874591740966855
 31
0.0
  0
LINE
  5
2117A
330
21178
100
AcDbEntity
  8
0
  6
CONTINUOUS
100
AcDbLine
 10
38.60499999996136
 20
8.089346990024577
 30
0.0
 11
39.03418785440363
 21
8.518534844466847
 31
0.0
  0
LINE
  5
2117B
330
21178
100
AcDbEntity
  8
0
  6
CONTINUOUS
100
AcDbLine
 10
38.60499999996136
 20
7.41582778094439
 30
0.0
 11
39.35165016698382
 21
8.16247794796684
 31
0.0
  0
LINE
  5
2117C
330
21178
100
AcDbEntity
  8
0
  6
CONTINUOUS
100
AcDbLine
 10
38.60499999996136
 20
6.742308571864204
 30
0.0
 11
39.66911247956399
 21
7.806421051466834
 31
0.0
  0
LINE
  5
2117D
330
21178
100
AcDbEntity
  8
0
  6
CONTINUOUS
100
AcDbLine
 10
38.60499999996136
 20
6.068789362784018
 30
0.0
 11
39.98657479214418
 21
7.450364154966827
 31
0.0
  0
LINE
  5
2117E
330
21178
100
AcDbEntity
  8
0
  6
CONTINUOUS
100
AcDbLine
 10
38.60499999996136
 20
5.395270153703832
 30
0.0
 11
40.30403710472435
 21
7.09430725846682
 31
0.0
  0
LINE
  5
2117F
330
21178
100
AcDbEntity
  8
0
  6
CONTINUOUS
100
AcDbLine
 10
38.60499999996136
 20
4.721750944623645
 30
0.0
 11
40.62149941730453
 21
6.738250361966813
 31
0.0
  0
LINE
  5
21180
330
21178
100
AcDbEntity
  8
0
  6
CONTINUOUS
100
AcDbLine
 10
38.60499999996136
 20
4.048231735543458
 30
0.0
 11
40.93896172988471
 21
6.382193465466806
 31
0.0
  0
LINE
  5
21181
330
21178
100
AcDbEntity
  8
0
  6
CONTINUOUS
100
AcDbLine
 10
38.60499999996136
 20
3.374712526463272
 30
0.0
 11
40.02599999995994
 21
4.795712526461843
 31
0.0
  0
LINE
  5
21182
330
21178
100
AcDbEntity
  8
0
  6
CONTINUOUS
100
AcDbLine
 10
38.60499999996136
 20
2.701193317383085
 30
0.0
 11
40.02599999995994
 21
4.122193317381657
 31
0.0
  0
LINE
  5
21183
330
21178
100
AcDbEntity
  8
0
  6
CONTINUOUS
100
AcDbLine
 10
40.28339754687704
 20
5.053110073378947
 30
0.0
 11
41.25642404246489
 21
6.026136568966799
 31
0.0
  0
LINE
  5
21184
330
21178
100
AcDbEntity
  8
0
  6
CONTINUOUS
100
AcDbLine
 10
40.60085985945722
 20
4.697053176878939
 30
0.0
 11
41.57388635504507
 21
5.670079672466793
 31
0.0
  0
LINE
  5
21185
330
21178
100
AcDbEntity
  8
0
  6
CONTINUOUS
100
AcDbLine
 10
43.57899999995641
 20
8.348712526458318
 30
0.0
 11
43.99338747348935
 21
8.763099999991255
 31
0.0
  0
LINE
  5
21186
330
21178
100
AcDbEntity
  8
0
  6
CONTINUOUS
100
AcDbLine
 10
43.57899999995641
 20
7.675193317378131
 30
0.0
 11
44.66690668256953
 21
8.763099999991255
 31
0.0
  0
LINE
  5
21187
330
21178
100
AcDbEntity
  8
0
  6
CONTINUOUS
100
AcDbLine
 10
38.60499999996136
 20
2.027674108302898
 30
0.0
 11
40.02599999995994
 21
3.44867410830147
 31
0.0
  0
LINE
  5
21188
330
21178
100
AcDbEntity
  8
0
  6
CONTINUOUS
100
AcDbLine
 10
38.60499999996136
 20
1.354154899222712
 30
0.0
 11
40.02599999995994
 21
2.775154899221284
 31
0.0
  0
LINE
  5
21189
330
21178
100
AcDbEntity
  8
0
  6
CONTINUOUS
100
AcDbLine
 10
38.60499999996136
 20
0.6806356901425255
 30
0.0
 11
40.02599999995994
 21
2.101635690141098
 31
0.0
  0
LINE
  5
2118A
330
21178
100
AcDbEntity
  8
0
  6
CONTINUOUS
100
AcDbLine
 10
38.60499999996136
 20
0.0071164810623383
 30
0.0
 11
40.02599999995994
 21
1.428116481060911
 31
0.0
  0
LINE
  5
2118B
330
21178
100
AcDbEntity
  8
0
  6
CONTINUOUS
100
AcDbLine
 10
40.9183221720374
 20
4.340996280378933
 30
0.0
 11
41.89134866762525
 21
5.314022775966786
 31
0.0
  0
LINE
  5
2118C
330
21178
100
AcDbEntity
  8
0
  6
CONTINUOUS
100
AcDbLine
 10
41.23578448461758
 20
3.984939383878926
 30
0.0
 11
42.20881098020543
 21
4.957965879466778
 31
0.0
  0
LINE
  5
2118D
330
21178
100
AcDbEntity
  8
0
  6
CONTINUOUS
100
AcDbLine
 10
41.55324679719776
 20
3.628882487378919
 30
0.0
 11
42.52627329278561
 21
4.601908982966772
 31
0.0
  0
LINE
  5
2118E
330
21178
100
AcDbEntity
  8
0
  6
CONTINUOUS
100
AcDbLine
 10
41.87070910977793
 20
3.272825590878912
 30
0.0
 11
42.84373560536579
 21
4.245852086466765
 31
0.0
  0
LINE
  5
2118F
330
21178
100
AcDbEntity
  8
0
  6
CONTINUOUS
100
AcDbLine
 10
43.57899999995641
 20
7.001674108297943
 30
0.0
 11
44.99999999995498
 21
8.422674108296516
 31
0.0
  0
LINE
  5
21190
330
21178
100
AcDbEntity
  8
0
  6
CONTINUOUS
100
AcDbLine
 10
43.57899999995641
 20
6.328154899217758
 30
0.0
 11
44.99999999995498
 21
7.749154899216329
 31
0.0
  0
LINE
  5
21191
330
21178
100
AcDbEntity
  8
0
  6
CONTINUOUS
100
AcDbLine
 10
43.57899999995641
 20
5.654635690137571
 30
0.0
 11
44.99999999995498
 21
7.075635690136142
 31
0.0
  0
LINE
  5
21192
330
21178
100
AcDbEntity
  8
0
  6
CONTINUOUS
100
AcDbLine
 10
43.57899999995641
 20
4.981116481057384
 30
0.0
 11
44.99999999995498
 21
6.402116481055955
 31
0.0
  0
LINE
  5
21193
330
21178
100
AcDbEntity
  8
0
  6
CONTINUOUS
100
AcDbLine
 10
39.27140272797921
 20
-0.0000000000000009
 30
0.0
 11
40.02599999995994
 21
0.7545972719807246
 31
0.0
  0
LINE
  5
21194
330
21178
100
AcDbEntity
  8
0
  6
CONTINUOUS
100
AcDbLine
 10
39.9449219370594
 20
-0.0000000000000009
 30
0.0
 11
40.02599999995994
 21
0.0810780629005379
 31
0.0
  0
LINE
  5
21195
330
21178
100
AcDbEntity
  8
0
  6
CONTINUOUS
100
AcDbLine
 10
42.18817142235812
 20
2.916768694378905
 30
0.0
 11
43.16119791794597
 21
3.889795189966758
 31
0.0
  0
LINE
  5
21196
330
21178
100
AcDbEntity
  8
0
  6
CONTINUOUS
100
AcDbLine
 10
42.50563373493829
 20
2.560711797878898
 30
0.0
 11
43.47866023052615
 21
3.533738293466751
 31
0.0
  0
LINE
  5
21197
330
21178
100
AcDbEntity
  8
0
  6
CONTINUOUS
100
AcDbLine
 10
43.57899999995641
 20
4.307597271977198
 30
0.0
 11
44.99999999995498
 21
5.728597271975769
 31
0.0
  0
LINE
  5
21198
330
21178
100
AcDbEntity
  8
0
  6
CONTINUOUS
100
AcDbLine
 10
43.57899999995641
 20
3.634078062897011
 30
0.0
 11
44.99999999995498
 21
5.055078062895582
 31
0.0
  0
LINE
  5
21199
330
21178
100
AcDbEntity
  8
0
  6
CONTINUOUS
100
AcDbLine
 10
42.82309604751848
 20
2.204654901378891
 30
0.0
 11
44.99999999995498
 21
4.381558853815395
 31
0.0
  0
LINE
  5
2119A
330
21178
100
AcDbEntity
  8
0
  6
CONTINUOUS
100
AcDbLine
 10
43.14055836009865
 20
1.848598004878885
 30
0.0
 11
44.99999999995498
 21
3.70803964473521
 31
0.0
  0
LINE
  5
2119B
330
21178
100
AcDbEntity
  8
0
  6
CONTINUOUS
100
AcDbLine
 10
43.45802067267883
 20
1.492541108378878
 30
0.0
 11
44.99999999995498
 21
3.034520435655023
 31
0.0
  0
LINE
  5
2119C
330
21178
100
AcDbEntity
  8
0
  6
CONTINUOUS
100
AcDbLine
 10
43.77548298525902
 20
1.136484211878871
 30
0.0
 11
44.99999999995498
 21
2.361001226574837
 31
0.0
  0
LINE
  5
2119D
330
21178
100
AcDbEntity
  8
0
  6
CONTINUOUS
100
AcDbLine
 10
44.09294529783919
 20
0.7804273153788639
 30
0.0
 11
44.99999999995498
 21
1.687482017494649
 31
0.0
  0
LINE
  5
2119E
330
21178
100
AcDbEntity
  8
0
  6
CONTINUOUS
100
AcDbLine
 10
44.41040761041938
 20
0.4243704188788566
 30
0.0
 11
44.99999999995498
 21
1.013962808414463
 31
0.0
  0
LINE
  5
2119F
330
21178
100
AcDbEntity
  8
0
  6
CONTINUOUS
100
AcDbLine
 10
44.72786992299955
 20
0.0683135223788494
 30
0.0
 11
44.99999999995498
 21
0.340443599334276
 31
0.0
  0
LINE
  5
211A0
330
21178
100
AcDbEntity
  8
0
  6
CONTINUOUS
100
AcDbLine
 10
39.12223903415696
 20
-0.0000000000000009
 30
0.0
 11
38.60499999996136
 21
0.5172390341955961
 31
0.0
  0
LINE
  5
211A1
330
21178
100
AcDbEntity
  8
0
  6
CONTINUOUS
100
AcDbLine
 10
39.79575824323715
 20
-0.0000000000000009
 30
0.0
 11
38.60499999996136
 21
1.190758243275783
 31
0.0
  0
LINE
  5
211A2
330
21178
100
AcDbEntity
  8
0
  6
CONTINUOUS
100
AcDbLine
 10
40.02599999995994
 20
0.443277452357397
 30
0.0
 11
38.60499999996136
 21
1.864277452355969
 31
0.0
  0
LINE
  5
211A3
330
21178
100
AcDbEntity
  8
0
  6
CONTINUOUS
100
AcDbLine
 10
40.02599999995994
 20
1.116796661437583
 30
0.0
 11
38.60499999996136
 21
2.537796661436155
 31
0.0
  0
LINE
  5
211A4
330
21178
100
AcDbEntity
  8
0
  6
CONTINUOUS
100
AcDbLine
 10
40.02599999995994
 20
1.79031587051777
 30
0.0
 11
38.60499999996136
 21
3.211315870516341
 31
0.0
  0
LINE
  5
211A5
330
21178
100
AcDbEntity
  8
0
  6
CONTINUOUS
100
AcDbLine
 10
40.02599999995994
 20
2.463835079597956
 30
0.0
 11
38.60499999996136
 21
3.884835079596527
 31
0.0
  0
LINE
  5
211A6
330
21178
100
AcDbEntity
  8
0
  6
CONTINUOUS
100
AcDbLine
 10
40.02599999995994
 20
3.137354288678143
 30
0.0
 11
38.60499999996136
 21
4.558354288676714
 31
0.0
  0
LINE
  5
211A7
330
21178
100
AcDbEntity
  8
0
  6
CONTINUOUS
100
AcDbLine
 10
40.02599999995994
 20
3.810873497758329
 30
0.0
 11
38.60499999996136
 21
5.2318734977569
 31
0.0
  0
LINE
  5
211A8
330
21178
100
AcDbEntity
  8
0
  6
CONTINUOUS
100
AcDbLine
 10
40.02599999995994
 20
4.484392706838515
 30
0.0
 11
38.60499999996136
 21
5.905392706837086
 31
0.0
  0
LINE
  5
211A9
330
21178
100
AcDbEntity
  8
0
  6
CONTINUOUS
100
AcDbLine
 10
44.99999999995498
 20
0.183911915923658
 30
0.0
 11
41.53858364506288
 21
3.64532827081576
 31
0.0
  0
LINE
  5
211AA
330
21178
100
AcDbEntity
  8
0
  6
CONTINUOUS
100
AcDbLine
 10
40.02599999995994
 20
5.157911915918703
 30
0.0
 11
38.60499999996136
 21
6.578911915917274
 31
0.0
  0
LINE
  5
211AB
330
21178
100
AcDbEntity
  8
0
  6
CONTINUOUS
100
AcDbLine
 10
44.99999999995498
 20
0.8574311250038447
 30
0.0
 11
38.60499999996136
 21
7.25243112499746
 31
0.0
  0
LINE
  5
211AC
330
21178
100
AcDbEntity
  8
0
  6
CONTINUOUS
100
AcDbLine
 10
44.99999999995498
 20
1.530950334084031
 30
0.0
 11
38.60499999996136
 21
7.925950334077647
 31
0.0
  0
LINE
  5
211AD
330
21178
100
AcDbEntity
  8
0
  6
CONTINUOUS
100
AcDbLine
 10
44.99999999995498
 20
2.204469543164218
 30
0.0
 11
43.57899999995641
 21
3.625469543162789
 31
0.0
  0
LINE
  5
211AE
330
21178
100
AcDbEntity
  8
0
  6
CONTINUOUS
100
AcDbLine
 10
41.89876730984767
 20
5.305702233271528
 30
0.0
 11
38.60499999996136
 21
8.599469543157834
 31
0.0
  0
LINE
  5
211AF
330
21178
100
AcDbEntity
  8
0
  6
CONTINUOUS
100
AcDbLine
 10
44.99999999995498
 20
2.877988752244405
 30
0.0
 11
43.57899999995641
 21
4.298988752242975
 31
0.0
  0
LINE
  5
211B0
330
21178
100
AcDbEntity
  8
0
  6
CONTINUOUS
100
AcDbLine
 10
44.99999999995498
 20
3.551507961324591
 30
0.0
 11
43.57899999995641
 21
4.972507961323163
 31
0.0
  0
LINE
  5
211B1
330
21178
100
AcDbEntity
  8
0
  6
CONTINUOUS
100
AcDbLine
 10
44.99999999995498
 20
4.225027170404777
 30
0.0
 11
43.57899999995641
 21
5.646027170403348
 31
0.0
  0
LINE
  5
211B2
330
21178
100
AcDbEntity
  8
0
  6
CONTINUOUS
100
AcDbLine
 10
44.99999999995498
 20
4.898546379484964
 30
0.0
 11
43.57899999995641
 21
6.319546379483535
 31
0.0
  0
LINE
  5
211B3
330
21178
100
AcDbEntity
  8
0
  6
CONTINUOUS
100
AcDbLine
 10
44.99999999995498
 20
5.572065588565151
 30
0.0
 11
43.57899999995641
 21
6.993065588563722
 31
0.0
  0
LINE
  5
211B4
330
21178
100
AcDbEntity
  8
0
  6
CONTINUOUS
100
AcDbLine
 10
44.99999999995498
 20
6.245584797645336
 30
0.0
 11
43.57899999995641
 21
7.666584797643908
 31
0.0
  0
LINE
  5
211B5
330
21178
100
AcDbEntity
  8
0
  6
CONTINUOUS
100
AcDbLine
 10
44.99999999995498
 20
6.919104006725522
 30
0.0
 11
43.57899999995641
 21
8.340104006724093
 31
0.0
  0
LINE
  5
211B6
330
21178
100
AcDbEntity
  8
0
  6
CONTINUOUS
100
AcDbLine
 10
44.99999999995498
 20
7.592623215805709
 30
0.0
 11
43.82952321576943
 21
8.763099999991255
 31
0.0
  0
LINE
  5
211B7
330
21178
100
AcDbEntity
  8
0
  6
CONTINUOUS
100
AcDbLine
 10
44.99999999995498
 20
8.266142424885896
 30
0.0
 11
44.50304242484962
 21
8.763099999991255
 31
0.0
  0
ENDBLK
  5
211E1
330
21178
100
AcDbEntity
  8
0
100
AcDbBlockEnd
  0
BLOCK
  5
211E2
330
211B8
100
AcDbEntity
  8
0
100
AcDbBlockBegin
  2
*X52
 70
     1
 10
0.0
 20
0.0
 30
0.0
  3
*X52
  1

  0
LINE
  5
211B9
330
211B8
100
AcDbEntity
  8
0
  6
CONTINUOUS
100
AcDbLine
 10
0.0
 20
8.548461116714023
 30
0.0
 11
0.2146388832772324
 21
8.763099999991255
 31
0.0
  0
LINE
  5
211BA
330
211B8
100
AcDbEntity
  8
0
  6
CONTINUOUS
100
AcDbLine
 10
-0.0000000000000002
 20
7.874941907633837
 30
0.0
 11
0.8881580923574184
 21
8.763099999991255
 31
0.0
  0
LINE
  5
211BB
330
211B8
100
AcDbEntity
  8
0
  6
CONTINUOUS
100
AcDbLine
 10
0.0
 20
7.20142269855365
 30
0.0
 11
1.420999999998572
 21
8.622422698552223
 31
0.0
  0
LINE
  5
211BC
330
211B8
100
AcDbEntity
  8
0
  6
CONTINUOUS
100
AcDbLine
 10
-0.0000000000000001
 20
6.527903489473465
 30
0.0
 11
1.420999999998571
 21
7.948903489472036
 31
0.0
  0
LINE
  5
211BD
330
211B8
100
AcDbEntity
  8
0
  6
CONTINUOUS
100
AcDbLine
 10
-0.0000000000000002
 20
5.854384280393278
 30
0.0
 11
1.420999999998571
 21
7.275384280391849
 31
0.0
  0
LINE
  5
211BE
330
211B8
100
AcDbEntity
  8
0
  6
CONTINUOUS
100
AcDbLine
 10
-0.0000000000000002
 20
5.180865071313091
 30
0.0
 11
1.420999999998571
 21
6.601865071311663
 31
0.0
  0
LINE
  5
211BF
330
211B8
100
AcDbEntity
  8
0
  6
CONTINUOUS
100
AcDbLine
 10
0.0
 20
4.507345862232905
 30
0.0
 11
1.420999999998571
 21
5.928345862231477
 31
0.0
  0
LINE
  5
211C0
330
211B8
100
AcDbEntity
  8
0
  6
CONTINUOUS
100
AcDbLine
 10
-0.0000000000000003
 20
3.833826653152718
 30
0.0
 11
1.420999999998571
 21
5.25482665315129
 31
0.0
  0
LINE
  5
211C1
330
211B8
100
AcDbEntity
  8
0
  6
CONTINUOUS
100
AcDbLine
 10
-0.0000000000000002
 20
3.160307444072532
 30
0.0
 11
1.420999999998571
 21
4.581307444071103
 31
0.0
  0
LINE
  5
211C2
330
211B8
100
AcDbEntity
  8
0
  6
CONTINUOUS
100
AcDbLine
 10
-0.0000000000000001
 20
2.486788234992345
 30
0.0
 11
1.420999999998571
 21
3.907788234990917
 31
0.0
  0
LINE
  5
211C3
330
211B8
100
AcDbEntity
  8
0
  6
CONTINUOUS
100
AcDbLine
 10
-0.0000000000000006
 20
1.813269025912159
 30
0.0
 11
1.420999999998571
 21
3.234269025910731
 31
0.0
  0
LINE
  5
211C4
330
211B8
100
AcDbEntity
  8
0
  6
CONTINUOUS
100
AcDbLine
 10
0.0
 20
1.139749816831973
 30
0.0
 11
1.420999999998571
 21
2.560749816830544
 31
0.0
  0
LINE
  5
211C5
330
211B8
100
AcDbEntity
  8
0
  6
CONTINUOUS
100
AcDbLine
 10
0.0000000000000002
 20
0.466230607751787
 30
0.0
 11
1.420999999998571
 21
1.887230607750358
 31
0.0
  0
LINE
  5
211C6
330
211B8
100
AcDbEntity
  8
0
  6
CONTINUOUS
100
AcDbLine
 10
0.2072886013284003
 20
-0.0000000000000009
 30
0.0
 11
1.420999999998571
 21
1.213711398670171
 31
0.0
  0
LINE
  5
211C7
330
211B8
100
AcDbEntity
  8
0
  6
CONTINUOUS
100
AcDbLine
 10
0.8808078104085864
 20
-0.0000000000000009
 30
0.0
 11
1.420999999998571
 21
0.5401921895899839
 31
0.0
  0
LINE
  5
211C8
330
211B8
100
AcDbEntity
  8
0
  6
CONTINUOUS
100
AcDbLine
 10
0.0581249075061505
 20
-0.0000000000000009
 30
0.0
 11
-0.0000000000000002
 21
0.0581249075061496
 31
0.0
  0
LINE
  5
211C9
330
211B8
100
AcDbEntity
  8
0
  6
CONTINUOUS
100
AcDbLine
 10
0.7316441165863372
 20
-0.0000000000000009
 30
0.0
 11
-0.0000000000000002
 21
0.7316441165863363
 31
0.0
  0
LINE
  5
211CA
330
211B8
100
AcDbEntity
  8
0
  6
CONTINUOUS
100
AcDbLine
 10
1.405163325666523
 20
-0.0000000000000009
 30
0.0
 11
-0.0000000000000002
 21
1.405163325666523
 31
0.0
  0
LINE
  5
211CB
330
211B8
100
AcDbEntity
  8
0
  6
CONTINUOUS
100
AcDbLine
 10
1.420999999998572
 20
0.6576825347481381
 30
0.0
 11
-0.0000000000000001
 21
2.07868253474671
 31
0.0
  0
LINE
  5
211CC
330
211B8
100
AcDbEntity
  8
0
  6
CONTINUOUS
100
AcDbLine
 10
1.420999999998571
 20
1.331201743828324
 30
0.0
 11
-0.0000000000000001
 21
2.752201743826896
 31
0.0
  0
LINE
  5
211CD
330
211B8
100
AcDbEntity
  8
0
  6
CONTINUOUS
100
AcDbLine
 10
1.420999999998571
 20
2.004720952908511
 30
0.0
 11
-0.0000000000000002
 21
3.425720952907082
 31
0.0
  0
LINE
  5
211CE
330
211B8
100
AcDbEntity
  8
0
  6
CONTINUOUS
100
AcDbLine
 10
1.420999999998571
 20
2.678240161988697
 30
0.0
 11
-0.0000000000000001
 21
4.099240161987269
 31
0.0
  0
LINE
  5
211CF
330
211B8
100
AcDbEntity
  8
0
  6
CONTINUOUS
100
AcDbLine
 10
1.420999999998572
 20
3.351759371068884
 30
0.0
 11
0.0
 21
4.772759371067455
 31
0.0
  0
LINE
  5
211D0
330
211B8
100
AcDbEntity
  8
0
  6
CONTINUOUS
100
AcDbLine
 10
1.420999999998571
 20
4.02527858014907
 30
0.0
 11
-0.0000000000000003
 21
5.446278580147642
 31
0.0
  0
LINE
  5
211D1
330
211B8
100
AcDbEntity
  8
0
  6
CONTINUOUS
100
AcDbLine
 10
1.420999999998571
 20
4.698797789229257
 30
0.0
 11
0.0
 21
6.119797789227828
 31
0.0
  0
LINE
  5
211D2
330
211B8
100
AcDbEntity
  8
0
  6
CONTINUOUS
100
AcDbLine
 10
1.420999999998571
 20
5.372316998309444
 30
0.0
 11
-0.0000000000000001
 21
6.793316998308015
 31
0.0
  0
LINE
  5
211D3
330
211B8
100
AcDbEntity
  8
0
  6
CONTINUOUS
100
AcDbLine
 10
1.420999999998572
 20
6.045836207389629
 30
0.0
 11
-0.0000000000000004
 21
7.466836207388202
 31
0.0
  0
LINE
  5
211D4
330
211B8
100
AcDbEntity
  8
0
  6
CONTINUOUS
100
AcDbLine
 10
1.420999999998571
 20
6.719355416469816
 30
0.0
 11
0.0
 21
8.140355416468388
 31
0.0
  0
LINE
  5
211D5
330
211B8
100
AcDbEntity
  8
0
  6
CONTINUOUS
100
AcDbLine
 10
1.420999999998571
 20
7.392874625550003
 30
0.0
 11
0.0507746255573185
 21
8.763099999991255
 31
0.0
  0
LINE
  5
211D6
330
211B8
100
AcDbEntity
  8
0
  6
CONTINUOUS
100
AcDbLine
 10
1.420999999998571
 20
8.06639383463019
 30
0.0
 11
0.7242938346375052
 21
8.763099999991255
 31
0.0
  0
LINE
  5
211D7
330
211B8
100
AcDbEntity
  8
0
  6
CONTINUOUS
100
AcDbLine
 10
1.420999999998571
 20
8.739913043710375
 30
0.0
 11
1.397813043717691
 21
8.763099999991255
 31
0.0
  0
ENDBLK
  5
211E3
330
211B8
100
AcDbEntity
  8
0
100
AcDbBlockEnd
  0
ENDSEC
  0
SECTION
  2
ENTITIES
  0
LINE
  5
1D8CA
330
18
100
AcDbEntity
  8
01
100
AcDbLine
 10
743.016241615365
 20
-642.0713303512658
 30
0.0
 11
743.016241615365
 21
-664.2213303512673
 31
0.0
  0
LINE
  5
1D90A
330
18
100
AcDbEntity
  8
01
100
AcDbLine
 10
743.016241615365
 20
-644.5713303512665
 30
0.0
 11
743.016241615365
 21
-662.2213303512659
 31
0.0
  0
TEXT
  5
1DB93
330
18
100
AcDbEntity
  8
1TEXT
100
AcDbText
 10
521.5039948787517
 20
-478.525441490976
 30
0.0
 40
4.0
  1
表面処理
 72
     1
 11
530.7706615454183
 21
-478.525441490976
 31
0.0
100
AcDbText
  0
LINE
  5
1DB94
330
18
100
AcDbEntity
  8
1DIM
100
AcDbLine
 10
513.3706615454182
 20
-473.025441490976
 30
0.0
 11
583.3706615454182
 21
-473.025441490976
 31
0.0
  0
LINE
  5
1DB95
330
18
100
AcDbEntity
  8
1DIM
100
AcDbLine
 10
513.3706615454182
 20
-487.025441490976
 30
0.0
 11
583.3706615454182
 21
-487.025441490976
 31
0.0
  0
LINE
  5
1DB96
330
18
100
AcDbEntity
  8
1DIM
100
AcDbLine
 10
513.3706615454182
 20
-480.025441490976
 30
0.0
 11
583.3706615454182
 21
-480.025441490976
 31
0.0
  0
LINE
  5
1DB97
330
18
100
AcDbEntity
  8
1DIM
100
AcDbLine
 10
548.3706615454182
 20
-473.025441490976
 30
0.0
 11
548.3706615454175
 21
-494.025441490976
 31
0.0
  0
TEXT
  5
1DB98
330
18
100
AcDbEntity
  8
1TEXT
100
AcDbText
 10
558.9039948787516
 20
-478.525441490976
 30
0.0
 40
4.0
  1
コード
 72
     1
 11
565.7706615454183
 21
-478.525441490976
 31
0.0
100
AcDbText
  0
LINE
  5
1DB99
330
18
100
AcDbEntity
  8
1DIM
100
AcDbLine
 10
513.3706615454182
 20
-494.025441490976
 30
0.0
 11
513.3706615454182
 21
-473.025441490976
 31
0.0
  0
LINE
  5
1DB9A
330
18
100
AcDbEntity
  8
1DIM
100
AcDbLine
 10
583.3706615454179
 20
-494.025441490976
 30
0.0
 11
583.3706615454182
 21
-473.025441490976
 31
0.0
  0
TEXT
  5
1DB9B
330
18
100
AcDbEntity
  8
1TEXT
100
AcDbText
 10
513.3706615454182
 20
-468.025441490976
 30
0.0
 40
8.0
  1
SE-391-X
100
AcDbText
  0
TEXT
  5
1DB9C
330
18
100
AcDbEntity
  8
1TEXT
100
AcDbText
 10
516.1306615454183
 20
-485.3607301505003
 30
0.0
 40
4.0
  1
マットブラック
 41
0.9
 72
     1
 11
530.7706615454183
 21
-485.3607301505003
 31
0.0
100
AcDbText
  0
TEXT
  5
1DB9D
330
18
100
AcDbEntity
  8
1TEXT
100
AcDbText
 10
550.4698745083815
 20
-485.7397984746253
 30
0.0
 40
4.0
  1
SE-391-003
 41
0.85
 72
     1
 11
565.7706615454185
 21
-485.7397984746253
 31
0.0
100
AcDbText
  0
LINE
  5
1DB9E
330
18
100
AcDbEntity
  8
1DIM
100
AcDbLine
 10
513.3706615454182
 20
-494.025441490976
 30
0.0
 11
583.3706615454182
 21
-494.025441490976
 31
0.0
  0
TEXT
  5
1DB9F
330
18
100
AcDbEntity
  8
1TEXT
100
AcDbText
 10
514.0306615454183
 20
-492.3607301505003
 30
0.0
 40
4.0
  1
ブラストシルバー
 41
0.9
 72
     1
 11
530.7706615454183
 21
-492.3607301505003
 31
0.0
100
AcDbText
  0
LINE
  5
1DBA4
102
{ACAD_REACTORS
330
1EDFD
102
}
330
18
100
AcDbEntity
  8
01
100
AcDbLine
 10
755.516241615365
 20
-609.9931567659845
 30
0.0
 11
755.516241615365
 21
-684.4495039365482
 31
0.0
  0
LINE
  5
1DBA5
102
{ACAD_REACTORS
330
1EDFD
102
}
330
18
100
AcDbEntity
  8
01
100
AcDbLine
 10
764.516241615365
 20
-609.9931567659845
 30
0.0
 11
764.516241615365
 21
-684.4495039365482
 31
0.0
  0
LINE
  5
1DBA6
102
{ACAD_REACTORS
330
1EDFD
102
}
330
18
100
AcDbEntity
  8
01
100
AcDbLine
 10
743.016241615365
 20
-609.9931567659845
 30
0.0
 11
743.016241615365
 21
-684.4495039365482
 31
0.0
  0
LINE
  5
1E7B5
102
{ACAD_REACTORS
330
1E7BB
102
}
330
18
100
AcDbEntity
  8
01
100
AcDbLine
 10
630.5162508828986
 20
-539.8213303512664
 30
0.0
 11
629.5162511828986
 21
-538.8213303512664
 31
0.0
  0
LINE
  5
1E7B6
102
{ACAD_REACTORS
330
1E7BB
102
}
330
18
100
AcDbEntity
  8
01
100
AcDbLine
 10
633.8162510328985
 20
-539.8213303512664
 30
0.0
 11
633.8162510328985
 21
-538.8213303512664
 31
0.0
  0
LINE
  5
1E7B7
102
{ACAD_REACTORS
330
1E7BB
102
}
330
18
100
AcDbEntity
  8
01
100
AcDbLine
 10
633.8162510328985
 20
-538.8213303512664
 30
0.0
 11
626.2162510328986
 21
-538.8213303512664
 31
0.0
  0
LINE
  5
1E7B8
102
{ACAD_REACTORS
330
1E7BB
102
}
330
18
100
AcDbEntity
  8
01
100
AcDbLine
 10
633.8162510328985
 20
-539.8213303512664
 30
0.0
 11
626.2162510328986
 21
-539.8213303512664
 31
0.0
  0
LINE
  5
1E7B9
102
{ACAD_REACTORS
330
1E7BB
102
}
330
18
100
AcDbEntity
  8
01
100
AcDbLine
 10
626.2162510328986
 20
-539.8213303512664
 30
0.0
 11
626.2162510328986
 21
-538.8213303512664
 31
0.0
  0
LINE
  5
1E9CD
102
{ACAD_REACTORS
330
1E9D3
102
}
330
18
100
AcDbEntity
  8
01
100
AcDbLine
 10
739.016241615365
 20
-647.7213302012669
 30
0.0
 11
740.016241615365
 21
-646.721330501267
 31
0.0
  0
LINE
  5
1E9CE
102
{ACAD_REACTORS
330
1E9D3
102
}
330
18
100
AcDbEntity
  8
01
100
AcDbLine
 10
739.016241615365
 20
-651.0213303512669
 30
0.0
 11
740.016241615365
 21
-651.0213303512669
 31
0.0
  0
LINE
  5
1E9CF
102
{ACAD_REACTORS
330
1E9D3
102
}
330
18
100
AcDbEntity
  8
01
100
AcDbLine
 10
740.016241615365
 20
-651.0213303512669
 30
0.0
 11
740.016241615365
 21
-643.421330351267
 31
0.0
  0
LINE
  5
1E9D0
102
{ACAD_REACTORS
330
1E9D3
102
}
330
18
100
AcDbEntity
  8
01
100
AcDbLine
 10
739.016241615365
 20
-651.0213303512669
 30
0.0
 11
739.016241615365
 21
-643.421330351267
 31
0.0
  0
LINE
  5
1E9D1
102
{ACAD_REACTORS
330
1E9D3
102
}
330
18
100
AcDbEntity
  8
01
100
AcDbLine
 10
739.016241615365
 20
-643.421330351267
 30
0.0
 11
740.016241615365
 21
-643.421330351267
 31
0.0
  0
TEXT
  5
1EE4F
330
18
100
AcDbEntity
  8
1TEXT
100
AcDbText
 10
550.3990411750482
 20
-492.7397984746253
 30
0.0
 40
4.0
  1
SE-391-040
 41
0.85
 72
     1
 11
565.7706615454185
 21
-492.7397984746253
 31
0.0
100
AcDbText
  0
SPLINE
  5
20C6B
330
18
100
AcDbEntity
  8
01
  6
CONTINUOUS
100
AcDbSpline
210
0.0
220
0.0
230
1.0
 70
     8
 71
     3
 72
    40
 73
    36
 74
     0
 42
0.000000001
 43
0.00000001
 40
0.0
 40
0.0
 40
0.0
 40
0.0
 40
0.0758361528878213
 40
0.1470457494403764
 40
0.2181526925519529
 40
0.2556198305283273
 40
0.2940303370213909
 40
0.330794668474204
 40
0.3599475884618323
 40
0.3909104244875003
 40
0.3966995764876238
 40
0.4013966327536956
 40
0.4053332650096532
 40
0.4071862092406426
 40
0.4090620167712314
 40
0.4131689199541203
 40
0.42105379712992
 40
0.4311338135883819
 40
0.4427596064279468
 40
0.451601947888988
 40
0.4551092659514013
 40
0.4581257535676255
 40
0.4608112141687616
 40
0.4633953847113979
 40
0.4661293501989592
 40
0.4692287458731388
 40
0.4770667462117947
 40
0.5010723028365993
 40
0.5374608168431327
 40
0.5849228850066529
 40
0.6379175498800038
 40
0.6960406015048078
 40
0.8129903172821102
 40
0.9462250752998901
 40
1.0
 40
1.0
 40
1.0
 40
1.0
 10
641.6301206999523
 20
-643.2872001669135
 30
0.0
 10
641.6646734282767
 20
-643.2087558750186
 30
0.0
 10
641.7316709174451
 20
-643.0566529629934
 30
0.0
 10
641.8450810326894
 20
-642.8568165859367
 30
0.0
 10
641.9286703379314
 20
-642.7273260360964
 30
0.0
 10
641.9837961943566
 20
-642.6474279476549
 30
0.0
 10
642.0178750984567
 20
-642.5991384955396
 30
0.0
 10
642.0522759974822
 20
-642.552633245048
 30
0.0
 10
642.0876856653881
 20
-642.5072479280011
 30
0.0
 10
642.1153672357619
 20
-642.4733885360324
 30
0.0
 10
642.1398581978168
 20
-642.4454144582363
 30
0.0
 10
642.1497110665441
 20
-642.4344051330288
 30
0.0
 10
642.1578545208613
 20
-642.425559762051
 30
0.0
 10
642.1637129799145
 20
-642.4193150375378
 30
0.0
 10
642.1693719957944
 20
-642.4133595629619
 30
0.0
 10
642.1778387635072
 20
-642.4046345129059
 30
0.0
 10
642.1866512668066
 20
-642.3959639575212
 30
0.0
 10
642.1938385811584
 20
-642.3892290806657
 30
0.0
 10
642.2037604948221
 20
-642.3796637546709
 30
0.0
 10
642.2139289601258
 20
-642.3696444965774
 30
0.0
 10
642.2225959376876
 20
-642.3610240824742
 30
0.0
 10
642.2287422602145
 20
-642.3548766949889
 30
0.0
 10
642.2350741177935
 20
-642.3484885229357
 30
0.0
 10
642.2415446880946
 20
-642.3419546191672
 30
0.0
 10
642.2479661112328
 20
-642.3354491689986
 30
0.0
 10
642.2570924947125
 20
-642.3261634913363
 30
0.0
 10
642.2750352951997
 20
-642.3078966961743
 30
0.0
 10
642.2961807273592
 20
-642.2861829425927
 30
0.0
 10
642.3193313672153
 20
-642.262411933446
 30
0.0
 10
642.3404870188319
 20
-642.2404495376156
 30
0.0
 10
642.360737254641
 20
-642.2194425015014
 30
0.0
 10
642.3830169118058
 20
-642.1959439095511
 30
0.0
 10
642.4011467324782
 20
-642.1752260770759
 30
0.0
 10
642.4096242682292
 20
-642.1631630974838
 30
0.0
 10
642.4060527741773
 20
-642.1618273189811
 30
0.0
 10
642.4050257855159
 20
-642.1614432137982
 30
0.0
  0
SPLINE
  5
20C6C
330
18
100
AcDbEntity
  8
01
100
AcDbSpline
210
0.0
220
0.0
230
1.0
 70
     8
 71
     3
 72
    14
 73
    10
 74
     0
 42
0.000000001
 43
0.00000001
 40
0.0
 40
0.0
 40
0.0
 40
0.0
 40
0.1814200177527772
 40
0.3409242762766103
 40
0.4734933179566282
 40
0.5765195552532445
 40
0.6670644140463529
 40
0.7672626683913567
 40
1.0
 40
1.0
 40
1.0
 40
1.0
 10
634.8183677845699
 20
-660.1978975004282
 30
0.0
 10
634.8868252449935
 20
-660.1944758897796
 30
0.0
 10
635.0154704211968
 20
-660.1880460032185
 30
0.0
 10
635.1870279282806
 20
-660.1356482090412
 30
0.0
 10
635.3206991819155
 20
-660.0715230692307
 30
0.0
 10
635.4229195272635
 20
-660.0034345711913
 30
0.0
 10
635.5065871812551
 20
-659.9348738464121
 30
0.0
 10
635.6069198521445
 20
-659.8372559184324
 30
0.0
 10
635.6587363041068
 20
-659.7534040536437
 30
0.0
 10
635.6949583941204
 20
-659.6947877323952
 30
0.0
  0
LINE
  5
20C8D
330
18
100
AcDbEntity
  8
01
  6
CONTINUOUS
100
AcDbLine
 10
620.0162397080165
 20
-640.4213303821858
 30
0.0
 11
620.0162397080165
 21
-641.4213303714756
 31
0.0
  0
LINE
  5
20C8E
330
18
100
AcDbEntity
  8
01
  6
CONTINUOUS
100
AcDbLine
 10
620.0162397080165
 20
-641.4213303714756
 30
0.0
 11
405.0162361317379
 21
-641.4213303714756
 31
0.0
  0
LINE
  5
20C91
330
18
100
AcDbEntity
  8
01
  6
CONTINUOUS
100
AcDbLine
 10
620.0162397080165
 20
-629.4213306746211
 30
0.0
 11
405.0162361317379
 21
-629.4213306746211
 31
0.0
  0
LINE
  5
20C92
330
18
100
AcDbEntity
  8
01
  6
CONTINUOUS
100
AcDbLine
 10
620.0162397080165
 20
-640.4213303821858
 30
0.0
 11
620.0162397080165
 21
-629.4213306746211
 31
0.0
  0
LINE
  5
20C95
330
18
100
AcDbEntity
  8
01
  6
CONTINUOUS
100
AcDbLine
 10
620.8162383490306
 20
-628.6213301709619
 30
0.0
 11
633.4020273142559
 21
-628.6213301709619
 31
0.0
  0
SPLINE
  5
20C96
330
18
100
AcDbEntity
  8
01
100
AcDbSpline
210
0.0
220
0.0
230
1.0
 70
     8
 71
     3
 72
    17
 73
    13
 74
     0
 42
0.000000001
 43
0.00000001
 40
0.0
 40
0.0
 40
0.0
 40
0.0
 40
0.0509810876432405
 40
0.1140292624716942
 40
0.1898553823074812
 40
0.2790856344387412
 40
0.4267744314975379
 40
0.5614621005630992
 40
0.7115487532489676
 40
0.8508691104813736
 40
0.9257404812626598
 40
1.0
 40
1.0
 40
1.0
 40
1.0
 10
623.1020224612198
 20
-642.2213306871722
 30
0.0
 10
623.0906655596028
 20
-642.2206507366219
 30
0.0
 10
623.0652636081104
 20
-642.2191298930436
 30
0.0
 10
623.0232974645431
 20
-642.2046412654435
 30
0.0
 10
622.9737574382722
 20
-642.1739768471105
 30
0.0
 10
622.9065364072767
 20
-642.1091408790201
 30
0.0
 10
622.8314439629612
 20
-641.9943379437893
 30
0.0
 10
622.7541732381424
 20
-641.8118660977868
 30
0.0
 10
622.6902792361303
 20
-641.5894567685066
 30
0.0
 10
622.6486845964189
 20
-641.3671115588627
 30
0.0
 10
622.6246666391871
 20
-641.1784260915456
 30
0.0
 10
622.6165769898403
 20
-641.0765550645458
 30
0.0
 10
622.6125487602146
 20
-641.0258285285297
 30
0.0
  0
LINE
  5
20C97
330
18
100
AcDbEntity
  8
01
  6
CONTINUOUS
100
AcDbLine
 10
623.1020168715221
 20
-642.2213306871722
 30
0.0
 11
620.8162383490306
 21
-642.221330381862
 31
0.0
  0
LINE
  5
20C98
330
18
100
AcDbEntity
  8
01
  6
CONTINUOUS
100
AcDbLine
 10
620.0162397080165
 20
-640.7213303382274
 30
0.0
 11
620.0162397080165
 21
-640.4213303821858
 31
0.0
  0
SPLINE
  5
20C99
330
18
100
AcDbEntity
  8
01
100
AcDbSpline
210
0.0
220
0.0
230
1.0
 70
     8
 71
     3
 72
    14
 73
    10
 74
     0
 42
0.000000001
 43
0.00000001
 40
0.0
 40
0.0
 40
0.0
 40
0.0
 40
0.2500000000000001
 40
0.2500000000000001
 40
0.5000000000000001
 40
0.5000000000000001
 40
0.75
 40
0.75
 40
1.0
 40
1.0
 40
1.0
 40
1.0
 10
620.8162359086629
 20
-642.2213303818621
 30
0.0
 10
620.7219550122132
 20
-642.221330355525
 30
0.0
 10
620.6202377258905
 20
-642.2041473388798
 30
0.0
 10
620.4232826529201
 20
-642.126174567924
 30
0.0
 10
620.3286554447363
 20
-642.0651205699414
 30
0.0
 10
620.1724457844414
 20
-641.9089108585281
 30
0.0
 10
620.11139182018
 20
-641.8142836334516
 30
0.0
 10
620.0334191160922
 20
-641.617328548813
 30
0.0
 10
620.0162361320798
 20
-641.5156112673615
 30
0.0
 10
620.0162361320772
 20
-641.4213303818192
 30
0.0
  0
SPLINE
  5
20C9A
330
18
100
AcDbEntity
  8
01
  6
CONTINUOUS
100
AcDbSpline
210
0.0
220
0.0
230
1.0
 70
    24
 71
     3
 72
    17
 73
    13
 74
     0
 42
0.000000001
 43
0.00000001
 40
0.0
 40
0.0
 40
0.0
 40
0.0
 40
0.0627647914528716
 40
0.1249837801295822
 40
0.187266638851783
 40
0.2502211848519768
 40
0.3749294219716509
 40
0.500145770758059
 40
0.6248540078736614
 40
0.750070356656215
 40
0.8749083933865247
 40
1.0
 40
1.0
 40
1.0
 40
1.0
 10
620.0162361321494
 20
-641.4213303818217
 30
0.0
 10
620.0162361321536
 20
-641.4206973969574
 30
0.0
 10
620.0162361321618
 20
-641.4194369316665
 30
0.0
 10
620.016236132174
 20
-641.4090444763947
 30
0.0
 10
620.0162361321862
 20
-641.3923792971367
 30
0.0
 10
620.0162361322023
 20
-641.3614352293962
 30
0.0
 10
620.0162361322217
 20
-641.3073741817768
 30
0.0
 10
620.0162361322427
 20
-641.2195384562829
 30
0.0
 10
620.0162361322612
 20
-641.1129616284835
 30
0.0
 10
620.0162361322755
 20
-640.9910132153889
 30
0.0
 10
620.0162361322864
 20
-640.858880865419
 30
0.0
 10
620.0162361322897
 20
-640.7672115445247
 30
0.0
 10
620.0162361322913
 20
-640.7213303818326
 30
0.0
  0
SPLINE
  5
20C9D
330
18
100
AcDbEntity
  8
01
  6
CONTINUOUS
100
AcDbSpline
210
0.0
220
0.0
230
1.0
 70
     8
 71
     3
 72
    26
 73
    22
 74
     0
 42
0.000000001
 43
0.00000001
 40
0.0
 40
0.0
 40
0.0
 40
0.0
 40
0.0194539219290418
 40
0.038873253970256
 40
0.058276078404286
 40
0.0776805236603051
 40
0.0971047136293891
 40
0.1165667170412037
 40
0.1783152236586917
 40
0.2400936317684177
 40
0.3044157777650366
 40
0.3687690717837472
 40
0.5000066969007156
 40
0.6312443220178269
 40
0.6955664705170457
 40
0.759919767048461
 40
0.8216682772062806
 40
0.8834466888699491
 40
0.9223155076087496
 40
0.9611182433776863
 40
1.0
 40
1.0
 40
1.0
 40
1.0
 10
620.0162361322989
 20
-640.4213303512254
 30
0.0
 10
620.0162361323015
 20
-640.3093568249992
 30
0.0
 10
620.0162361323067
 20
-640.0856088661658
 30
0.0
 10
620.0162361323125
 20
-639.7504917833372
 30
0.0
 10
620.0162361323165
 20
-639.4162822419169
 30
0.0
 10
620.0162361323186
 20
-639.0829833690561
 30
0.0
 10
620.0162361323189
 20
-638.7505873715086
 30
0.0
 10
620.0162361323162
 20
-638.1794556956878
 30
0.0
 10
620.0162361323031
 20
-637.3769239296114
 30
0.0
 10
620.016236132267
 20
-636.3521323683683
 30
0.0
 10
620.0162361322117
 20
-635.3526426369399
 30
0.0
 10
620.0162361321105
 20
-634.0591162191251
 30
0.0
 10
620.0162361319361
 20
-632.5875295371341
 30
0.0
 10
620.0162361317056
 20
-631.3931149922242
 30
0.0
 10
620.0162361314956
 20
-630.6374443640252
 30
0.0
 10
620.01623613133
 20
-630.182544057966
 30
0.0
 10
620.0162361311573
 20
-629.8329057691162
 30
0.0
 10
620.0162361310012
 20
-629.6181535129188
 30
0.0
 10
620.0162361308636
 20
-629.4966786205852
 30
0.0
 10
620.0162361307466
 20
-629.4330644136936
 30
0.0
 10
620.0162361306676
 20
-629.4252443569128
 30
0.0
 10
620.016236130628
 20
-629.4213303512322
 30
0.0
  0
LINE
  5
20C9F
330
18
100
AcDbEntity
  8
01
  6
CONTINUOUS
100
AcDbLine
 10
642.0162302449432
 20
-642.2213317293686
 30
0.0
 11
623.1020168715221
 21
-642.2213306871722
 31
0.0
  0
LINE
  5
20CA0
330
18
100
AcDbEntity
  8
01
  6
CONTINUOUS
100
AcDbLine
 10
620.8162383490306
 20
-642.2213288494929
 30
0.0
 11
620.8162383490306
 21
-642.2213303818619
 31
0.0
  0
LINE
  5
20CA2
330
18
100
AcDbEntity
  8
01
  6
CONTINUOUS
100
AcDbLine
 10
633.4020273142559
 20
-628.6213301709619
 30
0.0
 11
639.9659888201458
 21
-628.6213301709619
 31
0.0
  0
SPLINE
  5
20CA3
330
18
100
AcDbEntity
  8
01
  6
CONTINUOUS
100
AcDbSpline
210
0.0
220
0.0
230
1.0
 70
     8
 71
     3
 72
    17
 73
    13
 74
     0
 42
0.000000001
 43
0.00000001
 40
0.0
 40
0.0
 40
0.0
 40
0.0
 40
0.0602429937217822
 40
0.1199994426733184
 40
0.1798082619075141
 40
0.2402069646521749
 40
0.3699548045145694
 40
0.5001294914424274
 40
0.6298775062444557
 40
0.7600523686864118
 40
0.8799221124894736
 40
0.9999999999999999
 40
0.9999999999999999
 40
0.9999999999999999
 40
0.9999999999999999
 10
620.0162361216499
 20
-629.421330351246
 30
0.0
 10
620.0169039934277
 20
-629.3961175291818
 30
0.0
 10
620.0182343430032
 20
-629.3458955131595
 30
0.0
 10
620.0291873218455
 20
-629.2713031204153
 30
0.0
 10
620.0467443647069
 20
-629.1979904997893
 30
0.0
 10
620.08074423924
 20
-629.098973410715
 30
0.0
 10
620.14258877199
 20
-628.9789144922416
 30
0.0
 10
620.2465979344162
 20
-628.8519790743248
 30
0.0
 10
620.3736920402604
 20
-628.7476712006866
 30
0.0
 10
620.5159191666538
 20
-628.674803136282
 30
0.0
 10
620.6653502043234
 20
-628.629315854334
 30
0.0
 10
620.76591173698
 20
-628.6239937245243
 30
0.0
 10
620.8162361195969
 20
-628.6213303512661
 30
0.0
  0
LINE
  5
20CA4
330
18
100
AcDbEntity
  8
01
  6
CONTINUOUS
100
AcDbLine
 10
643.0162416153652
 20
-629.6213303348746
 30
0.0
 11
643.016230300044
 21
-641.2213327048271
 31
0.0
  0
SPLINE
  5
20CA5
330
18
100
AcDbEntity
  8
01
  6
CONTINUOUS
100
AcDbSpline
210
0.0
220
0.0
230
1.0
 70
     8
 71
     3
 72
    14
 73
    10
 74
     0
 42
0.000000001
 43
0.00000001
 40
0.0
 40
0.0
 40
0.0
 40
0.0
 40
0.25
 40
0.25
 40
0.5
 40
0.5
 40
0.75
 40
0.75
 40
1.0
 40
1.0
 40
1.0
 40
1.0
 10
642.0162351074366
 20
-628.621330340846
 30
0.0
 10
642.1340862666121
 20
-628.6213303416633
 30
0.0
 10
642.261232929067
 20
-628.6428090920797
 30
0.0
 10
642.5074268850068
 20
-628.740275062699
 30
0.0
 10
642.6257109539919
 20
-628.8165925884417
 30
0.0
 10
642.8209731081046
 20
-629.0118548209823
 30
0.0
 10
642.8972905821108
 20
-629.1301389158846
 30
0.0
 10
642.9947564501379
 20
-629.3763328897245
 30
0.0
 10
643.016235150484
 20
-629.5034795119104
 30
0.0
 10
643.0162351109016
 20
-629.6213306871446
 30
0.0
  0
SPLINE
  5
20CA6
330
18
100
AcDbEntity
  8
01
  6
CONTINUOUS
100
AcDbSpline
210
0.0
220
0.0
230
1.0
 70
    24
 71
     3
 72
    19
 73
    15
 74
     0
 42
0.000000001
 43
0.00000001
 40
0.0
 40
0.0
 40
0.0
 40
0.0
 40
0.0495831790849679
 40
0.0990613934239885
 40
0.1485096723521178
 40
0.1980031813457049
 40
0.2476168803089125
 40
0.3737672123511683
 40
0.5000135409698769
 40
0.6261638895942349
 40
0.7524102348021862
 40
0.8349770069416812
 40
0.9173908316084796
 40
1.0
 40
1.0
 40
1.0
 40
1.0
 10
639.9659825788518
 20
-628.6213303512659
 30
0.0
 10
640.0295058951223
 20
-628.6213303512659
 30
0.0
 10
640.1564180524464
 20
-628.6213303512659
 30
0.0
 10
640.3369196323346
 20
-628.6213303512659
 30
0.0
 10
640.509782185511
 20
-628.6213303512659
 30
0.0
 10
640.6743302758549
 20
-628.6213303512659
 30
0.0
 10
640.9109237417663
 20
-628.6213303512659
 30
0.0
 10
641.1967586175186
 20
-628.6213303512659
 30
0.0
 10
641.4938560978893
 20
-628.6213303512659
 30
0.0
 10
641.7278320808024
 20
-628.6213303512659
 30
0.0
 10
641.8763149147981
 20
-628.6213303512659
 30
0.0
 10
641.9621114856157
 20
-628.6213303512659
 30
0.0
 10
642.0078120373203
 20
-628.6213303512659
 30
0.0
 10
642.013425202562
 20
-628.6213303512659
 30
0.0
 10
642.0162351074368
 20
-628.6213303512659
 30
0.0
  0
SPLINE
  5
20CA8
330
18
100
AcDbEntity
  8
01
  6
CONTINUOUS
100
AcDbSpline
210
0.0
220
0.0
230
1.0
 70
    24
 71
     3
 72
     9
 73
     5
 74
     0
 42
0.000000001
 43
0.00000001
 40
0.0
 40
0.0
 40
0.0
 40
0.0
 40
0.500000000003928
 40
1.0
 40
1.0
 40
1.0
 40
1.0
 10
620.016236126734
 20
-641.4438902369417
 30
0.0
 10
620.0162361267464
 20
-641.4373098296246
 30
0.0
 10
620.0162361267712
 20
-641.4241490149908
 30
0.0
 10
620.0162361267957
 20
-641.4222689046385
 30
0.0
 10
620.0162361268079
 20
-641.4213288494623
 30
0.0
  0
LINE
  5
20CAB
330
18
100
AcDbEntity
  8
01
  6
CONTINUOUS
100
AcDbLine
 10
641.590438907693
 20
-643.3999335049417
 30
0.0
 11
641.6270063572628
 21
-643.2909682980504
 31
0.0
  0
SPLINE
  5
20CAC
330
18
100
AcDbEntity
  8
01
100
AcDbSpline
210
0.0
220
0.0
230
1.0
 70
    24
 71
     3
 72
    28
 73
    24
 74
     0
 42
0.000000001
 43
0.00000001
 40
0.0
 40
0.0
 40
0.0
 40
0.0
 40
0.0222785543737874
 40
0.0445413746832751
 40
0.0667969861045107
 40
0.0890539220973059
 40
0.1113207145985953
 40
0.1336058842245461
 40
0.1559179305375389
 40
0.1782653224332981
 40
0.2006564887018505
 40
0.2230998088137031
 40
0.245603603979719
 40
0.3694103811325591
 40
0.4940271960557718
 40
0.6194060064836563
 40
0.7455719344638775
 40
0.7878806389230606
 40
0.8301648648428803
 40
0.8724718670618853
 40
0.9148488242246672
 40
0.9573426819748213
 40
1.0
 40
1.0
 40
1.0
 40
1.0
 10
641.5879516862719
 20
-643.4073488156334
 30
0.0
 10
641.5646529142552
 20
-643.4718684919878
 30
0.0
 10
641.5180718248071
 20
-643.6008622781521
 30
0.0
 10
641.4442973312455
 20
-643.8051608757072
 30
0.0
 10
641.3677092051346
 20
-644.0172510710911
 30
0.0
 10
641.2880248714256
 20
-644.2379153798242
 30
0.0
 10
641.2053200740444
 20
-644.4669440494954
 30
0.0
 10
641.1195745484565
 20
-644.7043931972773
 30
0.0
 10
641.030793848615
 20
-644.9502474429923
 30
0.0
 10
640.9389763217812
 20
-645.2045113634551
 30
0.0
 10
640.8441233296381
 20
-645.4671811878517
 30
0.0
 10
640.7462314022287
 20
-645.7382665252933
 30
0.0
 10
640.494004102877
 20
-646.4367421234986
 30
0.0
 10
640.0531487292886
 20
-647.6575723888207
 30
0.0
 10
639.3686831607167
 20
-649.5530155017902
 30
0.0
 10
638.6125316362613
 20
-651.6469735695141
 30
0.0
 10
637.9750486608427
 20
-653.4123110399055
 30
0.0
 10
637.499607864573
 20
-654.7289163218838
 30
0.0
 10
637.2080121624531
 20
-655.5364121123705
 30
0.0
 10
636.911308338092
 20
-656.3580534721402
 30
0.0
 10
636.6094032085459
 20
-657.1940984462681
 30
0.0
 10
636.3026229020599
 20
-658.0436439103842
 30
0.0
 10
636.0945202636336
 20
-658.6199281398722
 30
0.0
 10
635.9902692025252
 20
-658.9086233860194
 30
0.0
  0
SPLINE
  5
20CAD
330
18
100
AcDbEntity
  8
01
100
AcDbSpline
210
0.0
220
0.0
230
1.0
 70
     8
 71
     3
 72
    28
 73
    24
 74
     0
 42
0.000000001
 43
0.00000001
 40
0.0
 40
0.0
 40
0.0
 40
0.0
 40
0.0178775132136077
 40
0.0357383327287699
 40
0.0535894343861888
 40
0.0714378054209268
 40
0.089290436274213
 40
0.1071543123864569
 40
0.1250364060195676
 40
0.1875338115504946
 40
0.2500499393871964
 40
0.3125473449176999
 40
0.3750634727548345
 40
0.5000020699980373
 40
0.6249406672412517
 40
0.6874380727725452
 40
0.7499542006089258
 40
0.8124516061398501
 40
0.8749677339766152
 40
0.9062410244276732
 40
0.9374791892084048
 40
0.9687196949820688
 40
1.0
 40
1.0
 40
1.0
 40
1.0
 10
620.0162361223915
 20
-658.6385086364139
 30
0.0
 10
620.0162361224067
 20
-658.4744162512652
 30
0.0
 10
620.0162361224369
 20
-658.1463847074688
 30
0.0
 10
620.0162361224842
 20
-657.6592684401195
 30
0.0
 10
620.0162361225331
 20
-657.1761539538736
 30
0.0
 10
620.0162361225837
 20
-656.697368503688
 30
0.0
 10
620.0162361226357
 20
-656.2228259611753
 30
0.0
 10
620.0162361226892
 20
-655.7525451009484
 30
0.0
 10
620.0162361227902
 20
-654.8992491106951
 30
0.0
 10
620.0162361229461
 20
-653.6871695910559
 30
0.0
 10
620.0162361231683
 20
-652.1650190509852
 30
0.0
 10
620.0162361234065
 20
-650.7175438234657
 30
0.0
 10
620.0162361237444
 20
-648.8982892699762
 30
0.0
 10
620.0162361242019
 20
-646.8438938225916
 30
0.0
 10
620.0162361246972
 20
-645.1253100781812
 30
0.0
 10
620.0162361251103
 20
-643.971590870412
 30
0.0
 10
620.0162361254271
 20
-643.220607069157
 30
0.0
 10
620.0162361257494
 20
-642.5871360828273
 30
0.0
 10
620.0162361260216
 20
-642.1604745276318
 30
0.0
 10
620.0162361262403
 20
-641.8804813616588
 30
0.0
 10
620.0162361264047
 20
-641.7022399125149
 30
0.0
 10
620.0162361265694
 20
-641.55311315829
 30
0.0
 10
620.0162361266791
 20
-641.4803133249329
 30
0.0
 10
620.016236126734
 20
-641.4438902369429
 30
0.0
  0
SPLINE
  5
20CAE
330
18
100
AcDbEntity
  8
01
  6
CONTINUOUS
100
AcDbSpline
210
0.0
220
0.0
230
1.0
 70
     8
 71
     3
 72
    43
 73
    39
 74
     0
 42
0.000000001
 43
0.00000001
 40
0.0
 40
0.0
 40
0.0
 40
0.0
 40
0.0053680431254342
 40
0.0108086439547282
 40
0.0163691703202112
 40
0.0220940139918828
 40
0.028023877561116
 40
0.0341954084723195
 40
0.0406411334254222
 40
0.0473896155220605
 40
0.0544657524998778
 40
0.0618911468515673
 40
0.0696844972300203
 40
0.077861978519626
 40
0.0864375922435128
 40
0.0954234789910698
 40
0.1048301908967358
 40
0.1146669258381226
 40
0.1249417268438817
 40
0.1532770236620014
 40
0.1835186034447837
 40
0.2157426327758163
 40
0.250012055631154
 40
0.3122676155652753
 40
0.375069483251866
 40
0.4388351808326172
 40
0.5001144580348452
 40
0.6249182708322278
 40
0.6898651666282717
 40
0.7500523650879014
 40
0.8199278106751282
 40
0.8523558560047126
 40
0.8836259278712975
 40
0.913610816695707
 40
0.9428729373446832
 40
0.9620532425980708
 40
0.9810158226926049
 40
1.0
 40
1.0
 40
1.0
 40
1.0
 10
630.016236131738
 20
-642.9713303512655
 30
0.0
 10
630.0511687567082
 20
-642.9715938907304
 30
0.0
 10
630.1215061770463
 20
-642.9721245318184
 30
0.0
 10
630.2270320095237
 20
-642.9762768470005
 30
0.0
 10
630.3329503623597
 20
-642.9828935890405
 30
0.0
 10
630.439248792907
 20
-642.9922477169035
 30
0.0
 10
630.545924532641
 20
-643.004305085963
 30
0.0
 10
630.65298061397
 20
-643.0191322742797
 30
0.0
 10
630.7604241247195
 20
-643.036783262547
 30
0.0
 10
630.8682639177254
 20
-643.0573314304786
 30
0.0
 10
630.9765091066843
 20
-643.0808602939776
 30
0.0
 10
631.0851681241204
 20
-643.1074658431326
 30
0.0
 10
631.1942482493307
 20
-643.1372555446062
 30
0.0
 10
631.3037555982575
 20
-643.1703483014899
 30
0.0
 10
631.4136947263163
 20
-643.2068742661236
 30
0.0
 10
631.5240706121067
 20
-643.2469743782913
 30
0.0
 10
631.6348814805738
 20
-643.2908014306009
 30
0.0
 10
631.7461483459658
 20
-643.3385150356801
 30
0.0
 10
631.9215883124633
 20
-643.4198886109803
 30
0.0
 10
632.1545815860735
 20
-643.5432701611751
 30
0.0
 10
632.434663608516
 20
-643.7204073044924
 30
0.0
 10
632.7066896753793
 20
-643.924888047987
 30
0.0
 10
633.0373782761592
 20
-644.218506797338
 30
0.0
 10
633.3975570373725
 20
-644.6197437286528
 30
0.0
 10
633.7476362950073
 20
-645.1534582245366
 30
0.0
 10
634.0190781610866
 20
-645.7425625114422
 30
0.0
 10
634.2622483416205
 20
-646.6004491803026
 30
0.0
 10
634.3077634471751
 20
-647.5756391604425
 30
0.0
 10
634.0590445137805
 20
-648.6211786176932
 30
0.0
 10
633.6762367173163
 20
-649.4507934020938
 30
0.0
 10
633.1616000486822
 20
-650.1222051413631
 30
0.0
 10
632.5980361854085
 20
-650.6121919084575
 30
0.0
 10
632.1403302124157
 20
-650.9160074203792
 30
0.0
 10
631.6447910371304
 20
-651.1602678664517
 30
0.0
 10
631.1760202823327
 20
-651.3191046846955
 30
0.0
 10
630.753933369109
 20
-651.4121426240963
 30
0.0
 10
630.3867881231218
 20
-651.4621676609256
 30
0.0
 10
630.1398003195026
 20
-651.4682749625051
 30
0.0
 10
630.0162361317379
 20
-651.4713303512654
 30
0.0
  0
SPLINE
  5
20CAF
330
18
100
AcDbEntity
  8
01
  6
CONTINUOUS
100
AcDbSpline
210
0.0
220
0.0
230
1.0
 70
     8
 71
     3
 72
    38
 73
    34
 74
     0
 42
0.000000001
 43
0.00000001
 40
0.0
 40
0.0
 40
0.0
 40
0.0
 40
0.009518972482207
 40
0.0190029275237529
 40
0.02848194004018
 40
0.0379861318577422
 40
0.0475453867666251
 40
0.0571890766645581
 40
0.0864686342113368
 40
0.1164810749601528
 40
0.1477726528978321
 40
0.1802337186118581
 40
0.2501759661688313
 40
0.3103556210865876
 40
0.3753032202380496
 40
0.5002123453498507
 40
0.5614963650649357
 40
0.6252739585605891
 40
0.6880185855153939
 40
0.7502264079505973
 40
0.7844491257515193
 40
0.816640355678055
 40
0.8468629598543511
 40
0.8751929161116802
 40
0.8942120530892932
 40
0.9116963366356062
 40
0.9277109666640091
 40
0.9423408085988547
 40
0.9556971535498835
 40
0.9679261137292552
 40
0.9792176538197275
 40
0.989812285557053
 40
1.0
 40
1.0
 40
1.0
 40
1.0
 10
630.0162361317379
 20
-651.4713303512651
 30
0.0
 10
629.954305628534
 20
-651.4705652462724
 30
0.0
 10
629.8306724458464
 20
-651.4690378508783
 30
0.0
 10
629.6459484774236
 20
-651.4565963340021
 30
0.0
 10
629.4624916607576
 20
-651.4367216866044
 30
0.0
 10
629.2803099060175
 20
-651.408717026032
 30
0.0
 10
629.0993980562222
 20
-651.3727949658734
 30
0.0
 10
628.7987249747588
 20
-651.2994449988332
 30
0.0
 10
628.3866258954998
 20
-651.1599004872442
 30
0.0
 10
627.8908879602471
 20
-650.9152818767373
 30
0.0
 10
627.4329553660265
 20
-650.6110837135371
 30
0.0
 10
626.8692286707848
 20
-650.1204766301707
 30
0.0
 10
626.3548586193305
 20
-649.4485493683205
 30
0.0
 10
625.9725864783461
 20
-648.6186947559023
 30
0.0
 10
625.7244439935934
 20
-647.5728811224517
 30
0.0
 10
625.7706180469258
 20
-646.5975344584142
 30
0.0
 10
626.0144915760537
 20
-645.7395988590749
 30
0.0
 10
626.2862634406694
 20
-645.1509114731502
 30
0.0
 10
626.636506107224
 20
-644.6177314481683
 30
0.0
 10
626.9965546224767
 20
-644.2170608386921
 30
0.0
 10
627.3270675220364
 20
-643.9238517288902
 30
0.0
 10
627.5989368196684
 20
-643.7196551357843
 30
0.0
 10
627.8789671138669
 20
-643.5426901389176
 30
0.0
 10
628.1414549451952
 20
-643.4037184126838
 30
0.0
 10
628.3798932059925
 20
-643.2965059152903
 30
0.0
 10
628.5885620373074
 20
-643.2159941823459
 30
0.0
 10
628.7957307607912
 20
-643.1482962258115
 30
0.0
 10
629.0015431328472
 20
-643.0924734066929
 30
0.0
 10
629.2061359496046
 20
-643.0477577581053
 30
0.0
 10
629.4097112519794
 20
-643.0134301941891
 30
0.0
 10
629.6124821721477
 20
-642.9893225311436
 30
0.0
 10
629.8145363247255
 20
-642.9742018642162
 30
0.0
 10
629.9498862442761
 20
-642.9722749459279
 30
0.0
 10
630.016236131738
 20
-642.9713303512655
 30
0.0
  0
SPLINE
  5
20CB0
330
18
100
AcDbEntity
  8
01
100
AcDbSpline
210
0.0
220
0.0
230
1.0
 70
     8
 71
     3
 72
     9
 73
     5
 74
     0
 42
0.000000001
 43
0.00000001
 40
0.0
 40
0.0
 40
0.0
 40
0.0
 40
0.9755498405505032
 40
1.0
 40
1.0
 40
1.0
 40
1.0
 10
634.814150755952
 20
-660.2213295764055
 30
0.0
 10
634.8142200325136
 20
-660.2211225172764
 30
0.0
 10
634.8142910453505
 20
-660.2209102686343
 30
0.0
 10
634.818386850764
 20
-660.1982794638598
 30
0.0
 10
634.8184869938594
 20
-660.1977261370745
 30
0.0
  0
LINE
  5
20CB1
330
18
100
AcDbEntity
  8
01
100
AcDbLine
 10
634.814150755952
 20
-660.2213295764055
 30
0.0
 11
620.8162383490306
 21
-660.2213295764055
 31
0.0
  0
SPLINE
  5
20CB2
330
18
100
AcDbEntity
  8
01
100
AcDbSpline
210
0.0
220
0.0
230
1.0
 70
     8
 71
     3
 72
    10
 73
     6
 74
     0
 42
0.000000001
 43
0.00000001
 40
0.0
 40
0.0
 40
0.0
 40
0.0
 40
0.5
 40
0.5
 40
1.0
 40
1.0
 40
1.0
 40
1.0
 10
620.0162361194327
 20
-659.421330351249
 30
0.0
 10
620.0162361194283
 20
-659.6307698614862
 30
0.0
 10
620.1024545965342
 20
-659.8389196782572
 30
0.0
 10
620.3986467923997
 20
-660.1351118741399
 30
0.0
 10
620.6067966091657
 20
-660.2213303512578
 30
0.0
 10
620.8162361194028
 20
-660.2213303512656
 30
0.0
  0
SPLINE
  5
20CB3
330
18
100
AcDbEntity
  8
01
100
AcDbSpline
210
0.0
220
0.0
230
1.0
 70
    24
 71
     3
 72
    17
 73
    13
 74
     0
 42
0.000000001
 43
0.00000001
 40
0.0
 40
0.0
 40
0.0
 40
0.0
 40
0.0626435234914453
 40
0.1249714832597984
 40
0.1873471882587388
 40
0.2501331186182772
 40
0.3749202744584919
 40
0.500087998412663
 40
0.62487515425433
 40
0.7500428782074899
 40
0.8749264367352819
 40
1.0
 40
1.0
 40
1.0
 40
1.0
 10
620.0162361221722
 20
-659.4213303512493
 30
0.0
 10
620.0162361221777
 20
-659.4206735384926
 30
0.0
 10
620.0162361221886
 20
-659.4193632216421
 30
0.0
 10
620.0162361222049
 20
-659.4086459506921
 30
0.0
 10
620.0162361222211
 20
-659.3914907279443
 30
0.0
 10
620.0162361222427
 20
-659.3594909898287
 30
0.0
 10
620.0162361222693
 20
-659.3031074891576
 30
0.0
 10
620.0162361222995
 20
-659.2102036427125
 30
0.0
 10
620.0162361223277
 20
-659.0948382230924
 30
0.0
 10
620.0162361223527
 20
-658.9588959726623
 30
0.0
 10
620.0162361223747
 20
-658.8068352022556
 30
0.0
 10
620.0162361223859
 20
-658.6946459185638
 30
0.0
 10
620.0162361223915
 20
-658.6385086364139
 30
0.0
  0
LINE
  5
20CB4
330
18
100
AcDbEntity
  8
01
100
AcDbLine
 10
635.7546971493465
 20
-659.5609753048744
 30
0.0
 11
635.6944815569622
 21
-659.6947299903956
 31
0.0
  0
SPLINE
  5
20CB5
330
18
100
AcDbEntity
  8
01
100
AcDbSpline
210
0.0
220
0.0
230
1.0
 70
    24
 71
     3
 72
    16
 73
    12
 74
     0
 42
0.000000001
 43
0.00000001
 40
0.0
 40
0.0
 40
0.0
 40
0.0
 40
0.08385125281847
 40
0.1669995318644956
 40
0.2502117524720058
 40
0.3794672830310655
 40
0.5079079764290846
 40
0.6347740576645294
 40
0.7610813285401866
 40
0.8806009282499735
 40
1.0
 40
1.0
 40
1.0
 40
1.0
 10
635.9902692025252
 20
-658.9086233860194
 30
0.0
 10
635.9792253935742
 20
-658.9392062415754
 30
0.0
 10
635.9572303623397
 20
-659.0001155588401
 30
0.0
 10
635.9259692786361
 20
-659.0866847137123
 30
0.0
 10
635.8909707260866
 20
-659.1836037823103
 30
0.0
 10
635.85403121941
 20
-659.2858978008002
 30
0.0
 10
635.818395930548
 20
-659.3845801391868
 30
0.0
 10
635.7897333401602
 20
-659.463953466415
 30
0.0
 10
635.7695826608596
 20
-659.519755347555
 30
0.0
 10
635.7569584118595
 20
-659.5547148063242
 30
0.0
 10
635.7554511192608
 20
-659.5588888473669
 30
0.0
 10
635.7546978531556
 20
-659.5609748150432
 30
0.0
  0
ARC
  5
20CB6
330
18
100
AcDbEntity
  8
01
  6
CONTINUOUS
100
AcDbCircle
 10
630.0162361317379
 20
-647.2213303512669
 30
0.0
 40
2.249999999999829
100
AcDbArc
 50
179.9999999999971
 51
0.000000000002895
  0
ARC
  5
20CB7
330
18
100
AcDbEntity
  8
01
  6
CONTINUOUS
100
AcDbCircle
 10
630.0162361317379
 20
-647.2213303512667
 30
0.0
 40
2.250000000000114
100
AcDbArc
 50
0.0
 51
180.0
  0
SPLINE
  5
20CE4
330
18
100
AcDbEntity
  8
01
100
AcDbSpline
210
0.0
220
0.0
230
1.0
 70
     8
 71
     3
 72
    35
 73
    31
 74
     0
 42
0.000000001
 43
0.00000001
 40
0.0
 40
0.0
 40
0.0
 40
0.0
 40
0.0132771863999157
 40
0.0266200724587826
 40
0.0400313599266899
 40
0.0535135429384349
 40
0.0670689210240302
 40
0.0806996131287189
 40
0.0944075724973263
 40
0.108194602276333
 40
0.1220623716867573
 40
0.1360124326216533
 40
0.1500462365236903
 40
0.1641651514007317
 40
0.1783704788406524
 40
0.2224216821831172
 40
0.2681780983900037
 40
0.3335343362927229
 40
0.4035983071104468
 40
0.4582997504295429
 40
0.5171219748862619
 40
0.6207659703556556
 40
0.7190412378935099
 40
0.7577081743040281
 40
0.8141688538342422
 40
0.867942707476233
 40
0.907496969177967
 40
0.9407143218275795
 40
0.9715347239418566
 40
1.0
 40
1.0
 40
1.0
 40
1.0
 10
622.6020225693688
 20
-640.4213303512659
 30
0.0
 10
622.6026782435188
 20
-640.3241877033953
 30
0.0
 10
622.6039928362986
 20
-640.1294217155373
 30
0.0
 10
622.6145666980665
 20
-639.8368686849149
 30
0.0
 10
622.6314267082353
 20
-639.5434905315985
 30
0.0
 10
622.6551991064335
 20
-639.2495723190449
 30
0.0
 10
622.6857145923555
 20
-638.9554043681685
 30
0.0
 10
622.7230187195502
 20
-638.6612814218938
 30
0.0
 10
622.7670990353662
 20
-638.3675016701616
 30
0.0
 10
622.8179587728738
 20
-638.0743656943009
 30
0.0
 10
622.8755969879867
 20
-637.7821756576138
 30
0.0
 10
622.9400137511496
 20
-637.4912334037049
 30
0.0
 10
623.0112094029989
 20
-637.2018425743457
 30
0.0
 10
623.0891822709712
 20
-636.9142955234566
 30
0.0
 10
623.2331212190977
 20
-636.4296473605864
 30
0.0
 10
623.4709060315839
 20
-635.753556852906
 30
0.0
 10
623.8880605227808
 20
-634.7993469269102
 30
0.0
 10
624.455406610644
 20
-633.769181362094
 30
0.0
 10
625.1323532204624
 20
-632.8012830803443
 30
0.0
 10
625.8456889872214
 20
-631.9692710683162
 30
0.0
 10
626.7419660191206
 20
-631.093185945068
 30
0.0
 10
627.892853832762
 20
-630.2227119301045
 30
0.0
 10
629.0113990170884
 20
-629.6187153836629
 30
0.0
 10
629.932290531131
 20
-629.23773101814
 30
0.0
 10
630.6500856686721
 20
-628.9988567144081
 30
0.0
 10
631.380356517408
 20
-628.8214881753578
 30
0.0
 10
632.0018142900587
 20
-628.7158675958254
 30
0.0
 10
632.5119416687243
 20
-628.6579001434959
 30
0.0
 10
632.9685090287232
 20
-628.6267020183324
 30
0.0
 10
633.2613963763724
 20
-628.6230728506755
 30
0.0
 10
633.4020225691019
 20
-628.6213303512659
 30
0.0
  0
LINE
  5
20CE7
330
18
100
AcDbEntity
  8
01
100
AcDbLine
 10
622.6020233088237
 20
-640.721330571058
 30
0.0
 11
622.6020233088237
 21
-640.4213303821858
 31
0.0
  0
SPLINE
  5
20CED
330
18
100
AcDbEntity
  8
01
100
AcDbSpline
210
0.0
220
0.0
230
1.0
 70
     8
 71
     3
 72
    10
 73
     6
 74
     0
 42
0.000000001
 43
0.00000001
 40
0.0
 40
0.0
 40
0.0
 40
0.0
 40
0.3371938891638141
 40
0.6707367980301863
 40
1.0
 40
1.0
 40
1.0
 40
1.0
 10
622.6125487602146
 20
-641.0258285285297
 30
0.0
 10
622.6104466610392
 20
-640.9919789856627
 30
0.0
 10
622.606265223251
 20
-640.9246464072056
 30
0.0
 10
622.6027353639297
 20
-640.8227908969443
 30
0.0
 10
622.6022591425764
 20
-640.7550048154268
 30
0.0
 10
622.6020225693688
 20
-640.7213306203876
 30
0.0
  0
SPLINE
  5
20CFE
330
18
100
AcDbEntity
  8
01
  6
PHANTOM
100
AcDbSpline
210
0.0
220
0.0
230
1.0
 70
     8
 71
     3
 72
     8
 73
     4
 74
     0
 42
0.000000001
 43
0.00000001
 40
0.0
 40
0.0
 40
0.0
 40
0.0
 40
1.0
 40
1.0
 40
1.0
 40
1.0
 10
620.8162355111249
 20
-642.2213288494929
 30
0.0
 10
620.8162353781507
 20
-642.221328843953
 30
0.0
 10
620.8162352441842
 20
-642.22728375011
 30
0.0
 10
620.8162351104157
 20
-642.2391406516103
 30
0.0
  0
SPLINE
  5
20D0C
330
18
100
AcDbEntity
  8
01
  6
CONTINUOUS
100
AcDbSpline
210
0.0
220
0.0
230
1.0
 70
     8
 71
     3
 72
    11
 73
     7
 74
     0
 42
0.000000001
 43
0.00000001
 40
0.0
 40
0.0
 40
0.0
 40
0.0
 40
0.2510275722250101
 40
0.5023210935458381
 40
0.7524647085442354
 40
1.0
 40
1.0
 40
1.0
 40
1.0
 10
622.6151661329961
 20
-593.6069792038531
 30
0.0
 10
622.6614293283973
 20
-593.607287518977
 30
0.0
 10
622.7540047323611
 20
-593.6079044758669
 30
0.0
 10
622.8947351589429
 20
-593.5786338186471
 30
0.0
 10
623.0321544685839
 20
-593.5291141197042
 30
0.0
 10
623.1169947895908
 20
-593.4774378827474
 30
0.0
 10
623.1591926270223
 20
-593.4517351812453
 30
0.0
  0
LINE
  5
20D1D
330
18
100
AcDbEntity
  8
01
  6
CONTINUOUS
100
AcDbLine
 10
620.0162546091772
 20
-592.8213303810687
 30
0.0
 11
620.0162546091772
 21
-581.8213304406734
 31
0.0
  0
LINE
  5
20D1E
330
18
100
AcDbEntity
  8
01
  6
CONTINUOUS
100
AcDbLine
 10
405.0162510328985
 20
-592.8213303810687
 30
0.0
 11
620.0162546091772
 21
-592.8213303810687
 31
0.0
  0
LINE
  5
20D21
330
18
100
AcDbEntity
  8
01
  6
CONTINUOUS
100
AcDbLine
 10
620.0162546091772
 20
-571.8213288015456
 30
0.0
 11
620.0162546091772
 21
-581.8213304406734
 31
0.0
  0
LINE
  5
20D23
330
18
100
AcDbEntity
  8
01
  6
CONTINUOUS
100
AcDbLine
 10
620.0162546091772
 20
-570.821330500278
 30
0.0
 11
405.0162510328985
 21
-570.821330500278
 31
0.0
  0
LINE
  5
20D24
330
18
100
AcDbEntity
  8
01
  6
CONTINUOUS
100
AcDbLine
 10
620.0162546091772
 20
-571.8213288015456
 30
0.0
 11
620.0162546091772
 21
-570.821330500278
 31
0.0
  0
SPLINE
  5
20D27
330
18
100
AcDbEntity
  8
01
  6
CONTINUOUS
100
AcDbSpline
210
0.0
220
0.0
230
1.0
 70
    24
 71
     3
 72
    14
 73
    10
 74
     0
 42
0.000000001
 43
0.00000001
 40
0.0
 40
0.0
 40
0.0
 40
0.0
 40
0.25
 40
0.25
 40
0.5
 40
0.5
 40
0.75
 40
0.75
 40
1.0
 40
1.0
 40
1.0
 40
1.0
 10
643.0162414837132
 20
-535.821330320354
 30
0.0
 10
643.0162415079392
 20
-535.821330320354
 30
0.0
 10
642.9947627926681
 20
-535.8213303256656
 30
0.0
 10
642.8972969043756
 20
-535.8213303497687
 30
0.0
 10
642.8209794253966
 20
-535.8213303686416
 30
0.0
 10
642.6257172743722
 20
-535.8213304169294
 30
0.0
 10
642.507433213301
 20
-535.8213304461806
 30
0.0
 10
642.2612392783476
 20
-535.8213305070635
 30
0.0
 10
642.1340926285703
 20
-535.8213305385063
 30
0.0
 10
642.016241480255
 20
-535.8213305676506
 30
0.0
  0
LINE
  5
20D28
330
18
100
AcDbEntity
  8
01
  6
CONTINUOUS
100
AcDbLine
 10
643.0162416153646
 20
-535.821330320354
 30
0.0
 11
643.0162565165258
 21
-570.3076204187007
 31
0.0
  0
LINE
  5
20D29
330
18
100
AcDbEntity
  8
01
  6
CONTINUOUS
100
AcDbLine
 10
620.8162532501913
 20
-535.8213303512664
 30
0.0
 11
642.0162395888067
 21
-535.8213303512664
 31
0.0
  0
SPLINE
  5
20D2A
330
18
100
AcDbEntity
  8
01
  6
CONTINUOUS
100
AcDbSpline
210
0.0
220
0.0
230
1.0
 70
    24
 71
     3
 72
     8
 73
     4
 74
     0
 42
0.000000001
 43
0.00000001
 40
0.0
 40
0.0
 40
0.0
 40
0.0
 40
1.0
 40
1.0
 40
1.0
 40
1.0
 10
634.0973395218809
 20
-582.5166324026188
 30
0.0
 10
634.1054402297889
 20
-582.5247331105268
 30
0.0
 10
634.1091442523086
 20
-582.5284371330504
 30
0.0
 10
634.109144251715
 20
-582.5284371324528
 30
0.0
  0
LINE
  5
20D2B
330
18
100
AcDbEntity
  8
01
  6
CONTINUOUS
100
AcDbLine
 10
623.309143012116
 20
-593.3284355229468
 30
0.0
 11
640.673108523438
 21
-575.9644774622054
 31
0.0
  0
LINE
  5
20D2C
330
18
100
AcDbEntity
  8
01
  6
CONTINUOUS
100
AcDbLine
 10
622.6020382099844
 20
-593.6213290220828
 30
0.0
 11
622.619383161614
 21
-593.6023747450442
 31
0.0
  0
LINE
  5
20D2D
330
18
100
AcDbEntity
  8
01
  6
CONTINUOUS
100
AcDbLine
 10
620.8162532501913
 20
-593.6213290220828
 30
0.0
 11
622.6020382099844
 21
-593.6213290220828
 31
0.0
  0
LINE
  5
20D2E
330
18
100
AcDbEntity
  8
01
  6
CONTINUOUS
100
AcDbLine
 10
620.0162546091772
 20
-581.8213304406734
 30
0.0
 11
620.0162546091772
 21
-535.8213303512891
 31
0.0
  0
SPLINE
  5
20D2F
330
18
100
AcDbEntity
  8
01
  6
CONTINUOUS
100
AcDbSpline
210
0.0
220
0.0
230
1.0
 70
    24
 71
     3
 72
    17
 73
    13
 74
     0
 42
0.000000001
 43
0.00000001
 40
0.0
 40
0.0
 40
0.0
 40
0.0
 40
0.0602429937217822
 40
0.1199994426733184
 40
0.1798082619075141
 40
0.2402069646521749
 40
0.3699548045145694
 40
0.5001294914424274
 40
0.6298775062444557
 40
0.7600523686864118
 40
0.8799221124894736
 40
0.9999999999999999
 40
0.9999999999999999
 40
0.9999999999999999
 40
0.9999999999999999
 10
620.0162510228105
 20
-535.8213303512664
 30
0.0
 10
620.0169188945883
 20
-535.8213303512664
 30
0.0
 10
620.0182492441638
 20
-535.8213303512664
 30
0.0
 10
620.0292022230061
 20
-535.8213303512664
 30
0.0
 10
620.0467592658675
 20
-535.8213303512664
 30
0.0
 10
620.0807591404006
 20
-535.8213303512664
 30
0.0
 10
620.1426036731506
 20
-535.8213303512664
 30
0.0
 10
620.2466128355768
 20
-535.8213303512664
 30
0.0
 10
620.373706941421
 20
-535.8213303512664
 30
0.0
 10
620.5159340678144
 20
-535.8213303512664
 30
0.0
 10
620.665365105484
 20
-535.8213303512664
 30
0.0
 10
620.7659266381406
 20
-535.8213303512664
 30
0.0
 10
620.8162510207575
 20
-535.8213303512664
 30
0.0
  0
LINE
  5
20D30
330
18
100
AcDbEntity
  8
01
  6
CONTINUOUS
100
AcDbLine
 10
623.1590585165716
 20
-593.4516122466655
 30
0.0
 11
623.309143012116
 21
-593.3284355229468
 31
0.0
  0
SPLINE
  5
20D32
330
18
100
AcDbEntity
  8
01
  6
CONTINUOUS
100
AcDbSpline
210
0.0
220
0.0
230
1.0
 70
     8
 71
     3
 72
    14
 73
    10
 74
     0
 42
0.000000001
 43
0.00000001
 40
0.0
 40
0.0
 40
0.0
 40
0.0
 40
0.25
 40
0.25
 40
0.5
 40
0.5
 40
0.75
 40
0.75
 40
1.0
 40
1.0
 40
1.0
 40
1.0
 10
640.6731042615564
 20
-575.9644771226125
 30
0.0
 10
641.0636286898857
 20
-575.5739526942832
 30
0.0
 10
641.4132051113315
 20
-575.142656092534
 30
0.0
 10
642.0112237197303
 20
-574.2279447481628
 30
0.0
 10
642.2596249949377
 20
-573.7447675030485
 30
0.0
 10
642.6494886642716
 20
-572.7599915297483
 30
0.0
 10
642.7910430451054
 20
-572.258592410011
 30
0.0
 10
642.9743434506397
 20
-571.2680590570517
 30
0.0
 10
643.016250128641
 20
-570.7790255321164
 30
0.0
 10
643.0162500120643
 20
-570.3076208947488
 30
0.0
  0
SPLINE
  5
20D33
330
18
100
AcDbEntity
  8
01
  6
CONTINUOUS
100
AcDbSpline
210
0.0
220
0.0
230
1.0
 70
     8
 71
     3
 72
    14
 73
    10
 74
     0
 42
0.000000001
 43
0.00000001
 40
0.0
 40
0.0
 40
0.0
 40
0.0
 40
0.25
 40
0.25
 40
0.5
 40
0.5
 40
0.75
 40
0.75
 40
1.0
 40
1.0
 40
1.0
 40
1.0
 10
620.0162510334994
 20
-592.8213303513432
 30
0.0
 10
620.0162510334425
 20
-592.9156112554736
 30
0.0
 10
620.0334340245711
 20
-593.0173285586973
 30
0.0
 10
620.1114067608012
 20
-593.2142836793194
 30
0.0
 10
620.1724607502723
 20
-593.3089109179634
 30
0.0
 10
620.3286704670159
 20
-593.4651206346552
 30
0.0
 10
620.4232977056813
 20
-593.5261746240958
 30
0.0
 10
620.6202528263343
 20
-593.6041473602613
 30
0.0
 10
620.7219701295339
 20
-593.6213303512899
 30
0.0
 10
620.8162510337014
 20
-593.6213303512661
 30
0.0
  0
SPLINE
  5
20D34
330
18
100
AcDbEntity
  8
01
  6
CONTINUOUS
100
AcDbSpline
210
0.0
220
0.0
230
1.0
 70
    24
 71
     3
 72
    26
 73
    22
 74
     0
 42
0.000000001
 43
0.00000001
 40
0.0
 40
0.0
 40
0.0
 40
0.0
 40
0.0194539219290418
 40
0.038873253970256
 40
0.058276078404286
 40
0.0776805236603051
 40
0.0971047136293891
 40
0.1165667170412037
 40
0.1783152236586917
 40
0.2400936317684177
 40
0.3044157777650366
 40
0.3687690717837472
 40
0.5000066969007156
 40
0.6312443220178269
 40
0.6955664705170457
 40
0.759919767048461
 40
0.8216682772062806
 40
0.8834466888699491
 40
0.9223155076087496
 40
0.9611182433776863
 40
1.0
 40
1.0
 40
1.0
 40
1.0
 10
620.0162510334595
 20
-592.8213303513432
 30
0.0
 10
620.0162510334621
 20
-592.8203508147285
 30
0.0
 10
620.0162510334674
 20
-592.8183934831561
 30
0.0
 10
620.0162510334732
 20
-592.802514590847
 30
0.0
 10
620.0162510334771
 20
-592.7771525927276
 30
0.0
 10
620.0162510334792
 20
-592.7413848321851
 30
0.0
 10
620.0162510334795
 20
-592.6954533028118
 30
0.0
 10
620.0162510334768
 20
-592.5987187131625
 30
0.0
 10
620.0162510334637
 20
-592.4098585826747
 30
0.0
 10
620.0162510334276
 20
-592.0602306173346
 30
0.0
 10
620.0162510333723
 20
-591.6053025222141
 30
0.0
 10
620.0162510332711
 20
-590.8496575860877
 30
0.0
 10
620.0162510330968
 20
-589.6551318996578
 30
0.0
 10
620.0162510328662
 20
-588.1836844903969
 30
0.0
 10
620.0162510326562
 20
-586.8901781652976
 30
0.0
 10
620.0162510324906
 20
-585.8908599201872
 30
0.0
 10
620.0162510323179
 20
-584.8658848771358
 30
0.0
 10
620.0162510321618
 20
-583.9545149025626
 30
0.0
 10
620.0162510320242
 20
-583.1608054654873
 30
0.0
 10
620.0162510319072
 20
-582.4923432927643
 30
0.0
 10
620.0162510318282
 20
-582.0451529595744
 30
0.0
 10
620.0162510317887
 20
-581.8213303514356
 30
0.0
  0
SPLINE
  5
20D35
330
18
100
AcDbEntity
  8
01
  6
CONTINUOUS
100
AcDbSpline
210
0.0
220
0.0
230
1.0
 70
     8
 71
     3
 72
    14
 73
    10
 74
     0
 42
0.000000001
 43
0.00000001
 40
0.0
 40
0.0
 40
0.0
 40
0.0
 40
0.25
 40
0.25
 40
0.5
 40
0.5
 40
0.75
 40
0.75
 40
1.0
 40
1.0
 40
1.0
 40
1.0
 10
643.0162476761742
 20
-570.3076232306394
 30
0.0
 10
643.0162477927805
 20
-570.7790279646022
 30
0.0
 10
642.9743411147496
 20
-571.2680613929426
 30
0.0
 10
642.7910407092152
 20
-572.2585947459017
 30
0.0
 10
642.6494863283816
 20
-572.759993865639
 30
0.0
 10
642.2596226590476
 20
-573.7447698389394
 30
0.0
 10
642.0112213838402
 20
-574.2279470840535
 30
0.0
 10
641.4132027754413
 20
-575.1426584284247
 30
0.0
 10
641.0636263539956
 20
-575.5739550301737
 30
0.0
 10
640.6731019256662
 20
-575.964479458503
 30
0.0
  0
LINE
  5
20D36
330
18
100
AcDbEntity
  8
01
  6
CONTINUOUS
100
AcDbLine
 10
643.0162565165258
 20
-570.3076204187007
 30
0.0
 11
643.0162416153646
 21
-570.307624143991
 31
0.0
  0
LINE
  5
20D54
330
18
100
AcDbEntity
  8
01
  6
CONTINUOUS
100
AcDbLine
 10
686.7162422900075
 20
-642.2213305517462
 30
0.0
 11
708.507059669959
 21
-642.2213294439136
 31
0.0
  0
LINE
  5
20D5B
330
18
100
AcDbEntity
  8
01
  6
CONTINUOUS
100
AcDbLine
 10
716.8576256995076
 20
-642.2213317561155
 30
0.0
 11
716.8575996224755
 21
-642.221329019377
 31
0.0
  0
LINE
  5
20D5C
330
18
100
AcDbEntity
  8
01
  6
CONTINUOUS
100
AcDbLine
 10
743.0162416462773
 20
-629.6213305047588
 30
0.0
 11
743.0162416462773
 21
-641.2213307064833
 31
0.0
  0
LINE
  5
20D5D
330
18
100
AcDbEntity
  8
01
  6
CONTINUOUS
100
AcDbLine
 10
708.529951578843
 20
-628.621330340846
 30
0.0
 11
743.016241615365
 21
-628.621330340846
 31
0.0
  0
SPLINE
  5
20D5E
330
18
100
AcDbEntity
  8
01
  6
CONTINUOUS
100
AcDbSpline
210
0.0
220
0.0
230
1.0
 70
     8
 71
     3
 72
    14
 73
    10
 74
     0
 42
0.000000001
 43
0.00000001
 40
0.0
 40
0.0
 40
0.0
 40
0.0
 40
0.25
 40
0.25
 40
0.5
 40
0.5
 40
0.75
 40
0.75
 40
1.0
 40
1.0
 40
1.0
 40
1.0
 10
743.0162416771897
 20
-629.6213307267153
 30
0.0
 10
743.0162416771897
 20
-629.5034795687023
 30
0.0
 10
743.0162416718781
 20
-629.3763329436305
 30
0.0
 10
743.0162416477751
 20
-629.1301389975808
 30
0.0
 10
743.016241628902
 20
-629.011854920444
 30
0.0
 10
743.0162415806144
 20
-628.8165927208026
 30
0.0
 10
743.0162415513631
 20
-628.7402752097524
 30
0.0
 10
743.0162414904802
 20
-628.6428092578637
 30
0.0
 10
743.0162414590372
 20
-628.6213305115541
 30
0.0
 10
743.0162414298931
 20
-628.6213305107368
 30
0.0
  0
LINE
  5
20D60
330
18
100
AcDbEntity
  8
01
  6
CONTINUOUS
100
AcDbLine
 10
743.0162417382081
 20
-642.2213318595138
 30
0.0
 11
708.5299478535527
 21
-642.2213322744126
 31
0.0
  0
SPLINE
  5
20D61
330
18
100
AcDbEntity
  8
01
  6
CONTINUOUS
100
AcDbSpline
210
0.0
220
0.0
230
1.0
 70
     8
 71
     3
 72
    10
 73
     6
 74
     0
 42
0.000000001
 43
0.00000001
 40
0.0
 40
0.0
 40
0.0
 40
0.0
 40
0.5000000000000001
 40
0.5000000000000001
 40
1.0
 40
1.0
 40
1.0
 40
1.0
 10
743.0162415725296
 20
-642.022566992933
 30
0.0
 10
743.0162415995779
 20
-641.926072831218
 30
0.0
 10
743.016241619228
 20
-641.7952566260253
 30
0.0
 10
743.0162416384261
 20
-641.511151306582
 30
0.0
 10
743.0162416381565
 20
-641.359696943699
 30
0.0
 10
743.0162416311222
 20
-641.2213307025775
 30
0.0
  0
SPLINE
  5
20D62
330
18
100
AcDbEntity
  8
01
  6
CONTINUOUS
100
AcDbSpline
210
0.0
220
0.0
230
1.0
 70
    24
 71
     3
 72
    19
 73
    15
 74
     0
 42
0.000000001
 43
0.00000001
 40
0.0
 40
0.0
 40
0.0
 40
0.0
 40
0.0495831790849679
 40
0.0990613934239885
 40
0.1485096723521178
 40
0.1980031813457049
 40
0.2476168803089125
 40
0.3737672123511683
 40
0.5000135409698769
 40
0.6261638895942349
 40
0.7524102348021862
 40
0.8349770069416812
 40
0.9173908316084796
 40
1.0
 40
1.0
 40
1.0
 40
1.0
 10
703.5802016564752
 20
-628.6213305211501
 30
0.0
 10
703.645156966017
 20
-628.6213305211501
 30
0.0
 10
703.774930078436
 20
-628.6213305211501
 30
0.0
 10
703.9786645603465
 20
-628.6213305211501
 30
0.0
 10
704.1886389333918
 20
-628.6213305211501
 30
0.0
 10
704.4055369297383
 20
-628.6213305211501
 30
0.0
 10
704.7437702728902
 20
-628.6213305211501
 30
0.0
 10
705.2187238770288
 20
-628.6213305211501
 30
0.0
 10
705.8466421214123
 20
-628.6213305211501
 30
0.0
 10
706.500889023071
 20
-628.6213305211501
 30
0.0
 10
707.0975004066485
 20
-628.6213305211501
 30
0.0
 10
707.6243775612136
 20
-628.6213305211501
 30
0.0
 10
708.0761796668925
 20
-628.6213305211501
 30
0.0
 10
708.378574474049
 20
-628.6213305211501
 30
0.0
 10
708.5299508554983
 20
-628.6213305211501
 30
0.0
  0
SPLINE
  5
20D63
330
18
100
AcDbEntity
  8
01
  6
CONTINUOUS
100
AcDbSpline
210
0.0
220
0.0
230
1.0
 70
     8
 71
     3
 72
    19
 73
    15
 74
     0
 42
0.000000001
 43
0.00000001
 40
0.0
 40
0.0
 40
0.0
 40
0.0
 40
0.049583199300143
 40
0.0990614320592006
 40
0.1485097275259785
 40
0.1980032510989522
 40
0.2476169626135704
 40
0.3737673168208765
 40
0.5000136528573385
 40
0.6261639939769619
 40
0.7524103169544624
 40
0.834977067092611
 40
0.9173908642631603
 40
0.9999999999999999
 40
0.9999999999999999
 40
0.9999999999999999
 40
0.9999999999999999
 10
708.529948570447
 20
-642.2213322744126
 30
0.0
 10
708.4391004258621
 20
-642.2213322788959
 30
0.0
 10
708.2575964602139
 20
-642.2213322878533
 30
0.0
 10
707.9859004328534
 20
-642.2213322994719
 30
0.0
 10
707.715193752428
 20
-642.2213323097294
 30
0.0
 10
707.4454705526775
 20
-642.2213323184976
 30
0.0
 10
707.0390065158394
 20
-642.2213323295623
 30
0.0
 10
706.5010477187568
 20
-642.2213323390502
 30
0.0
 10
705.8469627311471
 20
-642.2213323410582
 30
0.0
 10
705.2188942687765
 20
-642.2213323332953
 30
0.0
 10
704.6920331030283
 20
-642.2213323177559
 30
0.0
 10
704.2588074043999
 20
-642.221332298122
 30
0.0
 10
703.9070199731274
 20
-642.2213322776513
 30
0.0
 10
703.6892255065953
 20
-642.2213322606935
 30
0.0
 10
703.5801993710668
 20
-642.2213322522048
 30
0.0
  0
SPLINE
  5
20D64
330
18
100
AcDbEntity
  8
01
  6
CONTINUOUS
100
AcDbSpline
210
0.0
220
0.0
230
1.0
 70
     8
 71
     3
 72
    10
 73
     6
 74
     0
 42
0.000000001
 43
0.00000001
 40
0.0
 40
0.0
 40
0.0
 40
0.0
 40
0.5
 40
0.5
 40
1.0
 40
1.0
 40
1.0
 40
1.0
 10
743.0162422123883
 20
-643.4073430114865
 30
0.0
 10
743.0162421138837
 20
-643.1371190038619
 30
0.0
 10
743.0162420132577
 20
-642.8753954734357
 30
0.0
 10
743.0162418204908
 20
-642.4038635102058
 30
0.0
 10
743.0162417285209
 20
-642.1944741486199
 30
0.0
 10
743.0162416462778
 20
-642.022566991566
 30
0.0
  0
SPLINE
  5
20D65
330
18
100
AcDbEntity
  8
01
  6
CONTINUOUS
100
AcDbSpline
210
0.0
220
0.0
230
1.0
 70
     8
 71
     3
 72
    34
 73
    30
 74
     0
 42
0.000000001
 43
0.00000001
 40
0.0
 40
0.0
 40
0.0
 40
0.0
 40
0.0185678311055214
 40
0.0369229374976723
 40
0.0550654368084463
 40
0.0729954508622904
 40
0.0907131058746802
 40
0.1082185326624353
 40
0.1255118668666061
 40
0.1425932491888295
 40
0.1594628256421274
 40
0.1761207478172058
 40
0.1925671731653939
 40
0.2088022652994691
 40
0.2248261943137128
 40
0.2406391371246805
 40
0.2562412778342565
 40
0.3857070381004278
 40
0.5080707403023708
 40
0.6339356874829214
 40
0.7555281429110663
 40
0.786529653359468
 40
0.8173954298522315
 40
0.8481300486753023
 40
0.8787381449445661
 40
0.9092244114860748
 40
0.9395935976043226
 40
0.9698505077376178
 40
1.0
 40
1.0
 40
1.0
 40
1.0
 10
738.5675035809272
 20
-658.9166276542917
 30
0.0
 10
738.507028755707
 20
-658.7563535754418
 30
0.0
 10
738.3867719427759
 20
-658.4376416180658
 30
0.0
 10
738.1953075850895
 20
-657.9664363625752
 30
0.0
 10
737.9974675693737
 20
-657.5038493705144
 30
0.0
 10
737.7927532959674
 20
-657.0502108523415
 30
0.0
 10
737.5817563063022
 20
-656.605486398011
 30
0.0
 10
737.3647748763569
 20
-656.1697236783018
 30
0.0
 10
737.142177925079
 20
-655.7429353517495
 30
0.0
 10
736.9143089539083
 20
-655.325130383562
 30
0.0
 10
736.6815110990009
 20
-654.9163063255733
 30
0.0
 10
736.4441202411577
 20
-654.516451772962
 30
0.0
 10
736.2024668865963
 20
-654.1255464808003
 30
0.0
 10
735.9568744970331
 20
-653.7435608432122
 30
0.0
 10
735.7076634028854
 20
-653.3704601052514
 30
0.0
 10
735.4551363278349
 20
-653.0061906003859
 30
0.0
 10
734.5769280894207
 20
-651.7844295775755
 30
0.0
 10
732.9477350356708
 20
-649.8575005493235
 30
0.0
 10
730.2717909093108
 20
-647.4604831136825
 30
0.0
 10
727.3269832910129
 20
-645.476105786546
 30
0.0
 10
724.9041329293933
 20
-644.2925791709422
 30
0.0
 10
723.2455292136254
 20
-643.652613131452
 30
0.0
 10
722.3961536437586
 20
-643.358463239397
 30
0.0
 10
721.5395229587484
 20
-643.0947838156904
 30
0.0
 10
720.6767059785042
 20
-642.8616713945062
 30
0.0
 10
719.8088412000085
 20
-642.6589565356209
 30
0.0
 10
718.9369284034271
 20
-642.4873650765626
 30
0.0
 10
718.0623974193054
 20
-642.3440891081354
 30
0.0
 10
717.4764846836318
 20
-642.2740837815479
 30
0.0
 10
717.1840492661431
 20
-642.2213321702966
 30
0.0
  0
LINE
  5
20D67
330
18
100
AcDbEntity
  8
01
  6
CONTINUOUS
100
AcDbLine
 10
743.0162416462773
 20
-643.4073430443989
 30
0.0
 11
743.0162416462773
 21
-659.5609754747586
 31
0.0
  0
LINE
  5
20D68
330
18
100
AcDbEntity
  8
01
  6
CONTINUOUS
100
AcDbLine
 10
697.0162415568703
 20
-628.621330340846
 30
0.0
 11
703.5802030627602
 21
-628.621330340846
 31
0.0
  0
LINE
  5
20D69
330
18
100
AcDbEntity
  8
01
  6
CONTINUOUS
100
AcDbLine
 10
703.5801993374699
 20
-642.2213322522048
 30
0.0
 11
686.7162422900075
 21
-642.2213308570563
 31
0.0
  0
SPLINE
  5
20D6A
330
18
100
AcDbEntity
  8
01
  6
CONTINUOUS
100
AcDbSpline
210
0.0
220
0.0
230
1.0
 70
     8
 71
     3
 72
    21
 73
    17
 74
     0
 42
0.000000001
 43
0.00000001
 40
0.0
 40
0.0
 40
0.0
 40
0.0
 40
0.0536699035813955
 40
0.1077405136907536
 40
0.1622195466673855
 40
0.2171145465308388
 40
0.2724328870293143
 40
0.3281817738395174
 40
0.3843682469017192
 40
0.4409991828745497
 40
0.4980812976947702
 40
0.5875642890532675
 40
0.6824806642901226
 40
0.7828488800373292
 40
0.8886843447095656
 40
1.0
 40
1.0
 40
1.0
 40
1.0
 10
740.4427534033872
 20
-660.2213305211537
 30
0.0
 10
740.3990063982801
 20
-660.2205010071666
 30
0.0
 10
740.3111857671977
 20
-660.2188357859322
 30
0.0
 10
740.1795488576677
 20
-660.2053111490025
 30
0.0
 10
740.048116353487
 20
-660.1835567084636
 30
0.0
 10
739.9175022526615
 20
-660.1526838398136
 30
0.0
 10
739.7883382542735
 20
-660.112858935458
 30
0.0
 10
739.6612706941434
 20
-660.0640189187882
 30
0.0
 10
739.5369581118811
 20
-660.00622343335
 30
0.0
 10
739.4160653500599
 20
-659.9395569341982
 30
0.0
 10
739.2774840425776
 20
-659.8501158003457
 30
0.0
 10
739.1229565695456
 20
-659.7295799775466
 30
0.0
 10
738.9579024438791
 20
-659.5682876108901
 30
0.0
 10
738.8055282319597
 20
-659.3784176980059
 30
0.0
 10
738.6689478707382
 20
-659.1608494031734
 30
0.0
 10
738.6018825171093
 20
-658.9993931209218
 30
0.0
 10
738.5675035841904
 20
-658.9166276631029
 30
0.0
  0
LINE
  5
20D6B
330
18
100
AcDbEntity
  8
01
  6
CONTINUOUS
100
AcDbLine
 10
743.0162416462773
 20
-660.2213297462897
 30
0.0
 11
740.4427533661002
 21
-660.2213297462897
 31
0.0
  0
LINE
  5
20D6C
330
18
100
AcDbEntity
  8
01
  6
CONTINUOUS
100
AcDbLine
 10
743.0162416462773
 20
-659.5609754747586
 30
0.0
 11
743.0162416462773
 21
-660.2213297462897
 31
0.0
  0
SPLINE
  5
20D6D
330
18
100
AcDbEntity
  8
01
  6
CONTINUOUS
100
AcDbSpline
210
0.0
220
0.0
230
1.0
 70
     8
 71
     3
 72
    35
 73
    31
 74
     0
 42
0.000000001
 43
0.00000001
 40
0.0
 40
0.0
 40
0.0
 40
0.0
 40
0.0132771863999157
 40
0.0266200724587826
 40
0.0400313599266899
 40
0.0535135429384349
 40
0.0670689210240302
 40
0.0806996131287189
 40
0.0944075724973263
 40
0.108194602276333
 40
0.1220623716867573
 40
0.1360124326216533
 40
0.1500462365236903
 40
0.1641651514007317
 40
0.1783704788406524
 40
0.2224216821831172
 40
0.2681780983900037
 40
0.3335343362927229
 40
0.4035983071104468
 40
0.4582997504295429
 40
0.5171219748862619
 40
0.6207659703556556
 40
0.7190412378935099
 40
0.7577081743040281
 40
0.8141688538342422
 40
0.867942707476233
 40
0.907496969177967
 40
0.9407143218275795
 40
0.9715347239418566
 40
1.0
 40
1.0
 40
1.0
 40
1.0
 10
685.2162416462772
 20
-640.4213305211501
 30
0.0
 10
685.2169346495764
 20
-640.3241878732795
 30
0.0
 10
685.2183240853711
 20
-640.1294218854215
 30
0.0
 10
685.2295953121139
 20
-639.8368688547991
 30
0.0
 10
685.2476877982002
 20
-639.5434907014826
 30
0.0
 10
685.2733311874107
 20
-639.2495724889291
 30
0.0
 10
685.3063996706423
 20
-638.9554045380527
 30
0.0
 10
685.346979452274
 20
-638.661281591778
 30
0.0
 10
685.3950799614643
 20
-638.3675018400457
 30
0.0
 10
685.4507114720606
 20
-638.0743658641851
 30
0.0
 10
685.5138637230651
 20
-637.7821758274981
 30
0.0
 10
685.584511842927
 20
-637.4912335735892
 30
0.0
 10
685.6626132927672
 20
-637.2018427442299
 30
0.0
 10
685.7481137790618
 20
-636.9142956933408
 30
0.0
 10
685.9057347699771
 20
-636.4296475304707
 30
0.0
 10
686.1654717103796
 20
-635.7535570227901
 30
0.0
 10
686.6210902386226
 20
-634.7993470967945
 30
0.0
 10
687.2400173935108
 20
-633.7691815319781
 30
0.0
 10
687.9808559731763
 20
-632.8012832502286
 30
0.0
 10
688.7599757124506
 20
-631.9692712382002
 30
0.0
 10
689.7392998116137
 20
-631.0931861149521
 30
0.0
 10
690.9963508274549
 20
-630.2227120999887
 30
0.0
 10
692.2196050523086
 20
-629.6187155535471
 30
0.0
 10
693.2244631283987
 20
-629.2377311880242
 30
0.0
 10
694.0093705193765
 20
-628.9988568842923
 30
0.0
 10
694.807774264256
 20
-628.821488345242
 30
0.0
 10
695.4862103042129
 20
-628.7158677657096
 30
0.0
 10
696.0438779593571
 20
-628.6579003133801
 30
0.0
 10
696.5426830564836
 20
-628.6267021882165
 30
0.0
 10
696.8626253569668
 20
-628.6230730205598
 30
0.0
 10
697.0162416465441
 20
-628.6213305211501
 30
0.0
  0
SPLINE
  5
20D6E
330
18
100
AcDbEntity
  8
01
  6
CONTINUOUS
100
AcDbSpline
210
0.0
220
0.0
230
1.0
 70
     8
 71
     3
 72
    18
 73
    14
 74
     0
 42
0.000000001
 43
0.00000001
 40
0.0
 40
0.0
 40
0.0
 40
0.0
 40
0.0445182203576064
 40
0.0995737844875754
 40
0.1657874348383522
 40
0.2437059769993667
 40
0.3726722803042959
 40
0.4902856072868957
 40
0.6213457903053906
 40
0.7430045200479887
 40
0.83004119987602
 40
0.9159425024475596
 40
1.0
 40
1.0
 40
1.0
 40
1.0
 10
686.7162417225367
 20
-642.2213308570563
 30
0.0
 10
686.6822044114028
 20
-642.2206509054963
 30
0.0
 10
686.606073248563
 20
-642.2191300596592
 30
0.0
 10
686.4798507134116
 20
-642.2046414535332
 30
0.0
 10
686.3300362478309
 20
-642.1739769274355
 30
0.0
 10
686.130261712911
 20
-642.1091415588105
 30
0.0
 10
685.9055518322526
 20
-641.9943349365778
 30
0.0
 10
685.6724722544247
 20
-641.811877309374
 30
0.0
 10
685.4806357844064
 20
-641.5894117848046
 30
0.0
 10
685.3474175242503
 20
-641.3521101989626
 30
0.0
 10
685.2680889944643
 20
-641.1292345933314
 30
0.0
 10
685.2242915640161
 20
-640.9262053473592
 30
0.0
 10
685.2189054751211
 20
-640.789126607857
 30
0.0
 10
685.2162416462768
 20
-640.7213307902718
 30
0.0
  0
LINE
  5
20D6F
330
18
100
AcDbEntity
  8
01
  6
CONTINUOUS
100
AcDbLine
 10
685.2162429754609
 20
-640.7213307409422
 30
0.0
 11
685.2162429754609
 21
-640.42133055207
 31
0.0
  0
LINE
  5
20D73
330
18
100
AcDbEntity
  8
01
100
AcDbLine
 10
708.529951578843
 20
-629.6213305047588
 30
0.0
 11
708.5299478535527
 21
-641.2213324527131
 31
0.0
  0
SPLINE
  5
20D74
330
18
100
AcDbEntity
  8
01
100
AcDbSpline
210
0.0
220
0.0
230
1.0
 70
     8
 71
     3
 72
    14
 73
    10
 74
     0
 42
0.000000001
 43
0.00000001
 40
0.0
 40
0.0
 40
0.0
 40
0.0
 40
0.25
 40
0.25
 40
0.5
 40
0.5
 40
0.75
 40
0.75
 40
1.0
 40
1.0
 40
1.0
 40
1.0
 10
708.5299508554986
 20
-628.6213305107301
 30
0.0
 10
708.5299508846427
 20
-628.6213305115475
 30
0.0
 10
708.5299509160857
 20
-628.6428092619637
 30
0.0
 10
708.5299509769686
 20
-628.7402752325831
 30
0.0
 10
708.5299510062199
 20
-628.8165927583259
 30
0.0
 10
708.5299510545075
 20
-629.0118549908666
 30
0.0
 10
708.5299510733806
 20
-629.1301390857689
 30
0.0
 10
708.5299510974835
 20
-629.3763330596087
 30
0.0
 10
708.5299511027946
 20
-629.5034796817946
 30
0.0
 10
708.5299511027952
 20
-629.6213308570286
 30
0.0
  0
SPLINE
  5
20D79
330
18
100
AcDbEntity
  8
01
100
AcDbSpline
210
0.0
220
0.0
230
1.0
 70
     8
 71
     3
 72
    14
 73
    10
 74
     0
 42
0.000000001
 43
0.00000001
 40
0.0
 40
0.0
 40
0.0
 40
0.0
 40
0.25
 40
0.25
 40
0.5
 40
0.5
 40
0.75
 40
0.75
 40
1.0
 40
1.0
 40
1.0
 40
1.0
 10
708.5299485704472
 20
-642.2213322744103
 30
0.0
 10
708.5299485995913
 20
-642.2213322901516
 30
0.0
 10
708.5299486299423
 20
-642.1998535715177
 30
0.0
 10
708.52994868587
 20
-642.1023876987338
 30
0.0
 10
708.5299487112411
 20
-642.0260702391556
 30
0.0
 10
708.5299487496017
 20
-641.83080814497
 30
0.0
 10
708.5299487624612
 20
-641.7125241206893
 30
0.0
 10
708.5299487740479
 20
-641.4663302545714
 30
0.0
 10
708.5299487728954
 20
-641.3391836361163
 30
0.0
 10
708.529948766904
 20
-641.2213325094201
 30
0.0
  0
SPLINE
  5
20D93
330
18
100
AcDbEntity
  8
01
  6
CONTINUOUS
100
AcDbSpline
210
0.0
220
0.0
230
1.0
 70
     8
 71
     3
 72
    11
 73
     7
 74
     0
 42
0.000000001
 43
0.00000001
 40
0.0
 40
0.0
 40
0.0
 40
0.0
 40
0.2510275722250101
 40
0.5023210935458381
 40
0.7524647085442354
 40
1.0
 40
1.0
 40
1.0
 40
1.0
 10
187.4173359328008
 20
-593.6069792038531
 30
0.0
 10
187.3710727373997
 20
-593.607287518977
 30
0.0
 10
187.2784973334359
 20
-593.6079044758669
 30
0.0
 10
187.137766906854
 20
-593.5786338186471
 30
0.0
 10
187.000347597213
 20
-593.5291141197042
 30
0.0
 10
186.9155072762062
 20
-593.4774378827474
 30
0.0
 10
186.8733094387746
 20
-593.4517351812453
 30
0.0
  0
LINE
  5
20D94
330
18
100
AcDbEntity
  8
01
  6
CONTINUOUS
100
AcDbLine
 10
190.0162474566198
 20
-592.8213303810687
 30
0.0
 11
190.0162474566198
 21
-581.8213304406734
 31
0.0
  0
LINE
  5
20D95
330
18
100
AcDbEntity
  8
01
  6
CONTINUOUS
100
AcDbLine
 10
405.0162510328985
 20
-592.8213303810687
 30
0.0
 11
190.0162474566198
 21
-592.8213303810687
 31
0.0
  0
LINE
  5
20D96
330
18
100
AcDbEntity
  8
01
  6
CONTINUOUS
100
AcDbLine
 10
190.0162474566198
 20
-571.8213288015456
 30
0.0
 11
190.0162474566198
 21
-581.8213304406734
 31
0.0
  0
LINE
  5
20D97
330
18
100
AcDbEntity
  8
01
  6
CONTINUOUS
100
AcDbLine
 10
190.0162474566198
 20
-570.821330500278
 30
0.0
 11
405.0162510328985
 21
-570.821330500278
 31
0.0
  0
LINE
  5
20D98
330
18
100
AcDbEntity
  8
01
  6
CONTINUOUS
100
AcDbLine
 10
190.0162474566198
 20
-571.8213288015456
 30
0.0
 11
190.0162474566198
 21
-570.821330500278
 31
0.0
  0
SPLINE
  5
20D99
330
18
100
AcDbEntity
  8
01
  6
CONTINUOUS
100
AcDbSpline
210
0.0
220
0.0
230
1.0
 70
    24
 71
     3
 72
    14
 73
    10
 74
     0
 42
0.000000001
 43
0.00000001
 40
0.0
 40
0.0
 40
0.0
 40
0.0
 40
0.25
 40
0.25
 40
0.5
 40
0.5
 40
0.75
 40
0.75
 40
1.0
 40
1.0
 40
1.0
 40
1.0
 10
167.0162605820838
 20
-535.821330320354
 30
0.0
 10
167.0162605578578
 20
-535.821330320354
 30
0.0
 10
167.0377392731289
 20
-535.8213303256656
 30
0.0
 10
167.1352051614214
 20
-535.8213303497687
 30
0.0
 10
167.2115226404004
 20
-535.8213303686416
 30
0.0
 10
167.4067847914248
 20
-535.8213304169294
 30
0.0
 10
167.5250688524959
 20
-535.8213304461806
 30
0.0
 10
167.7712627874494
 20
-535.8213305070635
 30
0.0
 10
167.8984094372266
 20
-535.8213305385063
 30
0.0
 10
168.016260585542
 20
-535.8213305676506
 30
0.0
  0
LINE
  5
20D9A
330
18
100
AcDbEntity
  8
01
  6
CONTINUOUS
100
AcDbLine
 10
167.0162604504324
 20
-535.821330320354
 30
0.0
 11
167.0162455492712
 21
-570.3076204187007
 31
0.0
  0
LINE
  5
20D9B
330
18
100
AcDbEntity
  8
01
  6
CONTINUOUS
100
AcDbLine
 10
189.2162488156057
 20
-535.8213303512664
 30
0.0
 11
168.0162624769903
 21
-535.8213303512664
 31
0.0
  0
SPLINE
  5
20D9C
330
18
100
AcDbEntity
  8
01
  6
CONTINUOUS
100
AcDbSpline
210
0.0
220
0.0
230
1.0
 70
    24
 71
     3
 72
     8
 73
     4
 74
     0
 42
0.000000001
 43
0.00000001
 40
0.0
 40
0.0
 40
0.0
 40
0.0
 40
1.0
 40
1.0
 40
1.0
 40
1.0
 10
175.935162543916
 20
-582.5166324026188
 30
0.0
 10
175.9270618360081
 20
-582.5247331105268
 30
0.0
 10
175.9233578134883
 20
-582.5284371330504
 30
0.0
 10
175.923357814082
 20
-582.5284371324528
 30
0.0
  0
LINE
  5
20D9D
330
18
100
AcDbEntity
  8
01
  6
CONTINUOUS
100
AcDbLine
 10
186.723359053681
 20
-593.3284355229468
 30
0.0
 11
169.3593935423589
 21
-575.9644774622054
 31
0.0
  0
LINE
  5
20D9E
330
18
100
AcDbEntity
  8
01
  6
CONTINUOUS
100
AcDbLine
 10
187.4304638558126
 20
-593.6213290220828
 30
0.0
 11
187.413118904183
 21
-593.6023747450442
 31
0.0
  0
LINE
  5
20D9F
330
18
100
AcDbEntity
  8
01
  6
CONTINUOUS
100
AcDbLine
 10
189.2162488156057
 20
-593.6213290220828
 30
0.0
 11
187.4304638558126
 21
-593.6213290220828
 31
0.0
  0
LINE
  5
20DA0
330
18
100
AcDbEntity
  8
01
  6
CONTINUOUS
100
AcDbLine
 10
190.0162474566198
 20
-581.8213304406734
 30
0.0
 11
190.0162474566198
 21
-535.8213303512891
 31
0.0
  0
SPLINE
  5
20DA1
330
18
100
AcDbEntity
  8
01
  6
CONTINUOUS
100
AcDbSpline
210
0.0
220
0.0
230
1.0
 70
    24
 71
     3
 72
    17
 73
    13
 74
     0
 42
0.000000001
 43
0.00000001
 40
0.0
 40
0.0
 40
0.0
 40
0.0
 40
0.0602429937217822
 40
0.1199994426733184
 40
0.1798082619075141
 40
0.2402069646521749
 40
0.3699548045145694
 40
0.5001294914424274
 40
0.6298775062444557
 40
0.7600523686864118
 40
0.8799221124894736
 40
0.9999999999999999
 40
0.9999999999999999
 40
0.9999999999999999
 40
0.9999999999999999
 10
190.0162510429865
 20
-535.8213303512664
 30
0.0
 10
190.0155831712086
 20
-535.8213303512664
 30
0.0
 10
190.0142528216331
 20
-535.8213303512664
 30
0.0
 10
190.0032998427909
 20
-535.8213303512664
 30
0.0
 10
189.9857427999294
 20
-535.8213303512664
 30
0.0
 10
189.9517429253964
 20
-535.8213303512664
 30
0.0
 10
189.8898983926464
 20
-535.8213303512664
 30
0.0
 10
189.7858892302202
 20
-535.8213303512664
 30
0.0
 10
189.658795124376
 20
-535.8213303512664
 30
0.0
 10
189.5165679979825
 20
-535.8213303512664
 30
0.0
 10
189.3671369603129
 20
-535.8213303512664
 30
0.0
 10
189.2665754276563
 20
-535.8213303512664
 30
0.0
 10
189.2162510450395
 20
-535.8213303512664
 30
0.0
  0
LINE
  5
20DA2
330
18
100
AcDbEntity
  8
01
  6
CONTINUOUS
100
AcDbLine
 10
186.8734435492254
 20
-593.4516122466655
 30
0.0
 11
186.723359053681
 21
-593.3284355229468
 31
0.0
  0
SPLINE
  5
20DA3
330
18
100
AcDbEntity
  8
01
  6
CONTINUOUS
100
AcDbSpline
210
0.0
220
0.0
230
1.0
 70
     8
 71
     3
 72
    14
 73
    10
 74
     0
 42
0.000000001
 43
0.00000001
 40
0.0
 40
0.0
 40
0.0
 40
0.0
 40
0.25
 40
0.25
 40
0.5
 40
0.5
 40
0.75
 40
0.75
 40
1.0
 40
1.0
 40
1.0
 40
1.0
 10
169.3593978042405
 20
-575.9644771226125
 30
0.0
 10
168.9688733759112
 20
-575.5739526942832
 30
0.0
 10
168.6192969544654
 20
-575.142656092534
 30
0.0
 10
168.0212783460667
 20
-574.2279447481628
 30
0.0
 10
167.7728770708593
 20
-573.7447675030485
 30
0.0
 10
167.3830134015253
 20
-572.7599915297483
 30
0.0
 10
167.2414590206915
 20
-572.258592410011
 30
0.0
 10
167.0581586151573
 20
-571.2680590570517
 30
0.0
 10
167.016251937156
 20
-570.7790255321164
 30
0.0
 10
167.0162520537326
 20
-570.3076208947488
 30
0.0
  0
SPLINE
  5
20DA4
330
18
100
AcDbEntity
  8
01
  6
CONTINUOUS
100
AcDbSpline
210
0.0
220
0.0
230
1.0
 70
     8
 71
     3
 72
    14
 73
    10
 74
     0
 42
0.000000001
 43
0.00000001
 40
0.0
 40
0.0
 40
0.0
 40
0.0
 40
0.25
 40
0.25
 40
0.5
 40
0.5
 40
0.75
 40
0.75
 40
1.0
 40
1.0
 40
1.0
 40
1.0
 10
190.0162510322975
 20
-592.8213303513432
 30
0.0
 10
190.0162510323545
 20
-592.9156112554736
 30
0.0
 10
189.9990680412259
 20
-593.0173285586973
 30
0.0
 10
189.9210953049958
 20
-593.2142836793194
 30
0.0
 10
189.8600413155247
 20
-593.3089109179634
 30
0.0
 10
189.7038315987811
 20
-593.4651206346552
 30
0.0
 10
189.6092043601157
 20
-593.5261746240958
 30
0.0
 10
189.4122492394627
 20
-593.6041473602613
 30
0.0
 10
189.310531936263
 20
-593.6213303512899
 30
0.0
 10
189.2162510320956
 20
-593.6213303512661
 30
0.0
  0
SPLINE
  5
20DA5
330
18
100
AcDbEntity
  8
01
  6
CONTINUOUS
100
AcDbSpline
210
0.0
220
0.0
230
1.0
 70
    24
 71
     3
 72
    26
 73
    22
 74
     0
 42
0.000000001
 43
0.00000001
 40
0.0
 40
0.0
 40
0.0
 40
0.0
 40
0.0194539219290418
 40
0.038873253970256
 40
0.058276078404286
 40
0.0776805236603051
 40
0.0971047136293891
 40
0.1165667170412037
 40
0.1783152236586917
 40
0.2400936317684177
 40
0.3044157777650366
 40
0.3687690717837472
 40
0.5000066969007156
 40
0.6312443220178269
 40
0.6955664705170457
 40
0.759919767048461
 40
0.8216682772062806
 40
0.8834466888699491
 40
0.9223155076087496
 40
0.9611182433776863
 40
1.0
 40
1.0
 40
1.0
 40
1.0
 10
190.0162510323374
 20
-592.8213303513432
 30
0.0
 10
190.0162510323348
 20
-592.8203508147285
 30
0.0
 10
190.0162510323296
 20
-592.8183934831561
 30
0.0
 10
190.0162510323238
 20
-592.802514590847
 30
0.0
 10
190.0162510323198
 20
-592.7771525927276
 30
0.0
 10
190.0162510323178
 20
-592.7413848321851
 30
0.0
 10
190.0162510323174
 20
-592.6954533028118
 30
0.0
 10
190.0162510323202
 20
-592.5987187131625
 30
0.0
 10
190.0162510323332
 20
-592.4098585826747
 30
0.0
 10
190.0162510323694
 20
-592.0602306173346
 30
0.0
 10
190.0162510324246
 20
-591.6053025222141
 30
0.0
 10
190.0162510325258
 20
-590.8496575860877
 30
0.0
 10
190.0162510327002
 20
-589.6551318996578
 30
0.0
 10
190.0162510329308
 20
-588.1836844903969
 30
0.0
 10
190.0162510331407
 20
-586.8901781652976
 30
0.0
 10
190.0162510333064
 20
-585.8908599201872
 30
0.0
 10
190.0162510334791
 20
-584.8658848771358
 30
0.0
 10
190.0162510336352
 20
-583.9545149025626
 30
0.0
 10
190.0162510337727
 20
-583.1608054654873
 30
0.0
 10
190.0162510338897
 20
-582.4923432927643
 30
0.0
 10
190.0162510339687
 20
-582.0451529595744
 30
0.0
 10
190.0162510340083
 20
-581.8213303514356
 30
0.0
  0
SPLINE
  5
20DA6
330
18
100
AcDbEntity
  8
01
  6
CONTINUOUS
100
AcDbSpline
210
0.0
220
0.0
230
1.0
 70
     8
 71
     3
 72
    14
 73
    10
 74
     0
 42
0.000000001
 43
0.00000001
 40
0.0
 40
0.0
 40
0.0
 40
0.0
 40
0.25
 40
0.25
 40
0.5
 40
0.5
 40
0.75
 40
0.75
 40
1.0
 40
1.0
 40
1.0
 40
1.0
 10
167.0162543896228
 20
-570.3076232306394
 30
0.0
 10
167.0162542730164
 20
-570.7790279646022
 30
0.0
 10
167.0581609510474
 20
-571.2680613929426
 30
0.0
 10
167.2414613565818
 20
-572.2585947459017
 30
0.0
 10
167.3830157374153
 20
-572.759993865639
 30
0.0
 10
167.7728794067493
 20
-573.7447698389394
 30
0.0
 10
168.0212806819568
 20
-574.2279470840535
 30
0.0
 10
168.6192992903557
 20
-575.1426584284247
 30
0.0
 10
168.9688757118014
 20
-575.5739550301737
 30
0.0
 10
169.3594001401308
 20
-575.964479458503
 30
0.0
  0
LINE
  5
20DA7
330
18
100
AcDbEntity
  8
01
  6
CONTINUOUS
100
AcDbLine
 10
167.0162455492712
 20
-570.3076204187007
 30
0.0
 11
167.0162604504324
 21
-570.307624143991
 31
0.0
  0
LINE
  5
20DA9
102
{ACAD_REACTORS
330
20DAF
102
}
330
18
100
AcDbEntity
  8
01
100
AcDbLine
 10
179.5162511828984
 20
-539.8213303512664
 30
0.0
 11
180.5162508828984
 21
-538.8213303512664
 31
0.0
  0
LINE
  5
20DAA
102
{ACAD_REACTORS
330
20DAF
102
}
330
18
100
AcDbEntity
  8
01
100
AcDbLine
 10
176.2162510328984
 20
-539.8213303512664
 30
0.0
 11
176.2162510328984
 21
-538.8213303512664
 31
0.0
  0
LINE
  5
20DAB
102
{ACAD_REACTORS
330
20DAF
102
}
330
18
100
AcDbEntity
  8
01
100
AcDbLine
 10
176.2162510328984
 20
-538.8213303512664
 30
0.0
 11
183.8162510328983
 21
-538.8213303512664
 31
0.0
  0
LINE
  5
20DAC
102
{ACAD_REACTORS
330
20DAF
102
}
330
18
100
AcDbEntity
  8
01
100
AcDbLine
 10
176.2162510328984
 20
-539.8213303512664
 30
0.0
 11
183.8162510328983
 21
-539.8213303512664
 31
0.0
  0
LINE
  5
20DAD
102
{ACAD_REACTORS
330
20DAF
102
}
330
18
100
AcDbEntity
  8
01
100
AcDbLine
 10
183.8162510328983
 20
-539.8213303512664
 30
0.0
 11
183.8162510328983
 21
-538.8213303512664
 31
0.0
  0
ARC
  5
20DB0
330
18
100
AcDbEntity
  8
01
  6
CONTINUOUS
100
AcDbCircle
 10
642.0162303000444
 20
-641.2213317293686
 30
0.0
 40
1.0
100
AcDbArc
 50
269.9999968429356
 51
359.9999441103429
  0
SPLINE
  5
20DB1
330
18
100
AcDbEntity
  8
01
  6
CONTINUOUS
100
AcDbSpline
210
0.0
220
0.0
230
1.0
 70
     8
 71
     3
 72
    40
 73
    36
 74
     0
 42
0.000000001
 43
0.00000001
 40
0.0
 40
0.0
 40
0.0
 40
0.0
 40
0.0758361528878213
 40
0.1470457494403764
 40
0.2181526925519529
 40
0.2556198305283273
 40
0.2940303370213909
 40
0.330794668474204
 40
0.3599475884618323
 40
0.3909104244875003
 40
0.3966995764876238
 40
0.4013966327536956
 40
0.4053332650096532
 40
0.4071862092406426
 40
0.4090620167712314
 40
0.4131689199541203
 40
0.42105379712992
 40
0.4311338135883819
 40
0.4427596064279468
 40
0.451601947888988
 40
0.4551092659514013
 40
0.4581257535676255
 40
0.4608112141687616
 40
0.4633953847113979
 40
0.4661293501989592
 40
0.4692287458731388
 40
0.4770667462117947
 40
0.5010723028365993
 40
0.5374608168431327
 40
0.5849228850066529
 40
0.6379175498800038
 40
0.6960406015048078
 40
0.8129903172821102
 40
0.9462250752998901
 40
1.0
 40
1.0
 40
1.0
 40
1.0
 10
168.4023515635234
 20
-643.2872001669135
 30
0.0
 10
168.367798835199
 20
-643.2087558750186
 30
0.0
 10
168.3008013460307
 20
-643.0566529629934
 30
0.0
 10
168.1873912307863
 20
-642.8568165859367
 30
0.0
 10
168.1038019255443
 20
-642.7273260360964
 30
0.0
 10
168.0486760691191
 20
-642.6474279476549
 30
0.0
 10
168.014597165019
 20
-642.5991384955396
 30
0.0
 10
167.9801962659935
 20
-642.552633245048
 30
0.0
 10
167.9447865980876
 20
-642.5072479280011
 30
0.0
 10
167.9171050277138
 20
-642.4733885360324
 30
0.0
 10
167.8926140656589
 20
-642.4454144582363
 30
0.0
 10
167.8827611969316
 20
-642.4344051330288
 30
0.0
 10
167.8746177426144
 20
-642.425559762051
 30
0.0
 10
167.8687592835612
 20
-642.4193150375378
 30
0.0
 10
167.8631002676813
 20
-642.4133595629619
 30
0.0
 10
167.8546334999685
 20
-642.4046345129059
 30
0.0
 10
167.8458209966691
 20
-642.3959639575212
 30
0.0
 10
167.8386336823173
 20
-642.3892290806657
 30
0.0
 10
167.8287117686536
 20
-642.3796637546709
 30
0.0
 10
167.8185433033499
 20
-642.3696444965774
 30
0.0
 10
167.8098763257881
 20
-642.3610240824742
 30
0.0
 10
167.8037300032612
 20
-642.3548766949889
 30
0.0
 10
167.7973981456822
 20
-642.3484885229357
 30
0.0
 10
167.7909275753811
 20
-642.3419546191672
 30
0.0
 10
167.7845061522429
 20
-642.3354491689986
 30
0.0
 10
167.7753797687632
 20
-642.3261634913363
 30
0.0
 10
167.757436968276
 20
-642.3078966961743
 30
0.0
 10
167.7362915361165
 20
-642.2861829425927
 30
0.0
 10
167.7131408962604
 20
-642.262411933446
 30
0.0
 10
167.6919852446438
 20
-642.2404495376156
 30
0.0
 10
167.6717350088347
 20
-642.2194425015014
 30
0.0
 10
167.6494553516699
 20
-642.1959439095511
 30
0.0
 10
167.6313255309975
 20
-642.1752260770759
 30
0.0
 10
167.6228479952465
 20
-642.1631630974838
 30
0.0
 10
167.6264194892984
 20
-642.1618273189811
 30
0.0
 10
167.6274464779598
 20
-642.1614432137982
 30
0.0
  0
SPLINE
  5
20DB2
330
18
100
AcDbEntity
  8
01
100
AcDbSpline
210
0.0
220
0.0
230
1.0
 70
     8
 71
     3
 72
    14
 73
    10
 74
     0
 42
0.000000001
 43
0.00000001
 40
0.0
 40
0.0
 40
0.0
 40
0.0
 40
0.1814200177527772
 40
0.3409242762766103
 40
0.4734933179566282
 40
0.5765195552532445
 40
0.6670644140463529
 40
0.7672626683913567
 40
1.0
 40
1.0
 40
1.0
 40
1.0
 10
175.2141044789058
 20
-660.1978975004282
 30
0.0
 10
175.1456470184822
 20
-660.1944758897796
 30
0.0
 10
175.0170018422789
 20
-660.1880460032185
 30
0.0
 10
174.8454443351951
 20
-660.1356482090412
 30
0.0
 10
174.7117730815602
 20
-660.0715230692307
 30
0.0
 10
174.6095527362122
 20
-660.0034345711913
 30
0.0
 10
174.5258850822206
 20
-659.9348738464121
 30
0.0
 10
174.4255524113312
 20
-659.8372559184324
 30
0.0
 10
174.3737359593689
 20
-659.7534040536437
 30
0.0
 10
174.3375138693553
 20
-659.6947877323952
 30
0.0
  0
LINE
  5
20DB3
330
18
100
AcDbEntity
  8
01
  6
CONTINUOUS
100
AcDbLine
 10
190.0162325554592
 20
-640.4213303821858
 30
0.0
 11
190.0162325554592
 21
-641.4213303714756
 31
0.0
  0
LINE
  5
20DB4
330
18
100
AcDbEntity
  8
01
  6
CONTINUOUS
100
AcDbLine
 10
190.0162325554592
 20
-641.4213303714756
 30
0.0
 11
405.0162361317379
 21
-641.4213303714756
 31
0.0
  0
LINE
  5
20DB5
330
18
100
AcDbEntity
  8
01
  6
CONTINUOUS
100
AcDbLine
 10
190.0162325554592
 20
-629.4213306746211
 30
0.0
 11
405.0162361317379
 21
-629.4213306746211
 31
0.0
  0
LINE
  5
20DB6
330
18
100
AcDbEntity
  8
01
  6
CONTINUOUS
100
AcDbLine
 10
190.0162325554592
 20
-640.4213303821858
 30
0.0
 11
190.0162325554592
 21
-629.4213306746211
 31
0.0
  0
LINE
  5
20DB7
330
18
100
AcDbEntity
  8
01
  6
CONTINUOUS
100
AcDbLine
 10
189.2162339144451
 20
-628.6213301709619
 30
0.0
 11
176.6304449492199
 21
-628.6213301709619
 31
0.0
  0
SPLINE
  5
20DB8
330
18
100
AcDbEntity
  8
01
100
AcDbSpline
210
0.0
220
0.0
230
1.0
 70
     8
 71
     3
 72
    17
 73
    13
 74
     0
 42
0.000000001
 43
0.00000001
 40
0.0
 40
0.0
 40
0.0
 40
0.0
 40
0.0509810876432405
 40
0.1140292624716942
 40
0.1898553823074812
 40
0.2790856344387412
 40
0.4267744314975379
 40
0.5614621005630992
 40
0.7115487532489676
 40
0.8508691104813736
 40
0.9257404812626598
 40
1.0
 40
1.0
 40
1.0
 40
1.0
 10
186.9304498022559
 20
-642.2213306871722
 30
0.0
 10
186.9418067038729
 20
-642.2206507366219
 30
0.0
 10
186.9672086553653
 20
-642.2191298930436
 30
0.0
 10
187.0091747989326
 20
-642.2046412654435
 30
0.0
 10
187.0587148252035
 20
-642.1739768471105
 30
0.0
 10
187.125935856199
 20
-642.1091408790201
 30
0.0
 10
187.2010283005145
 20
-641.9943379437893
 30
0.0
 10
187.2782990253334
 20
-641.8118660977868
 30
0.0
 10
187.3421930273454
 20
-641.5894567685066
 30
0.0
 10
187.3837876670568
 20
-641.3671115588627
 30
0.0
 10
187.4078056242886
 20
-641.1784260915456
 30
0.0
 10
187.4158952736354
 20
-641.0765550645458
 30
0.0
 10
187.4199235032611
 20
-641.0258285285297
 30
0.0
  0
LINE
  5
20DB9
330
18
100
AcDbEntity
  8
01
  6
CONTINUOUS
100
AcDbLine
 10
186.9304553919536
 20
-642.2213306871722
 30
0.0
 11
189.2162339144451
 21
-642.221330381862
 31
0.0
  0
LINE
  5
20DBA
330
18
100
AcDbEntity
  8
01
  6
CONTINUOUS
100
AcDbLine
 10
190.0162325554592
 20
-640.7213303382274
 30
0.0
 11
190.0162325554592
 21
-640.4213303821858
 31
0.0
  0
SPLINE
  5
20DBB
330
18
100
AcDbEntity
  8
01
100
AcDbSpline
210
0.0
220
0.0
230
1.0
 70
     8
 71
     3
 72
    14
 73
    10
 74
     0
 42
0.000000001
 43
0.00000001
 40
0.0
 40
0.0
 40
0.0
 40
0.0
 40
0.2500000000000001
 40
0.2500000000000001
 40
0.5000000000000001
 40
0.5000000000000001
 40
0.75
 40
0.75
 40
1.0
 40
1.0
 40
1.0
 40
1.0
 10
189.2162363548128
 20
-642.2213303818621
 30
0.0
 10
189.3105172512625
 20
-642.221330355525
 30
0.0
 10
189.4122345375852
 20
-642.2041473388798
 30
0.0
 10
189.6091896105556
 20
-642.126174567924
 30
0.0
 10
189.7038168187394
 20
-642.0651205699414
 30
0.0
 10
189.8600264790343
 20
-641.9089108585281
 30
0.0
 10
189.9210804432958
 20
-641.8142836334516
 30
0.0
 10
189.9990531473835
 20
-641.617328548813
 30
0.0
 10
190.0162361313959
 20
-641.5156112673615
 30
0.0
 10
190.0162361313985
 20
-641.4213303818192
 30
0.0
  0
SPLINE
  5
20DBC
330
18
100
AcDbEntity
  8
01
  6
CONTINUOUS
100
AcDbSpline
210
0.0
220
0.0
230
1.0
 70
    24
 71
     3
 72
    17
 73
    13
 74
     0
 42
0.000000001
 43
0.00000001
 40
0.0
 40
0.0
 40
0.0
 40
0.0
 40
0.0627647914528716
 40
0.1249837801295822
 40
0.187266638851783
 40
0.2502211848519768
 40
0.3749294219716509
 40
0.500145770758059
 40
0.6248540078736614
 40
0.750070356656215
 40
0.8749083933865247
 40
1.0
 40
1.0
 40
1.0
 40
1.0
 10
190.0162361313263
 20
-641.4213303818217
 30
0.0
 10
190.0162361313221
 20
-641.4206973969574
 30
0.0
 10
190.0162361313139
 20
-641.4194369316665
 30
0.0
 10
190.0162361313018
 20
-641.4090444763947
 30
0.0
 10
190.0162361312895
 20
-641.3923792971367
 30
0.0
 10
190.0162361312734
 20
-641.3614352293962
 30
0.0
 10
190.016236131254
 20
-641.3073741817768
 30
0.0
 10
190.016236131233
 20
-641.2195384562829
 30
0.0
 10
190.0162361312146
 20
-641.1129616284835
 30
0.0
 10
190.0162361312002
 20
-640.9910132153889
 30
0.0
 10
190.0162361311893
 20
-640.858880865419
 30
0.0
 10
190.016236131186
 20
-640.7672115445247
 30
0.0
 10
190.0162361311844
 20
-640.7213303818326
 30
0.0
  0
SPLINE
  5
20DBD
330
18
100
AcDbEntity
  8
01
  6
CONTINUOUS
100
AcDbSpline
210
0.0
220
0.0
230
1.0
 70
     8
 71
     3
 72
    26
 73
    22
 74
     0
 42
0.000000001
 43
0.00000001
 40
0.0
 40
0.0
 40
0.0
 40
0.0
 40
0.0194539219290418
 40
0.038873253970256
 40
0.058276078404286
 40
0.0776805236603051
 40
0.0971047136293891
 40
0.1165667170412037
 40
0.1783152236586917
 40
0.2400936317684177
 40
0.3044157777650366
 40
0.3687690717837472
 40
0.5000066969007156
 40
0.6312443220178269
 40
0.6955664705170457
 40
0.759919767048461
 40
0.8216682772062806
 40
0.8834466888699491
 40
0.9223155076087496
 40
0.9611182433776863
 40
1.0
 40
1.0
 40
1.0
 40
1.0
 10
190.0162361311768
 20
-640.4213303512254
 30
0.0
 10
190.0162361311742
 20
-640.3093568249992
 30
0.0
 10
190.016236131169
 20
-640.0856088661658
 30
0.0
 10
190.0162361311632
 20
-639.7504917833372
 30
0.0
 10
190.0162361311592
 20
-639.4162822419169
 30
0.0
 10
190.0162361311571
 20
-639.0829833690561
 30
0.0
 10
190.0162361311568
 20
-638.7505873715086
 30
0.0
 10
190.0162361311595
 20
-638.1794556956878
 30
0.0
 10
190.0162361311726
 20
-637.3769239296114
 30
0.0
 10
190.0162361312088
 20
-636.3521323683683
 30
0.0
 10
190.016236131264
 20
-635.3526426369399
 30
0.0
 10
190.0162361313652
 20
-634.0591162191251
 30
0.0
 10
190.0162361315396
 20
-632.5875295371341
 30
0.0
 10
190.0162361317701
 20
-631.3931149922242
 30
0.0
 10
190.0162361319801
 20
-630.6374443640252
 30
0.0
 10
190.0162361321458
 20
-630.182544057966
 30
0.0
 10
190.0162361323185
 20
-629.8329057691162
 30
0.0
 10
190.0162361324745
 20
-629.6181535129188
 30
0.0
 10
190.0162361326121
 20
-629.4966786205852
 30
0.0
 10
190.0162361327291
 20
-629.4330644136936
 30
0.0
 10
190.0162361328081
 20
-629.4252443569128
 30
0.0
 10
190.0162361328477
 20
-629.4213303512322
 30
0.0
  0
LINE
  5
20DBE
330
18
100
AcDbEntity
  8
01
  6
CONTINUOUS
100
AcDbLine
 10
168.0162420185325
 20
-642.2213317293686
 30
0.0
 11
186.9304553919536
 21
-642.2213306871722
 31
0.0
  0
LINE
  5
20DBF
330
18
100
AcDbEntity
  8
01
  6
CONTINUOUS
100
AcDbLine
 10
189.2162339144451
 20
-642.2213288494929
 30
0.0
 11
189.2162339144451
 21
-642.2213303818619
 31
0.0
  0
LINE
  5
20DC0
330
18
100
AcDbEntity
  8
01
  6
CONTINUOUS
100
AcDbLine
 10
176.6304449492199
 20
-628.6213301709619
 30
0.0
 11
170.06648344333
 21
-628.6213301709619
 31
0.0
  0
SPLINE
  5
20DC1
330
18
100
AcDbEntity
  8
01
  6
CONTINUOUS
100
AcDbSpline
210
0.0
220
0.0
230
1.0
 70
     8
 71
     3
 72
    17
 73
    13
 74
     0
 42
0.000000001
 43
0.00000001
 40
0.0
 40
0.0
 40
0.0
 40
0.0
 40
0.0602429937217822
 40
0.1199994426733184
 40
0.1798082619075141
 40
0.2402069646521749
 40
0.3699548045145694
 40
0.5001294914424274
 40
0.6298775062444557
 40
0.7600523686864118
 40
0.8799221124894736
 40
0.9999999999999999
 40
0.9999999999999999
 40
0.9999999999999999
 40
0.9999999999999999
 10
190.0162361418259
 20
-629.421330351246
 30
0.0
 10
190.015568270048
 20
-629.3961175291818
 30
0.0
 10
190.0142379204725
 20
-629.3458955131595
 30
0.0
 10
190.0032849416302
 20
-629.2713031204153
 30
0.0
 10
189.9857278987688
 20
-629.1979904997893
 30
0.0
 10
189.9517280242358
 20
-629.098973410715
 30
0.0
 10
189.8898834914858
 20
-628.9789144922416
 30
0.0
 10
189.7858743290595
 20
-628.8519790743248
 30
0.0
 10
189.6587802232153
 20
-628.7476712006866
 30
0.0
 10
189.5165530968219
 20
-628.674803136282
 30
0.0
 10
189.3671220591523
 20
-628.629315854334
 30
0.0
 10
189.2665605264957
 20
-628.6239937245243
 30
0.0
 10
189.2162361438789
 20
-628.6213303512661
 30
0.0
  0
LINE
  5
20DC2
330
18
100
AcDbEntity
  8
01
  6
CONTINUOUS
100
AcDbLine
 10
167.0162306481105
 20
-629.6213303348746
 30
0.0
 11
167.0162419634318
 21
-641.2213327048271
 31
0.0
  0
SPLINE
  5
20DC3
330
18
100
AcDbEntity
  8
01
  6
CONTINUOUS
100
AcDbSpline
210
0.0
220
0.0
230
1.0
 70
     8
 71
     3
 72
    14
 73
    10
 74
     0
 42
0.000000001
 43
0.00000001
 40
0.0
 40
0.0
 40
0.0
 40
0.0
 40
0.25
 40
0.25
 40
0.5
 40
0.5
 40
0.75
 40
0.75
 40
1.0
 40
1.0
 40
1.0
 40
1.0
 10
168.0162371560391
 20
-628.621330340846
 30
0.0
 10
167.8983859968636
 20
-628.6213303416633
 30
0.0
 10
167.7712393344087
 20
-628.6428090920797
 30
0.0
 10
167.5250453784689
 20
-628.740275062699
 30
0.0
 10
167.4067613094838
 20
-628.8165925884417
 30
0.0
 10
167.2114991553711
 20
-629.0118548209823
 30
0.0
 10
167.1351816813649
 20
-629.1301389158846
 30
0.0
 10
167.0377158133379
 20
-629.3763328897245
 30
0.0
 10
167.0162371129917
 20
-629.5034795119104
 30
0.0
 10
167.0162371525741
 20
-629.6213306871446
 30
0.0
  0
SPLINE
  5
20DC4
330
18
100
AcDbEntity
  8
01
  6
CONTINUOUS
100
AcDbSpline
210
0.0
220
0.0
230
1.0
 70
    24
 71
     3
 72
    19
 73
    15
 74
     0
 42
0.000000001
 43
0.00000001
 40
0.0
 40
0.0
 40
0.0
 40
0.0
 40
0.0495831790849679
 40
0.0990613934239885
 40
0.1485096723521178
 40
0.1980031813457049
 40
0.2476168803089125
 40
0.3737672123511683
 40
0.5000135409698769
 40
0.6261638895942349
 40
0.7524102348021862
 40
0.8349770069416812
 40
0.9173908316084796
 40
1.0
 40
1.0
 40
1.0
 40
1.0
 10
170.0664896846239
 20
-628.6213303512659
 30
0.0
 10
170.0029663683534
 20
-628.6213303512659
 30
0.0
 10
169.8760542110293
 20
-628.6213303512659
 30
0.0
 10
169.6955526311411
 20
-628.6213303512659
 30
0.0
 10
169.5226900779647
 20
-628.6213303512659
 30
0.0
 10
169.3581419876208
 20
-628.6213303512659
 30
0.0
 10
169.1215485217094
 20
-628.6213303512659
 30
0.0
 10
168.8357136459571
 20
-628.6213303512659
 30
0.0
 10
168.5386161655864
 20
-628.6213303512659
 30
0.0
 10
168.3046401826733
 20
-628.6213303512659
 30
0.0
 10
168.1561573486777
 20
-628.6213303512659
 30
0.0
 10
168.0703607778601
 20
-628.6213303512659
 30
0.0
 10
168.0246602261554
 20
-628.6213303512659
 30
0.0
 10
168.0190470609137
 20
-628.6213303512659
 30
0.0
 10
168.0162371560389
 20
-628.6213303512659
 30
0.0
  0
SPLINE
  5
20DC5
330
18
100
AcDbEntity
  8
01
  6
CONTINUOUS
100
AcDbSpline
210
0.0
220
0.0
230
1.0
 70
    24
 71
     3
 72
     9
 73
     5
 74
     0
 42
0.000000001
 43
0.00000001
 40
0.0
 40
0.0
 40
0.0
 40
0.0
 40
0.500000000003928
 40
1.0
 40
1.0
 40
1.0
 40
1.0
 10
190.0162361367417
 20
-641.4438902369417
 30
0.0
 10
190.0162361367293
 20
-641.4373098296246
 30
0.0
 10
190.0162361367045
 20
-641.4241490149908
 30
0.0
 10
190.01623613668
 20
-641.4222689046385
 30
0.0
 10
190.0162361366678
 20
-641.4213288494623
 30
0.0
  0
LINE
  5
20DC6
330
18
100
AcDbEntity
  8
01
  6
CONTINUOUS
100
AcDbLine
 10
168.4420333557827
 20
-643.3999335049417
 30
0.0
 11
168.405465906213
 21
-643.2909682980504
 31
0.0
  0
SPLINE
  5
20DC7
330
18
100
AcDbEntity
  8
01
100
AcDbSpline
210
0.0
220
0.0
230
1.0
 70
    24
 71
     3
 72
    28
 73
    24
 74
     0
 42
0.000000001
 43
0.00000001
 40
0.0
 40
0.0
 40
0.0
 40
0.0
 40
0.0222785543737874
 40
0.0445413746832751
 40
0.0667969861045107
 40
0.0890539220973059
 40
0.1113207145985953
 40
0.1336058842245461
 40
0.1559179305375389
 40
0.1782653224332981
 40
0.2006564887018505
 40
0.2230998088137031
 40
0.245603603979719
 40
0.3694103811325591
 40
0.4940271960557718
 40
0.6194060064836563
 40
0.7455719344638775
 40
0.7878806389230606
 40
0.8301648648428803
 40
0.8724718670618853
 40
0.9148488242246672
 40
0.9573426819748213
 40
1.0
 40
1.0
 40
1.0
 40
1.0
 10
168.4445205772038
 20
-643.4073488156334
 30
0.0
 10
168.4678193492205
 20
-643.4718684919878
 30
0.0
 10
168.5144004386686
 20
-643.6008622781521
 30
0.0
 10
168.5881749322302
 20
-643.8051608757072
 30
0.0
 10
168.6647630583411
 20
-644.0172510710911
 30
0.0
 10
168.7444473920501
 20
-644.2379153798242
 30
0.0
 10
168.8271521894313
 20
-644.4669440494954
 30
0.0
 10
168.9128977150192
 20
-644.7043931972773
 30
0.0
 10
169.0016784148607
 20
-644.9502474429923
 30
0.0
 10
169.0934959416945
 20
-645.2045113634551
 30
0.0
 10
169.1883489338376
 20
-645.4671811878517
 30
0.0
 10
169.2862408612471
 20
-645.7382665252933
 30
0.0
 10
169.5384681605987
 20
-646.4367421234986
 30
0.0
 10
169.9793235341871
 20
-647.6575723888207
 30
0.0
 10
170.663789102759
 20
-649.5530155017902
 30
0.0
 10
171.4199406272144
 20
-651.6469735695141
 30
0.0
 10
172.057423602633
 20
-653.4123110399055
 30
0.0
 10
172.5328643989027
 20
-654.7289163218838
 30
0.0
 10
172.8244601010226
 20
-655.5364121123705
 30
0.0
 10
173.1211639253837
 20
-656.3580534721402
 30
0.0
 10
173.4230690549298
 20
-657.1940984462681
 30
0.0
 10
173.7298493614159
 20
-658.0436439103842
 30
0.0
 10
173.9379519998421
 20
-658.6199281398722
 30
0.0
 10
174.0422030609506
 20
-658.9086233860194
 30
0.0
  0
SPLINE
  5
20DC8
330
18
100
AcDbEntity
  8
01
100
AcDbSpline
210
0.0
220
0.0
230
1.0
 70
     8
 71
     3
 72
    28
 73
    24
 74
     0
 42
0.000000001
 43
0.00000001
 40
0.0
 40
0.0
 40
0.0
 40
0.0
 40
0.0178775132136077
 40
0.0357383327287699
 40
0.0535894343861888
 40
0.0714378054209268
 40
0.089290436274213
 40
0.1071543123864569
 40
0.1250364060195676
 40
0.1875338115504946
 40
0.2500499393871964
 40
0.3125473449176999
 40
0.3750634727548345
 40
0.5000020699980373
 40
0.6249406672412517
 40
0.6874380727725452
 40
0.7499542006089258
 40
0.8124516061398501
 40
0.8749677339766152
 40
0.9062410244276732
 40
0.9374791892084048
 40
0.9687196949820688
 40
1.0
 40
1.0
 40
1.0
 40
1.0
 10
190.0162361410842
 20
-658.6385086364139
 30
0.0
 10
190.016236141069
 20
-658.4744162512652
 30
0.0
 10
190.0162361410388
 20
-658.1463847074688
 30
0.0
 10
190.0162361409915
 20
-657.6592684401195
 30
0.0
 10
190.0162361409426
 20
-657.1761539538736
 30
0.0
 10
190.016236140892
 20
-656.697368503688
 30
0.0
 10
190.01623614084
 20
-656.2228259611753
 30
0.0
 10
190.0162361407865
 20
-655.7525451009484
 30
0.0
 10
190.0162361406855
 20
-654.8992491106951
 30
0.0
 10
190.0162361405296
 20
-653.6871695910559
 30
0.0
 10
190.0162361403075
 20
-652.1650190509852
 30
0.0
 10
190.0162361400692
 20
-650.7175438234657
 30
0.0
 10
190.0162361397313
 20
-648.8982892699762
 30
0.0
 10
190.0162361392738
 20
-646.8438938225916
 30
0.0
 10
190.0162361387785
 20
-645.1253100781812
 30
0.0
 10
190.0162361383655
 20
-643.971590870412
 30
0.0
 10
190.0162361380486
 20
-643.220607069157
 30
0.0
 10
190.0162361377263
 20
-642.5871360828273
 30
0.0
 10
190.0162361374541
 20
-642.1604745276318
 30
0.0
 10
190.0162361372354
 20
-641.8804813616588
 30
0.0
 10
190.016236137071
 20
-641.7022399125149
 30
0.0
 10
190.0162361369063
 20
-641.55311315829
 30
0.0
 10
190.0162361367966
 20
-641.4803133249329
 30
0.0
 10
190.0162361367417
 20
-641.4438902369429
 30
0.0
  0
SPLINE
  5
20DC9
330
18
100
AcDbEntity
  8
01
  6
CONTINUOUS
100
AcDbSpline
210
0.0
220
0.0
230
1.0
 70
     8
 71
     3
 72
    43
 73
    39
 74
     0
 42
0.000000001
 43
0.00000001
 40
0.0
 40
0.0
 40
0.0
 40
0.0
 40
0.0053680431254342
 40
0.0108086439547282
 40
0.0163691703202112
 40
0.0220940139918828
 40
0.028023877561116
 40
0.0341954084723195
 40
0.0406411334254222
 40
0.0473896155220605
 40
0.0544657524998778
 40
0.0618911468515673
 40
0.0696844972300203
 40
0.077861978519626
 40
0.0864375922435128
 40
0.0954234789910698
 40
0.1048301908967358
 40
0.1146669258381226
 40
0.1249417268438817
 40
0.1532770236620014
 40
0.1835186034447837
 40
0.2157426327758163
 40
0.250012055631154
 40
0.3122676155652753
 40
0.375069483251866
 40
0.4388351808326172
 40
0.5001144580348452
 40
0.6249182708322278
 40
0.6898651666282717
 40
0.7500523650879014
 40
0.8199278106751282
 40
0.8523558560047126
 40
0.8836259278712975
 40
0.913610816695707
 40
0.9428729373446832
 40
0.9620532425980708
 40
0.9810158226926049
 40
1.0
 40
1.0
 40
1.0
 40
1.0
 10
180.0162361317377
 20
-642.9713303512655
 30
0.0
 10
179.9813035067675
 20
-642.9715938907304
 30
0.0
 10
179.9109660864294
 20
-642.9721245318184
 30
0.0
 10
179.805440253952
 20
-642.9762768470005
 30
0.0
 10
179.699521901116
 20
-642.9828935890405
 30
0.0
 10
179.5932234705687
 20
-642.9922477169035
 30
0.0
 10
179.4865477308347
 20
-643.004305085963
 30
0.0
 10
179.3794916495057
 20
-643.0191322742797
 30
0.0
 10
179.2720481387562
 20
-643.036783262547
 30
0.0
 10
179.1642083457504
 20
-643.0573314304786
 30
0.0
 10
179.0559631567914
 20
-643.0808602939776
 30
0.0
 10
178.9473041393553
 20
-643.1074658431326
 30
0.0
 10
178.838224014145
 20
-643.1372555446062
 30
0.0
 10
178.7287166652183
 20
-643.1703483014899
 30
0.0
 10
178.6187775371594
 20
-643.2068742661236
 30
0.0
 10
178.508401651369
 20
-643.2469743782913
 30
0.0
 10
178.3975907829019
 20
-643.2908014306009
 30
0.0
 10
178.2863239175099
 20
-643.3385150356801
 30
0.0
 10
178.1108839510124
 20
-643.4198886109803
 30
0.0
 10
177.8778906774022
 20
-643.5432701611751
 30
0.0
 10
177.5978086549597
 20
-643.7204073044924
 30
0.0
 10
177.3257825880964
 20
-643.924888047987
 30
0.0
 10
176.9950939873165
 20
-644.218506797338
 30
0.0
 10
176.6349152261032
 20
-644.6197437286528
 30
0.0
 10
176.2848359684684
 20
-645.1534582245366
 30
0.0
 10
176.0133941023892
 20
-645.7425625114422
 30
0.0
 10
175.7702239218552
 20
-646.6004491803026
 30
0.0
 10
175.7247088163006
 20
-647.5756391604425
 30
0.0
 10
175.9734277496952
 20
-648.6211786176932
 30
0.0
 10
176.3562355461594
 20
-649.4507934020938
 30
0.0
 10
176.8708722147935
 20
-650.1222051413631
 30
0.0
 10
177.4344360780672
 20
-650.6121919084575
 30
0.0
 10
177.89214205106
 20
-650.9160074203792
 30
0.0
 10
178.3876812263453
 20
-651.1602678664517
 30
0.0
 10
178.856451981143
 20
-651.3191046846955
 30
0.0
 10
179.2785388943668
 20
-651.4121426240963
 30
0.0
 10
179.6456841403539
 20
-651.4621676609256
 30
0.0
 10
179.8926719439731
 20
-651.4682749625051
 30
0.0
 10
180.0162361317379
 20
-651.4713303512654
 30
0.0
  0
SPLINE
  5
20DCA
330
18
100
AcDbEntity
  8
01
  6
CONTINUOUS
100
AcDbSpline
210
0.0
220
0.0
230
1.0
 70
     8
 71
     3
 72
    38
 73
    34
 74
     0
 42
0.000000001
 43
0.00000001
 40
0.0
 40
0.0
 40
0.0
 40
0.0
 40
0.009518972482207
 40
0.0190029275237529
 40
0.02848194004018
 40
0.0379861318577422
 40
0.0475453867666251
 40
0.0571890766645581
 40
0.0864686342113368
 40
0.1164810749601528
 40
0.1477726528978321
 40
0.1802337186118581
 40
0.2501759661688313
 40
0.3103556210865876
 40
0.3753032202380496
 40
0.5002123453498507
 40
0.5614963650649357
 40
0.6252739585605891
 40
0.6880185855153939
 40
0.7502264079505973
 40
0.7844491257515193
 40
0.816640355678055
 40
0.8468629598543511
 40
0.8751929161116802
 40
0.8942120530892932
 40
0.9116963366356062
 40
0.9277109666640091
 40
0.9423408085988547
 40
0.9556971535498835
 40
0.9679261137292552
 40
0.9792176538197275
 40
0.989812285557053
 40
1.0
 40
1.0
 40
1.0
 40
1.0
 10
180.0162361317379
 20
-651.4713303512651
 30
0.0
 10
180.0781666349417
 20
-651.4705652462724
 30
0.0
 10
180.2017998176293
 20
-651.4690378508783
 30
0.0
 10
180.3865237860521
 20
-651.4565963340021
 30
0.0
 10
180.5699806027181
 20
-651.4367216866044
 30
0.0
 10
180.7521623574582
 20
-651.408717026032
 30
0.0
 10
180.9330742072535
 20
-651.3727949658734
 30
0.0
 10
181.2337472887169
 20
-651.2994449988332
 30
0.0
 10
181.6458463679759
 20
-651.1599004872442
 30
0.0
 10
182.1415843032286
 20
-650.9152818767373
 30
0.0
 10
182.5995168974492
 20
-650.6110837135371
 30
0.0
 10
183.1632435926909
 20
-650.1204766301707
 30
0.0
 10
183.6776136441453
 20
-649.4485493683205
 30
0.0
 10
184.0598857851296
 20
-648.6186947559023
 30
0.0
 10
184.3080282698824
 20
-647.5728811224517
 30
0.0
 10
184.2618542165499
 20
-646.5975344584142
 30
0.0
 10
184.017980687422
 20
-645.7395988590749
 30
0.0
 10
183.7462088228064
 20
-645.1509114731502
 30
0.0
 10
183.3959661562517
 20
-644.6177314481683
 30
0.0
 10
183.0359176409991
 20
-644.2170608386921
 30
0.0
 10
182.7054047414393
 20
-643.9238517288902
 30
0.0
 10
182.4335354438073
 20
-643.7196551357843
 30
0.0
 10
182.1535051496088
 20
-643.5426901389176
 30
0.0
 10
181.8910173182805
 20
-643.4037184126838
 30
0.0
 10
181.6525790574832
 20
-643.2965059152903
 30
0.0
 10
181.4439102261683
 20
-643.2159941823459
 30
0.0
 10
181.2367415026845
 20
-643.1482962258115
 30
0.0
 10
181.0309291306285
 20
-643.0924734066929
 30
0.0
 10
180.8263363138711
 20
-643.0477577581053
 30
0.0
 10
180.6227610114963
 20
-643.0134301941891
 30
0.0
 10
180.419990091328
 20
-642.9893225311436
 30
0.0
 10
180.2179359387502
 20
-642.9742018642162
 30
0.0
 10
180.0825860191997
 20
-642.9722749459279
 30
0.0
 10
180.0162361317377
 20
-642.9713303512655
 30
0.0
  0
SPLINE
  5
20DCB
330
18
100
AcDbEntity
  8
01
100
AcDbSpline
210
0.0
220
0.0
230
1.0
 70
     8
 71
     3
 72
     9
 73
     5
 74
     0
 42
0.000000001
 43
0.00000001
 40
0.0
 40
0.0
 40
0.0
 40
0.0
 40
0.9755498405505032
 40
1.0
 40
1.0
 40
1.0
 40
1.0
 10
175.2183215075237
 20
-660.2213295764055
 30
0.0
 10
175.2182522309621
 20
-660.2211225172764
 30
0.0
 10
175.2181812181252
 20
-660.2209102686343
 30
0.0
 10
175.2140854127117
 20
-660.1982794638598
 30
0.0
 10
175.2139852696163
 20
-660.1977261370745
 30
0.0
  0
LINE
  5
20DCC
330
18
100
AcDbEntity
  8
01
100
AcDbLine
 10
175.2183215075237
 20
-660.2213295764055
 30
0.0
 11
189.2162339144451
 21
-660.2213295764055
 31
0.0
  0
SPLINE
  5
20DCD
330
18
100
AcDbEntity
  8
01
100
AcDbSpline
210
0.0
220
0.0
230
1.0
 70
     8
 71
     3
 72
    10
 73
     6
 74
     0
 42
0.000000001
 43
0.00000001
 40
0.0
 40
0.0
 40
0.0
 40
0.0
 40
0.5
 40
0.5
 40
1.0
 40
1.0
 40
1.0
 40
1.0
 10
190.016236144043
 20
-659.421330351249
 30
0.0
 10
190.0162361440474
 20
-659.6307698614862
 30
0.0
 10
189.9300176669415
 20
-659.8389196782572
 30
0.0
 10
189.633825471076
 20
-660.1351118741399
 30
0.0
 10
189.42567565431
 20
-660.2213303512578
 30
0.0
 10
189.2162361440729
 20
-660.2213303512656
 30
0.0
  0
SPLINE
  5
20DCE
330
18
100
AcDbEntity
  8
01
100
AcDbSpline
210
0.0
220
0.0
230
1.0
 70
    24
 71
     3
 72
    17
 73
    13
 74
     0
 42
0.000000001
 43
0.00000001
 40
0.0
 40
0.0
 40
0.0
 40
0.0
 40
0.0626435234914453
 40
0.1249714832597984
 40
0.1873471882587388
 40
0.2501331186182772
 40
0.3749202744584919
 40
0.500087998412663
 40
0.62487515425433
 40
0.7500428782074899
 40
0.8749264367352819
 40
1.0
 40
1.0
 40
1.0
 40
1.0
 10
190.0162361413035
 20
-659.4213303512493
 30
0.0
 10
190.016236141298
 20
-659.4206735384926
 30
0.0
 10
190.0162361412871
 20
-659.4193632216421
 30
0.0
 10
190.0162361412708
 20
-659.4086459506921
 30
0.0
 10
190.0162361412546
 20
-659.3914907279443
 30
0.0
 10
190.016236141233
 20
-659.3594909898287
 30
0.0
 10
190.0162361412064
 20
-659.3031074891576
 30
0.0
 10
190.0162361411763
 20
-659.2102036427125
 30
0.0
 10
190.0162361411481
 20
-659.0948382230924
 30
0.0
 10
190.016236141123
 20
-658.9588959726623
 30
0.0
 10
190.016236141101
 20
-658.8068352022556
 30
0.0
 10
190.0162361410898
 20
-658.6946459185638
 30
0.0
 10
190.0162361410842
 20
-658.6385086364139
 30
0.0
  0
LINE
  5
20DCF
330
18
100
AcDbEntity
  8
01
100
AcDbLine
 10
174.2777751141292
 20
-659.5609753048744
 30
0.0
 11
174.3379907065136
 21
-659.6947299903956
 31
0.0
  0
SPLINE
  5
20DD0
330
18
100
AcDbEntity
  8
01
100
AcDbSpline
210
0.0
220
0.0
230
1.0
 70
    24
 71
     3
 72
    16
 73
    12
 74
     0
 42
0.000000001
 43
0.00000001
 40
0.0
 40
0.0
 40
0.0
 40
0.0
 40
0.08385125281847
 40
0.1669995318644956
 40
0.2502117524720058
 40
0.3794672830310655
 40
0.5079079764290846
 40
0.6347740576645294
 40
0.7610813285401866
 40
0.8806009282499735
 40
1.0
 40
1.0
 40
1.0
 40
1.0
 10
174.0422030609506
 20
-658.9086233860194
 30
0.0
 10
174.0532468699015
 20
-658.9392062415754
 30
0.0
 10
174.075241901136
 20
-659.0001155588401
 30
0.0
 10
174.1065029848396
 20
-659.0866847137123
 30
0.0
 10
174.1415015373891
 20
-659.1836037823103
 30
0.0
 10
174.1784410440657
 20
-659.2858978008002
 30
0.0
 10
174.2140763329277
 20
-659.3845801391868
 30
0.0
 10
174.2427389233155
 20
-659.463953466415
 30
0.0
 10
174.2628896026162
 20
-659.519755347555
 30
0.0
 10
174.2755138516162
 20
-659.5547148063242
 30
0.0
 10
174.2770211442149
 20
-659.5588888473669
 30
0.0
 10
174.2777744103201
 20
-659.5609748150432
 30
0.0
  0
ARC
  5
20DD1
330
18
100
AcDbEntity
  8
01
  6
CONTINUOUS
100
AcDbCircle
 10
180.0162361317379
 20
-647.2213303512669
 30
0.0
 40
2.249999999999829
100
AcDbArc
 50
179.9999999999971
 51
0.000000000002895
  0
ARC
  5
20DD2
330
18
100
AcDbEntity
  8
01
  6
CONTINUOUS
100
AcDbCircle
 10
180.0162361317379
 20
-647.2213303512667
 30
0.0
 40
2.250000000000114
100
AcDbArc
 50
0.0
 51
180.0
  0
SPLINE
  5
20DD3
330
18
100
AcDbEntity
  8
01
100
AcDbSpline
210
0.0
220
0.0
230
1.0
 70
     8
 71
     3
 72
    35
 73
    31
 74
     0
 42
0.000000001
 43
0.00000001
 40
0.0
 40
0.0
 40
0.0
 40
0.0
 40
0.0132771863999157
 40
0.0266200724587826
 40
0.0400313599266899
 40
0.0535135429384349
 40
0.0670689210240302
 40
0.0806996131287189
 40
0.0944075724973263
 40
0.108194602276333
 40
0.1220623716867573
 40
0.1360124326216533
 40
0.1500462365236903
 40
0.1641651514007317
 40
0.1783704788406524
 40
0.2224216821831172
 40
0.2681780983900037
 40
0.3335343362927229
 40
0.4035983071104468
 40
0.4582997504295429
 40
0.5171219748862619
 40
0.6207659703556556
 40
0.7190412378935099
 40
0.7577081743040281
 40
0.8141688538342422
 40
0.867942707476233
 40
0.907496969177967
 40
0.9407143218275795
 40
0.9715347239418566
 40
1.0
 40
1.0
 40
1.0
 40
1.0
 10
187.4304496941069
 20
-640.4213303512659
 30
0.0
 10
187.4297940199569
 20
-640.3241877033953
 30
0.0
 10
187.4284794271771
 20
-640.1294217155373
 30
0.0
 10
187.4179055654092
 20
-639.8368686849149
 30
0.0
 10
187.4010455552404
 20
-639.5434905315985
 30
0.0
 10
187.3772731570422
 20
-639.2495723190449
 30
0.0
 10
187.3467576711203
 20
-638.9554043681685
 30
0.0
 10
187.3094535439255
 20
-638.6612814218938
 30
0.0
 10
187.2653732281095
 20
-638.3675016701616
 30
0.0
 10
187.2145134906019
 20
-638.0743656943009
 30
0.0
 10
187.156875275489
 20
-637.7821756576138
 30
0.0
 10
187.0924585123261
 20
-637.4912334037049
 30
0.0
 10
187.0212628604768
 20
-637.2018425743457
 30
0.0
 10
186.9432899925046
 20
-636.9142955234566
 30
0.0
 10
186.799351044378
 20
-636.4296473605864
 30
0.0
 10
186.5615662318918
 20
-635.753556852906
 30
0.0
 10
186.1444117406949
 20
-634.7993469269102
 30
0.0
 10
185.5770656528317
 20
-633.769181362094
 30
0.0
 10
184.9001190430133
 20
-632.8012830803443
 30
0.0
 10
184.1867832762543
 20
-631.9692710683162
 30
0.0
 10
183.2905062443551
 20
-631.093185945068
 30
0.0
 10
182.1396184307138
 20
-630.2227119301045
 30
0.0
 10
181.0210732463873
 20
-629.6187153836629
 30
0.0
 10
180.1001817323447
 20
-629.23773101814
 30
0.0
 10
179.3823865948036
 20
-628.9988567144081
 30
0.0
 10
178.6521157460677
 20
-628.8214881753578
 30
0.0
 10
178.030657973417
 20
-628.7158675958254
 30
0.0
 10
177.5205305947514
 20
-628.6579001434959
 30
0.0
 10
177.0639632347525
 20
-628.6267020183324
 30
0.0
 10
176.7710758871033
 20
-628.6230728506755
 30
0.0
 10
176.6304496943739
 20
-628.6213303512659
 30
0.0
  0
LINE
  5
20DD4
330
18
100
AcDbEntity
  8
01
100
AcDbLine
 10
187.430448954652
 20
-640.721330571058
 30
0.0
 11
187.430448954652
 21
-640.4213303821858
 31
0.0
  0
SPLINE
  5
20DD5
330
18
100
AcDbEntity
  8
01
100
AcDbSpline
210
0.0
220
0.0
230
1.0
 70
     8
 71
     3
 72
    10
 73
     6
 74
     0
 42
0.000000001
 43
0.00000001
 40
0.0
 40
0.0
 40
0.0
 40
0.0
 40
0.3371938891638141
 40
0.6707367980301863
 40
1.0
 40
1.0
 40
1.0
 40
1.0
 10
187.4199235032611
 20
-641.0258285285297
 30
0.0
 10
187.4220256024365
 20
-640.9919789856627
 30
0.0
 10
187.4262070402248
 20
-640.9246464072056
 30
0.0
 10
187.429736899546
 20
-640.8227908969443
 30
0.0
 10
187.4302131208993
 20
-640.7550048154268
 30
0.0
 10
187.4304496941069
 20
-640.7213306203876
 30
0.0
  0
SPLINE
  5
20DD6
330
18
100
AcDbEntity
  8
01
  6
PHANTOM
100
AcDbSpline
210
0.0
220
0.0
230
1.0
 70
     8
 71
     3
 72
     8
 73
     4
 74
     0
 42
0.000000001
 43
0.00000001
 40
0.0
 40
0.0
 40
0.0
 40
0.0
 40
1.0
 40
1.0
 40
1.0
 40
1.0
 10
189.2162367523508
 20
-642.2213288494929
 30
0.0
 10
189.216236885325
 20
-642.221328843953
 30
0.0
 10
189.2162370192915
 20
-642.22728375011
 30
0.0
 10
189.21623715306
 20
-642.2391406516103
 30
0.0
  0
ARC
  5
20DD7
330
18
100
AcDbEntity
  8
01
  6
CONTINUOUS
100
AcDbCircle
 10
168.0162419634313
 20
-641.2213317293686
 30
0.0
 40
1.0
100
AcDbArc
 50
180.0000558896571
 51
270.0000031570644
  0
LINE
  5
20E0C
330
18
100
AcDbEntity
  8
1CENTER
100
AcDbLine
 10
635.551399257692
 20
-647.2213303512669
 30
0.0
 11
624.4810730057837
 21
-647.2213303512669
 31
0.0
  0
LINE
  5
20E0D
330
18
100
AcDbEntity
  8
1CENTER
100
AcDbLine
 10
630.0162361317379
 20
-641.6861672253128
 30
0.0
 11
630.0162361317379
 21
-652.756493477221
 31
0.0
  0
LINE
  5
20E0E
330
18
100
AcDbEntity
  8
1CENTER
100
AcDbLine
 10
185.551399257692
 20
-647.2148879148706
 30
0.0
 11
174.4810730057837
 21
-647.2148879148706
 31
0.0
  0
LINE
  5
20E0F
330
18
100
AcDbEntity
  8
1CENTER
100
AcDbLine
 10
180.0162361317379
 20
-641.6797247889165
 30
0.0
 11
180.0162361317379
 21
-652.7500510408247
 31
0.0
  0
TEXT
  5
20EA4
330
18
100
AcDbEntity
  8
01
  6
CONTINUOUS
100
AcDbText
 10
749.7537571261875
 20
-602.7902613041472
 30
0.0
 40
3.5
  1
PB
100
AcDbText
  0
TEXT
  5
20EA5
330
18
100
AcDbEntity
  8
01
  6
CONTINUOUS
100
AcDbText
 10
762.8891752713527
 20
-602.7902613041472
 30
0.0
 40
3.5
  1
合板9mm以上
100
AcDbText
  0
LINE
  5
20EA6
330
18
100
AcDbEntity
  8
1DIM1
100
AcDbLine
 10
180.0162361317379
 20
-652.7500510408247
 30
0.0
 11
180.0162361317379
 21
-695.8213303512675
 31
0.0
1001
ACAD
1000
DSTYLE
1002
{
1070
    40
1040
3.0
1070
    45
1040
0.5
1002
}
  0
LINE
  5
20EA7
330
18
100
AcDbEntity
  8
1DIM1
100
AcDbLine
 10
630.0162361317379
 20
-647.2213303512667
 30
0.0
 11
630.0162361317379
 21
-695.8213303512675
 31
0.0
1001
ACAD
1000
DSTYLE
1002
{
1070
    40
1040
3.0
1070
    45
1040
0.5
1002
}
  0
LINE
  5
20EA8
330
18
100
AcDbEntity
  8
1DIM1
100
AcDbLine
 10
186.0162361317379
 20
-692.8213303512675
 30
0.0
 11
624.0162361317379
 21
-692.8213303512675
 31
0.0
1001
ACAD
1000
DSTYLE
1002
{
1070
    40
1040
3.0
1070
    45
1040
0.5
1002
}
  0
LINE
  5
20EAC
330
18
100
AcDbEntity
  8
1DIM
100
AcDbLine
 10
544.2458307863246
 20
-641.4213303714756
 30
0.0
 11
543.2458307863246
 21
-641.4213303714756
 31
0.0
1001
ACAD
1000
DSTYLE
1002
{
1070
    45
1040
0.5
1002
}
  0
LINE
  5
20EAD
330
18
100
AcDbEntity
  8
1DIM
100
AcDbLine
 10
544.2458307863246
 20
-629.4213306746211
 30
0.0
 11
543.2458307863246
 21
-629.4213306746211
 31
0.0
1001
ACAD
1000
DSTYLE
1002
{
1070
    45
1040
0.5
1002
}
  0
LINE
  5
20EAE
330
18
100
AcDbEntity
  8
1DIM
100
AcDbLine
 10
544.2458307863246
 20
-629.4213306746211
 30
0.0
 11
544.2458307863246
 21
-620.8546640079543
 31
0.0
1001
ACAD
1000
DSTYLE
1002
{
1070
    45
1040
0.5
1002
}
  0
LINE
  5
20EAF
330
18
100
AcDbEntity
  8
1DIM
100
AcDbLine
 10
544.2458307863246
 20
-639.4213303714756
 30
0.0
 11
544.2458307863246
 21
-631.4213306746211
 31
0.0
1001
ACAD
1000
DSTYLE
1002
{
1070
    45
1040
0.5
1002
}
  0
SOLID
  5
20EB3
330
18
100
AcDbEntity
  8
1DIM
100
AcDbTrace
 10
577.5097482874638
 20
-627.5684285367862
 30
0.0
 11
576.6864228483344
 21
-629.4213306746211
 31
0.0
 12
576.8643029757807
 22
-627.4015609423568
 32
0.0
 13
576.8643029757807
 23
-627.4015609423568
 33
0.0
1001
ACAD
1000
DSTYLE
1002
{
1070
    45
1040
0.5
1002
}
  0
LINE
  5
20EB4
330
18
100
AcDbEntity
  8
1DIM
100
AcDbLine
 10
577.1870256316222
 20
-627.4849947395716
 30
0.0
 11
580.3225533430837
 21
-615.3567461845589
 31
0.0
1001
ACAD
1000
DSTYLE
1002
{
1070
    45
1040
0.5
1002
}
  0
LINE
  5
20EB5
330
18
100
AcDbEntity
  8
1DIM
100
AcDbLine
 10
580.3225533430837
 20
-615.3567461845589
 30
0.0
 11
620.005886676417
 21
-615.3567461845589
 31
0.0
1001
ACAD
1000
DSTYLE
1002
{
1070
    45
1040
0.5
1002
}
  0
TEXT
  5
20EB6
330
18
100
AcDbEntity
  8
1DIM
  6
CONTINUOUS
100
AcDbText
 10
582.7892200097504
 20
-608.8234128512255
 30
0.0
 40
3.5
  1
材質：アルミ
100
AcDbText
1001
ACADANNOTATIVE
1000
AnnotativeData
1002
{
1070
     1
1070
     0
1002
}
  0
TEXT
  5
20EB7
330
18
100
AcDbEntity
  8
1DIM
  6
CONTINUOUS
100
AcDbText
 10
582.905886676417
 20
-614.6567461845589
 30
0.0
 40
3.5
  1
仕上げ：各種仕上げ
100
AcDbText
1001
ACADANNOTATIVE
1000
AnnotativeData
1002
{
1070
     1
1070
     0
1002
}
  0
SOLID
  5
20EB8
330
18
100
AcDbEntity
  8
1DIM
100
AcDbTrace
 10
618.9162296196815
 20
-661.5136782735177
 30
0.0
 11
620.2505506950554
 21
-659.9870157767868
 31
0.0
 12
619.4834888659387
 22
-661.8639087575993
 32
0.0
 13
619.4834888659387
 23
-661.8639087575993
 33
0.0
1001
ACAD
1000
DSTYLE
1002
{
1070
    45
1040
0.5
1002
}
  0
LINE
  5
20EB9
330
18
100
AcDbEntity
  8
1DIM
100
AcDbLine
 10
619.1998592428101
 20
-661.6887935155586
 30
0.0
 11
615.4193112310365
 21
-667.8120492373463
 31
0.0
1001
ACAD
1000
DSTYLE
1002
{
1070
    45
1040
0.5
1002
}
  0
LINE
  5
20EBA
330
18
100
AcDbEntity
  8
1DIM
100
AcDbLine
 10
615.4193112310365
 20
-667.8120492373463
 30
0.0
 11
568.1526445643699
 21
-667.8120492373463
 31
0.0
1001
ACAD
1000
DSTYLE
1002
{
1070
    45
1040
0.5
1002
}
  0
TEXT
  5
20EBB
330
18
100
AcDbEntity
  8
1DIM
  6
CONTINUOUS
100
AcDbText
 10
567.9193112310364
 20
-661.2787159040129
 30
0.0
 40
3.5
  1
材質：亜鉛ダイキャスト
100
AcDbText
1001
ACADANNOTATIVE
1000
AnnotativeData
1002
{
1070
     1
1070
     0
1002
}
  0
TEXT
  5
20EBC
330
18
100
AcDbEntity
  8
1DIM
  6
CONTINUOUS
100
AcDbText
 10
575.6193112310365
 20
-667.1120492373462
 30
0.0
 40
3.5
  1
仕上げ：各種仕上げ
100
AcDbText
1001
ACADANNOTATIVE
1000
AnnotativeData
1002
{
1070
     1
1070
     0
1002
}
  0
LINE
  5
20EBD
330
18
100
AcDbEntity
  8
1DIM
100
AcDbLine
 10
534.7188985148118
 20
-592.8213303810687
 30
0.0
 11
545.2458307863246
 21
-592.8213303810687
 31
0.0
1001
ACAD
1000
DSTYLE
1002
{
1070
    45
1040
0.5
1002
}
  0
LINE
  5
20EBE
330
18
100
AcDbEntity
  8
1DIM
100
AcDbLine
 10
534.7188985148118
 20
-570.821330500278
 30
0.0
 11
545.2458307863246
 21
-570.821330500278
 31
0.0
1001
ACAD
1000
DSTYLE
1002
{
1070
    45
1040
0.5
1002
}
  0
LINE
  5
20EBF
330
18
100
AcDbEntity
  8
1DIM
100
AcDbLine
 10
544.2458307863246
 20
-570.821330500278
 30
0.0
 11
544.2458307863246
 21
-561.7546638336112
 31
0.0
1001
ACAD
1000
DSTYLE
1002
{
1070
    45
1040
0.5
1002
}
  0
LINE
  5
20EC0
330
18
100
AcDbEntity
  8
1DIM
100
AcDbLine
 10
544.2458307863246
 20
-590.8213303810687
 30
0.0
 11
544.2458307863246
 21
-572.821330500278
 31
0.0
1001
ACAD
1000
DSTYLE
1002
{
1070
    45
1040
0.5
1002
}
  0
LINE
  5
20EC4
330
18
100
AcDbEntity
  8
1DIM
100
AcDbLine
 10
685.2162429754609
 20
-640.7213307409422
 30
0.0
 11
685.2162429754609
 21
-613.621330340846
 31
0.0
1001
ACAD
1000
DSTYLE
1002
{
1070
    45
1040
0.5
1002
}
  0
LINE
  5
20EC5
330
18
100
AcDbEntity
  8
1DIM
100
AcDbLine
 10
743.016241615365
 20
-614.621330340846
 30
0.0
 11
743.016241615365
 21
-613.621330340846
 31
0.0
1001
ACAD
1000
DSTYLE
1002
{
1070
    45
1040
0.5
1002
}
  0
LINE
  5
20EC6
330
18
100
AcDbEntity
  8
1DIM
100
AcDbLine
 10
687.2162429754609
 20
-614.621330340846
 30
0.0
 11
741.016241615365
 21
-614.621330340846
 31
0.0
1001
ACAD
1000
DSTYLE
1002
{
1070
    45
1040
0.5
1002
}
  0
LINE
  5
20ECA
330
18
100
AcDbEntity
  8
1DIM
100
AcDbLine
 10
775.447036532668
 20
-647.2213303481626
 30
0.0
 11
785.516241615365
 21
-647.2213303481626
 31
0.0
1001
ACAD
1000
DSTYLE
1002
{
1070
    45
1040
0.5
1070
   271
1070
     0
1002
}
  0
LINE
  5
20ECB
330
18
100
AcDbEntity
  8
1DIM
100
AcDbLine
 10
743.016241615365
 20
-628.621330340846
 30
0.0
 11
785.516241615365
 21
-628.621330340846
 31
0.0
1001
ACAD
1000
DSTYLE
1002
{
1070
    45
1040
0.5
1070
   271
1070
     0
1002
}
  0
LINE
  5
20ECC
330
18
100
AcDbEntity
  8
1DIM
100
AcDbLine
 10
784.516241615365
 20
-645.2213303481626
 30
0.0
 11
784.516241615365
 21
-630.621330340846
 31
0.0
1001
ACAD
1000
DSTYLE
1002
{
1070
    45
1040
0.5
1070
   271
1070
     0
1002
}
  0
LINE
  5
20ED0
330
18
100
AcDbEntity
  8
1DIM1
100
AcDbLine
 10
167.0162419634318
 20
-641.2213327048271
 30
0.0
 11
167.0162419634318
 21
-725.8213303512676
 31
0.0
1001
ACAD
1000
DSTYLE
1002
{
1070
    40
1040
3.0
1070
    45
1040
0.5
1002
}
  0
LINE
  5
20ED1
330
18
100
AcDbEntity
  8
1DIM1
100
AcDbLine
 10
643.016230300044
 20
-641.2213327048271
 30
0.0
 11
643.016230300044
 21
-725.8213303512676
 31
0.0
1001
ACAD
1000
DSTYLE
1002
{
1070
    40
1040
3.0
1070
    45
1040
0.5
1002
}
  0
LINE
  5
20ED2
330
18
100
AcDbEntity
  8
1DIM1
100
AcDbLine
 10
173.0162419634318
 20
-722.8213303512676
 30
0.0
 11
637.016230300044
 21
-722.8213303512676
 31
0.0
1001
ACAD
1000
DSTYLE
1002
{
1070
    40
1040
3.0
1070
    45
1040
0.5
1002
}
  0
LINE
  5
20ED6
330
18
100
AcDbEntity
  8
1DIM
100
AcDbLine
 10
743.0162416462773
 20
-660.2213297462897
 30
0.0
 11
795.516241615365
 21
-660.2213297462897
 31
0.0
1001
ACAD
1000
DSTYLE
1002
{
1070
    45
1040
0.5
1002
}
  0
LINE
  5
20ED7
330
18
100
AcDbEntity
  8
1DIM
100
AcDbLine
 10
743.016241615365
 20
-628.621330340846
 30
0.0
 11
795.516241615365
 21
-628.621330340846
 31
0.0
1001
ACAD
1000
DSTYLE
1002
{
1070
    45
1040
0.5
1002
}
  0
LINE
  5
20ED8
330
18
100
AcDbEntity
  8
1DIM
100
AcDbLine
 10
794.516241615365
 20
-658.2213297462897
 30
0.0
 11
794.516241615365
 21
-630.621330340846
 31
0.0
1001
ACAD
1000
DSTYLE
1002
{
1070
    45
1040
0.5
1002
}
  0
LINE
  5
20EDC
330
18
100
AcDbEntity
  8
1DIM
100
AcDbLine
 10
643.0162416153646
 20
-535.821330320354
 30
0.0
 11
643.0162416153646
 21
-499.8213303512664
 31
0.0
1001
ACAD
1000
DSTYLE
1002
{
1070
    45
1040
0.5
1002
}
  0
LINE
  5
20EDD
330
18
100
AcDbEntity
  8
1DIM
100
AcDbLine
 10
620.0162510228105
 20
-535.8213303512664
 30
0.0
 11
620.0162510228105
 21
-499.8213303512664
 31
0.0
1001
ACAD
1000
DSTYLE
1002
{
1070
    45
1040
0.5
1002
}
  0
LINE
  5
20EDE
330
18
100
AcDbEntity
  8
1DIM
100
AcDbLine
 10
641.0162416153646
 20
-500.8213303512664
 30
0.0
 11
622.0162510228105
 21
-500.8213303512664
 31
0.0
1001
ACAD
1000
DSTYLE
1002
{
1070
    45
1040
0.5
1002
}
  0
SOLID
  5
20EE2
330
18
100
AcDbEntity
  8
1DIM
100
AcDbTrace
 10
746.6708479197653
 20
-616.3354292138315
 30
0.0
 11
745.9299131930724
 21
-618.2227889680627
 31
0.0
 12
746.0186807169501
 22
-616.197145505403
 32
0.0
 13
746.0186807169501
 23
-616.197145505403
 33
0.0
1001
ACAD
1000
DSTYLE
1002
{
1070
    45
1040
0.5
1002
}
  0
LINE
  5
20EE3
330
18
100
AcDbEntity
  8
1DIM
100
AcDbLine
 10
746.3447643183576
 20
-616.2662873596172
 30
0.0
 11
749.0537571261874
 21
-603.4902613041472
 31
0.0
1001
ACAD
1000
DSTYLE
1002
{
1070
    45
1040
0.5
1002
}
  0
SOLID
  5
20EE4
330
18
100
AcDbEntity
  8
1DIM
100
AcDbTrace
 10
759.8062660649305
 20
-616.3354292138315
 30
0.0
 11
759.0653313382376
 21
-618.2227889680627
 31
0.0
 12
759.1540988621153
 22
-616.197145505403
 32
0.0
 13
759.1540988621153
 23
-616.197145505403
 33
0.0
1001
ACAD
1000
DSTYLE
1002
{
1070
    45
1040
0.5
1002
}
  0
LINE
  5
20EE5
330
18
100
AcDbEntity
  8
1DIM
100
AcDbLine
 10
759.4801824635229
 20
-616.2662873596172
 30
0.0
 11
762.1891752713526
 21
-603.4902613041472
 31
0.0
1001
ACAD
1000
DSTYLE
1002
{
1070
    45
1040
0.5
1002
}
  0
LINE
  5
20EE6
330
18
100
AcDbEntity
  8
0
100
AcDbLine
 10
630.0162975656922
 20
-504.8213303514287
 30
0.0
 11
628.5162975656922
 21
-510.1213268612904
 31
0.0
  0
LINE
  5
20EE7
330
18
100
AcDbEntity
  8
0
100
AcDbLine
 10
628.5162975656922
 20
-510.1213268612904
 30
0.0
 11
628.5162975656924
 21
-539.8213268611823
 31
0.0
  0
LINE
  5
20EE8
330
18
100
AcDbEntity
  8
0
100
AcDbLine
 10
630.0162975656922
 20
-504.8213303514287
 30
0.0
 11
631.5162975656923
 21
-510.1213338416741
 31
0.0
  0
LINE
  5
20EE9
330
18
100
AcDbEntity
  8
0
100
AcDbLine
 10
626.5162510297944
 20
-539.8213222074842
 30
0.0
 11
633.5162510297943
 21
-539.8213384950486
 31
0.0
  0
LINE
  5
20EEA
330
18
100
AcDbEntity
  8
0
100
AcDbLine
 10
631.5162975656923
 20
-510.1213338416741
 30
0.0
 11
631.5162975656924
 21
-539.821333841567
 31
0.0
  0
LINE
  5
20EEB
330
18
100
AcDbEntity
  8
0
100
AcDbLine
 10
626.5162510297944
 20
-539.8213222074842
 30
0.0
 11
626.5162510297943
 21
-540.9213256976795
 31
0.0
  0
ARC
  5
20EEC
330
18
100
AcDbEntity
  8
0
100
AcDbCircle
 10
628.0162510297943
 20
-540.9213256976795
 30
0.0
 40
1.5
100
AcDbArc
 50
180.0
 51
269.9998666844662
  0
LINE
  5
20EED
330
18
100
AcDbEntity
  8
0
100
AcDbLine
 10
633.5162510297943
 20
-539.8213384950486
 30
0.0
 11
633.5162510297943
 21
-540.9213350048592
 31
0.0
  0
LINE
  5
20EEE
330
18
100
AcDbEntity
  8
0
100
AcDbLine
 10
628.0162475396019
 20
-542.4213256976755
 30
0.0
 11
632.0162475396019
 21
-542.4213350048551
 31
0.0
  0
ARC
  5
20EEF
330
18
100
AcDbEntity
  8
0
100
AcDbCircle
 10
632.0162510297943
 20
-540.9213350048592
 30
0.0
 40
1.5
100
AcDbArc
 50
269.9998666844662
 51
0.0
  0
LINE
  5
20EF0
330
18
100
AcDbEntity
  8
1CENTER
100
AcDbLine
 10
630.0162510297943
 20
-503.3905354339634
 30
0.0
 11
630.0162510297943
 21
-543.4916067605752
 31
0.0
  0
LINE
  5
20EF1
330
18
100
AcDbEntity
  8
0
100
AcDbLine
 10
628.9219272157992
 20
-506.9213278051066
 30
0.0
 11
630.8842623046746
 21
-506.1213323710556
 31
0.0
  0
LINE
  5
20EF2
330
18
100
AcDbEntity
  8
0
100
AcDbLine
 10
630.8842623046746
 20
-506.1213323710556
 30
0.0
 11
630.2959857296322
 21
-505.8095625148035
 31
0.0
  0
LINE
  5
20EF3
330
18
100
AcDbEntity
  8
0
100
AcDbLine
 10
628.0162975656922
 20
-529.3213256978966
 30
0.0
 11
632.0162975656922
 21
-528.5213350050783
 31
0.0
  0
LINE
  5
20EF4
330
18
100
AcDbEntity
  8
0
100
AcDbLine
 10
628.0162975656922
 20
-518.1213256978922
 30
0.0
 11
632.0162975656922
 21
-517.3213350050696
 31
0.0
  0
LINE
  5
20EF5
330
18
100
AcDbEntity
  8
0
100
AcDbLine
 10
628.0162975656922
 20
-514.9213256978921
 30
0.0
 11
632.0162975656922
 21
-514.1213350050696
 31
0.0
  0
LINE
  5
20EF6
330
18
100
AcDbEntity
  8
0
100
AcDbLine
 10
632.0162975656922
 20
-514.1213350050696
 30
0.0
 11
631.5162975656922
 21
-514.0213338416723
 31
0.0
  0
LINE
  5
20EF7
330
18
100
AcDbEntity
  8
0
100
AcDbLine
 10
628.5162975656922
 20
-513.4213268612893
 30
0.0
 11
628.0162975656922
 21
-513.3213256978921
 31
0.0
  0
LINE
  5
20EF8
330
18
100
AcDbEntity
  8
0
100
AcDbLine
 10
632.0162975656922
 20
-517.3213350050696
 30
0.0
 11
631.5162975656922
 21
-517.2213338416724
 31
0.0
  0
LINE
  5
20EF9
330
18
100
AcDbEntity
  8
0
100
AcDbLine
 10
632.0162975656922
 20
-515.7213350050695
 30
0.0
 11
631.5162975656922
 21
-515.6213338416724
 31
0.0
  0
LINE
  5
20EFA
330
18
100
AcDbEntity
  8
0
100
AcDbLine
 10
628.5162975656922
 20
-515.0213268612893
 30
0.0
 11
628.0162975656922
 21
-514.9213256978921
 31
0.0
  0
LINE
  5
20EFB
330
18
100
AcDbEntity
  8
0
100
AcDbLine
 10
628.5162975656922
 20
-516.6213268612892
 30
0.0
 11
628.0162975656922
 21
-516.521325697892
 31
0.0
  0
LINE
  5
20EFC
330
18
100
AcDbEntity
  8
0
100
AcDbLine
 10
628.0162975656922
 20
-516.521325697892
 30
0.0
 11
632.0162975656922
 21
-515.7213350050695
 31
0.0
  0
LINE
  5
20EFD
330
18
100
AcDbEntity
  8
0
100
AcDbLine
 10
631.3370764090814
 20
-507.7213334246612
 30
0.0
 11
630.7853269452781
 21
-507.5385692820332
 31
0.0
  0
LINE
  5
20EFE
330
18
100
AcDbEntity
  8
0
100
AcDbLine
 10
632.0162975656922
 20
-510.9213350050695
 30
0.0
 11
631.5162975656922
 21
-510.8213338416724
 31
0.0
  0
LINE
  5
20EFF
330
18
100
AcDbEntity
  8
0
100
AcDbLine
 10
632.0162975656922
 20
-512.5213350050695
 30
0.0
 11
631.5162975656922
 21
-512.4213338416725
 31
0.0
  0
LINE
  5
20F00
330
18
100
AcDbEntity
  8
0
100
AcDbLine
 10
631.7898905134882
 20
-509.3213344782669
 30
0.0
 11
631.2532967782171
 21
-509.192063780637
 31
0.0
  0
LINE
  5
20F01
330
18
100
AcDbEntity
  8
0
100
AcDbLine
 10
628.9372121629009
 20
-508.6340962638524
 30
0.0
 11
628.4691137077509
 21
-508.5213267515023
 31
0.0
  0
LINE
  5
20F02
330
18
100
AcDbEntity
  8
0
100
AcDbLine
 10
628.5162975656922
 20
-511.8213268612892
 30
0.0
 11
628.0162975656922
 21
-511.7213256978921
 31
0.0
  0
LINE
  5
20F03
330
18
100
AcDbEntity
  8
0
100
AcDbLine
 10
628.5162975656922
 20
-510.2213268612893
 30
0.0
 11
628.0162975656922
 21
-510.1213256978922
 31
0.0
  0
LINE
  5
20F04
330
18
100
AcDbEntity
  8
0
100
AcDbLine
 10
629.3790990564303
 20
-507.072763601547
 30
0.0
 11
628.9219272157992
 21
-506.9213278051066
 31
0.0
  0
LINE
  5
20F05
330
18
100
AcDbEntity
  8
0
100
AcDbLine
 10
628.4691137077509
 20
-508.5213267515023
 30
0.0
 11
631.3370764090814
 21
-507.7213334246612
 31
0.0
  0
LINE
  5
20F06
330
18
100
AcDbEntity
  8
0
100
AcDbLine
 10
628.0162975656922
 20
-511.7213256978921
 30
0.0
 11
632.0162975656922
 21
-510.9213350050695
 31
0.0
  0
LINE
  5
20F07
330
18
100
AcDbEntity
  8
0
100
AcDbLine
 10
628.0162975656922
 20
-510.1213256978922
 30
0.0
 11
631.7898905134882
 21
-509.3213344782669
 31
0.0
  0
LINE
  5
20F08
330
18
100
AcDbEntity
  8
0
100
AcDbLine
 10
628.0162975656922
 20
-513.3213256978921
 30
0.0
 11
632.0162975656922
 21
-512.5213350050695
 31
0.0
  0
LINE
  5
20F09
330
18
100
AcDbEntity
  8
0
100
AcDbLine
 10
628.0162975656922
 20
-526.1213256978965
 30
0.0
 11
632.0162975656922
 21
-525.3213350050783
 31
0.0
  0
LINE
  5
20F0A
330
18
100
AcDbEntity
  8
0
100
AcDbLine
 10
632.0162975656922
 20
-525.3213350050783
 30
0.0
 11
631.5162975656922
 21
-525.2213338416806
 31
0.0
  0
LINE
  5
20F0B
330
18
100
AcDbEntity
  8
0
100
AcDbLine
 10
628.5162975656922
 20
-524.6213268612898
 30
0.0
 11
628.0162975656922
 21
-524.5213256978922
 31
0.0
  0
LINE
  5
20F0C
330
18
100
AcDbEntity
  8
0
100
AcDbLine
 10
632.0162975656922
 20
-526.9213350050784
 30
0.0
 11
631.5162975656922
 21
-526.8213338416807
 31
0.0
  0
LINE
  5
20F0D
330
18
100
AcDbEntity
  8
0
100
AcDbLine
 10
632.0162975656922
 20
-528.5213350050783
 30
0.0
 11
631.5162975656922
 21
-528.4213338416806
 31
0.0
  0
LINE
  5
20F0E
330
18
100
AcDbEntity
  8
0
100
AcDbLine
 10
628.5162975656922
 20
-526.2213268612942
 30
0.0
 11
628.0162975656922
 21
-526.1213256978965
 31
0.0
  0
LINE
  5
20F0F
330
18
100
AcDbEntity
  8
0
100
AcDbLine
 10
628.5162975656922
 20
-527.8213268612943
 30
0.0
 11
628.0162975656922
 21
-527.7213256978966
 31
0.0
  0
LINE
  5
20F10
330
18
100
AcDbEntity
  8
0
100
AcDbLine
 10
628.0162975656922
 20
-527.7213256978966
 30
0.0
 11
632.0162975656922
 21
-526.9213350050784
 31
0.0
  0
LINE
  5
20F11
330
18
100
AcDbEntity
  8
0
100
AcDbLine
 10
632.0162975656922
 20
-520.5213350050739
 30
0.0
 11
631.5162975656922
 21
-520.4213338416762
 31
0.0
  0
LINE
  5
20F12
330
18
100
AcDbEntity
  8
0
100
AcDbLine
 10
632.0162975656922
 20
-518.9213350050695
 30
0.0
 11
631.5162975656922
 21
-518.8213338416724
 31
0.0
  0
LINE
  5
20F13
330
18
100
AcDbEntity
  8
0
100
AcDbLine
 10
632.0162975656922
 20
-523.7213350050739
 30
0.0
 11
631.5162975656922
 21
-523.6213338416762
 31
0.0
  0
LINE
  5
20F14
330
18
100
AcDbEntity
  8
0
100
AcDbLine
 10
632.0162975656922
 20
-522.121335005074
 30
0.0
 11
631.5162975656922
 21
-522.0213338416763
 31
0.0
  0
LINE
  5
20F15
330
18
100
AcDbEntity
  8
0
100
AcDbLine
 10
628.5162975656922
 20
-518.2213268612893
 30
0.0
 11
628.0162975656922
 21
-518.1213256978922
 31
0.0
  0
LINE
  5
20F16
330
18
100
AcDbEntity
  8
0
100
AcDbLine
 10
628.5162975656922
 20
-519.8213268612899
 30
0.0
 11
628.0162975656922
 21
-519.7213256978921
 31
0.0
  0
LINE
  5
20F17
330
18
100
AcDbEntity
  8
0
100
AcDbLine
 10
628.5162975656922
 20
-523.0213268612899
 30
0.0
 11
628.0162975656922
 21
-522.9213256978923
 31
0.0
  0
LINE
  5
20F18
330
18
100
AcDbEntity
  8
0
100
AcDbLine
 10
628.5162975656922
 20
-521.4213268612898
 30
0.0
 11
628.0162975656922
 21
-521.3213256978921
 31
0.0
  0
LINE
  5
20F19
330
18
100
AcDbEntity
  8
0
100
AcDbLine
 10
628.0162975656922
 20
-521.3213256978921
 30
0.0
 11
632.0162975656922
 21
-520.5213350050739
 31
0.0
  0
LINE
  5
20F1A
330
18
100
AcDbEntity
  8
0
100
AcDbLine
 10
628.0162975656922
 20
-519.7213256978921
 30
0.0
 11
632.0162975656922
 21
-518.9213350050695
 31
0.0
  0
LINE
  5
20F1B
330
18
100
AcDbEntity
  8
0
100
AcDbLine
 10
628.0162975656922
 20
-522.9213256978923
 30
0.0
 11
632.0162975656922
 21
-522.121335005074
 31
0.0
  0
LINE
  5
20F1C
330
18
100
AcDbEntity
  8
0
100
AcDbLine
 10
628.0162975656922
 20
-524.5213256978922
 30
0.0
 11
632.0162975656922
 21
-523.7213350050739
 31
0.0
  0
LINE
  5
20F1D
330
18
100
AcDbEntity
  8
0
100
AcDbLine
 10
628.5162975656922
 20
-534.2213268612984
 30
0.0
 11
628.0162975656922
 21
-534.1213256979007
 31
0.0
  0
LINE
  5
20F1E
330
18
100
AcDbEntity
  8
0
100
AcDbLine
 10
628.0162975656922
 20
-534.1213256979007
 30
0.0
 11
632.0162975656922
 21
-533.3213350050825
 31
0.0
  0
LINE
  5
20F1F
330
18
100
AcDbEntity
  8
0
100
AcDbLine
 10
632.0162975656922
 20
-533.3213350050825
 30
0.0
 11
631.5162975656922
 21
-533.2213338416848
 31
0.0
  0
LINE
  5
20F20
330
18
100
AcDbEntity
  8
0
100
AcDbLine
 10
628.5162975656922
 20
-532.6213268612985
 30
0.0
 11
628.0162975656922
 21
-532.5213256979008
 31
0.0
  0
LINE
  5
20F21
330
18
100
AcDbEntity
  8
0
100
AcDbLine
 10
628.5162975656922
 20
-531.0213268612986
 30
0.0
 11
628.0162975656922
 21
-530.9213256979009
 31
0.0
  0
LINE
  5
20F22
330
18
100
AcDbEntity
  8
0
100
AcDbLine
 10
628.0162975656922
 20
-530.9213256979009
 30
0.0
 11
632.0162975656922
 21
-530.1213350050826
 31
0.0
  0
LINE
  5
20F23
330
18
100
AcDbEntity
  8
0
100
AcDbLine
 10
632.0162975656922
 20
-531.7213350050826
 30
0.0
 11
631.5162975656922
 21
-531.6213338416849
 31
0.0
  0
LINE
  5
20F24
330
18
100
AcDbEntity
  8
0
100
AcDbLine
 10
632.0162975656922
 20
-530.1213350050826
 30
0.0
 11
631.5162975656922
 21
-530.021333841685
 31
0.0
  0
LINE
  5
20F25
330
18
100
AcDbEntity
  8
0
100
AcDbLine
 10
628.0162975656922
 20
-532.5213256979008
 30
0.0
 11
632.0162975656922
 21
-531.7213350050826
 31
0.0
  0
LINE
  5
20F26
330
18
100
AcDbEntity
  8
0
100
AcDbLine
 10
628.5162975656922
 20
-529.4213268612942
 30
0.0
 11
628.0162975656922
 21
-529.3213256978966
 31
0.0
  0
LINE
  5
20F27
330
18
100
AcDbEntity
  8
0
100
AcDbLine
 10
628.5162975656922
 20
-535.8213268612983
 30
0.0
 11
628.0162975656922
 21
-535.7213256979006
 31
0.0
  0
LINE
  5
20F28
330
18
100
AcDbEntity
  8
0
100
AcDbLine
 10
628.0162975656922
 20
-535.7213256979006
 30
0.0
 11
632.0162975656922
 21
-534.9213350050824
 31
0.0
  0
LINE
  5
20F29
330
18
100
AcDbEntity
  8
0
100
AcDbLine
 10
632.0162975656922
 20
-534.9213350050824
 30
0.0
 11
631.5162975656922
 21
-534.8213338416847
 31
0.0
  0
LINE
  5
20F2A
330
18
100
AcDbEntity
  8
0
100
AcDbLine
 10
628.5162975656922
 20
-537.4213268612982
 30
0.0
 11
628.0162975656922
 21
-537.3213256979005
 31
0.0
  0
LINE
  5
20F2B
330
18
100
AcDbEntity
  8
0
100
AcDbLine
 10
628.0162975656922
 20
-537.3213256979005
 30
0.0
 11
632.0162975656922
 21
-536.5213350050823
 31
0.0
  0
LINE
  5
20F2C
330
18
100
AcDbEntity
  8
0
100
AcDbLine
 10
632.0162975656922
 20
-536.5213350050823
 30
0.0
 11
631.5162975656922
 21
-536.4213338416846
 31
0.0
  0
LINE
  5
20F2D
330
18
100
AcDbEntity
  8
0
100
AcDbLine
 10
628.5162975656922
 20
-539.0213268612981
 30
0.0
 11
628.0162975656922
 21
-538.9213256979004
 31
0.0
  0
LINE
  5
20F2E
330
18
100
AcDbEntity
  8
0
100
AcDbLine
 10
628.0162975656922
 20
-538.9213256979004
 30
0.0
 11
632.0162975656922
 21
-538.1213350050822
 31
0.0
  0
LINE
  5
20F2F
330
18
100
AcDbEntity
  8
0
100
AcDbLine
 10
632.0162975656922
 20
-538.1213350050822
 30
0.0
 11
631.5162975656922
 21
-538.0213338416845
 31
0.0
  0
LINE
  5
20F30
330
18
100
AcDbEntity
  8
0
100
AcDbLine
 10
774.0162416152026
 20
-647.2213768840605
 30
0.0
 11
768.7162451053409
 21
-645.7213768840605
 31
0.0
  0
LINE
  5
20F31
330
18
100
AcDbEntity
  8
0
100
AcDbLine
 10
768.7162451053409
 20
-645.7213768840605
 30
0.0
 11
739.016245105449
 21
-645.7213768840608
 31
0.0
  0
LINE
  5
20F32
330
18
100
AcDbEntity
  8
0
100
AcDbLine
 10
774.0162416152026
 20
-647.2213768840605
 30
0.0
 11
768.7162381249573
 21
-648.7213768840606
 31
0.0
  0
LINE
  5
20F33
330
18
100
AcDbEntity
  8
0
100
AcDbLine
 10
739.0162497591472
 20
-643.7213303481627
 30
0.0
 11
739.0162334715827
 21
-650.7213303481626
 31
0.0
  0
LINE
  5
20F34
330
18
100
AcDbEntity
  8
0
100
AcDbLine
 10
768.7162381249573
 20
-648.7213768840606
 30
0.0
 11
739.0162381250643
 21
-648.7213768840608
 31
0.0
  0
LINE
  5
20F35
330
18
100
AcDbEntity
  8
0
100
AcDbLine
 10
739.0162497591472
 20
-643.7213303481627
 30
0.0
 11
737.9162462689518
 21
-643.7213303481626
 31
0.0
  0
ARC
  5
20F36
330
18
100
AcDbEntity
  8
0
100
AcDbCircle
 10
737.9162462689518
 20
-645.2213303481626
 30
0.0
 40
1.5
100
AcDbArc
 50
90.0
 51
179.9998666844663
  0
LINE
  5
20F37
330
18
100
AcDbEntity
  8
0
100
AcDbLine
 10
739.0162334715827
 20
-650.7213303481626
 30
0.0
 11
737.9162369617721
 21
-650.7213303481626
 31
0.0
  0
LINE
  5
20F38
330
18
100
AcDbEntity
  8
0
100
AcDbLine
 10
736.4162462689559
 20
-645.2213268579702
 30
0.0
 11
736.4162369617762
 21
-649.2213268579702
 31
0.0
  0
ARC
  5
20F39
330
18
100
AcDbEntity
  8
0
100
AcDbCircle
 10
737.9162369617721
 20
-649.2213303481626
 30
0.0
 40
1.5
100
AcDbArc
 50
179.9998666844663
 51
270.0
  0
LINE
  5
20F3A
330
18
100
AcDbEntity
  8
1CENTER
100
AcDbLine
 10
775.447036532668
 20
-647.2213303481626
 30
0.0
 11
735.3459652060561
 21
-647.2213303481626
 31
0.0
  0
LINE
  5
20F3B
330
18
100
AcDbEntity
  8
0
100
AcDbLine
 10
771.9162441615248
 20
-646.1270065341675
 30
0.0
 11
772.7162395955758
 21
-648.089341623043
 31
0.0
  0
LINE
  5
20F3C
330
18
100
AcDbEntity
  8
0
100
AcDbLine
 10
772.7162395955758
 20
-648.089341623043
 30
0.0
 11
773.0280094518279
 21
-647.5010650480006
 31
0.0
  0
LINE
  5
20F3D
330
18
100
AcDbEntity
  8
0
100
AcDbLine
 10
749.5162462687348
 20
-645.2213768840605
 30
0.0
 11
750.316236961553
 21
-649.2213768840605
 31
0.0
  0
LINE
  5
20F3E
330
18
100
AcDbEntity
  8
0
100
AcDbLine
 10
760.7162462687392
 20
-645.2213768840605
 30
0.0
 11
761.5162369615617
 21
-649.2213768840605
 31
0.0
  0
LINE
  5
20F3F
330
18
100
AcDbEntity
  8
0
100
AcDbLine
 10
763.9162462687392
 20
-645.2213768840605
 30
0.0
 11
764.7162369615618
 21
-649.2213768840605
 31
0.0
  0
LINE
  5
20F40
330
18
100
AcDbEntity
  8
0
100
AcDbLine
 10
764.7162369615618
 20
-649.2213768840605
 30
0.0
 11
764.816238124959
 21
-648.7213768840605
 31
0.0
  0
LINE
  5
20F41
330
18
100
AcDbEntity
  8
0
100
AcDbLine
 10
765.416245105342
 20
-645.7213768840605
 30
0.0
 11
765.5162462687392
 21
-645.2213768840605
 31
0.0
  0
LINE
  5
20F42
330
18
100
AcDbEntity
  8
0
100
AcDbLine
 10
761.5162369615617
 20
-649.2213768840605
 30
0.0
 11
761.616238124959
 21
-648.7213768840605
 31
0.0
  0
LINE
  5
20F43
330
18
100
AcDbEntity
  8
0
100
AcDbLine
 10
763.1162369615619
 20
-649.2213768840605
 30
0.0
 11
763.216238124959
 21
-648.7213768840605
 31
0.0
  0
LINE
  5
20F44
330
18
100
AcDbEntity
  8
0
100
AcDbLine
 10
763.8162451053421
 20
-645.7213768840605
 30
0.0
 11
763.9162462687392
 21
-645.2213768840605
 31
0.0
  0
LINE
  5
20F45
330
18
100
AcDbEntity
  8
0
100
AcDbLine
 10
762.2162451053422
 20
-645.7213768840605
 30
0.0
 11
762.3162462687393
 21
-645.2213768840605
 31
0.0
  0
LINE
  5
20F46
330
18
100
AcDbEntity
  8
0
100
AcDbLine
 10
762.3162462687393
 20
-645.2213768840605
 30
0.0
 11
763.1162369615619
 21
-649.2213768840605
 31
0.0
  0
LINE
  5
20F47
330
18
100
AcDbEntity
  8
0
100
AcDbLine
 10
771.1162385419701
 20
-648.5421557274498
 30
0.0
 11
771.2990026845981
 21
-647.9904062636465
 31
0.0
  0
LINE
  5
20F48
330
18
100
AcDbEntity
  8
0
100
AcDbLine
 10
767.9162369615618
 20
-649.2213768840605
 30
0.0
 11
768.0162381249589
 21
-648.7213768840605
 31
0.0
  0
LINE
  5
20F49
330
18
100
AcDbEntity
  8
0
100
AcDbLine
 10
766.3162369615618
 20
-649.2213768840605
 30
0.0
 11
766.4162381249588
 21
-648.7213768840605
 31
0.0
  0
LINE
  5
20F4A
330
18
100
AcDbEntity
  8
0
100
AcDbLine
 10
769.5162374883645
 20
-648.9949698318566
 30
0.0
 11
769.6455081859943
 21
-648.4583760965854
 31
0.0
  0
LINE
  5
20F4B
330
18
100
AcDbEntity
  8
0
100
AcDbLine
 10
770.203475702779
 20
-646.1422914812692
 30
0.0
 11
770.316245215129
 21
-645.6741930261193
 31
0.0
  0
LINE
  5
20F4C
330
18
100
AcDbEntity
  8
0
100
AcDbLine
 10
767.0162451053421
 20
-645.7213768840605
 30
0.0
 11
767.1162462687392
 21
-645.2213768840605
 31
0.0
  0
LINE
  5
20F4D
330
18
100
AcDbEntity
  8
0
100
AcDbLine
 10
768.616245105342
 20
-645.7213768840605
 30
0.0
 11
768.7162462687392
 21
-645.2213768840605
 31
0.0
  0
LINE
  5
20F4E
330
18
100
AcDbEntity
  8
0
100
AcDbLine
 10
771.7648083650844
 20
-646.5841783747986
 30
0.0
 11
771.9162441615248
 21
-646.1270065341675
 31
0.0
  0
LINE
  5
20F4F
330
18
100
AcDbEntity
  8
0
100
AcDbLine
 10
770.316245215129
 20
-645.6741930261193
 30
0.0
 11
771.1162385419701
 21
-648.5421557274498
 31
0.0
  0
LINE
  5
20F50
330
18
100
AcDbEntity
  8
0
100
AcDbLine
 10
767.1162462687392
 20
-645.2213768840605
 30
0.0
 11
767.9162369615618
 21
-649.2213768840605
 31
0.0
  0
LINE
  5
20F51
330
18
100
AcDbEntity
  8
0
100
AcDbLine
 10
768.7162462687392
 20
-645.2213768840605
 30
0.0
 11
769.5162374883645
 21
-648.9949698318566
 31
0.0
  0
LINE
  5
20F52
330
18
100
AcDbEntity
  8
0
100
AcDbLine
 10
765.5162462687392
 20
-645.2213768840605
 30
0.0
 11
766.3162369615618
 21
-649.2213768840605
 31
0.0
  0
LINE
  5
20F53
330
18
100
AcDbEntity
  8
0
100
AcDbLine
 10
752.7162462687348
 20
-645.2213768840605
 30
0.0
 11
753.5162369615531
 21
-649.2213768840605
 31
0.0
  0
LINE
  5
20F54
330
18
100
AcDbEntity
  8
0
100
AcDbLine
 10
753.5162369615531
 20
-649.2213768840605
 30
0.0
 11
753.6162381249508
 21
-648.7213768840605
 31
0.0
  0
LINE
  5
20F55
330
18
100
AcDbEntity
  8
0
100
AcDbLine
 10
754.2162451053415
 20
-645.7213768840605
 30
0.0
 11
754.3162462687392
 21
-645.2213768840605
 31
0.0
  0
LINE
  5
20F56
330
18
100
AcDbEntity
  8
0
100
AcDbLine
 10
751.916236961553
 20
-649.2213768840605
 30
0.0
 11
752.0162381249506
 21
-648.7213768840605
 31
0.0
  0
LINE
  5
20F57
330
18
100
AcDbEntity
  8
0
100
AcDbLine
 10
750.316236961553
 20
-649.2213768840605
 30
0.0
 11
750.4162381249507
 21
-648.7213768840605
 31
0.0
  0
LINE
  5
20F58
330
18
100
AcDbEntity
  8
0
100
AcDbLine
 10
752.6162451053372
 20
-645.7213768840605
 30
0.0
 11
752.7162462687348
 21
-645.2213768840605
 31
0.0
  0
LINE
  5
20F59
330
18
100
AcDbEntity
  8
0
100
AcDbLine
 10
751.016245105337
 20
-645.7213768840605
 30
0.0
 11
751.1162462687347
 21
-645.2213768840605
 31
0.0
  0
LINE
  5
20F5A
330
18
100
AcDbEntity
  8
0
100
AcDbLine
 10
751.1162462687347
 20
-645.2213768840605
 30
0.0
 11
751.916236961553
 21
-649.2213768840605
 31
0.0
  0
LINE
  5
20F5B
330
18
100
AcDbEntity
  8
0
100
AcDbLine
 10
758.3162369615575
 20
-649.2213768840605
 30
0.0
 11
758.4162381249552
 21
-648.7213768840605
 31
0.0
  0
LINE
  5
20F5C
330
18
100
AcDbEntity
  8
0
100
AcDbLine
 10
759.9162369615618
 20
-649.2213768840605
 30
0.0
 11
760.0162381249589
 21
-648.7213768840605
 31
0.0
  0
LINE
  5
20F5D
330
18
100
AcDbEntity
  8
0
100
AcDbLine
 10
755.1162369615574
 20
-649.2213768840605
 30
0.0
 11
755.2162381249551
 21
-648.7213768840605
 31
0.0
  0
LINE
  5
20F5E
330
18
100
AcDbEntity
  8
0
100
AcDbLine
 10
756.7162369615573
 20
-649.2213768840605
 30
0.0
 11
756.816238124955
 21
-648.7213768840605
 31
0.0
  0
LINE
  5
20F5F
330
18
100
AcDbEntity
  8
0
100
AcDbLine
 10
760.616245105342
 20
-645.7213768840605
 30
0.0
 11
760.7162462687392
 21
-645.2213768840605
 31
0.0
  0
LINE
  5
20F60
330
18
100
AcDbEntity
  8
0
100
AcDbLine
 10
759.0162451053415
 20
-645.7213768840605
 30
0.0
 11
759.1162462687392
 21
-645.2213768840605
 31
0.0
  0
LINE
  5
20F61
330
18
100
AcDbEntity
  8
0
100
AcDbLine
 10
755.8162451053414
 20
-645.7213768840605
 30
0.0
 11
755.9162462687391
 21
-645.2213768840605
 31
0.0
  0
LINE
  5
20F62
330
18
100
AcDbEntity
  8
0
100
AcDbLine
 10
757.4162451053415
 20
-645.7213768840605
 30
0.0
 11
757.5162462687392
 21
-645.2213768840605
 31
0.0
  0
LINE
  5
20F63
330
18
100
AcDbEntity
  8
0
100
AcDbLine
 10
757.5162462687392
 20
-645.2213768840605
 30
0.0
 11
758.3162369615575
 21
-649.2213768840605
 31
0.0
  0
LINE
  5
20F64
330
18
100
AcDbEntity
  8
0
100
AcDbLine
 10
759.1162462687392
 20
-645.2213768840605
 30
0.0
 11
759.9162369615618
 21
-649.2213768840605
 31
0.0
  0
LINE
  5
20F65
330
18
100
AcDbEntity
  8
0
100
AcDbLine
 10
755.9162462687391
 20
-645.2213768840605
 30
0.0
 11
756.7162369615573
 21
-649.2213768840605
 31
0.0
  0
LINE
  5
20F66
330
18
100
AcDbEntity
  8
0
100
AcDbLine
 10
754.3162462687392
 20
-645.2213768840605
 30
0.0
 11
755.1162369615574
 21
-649.2213768840605
 31
0.0
  0
LINE
  5
20F67
330
18
100
AcDbEntity
  8
0
100
AcDbLine
 10
744.616245105333
 20
-645.7213768840605
 30
0.0
 11
744.7162462687306
 21
-645.2213768840605
 31
0.0
  0
LINE
  5
20F68
330
18
100
AcDbEntity
  8
0
100
AcDbLine
 10
744.7162462687306
 20
-645.2213768840605
 30
0.0
 11
745.5162369615489
 21
-649.2213768840605
 31
0.0
  0
LINE
  5
20F69
330
18
100
AcDbEntity
  8
0
100
AcDbLine
 10
745.5162369615489
 20
-649.2213768840605
 30
0.0
 11
745.6162381249466
 21
-648.7213768840605
 31
0.0
  0
LINE
  5
20F6A
330
18
100
AcDbEntity
  8
0
100
AcDbLine
 10
746.2162451053329
 20
-645.7213768840605
 30
0.0
 11
746.3162462687305
 21
-645.2213768840605
 31
0.0
  0
LINE
  5
20F6B
330
18
100
AcDbEntity
  8
0
100
AcDbLine
 10
747.8162451053328
 20
-645.7213768840605
 30
0.0
 11
747.9162462687304
 21
-645.2213768840605
 31
0.0
  0
LINE
  5
20F6C
330
18
100
AcDbEntity
  8
0
100
AcDbLine
 10
747.9162462687304
 20
-645.2213768840605
 30
0.0
 11
748.7162369615487
 21
-649.2213768840605
 31
0.0
  0
LINE
  5
20F6D
330
18
100
AcDbEntity
  8
0
100
AcDbLine
 10
747.1162369615488
 20
-649.2213768840605
 30
0.0
 11
747.2162381249465
 21
-648.7213768840605
 31
0.0
  0
LINE
  5
20F6E
330
18
100
AcDbEntity
  8
0
100
AcDbLine
 10
748.7162369615487
 20
-649.2213768840605
 30
0.0
 11
748.8162381249464
 21
-648.7213768840605
 31
0.0
  0
LINE
  5
20F6F
330
18
100
AcDbEntity
  8
0
100
AcDbLine
 10
746.3162462687305
 20
-645.2213768840605
 30
0.0
 11
747.1162369615488
 21
-649.2213768840605
 31
0.0
  0
LINE
  5
20F70
330
18
100
AcDbEntity
  8
0
100
AcDbLine
 10
749.4162451053371
 20
-645.7213768840605
 30
0.0
 11
749.5162462687348
 21
-645.2213768840605
 31
0.0
  0
LINE
  5
20F71
330
18
100
AcDbEntity
  8
0
100
AcDbLine
 10
743.016245105333
 20
-645.7213768840605
 30
0.0
 11
743.1162462687307
 21
-645.2213768840605
 31
0.0
  0
LINE
  5
20F72
330
18
100
AcDbEntity
  8
0
100
AcDbLine
 10
743.1162462687307
 20
-645.2213768840605
 30
0.0
 11
743.916236961549
 21
-649.2213768840605
 31
0.0
  0
LINE
  5
20F73
330
18
100
AcDbEntity
  8
0
100
AcDbLine
 10
743.916236961549
 20
-649.2213768840605
 30
0.0
 11
744.0162381249467
 21
-648.7213768840605
 31
0.0
  0
LINE
  5
20F74
330
18
100
AcDbEntity
  8
0
100
AcDbLine
 10
741.4162451053331
 20
-645.7213768840605
 30
0.0
 11
741.5162462687308
 21
-645.2213768840605
 31
0.0
  0
LINE
  5
20F75
330
18
100
AcDbEntity
  8
0
100
AcDbLine
 10
741.5162462687308
 20
-645.2213768840605
 30
0.0
 11
742.3162369615491
 21
-649.2213768840605
 31
0.0
  0
LINE
  5
20F76
330
18
100
AcDbEntity
  8
0
100
AcDbLine
 10
742.3162369615491
 20
-649.2213768840605
 30
0.0
 11
742.4162381249467
 21
-648.7213768840605
 31
0.0
  0
LINE
  5
20F77
330
18
100
AcDbEntity
  8
0
100
AcDbLine
 10
739.8162451053332
 20
-645.7213768840605
 30
0.0
 11
739.9162462687309
 21
-645.2213768840605
 31
0.0
  0
LINE
  5
20F78
330
18
100
AcDbEntity
  8
0
100
AcDbLine
 10
739.9162462687309
 20
-645.2213768840605
 30
0.0
 11
740.7162369615492
 21
-649.2213768840605
 31
0.0
  0
LINE
  5
20F79
330
18
100
AcDbEntity
  8
0
100
AcDbLine
 10
740.7162369615492
 20
-649.2213768840605
 30
0.0
 11
740.8162381249468
 21
-648.7213768840605
 31
0.0
  0
LINE
  5
20FC4
330
18
100
AcDbEntity
  8
0
100
AcDbLine
 10
180.0162045001048
 20
-504.8213303514287
 30
0.0
 11
181.5162045001048
 21
-510.1213268612904
 31
0.0
  0
LINE
  5
20FC5
330
18
100
AcDbEntity
  8
0
100
AcDbLine
 10
181.5162045001048
 20
-510.1213268612904
 30
0.0
 11
181.5162045001045
 21
-539.8213268611823
 31
0.0
  0
LINE
  5
20FC6
330
18
100
AcDbEntity
  8
0
100
AcDbLine
 10
180.0162045001048
 20
-504.8213303514287
 30
0.0
 11
178.5162045001047
 21
-510.1213338416741
 31
0.0
  0
LINE
  5
20FC7
330
18
100
AcDbEntity
  8
0
100
AcDbLine
 10
183.5162510360026
 20
-539.8213222074843
 30
0.0
 11
176.5162510360027
 21
-539.8213384950485
 31
0.0
  0
LINE
  5
20FC8
330
18
100
AcDbEntity
  8
0
100
AcDbLine
 10
178.5162045001047
 20
-510.1213338416741
 30
0.0
 11
178.5162045001045
 21
-539.821333841567
 31
0.0
  0
LINE
  5
20FC9
330
18
100
AcDbEntity
  8
0
100
AcDbLine
 10
183.5162510360026
 20
-539.8213222074843
 30
0.0
 11
183.5162510360027
 21
-540.9213256976795
 31
0.0
  0
ARC
  5
20FCA
330
18
100
AcDbEntity
  8
0
100
AcDbCircle
 10
182.0162510360027
 20
-540.9213256976795
 30
0.0
 40
1.5
100
AcDbArc
 50
270.0001333155316
 51
0.0
  0
LINE
  5
20FCB
330
18
100
AcDbEntity
  8
0
100
AcDbLine
 10
176.5162510360027
 20
-539.8213384950485
 30
0.0
 11
176.5162510360027
 21
-540.9213350048591
 31
0.0
  0
LINE
  5
20FCC
330
18
100
AcDbEntity
  8
0
100
AcDbLine
 10
182.0162545261951
 20
-542.4213256976755
 30
0.0
 11
178.0162545261951
 21
-542.4213350048551
 31
0.0
  0
ARC
  5
20FCD
330
18
100
AcDbEntity
  8
0
100
AcDbCircle
 10
178.0162510360027
 20
-540.9213350048591
 30
0.0
 40
1.5
100
AcDbArc
 50
180.0
 51
270.0001333155316
  0
LINE
  5
20FCE
330
18
100
AcDbEntity
  8
1CENTER
100
AcDbLine
 10
180.0162510360027
 20
-503.3905354339634
 30
0.0
 11
180.0162510360027
 21
-543.4916067605752
 31
0.0
  0
LINE
  5
20FCF
330
18
100
AcDbEntity
  8
0
100
AcDbLine
 10
181.1105748499978
 20
-506.9213278051066
 30
0.0
 11
179.1482397611223
 21
-506.1213323710556
 31
0.0
  0
LINE
  5
20FD0
330
18
100
AcDbEntity
  8
0
100
AcDbLine
 10
179.1482397611223
 20
-506.1213323710556
 30
0.0
 11
179.7365163361648
 21
-505.8095625148035
 31
0.0
  0
LINE
  5
20FD1
330
18
100
AcDbEntity
  8
0
100
AcDbLine
 10
182.0162045001048
 20
-529.3213256978966
 30
0.0
 11
178.0162045001048
 21
-528.5213350050783
 31
0.0
  0
LINE
  5
20FD2
330
18
100
AcDbEntity
  8
0
100
AcDbLine
 10
182.0162045001048
 20
-518.1213256978922
 30
0.0
 11
178.0162045001048
 21
-517.3213350050696
 31
0.0
  0
LINE
  5
20FD3
330
18
100
AcDbEntity
  8
0
100
AcDbLine
 10
182.0162045001048
 20
-514.9213256978921
 30
0.0
 11
178.0162045001048
 21
-514.1213350050696
 31
0.0
  0
LINE
  5
20FD4
330
18
100
AcDbEntity
  8
0
100
AcDbLine
 10
178.0162045001048
 20
-514.1213350050696
 30
0.0
 11
178.5162045001048
 21
-514.0213338416723
 31
0.0
  0
LINE
  5
20FD5
330
18
100
AcDbEntity
  8
0
100
AcDbLine
 10
181.5162045001048
 20
-513.4213268612893
 30
0.0
 11
182.0162045001048
 21
-513.3213256978921
 31
0.0
  0
LINE
  5
20FD6
330
18
100
AcDbEntity
  8
0
100
AcDbLine
 10
178.0162045001048
 20
-517.3213350050696
 30
0.0
 11
178.5162045001048
 21
-517.2213338416724
 31
0.0
  0
LINE
  5
20FD7
330
18
100
AcDbEntity
  8
0
100
AcDbLine
 10
178.0162045001048
 20
-515.7213350050695
 30
0.0
 11
178.5162045001048
 21
-515.6213338416724
 31
0.0
  0
LINE
  5
20FD8
330
18
100
AcDbEntity
  8
0
100
AcDbLine
 10
181.5162045001048
 20
-515.0213268612893
 30
0.0
 11
182.0162045001048
 21
-514.9213256978921
 31
0.0
  0
LINE
  5
20FD9
330
18
100
AcDbEntity
  8
0
100
AcDbLine
 10
181.5162045001048
 20
-516.6213268612892
 30
0.0
 11
182.0162045001048
 21
-516.521325697892
 31
0.0
  0
LINE
  5
20FDA
330
18
100
AcDbEntity
  8
0
100
AcDbLine
 10
182.0162045001048
 20
-516.521325697892
 30
0.0
 11
178.0162045001048
 21
-515.7213350050695
 31
0.0
  0
LINE
  5
20FDB
330
18
100
AcDbEntity
  8
0
100
AcDbLine
 10
178.6954256567155
 20
-507.7213334246612
 30
0.0
 11
179.2471751205188
 21
-507.5385692820332
 31
0.0
  0
LINE
  5
20FDC
330
18
100
AcDbEntity
  8
0
100
AcDbLine
 10
178.0162045001048
 20
-510.9213350050695
 30
0.0
 11
178.5162045001048
 21
-510.8213338416724
 31
0.0
  0
LINE
  5
20FDD
330
18
100
AcDbEntity
  8
0
100
AcDbLine
 10
178.0162045001048
 20
-512.5213350050695
 30
0.0
 11
178.5162045001048
 21
-512.4213338416725
 31
0.0
  0
LINE
  5
20FDE
330
18
100
AcDbEntity
  8
0
100
AcDbLine
 10
178.2426115523087
 20
-509.3213344782669
 30
0.0
 11
178.7792052875799
 21
-509.192063780637
 31
0.0
  0
LINE
  5
20FDF
330
18
100
AcDbEntity
  8
0
100
AcDbLine
 10
181.0952899028961
 20
-508.6340962638524
 30
0.0
 11
181.563388358046
 21
-508.5213267515023
 31
0.0
  0
LINE
  5
20FE0
330
18
100
AcDbEntity
  8
0
100
AcDbLine
 10
181.5162045001048
 20
-511.8213268612892
 30
0.0
 11
182.0162045001048
 21
-511.7213256978921
 31
0.0
  0
LINE
  5
20FE1
330
18
100
AcDbEntity
  8
0
100
AcDbLine
 10
181.5162045001048
 20
-510.2213268612893
 30
0.0
 11
182.0162045001048
 21
-510.1213256978922
 31
0.0
  0
LINE
  5
20FE2
330
18
100
AcDbEntity
  8
0
100
AcDbLine
 10
180.6534030093667
 20
-507.072763601547
 30
0.0
 11
181.1105748499978
 21
-506.9213278051066
 31
0.0
  0
LINE
  5
20FE3
330
18
100
AcDbEntity
  8
0
100
AcDbLine
 10
181.563388358046
 20
-508.5213267515023
 30
0.0
 11
178.6954256567155
 21
-507.7213334246612
 31
0.0
  0
LINE
  5
20FE4
330
18
100
AcDbEntity
  8
0
100
AcDbLine
 10
182.0162045001048
 20
-511.7213256978921
 30
0.0
 11
178.0162045001048
 21
-510.9213350050695
 31
0.0
  0
LINE
  5
20FE5
330
18
100
AcDbEntity
  8
0
100
AcDbLine
 10
182.0162045001048
 20
-510.1213256978922
 30
0.0
 11
178.2426115523087
 21
-509.3213344782669
 31
0.0
  0
LINE
  5
20FE6
330
18
100
AcDbEntity
  8
0
100
AcDbLine
 10
182.0162045001048
 20
-513.3213256978921
 30
0.0
 11
178.0162045001048
 21
-512.5213350050695
 31
0.0
  0
LINE
  5
20FE7
330
18
100
AcDbEntity
  8
0
100
AcDbLine
 10
182.0162045001048
 20
-526.1213256978965
 30
0.0
 11
178.0162045001048
 21
-525.3213350050783
 31
0.0
  0
LINE
  5
20FE8
330
18
100
AcDbEntity
  8
0
100
AcDbLine
 10
178.0162045001048
 20
-525.3213350050783
 30
0.0
 11
178.5162045001048
 21
-525.2213338416806
 31
0.0
  0
LINE
  5
20FE9
330
18
100
AcDbEntity
  8
0
100
AcDbLine
 10
181.5162045001048
 20
-524.6213268612898
 30
0.0
 11
182.0162045001048
 21
-524.5213256978922
 31
0.0
  0
LINE
  5
20FEA
330
18
100
AcDbEntity
  8
0
100
AcDbLine
 10
178.0162045001048
 20
-526.9213350050784
 30
0.0
 11
178.5162045001048
 21
-526.8213338416807
 31
0.0
  0
LINE
  5
20FEB
330
18
100
AcDbEntity
  8
0
100
AcDbLine
 10
178.0162045001048
 20
-528.5213350050783
 30
0.0
 11
178.5162045001048
 21
-528.4213338416806
 31
0.0
  0
LINE
  5
20FEC
330
18
100
AcDbEntity
  8
0
100
AcDbLine
 10
181.5162045001048
 20
-526.2213268612942
 30
0.0
 11
182.0162045001048
 21
-526.1213256978965
 31
0.0
  0
LINE
  5
20FED
330
18
100
AcDbEntity
  8
0
100
AcDbLine
 10
181.5162045001048
 20
-527.8213268612943
 30
0.0
 11
182.0162045001048
 21
-527.7213256978966
 31
0.0
  0
LINE
  5
20FEE
330
18
100
AcDbEntity
  8
0
100
AcDbLine
 10
182.0162045001048
 20
-527.7213256978966
 30
0.0
 11
178.0162045001048
 21
-526.9213350050784
 31
0.0
  0
LINE
  5
20FEF
330
18
100
AcDbEntity
  8
0
100
AcDbLine
 10
178.0162045001048
 20
-520.5213350050739
 30
0.0
 11
178.5162045001048
 21
-520.4213338416762
 31
0.0
  0
LINE
  5
20FF0
330
18
100
AcDbEntity
  8
0
100
AcDbLine
 10
178.0162045001048
 20
-518.9213350050695
 30
0.0
 11
178.5162045001048
 21
-518.8213338416724
 31
0.0
  0
LINE
  5
20FF1
330
18
100
AcDbEntity
  8
0
100
AcDbLine
 10
178.0162045001048
 20
-523.7213350050739
 30
0.0
 11
178.5162045001048
 21
-523.6213338416762
 31
0.0
  0
LINE
  5
20FF2
330
18
100
AcDbEntity
  8
0
100
AcDbLine
 10
178.0162045001048
 20
-522.121335005074
 30
0.0
 11
178.5162045001048
 21
-522.0213338416763
 31
0.0
  0
LINE
  5
20FF3
330
18
100
AcDbEntity
  8
0
100
AcDbLine
 10
181.5162045001048
 20
-518.2213268612893
 30
0.0
 11
182.0162045001048
 21
-518.1213256978922
 31
0.0
  0
LINE
  5
20FF4
330
18
100
AcDbEntity
  8
0
100
AcDbLine
 10
181.5162045001048
 20
-519.8213268612899
 30
0.0
 11
182.0162045001048
 21
-519.7213256978921
 31
0.0
  0
LINE
  5
20FF5
330
18
100
AcDbEntity
  8
0
100
AcDbLine
 10
181.5162045001048
 20
-523.0213268612899
 30
0.0
 11
182.0162045001048
 21
-522.9213256978923
 31
0.0
  0
LINE
  5
20FF6
330
18
100
AcDbEntity
  8
0
100
AcDbLine
 10
181.5162045001048
 20
-521.4213268612898
 30
0.0
 11
182.0162045001048
 21
-521.3213256978921
 31
0.0
  0
LINE
  5
20FF7
330
18
100
AcDbEntity
  8
0
100
AcDbLine
 10
182.0162045001048
 20
-521.3213256978921
 30
0.0
 11
178.0162045001048
 21
-520.5213350050739
 31
0.0
  0
LINE
  5
20FF8
330
18
100
AcDbEntity
  8
0
100
AcDbLine
 10
182.0162045001048
 20
-519.7213256978921
 30
0.0
 11
178.0162045001048
 21
-518.9213350050695
 31
0.0
  0
LINE
  5
20FF9
330
18
100
AcDbEntity
  8
0
100
AcDbLine
 10
182.0162045001048
 20
-522.9213256978923
 30
0.0
 11
178.0162045001048
 21
-522.121335005074
 31
0.0
  0
LINE
  5
20FFA
330
18
100
AcDbEntity
  8
0
100
AcDbLine
 10
182.0162045001048
 20
-524.5213256978922
 30
0.0
 11
178.0162045001048
 21
-523.7213350050739
 31
0.0
  0
LINE
  5
20FFB
330
18
100
AcDbEntity
  8
0
100
AcDbLine
 10
181.5162045001048
 20
-534.2213268612984
 30
0.0
 11
182.0162045001048
 21
-534.1213256979007
 31
0.0
  0
LINE
  5
20FFC
330
18
100
AcDbEntity
  8
0
100
AcDbLine
 10
182.0162045001048
 20
-534.1213256979007
 30
0.0
 11
178.0162045001048
 21
-533.3213350050825
 31
0.0
  0
LINE
  5
20FFD
330
18
100
AcDbEntity
  8
0
100
AcDbLine
 10
178.0162045001048
 20
-533.3213350050825
 30
0.0
 11
178.5162045001048
 21
-533.2213338416848
 31
0.0
  0
LINE
  5
20FFE
330
18
100
AcDbEntity
  8
0
100
AcDbLine
 10
181.5162045001048
 20
-532.6213268612985
 30
0.0
 11
182.0162045001048
 21
-532.5213256979008
 31
0.0
  0
LINE
  5
20FFF
330
18
100
AcDbEntity
  8
0
100
AcDbLine
 10
181.5162045001048
 20
-531.0213268612986
 30
0.0
 11
182.0162045001048
 21
-530.9213256979009
 31
0.0
  0
LINE
  5
21000
330
18
100
AcDbEntity
  8
0
100
AcDbLine
 10
182.0162045001048
 20
-530.9213256979009
 30
0.0
 11
178.0162045001048
 21
-530.1213350050826
 31
0.0
  0
LINE
  5
21001
330
18
100
AcDbEntity
  8
0
100
AcDbLine
 10
178.0162045001048
 20
-531.7213350050826
 30
0.0
 11
178.5162045001048
 21
-531.6213338416849
 31
0.0
  0
LINE
  5
21002
330
18
100
AcDbEntity
  8
0
100
AcDbLine
 10
178.0162045001048
 20
-530.1213350050826
 30
0.0
 11
178.5162045001048
 21
-530.021333841685
 31
0.0
  0
LINE
  5
21003
330
18
100
AcDbEntity
  8
0
100
AcDbLine
 10
182.0162045001048
 20
-532.5213256979008
 30
0.0
 11
178.0162045001048
 21
-531.7213350050826
 31
0.0
  0
LINE
  5
21004
330
18
100
AcDbEntity
  8
0
100
AcDbLine
 10
181.5162045001048
 20
-529.4213268612942
 30
0.0
 11
182.0162045001048
 21
-529.3213256978966
 31
0.0
  0
LINE
  5
21005
330
18
100
AcDbEntity
  8
0
100
AcDbLine
 10
181.5162045001048
 20
-535.8213268612983
 30
0.0
 11
182.0162045001048
 21
-535.7213256979006
 31
0.0
  0
LINE
  5
21006
330
18
100
AcDbEntity
  8
0
100
AcDbLine
 10
182.0162045001048
 20
-535.7213256979006
 30
0.0
 11
178.0162045001048
 21
-534.9213350050824
 31
0.0
  0
LINE
  5
21007
330
18
100
AcDbEntity
  8
0
100
AcDbLine
 10
178.0162045001048
 20
-534.9213350050824
 30
0.0
 11
178.5162045001048
 21
-534.8213338416847
 31
0.0
  0
LINE
  5
21008
330
18
100
AcDbEntity
  8
0
100
AcDbLine
 10
181.5162045001048
 20
-537.4213268612982
 30
0.0
 11
182.0162045001048
 21
-537.3213256979005
 31
0.0
  0
LINE
  5
21009
330
18
100
AcDbEntity
  8
0
100
AcDbLine
 10
182.0162045001048
 20
-537.3213256979005
 30
0.0
 11
178.0162045001048
 21
-536.5213350050823
 31
0.0
  0
LINE
  5
2100A
330
18
100
AcDbEntity
  8
0
100
AcDbLine
 10
178.0162045001048
 20
-536.5213350050823
 30
0.0
 11
178.5162045001048
 21
-536.4213338416846
 31
0.0
  0
LINE
  5
2100B
330
18
100
AcDbEntity
  8
0
100
AcDbLine
 10
181.5162045001048
 20
-539.0213268612981
 30
0.0
 11
182.0162045001048
 21
-538.9213256979004
 31
0.0
  0
LINE
  5
2100C
330
18
100
AcDbEntity
  8
0
100
AcDbLine
 10
182.0162045001048
 20
-538.9213256979004
 30
0.0
 11
178.0162045001048
 21
-538.1213350050822
 31
0.0
  0
LINE
  5
2100D
330
18
100
AcDbEntity
  8
0
100
AcDbLine
 10
178.0162045001048
 20
-538.1213350050822
 30
0.0
 11
178.5162045001048
 21
-538.0213338416845
 31
0.0
  0
LINE
  5
2100E
330
18
100
AcDbEntity
  8
0
  6
BYBLOCK
100
AcDbLine
 10
186.0162361317379
 20
-694.4290254912676
 30
0.0
 11
180.0162361317379
 21
-692.8213303512675
 31
0.0
  0
LINE
  5
2100F
330
18
100
AcDbEntity
  8
0
  6
BYBLOCK
100
AcDbLine
 10
180.0162361317379
 20
-692.8213303512675
 30
0.0
 11
186.0162361317379
 21
-691.2136352112675
 31
0.0
  0
LINE
  5
21010
330
18
100
AcDbEntity
  8
0
  6
BYBLOCK
100
AcDbLine
 10
180.0162361317379
 20
-692.8213303512675
 30
0.0
 11
186.0162361317379
 21
-692.8213303512675
 31
0.0
  0
LINE
  5
21011
330
18
100
AcDbEntity
  8
0
  6
BYBLOCK
100
AcDbLine
 10
624.0162361317379
 20
-691.2136352112675
 30
0.0
 11
630.0162361317379
 21
-692.8213303512675
 31
0.0
  0
LINE
  5
21012
330
18
100
AcDbEntity
  8
0
  6
BYBLOCK
100
AcDbLine
 10
630.0162361317379
 20
-692.8213303512675
 30
0.0
 11
624.0162361317379
 21
-694.4290254912676
 31
0.0
  0
LINE
  5
21013
330
18
100
AcDbEntity
  8
0
  6
BYBLOCK
100
AcDbLine
 10
630.0162361317379
 20
-692.8213303512675
 30
0.0
 11
624.0162361317379
 21
-692.8213303512675
 31
0.0
  0
TEXT
  5
21014
330
18
100
AcDbEntity
  8
1DIM1
  6
CONTINUOUS
100
AcDbText
 10
386.3860277984045
 20
-690.7213303512675
 30
0.0
 40
10.5
  1
P450
100
AcDbText
1001
ACAD
1000
DSTYLE
1002
{
1070
    40
1040
3.0
1070
    45
1040
0.5
1002
}
  0
LINE
  5
21015
330
18
100
AcDbEntity
  8
0
  6
BYBLOCK
100
AcDbLine
 10
544.7817291663247
 20
-639.4213303714756
 30
0.0
 11
544.2458307863246
 21
-641.4213303714756
 31
0.0
  0
LINE
  5
21016
330
18
100
AcDbEntity
  8
0
  6
BYBLOCK
100
AcDbLine
 10
544.2458307863246
 20
-641.4213303714756
 30
0.0
 11
543.7099324063246
 21
-639.4213303714756
 31
0.0
  0
LINE
  5
21017
330
18
100
AcDbEntity
  8
0
  6
BYBLOCK
100
AcDbLine
 10
544.2458307863246
 20
-641.4213303714756
 30
0.0
 11
544.2458307863246
 21
-639.4213303714756
 31
0.0
  0
LINE
  5
21018
330
18
100
AcDbEntity
  8
0
  6
BYBLOCK
100
AcDbLine
 10
543.7099324063246
 20
-631.4213306746211
 30
0.0
 11
544.2458307863246
 21
-629.4213306746211
 31
0.0
  0
LINE
  5
21019
330
18
100
AcDbEntity
  8
0
  6
BYBLOCK
100
AcDbLine
 10
544.2458307863246
 20
-629.4213306746211
 30
0.0
 11
544.7817291663247
 21
-631.4213306746211
 31
0.0
  0
LINE
  5
2101A
330
18
100
AcDbEntity
  8
0
  6
BYBLOCK
100
AcDbLine
 10
544.2458307863246
 20
-629.4213306746211
 30
0.0
 11
544.2458307863246
 21
-631.4213306746211
 31
0.0
  0
TEXT
  5
2101B
330
18
100
AcDbEntity
  8
1DIM
  6
CONTINUOUS
100
AcDbText
 10
543.5458307863246
 20
-626.4713306746211
 30
0.0
 40
3.5
  1
12
 50
90.0
100
AcDbText
1001
ACAD
1000
DSTYLE
1002
{
1070
    45
1040
0.5
1002
}
  0
LINE
  5
2101C
330
18
100
AcDbEntity
  8
0
  6
BYBLOCK
100
AcDbLine
 10
544.7817291663247
 20
-590.8213303810687
 30
0.0
 11
544.2458307863246
 21
-592.8213303810687
 31
0.0
  0
LINE
  5
2101D
330
18
100
AcDbEntity
  8
0
  6
BYBLOCK
100
AcDbLine
 10
544.2458307863246
 20
-592.8213303810687
 30
0.0
 11
543.7099324063246
 21
-590.8213303810687
 31
0.0
  0
LINE
  5
2101E
330
18
100
AcDbEntity
  8
0
  6
BYBLOCK
100
AcDbLine
 10
544.2458307863246
 20
-592.8213303810687
 30
0.0
 11
544.2458307863246
 21
-590.8213303810687
 31
0.0
  0
LINE
  5
2101F
330
18
100
AcDbEntity
  8
0
  6
BYBLOCK
100
AcDbLine
 10
543.7099324063246
 20
-572.821330500278
 30
0.0
 11
544.2458307863246
 21
-570.821330500278
 31
0.0
  0
LINE
  5
21020
330
18
100
AcDbEntity
  8
0
  6
BYBLOCK
100
AcDbLine
 10
544.2458307863246
 20
-570.821330500278
 30
0.0
 11
544.7817291663247
 21
-572.821330500278
 31
0.0
  0
LINE
  5
21021
330
18
100
AcDbEntity
  8
0
  6
BYBLOCK
100
AcDbLine
 10
544.2458307863246
 20
-570.821330500278
 30
0.0
 11
544.2458307863246
 21
-572.821330500278
 31
0.0
  0
TEXT
  5
21022
330
18
100
AcDbEntity
  8
1DIM
  6
CONTINUOUS
100
AcDbText
 10
543.5458307863246
 20
-568.2046638336111
 30
0.0
 40
3.5
  1
22
 50
90.0
100
AcDbText
1001
ACAD
1000
DSTYLE
1002
{
1070
    45
1040
0.5
1002
}
  0
LINE
  5
21023
330
18
100
AcDbEntity
  8
0
  6
BYBLOCK
100
AcDbLine
 10
687.2162429754609
 20
-615.1572287208461
 30
0.0
 11
685.2162429754609
 21
-614.621330340846
 31
0.0
  0
LINE
  5
21024
330
18
100
AcDbEntity
  8
0
  6
BYBLOCK
100
AcDbLine
 10
685.2162429754609
 20
-614.621330340846
 30
0.0
 11
687.2162429754609
 21
-614.085431960846
 31
0.0
  0
LINE
  5
21025
330
18
100
AcDbEntity
  8
0
  6
BYBLOCK
100
AcDbLine
 10
685.2162429754609
 20
-614.621330340846
 30
0.0
 11
687.2162429754609
 21
-614.621330340846
 31
0.0
  0
LINE
  5
21026
330
18
100
AcDbEntity
  8
0
  6
BYBLOCK
100
AcDbLine
 10
741.016241615365
 20
-614.085431960846
 30
0.0
 11
743.016241615365
 21
-614.621330340846
 31
0.0
  0
LINE
  5
21027
330
18
100
AcDbEntity
  8
0
  6
BYBLOCK
100
AcDbLine
 10
743.016241615365
 20
-614.621330340846
 30
0.0
 11
741.016241615365
 21
-615.1572287208461
 31
0.0
  0
LINE
  5
21028
330
18
100
AcDbEntity
  8
0
  6
BYBLOCK
100
AcDbLine
 10
743.016241615365
 20
-614.621330340846
 30
0.0
 11
741.016241615365
 21
-614.621330340846
 31
0.0
  0
TEXT
  5
21029
330
18
100
AcDbEntity
  8
1DIM
  6
CONTINUOUS
100
AcDbText
 10
711.1874228509685
 20
-613.9213303408461
 30
0.0
 40
3.5
  1
58
100
AcDbText
1001
ACAD
1000
DSTYLE
1002
{
1070
    45
1040
0.5
1002
}
  0
LINE
  5
2102A
330
18
100
AcDbEntity
  8
0
  6
BYBLOCK
100
AcDbLine
 10
785.052139995365
 20
-645.2213303481626
 30
0.0
 11
784.516241615365
 21
-647.2213303481626
 31
0.0
  0
LINE
  5
2102B
330
18
100
AcDbEntity
  8
0
  6
BYBLOCK
100
AcDbLine
 10
784.516241615365
 20
-647.2213303481626
 30
0.0
 11
783.9803432353649
 21
-645.2213303481626
 31
0.0
  0
LINE
  5
2102C
330
18
100
AcDbEntity
  8
0
  6
BYBLOCK
100
AcDbLine
 10
784.516241615365
 20
-647.2213303481626
 30
0.0
 11
784.516241615365
 21
-645.2213303481626
 31
0.0
  0
LINE
  5
2102D
330
18
100
AcDbEntity
  8
0
  6
BYBLOCK
100
AcDbLine
 10
783.9803432353649
 20
-630.621330340846
 30
0.0
 11
784.516241615365
 21
-628.621330340846
 31
0.0
  0
LINE
  5
2102E
330
18
100
AcDbEntity
  8
0
  6
BYBLOCK
100
AcDbLine
 10
784.516241615365
 20
-628.621330340846
 30
0.0
 11
785.052139995365
 21
-630.621330340846
 31
0.0
  0
LINE
  5
2102F
330
18
100
AcDbEntity
  8
0
  6
BYBLOCK
100
AcDbLine
 10
784.516241615365
 20
-628.621330340846
 30
0.0
 11
784.516241615365
 21
-630.621330340846
 31
0.0
  0
TEXT
  5
21030
330
18
100
AcDbEntity
  8
1DIM
  6
CONTINUOUS
100
AcDbText
 10
783.8162416153649
 20
-640.2554738630229
 30
0.0
 40
3.5
  1
19
 50
90.0
100
AcDbText
1001
ACAD
1000
DSTYLE
1002
{
1070
    45
1040
0.5
1070
   271
1070
     0
1002
}
  0
LINE
  5
21031
330
18
100
AcDbEntity
  8
0
  6
BYBLOCK
100
AcDbLine
 10
173.0162419634318
 20
-724.4290254912677
 30
0.0
 11
167.0162419634318
 21
-722.8213303512676
 31
0.0
  0
LINE
  5
21032
330
18
100
AcDbEntity
  8
0
  6
BYBLOCK
100
AcDbLine
 10
167.0162419634318
 20
-722.8213303512676
 30
0.0
 11
173.0162419634318
 21
-721.2136352112676
 31
0.0
  0
LINE
  5
21033
330
18
100
AcDbEntity
  8
0
  6
BYBLOCK
100
AcDbLine
 10
167.0162419634318
 20
-722.8213303512676
 30
0.0
 11
173.0162419634318
 21
-722.8213303512676
 31
0.0
  0
LINE
  5
21034
330
18
100
AcDbEntity
  8
0
  6
BYBLOCK
100
AcDbLine
 10
637.016230300044
 20
-721.2136352112676
 30
0.0
 11
643.016230300044
 21
-722.8213303512676
 31
0.0
  0
LINE
  5
21035
330
18
100
AcDbEntity
  8
0
  6
BYBLOCK
100
AcDbLine
 10
643.016230300044
 20
-722.8213303512676
 30
0.0
 11
637.016230300044
 21
-724.4290254912677
 31
0.0
  0
LINE
  5
21036
330
18
100
AcDbEntity
  8
0
  6
BYBLOCK
100
AcDbLine
 10
643.016230300044
 20
-722.8213303512676
 30
0.0
 11
637.016230300044
 21
-722.8213303512676
 31
0.0
  0
TEXT
  5
21037
330
18
100
AcDbEntity
  8
1DIM1
  6
CONTINUOUS
100
AcDbText
 10
391.0162361317379
 20
-720.7213303512676
 30
0.0
 40
10.5
  1
476
100
AcDbText
1001
ACAD
1000
DSTYLE
1002
{
1070
    40
1040
3.0
1070
    45
1040
0.5
1002
}
  0
LINE
  5
21038
330
18
100
AcDbEntity
  8
0
  6
BYBLOCK
100
AcDbLine
 10
795.052139995365
 20
-658.2213297462897
 30
0.0
 11
794.516241615365
 21
-660.2213297462897
 31
0.0
  0
LINE
  5
21039
330
18
100
AcDbEntity
  8
0
  6
BYBLOCK
100
AcDbLine
 10
794.516241615365
 20
-660.2213297462897
 30
0.0
 11
793.9803432353649
 21
-658.2213297462897
 31
0.0
  0
LINE
  5
2103A
330
18
100
AcDbEntity
  8
0
  6
BYBLOCK
100
AcDbLine
 10
794.516241615365
 20
-660.2213297462897
 30
0.0
 11
794.516241615365
 21
-658.2213297462897
 31
0.0
  0
LINE
  5
2103B
330
18
100
AcDbEntity
  8
0
  6
BYBLOCK
100
AcDbLine
 10
793.9803432353649
 20
-630.621330340846
 30
0.0
 11
794.516241615365
 21
-628.621330340846
 31
0.0
  0
LINE
  5
2103C
330
18
100
AcDbEntity
  8
0
  6
BYBLOCK
100
AcDbLine
 10
794.516241615365
 20
-628.621330340846
 30
0.0
 11
795.052139995365
 21
-630.621330340846
 31
0.0
  0
LINE
  5
2103D
330
18
100
AcDbEntity
  8
0
  6
BYBLOCK
100
AcDbLine
 10
794.516241615365
 20
-628.621330340846
 30
0.0
 11
794.516241615365
 21
-630.621330340846
 31
0.0
  0
TEXT
  5
2103E
330
18
100
AcDbEntity
  8
1DIM
  6
CONTINUOUS
100
AcDbText
 10
793.816241615365
 20
-649.0879967102344
 30
0.0
 40
3.5
  1
31.5
 50
90.0
100
AcDbText
1001
ACAD
1000
DSTYLE
1002
{
1070
    45
1040
0.5
1002
}
  0
LINE
  5
2103F
330
18
100
AcDbEntity
  8
0
  6
BYBLOCK
100
AcDbLine
 10
641.0162416153646
 20
-500.2854319712664
 30
0.0
 11
643.0162416153646
 21
-500.8213303512664
 31
0.0
  0
LINE
  5
21040
330
18
100
AcDbEntity
  8
0
  6
BYBLOCK
100
AcDbLine
 10
643.0162416153646
 20
-500.8213303512664
 30
0.0
 11
641.0162416153646
 21
-501.3572287312664
 31
0.0
  0
LINE
  5
21041
330
18
100
AcDbEntity
  8
0
  6
BYBLOCK
100
AcDbLine
 10
643.0162416153646
 20
-500.8213303512664
 30
0.0
 11
641.0162416153646
 21
-500.8213303512664
 31
0.0
  0
LINE
  5
21042
330
18
100
AcDbEntity
  8
0
  6
BYBLOCK
100
AcDbLine
 10
622.0162510228105
 20
-501.3572287312664
 30
0.0
 11
620.0162510228105
 21
-500.8213303512664
 31
0.0
  0
LINE
  5
21043
330
18
100
AcDbEntity
  8
0
  6
BYBLOCK
100
AcDbLine
 10
620.0162510228105
 20
-500.8213303512664
 30
0.0
 11
622.0162510228105
 21
-500.2854319712664
 31
0.0
  0
LINE
  5
21044
330
18
100
AcDbEntity
  8
0
  6
BYBLOCK
100
AcDbLine
 10
620.0162510228105
 20
-500.8213303512664
 30
0.0
 11
622.0162510228105
 21
-500.8213303512664
 31
0.0
  0
TEXT
  5
21045
330
18
100
AcDbEntity
  8
1DIM
  6
CONTINUOUS
100
AcDbText
 10
628.5995796524209
 20
-500.1213303512664
 30
0.0
 40
3.5
  1
23
100
AcDbText
1001
ACAD
1000
DSTYLE
1002
{
1070
    45
1040
0.5
1002
}
  0
VIEWPORT
  5
57
330
15
100
AcDbEntity
 67
     1
  8
0
100
AcDbViewport
 68
     1
 10
0.0
 20
0.0
 30
0.0
 40
551.872340425532
 41
297.0000000000001
 68
     1
 69
     1
1001
ACAD
1000
MVIEW
1002
{
1070
    16
1010
0.0
1020
0.0
1030
0.0
1010
0.0
1020
0.0
1030
1.0
1040
0.0
1040
297.0000000000001
1040
-4.171999999925333
1040
12.83903210976956
1040
50.0
1040
0.0
1040
0.0
1070
    16
1070
   100
1070
     0
1070
     1
1070
     0
1070
     0
1070
     0
1070
     0
1040
0.0
1040
0.0
1040
0.0
1040
10.0
1040
10.0
1040
10.0
1040
10.0
1070
     0
1002
{
1002
}
1002
}
  0
ENDSEC
  0
SECTION
  2
OBJECTS
  0
DICTIONARY
  5
C
330
0
100
AcDbDictionary
  3
ACAD_COLOR
350
2D0
  3
ACAD_GROUP
350
D
  3
ACAD_LAYOUT
350
2D1
  3
ACAD_MATERIAL
350
2CF
  3
ACAD_MLEADERSTYLE
350
19E18
  3
ACAD_MLINESTYLE
350
1B
  3
ACAD_PLOTSETTINGS
350
2D2
  3
ACAD_SCALELIST
350
19DF6
  3
ACAD_VISUALSTYLE
350
19DE5
  3
ACDBHEADERROUNDTRIPXREC
350
21046
  3
ACDBVARIABLEDICTIONARY
350
37
  3
CONTENTDICTIONARY
350
D8
  3
DRAWINGVARIABLESDICT
350
20
  3
DWGPROPS
350
21049
1001
ACAD
1000
TREAT_AS_HARD
1070
     0
  0
DICTIONARY
  5
18FE8
330
2
100
AcDbDictionary
  3
ACAD_LAYERSTATES
360
18FE9
1001
ACAD
1000
TREAT_AS_HARD
1070
     1
  0
DICTIONARY
  5
1A20A
330
E
100
AcDbDictionary
  3
ADSK_XREC_LAYER_RECONCILED
360
1A20B
1001
ACAD
1000
TREAT_AS_HARD
1070
     1
  0
DICTIONARY
  5
1A20C
330
29
100
AcDbDictionary
  3
ADSK_XREC_LAYER_RECONCILED
360
1A20D
1001
ACAD
1000
TREAT_AS_HARD
1070
     1
  0
DICTIONARY
  5
1A20E
330
31
100
AcDbDictionary
  3
ADSK_XREC_LAYER_RECONCILED
360
1A20F
1001
ACAD
1000
TREAT_AS_HARD
1070
     1
  0
DICTIONARY
  5
1A218
330
101
100
AcDbDictionary
  3
ADSK_XREC_LAYER_RECONCILED
360
1A219
1001
ACAD
1000
TREAT_AS_HARD
1070
     1
  0
DICTIONARY
  5
1A220
330
25F
100
AcDbDictionary
  3
ADSK_XREC_LAYER_RECONCILED
360
1A221
1001
ACAD
1000
TREAT_AS_HARD
1070
     1
  0
DICTIONARY
  5
1A236
330
26A
100
AcDbDictionary
  3
ADSK_XREC_LAYER_RECONCILED
360
1A237
1001
ACAD
1000
TREAT_AS_HARD
1070
     1
  0
DICTIONARY
  5
6E9
330
18
100
AcDbDictionary
  3
ACAD_SORTENTS
360
6EA
1001
ACAD
1000
TREAT_AS_HARD
1070
     1
  0
DICTIONARY
  5
59B
330
15
100
AcDbDictionary
  3
ACAD_SORTENTS
360
59C
1001
ACAD
1000
TREAT_AS_HARD
1070
     1
  0
DICTIONARY
  5
2D0
102
{ACAD_REACTORS
330
C
102
}
330
C
100
AcDbDictionary
1001
ACAD
1000
TREAT_AS_HARD
1070
     0
  0
DICTIONARY
  5
D
102
{ACAD_REACTORS
330
C
102
}
330
C
100
AcDbDictionary
  3
*A1
350
1EDFD
  3
*A2
350
1E7BB
  3
*A3
350
1E9D3
  3
*A4
350
20DAF
1001
ACAD
1000
TREAT_AS_HARD
1070
     0
  0
DICTIONARY
  5
2D1
102
{ACAD_REACTORS
330
C
102
}
330
C
100
AcDbDictionary
1001
ACAD
1000
TREAT_AS_HARD
1070
     0
  0
DICTIONARY
  5
2CF
102
{ACAD_REACTORS
330
C
102
}
330
C
100
AcDbDictionary
  3
BYBLOCK
350
19DD5
  3
BYLAYER
350
19DCD
  3
GLOBAL
350
19DDD
1001
ACAD
1000
TREAT_AS_HARD
1070
     0
  0
DICTIONARY
  5
19E18
102
{ACAD_REACTORS
330
C
102
}
330
C
100
AcDbDictionary
  3
STANDARD
350
19E19
1001
ACAD
1000
TREAT_AS_HARD
1070
     0
  0
DICTIONARY
  5
1B
102
{ACAD_REACTORS
330
C
102
}
330
C
100
AcDbDictionary
  3
STANDARD
350
1C
1001
ACAD
1000
TREAT_AS_HARD
1070
     0
  0
DICTIONARY
  5
2D2
102
{ACAD_REACTORS
330
C
102
}
330
C
100
AcDbDictionary
1001
ACAD
1000
TREAT_AS_HARD
1070
     0
  0
DICTIONARY
  5
19DF6
102
{ACAD_REACTORS
330
C
102
}
330
C
100
AcDbDictionary
  3
A0
350
19DF7
  3
A1
350
19DF8
  3
A2
350
19DF9
  3
A3
350
19DFA
  3
A4
350
19DFB
  3
A5
350
19DFC
  3
A6
350
19DFD
  3
A7
350
19DFE
  3
A8
350
19DFF
  3
A9
350
19E00
  3
B0
350
19E01
  3
B1
350
19E02
  3
B2
350
19E03
  3
B3
350
19E04
  3
B4
350
19E05
  3
B5
350
19E06
  3
B6
350
19E07
  3
B7
350
19E08
  3
B8
350
19E09
  3
B9
350
19E0A
  3
C0
350
19E0B
  3
C1
350
19E0C
  3
C2
350
19E0D
  3
C3
350
19E0E
  3
C4
350
19E0F
  3
C5
350
19E10
  3
C6
350
19E11
  3
C7
350
19E12
  3
C8
350
19E13
  3
C9
350
19E14
  3
D0
350
19E15
  3
D1
350
19E16
  3
D2
350
19E17
1001
ACAD
1000
TREAT_AS_HARD
1070
     0
  0
DICTIONARY
  5
19DE5
102
{ACAD_REACTORS
330
C
102
}
330
C
100
AcDbDictionary
  3
2DWIREFRAME
350
19DEB
  3
3D_HIDDEN
350
19DED
  3
3DWIREFRAME
350
19DEC
  3
BASIC
350
19DEA
  3
BRIGHTEN
350
19DF1
  3
COLORCHANGE
350
19DF5
  3
CONCEPTUAL
350
19DEE
  3
DIM
350
19DF0
  3
EDGECOLOROFF
350
1E02A
  3
FACEPATTERN
350
19DF4
  3
FLAT
350
19DE6
  3
FLATWITHEDGES
350
19DE7
  3
GOURAUD
350
19DE8
  3
GOURAUDWITHEDGES
350
19DE9
  3
HIDDEN
350
1F381
  3
JITTEROFF
350
1E028
  3
LINEPATTERN
350
19DF3
  3
MODELING
350
1F387
  3
OVERHANGOFF
350
1E029
  3
REALISTIC
350
19DEF
  3
SHADED
350
1F386
  3
SHADED_WITH_EDGES
350
1F385
  3
SHADES_OF_GRAY
350
1F382
  3
SKETCHY
350
1F383
  3
THICKEN
350
19DF2
  3
WIREFRAME
350
1F380
  3
X-RAY
350
1F384
1001
ACAD
1000
TREAT_AS_HARD
1070
     0
  0
DICTIONARY
  5
21046
102
{ACAD_REACTORS
330
C
102
}
330
C
100
AcDbDictionary
  3
COLORDICT
350
21047
  3
MATERIALDICT
350
21048
1001
ACAD
1000
TREAT_AS_HARD
1070
     0
  0
DICTIONARY
  5
37
102
{ACAD_REACTORS
330
C
102
}
330
C
100
AcDbDictionary
  3
CANNOSCALE
350
20A45
  3
CMLEADERSTYLE
350
1AC19
  3
CTABLESTYLE
350
4F1
  3
DIMADEC
350
38
  3
DIMASSOC
350
408
  3
HIDETEXT
350
1891
  3
INDEXCTL
350
1AC1C
  3
INTERSECTIONCOLOR
350
1895
  3
INTERSECTIONDISPLAY
350
1894
  3
MSLTSCALE
350
20A9B
  3
OBSCOLOR
350
1892
  3
OBSLTYPE
350
1893
  3
PROJECTNAME
350
409
  3
SORTENTS
350
1AC1B
  3
XCLIPFRAME
350
1F37F
1001
ACAD
1000
TREAT_AS_HARD
1070
     0
  0
DICTIONARY
  5
D8
102
{ACAD_REACTORS
330
C
102
}
330
C
100
AcDbDictionary
1001
CONTENTTABDATA
1070
    11
1000
Child
1000
D:\ACLT\TABset\CHILDREN.dwg
1070
     0
1070
     0
1070
     1
1000
PK
1000
D:\ACLT\TABset\PK.dwg
1070
     0
1070
     0
1070
     1
1000
Lev1
1000
D:\ACLT\TABset\Lever01.dwg
1070
     0
1070
     0
1070
     1
1000
Lev2
1000
D:\ACLT\TABset\Lever02.dwg
1070
     0
1070
     0
1070
     1
1000
L3
1000
D:\Aclt\TABset\Lever03.dwg
1070
     0
1070
     0
1070
     1
1000
Form
1000
D:\ACLT\FORMAT
1070
     1
1070
     0
1070
     1
1000
Jnt
1000
D:\ACLT\TABset\JOINTPARTS.dwg
1070
     0
1070
     0
1070
     1
1000
ISO
1000
D:\ACLT\TABset\Isome01.dwg
1070
     0
1070
     0
1070
     1
1000
R
1000
D:\ACLT\TABset\REGION.dwg
1070
     0
1070
     0
1070
     1
1000
std
1000
D:\ACLT\TABset\std_sym_all.dwg
1070
     0
1070
     0
1070
     1
1000
丸
1000
D:\Aclt\TABset\MARU.dwg
1070
     0
1070
     0
1070
     1
1001
CONTENTCURRENTTAB
1070
     0
1001
ACAD
1000
TREAT_AS_HARD
1070
     0
  0
DICTIONARY
  5
20
102
{ACAD_REACTORS
330
C
102
}
330
C
100
AcDbDictionary
1001
DRAWINGVARIABLESXDATA
1000
POLARANG
1000
0.261799387799149410000000
1000
POLARMODE
1000
1
1000
POLARSTYLE
1000
1
1001
ACAD
1000
TREAT_AS_HARD
1070
     0
  0
XRECORD
  5
21049
102
{ACAD_REACTORS
330
C
102
}
330
C
100
AcDbXrecord
  1
DWGPROPS COOKIE
  2

  3

  4

  6

  7

  8
3684
  9

300
=
301
=
302
=
303
=
304
=
305
=
306
=
307
=
308
=
309
=
 40
0.0
 41
2453033.357663484
 42
2459460.049002014
  1

 90
        0
  0
DICTIONARY
  5
18FE9
102
{ACAD_REACTORS
330
18FE8
102
}
330
18FE8
100
AcDbDictionary
1001
ACAD
1000
TREAT_AS_HARD
1070
     0
  0
ACAD_PROXY_OBJECT
  5
1A20B
102
{ACAD_REACTORS
330
1A20A
102
}
330
1A20A
100
AcDbZombieObject
 90
      499
 91
      517
 93
       34
310
40C8804040
  0
ACAD_PROXY_OBJECT
  5
1A20D
102
{ACAD_REACTORS
330
1A20C
102
}
330
1A20C
100
AcDbZombieObject
 90
      499
 91
      517
 93
       34
310
40C8804040
  0
ACAD_PROXY_OBJECT
  5
1A20F
102
{ACAD_REACTORS
330
1A20E
102
}
330
1A20E
100
AcDbZombieObject
 90
      499
 91
      517
 93
       34
310
40C8804040
  0
ACAD_PROXY_OBJECT
  5
1A219
102
{ACAD_REACTORS
330
1A218
102
}
330
1A218
100
AcDbZombieObject
 90
      499
 91
      517
 93
       34
310
40C8804040
  0
ACAD_PROXY_OBJECT
  5
1A221
102
{ACAD_REACTORS
330
1A220
102
}
330
1A220
100
AcDbZombieObject
 90
      499
 91
      517
 93
       34
310
40C8804040
  0
ACAD_PROXY_OBJECT
  5
1A237
102
{ACAD_REACTORS
330
1A236
102
}
330
1A236
100
AcDbZombieObject
 90
      499
 91
      517
 93
       34
310
40C8804040
  0
SORTENTSTABLE
  5
6EA
102
{ACAD_REACTORS
330
6E9
102
}
330
6E9
100
AcDbSortentsTable
330
18
331
0
  5
99AB
331
0
  5
AB53
331
0
  5
AB54
331
0
  5
ECB5
331
0
  5
1D308
331
0
  5
1D523
331
1D8CA
  5
20CAF
331
1D90A
  5
20CB0
331
0
  5
1DB93
331
1DB93
  5
20D2C
331
1DB94
  5
20D2D
331
1DB95
  5
20D2E
331
1DB96
  5
20D2F
331
1DB97
  5
20D30
331
1DB98
  5
20D32
331
1DB99
  5
20D33
331
1DB9A
  5
20D34
331
1DB9B
  5
20D35
331
1DB9C
  5
20D36
331
1DB9D
  5
20D54
331
1DB9E
  5
20D5B
331
1DB9F
  5
20D5C
331
1DBA4
  5
20D5D
331
1DBA5
  5
20D5E
331
1DBA6
  5
20D60
331
0
  5
1E233
331
0
  5
1E234
331
0
  5
1E235
331
0
  5
1E236
331
0
  5
1E7B5
331
0
  5
1E7B6
331
0
  5
1E7BA
331
0
  5
1E7B8
331
1E7B5
  5
20DB3
331
1E7B6
  5
20DB4
331
1E7B7
  5
20DB5
331
1E7B8
  5
20DB6
331
1E7B9
  5
20DB7
331
0
  5
1E9D4
331
1E9CD
  5
20ECA
331
1E9CE
  5
20ECB
331
1E9CF
  5
20ECC
331
1E9D0
  5
20ECD
331
1E9D1
  5
20ECE
331
0
  5
20C6B
331
1EE4F
  5
20F19
331
20C6B
  5
20F1A
331
20C6C
  5
20F1B
331
20C8D
  5
20F1C
331
20C8E
  5
20F1D
331
20C91
  5
20F1E
331
20C92
  5
20F1F
331
20C95
  5
20F20
331
20C96
  5
20F21
331
20C97
  5
20F22
331
20C98
  5
20F23
331
20C99
  5
20F24
331
20C9A
  5
20F25
331
20C9D
  5
20F26
331
20C9F
  5
20F27
331
20CA0
  5
20F28
331
20CA2
  5
20F29
331
20CA3
  5
20F2A
331
20CA4
  5
20F2B
331
20CA5
  5
20F2C
331
20CA6
  5
20F2D
331
20CA8
  5
20F2E
331
20CAB
  5
20F2F
331
20CAC
  5
20F30
331
20CAD
  5
20F31
331
20CAE
  5
20F32
331
20CAF
  5
20F33
331
20CB0
  5
20F34
331
20CB1
  5
20F35
331
20CB2
  5
20F36
331
20CB3
  5
20F37
331
20CB4
  5
20F38
331
20CB5
  5
20F39
331
20CB6
  5
20F3A
331
20CB7
  5
20F3B
331
20CE4
  5
20F3C
331
20CE7
  5
20F3D
331
20CED
  5
20F3E
331
20CFE
  5
20F3F
331
20D0C
  5
20F40
331
20D1D
  5
20F41
331
20D1E
  5
20F42
331
20D21
  5
20F43
331
20D23
  5
20F44
331
20D24
  5
20F45
331
20D27
  5
20F46
331
20D28
  5
20F47
331
20D29
  5
20F48
331
20D2A
  5
20F49
331
20D2B
  5
20F4A
331
20D2C
  5
20F4B
331
20D2D
  5
20F4C
331
20D2E
  5
20F4D
331
20D2F
  5
20F4E
331
20D30
  5
20F4F
331
20D32
  5
20F50
331
20D33
  5
20F51
331
20D34
  5
20F52
331
20D35
  5
20F53
331
20D36
  5
20F54
331
20D54
  5
20F55
331
20D5B
  5
20F56
331
20D5C
  5
20F57
331
20D5D
  5
20F58
331
20D5E
  5
20F59
331
20D60
  5
20F5A
331
20D61
  5
20F5B
331
20D62
  5
20F5C
331
20D63
  5
20F5D
331
20D64
  5
20F5E
331
20D65
  5
20F5F
331
20D67
  5
20F60
331
20D68
  5
20F61
331
20D69
  5
20F62
331
20D6A
  5
20F63
331
20D6B
  5
20F64
331
20D6C
  5
20F65
331
20D6D
  5
20F66
331
20D6E
  5
20F67
331
20D6F
  5
20F68
331
20D73
  5
20F69
331
20D74
  5
20F6A
331
20D79
  5
20F6B
331
20D93
  5
20F6C
331
20D94
  5
20F6D
331
20D95
  5
20F6E
331
20D96
  5
20F6F
331
20D97
  5
20F70
331
20D98
  5
20F71
331
20D99
  5
20F72
331
20D9A
  5
20F73
331
20D9B
  5
20F74
331
20D9C
  5
20F75
331
20D9D
  5
20F76
331
20D9E
  5
20F77
331
20D9F
  5
20F78
331
20DA0
  5
20F79
331
20DA1
  5
20FC4
331
20DA2
  5
20FC5
331
20DA3
  5
20FC6
331
20DA4
  5
20FC7
331
20DA5
  5
20FC8
331
20DA6
  5
20FC9
331
20DA7
  5
20FCA
331
20DA9
  5
20FCB
331
20DAA
  5
20FCC
331
20DAB
  5
20FCD
331
20DAC
  5
20FCE
331
20DAD
  5
20FCF
331
0
  5
20DB1
331
20DB0
  5
2101A
331
20DB1
  5
2101B
331
20DB2
  5
2101C
331
20DB3
  5
2101D
331
20DB4
  5
2101E
331
20DB5
  5
2101F
331
20DB6
  5
21020
331
20DB7
  5
21021
331
20DB8
  5
21022
331
20DB9
  5
21023
331
20DBA
  5
21024
331
20DBB
  5
21025
331
20DBC
  5
21026
331
20DBD
  5
21027
331
20DBE
  5
21028
331
20DBF
  5
21029
331
20DC0
  5
2102A
331
20DC1
  5
2102B
331
20DC2
  5
2102C
331
20DC3
  5
2102D
331
20DC4
  5
2102E
331
20DC5
  5
2102F
331
20DC6
  5
21030
331
20DC7
  5
21031
331
20DC8
  5
21032
331
20DC9
  5
21033
331
20DCA
  5
21034
331
20DCB
  5
21035
331
20DCC
  5
21036
331
20DCD
  5
21037
331
20DCE
  5
21038
331
20DCF
  5
21039
331
20DD0
  5
2103A
331
20DD1
  5
2103B
331
20DD2
  5
2103C
331
20DD3
  5
2103D
331
20DD4
  5
2103E
331
20DD5
  5
2103F
331
20DD6
  5
21040
331
20DD7
  5
21041
331
20E0C
  5
21042
331
20E0D
  5
21043
331
20E0E
  5
21044
331
20E0F
  5
21045
331
20EA4
  5
20DAD
331
20EA5
  5
20DB2
331
20EA6
  5
1D8CE
331
20EA7
  5
1D910
331
20EA8
  5
1DB97
331
0
  5
1DB98
331
0
  5
1DB99
331
0
  5
1DB9A
331
20EAC
  5
1DF13
331
20EAD
  5
1DFD9
331
20EAE
  5
1E7B7
331
20EAF
  5
1E7ED
331
0
  5
1DB9F
331
0
  5
1DBA0
331
0
  5
1DBA1
331
20EB3
  5
20C6C
331
20EB4
  5
20C8D
331
20EB5
  5
20C8E
331
20EB6
  5
20C91
331
20EB7
  5
20C92
331
20EB8
  5
20C98
331
20EB9
  5
20C99
331
20EBA
  5
20C9A
331
20EBB
  5
20C9D
331
20EBC
  5
20C9F
331
20EBD
  5
20CA0
331
20EBE
  5
20CA2
331
20EBF
  5
20CA3
331
20EC0
  5
20CA4
331
0
  5
1E9D7
331
0
  5
1E9D8
331
0
  5
1EE4F
331
20EC4
  5
20CB1
331
20EC5
  5
20CB5
331
20EC6
  5
20CB6
331
0
  5
20C95
331
0
  5
20C96
331
0
  5
20C97
331
20ECA
  5
20D61
331
20ECB
  5
20D62
331
20ECC
  5
20D63
331
0
  5
20CB2
331
0
  5
20CB3
331
0
  5
20CB4
331
20ED0
  5
20D6C
331
20ED1
  5
20D6D
331
20ED2
  5
20D6E
331
0
  5
20CE4
331
0
  5
20CE7
331
0
  5
20CED
331
20ED6
  5
20D96
331
20ED7
  5
20D97
331
20ED8
  5
20D98
331
0
  5
20D1E
331
0
  5
20D21
331
0
  5
20D23
331
20EDC
  5
20DA0
331
20EDD
  5
20DA1
331
20EDE
  5
20DA2
331
0
  5
20D29
331
0
  5
20D2A
331
0
  5
20D2B
331
20EE2
  5
20DAB
331
20EE3
  5
20DAC
331
20EE4
  5
20DAE
331
20EE5
  5
20DB0
331
20EE6
  5
20DB8
331
20EE7
  5
20DB9
331
20EE8
  5
20DBA
331
20EE9
  5
20DBB
331
20EEA
  5
20DBC
331
20EEB
  5
20DBD
331
20EEC
  5
20DBE
331
20EED
  5
20DBF
331
20EEE
  5
20DC0
331
20EEF
  5
20DC1
331
20EF0
  5
20DC2
331
20EF1
  5
20DC3
331
20EF2
  5
20DC4
331
20EF3
  5
20DC5
331
20EF4
  5
20DC6
331
20EF5
  5
20DC7
331
20EF6
  5
20DC8
331
20EF7
  5
20DC9
331
20EF8
  5
20DCA
331
20EF9
  5
20DCB
331
20EFA
  5
20DCC
331
20EFB
  5
20DCD
331
20EFC
  5
20DCE
331
20EFD
  5
20DCF
331
20EFE
  5
20DD0
331
20EFF
  5
20DD1
331
20F00
  5
20DD2
331
20F01
  5
20DD3
331
20F02
  5
20DD4
331
20F03
  5
20DD5
331
20F04
  5
20DD6
331
20F05
  5
20DD7
331
20F06
  5
20E0C
331
20F07
  5
20E0D
331
20F08
  5
20E0E
331
20F09
  5
20E0F
331
20F0A
  5
20EA4
331
20F0B
  5
20EA5
331
20F0C
  5
20EA6
331
20F0D
  5
20EA7
331
20F0E
  5
20EA8
331
20F0F
  5
20EA9
331
20F10
  5
20EAA
331
20F11
  5
20EAB
331
20F12
  5
20EAC
331
20F13
  5
20EAD
331
20F14
  5
20EAE
331
20F15
  5
20EAF
331
20F16
  5
20EB0
331
20F17
  5
20EB1
331
20F18
  5
20EB2
331
20F19
  5
20EB3
331
20F1A
  5
20EB4
331
20F1B
  5
20EB5
331
20F1C
  5
20EB6
331
20F1D
  5
20EB7
331
20F1E
  5
20EB8
331
20F1F
  5
20EB9
331
20F20
  5
20EBA
331
20F21
  5
20EBB
331
20F22
  5
20EBC
331
20F23
  5
20EBD
331
20F24
  5
20EBE
331
20F25
  5
20EBF
331
20F26
  5
20EC0
331
20F27
  5
20EC1
331
20F28
  5
20EC2
331
20F29
  5
20EC3
331
20F2A
  5
20EC4
331
20F2B
  5
20EC5
331
20F2C
  5
20EC6
331
20F2D
  5
20EC7
331
20F2E
  5
20EC8
331
20F2F
  5
20EC9
331
20F30
  5
20ECF
331
20F31
  5
20ED0
331
20F32
  5
20ED1
331
20F33
  5
20ED2
331
20F34
  5
20ED3
331
20F35
  5
20ED4
331
20F36
  5
20ED5
331
20F37
  5
20ED6
331
20F38
  5
20ED7
331
20F39
  5
20ED8
331
20F3A
  5
20ED9
331
20F3B
  5
20EDA
331
20F3C
  5
20EDB
331
20F3D
  5
20EDC
331
20F3E
  5
20EDD
331
20F3F
  5
20EDE
331
20F40
  5
20EDF
331
20F41
  5
20EE0
331
20F42
  5
20EE1
331
20F43
  5
20EE2
331
20F44
  5
20EE3
331
20F45
  5
20EE4
331
20F46
  5
20EE5
331
20F47
  5
20EE6
331
20F48
  5
20EE7
331
20F49
  5
20EE8
331
20F4A
  5
20EE9
331
20F4B
  5
20EEA
331
20F4C
  5
20EEB
331
20F4D
  5
20EEC
331
20F4E
  5
20EED
331
20F4F
  5
20EEE
331
20F50
  5
20EEF
331
20F51
  5
20EF0
331
20F52
  5
20EF1
331
20F53
  5
20EF2
331
20F54
  5
20EF3
331
20F55
  5
20EF4
331
20F56
  5
20EF5
331
20F57
  5
20EF6
331
20F58
  5
20EF7
331
20F59
  5
20EF8
331
20F5A
  5
20EF9
331
20F5B
  5
20EFA
331
20F5C
  5
20EFB
331
20F5D
  5
20EFC
331
20F5E
  5
20EFD
331
20F5F
  5
20EFE
331
20F60
  5
20EFF
331
20F61
  5
20F00
331
20F62
  5
20F01
331
20F63
  5
20F02
331
20F64
  5
20F03
331
20F65
  5
20F04
331
20F66
  5
20F05
331
20F67
  5
20F06
331
20F68
  5
20F07
331
20F69
  5
20F08
331
20F6A
  5
20F09
331
20F6B
  5
20F0A
331
20F6C
  5
20F0B
331
20F6D
  5
20F0C
331
20F6E
  5
20F0D
331
20F6F
  5
20F0E
331
20F70
  5
20F0F
331
20F71
  5
20F10
331
20F72
  5
20F11
331
20F73
  5
20F12
331
20F74
  5
20F13
331
20F75
  5
20F14
331
20F76
  5
20F15
331
20F77
  5
20F16
331
20F78
  5
20F17
331
20F79
  5
20F18
331
20FC4
  5
20FD0
331
20FC5
  5
20FD1
331
20FC6
  5
20FD2
331
20FC7
  5
20FD3
331
20FC8
  5
20FD4
331
20FC9
  5
20FD5
331
20FCA
  5
20FD6
331
20FCB
  5
20FD7
331
20FCC
  5
20FD8
331
20FCD
  5
20FD9
331
20FCE
  5
20FDA
331
20FCF
  5
20FDB
331
20FD0
  5
20FDC
331
20FD1
  5
20FDD
331
20FD2
  5
20FDE
331
20FD3
  5
20FDF
331
20FD4
  5
20FE0
331
20FD5
  5
20FE1
331
20FD6
  5
20FE2
331
20FD7
  5
20FE3
331
20FD8
  5
20FE4
331
20FD9
  5
20FE5
331
20FDA
  5
20FE6
331
20FDB
  5
20FE7
331
20FDC
  5
20FE8
331
20FDD
  5
20FE9
331
20FDE
  5
20FEA
331
20FDF
  5
20FEB
331
20FE0
  5
20FEC
331
20FE1
  5
20FED
331
20FE2
  5
20FEE
331
20FE3
  5
20FEF
331
20FE4
  5
20FF0
331
20FE5
  5
20FF1
331
20FE6
  5
20FF2
331
20FE7
  5
20FF3
331
20FE8
  5
20FF4
331
20FE9
  5
20FF5
331
20FEA
  5
20FF6
331
20FEB
  5
20FF7
331
20FEC
  5
20FF8
331
20FED
  5
20FF9
331
20FEE
  5
20FFA
331
20FEF
  5
20FFB
331
20FF0
  5
20FFC
331
20FF1
  5
20FFD
331
20FF2
  5
20FFE
331
20FF3
  5
20FFF
331
20FF4
  5
21000
331
20FF5
  5
21001
331
20FF6
  5
21002
331
20FF7
  5
21003
331
20FF8
  5
21004
331
20FF9
  5
21005
331
20FFA
  5
21006
331
20FFB
  5
21007
331
20FFC
  5
21008
331
20FFD
  5
21009
331
20FFE
  5
2100A
331
20FFF
  5
2100B
331
21000
  5
2100C
331
21001
  5
2100D
331
21002
  5
2100E
331
21003
  5
2100F
331
21004
  5
21010
331
21005
  5
21011
331
21006
  5
21012
331
21007
  5
21013
331
21008
  5
21014
331
21009
  5
21015
331
2100A
  5
21016
331
2100B
  5
21017
331
2100C
  5
21018
331
2100D
  5
21019
331
2100E
  5
1DB9B
331
2100F
  5
1DB9C
331
21010
  5
1DB9D
331
21011
  5
1DB9E
331
21012
  5
1DBA2
331
21013
  5
1DBA6
331
21014
  5
1DBA8
331
21015
  5
1E9CE
331
21016
  5
1E9CF
331
21017
  5
1E9D0
331
21018
  5
1E9D1
331
21019
  5
1E9D2
331
2101A
  5
1E9D5
331
2101B
  5
1E9D6
331
2101C
  5
20CA5
331
2101D
  5
20CA6
331
2101E
  5
20CA8
331
2101F
  5
20CAB
331
21020
  5
20CAC
331
21021
  5
20CAD
331
21022
  5
20CAE
331
21023
  5
20CB7
331
21024
  5
20CFE
331
21025
  5
20D0C
331
21026
  5
20D1D
331
21027
  5
20D24
331
21028
  5
20D27
331
21029
  5
20D28
331
2102A
  5
20D64
331
2102B
  5
20D65
331
2102C
  5
20D67
331
2102D
  5
20D68
331
2102E
  5
20D69
331
2102F
  5
20D6A
331
21030
  5
20D6B
331
21031
  5
20D6F
331
21032
  5
20D73
331
21033
  5
20D74
331
21034
  5
20D79
331
21035
  5
20D93
331
21036
  5
20D94
331
21037
  5
20D95
331
21038
  5
20D99
331
21039
  5
20D9A
331
2103A
  5
20D9B
331
2103B
  5
20D9C
331
2103C
  5
20D9D
331
2103D
  5
20D9E
331
2103E
  5
20D9F
331
2103F
  5
20DA3
331
21040
  5
20DA4
331
21041
  5
20DA5
331
21042
  5
20DA6
331
21043
  5
20DA7
331
21044
  5
20DA9
331
21045
  5
20DAA
  0
SORTENTSTABLE
  5
59C
102
{ACAD_REACTORS
330
59B
102
}
330
59B
100
AcDbSortentsTable
330
15
331
57
  5
57
331
0
  5
70
  0
GROUP
  5
1EDFD
102
{ACAD_REACTORS
330
D
102
}
330
D
100
AcDbGroup
300

 70
     1
 71
     1
340
1DBA6
340
1DBA5
340
1DBA4
  0
GROUP
  5
1E7BB
102
{ACAD_REACTORS
330
D
102
}
330
D
100
AcDbGroup
300

 70
     1
 71
     1
340
1E7B9
340
1E7B8
340
1E7B7
340
1E7B6
340
1E7B5
  0
GROUP
  5
1E9D3
102
{ACAD_REACTORS
330
D
102
}
330
D
100
AcDbGroup
300

 70
     1
 71
     1
340
1E9D1
340
1E9D0
340
1E9CF
340
1E9CE
340
1E9CD
  0
GROUP
  5
20DAF
102
{ACAD_REACTORS
330
D
102
}
330
D
100
AcDbGroup
300

 70
     1
 71
     1
340
20DAD
340
20DAC
340
20DAB
340
20DAA
340
20DA9
  0
MATERIAL
  5
19DD5
102
{ACAD_REACTORS
330
2CF
102
}
102
{ACAD_XDICTIONARY
360
211E4
102
}
330
2CF
100
AcDbMaterial
  1
BYBLOCK
 72
     0
 73
     2
 43
0.0208333333333333
 43
0.0
 43
0.0
 43
0.0
 43
0.0
 43
0.0208333333333333
 43
0.0
 43
0.0
 43
0.0
 43
0.0
 43
1.0
 43
0.0
 43
0.0
 43
0.0
 43
0.0
 43
1.0
 77
     0
 78
     2
 47
0.0208333333333333
 47
0.0
 47
0.0
 47
0.0
 47
0.0
 47
0.0208333333333333
 47
0.0
 47
0.0
 47
0.0
 47
0.0
 47
1.0
 47
0.0
 47
0.0
 47
0.0
 47
0.0
 47
1.0
171
     0
172
     2
 49
0.0208333333333333
 49
0.0
 49
0.0
 49
0.0
 49
0.0
 49
0.0208333333333333
 49
0.0
 49
0.0
 49
0.0
 49
0.0
 49
1.0
 49
0.0
 49
0.0
 49
0.0
 49
0.0
 49
1.0
175
     0
176
     2
142
0.0208333333333333
142
0.0
142
0.0
142
0.0
142
0.0
142
0.0208333333333333
142
0.0
142
0.0
142
0.0
142
0.0
142
1.0
142
0.0
142
0.0
142
0.0
142
0.0
142
1.0
179
     0
270
     2
144
0.0208333333333333
144
0.0
144
0.0
144
0.0
144
0.0
144
0.0208333333333333
144
0.0
144
0.0
144
0.0
144
0.0
144
1.0
144
0.0
144
0.0
144
0.0
144
0.0
144
1.0
274
     2
147
0.0208333333333333
147
0.0
147
0.0
147
0.0
147
0.0
147
0.0208333333333333
147
0.0
147
0.0
147
0.0
147
0.0
147
1.0
147
0.0
147
0.0
147
0.0
147
0.0
147
1.0
  0
MATERIAL
  5
19DCD
102
{ACAD_REACTORS
330
2CF
102
}
102
{ACAD_XDICTIONARY
360
211E6
102
}
330
2CF
100
AcDbMaterial
  1
BYLAYER
 72
     0
 73
     2
 43
0.0208333333333333
 43
0.0
 43
0.0
 43
0.0
 43
0.0
 43
0.0208333333333333
 43
0.0
 43
0.0
 43
0.0
 43
0.0
 43
1.0
 43
0.0
 43
0.0
 43
0.0
 43
0.0
 43
1.0
 77
     0
 78
     2
 47
0.0208333333333333
 47
0.0
 47
0.0
 47
0.0
 47
0.0
 47
0.0208333333333333
 47
0.0
 47
0.0
 47
0.0
 47
0.0
 47
1.0
 47
0.0
 47
0.0
 47
0.0
 47
0.0
 47
1.0
171
     0
172
     2
 49
0.0208333333333333
 49
0.0
 49
0.0
 49
0.0
 49
0.0
 49
0.0208333333333333
 49
0.0
 49
0.0
 49
0.0
 49
0.0
 49
1.0
 49
0.0
 49
0.0
 49
0.0
 49
0.0
 49
1.0
175
     0
176
     2
142
0.0208333333333333
142
0.0
142
0.0
142
0.0
142
0.0
142
0.0208333333333333
142
0.0
142
0.0
142
0.0
142
0.0
142
1.0
142
0.0
142
0.0
142
0.0
142
0.0
142
1.0
179
     0
270
     2
144
0.0208333333333333
144
0.0
144
0.0
144
0.0
144
0.0
144
0.0208333333333333
144
0.0
144
0.0
144
0.0
144
0.0
144
1.0
144
0.0
144
0.0
144
0.0
144
0.0
144
1.0
274
     2
147
0.0208333333333333
147
0.0
147
0.0
147
0.0
147
0.0
147
0.0208333333333333
147
0.0
147
0.0
147
0.0
147
0.0
147
1.0
147
0.0
147
0.0
147
0.0
147
0.0
147
1.0
  0
MATERIAL
  5
19DDD
102
{ACAD_REACTORS
330
2CF
102
}
102
{ACAD_XDICTIONARY
360
211E8
102
}
330
2CF
100
AcDbMaterial
  1
GLOBAL
 72
     0
 73
     2
 43
0.0208333333333333
 43
0.0
 43
0.0
 43
0.0
 43
0.0
 43
0.0208333333333333
 43
0.0
 43
0.0
 43
0.0
 43
0.0
 43
1.0
 43
0.0
 43
0.0
 43
0.0
 43
0.0
 43
1.0
 77
     0
 78
     2
 47
0.0208333333333333
 47
0.0
 47
0.0
 47
0.0
 47
0.0
 47
0.0208333333333333
 47
0.0
 47
0.0
 47
0.0
 47
0.0
 47
1.0
 47
0.0
 47
0.0
 47
0.0
 47
0.0
 47
1.0
171
     0
172
     2
 49
0.0208333333333333
 49
0.0
 49
0.0
 49
0.0
 49
0.0
 49
0.0208333333333333
 49
0.0
 49
0.0
 49
0.0
 49
0.0
 49
1.0
 49
0.0
 49
0.0
 49
0.0
 49
0.0
 49
1.0
175
     0
176
     2
142
0.0208333333333333
142
0.0
142
0.0
142
0.0
142
0.0
142
0.0208333333333333
142
0.0
142
0.0
142
0.0
142
0.0
142
1.0
142
0.0
142
0.0
142
0.0
142
0.0
142
1.0
179
     0
270
     2
144
0.0208333333333333
144
0.0
144
0.0
144
0.0
144
0.0
144
0.0208333333333333
144
0.0
144
0.0
144
0.0
144
0.0
144
1.0
144
0.0
144
0.0
144
0.0
144
0.0
144
1.0
274
     2
147
0.0208333333333333
147
0.0
147
0.0
147
0.0
147
0.0
147
0.0208333333333333
147
0.0
147
0.0
147
0.0
147
0.0
147
1.0
147
0.0
147
0.0
147
0.0
147
0.0
147
1.0
  0
ACAD_PROXY_OBJECT
  5
19E19
102
{ACAD_REACTORS
330
19E18
102
}
330
19E18
100
AcDbZombieObject
 90
      499
 91
      512
 93
      610
310
40901902A4063FBFFFFFE000000000000002040AD7A3703D0AD73F4214DD185B99185C990000000000000104090141901A00000000000004100000000000000041025764000000000000300FC0
340
12
340
0
340
F
340
0
 94
        0
1001
ACAD_MLEADERVER
1070
     2
  0
MLINESTYLE
  5
1C
102
{ACAD_REACTORS
330
1B
102
}
330
1B
100
AcDbMlineStyle
  2
STANDARD
 70
     0
  3

 62
   256
 51
90.0
 52
90.0
 71
     2
 49
0.5
 62
   256
  6
BYLAYER
 49
-0.5
 62
   256
  6
BYLAYER
  0
ACAD_PROXY_OBJECT
  5
19DF7
102
{ACAD_REACTORS
330
19DF6
102
}
330
19DF6
100
AcDbZombieObject
 90
      499
 91
      511
 93
       41
310
903313A31580
  0
ACAD_PROXY_OBJECT
  5
19DF8
102
{ACAD_REACTORS
330
19DF6
102
}
330
19DF6
100
AcDbZombieObject
 90
      499
 91
      511
 93
      105
310
903313A324000000000000004000
  0
ACAD_PROXY_OBJECT
  5
19DF9
102
{ACAD_REACTORS
330
19DF6
102
}
330
19DF6
100
AcDbZombieObject
 90
      499
 91
      511
 93
      105
310
903313A344000000000000104000
  0
ACAD_PROXY_OBJECT
  5
19DFA
102
{ACAD_REACTORS
330
19DF6
102
}
330
19DF6
100
AcDbZombieObject
 90
      499
 91
      511
 93
      105
310
903313A354000000000000144000
  0
ACAD_PROXY_OBJECT
  5
19DFB
102
{ACAD_REACTORS
330
19DF6
102
}
330
19DF6
100
AcDbZombieObject
 90
      499
 91
      511
 93
      105
310
903313A384000000000000204000
  0
ACAD_PROXY_OBJECT
  5
19DFC
102
{ACAD_REACTORS
330
19DF6
102
}
330
19DF6
100
AcDbZombieObject
 90
      499
 91
      511
 93
      113
310
904313A31304000000000000244000
  0
ACAD_PROXY_OBJECT
  5
19DFD
102
{ACAD_REACTORS
330
19DF6
102
}
330
19DF6
100
AcDbZombieObject
 90
      499
 91
      511
 93
      113
310
904313A31364000000000000304000
  0
ACAD_PROXY_OBJECT
  5
19DFE
102
{ACAD_REACTORS
330
19DF6
102
}
330
19DF6
100
AcDbZombieObject
 90
      499
 91
      511
 93
      113
310
904313A32304000000000000344000
  0
ACAD_PROXY_OBJECT
  5
19DFF
102
{ACAD_REACTORS
330
19DF6
102
}
330
19DF6
100
AcDbZombieObject
 90
      499
 91
      511
 93
      113
310
904313A333040000000000003E4000
  0
ACAD_PROXY_OBJECT
  5
19E00
102
{ACAD_REACTORS
330
19DF6
102
}
330
19DF6
100
AcDbZombieObject
 90
      499
 91
      511
 93
      113
310
904313A34304000000000000444000
  0
ACAD_PROXY_OBJECT
  5
19E01
102
{ACAD_REACTORS
330
19DF6
102
}
330
19DF6
100
AcDbZombieObject
 90
      499
 91
      511
 93
      113
310
904313A35304000000000000494000
  0
ACAD_PROXY_OBJECT
  5
19E02
102
{ACAD_REACTORS
330
19DF6
102
}
330
19DF6
100
AcDbZombieObject
 90
      499
 91
      511
 93
      121
310
905313A3130304000000000000594000
  0
ACAD_PROXY_OBJECT
  5
19E03
102
{ACAD_REACTORS
330
19DF6
102
}
330
19DF6
100
AcDbZombieObject
 90
      499
 91
      511
 93
      105
310
903323A310000000000000010100
  0
ACAD_PROXY_OBJECT
  5
19E04
102
{ACAD_REACTORS
330
19DF6
102
}
330
19DF6
100
AcDbZombieObject
 90
      499
 91
      511
 93
      105
310
903343A310000000000000410100
  0
ACAD_PROXY_OBJECT
  5
19E05
102
{ACAD_REACTORS
330
19DF6
102
}
330
19DF6
100
AcDbZombieObject
 90
      499
 91
      511
 93
      105
310
903383A310000000000000810100
  0
ACAD_PROXY_OBJECT
  5
19E06
102
{ACAD_REACTORS
330
19DF6
102
}
330
19DF6
100
AcDbZombieObject
 90
      499
 91
      511
 93
      113
310
90431303A310000000000000910100
  0
ACAD_PROXY_OBJECT
  5
19E07
102
{ACAD_REACTORS
330
19DF6
102
}
330
19DF6
100
AcDbZombieObject
 90
      499
 91
      511
 93
      121
310
9053130303A310000000000001650100
  0
ACAD_PROXY_OBJECT
  5
19E08
102
{ACAD_REACTORS
330
19DF6
102
}
330
19DF6
100
AcDbZombieObject
 90
      499
 91
      511
 93
      257
310
90E312F31323822203D2031272D3022000000000000200FC000000000000284000
  0
ACAD_PROXY_OBJECT
  5
19E09
102
{ACAD_REACTORS
330
19DF6
102
}
330
19DF6
100
AcDbZombieObject
 90
      499
 91
      511
 93
      249
310
90D312F363422203D2031272D3022000000000000240FC000000000000284000
  0
ACAD_PROXY_OBJECT
  5
19E0A
102
{ACAD_REACTORS
330
19DF6
102
}
330
19DF6
100
AcDbZombieObject
 90
      499
 91
      511
 93
      249
310
90D312F333222203D2031272D3022000000000000280FC000000000000284000
  0
ACAD_PROXY_OBJECT
  5
19E0B
102
{ACAD_REACTORS
330
19DF6
102
}
330
19DF6
100
AcDbZombieObject
 90
      499
 91
      511
 93
      249
310
90D312F313622203D2031272D30220000000000002C0FC000000000000284000
  0
ACAD_PROXY_OBJECT
  5
19E0C
102
{ACAD_REACTORS
330
19DF6
102
}
330
19DF6
100
AcDbZombieObject
 90
      499
 91
      511
 93
      249
310
90D332F333222203D2031272D30220000000000002E0FC000000000000284000
  0
ACAD_PROXY_OBJECT
  5
19E0D
102
{ACAD_REACTORS
330
19DF6
102
}
330
19DF6
100
AcDbZombieObject
 90
      499
 91
      511
 93
      241
310
90C312F3822203D2031272D3022000000000000300FC000000000000284000
  0
ACAD_PROXY_OBJECT
  5
19E0E
102
{ACAD_REACTORS
330
19DF6
102
}
330
19DF6
100
AcDbZombieObject
 90
      499
 91
      511
 93
      249
310
90D332F313622203D2031272D3022000000000000320FC000000000000284000
  0
ACAD_PROXY_OBJECT
  5
19E0F
102
{ACAD_REACTORS
330
19DF6
102
}
330
19DF6
100
AcDbZombieObject
 90
      499
 91
      511
 93
      241
310
90C312F3422203D2031272D3022000000000000340FC000000000000284000
  0
ACAD_PROXY_OBJECT
  5
19E10
102
{ACAD_REACTORS
330
19DF6
102
}
330
19DF6
100
AcDbZombieObject
 90
      499
 91
      511
 93
      241
310
90C332F3822203D2031272D3022000000000000360FC000000000000284000
  0
ACAD_PROXY_OBJECT
  5
19E11
102
{ACAD_REACTORS
330
19DF6
102
}
330
19DF6
100
AcDbZombieObject
 90
      499
 91
      511
 93
      241
310
90C312F3222203D2031272D3022000000000000380FC000000000000284000
  0
ACAD_PROXY_OBJECT
  5
19E12
102
{ACAD_REACTORS
330
19DF6
102
}
330
19DF6
100
AcDbZombieObject
 90
      499
 91
      511
 93
      241
310
90C332F3422203D2031272D30220000000000003A0FC000000000000284000
  0
ACAD_PROXY_OBJECT
  5
19E13
102
{ACAD_REACTORS
330
19DF6
102
}
330
19DF6
100
AcDbZombieObject
 90
      499
 91
      511
 93
      161
310
90A3122203D2031272D30224000000000000284000
  0
ACAD_PROXY_OBJECT
  5
19E14
102
{ACAD_REACTORS
330
19DF6
102
}
330
19DF6
100
AcDbZombieObject
 90
      499
 91
      511
 93
      257
310
90E312D312F3222203D2031272D30220000000000003E0FC000000000000284000
  0
ACAD_PROXY_OBJECT
  5
19E15
102
{ACAD_REACTORS
330
19DF6
102
}
330
19DF6
100
AcDbZombieObject
 90
      499
 91
      511
 93
      225
310
90A3322203D2031272D302200000000000002100000000000000284000
  0
ACAD_PROXY_OBJECT
  5
19E16
102
{ACAD_REACTORS
330
19DF6
102
}
330
19DF6
100
AcDbZombieObject
 90
      499
 91
      511
 93
      225
310
90A3622203D2031272D302200000000000006100000000000000284000
  0
ACAD_PROXY_OBJECT
  5
19E17
102
{ACAD_REACTORS
330
19DF6
102
}
330
19DF6
100
AcDbZombieObject
 90
      499
 91
      511
 93
      249
310
90D31272D3022203D2031272D30220000000000000A100000000000000284000
  0
ACAD_PROXY_OBJECT
  5
19DEB
102
{ACAD_REACTORS
330
19DE5
102
}
330
19DE5
100
AcDbZombieObject
 90
      499
 91
      510
 93
      436
310
42CC9915DA5C99599C985B595049028333333333333E3BF0000000000000FB0107901411070040501600405405064090741402480A0340
1001
ACAD
1000
AcDbSavedByObjectVersion
1070
     0
  0
ACAD_PROXY_OBJECT
  5
19DED
102
{ACAD_REACTORS
330
19DE5
102
}
330
19DE5
100
AcDbZombieObject
 90
      499
 91
      510
 93
      500
310
424CD108121A5919195B90640502408333333333333E3BF0000000000000FB01079024090700405020000000000001110200405405064090740C02480A0340
1001
ACAD
1000
AcDbSavedByObjectVersion
1070
     0
  0
ACAD_PROXY_OBJECT
  5
19DEC
102
{ACAD_REACTORS
330
19DE5
102
}
330
19DE5
100
AcDbZombieObject
 90
      499
 91
      510
 93
      436
310
42CCD915DA5C99599C985B595059028333333333333E3BF0000000000000FB0107901411070040501600405405064090741402480A0340
1001
ACAD
1000
AcDbSavedByObjectVersion
1070
     0
  0
ACAD_PROXY_OBJECT
  5
19DEA
102
{ACAD_REACTORS
330
19DE5
102
}
330
19DE5
100
AcDbZombieObject
 90
      499
 91
      510
 93
      388
310
4150985CDA58D07406404333333333333E3BF0000000000000FB0107A41107004050150841D405064090741402480A0350
1001
ACAD
1000
AcDbSavedByObjectVersion
1070
     0
  0
ACAD_PROXY_OBJECT
  5
19DF1
102
{ACAD_REACTORS
330
19DE5
102
}
330
19DE5
100
AcDbZombieObject
 90
      499
 91
      510
 93
      428
310
42109C9A59DA1D195B90C409028333333333333E3BF0000000000000FB010790141107004050150841D405064090741402480A029950
1001
ACAD
1000
AcDbSavedByObjectVersion
1070
     0
  0
ACAD_PROXY_OBJECT
  5
19DF5
102
{ACAD_REACTORS
330
19DE5
102
}
330
19DE5
100
AcDbZombieObject
 90
      499
 91
      510
 93
      452
310
42D0DBDB1BDC90DA185B99D95104090240C333333333333E3BF0000000000000FB0108901411070040501508421405064090741402480A0350
1001
ACAD
1000
AcDbSavedByObjectVersion
1070
     0
  0
ACAD_PROXY_OBJECT
  5
19DEE
102
{ACAD_REACTORS
330
19DE5
102
}
330
19DE5
100
AcDbZombieObject
 90
      499
 91
      510
 93
      500
310
4290DBDB98D95C1D1D585B10940D028333333333333E3BF0000000000000FB0107902409070040501000000000000111010841D405064090740C02480A0340
1001
ACAD
1000
AcDbSavedByObjectVersion
1070
     0
  0
ACAD_PROXY_OBJECT
  5
19DF0
102
{ACAD_REACTORS
330
19DE5
102
}
330
19DE5
100
AcDbZombieObject
 90
      499
 91
      510
 93
      412
310
40D11A5B50B409028333333333333E3BF0000000000000FB010790141107004050150841D405064090741402480A02677FFFFFD0
1001
ACAD
1000
AcDbSavedByObjectVersion
1070
     0
  0
ACAD_PROXY_OBJECT
  5
1E02A
102
{ACAD_REACTORS
330
19DE5
102
}
330
19DE5
100
AcDbZombieObject
 90
      499
 91
      510
 93
      452
310
43115919D950DBDB1BDC93D999916409028333333333333E3BF0000000000000FB010790141107004050150841D405064090741402480A0350
1001
ACAD
1000
AcDbSavedByObjectVersion
1070
     0
  0
ACAD_PROXY_OBJECT
  5
19DF4
102
{ACAD_REACTORS
330
19DE5
102
}
330
19DE5
100
AcDbZombieObject
 90
      499
 91
      510
 93
      444
310
42D19858D95C185D1D195C9B90F409028333333333333E3BF0000000000000FB010790141107004050150841D405064090741402480A0350
1001
ACAD
1000
AcDbSavedByObjectVersion
1070
     0
  0
ACAD_PROXY_OBJECT
  5
19DE6
102
{ACAD_REACTORS
330
19DE5
102
}
330
19DE5
100
AcDbZombieObject
 90
      499
 91
      510
 93
      388
310
41119B185D240901404333333333333E3BF0000000000000F9010740A41107004050150841D405064090741402480A1B50
1001
ACAD
1000
AcDbSavedByObjectVersion
1070
     0
  0
ACAD_PROXY_OBJECT
  5
19DE7
102
{ACAD_REACTORS
330
19DE5
102
}
330
19DE5
100
AcDbZombieObject
 90
      499
 91
      510
 93
      476
310
43519B185D15DA5D1A115919D95CD0140901404333333333333E3BF0000000000000F9010740901411070040501600405405064090741402480A1B50
1001
ACAD
1000
AcDbSavedByObjectVersion
1070
     0
  0
ACAD_PROXY_OBJECT
  5
19DE8
102
{ACAD_REACTORS
330
19DE5
102
}
330
19DE5
100
AcDbZombieObject
 90
      499
 91
      510
 93
      412
310
41D1DBDD5C985D5910240902404333333333333E3BF0000000000000F9010740A411070040501641D405064090741402480A1B50
1001
ACAD
1000
AcDbSavedByObjectVersion
1070
     0
  0
ACAD_PROXY_OBJECT
  5
19DE9
102
{ACAD_REACTORS
330
19DE5
102
}
330
19DE5
100
AcDbZombieObject
 90
      499
 91
      510
 93
      500
310
4411DBDD5C985D5915DA5D1A115919D95CD0340902404333333333333E3BF0000000000000F9010740901411070040501600405405064090741402480A1B50
1001
ACAD
1000
AcDbSavedByObjectVersion
1070
     0
  0
ACAD_PROXY_OBJECT
  5
1F381
102
{ACAD_REACTORS
330
19DE5
102
}
330
19DE5
100
AcDbZombieObject
 90
      499
 91
      510
 93
      476
310
41921A5919195B90640502408333333333333E33F0000000000000F901079024090700405020000000000001110200405405064090740C02480A0340
1001
ACAD
1000
AcDbSavedByObjectVersion
1070
     0
  0
ACAD_PROXY_OBJECT
  5
1E028
102
{ACAD_REACTORS
330
19DE5
102
}
330
19DE5
100
AcDbZombieObject
 90
      499
 91
      510
 93
      428
310
42529A5D1D195C93D999914409028333333333333E3BF0000000000000FB010790141107004050150A41D405064090741402480A0350
1001
ACAD
1000
AcDbSavedByObjectVersion
1070
     0
  0
ACAD_PROXY_OBJECT
  5
19DF3
102
{ACAD_REACTORS
330
19DE5
102
}
330
19DE5
100
AcDbZombieObject
 90
      499
 91
      510
 93
      444
310
42D31A5B995C185D1D195C9B90E409028333333333333E3BF0000000000000FB010790141107004050750841D405064090741402483A0350
1001
ACAD
1000
AcDbSavedByObjectVersion
1070
     0
  0
ACAD_PROXY_OBJECT
  5
1F387
102
{ACAD_REACTORS
330
19DE5
102
}
330
19DE5
100
AcDbZombieObject
 90
      499
 91
      510
 93
      484
310
42135BD9195B1A5B99D0A409038333333333333E33F0000000000000F901074090290700405010000000000201990108421405064090741402480A1B40
1001
ACAD
1000
AcDbSavedByObjectVersion
1070
     0
  0
ACAD_PROXY_OBJECT
  5
1E029
102
{ACAD_REACTORS
330
19DE5
102
}
330
19DE5
100
AcDbZombieObject
 90
      499
 91
      510
 93
      444
310
42D3DD995C9A185B99D3D999915409028333333333333E3BF0000000000000FB010790141107004050150941D405064090741402480A0350
1001
ACAD
1000
AcDbSavedByObjectVersion
1070
     0
  0
ACAD_PROXY_OBJECT
  5
19DEF
102
{ACAD_REACTORS
330
19DE5
102
}
330
19DE5
100
AcDbZombieObject
 90
      499
 91
      510
 93
      420
310
425499585B1A5CDD1A58D08409028333333333333E3BF0000000000000FB01079019070040501508421405064090741402480A1B40
1001
ACAD
1000
AcDbSavedByObjectVersion
1070
     0
  0
ACAD_PROXY_OBJECT
  5
1F386
102
{ACAD_REACTORS
330
19DE5
102
}
330
19DE5
100
AcDbZombieObject
 90
      499
 91
      510
 93
      420
310
4194DA1859195911B40902404333333333333E33F0000000000000F9010740A41107004050150800405405064090840C02480A0B40
1001
ACAD
1000
AcDbSavedByObjectVersion
1070
     0
  0
ACAD_PROXY_OBJECT
  5
1F385
102
{ACAD_REACTORS
330
19DE5
102
}
330
19DE5
100
AcDbZombieObject
 90
      499
 91
      510
 93
      516
310
4454DA18591959081DDA5D1A08195919D95CD1A40902404333333333333E33F0000000000000F901074090142907004050250800405405064090740C02480A0B40
1001
ACAD
1000
AcDbSavedByObjectVersion
1070
     0
  0
ACAD_PROXY_OBJECT
  5
1F382
102
{ACAD_REACTORS
330
19DE5
102
}
330
19DE5
100
AcDbZombieObject
 90
      499
 91
      510
 93
      532
310
4394DA1859195CC81BD98811DC985E5174090240C333333333333E33F0000000000000F901079024090741D01000000000000111010841D405064090740C02480A0340
1001
ACAD
1000
AcDbSavedByObjectVersion
1070
     0
  0
ACAD_PROXY_OBJECT
  5
1F383
102
{ACAD_REACTORS
330
19DE5
102
}
330
19DE5
100
AcDbZombieObject
 90
      499
 91
      510
 93
      476
310
41D4DAD95D18DA1E51840502408333333333333E33F0000000000000F901079024090741D01000000000000111010B41D405064090741802480A0340
1001
ACAD
1000
AcDbSavedByObjectVersion
1070
     0
  0
ACAD_PROXY_OBJECT
  5
19DF2
102
{ACAD_REACTORS
330
19DE5
102
}
330
19DE5
100
AcDbZombieObject
 90
      499
 91
      510
 93
      412
310
41D51A1A58DAD95B90D409028333333333333E3BF0000000000000FB010790141107004050150C41D405064090741402480A0350
1001
ACAD
1000
AcDbSavedByObjectVersion
1070
     0
  0
ACAD_PROXY_OBJECT
  5
1F380
102
{ACAD_REACTORS
330
19DE5
102
}
330
19DE5
100
AcDbZombieObject
 90
      499
 91
      510
 93
      420
310
4255DA5C99599C985B595059028333333333333E33F0000000000000F90107901411070040501600405405064090740C02480A0340
1001
ACAD
1000
AcDbSavedByObjectVersion
1070
     0
  0
ACAD_PROXY_OBJECT
  5
1F384
102
{ACAD_REACTORS
330
19DE5
102
}
330
19DE5
100
AcDbZombieObject
 90
      499
 91
      510
 93
      404
310
41560B54985E51940902404000000000000E03F0000000000000F9010740501907004050150841D405064090740C02480A1B40
1001
ACAD
1000
AcDbSavedByObjectVersion
1070
     0
  0
XRECORD
  5
21047
102
{ACAD_REACTORS
330
21046
102
}
330
21046
100
AcDbXrecord
340
2D0
  0
XRECORD
  5
21048
102
{ACAD_REACTORS
330
21046
102
}
330
21046
100
AcDbXrecord
340
2CF
  0
DICTIONARYVAR
  5
20A45
102
{ACAD_REACTORS
330
37
102
}
330
37
100
DictionaryVariables
280
     0
  1
1:1
  0
DICTIONARYVAR
  5
1AC19
102
{ACAD_REACTORS
330
37
102
}
330
37
100
DictionaryVariables
280
     0
  1
Standard
  0
DICTIONARYVAR
  5
4F1
102
{ACAD_REACTORS
330
37
102
}
330
37
100
DictionaryVariables
280
     0
  1
Standard
  0
DICTIONARYVAR
  5
38
102
{ACAD_REACTORS
330
37
102
}
330
37
100
DictionaryVariables
280
     0
  1
-1
  0
DICTIONARYVAR
  5
408
102
{ACAD_REACTORS
330
37
102
}
330
37
100
DictionaryVariables
280
     0
  1
2
  0
DICTIONARYVAR
  5
1891
102
{ACAD_REACTORS
330
37
102
}
330
37
100
DictionaryVariables
280
     0
  1
1
  0
DICTIONARYVAR
  5
1AC1C
102
{ACAD_REACTORS
330
37
102
}
330
37
100
DictionaryVariables
280
     0
  1
0
  0
DICTIONARYVAR
  5
1895
102
{ACAD_REACTORS
330
37
102
}
330
37
100
DictionaryVariables
280
     0
  1
8
  0
DICTIONARYVAR
  5
1894
102
{ACAD_REACTORS
330
37
102
}
330
37
100
DictionaryVariables
280
     0
  1
1
  0
DICTIONARYVAR
  5
20A9B
102
{ACAD_REACTORS
330
37
102
}
330
37
100
DictionaryVariables
280
     0
  1
0
  0
DICTIONARYVAR
  5
1892
102
{ACAD_REACTORS
330
37
102
}
330
37
100
DictionaryVariables
280
     0
  1
8
  0
DICTIONARYVAR
  5
1893
102
{ACAD_REACTORS
330
37
102
}
330
37
100
DictionaryVariables
280
     0
  1
2
  0
DICTIONARYVAR
  5
409
102
{ACAD_REACTORS
330
37
102
}
330
37
100
DictionaryVariables
280
     0
  1

  0
DICTIONARYVAR
  5
1AC1B
102
{ACAD_REACTORS
330
37
102
}
330
37
100
DictionaryVariables
280
     0
  1
127
  0
DICTIONARYVAR
  5
1F37F
102
{ACAD_REACTORS
330
37
102
}
330
37
100
DictionaryVariables
280
     0
  1
2
  0
DICTIONARY
  5
211E4
330
19DD5
100
AcDbDictionary
  3
ACAD_XREC_ROUNDTRIP
360
211E5
1001
ACAD
1000
TREAT_AS_HARD
1070
     1
  0
DICTIONARY
  5
211E6
330
19DCD
100
AcDbDictionary
  3
ACAD_XREC_ROUNDTRIP
360
211E7
1001
ACAD
1000
TREAT_AS_HARD
1070
     1
  0
DICTIONARY
  5
211E8
330
19DDD
100
AcDbDictionary
  3
ACAD_XREC_ROUNDTRIP
360
211E9
1001
ACAD
1000
TREAT_AS_HARD
1070
     1
  0
XRECORD
  5
211E5
102
{ACAD_REACTORS
330
211E4
102
}
330
211E4
100
AcDbXrecord
102
MATERIAL
148
0.0
149
0.0
149
0.0
 93
        0
 94
      127
282
     0
 72
     0
 77
     0
171
     0
175
     0
179
     0
273
     0
  0
XRECORD
  5
211E7
102
{ACAD_REACTORS
330
211E6
102
}
330
211E6
100
AcDbXrecord
102
MATERIAL
148
0.0
149
0.0
149
0.0
 93
        0
 94
      127
282
     0
 72
     0
 77
     0
171
     0
175
     0
179
     0
273
     0
  0
XRECORD
  5
211E9
102
{ACAD_REACTORS
330
211E8
102
}
330
211E8
100
AcDbXrecord
102
MATERIAL
148
0.0
149
0.0
149
0.0
 93
        0
 94
      127
282
     0
 72
     0
 77
     0
171
     0
175
     0
179
     0
273
     0
  0
ENDSEC
  0
EOF
