  0
SECTION
  2
HEADER
  9
$ACADVER
  1
AC1012
  9
$DWGCODEPAGE
  3
ansi_932
  9
$INSBASE
 10
0.0
 20
0.0
 30
0.0
  9
$EXTMIN
 10
515.5238022198602
 20
-741.316801731878
 30
0.0
  9
$EXTMAX
 10
685.0362416153649
 20
-551.7581973038916
 30
0.0
  9
$LIMMIN
 10
0.0
 20
0.0
  9
$LIMMAX
 10
420.0
 20
297.0
  9
$ORTHOMODE
 70
     0
  9
$REGENMODE
 70
     1
  9
$FILLMODE
 70
     1
  9
$QTEXTMODE
 70
     0
  9
$MIRRTEXT
 70
     0
  9
$DRAGMODE
 70
     2
  9
$LTSCALE
 40
0.5
  9
$OSMODE
 70
 14463
  9
$ATTMODE
 70
     1
  9
$TEXTSIZE
 40
4.0
  9
$TRACEWID
 40
1.0
  9
$TEXTSTYLE
  7
STANDARD
  9
$CLAYER
  8
1TEXT
  9
$CELTYPE
  6
BYLAYER
  9
$CECOLOR
 62
   256
  9
$CELTSCALE
 40
1.0
  9
$DELOBJ
 70
     1
  9
$DISPSILH
 70
     0
  9
$DIMSCALE
 40
1.0
  9
$DIMASZ
 40
2.0
  9
$DIMEXO
 40
0.0
  9
$DIMDLI
 40
7.0
  9
$DIMRND
 40
0.0
  9
$DIMDLE
 40
0.0
  9
$DIMEXE
 40
1.0
  9
$DIMTP
 40
0.0
  9
$DIMTM
 40
0.0
  9
$DIMTXT
 40
3.5
  9
$DIMCEN
 40
0.0
  9
$DIMTSZ
 40
0.0
  9
$DIMTOL
 70
     0
  9
$DIMLIM
 70
     0
  9
$DIMTIH
 70
     0
  9
$DIMTOH
 70
     0
  9
$DIMSE1
 70
     0
  9
$DIMSE2
 70
     0
  9
$DIMTAD
 70
     1
  9
$DIMZIN
 70
     8
  9
$DIMBLK
  1

  9
$DIMASO
 70
     1
  9
$DIMSHO
 70
     1
  9
$DIMPOST
  1
 
  9
$DIMAPOST
  1

  9
$DIMALT
 70
     0
  9
$DIMALTD
 70
     2
  9
$DIMALTF
 40
25.4
  9
$DIMLFAC
 40
1.0
  9
$DIMTOFL
 70
     1
  9
$DIMTVP
 40
0.0
  9
$DIMTIX
 70
     0
  9
$DIMSOXD
 70
     0
  9
$DIMSAH
 70
     1
  9
$DIMBLK1
  1
OPEN30
  9
$DIMBLK2
  1
OPEN30
  9
$DIMSTYLE
  2
NEWX10
  9
$DIMCLRD
 70
   256
  9
$DIMCLRE
 70
   256
  9
$DIMCLRT
 70
   201
  9
$DIMTFAC
 40
0.7
  9
$DIMGAP
 40
0.7
  9
$DIMJUST
 70
     0
  9
$DIMSD1
 70
     0
  9
$DIMSD2
 70
     0
  9
$DIMTOLJ
 70
     1
  9
$DIMTZIN
 70
     8
  9
$DIMALTZ
 70
     0
  9
$DIMALTTZ
 70
     0
  9
$DIMFIT
 70
     2
  9
$DIMUPT
 70
     0
  9
$DIMUNIT
 70
     2
  9
$DIMDEC
 70
     2
  9
$DIMTDEC
 70
     4
  9
$DIMALTU
 70
     2
  9
$DIMALTTD
 70
     2
  9
$DIMTXSTY
  7
STANDARD
  9
$DIMAUNIT
 70
     0
  9
$LUNITS
 70
     2
  9
$LUPREC
 70
     4
  9
$SKETCHINC
 40
1.0
  9
$FILLETRAD
 40
0.3
  9
$AUNITS
 70
     0
  9
$AUPREC
 70
     2
  9
$MENU
  1
acad
  9
$ELEVATION
 40
0.0
  9
$PELEVATION
 40
0.0
  9
$THICKNESS
 40
0.0
  9
$LIMCHECK
 70
     0
  9
$CHAMFERA
 40
1.0
  9
$CHAMFERB
 40
1.0
  9
$CHAMFERC
 40
20.0
  9
$CHAMFERD
 40
0.0
  9
$SKPOLY
 70
     0
  9
$TDCREATE
 40
2453033.732663484
  9
$TDUPDATE
 40
2459555.417560058
  9
$TDINDWG
 40
2.7705522454
  9
$TDUSRTIMER
 40
2.7705522454
  9
$USRTIMER
 70
     1
  9
$ANGBASE
 50
0.0
  9
$ANGDIR
 70
     0
  9
$PDMODE
 70
     0
  9
$PDSIZE
 40
0.0
  9
$PLINEWID
 40
0.0
  9
$COORDS
 70
     2
  9
$SPLFRAME
 70
     0
  9
$SPLINETYPE
 70
     6
  9
$SPLINESEGS
 70
     8
  9
$ATTDIA
 70
     0
  9
$ATTREQ
 70
     1
  9
$HANDLING
 70
     1
  9
$HANDSEED
  5
21DEC
  9
$SURFTAB1
 70
     6
  9
$SURFTAB2
 70
     6
  9
$SURFTYPE
 70
     6
  9
$SURFU
 70
     6
  9
$SURFV
 70
     6
  9
$UCSNAME
  2

  9
$UCSORG
 10
0.0
 20
0.0
 30
0.0
  9
$UCSXDIR
 10
1.0
 20
0.0
 30
0.0
  9
$UCSYDIR
 10
0.0
 20
1.0
 30
0.0
  9
$PUCSNAME
  2

  9
$PUCSORG
 10
0.0
 20
0.0
 30
0.0
  9
$PUCSXDIR
 10
1.0
 20
0.0
 30
0.0
  9
$PUCSYDIR
 10
0.0
 20
1.0
 30
0.0
  9
$USERI1
 70
     0
  9
$USERI2
 70
     0
  9
$USERI3
 70
     0
  9
$USERI4
 70
     0
  9
$USERI5
 70
     0
  9
$USERR1
 40
0.0
  9
$USERR2
 40
0.0
  9
$USERR3
 40
0.0
  9
$USERR4
 40
0.0
  9
$USERR5
 40
0.0
  9
$WORLDVIEW
 70
     1
  9
$SHADEDGE
 70
     3
  9
$SHADEDIF
 70
    70
  9
$TILEMODE
 70
     1
  9
$MAXACTVP
 70
    48
  9
$PINSBASE
 10
0.0
 20
0.0
 30
0.0
  9
$PLIMCHECK
 70
     0
  9
$PEXTMIN
 10
1.000000000000000E+20
 20
1.000000000000000E+20
 30
1.000000000000000E+20
  9
$PEXTMAX
 10
-1.000000000000000E+20
 20
-1.000000000000000E+20
 30
-1.000000000000000E+20
  9
$PLIMMIN
 10
0.0
 20
0.0
  9
$PLIMMAX
 10
420.0
 20
297.0
  9
$UNITMODE
 70
     0
  9
$VISRETAIN
 70
     1
  9
$PLINEGEN
 70
     0
  9
$PSLTSCALE
 70
     1
  9
$TREEDEPTH
 70
  3020
  9
$PICKSTYLE
 70
     0
  9
$CMLSTYLE
  2
STANDARD
  9
$CMLJUST
 70
     0
  9
$CMLSCALE
 40
20.0
  9
$SAVEIMAGES
 70
     1
  0
ENDSEC
  0
SECTION
  2
CLASSES
  0
CLASS
  1
DICTIONARYVAR
  2
AcDbDictionaryVar
  3
ObjectDBX Classes
 90
        0
280
     0
281
     0
  0
CLASS
  1
IDBUFFER
  2
AcDbIdBuffer
  3
ObjectDBX Classes
 90
    32768
280
     0
281
     0
  0
CLASS
  1
LWPOLYLINE
  2
AcDbPolyline
  3
ObjectDBX Classes
 90
    32768
280
     0
281
     1
  0
CLASS
  1
ACDBDICTIONARYWDFLT
  2
AcDbDictionaryWithDefault
  3
ObjectDBX Classes
 90
    32768
280
     0
281
     0
  0
CLASS
  1
ACDBPLACEHOLDER
  2
AcDbPlaceHolder
  3
ObjectDBX Classes
 90
        0
280
     0
281
     0
  0
CLASS
  1
LAYOUT
  2
AcDbLayout
  3
ObjectDBX Classes
 90
        0
280
     0
281
     0
  0
CLASS
  1
TABLESTYLE
  2
AcDbTableStyle
  3
ObjectDBX Classes
 90
     4095
280
     0
281
     0
  0
CLASS
  1
SORTENTSTABLE
  2
AcDbSortentsTable
  3
ObjectDBX Classes
 90
    32768
280
     0
281
     0
  0
CLASS
  1
DIMASSOC
  2
AcDbDimAssoc
  3
"AcDbDimAssoc|Product Desc:     AcDim ARX App For Dimension|Company:          Autodesk, Inc.|WEB Address:      www.autodesk.com"
 90
        0
280
     0
281
     0
  0
CLASS
  1
MATERIAL
  2
AcDbMaterial
  3
ObjectDBX Classes
 90
     1153
280
     0
281
     0
  0
CLASS
  1
VISUALSTYLE
  2
AcDbVisualStyle
  3
ObjectDBX Classes
 90
     4095
280
     0
281
     0
  0
CLASS
  1
SCALE
  2
AcDbScale
  3
ObjectDBX Classes
 90
     1153
280
     0
281
     0
  0
CLASS
  1
MLEADERSTYLE
  2
AcDbMLeaderStyle
  3
ACDB_MLEADERSTYLE_CLASS
 90
     4095
280
     0
281
     0
  0
CLASS
  1
CELLSTYLEMAP
  2
AcDbCellStyleMap
  3
ObjectDBX Classes
 90
     1152
280
     0
281
     0
  0
CLASS
  1
EXACXREFPANELOBJECT
  2
ExAcXREFPanelObject
  3
EXAC_ESW
 90
     1025
280
     1
281
     0
  0
CLASS
  1
NPOCOLLECTION
  2
AcDbImpNonPersistentObjectsCollection
  3
ObjectDBX Classes
 90
     1153
280
     1
281
     0
  0
CLASS
  1
SUN
  2
AcDbSun
  3
SCENEOE
 90
     1153
280
     0
281
     0
  0
CLASS
  1
XRECORD
  2
AcDbXrecord
  3
ObjectDBX Classes
 90
    32768
280
     0
281
     0
  0
CLASS
  1
HATCH
  2
AcDbHatch
  3
ObjectDBX Classes
 90
    32768
280
     0
281
     1
  0
ENDSEC
  0
SECTION
  2
TABLES
  0
TABLE
  2
VPORT
  5
8
330
0
100
AcDbSymbolTable
 70
     1
  0
VPORT
  5
19DC2
330
8
100
AcDbSymbolTableRecord
100
AcDbViewportTableRecord
  2
*ACTIVE
 70
     0
 10
0.0
 20
0.0
 11
1.0
 21
1.0
 12
600.2800219176125
 22
-646.5374995178847
 13
0.0
 23
0.0
 14
10.0
 24
10.0
 15
10.0
 25
10.0
 16
0.0
 26
0.0
 36
1.0
 17
0.0
 27
0.0
 37
0.0
 40
203.5260805437327
 41
1.562647754137116
 42
50.0
 43
0.0
 44
0.0
 50
0.0
 51
0.0
 71
    16
 72
   100
 73
     1
 74
     1
 75
     0
 76
     0
 77
     0
 78
     0
1001
ACAD_NAV_VCDISPLAY
1070
     3
  0
ENDTAB
  0
TABLE
  2
LTYPE
  5
5
330
0
100
AcDbSymbolTable
 70
     4
  0
LTYPE
  5
12
330
5
100
AcDbSymbolTableRecord
100
AcDbLinetypeTableRecord
  2
BYBLOCK
 70
     0
  3

 72
    65
 73
     0
 40
0.0
  0
LTYPE
  5
13
330
5
100
AcDbSymbolTableRecord
100
AcDbLinetypeTableRecord
  2
BYLAYER
 70
     0
  3

 72
    65
 73
     0
 40
0.0
  0
LTYPE
  5
14
330
5
100
AcDbSymbolTableRecord
100
AcDbLinetypeTableRecord
  2
CONTINUOUS
 70
     0
  3
Solid line
 72
    65
 73
     0
 40
0.0
  0
LTYPE
  5
100
330
5
100
AcDbSymbolTableRecord
100
AcDbLinetypeTableRecord
  2
PHANTOM2
 70
     0
  3
Phantom (0.5x) ___ _ _ ___ _ _ ___ _ _ ___ _ _
 72
    65
 73
     6
 40
31.75
 49
15.875
 74
     0
 49
-3.175
 74
     0
 49
3.175
 74
     0
 49
-3.175
 74
     0
 49
3.175
 74
     0
 49
-3.175
 74
     0
  0
LTYPE
  5
20FAB
330
5
100
AcDbSymbolTableRecord
100
AcDbLinetypeTableRecord
  2
CENTER2
 70
     0
  3
Center (.5x) ___ _ ___ _ ___ _ ___ _ ___ _ ___
 72
    65
 73
     4
 40
28.575
 49
19.05
 74
     0
 49
-3.175
 74
     0
 49
3.175
 74
     0
 49
-3.175
 74
     0
  0
LTYPE
  5
211AB
330
5
100
AcDbSymbolTableRecord
100
AcDbLinetypeTableRecord
  2
PHANTOM
 70
     0
  3
Phantom ______  __  __  ______  __  __  ______
 72
    65
 73
     6
 40
12.7
 49
6.35
 74
     0
 49
-1.27
 74
     0
 49
1.27
 74
     0
 49
-1.27
 74
     0
 49
1.27
 74
     0
 49
-1.27
 74
     0
  0
ENDTAB
  0
TABLE
  2
LAYER
  5
2
102
{ACAD_XDICTIONARY
360
18FE8
102
}
330
0
100
AcDbSymbolTable
 70
     6
  0
LAYER
  5
E
102
{ACAD_XDICTIONARY
360
1A20A
102
}
330
2
100
AcDbSymbolTableRecord
100
AcDbLayerTableRecord
  2
0
 70
     0
 62
     7
  6
CONTINUOUS
  0
LAYER
  5
29
102
{ACAD_XDICTIONARY
360
1A20C
102
}
330
2
100
AcDbSymbolTableRecord
100
AcDbLayerTableRecord
  2
1CENTER
 70
     0
 62
     7
  6
CENTER2
  0
LAYER
  5
31
102
{ACAD_XDICTIONARY
360
1A20E
102
}
330
2
100
AcDbSymbolTableRecord
100
AcDbLayerTableRecord
  2
1TEXT
 70
     0
 62
     7
  6
CONTINUOUS
  0
LAYER
  5
101
102
{ACAD_XDICTIONARY
360
1A218
102
}
330
2
100
AcDbSymbolTableRecord
100
AcDbLayerTableRecord
  2
1DIM
 70
     0
 62
     7
  6
CONTINUOUS
  0
LAYER
  5
103
102
{ACAD_XDICTIONARY
360
1A21C
102
}
330
2
100
AcDbSymbolTableRecord
100
AcDbLayerTableRecord
  2
1PHANTOM
 70
     0
 62
     7
  6
PHANTOM2
  0
LAYER
  5
25F
102
{ACAD_XDICTIONARY
360
1A220
102
}
330
2
100
AcDbSymbolTableRecord
100
AcDbLayerTableRecord
  2
01
 70
     0
 62
     1
  6
CONTINUOUS
  0
ENDTAB
  0
TABLE
  2
STYLE
  5
3
330
0
100
AcDbSymbolTable
 70
     1
  0
STYLE
  5
F
330
3
100
AcDbSymbolTableRecord
100
AcDbTextStyleTableRecord
  2
STANDARD
 70
     0
 40
0.0
 41
1.0
 50
0.0
 71
     0
 42
4.0
  3
txt.shx
  4
extfont.shx
  0
ENDTAB
  0
TABLE
  2
VIEW
  5
6
330
0
100
AcDbSymbolTable
 70
     0
  0
ENDTAB
  0
TABLE
  2
UCS
  5
7
330
0
100
AcDbSymbolTable
 70
     0
  0
ENDTAB
  0
TABLE
  2
APPID
  5
9
330
0
100
AcDbSymbolTable
 70
    17
  0
APPID
  5
10
330
9
100
AcDbSymbolTableRecord
100
AcDbRegAppTableRecord
  2
ACAD
 70
     0
  0
APPID
  5
21
330
9
100
AcDbSymbolTableRecord
100
AcDbRegAppTableRecord
  2
DRAWINGVARIABLESXDATA
 70
     0
  0
APPID
  5
64
330
9
100
AcDbSymbolTableRecord
100
AcDbRegAppTableRecord
  2
CONTENTTABDATA
 70
     0
  0
APPID
  5
65
330
9
100
AcDbSymbolTableRecord
100
AcDbRegAppTableRecord
  2
CONTENTCURRENTTAB
 70
     0
  0
APPID
  5
66
330
9
100
AcDbSymbolTableRecord
100
AcDbRegAppTableRecord
  2
CONTENTBLOCKDESCRIPTION
 70
     0
  0
APPID
  5
67
330
9
100
AcDbSymbolTableRecord
100
AcDbRegAppTableRecord
  2
CONTENTBLOCKICON
 70
     0
  0
APPID
  5
68
330
9
100
AcDbSymbolTableRecord
100
AcDbRegAppTableRecord
  2
CONTENTLONGBLOCKNAME
 70
     0
  0
APPID
  5
5A9
330
9
100
AcDbSymbolTableRecord
100
AcDbRegAppTableRecord
  2
ACAD_PSEXT
 70
     0
  0
APPID
  5
18AC
330
9
100
AcDbSymbolTableRecord
100
AcDbRegAppTableRecord
  2
ACAD_DSTYLE_DIMTEXT_FILL
 70
     0
  0
APPID
  5
19E1A
330
9
100
AcDbSymbolTableRecord
100
AcDbRegAppTableRecord
  2
ACAD_MLEADERVER
 70
     0
  0
APPID
  5
1A2FA
330
9
100
AcDbSymbolTableRecord
100
AcDbRegAppTableRecord
  2
ACAD_DSTYLE_DIMRADIAL_EXTE
 70
     0
  0
APPID
  5
1DBC1
330
9
100
AcDbSymbolTableRecord
100
AcDbRegAppTableRecord
  2
ACADANNOTATIVE
 70
     0
  0
APPID
  5
1E991
330
9
100
AcDbSymbolTableRecord
100
AcDbRegAppTableRecord
  2
ACAD_EXEMPT_FROM_CAD_STAND
 70
     0
  0
APPID
  5
1FE7A
330
9
100
AcDbSymbolTableRecord
100
AcDbRegAppTableRecord
  2
ACDBBLOCKREPETAG
 70
     0
  0
APPID
  5
20672
330
9
100
AcDbSymbolTableRecord
100
AcDbRegAppTableRecord
  2
ACAD_OBJECT_CHANGE_GUID
 70
     0
  0
APPID
  5
20712
330
9
100
AcDbSymbolTableRecord
100
AcDbRegAppTableRecord
  2
ACAD_NAV_VCDISPLAY
 70
     0
  0
APPID
  5
21584
330
9
100
AcDbSymbolTableRecord
100
AcDbRegAppTableRecord
  2
ACLAYERTOOLS
 70
     0
  0
ENDTAB
  0
TABLE
  2
DIMSTYLE
  5
A
330
0
100
AcDbSymbolTable
 70
     2
  0
DIMSTYLE
105
48
330
A
100
AcDbSymbolTableRecord
100
AcDbDimStyleTableRecord
  2
NEWX10
 70
     0
  3
 
  4

  5

  6
OPEN30
  7
OPEN30
 40
1.0
 41
2.0
 42
0.0
 43
7.0
 44
1.0
 45
0.0
 46
0.0
 47
0.0
 48
0.0
140
3.5
141
0.0
142
0.0
143
25.4
144
1.0
145
0.0
146
0.7
147
0.7
 71
     0
 72
     0
 73
     0
 74
     0
 75
     0
 76
     0
 77
     1
 78
     8
170
     0
171
     2
172
     1
173
     1
174
     0
175
     0
176
   256
177
   256
178
   201
179
     2
270
     2
271
     2
272
     4
273
     2
274
     2
340
F
275
     0
280
     0
281
     0
282
     0
283
     1
284
     8
285
     0
286
     0
287
     2
288
     0
  0
DIMSTYLE
105
211AC
330
A
100
AcDbSymbolTableRecord
100
AcDbDimStyleTableRecord
  2
ISO-25
 70
     0
  3

  4

  5

  6

  7

 40
1.0
 41
2.5
 42
0.625
 43
3.75
 44
1.25
 45
0.0
 46
0.0
 47
0.0
 48
0.0
140
2.5
141
2.5
142
0.0
143
0.03937007874016
144
1.0
145
0.0
146
1.0
147
0.625
 71
     0
 72
     0
 73
     0
 74
     0
 75
     0
 76
     0
 77
     1
 78
     8
170
     0
171
     3
172
     1
173
     0
174
     0
175
     0
176
     0
177
     0
178
     0
270
     2
271
     2
272
     2
273
     2
274
     3
340
F
275
     0
280
     0
281
     0
282
     0
283
     0
284
     8
285
     0
286
     0
287
     3
288
     0
  0
ENDTAB
  0
TABLE
  2
BLOCK_RECORD
  5
1
330
0
100
AcDbSymbolTable
 70
     8
  0
BLOCK_RECORD
  5
18
102
{ACAD_XDICTIONARY
360
6E9
102
}
330
1
100
AcDbSymbolTableRecord
100
AcDbBlockTableRecord
  2
*MODEL_SPACE
  0
BLOCK_RECORD
  5
15
102
{ACAD_XDICTIONARY
360
59B
102
}
330
1
100
AcDbSymbolTableRecord
100
AcDbBlockTableRecord
  2
*PAPER_SPACE
  0
BLOCK_RECORD
  5
42
330
1
100
AcDbSymbolTableRecord
100
AcDbBlockTableRecord
  2
_OPEN30
  0
BLOCK_RECORD
  5
1FEC9
330
1
100
AcDbSymbolTableRecord
100
AcDbBlockTableRecord
  2
A3WAKUKAWAJUN2017_HYOUDAI_
  0
BLOCK_RECORD
  5
21C4C
330
1
100
AcDbSymbolTableRecord
100
AcDbBlockTableRecord
  2
*X40
  0
BLOCK_RECORD
  5
21C9A
330
1
100
AcDbSymbolTableRecord
100
AcDbBlockTableRecord
  2
*X41
  0
BLOCK_RECORD
  5
21CEC
330
1
100
AcDbSymbolTableRecord
100
AcDbBlockTableRecord
  2
*X42
  0
BLOCK_RECORD
  5
21D3D
330
1
100
AcDbSymbolTableRecord
100
AcDbBlockTableRecord
  2
*X43
  0
BLOCK_RECORD
  5
21D7A
330
1
100
AcDbSymbolTableRecord
100
AcDbBlockTableRecord
  2
*X44
  0
BLOCK_RECORD
  5
21DBA
330
1
100
AcDbSymbolTableRecord
100
AcDbBlockTableRecord
  2
*X45
  0
ENDTAB
  0
ENDSEC
  0
SECTION
  2
BLOCKS
  0
BLOCK
  5
19
330
18
100
AcDbEntity
  8
0
100
AcDbBlockBegin
  2
*MODEL_SPACE
 70
     0
 10
0.0
 20
0.0
 30
0.0
  3
*MODEL_SPACE
  1

  0
ENDBLK
  5
1A
330
18
100
AcDbEntity
  8
0
100
AcDbBlockEnd
  0
BLOCK
  5
16
330
15
100
AcDbEntity
 67
     1
  8
0
100
AcDbBlockBegin
  2
*PAPER_SPACE
 70
     0
 10
0.0
 20
0.0
 30
0.0
  3
*PAPER_SPACE
  1

  0
ENDBLK
  5
17
330
15
100
AcDbEntity
 67
     1
  8
0
100
AcDbBlockEnd
  0
BLOCK
  5
43
330
42
100
AcDbEntity
  8
0
100
AcDbBlockBegin
  2
_OPEN30
 70
     0
 10
0.0
 20
0.0
 30
0.0
  3
_OPEN30
  1

  0
LINE
  5
44
330
42
100
AcDbEntity
  8
0
  6
BYBLOCK
 62
     0
100
AcDbLine
 10
-1.0
 20
0.26794919
 30
0.0
 11
0.0
 21
0.0
 31
0.0
  0
LINE
  5
45
330
42
100
AcDbEntity
  8
0
  6
BYBLOCK
 62
     0
100
AcDbLine
 10
0.0
 20
0.0
 30
0.0
 11
-1.0
 21
-0.26794919
 31
0.0
  0
LINE
  5
46
330
42
100
AcDbEntity
  8
0
  6
BYBLOCK
 62
     0
100
AcDbLine
 10
0.0
 20
0.0
 30
0.0
 11
-1.0
 21
0.0
 31
0.0
  0
ENDBLK
  5
47
330
42
100
AcDbEntity
  8
0
100
AcDbBlockEnd
  0
BLOCK
  5
205D5
330
1FEC9
100
AcDbEntity
  8
0
100
AcDbBlockBegin
  2
A3WAKUKAWAJUN2017_HYOUDAI_
 70
     0
 10
0.0
 20
0.0
 30
0.0
  3
A3WAKUKAWAJUN2017_HYOUDAI_
  1

  0
LINE
  5
1FECB
330
1FEC9
100
AcDbEntity
  8
0
100
AcDbLine
 10
13.26299999998673
 20
-0.0001000000000317
 30
0.0
 11
9.236999999990758
 21
8.999899999990987
 31
0.0
1001
ACAD
1000
ASC_BOUNDS
1002
{
1070
    19
1005
1FF0C
1002
}
  0
LINE
  5
1FECC
330
1FEC9
100
AcDbEntity
  8
0
100
AcDbLine
 10
5.657999999994331
 20
0.9999999999989768
 30
0.0
 11
9.236999999990758
 21
8.999999999991019
 31
0.0
1001
ACAD
1000
ASC_BOUNDS
1002
{
1070
    19
1005
1FF0C
1002
}
  0
LINE
  5
1FECD
330
1FEC9
100
AcDbEntity
  8
0
100
AcDbLine
 10
18.59199999998134
 20
-0.2368999999997641
 30
0.0
 11
16.46099999998353
 21
5.432899999994561
 31
0.0
1001
ACAD
1000
ASC_BOUNDS
1002
{
1070
    19
1005
1FF0D
1002
}
  0
LINE
  5
1FECE
330
1FEC9
100
AcDbEntity
  8
0
100
AcDbLine
 10
18.59199999998134
 20
-0.2368999999997641
 30
0.0
 11
22.38199999997767
 21
8.763099999991255
 31
0.0
1001
ACAD
1000
ASC_BOUNDS
1002
{
1070
    19
1005
1FF0D
1002
}
  0
LINE
  5
1FECF
330
1FEC9
100
AcDbEntity
  8
0
100
AcDbLine
 10
14.32899999998563
 20
-0.2368999999997641
 30
0.0
 11
16.46099999998353
 21
5.432899999994561
 31
0.0
1001
ACAD
1000
ASC_BOUNDS
1002
{
1070
    19
1005
1FF0D
1002
}
  0
LINE
  5
1FED0
330
1FEC9
100
AcDbEntity
  8
0
100
AcDbLine
 10
14.32899999998563
 20
-0.2368999999997641
 30
0.0
 11
10.53899999998941
 21
8.763099999991255
 31
0.0
1001
ACAD
1000
ASC_BOUNDS
1002
{
1070
    19
1005
1FF0D
1002
}
  0
LINE
  5
1FED1
330
1FEC9
100
AcDbEntity
  8
0
100
AcDbLine
 10
19.53899999998043
 20
-0.0001000000000317
 30
0.0
 11
23.56599999997638
 21
8.999899999990987
 31
0.0
1001
ACAD
1000
ASC_BOUNDS
1002
{
1070
    19
1005
1FF0E
1002
}
  0
LINE
  5
1FED2
330
1FEC9
100
AcDbEntity
  8
0
100
AcDbLine
 10
26.97358892824991
 20
1.383099999991202
 30
0.0
 11
23.56599999997638
 21
8.999899999990987
 31
0.0
1001
ACAD
1000
ASC_BOUNDS
1002
{
1070
    19
1005
1FF0E
1002
}
  0
LINE
  5
1FED3
330
1FEC9
100
AcDbEntity
  8
0
100
AcDbLine
 10
5.657999999994331
 20
0.9999999999989768
 30
0.0
 11
3.181999999996833
 21
4.668599999995308
 31
0.0
1001
ACAD
1000
ASC_BOUNDS
1002
{
1070
    19
1005
1FF0C
1002
}
  0
LINE
  5
1FED4
330
1FEC9
100
AcDbEntity
  8
0
100
AcDbLine
 10
4.617999999995391
 20
-0.0001000000000317
 30
0.0
 11
1.420999999998571
 21
4.736799999995242
 31
0.0
1001
ACAD
1000
ASC_BOUNDS
1002
{
1070
    19
1005
1FF0C
1002
}
  0
LINE
  5
1FED5
330
1FEC9
100
AcDbEntity
  8
0
100
AcDbLine
 10
1.420999999998571
 20
8.763099999991255
 30
0.0
 11
1.420999999998571
 21
0.0
 31
0.0
1001
ACAD
1000
ASC_BOUNDS
1002
{
1070
    19
1005
1FF11
1002
}
  0
LINE
  5
1FED6
330
1FEC9
100
AcDbEntity
  8
0
100
AcDbLine
 10
0.0
 20
8.763099999991255
 30
0.0
 11
0.0
 21
0.0
 31
0.0
1001
ACAD
1000
ASC_BOUNDS
1002
{
1070
    19
1005
1FF11
1002
}
  0
LINE
  5
1FED7
330
1FEC9
100
AcDbEntity
  8
0
100
AcDbLine
 10
6.766999999993232
 20
-0.0001000000000317
 30
0.0
 11
7.826999999992154
 21
2.368399999997621
 31
0.0
1001
ACAD
1000
ASC_BOUNDS
1002
{
1070
    19
1005
1FF0C
1002
}
  0
LINE
  5
1FED8
330
1FEC9
100
AcDbEntity
  8
0
100
AcDbLine
 10
0.0
 20
0.0
 30
0.0
 11
1.420999999998571
 21
0.0
 31
0.0
1001
ACAD
1000
ASC_BOUNDS
1002
{
1070
    19
1005
1FF11
1002
}
  0
LINE
  5
1FED9
330
1FEC9
100
AcDbEntity
  8
0
100
AcDbLine
 10
4.617999999995391
 20
0.0
 30
0.0
 11
6.766999999993232
 21
0.0
 31
0.0
1001
ACAD
1000
ASC_BOUNDS
1002
{
1070
    19
1005
1FF0C
1002
}
  0
LINE
  5
1FEDA
330
1FEC9
100
AcDbEntity
  8
0
100
AcDbLine
 10
11.70599999998831
 20
-0.0001000000000317
 30
0.0
 11
10.64699999998936
 21
2.368399999997621
 31
0.0
1001
ACAD
1000
ASC_BOUNDS
1002
{
1070
    19
1005
1FF0C
1002
}
  0
LINE
  5
1FEDB
330
1FEC9
100
AcDbEntity
  8
0
100
AcDbLine
 10
7.826999999992154
 20
2.368399999997621
 30
0.0
 11
10.64699999998936
 21
2.368399999997621
 31
0.0
1001
ACAD
1000
ASC_BOUNDS
1002
{
1070
    19
1005
1FF0C
1002
}
  0
LINE
  5
1FEDC
330
1FEC9
100
AcDbEntity
  8
0
100
AcDbLine
 10
11.70599999998831
 20
0.0
 30
0.0
 11
13.26299999998673
 21
0.0
 31
0.0
1001
ACAD
1000
ASC_BOUNDS
1002
{
1070
    19
1005
1FF0C
1002
}
  0
LINE
  5
1FEDD
330
1FEC9
100
AcDbEntity
  8
0
100
AcDbLine
 10
22.15599999997789
 20
2.368399999997621
 30
0.0
 11
24.97599999997499
 21
2.368399999997621
 31
0.0
1001
ACAD
1000
ASC_BOUNDS
1002
{
1070
    19
1005
1FF0E
1002
}
  0
LINE
  5
1FEDE
330
1FEC9
100
AcDbEntity
  8
0
100
AcDbLine
 10
19.53899999998043
 20
0.0
 30
0.0
 11
21.09599999997886
 21
0.0
 31
0.0
1001
ACAD
1000
ASC_BOUNDS
1002
{
1070
    19
1005
1FF0E
1002
}
  0
LINE
  5
1FEDF
330
1FEC9
100
AcDbEntity
  8
0
100
AcDbLine
 10
21.09599999997886
 20
-0.0001000000000317
 30
0.0
 11
22.15599999997789
 21
2.368399999997621
 31
0.0
1001
ACAD
1000
ASC_BOUNDS
1002
{
1070
    19
1005
1FF0E
1002
}
  0
LINE
  5
1FEE0
330
1FEC9
100
AcDbEntity
  8
0
100
AcDbLine
 10
26.02015566812236
 20
0.0330999999912365
 30
0.0
 11
24.97599999997499
 21
2.368399999997621
 31
0.0
1001
ACAD
1000
ASC_BOUNDS
1002
{
1070
    19
1005
1FF0E
1002
}
  0
LINE
  5
1FEE1
330
1FEC9
100
AcDbEntity
  8
0
100
AcDbLine
 10
14.32399999998563
 20
3.315799999996671
 30
0.0
 11
16.46099999998353
 21
8.999899999990987
 31
0.0
1001
ACAD
1000
ASC_BOUNDS
1002
{
1070
    19
1005
1FF0D
1002
}
  0
LINE
  5
1FEE2
330
1FEC9
100
AcDbEntity
  8
0
100
AcDbLine
 10
6.432999999993513
 20
8.763099999991255
 30
0.0
 11
3.181999999996833
 21
4.668599999995308
 31
0.0
1001
ACAD
1000
ASC_BOUNDS
1002
{
1070
    19
1005
1FF0C
1002
}
  0
LINE
  5
1FEE3
330
1FEC9
100
AcDbEntity
  8
0
100
AcDbLine
 10
4.617999999995391
 20
8.763099999991255
 30
0.0
 11
1.420999999998571
 21
4.736799999995242
 31
0.0
1001
ACAD
1000
ASC_BOUNDS
1002
{
1070
    19
1005
1FF0C
1002
}
  0
LINE
  5
1FEE4
330
1FEC9
100
AcDbEntity
  8
0
100
AcDbLine
 10
0.0
 20
8.763099999991255
 30
0.0
 11
1.420999999998571
 21
8.763099999991255
 31
0.0
1001
ACAD
1000
ASC_BOUNDS
1002
{
1070
    19
1005
1FF11
1002
}
  0
LINE
  5
1FEE5
330
1FEC9
100
AcDbEntity
  8
0
100
AcDbLine
 10
4.617999999995391
 20
8.763099999991255
 30
0.0
 11
6.432999999993513
 21
8.763099999991255
 31
0.0
1001
ACAD
1000
ASC_BOUNDS
1002
{
1070
    19
1005
1FF0C
1002
}
  0
LINE
  5
1FEE6
330
1FEC9
100
AcDbEntity
  8
0
100
AcDbLine
 10
14.32399999998563
 20
3.315799999996671
 30
0.0
 11
12.02999999998792
 21
8.763099999991255
 31
0.0
1001
ACAD
1000
ASC_BOUNDS
1002
{
1070
    19
1005
1FF0D
1002
}
  0
LINE
  5
1FEE7
330
1FEC9
100
AcDbEntity
  8
0
100
AcDbLine
 10
10.06399999998996
 20
3.670999999996297
 30
0.0
 11
9.236999999990758
 21
5.5200999999945
 31
0.0
1001
ACAD
1000
ASC_BOUNDS
1002
{
1070
    19
1005
1FF0C
1002
}
  0
LINE
  5
1FEE8
330
1FEC9
100
AcDbEntity
  8
0
100
AcDbLine
 10
8.409999999991555
 20
3.670999999996297
 30
0.0
 11
9.236999999990758
 21
5.5200999999945
 31
0.0
1001
ACAD
1000
ASC_BOUNDS
1002
{
1070
    19
1005
1FF0C
1002
}
  0
LINE
  5
1FEE9
330
1FEC9
100
AcDbEntity
  8
0
100
AcDbLine
 10
8.409999999991555
 20
3.670999999996297
 30
0.0
 11
10.06399999998996
 21
3.670999999996297
 31
0.0
1001
ACAD
1000
ASC_BOUNDS
1002
{
1070
    19
1005
1FF0C
1002
}
  0
LINE
  5
1FEEA
330
1FEC9
100
AcDbEntity
  8
0
100
AcDbLine
 10
10.53899999998941
 20
8.763099999991255
 30
0.0
 11
12.02999999998792
 21
8.763099999991255
 31
0.0
1001
ACAD
1000
ASC_BOUNDS
1002
{
1070
    19
1005
1FF0D
1002
}
  0
LINE
  5
1FEEB
330
1FEC9
100
AcDbEntity
  8
0
100
AcDbLine
 10
22.7389999999773
 20
3.670999999996297
 30
0.0
 11
23.56599999997638
 21
5.5200999999945
 31
0.0
1001
ACAD
1000
ASC_BOUNDS
1002
{
1070
    19
1005
1FF0E
1002
}
  0
LINE
  5
1FEEC
330
1FEC9
100
AcDbEntity
  8
0
100
AcDbLine
 10
22.7389999999773
 20
3.670999999996297
 30
0.0
 11
24.39299999997559
 21
3.670999999996297
 31
0.0
1001
ACAD
1000
ASC_BOUNDS
1002
{
1070
    19
1005
1FF0E
1002
}
  0
LINE
  5
1FEED
330
1FEC9
100
AcDbEntity
  8
0
100
AcDbLine
 10
18.59799999998143
 20
3.315799999996671
 30
0.0
 11
20.89099999997916
 21
8.763099999991255
 31
0.0
1001
ACAD
1000
ASC_BOUNDS
1002
{
1070
    19
1005
1FF0D
1002
}
  0
LINE
  5
1FEEE
330
1FEC9
100
AcDbEntity
  8
0
100
AcDbLine
 10
18.59799999998143
 20
3.315799999996671
 30
0.0
 11
16.46099999998353
 21
8.999899999990987
 31
0.0
1001
ACAD
1000
ASC_BOUNDS
1002
{
1070
    19
1005
1FF0D
1002
}
  0
LINE
  5
1FEEF
330
1FEC9
100
AcDbEntity
  8
0
100
AcDbLine
 10
20.89099999997916
 20
8.763099999991255
 30
0.0
 11
22.38199999997767
 21
8.763099999991255
 31
0.0
1001
ACAD
1000
ASC_BOUNDS
1002
{
1070
    19
1005
1FF0D
1002
}
  0
LINE
  5
1FEF0
330
1FEC9
100
AcDbEntity
  8
0
100
AcDbLine
 10
24.39299999997559
 20
3.670999999996297
 30
0.0
 11
23.56599999997638
 21
5.5200999999945
 31
0.0
1001
ACAD
1000
ASC_BOUNDS
1002
{
1070
    19
1005
1FF0E
1002
}
  0
LINE
  5
1FEF1
330
1FEC9
100
AcDbEntity
  8
0
100
AcDbLine
 10
44.99999999995498
 20
-0.2368999999997641
 30
0.0
 11
40.02599999995994
 21
5.341799999994635
 31
0.0
1001
ACAD
1000
ASC_BOUNDS
1002
{
1070
    19
1005
1FF10
1002
}
  0
LINE
  5
1FEF2
330
1FEC9
100
AcDbEntity
  8
0
100
AcDbLine
 10
40.02599999995994
 20
5.341799999994635
 30
0.0
 11
40.02599999995994
 21
0.0
 31
0.0
1001
ACAD
1000
ASC_BOUNDS
1002
{
1070
    19
1005
1FF10
1002
}
  0
LINE
  5
1FEF3
330
1FEC9
100
AcDbEntity
  8
0
100
AcDbLine
 10
38.60499999996136
 20
8.999999999991019
 30
0.0
 11
38.60499999996136
 21
0.0
 31
0.0
1001
ACAD
1000
ASC_BOUNDS
1002
{
1070
    19
1005
1FF10
1002
}
  0
LINE
  5
1FEF4
330
1FEC9
100
AcDbEntity
  8
0
100
AcDbLine
 10
44.99999999995498
 20
8.763099999991255
 30
0.0
 11
44.99999999995498
 21
-0.2368999999997641
 31
0.0
1001
ACAD
1000
ASC_BOUNDS
1002
{
1070
    19
1005
1FF10
1002
}
  0
LINE
  5
1FEF5
330
1FEC9
100
AcDbEntity
  8
0
100
AcDbLine
 10
38.60499999996136
 20
0.0
 30
0.0
 11
40.02599999995994
 21
0.0
 31
0.0
1001
ACAD
1000
ASC_BOUNDS
1002
{
1070
    19
1005
1FF10
1002
}
  0
LINE
  5
1FEF6
330
1FEC9
100
AcDbEntity
  8
0
100
AcDbLine
 10
43.57899999995641
 20
3.421199999996588
 30
0.0
 11
38.60499999996136
 21
8.999899999990987
 31
0.0
1001
ACAD
1000
ASC_BOUNDS
1002
{
1070
    19
1005
1FF10
1002
}
  0
LINE
  5
1FEF7
330
1FEC9
100
AcDbEntity
  8
0
100
AcDbLine
 10
43.57899999995641
 20
8.763099999991255
 30
0.0
 11
43.57899999995641
 21
3.421199999996588
 31
0.0
1001
ACAD
1000
ASC_BOUNDS
1002
{
1070
    19
1005
1FF10
1002
}
  0
LINE
  5
1FEF8
330
1FEC9
100
AcDbEntity
  8
0
100
AcDbLine
 10
43.57899999995641
 20
8.763099999991255
 30
0.0
 11
44.99999999995498
 21
8.763099999991255
 31
0.0
1001
ACAD
1000
ASC_BOUNDS
1002
{
1070
    19
1005
1FF10
1002
}
  0
LINE
  5
1FEF9
330
1FEC9
100
AcDbEntity
  8
0
100
AcDbLine
 10
37.67199999996831
 20
8.763099999991255
 30
0.0
 11
36.23199999996837
 21
8.763099999991255
 31
0.0
  0
LINE
  5
1FEFA
330
1FEC9
100
AcDbEntity
  8
0
100
AcDbLine
 10
31.64199999996833
 20
8.763099999991255
 30
0.0
 11
31.64199999996833
 21
2.481619422925121
 31
0.0
  0
LINE
  5
1FEFB
330
1FEC9
100
AcDbEntity
  8
0
100
AcDbLine
 10
37.67199999996831
 20
8.763099999991255
 30
0.0
 11
37.67199999996831
 21
2.481619422925121
 31
0.0
  0
LINE
  5
1FEFC
330
1FEC9
100
AcDbEntity
  8
0
100
AcDbLine
 10
36.23199999996837
 20
8.763099999991255
 30
0.0
 11
36.23199999996837
 21
2.481619422925064
 31
0.0
  0
LINE
  5
1FEFD
330
1FEC9
100
AcDbEntity
  8
0
100
AcDbLine
 10
33.08199999996839
 20
8.763099999991255
 30
0.0
 11
33.08199999996839
 21
2.481619422925121
 31
0.0
  0
ARC
  5
1FEFE
330
1FEC9
100
AcDbEntity
  8
0
100
AcDbCircle
 10
34.65699999996832
 20
3.183099999991214
 30
0.0
 40
3.420000000000007
100
AcDbArc
 50
240.0000000000255
 51
299.9999999999766
  0
ARC
  5
1FEFF
330
1FEC9
100
AcDbEntity
  8
0
100
AcDbCircle
 10
34.65699999996832
 20
3.183099999991214
 30
0.0
 40
1.97999999999999
100
AcDbArc
 50
240.000000000026
 51
299.9999999999703
  0
LINE
  5
1FF00
330
1FEC9
100
AcDbEntity
  8
0
100
AcDbLine
 10
33.08199999996828
 20
8.763099999991255
 30
0.0
 11
31.64199999996833
 21
8.763099999991255
 31
0.0
  0
ARC
  5
1FF01
330
1FEC9
100
AcDbEntity
  8
0
100
AcDbCircle
 10
35.06199999996829
 20
2.481619422925064
 30
0.0
 40
1.17
100
AcDbArc
 50
299.9999999999699
 51
0.0
  0
ARC
  5
1FF02
330
1FEC9
100
AcDbEntity
  8
0
100
AcDbCircle
 10
34.25199999996835
 20
2.481619422925121
 30
0.0
 40
1.17
100
AcDbArc
 50
180.0
 51
240.0000000000238
  0
ARC
  5
1FF03
330
1FEC9
100
AcDbEntity
  8
0
100
AcDbCircle
 10
35.06199999996841
 20
2.481619422925121
 30
0.0
 40
2.61
100
AcDbArc
 50
299.9999999999756
 51
0.0
  0
ARC
  5
1FF04
330
1FEC9
100
AcDbEntity
  8
0
100
AcDbCircle
 10
34.25199999996835
 20
2.481619422925121
 30
0.0
 40
2.61
100
AcDbArc
 50
180.0
 51
240.0000000000244
  0
LINE
  5
1FF05
330
1FEC9
100
AcDbEntity
  8
0
100
AcDbLine
 10
29.30199999996933
 20
8.763099999991255
 30
0.0
 11
30.74199999996927
 21
8.763099999991255
 31
0.0
1001
ACAD
1000
ASC_BOUNDS
1002
{
1070
    19
1005
1FF0E
1002
}
  0
LINE
  5
1FF06
330
1FEC9
100
AcDbEntity
  8
0
100
AcDbLine
 10
30.74199999996927
 20
8.763099999991255
 30
0.0
 11
30.74199999996927
 21
2.373099999991211
 31
0.0
1001
ACAD
1000
ASC_BOUNDS
1002
{
1070
    19
1005
1FF0E
1002
}
  0
LINE
  5
1FF07
330
1FEC9
100
AcDbEntity
  8
0
100
AcDbLine
 10
26.02015566812236
 20
0.0330999999912365
 30
0.0
 11
28.40199999996923
 21
0.0330999999912365
 31
0.0
1001
ACAD
1000
ASC_BOUNDS
1002
{
1070
    19
1005
1FF0E
1002
}
  0
LINE
  5
1FF08
330
1FEC9
100
AcDbEntity
  8
0
100
AcDbLine
 10
29.30199999996933
 20
8.763099999991255
 30
0.0
 11
29.30199999996933
 21
2.283099999991236
 31
0.0
1001
ACAD
1000
ASC_BOUNDS
1002
{
1070
    19
1005
1FF0E
1002
}
  0
LINE
  5
1FF09
330
1FEC9
100
AcDbEntity
  8
0
100
AcDbLine
 10
26.97358892824991
 20
1.383099999991202
 30
0.0
 11
28.40199999996923
 21
1.383099999991202
 31
0.0
1001
ACAD
1000
ASC_BOUNDS
1002
{
1070
    19
1005
1FF0E
1002
}
  0
ARC
  5
1FF0A
330
1FEC9
100
AcDbEntity
  8
0
100
AcDbCircle
 10
28.40199999996923
 20
2.283099999991236
 30
0.0
 40
0.9
100
AcDbArc
 50
270.0
 51
0.0
1001
ACAD
1000
ASC_BOUNDS
1002
{
1070
    19
1005
1FF0E
1002
}
  0
ARC
  5
1FF0B
330
1FEC9
100
AcDbEntity
  8
0
100
AcDbCircle
 10
28.40199999996923
 20
2.373099999991211
 30
0.0
 40
2.34
100
AcDbArc
 50
270.0
 51
0.0
1001
ACAD
1000
ASC_BOUNDS
1002
{
1070
    19
1005
1FF0E
1002
}
  0
INSERT
  5
1FF0C
330
1FEC9
100
AcDbEntity
  8
0
100
AcDbBlockReference
  2
*X40
 10
0.0
 20
0.0
 30
0.0
1001
ACAD
1000
HATCH
1002
{
1070
    19
1000
ANSI37
1040
0.15
1040
0.0
1000
ASC_BOUNDS
1070
     2
1070
     2
1070
    12
1005
1FECB
1005
1FECC
1005
1FED3
1005
1FEE2
1005
1FEE5
1005
1FEE3
1005
1FED4
1005
1FED9
1005
1FED7
1005
1FEDB
1005
1FEDA
1005
1FEDC
1070
     2
1070
     3
1005
1FEE7
1005
1FEE9
1005
1FEE8
1000
ASC_SEEDPOINT
1011
3.614004224891801
1021
2.996669441146025
1031
0.0
1000
R14_HATCH_DATA
1000
1FF0C
1011
1.0
1021
0.0
1031
0.0
1011
0.0
1021
1.0
1031
0.0
1011
0.0
1021
0.0
1031
1.0
1040
0.0
1010
0.0
1020
0.0
1030
1.0
1000
ANSI37
1070
     0
1070
     1
1071
        2
1071
        7
1070
     0
1070
     1
1071
       17
1040
13.26299999998673
1040
-0.0001000000000317
1040
9.236999999990758
1040
8.999899999990987
1040
9.236999999990758
1040
8.999999999991019
1040
5.657999999994331
1040
0.9999999999989768
1040
3.181999999996833
1040
4.668599999995308
1040
6.432999999993513
1040
8.763099999991255
1040
4.617999999995391
1040
8.763099999991255
1040
1.420999999998571
1040
4.736799999995242
1040
4.617999999995391
1040
-0.0001000000000317
1040
4.617999999995391
1040
0.0
1040
6.766999999993232
1040
0.0
1040
6.766999999993232
1040
-0.0001000000000317
1040
7.826999999992154
1040
2.368399999997621
1040
10.64699999998936
1040
2.368399999997621
1040
11.70599999998831
1040
-0.0001000000000317
1040
11.70599999998831
1040
0.0
1040
13.26299999998673
1040
0.0
1071
       12
1005
1FECB
1005
1FECC
1005
1FED3
1005
1FEE2
1005
1FEE5
1005
1FEE3
1005
1FED4
1005
1FED9
1005
1FED7
1005
1FEDB
1005
1FEDA
1005
1FEDC
1071
       22
1070
     0
1070
     1
1071
        3
1040
9.236999999990758
1040
5.5200999999945
1040
10.06399999998996
1040
3.670999999996297
1040
8.409999999991555
1040
3.670999999996297
1071
        3
1005
1FEE7
1005
1FEE9
1005
1FEE8
1070
     0
1070
     1
1040
0.0
1040
0.15
1070
     0
1070
     2
1040
0.7853981633974483
1040
49.29960901727088
1040
-10.17736998311392
1040
-0.3367596045400932
1040
0.3367596045400932
1070
     0
1040
2.356194490192345
1040
49.29960901727088
1040
-10.17736998311392
1040
-0.3367596045400932
1040
-0.3367596045400932
1070
     0
1040
0.0110235143455945
1071
        2
1040
3.614004224891801
1040
2.996669441146025
1040
0.0
1040
3.614004224891801
1040
2.996669441146025
1040
0.0
1002
}
  0
INSERT
  5
1FF0D
330
1FEC9
100
AcDbEntity
  8
0
100
AcDbBlockReference
  2
*X41
 10
0.0
 20
0.0
 30
0.0
1001
ACAD
1000
HATCH
1002
{
1070
    19
1000
ANSI37
1040
0.15
1040
0.0
1000
ASC_BOUNDS
1070
     1
1070
     2
1070
    10
1005
1FECD
1005
1FECE
1005
1FEEF
1005
1FEED
1005
1FEEE
1005
1FEE1
1005
1FEE6
1005
1FEEA
1005
1FED0
1005
1FECF
1000
ASC_SEEDPOINT
1011
14.73245321214324
1021
2.798246178283421
1031
0.0
1000
R14_HATCH_DATA
1000
1FF0D
1011
1.0
1021
0.0
1031
0.0
1011
0.0
1021
1.0
1031
0.0
1011
0.0
1021
0.0
1031
1.0
1040
0.0
1010
0.0
1020
0.0
1030
1.0
1000
ANSI37
1070
     0
1070
     1
1071
        1
1071
        7
1070
     0
1070
     1
1071
       10
1040
16.46099999998353
1040
5.432899999994561
1040
18.59199999998134
1040
-0.2368999999997641
1040
22.38199999997767
1040
8.763099999991255
1040
20.89099999997916
1040
8.763099999991255
1040
18.59799999998143
1040
3.315799999996671
1040
16.46099999998353
1040
8.999899999990987
1040
14.32399999998563
1040
3.315799999996671
1040
12.02999999998792
1040
8.763099999991255
1040
10.53899999998941
1040
8.763099999991255
1040
14.32899999998563
1040
-0.2368999999997641
1071
       10
1005
1FECD
1005
1FECE
1005
1FEEF
1005
1FEED
1005
1FEEE
1005
1FEE1
1005
1FEE6
1005
1FEEA
1005
1FED0
1005
1FECF
1070
     0
1070
     1
1040
0.0
1040
0.15
1070
     0
1070
     2
1040
0.7853981633974483
1040
49.29960901727088
1040
-10.17736998311392
1040
-0.3367596045400932
1040
0.3367596045400932
1070
     0
1040
2.356194490192345
1040
49.29960901727088
1040
-10.17736998311392
1040
-0.3367596045400932
1040
-0.3367596045400932
1070
     0
1040
0.0110235143455945
1071
        1
1040
14.73245321214324
1040
2.798246178283421
1040
0.0
1002
}
  0
INSERT
  5
1FF0E
330
1FEC9
100
AcDbEntity
  8
0
100
AcDbBlockReference
  2
*X42
 10
0.0
 20
0.0
 30
0.0
1001
ACAD
1000
HATCH
1002
{
1070
    19
1000
ANSI37
1040
0.15
1040
0.0
1000
ASC_BOUNDS
1070
     2
1070
     2
1070
    13
1005
1FED1
1005
1FEDE
1005
1FEDF
1005
1FEDD
1005
1FEE0
1005
1FF07
1005
1FF0B
1005
1FF06
1005
1FF05
1005
1FF08
1005
1FF0A
1005
1FF09
1005
1FED2
1070
     2
1070
     3
1005
1FEEB
1005
1FEF0
1005
1FEEC
1000
ASC_SEEDPOINT
1011
21.97929957367762
1021
3.294304244259308
1031
0.0
1000
R14_HATCH_DATA
1000
1FF0E
1011
1.0
1021
0.0
1031
0.0
1011
0.0
1021
1.0
1031
0.0
1011
0.0
1021
0.0
1031
1.0
1040
0.0
1010
0.0
1020
0.0
1030
1.0
1000
ANSI37
1070
     0
1070
     1
1071
        2
1071
        7
1070
     1
1070
     1
1071
       15
1040
23.56599999997638
1040
8.999899999990987
1040
0.0
1040
19.53899999998043
1040
-0.0001000000000317
1040
0.0
1040
19.53899999998043
1040
0.0
1040
0.0
1040
21.09599999997886
1040
0.0
1040
0.0
1040
21.09599999997886
1040
-0.0001000000000317
1040
0.0
1040
22.15599999997789
1040
2.368399999997621
1040
0.0
1040
24.97599999997499
1040
2.368399999997621
1040
0.0
1040
26.02015566812236
1040
0.0330999999912365
1040
0.0
1040
28.40199999996923
1040
0.0330999999912365
1040
0.414213562373095
1040
30.74199999996923
1040
2.373099999991211
1040
0.0
1040
30.74199999996927
1040
8.763099999991255
1040
0.0
1040
29.30199999996933
1040
8.763099999991255
1040
0.0
1040
29.30199999996933
1040
2.283099999991236
1040
-0.414213562373095
1040
28.40199999996923
1040
1.383099999991237
1040
0.0
1040
26.97358892824991
1040
1.383099999991202
1040
0.0
1071
       13
1005
1FED1
1005
1FEDE
1005
1FEDF
1005
1FEDD
1005
1FEE0
1005
1FF07
1005
1FF0B
1005
1FF06
1005
1FF05
1005
1FF08
1005
1FF0A
1005
1FF09
1005
1FED2
1071
       22
1070
     0
1070
     1
1071
        3
1040
22.7389999999773
1040
3.670999999996297
1040
23.56599999997638
1040
5.5200999999945
1040
24.39299999997559
1040
3.670999999996297
1071
        3
1005
1FEEB
1005
1FEF0
1005
1FEEC
1070
     0
1070
     1
1040
0.0
1040
0.15
1070
     0
1070
     2
1040
0.7853981633974483
1040
49.29960901727088
1040
-10.17736998311392
1040
-0.3367596045400932
1040
0.3367596045400932
1070
     0
1040
2.356194490192345
1040
49.29960901727088
1040
-10.17736998311392
1040
-0.3367596045400932
1040
-0.3367596045400932
1070
     0
1040
0.0110235143455945
1071
        2
1040
21.97929957367762
1040
3.294304244259308
1040
0.0
1040
21.97929957367762
1040
3.294304244259308
1040
0.0
1002
}
  0
INSERT
  5
1FF0F
330
1FEC9
100
AcDbEntity
  8
0
100
AcDbBlockReference
  2
*X43
 10
0.0
 20
0.0
 30
0.0
1001
ACAD
1000
HATCH
1002
{
1070
    19
1000
ANSI37
1040
0.15
1040
0.0
1000
R14_HATCH_DATA
1000
1FF0F
1011
1.0
1021
0.0
1031
0.0
1011
0.0
1021
1.0
1031
0.0
1011
0.0
1021
0.0
1031
1.0
1040
0.0
1010
0.0
1020
0.0
1030
1.0
1000
ANSI37
1070
     0
1070
     1
1071
        1
1071
        7
1070
     1
1070
     1
1071
       12
1040
31.64199999996833
1040
2.481619422925121
1040
0.2679491924310942
1040
32.94699999997067
1040
0.2212931190493919
1040
0.2679491924301353
1040
36.36699999995983
1040
0.2212931190459813
1040
0.2679491924321411
1040
37.67199999996831
1040
2.481619422928361
1040
0.0
1040
37.67199999996831
1040
8.763099999991255
1040
0.0
1040
36.23199999996837
1040
8.763099999991255
1040
0.0
1040
36.23199999996837
1040
2.481619422925064
1040
-0.2679491924310291
1040
35.64699999996708
1040
1.468369700498386
1040
-0.267949192430519
1040
33.66699999997093
1040
1.468369700497703
1040
-0.267949192431809
1040
33.08199999996839
1040
2.481619422926997
1040
0.0
1040
33.08199999996839
1040
8.763099999991255
1040
0.0
1040
31.64199999996833
1040
8.763099999991255
1040
0.0
1071
        0
1070
     0
1070
     1
1040
0.0
1040
0.15
1070
     0
1070
     2
1040
0.7853981633974483
1040
49.29960901727088
1040
-10.17736998311392
1040
-0.3367596045400932
1040
0.3367596045400932
1070
     0
1040
2.356194490192345
1040
49.29960901727088
1040
-10.17736998311392
1040
-0.3367596045400932
1040
-0.3367596045400932
1070
     0
1040
0.0110235143455945
1071
        1
1040
32.30357378967278
1040
3.988785755459219
1040
0.0
1002
}
  0
INSERT
  5
1FF10
330
1FEC9
100
AcDbEntity
  8
0
100
AcDbBlockReference
  2
*X44
 10
0.0
 20
0.0
 30
0.0
1001
ACAD
1000
HATCH
1002
{
1070
    19
1000
ANSI37
1040
0.15
1040
0.0
1000
ASC_BOUNDS
1070
     1
1070
     2
1070
     8
1005
1FEF1
1005
1FEF4
1005
1FEF8
1005
1FEF7
1005
1FEF6
1005
1FEF3
1005
1FEF5
1005
1FEF2
1000
ASC_SEEDPOINT
1011
39.74896370716704
1021
4.484843821435049
1031
0.0
1000
R14_HATCH_DATA
1000
1FF10
1011
1.0
1021
0.0
1031
0.0
1011
0.0
1021
1.0
1031
0.0
1011
0.0
1021
0.0
1031
1.0
1040
0.0
1010
0.0
1020
0.0
1030
1.0
1000
ANSI37
1070
     0
1070
     1
1071
        1
1071
        7
1070
     0
1070
     1
1071
        9
1040
40.02599999995994
1040
5.341799999994635
1040
44.99999999995498
1040
-0.2368999999997641
1040
44.99999999995498
1040
8.763099999991255
1040
43.57899999995641
1040
8.763099999991255
1040
43.57899999995641
1040
3.421199999996588
1040
38.60499999996136
1040
8.999899999990987
1040
38.60499999996136
1040
8.999999999991019
1040
38.60499999996136
1040
0.0
1040
40.02599999995994
1040
0.0
1071
        8
1005
1FEF1
1005
1FEF4
1005
1FEF8
1005
1FEF7
1005
1FEF6
1005
1FEF3
1005
1FEF5
1005
1FEF2
1070
     0
1070
     1
1040
0.0
1040
0.15
1070
     0
1070
     2
1040
0.7853981633974483
1040
49.29960901727088
1040
-10.17736998311392
1040
-0.3367596045400932
1040
0.3367596045400932
1070
     0
1040
2.356194490192345
1040
49.29960901727088
1040
-10.17736998311392
1040
-0.3367596045400932
1040
-0.3367596045400932
1070
     0
1040
0.0110235143455945
1071
        1
1040
39.74896370716704
1040
4.484843821435049
1040
0.0
1002
}
  0
INSERT
  5
1FF11
330
1FEC9
100
AcDbEntity
  8
0
100
AcDbBlockReference
  2
*X45
 10
0.0
 20
0.0
 30
0.0
1001
ACAD
1000
HATCH
1002
{
1070
    19
1000
ANSI37
1040
0.15
1040
0.0
1000
ASC_BOUNDS
1070
     1
1070
     2
1070
     4
1005
1FED5
1005
1FEE4
1005
1FED6
1005
1FED8
1000
ASC_SEEDPOINT
1011
1.079051535452663
1021
4.148538732891836
1031
0.0
1000
R14_HATCH_DATA
1000
1FF11
1011
1.0
1021
0.0
1031
0.0
1011
0.0
1021
1.0
1031
0.0
1011
0.0
1021
0.0
1031
1.0
1040
0.0
1010
0.0
1020
0.0
1030
1.0
1000
ANSI37
1070
     0
1070
     1
1071
        1
1071
        7
1070
     0
1070
     1
1071
        4
1040
1.420999999998571
1040
0.0
1040
1.420999999998571
1040
8.763099999991255
1040
0.0
1040
8.763099999991255
1040
0.0
1040
0.0
1071
        4
1005
1FED5
1005
1FEE4
1005
1FED6
1005
1FED8
1070
     0
1070
     1
1040
0.0
1040
0.15
1070
     0
1070
     2
1040
0.7853981633974483
1040
49.29960901727088
1040
-10.17736998311392
1040
-0.3367596045400932
1040
0.3367596045400932
1070
     0
1040
2.356194490192345
1040
49.29960901727088
1040
-10.17736998311392
1040
-0.3367596045400932
1040
-0.3367596045400932
1070
     0
1040
0.0053004257112761
1071
        1
1040
1.079051535452663
1040
4.148538732891836
1040
0.0
1002
}
  0
ENDBLK
  5
205D6
330
1FEC9
100
AcDbEntity
  8
0
100
AcDbBlockEnd
  0
BLOCK
  5
21DDA
330
21C4C
100
AcDbEntity
  8
0
100
AcDbBlockBegin
  2
*X40
 70
     1
 10
0.0
 20
0.0
 30
0.0
  3
*X40
  1

  0
LINE
  5
21C4D
330
21C4C
100
AcDbEntity
  8
0
  6
CONTINUOUS
100
AcDbLine
 10
3.418023043697893
 20
7.251849696850613
 30
0.0
 11
4.929273346838536
 21
8.763099999991255
 31
0.0
  0
LINE
  5
21C4E
330
21C4C
100
AcDbEntity
  8
0
  6
CONTINUOUS
100
AcDbLine
 10
1.483656411257782
 20
4.643963855330318
 30
0.0
 11
5.60279255591872
 21
8.763099999991255
 31
0.0
  0
LINE
  5
21C4F
330
21C4C
100
AcDbEntity
  8
0
  6
CONTINUOUS
100
AcDbLine
 10
1.755053947328235
 20
4.241842182320584
 30
0.0
 11
6.276311764998907
 21
8.763099999991255
 31
0.0
  0
LINE
  5
21C50
330
21C4C
100
AcDbEntity
  8
0
  6
CONTINUOUS
100
AcDbLine
 10
2.026451483398688
 20
3.839720509310849
 30
0.0
 11
4.441040904851878
 21
6.254309930764039
 31
0.0
  0
LINE
  5
21C51
330
21C4C
100
AcDbEntity
  8
0
  6
CONTINUOUS
100
AcDbLine
 10
2.297849019469139
 20
3.437598836301114
 30
0.0
 11
3.321765168359338
 21
4.461514985191313
 31
0.0
  0
LINE
  5
21C52
330
21C4C
100
AcDbEntity
  8
0
  6
CONTINUOUS
100
AcDbLine
 10
2.569246555539591
 20
3.03547716329138
 30
0.0
 11
3.593163397972743
 21
4.059394005724531
 31
0.0
  0
LINE
  5
21C53
330
21C4C
100
AcDbEntity
  8
0
  6
CONTINUOUS
100
AcDbLine
 10
2.840644091610043
 20
2.633355490281646
 30
0.0
 11
3.864561627586149
 21
3.657273026257751
 31
0.0
  0
LINE
  5
21C54
330
21C4C
100
AcDbEntity
  8
0
  6
CONTINUOUS
100
AcDbLine
 10
3.112041627680496
 20
2.231233817271911
 30
0.0
 11
4.135959857199554
 21
3.25515204679097
 31
0.0
  0
LINE
  5
21C55
330
21C4C
100
AcDbEntity
  8
0
  6
CONTINUOUS
100
AcDbLine
 10
3.383439163750948
 20
1.829112144262177
 30
0.0
 11
4.40735808681296
 21
2.853031067324189
 31
0.0
  0
LINE
  5
21C56
330
21C4C
100
AcDbEntity
  8
0
  6
CONTINUOUS
100
AcDbLine
 10
3.654836699821399
 20
1.426990471252442
 30
0.0
 11
4.678756316426365
 21
2.450910087857407
 31
0.0
  0
LINE
  5
21C57
330
21C4C
100
AcDbEntity
  8
0
  6
CONTINUOUS
100
AcDbLine
 10
3.926234235891853
 20
1.024868798242709
 30
0.0
 11
4.95015454603977
 21
2.048789108390626
 31
0.0
  0
LINE
  5
21C58
330
21C4C
100
AcDbEntity
  8
0
  6
CONTINUOUS
100
AcDbLine
 10
4.197631771962304
 20
0.6227471252329737
 30
0.0
 11
5.221552775653176
 21
1.646668128923846
 31
0.0
  0
LINE
  5
21C59
330
21C4C
100
AcDbEntity
  8
0
  6
CONTINUOUS
100
AcDbLine
 10
8.715877546767851
 20
7.835069736359266
 30
0.0
 11
9.435953450375058
 21
8.555145639966472
 31
0.0
  0
LINE
  5
21C5A
330
21C4C
100
AcDbEntity
  8
0
  6
CONTINUOUS
100
AcDbLine
 10
8.170620868422267
 20
6.616293848933497
 30
0.0
 11
9.644120833743461
 21
8.08979381425469
 31
0.0
  0
LINE
  5
21C5B
330
21C4C
100
AcDbEntity
  8
0
  6
CONTINUOUS
100
AcDbLine
 10
7.625364190076684
 20
5.397517961507727
 30
0.0
 11
9.852288217111864
 21
7.624441988542907
 31
0.0
  0
LINE
  5
21C5C
330
21C4C
100
AcDbEntity
  8
0
  6
CONTINUOUS
100
AcDbLine
 10
7.080107511731101
 20
4.178742074081957
 30
0.0
 11
10.06045560048027
 21
7.159090162831124
 31
0.0
  0
LINE
  5
21C5D
330
21C4C
100
AcDbEntity
  8
0
  6
CONTINUOUS
100
AcDbLine
 10
6.534850833385518
 20
2.959966186656187
 30
0.0
 11
10.26862298384867
 21
6.693738337119342
 31
0.0
  0
LINE
  5
21C5E
330
21C4C
100
AcDbEntity
  8
0
  6
CONTINUOUS
100
AcDbLine
 10
4.469029308032756
 20
0.2206254522232385
 30
0.0
 11
5.492951005266582
 21
1.244547149457064
 31
0.0
  0
LINE
  5
21C5F
330
21C4C
100
AcDbEntity
  8
0
  6
CONTINUOUS
100
AcDbLine
 10
5.989594155039935
 20
1.741190299230417
 30
0.0
 11
8.806950407233131
 21
4.558546551423613
 31
0.0
  0
LINE
  5
21C60
330
21C4C
100
AcDbEntity
  8
0
  6
CONTINUOUS
100
AcDbLine
 10
9.401251593263643
 20
5.152847737454126
 30
0.0
 11
10.47679036721708
 21
6.228386511407559
 31
0.0
  0
LINE
  5
21C61
330
21C4C
100
AcDbEntity
  8
0
  6
CONTINUOUS
100
AcDbLine
 10
4.921837203428691
 20
-0.0000858614610131
 30
0.0
 11
8.592923064886001
 21
3.670999999996297
 31
0.0
  0
LINE
  5
21C62
330
21C4C
100
AcDbEntity
  8
0
  6
CONTINUOUS
100
AcDbLine
 10
9.609390446785305
 20
4.6874673818956
 30
0.0
 11
10.68495775058548
 21
5.763034685695775
 31
0.0
  0
LINE
  5
21C63
330
21C4C
100
AcDbEntity
  8
0
  6
CONTINUOUS
100
AcDbLine
 10
5.595387755019432
 20
-0.0000545189504582
 30
0.0
 11
7.716137258923768
 21
2.120694984953879
 31
0.0
  0
LINE
  5
21C64
330
21C4C
100
AcDbEntity
  8
0
  6
CONTINUOUS
100
AcDbLine
 10
6.268938306610172
 20
-0.000023176439905
 30
0.0
 11
7.170485805526503
 21
0.9015243224764267
 31
0.0
  0
LINE
  5
21C65
330
21C4C
100
AcDbEntity
  8
0
  6
CONTINUOUS
100
AcDbLine
 10
7.963842273967511
 20
2.368399999997621
 30
0.0
 11
9.266442273966188
 21
3.670999999996297
 31
0.0
  0
LINE
  5
21C66
330
21C4C
100
AcDbEntity
  8
0
  6
CONTINUOUS
100
AcDbLine
 10
8.637361483047696
 20
2.368399999997621
 30
0.0
 11
9.939961483046375
 21
3.670999999996297
 31
0.0
  0
LINE
  5
21C67
330
21C4C
100
AcDbEntity
  8
0
  6
CONTINUOUS
100
AcDbLine
 10
9.817529300306965
 20
4.222087026337075
 30
0.0
 11
10.89312513395388
 21
5.297682859983993
 31
0.0
  0
LINE
  5
21C68
330
21C4C
100
AcDbEntity
  8
0
  6
CONTINUOUS
100
AcDbLine
 10
10.02566815382863
 20
3.756706670778549
 30
0.0
 11
11.10129251732229
 21
4.832331034272211
 31
0.0
  0
LINE
  5
21C69
330
21C4C
100
AcDbEntity
  8
0
  6
CONTINUOUS
100
AcDbLine
 10
9.310880692127883
 20
2.368399999997621
 30
0.0
 11
11.30945990069069
 21
4.366979208560428
 31
0.0
  0
LINE
  5
21C6A
330
21C4C
100
AcDbEntity
  8
0
  6
CONTINUOUS
100
AcDbLine
 10
9.98439990120807
 20
2.36839999999762
 30
0.0
 11
11.5176272840591
 21
3.901627382848645
 31
0.0
  0
LINE
  5
21C6B
330
21C4C
100
AcDbEntity
  8
0
  6
CONTINUOUS
100
AcDbLine
 10
10.65037369446246
 20
2.36085458417182
 30
0.0
 11
11.7257946674275
 21
3.436275557136862
 31
0.0
  0
LINE
  5
21C6C
330
21C4C
100
AcDbEntity
  8
0
  6
CONTINUOUS
100
AcDbLine
 10
10.85847197087848
 20
1.895433651507656
 30
0.0
 11
11.9339620507959
 21
2.97092373142508
 31
0.0
  0
LINE
  5
21C6D
330
21C4C
100
AcDbEntity
  8
0
  6
CONTINUOUS
100
AcDbLine
 10
11.0665702472945
 20
1.430012718843491
 30
0.0
 11
12.14212943416431
 21
2.505571905713296
 31
0.0
  0
LINE
  5
21C6E
330
21C4C
100
AcDbEntity
  8
0
  6
CONTINUOUS
100
AcDbLine
 10
11.27466852371052
 20
0.9645917861793256
 30
0.0
 11
12.35029681753271
 21
2.040220080001513
 31
0.0
  0
LINE
  5
21C6F
330
21C4C
100
AcDbEntity
  8
0
  6
CONTINUOUS
100
AcDbLine
 10
11.48276680012654
 20
0.4991708535151611
 30
0.0
 11
12.55846420090111
 21
1.57486825428973
 31
0.0
  0
LINE
  5
21C70
330
21C4C
100
AcDbEntity
  8
0
  6
CONTINUOUS
100
AcDbLine
 10
11.69086507654257
 20
0.0337499208509957
 30
0.0
 11
12.76663158426952
 21
1.109516428577947
 31
0.0
  0
LINE
  5
21C71
330
21C4C
100
AcDbEntity
  8
0
  6
CONTINUOUS
100
AcDbLine
 10
12.33057447873954
 20
-0.0000598860322123
 30
0.0
 11
12.97479896763792
 21
0.6441646028661663
 31
0.0
  0
LINE
  5
21C72
330
21C4C
100
AcDbEntity
  8
0
  6
CONTINUOUS
100
AcDbLine
 10
13.00413694809395
 20
-0.0000166257579952
 30
0.0
 11
13.18296635100632
 21
0.1788127771543824
 31
0.0
  0
LINE
  5
21C73
330
21C4C
100
AcDbEntity
  8
0
  6
CONTINUOUS
100
AcDbLine
 10
4.772852165289667
 20
-0.000092794222212
 30
0.0
 11
4.296495091028902
 21
0.4762642800385528
 31
0.0
  0
LINE
  5
21C74
330
21C4C
100
AcDbEntity
  8
0
  6
CONTINUOUS
100
AcDbLine
 10
5.446340034776103
 20
-0.0000614546284616
 30
0.0
 11
2.898195908335625
 21
2.548082671812017
 31
0.0
  0
LINE
  5
21C75
330
21C4C
100
AcDbEntity
  8
0
  6
CONTINUOUS
100
AcDbLine
 10
6.119827904262539
 20
-0.0000301150347113
 30
0.0
 11
1.499896725642348
 21
4.61990106358548
 31
0.0
  0
LINE
  5
21C76
330
21C4C
100
AcDbEntity
  8
0
  6
CONTINUOUS
100
AcDbLine
 10
6.775136745476159
 20
0.0181802528318542
 30
0.0
 11
5.699826040202669
 21
1.093490958105344
 31
0.0
  0
LINE
  5
21C77
330
21C4C
100
AcDbEntity
  8
0
  6
CONTINUOUS
100
AcDbLine
 10
6.983376846288489
 20
0.4834593610997118
 30
0.0
 11
5.908008617934405
 21
1.558827589453796
 31
0.0
  0
LINE
  5
21C78
330
21C4C
100
AcDbEntity
  8
0
  6
CONTINUOUS
100
AcDbLine
 10
5.377063484962296
 20
1.416253513345719
 30
0.0
 11
1.702276957014131
 21
5.091040041293883
 31
0.0
  0
LINE
  5
21C79
330
21C4C
100
AcDbEntity
  8
0
  6
CONTINUOUS
100
AcDbLine
 10
3.978745891735324
 20
3.488090315652877
 30
0.0
 11
2.000373521109399
 21
5.466462686278803
 31
0.0
  0
LINE
  5
21C7A
330
21C4C
100
AcDbEntity
  8
0
  6
CONTINUOUS
100
AcDbLine
 10
7.191616947100819
 20
0.948738469367568
 30
0.0
 11
6.11619119566614
 21
2.024164220802247
 31
0.0
  0
LINE
  5
21C7B
330
21C4C
100
AcDbEntity
  8
0
  6
CONTINUOUS
100
AcDbLine
 10
7.399857047913149
 20
1.414017577635424
 30
0.0
 11
6.324373773397875
 21
2.489500852150698
 31
0.0
  0
LINE
  5
21C7C
330
21C4C
100
AcDbEntity
  8
0
  6
CONTINUOUS
100
AcDbLine
 10
7.608097148725479
 20
1.879296685903281
 30
0.0
 11
6.53255635112961
 21
2.95483748349915
 31
0.0
  0
LINE
  5
21C7D
330
21C4C
100
AcDbEntity
  8
0
  6
CONTINUOUS
100
AcDbLine
 10
7.816337249537808
 20
2.344575794171138
 30
0.0
 11
6.740738928861345
 21
3.420174114847601
 31
0.0
  0
LINE
  5
21C7E
330
21C4C
100
AcDbEntity
  8
0
  6
CONTINUOUS
100
AcDbLine
 10
3.310241080789734
 20
4.830114335678653
 30
0.0
 11
2.298470085204666
 21
5.84188533126372
 31
0.0
  0
LINE
  5
21C7F
330
21C4C
100
AcDbEntity
  8
0
  6
CONTINUOUS
100
AcDbLine
 10
3.60832983563551
 20
5.205544789913063
 30
0.0
 11
2.596566649299935
 21
6.217307976248638
 31
0.0
  0
LINE
  5
21C80
330
21C4C
100
AcDbEntity
  8
0
  6
CONTINUOUS
100
AcDbLine
 10
3.906418590481286
 20
5.580975244147473
 30
0.0
 11
2.894663213395203
 21
6.592730621233557
 31
0.0
  0
LINE
  5
21C81
330
21C4C
100
AcDbEntity
  8
0
  6
CONTINUOUS
100
AcDbLine
 10
4.204507345327062
 20
5.956405698381884
 30
0.0
 11
3.192759777490472
 21
6.968153266218474
 31
0.0
  0
LINE
  5
21C82
330
21C4C
100
AcDbEntity
  8
0
  6
CONTINUOUS
100
AcDbLine
 10
8.466032252791512
 20
2.368399999997621
 30
0.0
 11
6.948921506593081
 21
3.885510746196053
 31
0.0
  0
LINE
  5
21C83
330
21C4C
100
AcDbEntity
  8
0
  6
CONTINUOUS
100
AcDbLine
 10
9.139551461871699
 20
2.36839999999762
 30
0.0
 11
7.157104084324816
 21
4.350847377544504
 31
0.0
  0
LINE
  5
21C84
330
21C4C
100
AcDbEntity
  8
0
  6
CONTINUOUS
100
AcDbLine
 10
4.502596100172839
 20
6.331836152616295
 30
0.0
 11
3.49085634158574
 21
7.343575911203393
 31
0.0
  0
LINE
  5
21C85
330
21C4C
100
AcDbEntity
  8
0
  6
CONTINUOUS
100
AcDbLine
 10
4.800684855018615
 20
6.707266606850705
 30
0.0
 11
3.788952905681008
 21
7.718998556188312
 31
0.0
  0
LINE
  5
21C86
330
21C4C
100
AcDbEntity
  8
0
  6
CONTINUOUS
100
AcDbLine
 10
12.18154012887317
 20
-0.0000694579236642
 30
0.0
 11
11.32140332908496
 21
0.8600673418645499
 31
0.0
  0
LINE
  5
21C87
330
21C4C
100
AcDbEntity
  8
0
  6
CONTINUOUS
100
AcDbLine
 10
12.85501608323566
 20
-0.0000262032059659
 30
0.0
 11
10.77672456435345
 21
2.078265315676246
 31
0.0
  0
LINE
  5
21C88
330
21C4C
100
AcDbEntity
  8
0
  6
CONTINUOUS
100
AcDbLine
 10
9.813070670951886
 20
2.36839999999762
 30
0.0
 11
8.51047067095321
 21
3.670999999996297
 31
0.0
  0
LINE
  5
21C89
330
21C4C
100
AcDbEntity
  8
0
  6
CONTINUOUS
100
AcDbLine
 10
10.48658988003207
 20
2.36839999999762
 30
0.0
 11
9.183989880033396
 21
3.670999999996297
 31
0.0
  0
LINE
  5
21C8A
330
21C4C
100
AcDbEntity
  8
0
  6
CONTINUOUS
100
AcDbLine
 10
8.441048632286794
 20
3.740422038662712
 30
0.0
 11
7.365286662056551
 21
4.816184008892956
 31
0.0
  0
LINE
  5
21C8B
330
21C4C
100
AcDbEntity
  8
0
  6
CONTINUOUS
100
AcDbLine
 10
8.649187485808454
 20
4.205802394221237
 30
0.0
 11
7.573469239788285
 21
5.281520640241407
 31
0.0
  0
LINE
  5
21C8C
330
21C4C
100
AcDbEntity
  8
0
  6
CONTINUOUS
100
AcDbLine
 10
5.098773609864391
 20
7.082697061085115
 30
0.0
 11
4.087049469776277
 21
8.09442120117323
 31
0.0
  0
LINE
  5
21C8D
330
21C4C
100
AcDbEntity
  8
0
  6
CONTINUOUS
100
AcDbLine
 10
5.396862364710167
 20
7.458127515319526
 30
0.0
 11
4.385146033871544
 21
8.469843846158149
 31
0.0
  0
LINE
  5
21C8E
330
21C4C
100
AcDbEntity
  8
0
  6
CONTINUOUS
100
AcDbLine
 10
13.04801363231285
 20
0.4804954567970334
 30
0.0
 11
9.85750908911358
 21
3.670999999996297
 31
0.0
  0
LINE
  5
21C8F
330
21C4C
100
AcDbEntity
  8
0
  6
CONTINUOUS
100
AcDbLine
 10
8.857326339330116
 20
4.671182749779763
 30
0.0
 11
7.781651817520021
 21
5.746857271589858
 31
0.0
  0
LINE
  5
21C90
330
21C4C
100
AcDbEntity
  8
0
  6
CONTINUOUS
100
AcDbLine
 10
5.694951119555943
 20
7.833557969553937
 30
0.0
 11
4.765409089118624
 21
8.763099999991255
 31
0.0
  0
LINE
  5
21C91
330
21C4C
100
AcDbEntity
  8
0
  6
CONTINUOUS
100
AcDbLine
 10
12.50286117236978
 20
1.699167125820288
 30
0.0
 11
9.68611877250287
 21
4.515909525687196
 31
0.0
  0
LINE
  5
21C92
330
21C4C
100
AcDbEntity
  8
0
  6
CONTINUOUS
100
AcDbLine
 10
9.065465192851777
 20
5.136563105338288
 30
0.0
 11
7.989834395251757
 21
6.21219390293831
 31
0.0
  0
LINE
  5
21C93
330
21C4C
100
AcDbEntity
  8
0
  6
CONTINUOUS
100
AcDbLine
 10
5.993039874401719
 20
8.208988423788346
 30
0.0
 11
5.43892829819881
 21
8.763099999991255
 31
0.0
  0
LINE
  5
21C94
330
21C4C
100
AcDbEntity
  8
0
  6
CONTINUOUS
100
AcDbLine
 10
11.95770871242671
 20
2.917838794843543
 30
0.0
 11
8.19801697298349
 21
6.677530534286761
 31
0.0
  0
LINE
  5
21C95
330
21C4C
100
AcDbEntity
  8
0
  6
CONTINUOUS
100
AcDbLine
 10
6.291128629247495
 20
8.584418878022756
 30
0.0
 11
6.112447507278997
 21
8.763099999991255
 31
0.0
  0
LINE
  5
21C96
330
21C4C
100
AcDbEntity
  8
0
  6
CONTINUOUS
100
AcDbLine
 10
11.41255625248364
 20
4.136510463866797
 30
0.0
 11
8.406199550715227
 21
7.142867165635211
 31
0.0
  0
LINE
  5
21C97
330
21C4C
100
AcDbEntity
  8
0
  6
CONTINUOUS
100
AcDbLine
 10
10.86740379254057
 20
5.355182132890051
 30
0.0
 11
8.614382128446962
 21
7.608203796983664
 31
0.0
  0
LINE
  5
21C98
330
21C4C
100
AcDbEntity
  8
0
  6
CONTINUOUS
100
AcDbLine
 10
10.3222513325975
 20
6.573853801913305
 30
0.0
 11
8.822564706178696
 21
8.073540428332114
 31
0.0
  0
LINE
  5
21C99
330
21C4C
100
AcDbEntity
  8
0
  6
CONTINUOUS
100
AcDbLine
 10
9.777098872654436
 20
7.792525470936562
 30
0.0
 11
9.030747283910433
 21
8.538877059680566
 31
0.0
  0
ENDBLK
  5
21DDB
330
21C4C
100
AcDbEntity
  8
0
100
AcDbBlockEnd
  0
BLOCK
  5
21DDC
330
21C9A
100
AcDbEntity
  8
0
100
AcDbBlockBegin
  2
*X41
 70
     1
 10
0.0
 20
0.0
 30
0.0
  3
*X41
  1

  0
LINE
  5
21C9B
330
21C9A
100
AcDbEntity
  8
0
  6
CONTINUOUS
100
AcDbLine
 10
10.67292308101235
 20
8.445076852443387
 30
0.0
 11
10.99094622856022
 21
8.763099999991255
 31
0.0
  0
LINE
  5
21C9C
330
21C9A
100
AcDbEntity
  8
0
  6
CONTINUOUS
100
AcDbLine
 10
10.87250383178748
 20
7.971138394138331
 30
0.0
 11
11.6644654376404
 21
8.763099999991255
 31
0.0
  0
LINE
  5
21C9D
330
21C9A
100
AcDbEntity
  8
0
  6
CONTINUOUS
100
AcDbLine
 10
11.07208458256261
 20
7.497199935833273
 30
0.0
 11
12.12126590876355
 21
8.546381262034211
 31
0.0
  0
LINE
  5
21C9E
330
21C9A
100
AcDbEntity
  8
0
  6
CONTINUOUS
100
AcDbLine
 10
11.27166533333774
 20
7.023261477528216
 30
0.0
 11
12.32085164573666
 21
8.072447789927136
 31
0.0
  0
LINE
  5
21C9F
330
21C9A
100
AcDbEntity
  8
0
  6
CONTINUOUS
100
AcDbLine
 10
11.47124608411287
 20
6.549323019223158
 30
0.0
 11
12.52043738270977
 21
7.59851431782006
 31
0.0
  0
LINE
  5
21CA0
330
21C9A
100
AcDbEntity
  8
0
  6
CONTINUOUS
100
AcDbLine
 10
11.670826834888
 20
6.075384560918101
 30
0.0
 11
12.72002311968288
 21
7.124580845712984
 31
0.0
  0
LINE
  5
21CA1
330
21C9A
100
AcDbEntity
  8
0
  6
CONTINUOUS
100
AcDbLine
 10
11.87040758566313
 20
5.601446102613043
 30
0.0
 11
12.91960885665599
 21
6.650647373605907
 31
0.0
  0
LINE
  5
21CA2
330
21C9A
100
AcDbEntity
  8
0
  6
CONTINUOUS
100
AcDbLine
 10
12.06998833643825
 20
5.127507644307986
 30
0.0
 11
13.1191945936291
 21
6.176713901498832
 31
0.0
  0
LINE
  5
21CA3
330
21C9A
100
AcDbEntity
  8
0
  6
CONTINUOUS
100
AcDbLine
 10
12.26956908721338
 20
4.65356918600293
 30
0.0
 11
13.31878033060221
 21
5.702780429391757
 31
0.0
  0
LINE
  5
21CA4
330
21C9A
100
AcDbEntity
  8
0
  6
CONTINUOUS
100
AcDbLine
 10
12.46914983798851
 20
4.179630727697873
 30
0.0
 11
13.51836606757532
 21
5.228846957284683
 31
0.0
  0
LINE
  5
21CA5
330
21C9A
100
AcDbEntity
  8
0
  6
CONTINUOUS
100
AcDbLine
 10
12.66873058876364
 20
3.705692269392816
 30
0.0
 11
13.71795180454843
 21
4.754913485177607
 31
0.0
  0
LINE
  5
21CA6
330
21C9A
100
AcDbEntity
  8
0
  6
CONTINUOUS
100
AcDbLine
 10
12.86831133953877
 20
3.231753811087759
 30
0.0
 11
13.91753754152154
 21
4.280980013070531
 31
0.0
  0
LINE
  5
21CA7
330
21C9A
100
AcDbEntity
  8
0
  6
CONTINUOUS
100
AcDbLine
 10
13.0678920903139
 20
2.757815352782702
 30
0.0
 11
14.11712327849465
 21
3.807046540963456
 31
0.0
  0
LINE
  5
21CA8
330
21C9A
100
AcDbEntity
  8
0
  6
CONTINUOUS
100
AcDbLine
 10
13.26747284108903
 20
2.283876894477644
 30
0.0
 11
14.31670901546777
 21
3.333113068856379
 31
0.0
  0
LINE
  5
21CA9
330
21C9A
100
AcDbEntity
  8
0
  6
CONTINUOUS
100
AcDbLine
 10
16.36767838827179
 20
8.751678487061342
 30
0.0
 11
16.50332410898388
 21
8.887324207773432
 31
0.0
  0
LINE
  5
21CAA
330
21C9A
100
AcDbEntity
  8
0
  6
CONTINUOUS
100
AcDbLine
 10
15.96190732182191
 20
7.67238821153127
 30
0.0
 11
16.68735328004734
 21
8.397834169756699
 31
0.0
  0
LINE
  5
21CAB
330
21C9A
100
AcDbEntity
  8
0
  6
CONTINUOUS
100
AcDbLine
 10
15.55613625537202
 20
6.593097936001196
 30
0.0
 11
16.87138245111079
 21
7.908344131739965
 31
0.0
  0
LINE
  5
21CAC
330
21C9A
100
AcDbEntity
  8
0
  6
CONTINUOUS
100
AcDbLine
 10
15.15036518892213
 20
5.513807660471122
 30
0.0
 11
17.05541162217424
 21
7.418854093723231
 31
0.0
  0
LINE
  5
21CAD
330
21C9A
100
AcDbEntity
  8
0
  6
CONTINUOUS
100
AcDbLine
 10
14.74459412247225
 20
4.434517384941048
 30
0.0
 11
17.2394407932377
 21
6.929364055706499
 31
0.0
  0
LINE
  5
21CAE
330
21C9A
100
AcDbEntity
  8
0
  6
CONTINUOUS
100
AcDbLine
 10
14.33882305602236
 20
3.355227109410975
 30
0.0
 11
17.42346996430115
 21
6.439874017689766
 31
0.0
  0
LINE
  5
21CAF
330
21C9A
100
AcDbEntity
  8
0
  6
CONTINUOUS
100
AcDbLine
 10
13.46705359186416
 20
1.809938436172586
 30
0.0
 11
16.0819338255367
 21
4.424818669845129
 31
0.0
  0
LINE
  5
21CB0
330
21C9A
100
AcDbEntity
  8
0
  6
CONTINUOUS
100
AcDbLine
 10
16.63283254238972
 20
4.975717386698149
 30
0.0
 11
17.60749913536461
 21
5.950383979673033
 31
0.0
  0
LINE
  5
21CB1
330
21C9A
100
AcDbEntity
  8
0
  6
CONTINUOUS
100
AcDbLine
 10
13.66663434263929
 20
1.335999977867529
 30
0.0
 11
15.67604797733754
 21
3.345413612565779
 31
0.0
  0
LINE
  5
21CB2
330
21C9A
100
AcDbEntity
  8
0
  6
CONTINUOUS
100
AcDbLine
 10
13.86621509341442
 20
0.8620615195624723
 30
0.0
 11
15.27016212913838
 21
2.26600855528643
 31
0.0
  0
LINE
  5
21CB3
330
21C9A
100
AcDbEntity
  8
0
  6
CONTINUOUS
100
AcDbLine
 10
16.81682257348267
 20
4.486188208710908
 30
0.0
 11
17.79152830642806
 21
5.460893941656299
 31
0.0
  0
LINE
  5
21CB4
330
21C9A
100
AcDbEntity
  8
0
  6
CONTINUOUS
100
AcDbLine
 10
17.00081260457561
 20
3.996659030723667
 30
0.0
 11
17.97555747749151
 21
4.971403903639565
 31
0.0
  0
LINE
  5
21CB5
330
21C9A
100
AcDbEntity
  8
0
  6
CONTINUOUS
100
AcDbLine
 10
20.74362343514722
 20
8.412989070375462
 30
0.0
 11
21.09373436476302
 21
8.763099999991256
 31
0.0
  0
LINE
  5
21CB6
330
21C9A
100
AcDbEntity
  8
0
  6
CONTINUOUS
100
AcDbLine
 10
20.25401257174777
 20
7.249858997895826
 30
0.0
 11
21.7672535738432
 21
8.763099999991255
 31
0.0
  0
LINE
  5
21CB7
330
21C9A
100
AcDbEntity
  8
0
  6
CONTINUOUS
100
AcDbLine
 10
14.06579584418955
 20
0.3881230612574149
 30
0.0
 11
14.86427628093921
 21
1.186603498007082
 31
0.0
  0
LINE
  5
21CB8
330
21C9A
100
AcDbEntity
  8
0
  6
CONTINUOUS
100
AcDbLine
 10
14.26537659496467
 20
-0.0858153970476412
 30
0.0
 11
14.45839043274005
 21
0.1071984407277329
 31
0.0
  0
LINE
  5
21CB9
330
21C9A
100
AcDbEntity
  8
0
  6
CONTINUOUS
100
AcDbLine
 10
17.18480263566856
 20
3.507129852736426
 30
0.0
 11
18.15958664855496
 21
4.481913865622833
 31
0.0
  0
LINE
  5
21CBA
330
21C9A
100
AcDbEntity
  8
0
  6
CONTINUOUS
100
AcDbLine
 10
17.3687926667615
 20
3.017600674749186
 30
0.0
 11
18.34361581961842
 21
3.9924238276061
 31
0.0
  0
LINE
  5
21CBB
330
21C9A
100
AcDbEntity
  8
0
  6
CONTINUOUS
100
AcDbLine
 10
19.76440170834832
 20
6.086728925416191
 30
0.0
 11
22.33924590259489
 21
8.661573119662755
 31
0.0
  0
LINE
  5
21CBC
330
21C9A
100
AcDbEntity
  8
0
  6
CONTINUOUS
100
AcDbLine
 10
19.27479084494887
 20
4.923598852936555
 30
0.0
 11
21.84929622842713
 21
7.498104236414807
 31
0.0
  0
LINE
  5
21CBD
330
21C9A
100
AcDbEntity
  8
0
  6
CONTINUOUS
100
AcDbLine
 10
17.55278269785445
 20
2.528071496761945
 30
0.0
 11
18.52764499068187
 21
3.502933789589366
 31
0.0
  0
LINE
  5
21CBE
330
21C9A
100
AcDbEntity
  8
0
  6
CONTINUOUS
100
AcDbLine
 10
18.78517998154942
 20
3.760468780456919
 30
0.0
 11
21.35934655425936
 21
6.33463535316686
 31
0.0
  0
LINE
  5
21CBF
330
21C9A
100
AcDbEntity
  8
0
  6
CONTINUOUS
100
AcDbLine
 10
17.73677272894739
 20
2.038542318774704
 30
0.0
 11
20.8693968800916
 21
5.171166469918914
 31
0.0
  0
LINE
  5
21CC0
330
21C9A
100
AcDbEntity
  8
0
  6
CONTINUOUS
100
AcDbLine
 10
17.92076276004034
 20
1.549013140787464
 30
0.0
 11
20.37944720592384
 21
4.007697586670968
 31
0.0
  0
LINE
  5
21CC1
330
21C9A
100
AcDbEntity
  8
0
  6
CONTINUOUS
100
AcDbLine
 10
18.10475279113329
 20
1.059483962800223
 30
0.0
 11
19.88949753175608
 21
2.84422870342302
 31
0.0
  0
LINE
  5
21CC2
330
21C9A
100
AcDbEntity
  8
0
  6
CONTINUOUS
100
AcDbLine
 10
18.28874282222623
 20
0.5699547848129822
 30
0.0
 11
19.39954785758832
 21
1.680759820175074
 31
0.0
  0
LINE
  5
21CC3
330
21C9A
100
AcDbEntity
  8
0
  6
CONTINUOUS
100
AcDbLine
 10
18.47273285331918
 20
0.0804256068257416
 30
0.0
 11
18.90959818342056
 21
0.517290936927127
 31
0.0
  0
LINE
  5
21CC4
330
21C9A
100
AcDbEntity
  8
0
  6
CONTINUOUS
100
AcDbLine
 10
14.3590401358224
 20
-0.1570118376323384
 30
0.0
 11
14.24903296539946
 21
-0.0470046672093929
 31
0.0
  0
LINE
  5
21CC5
330
21C9A
100
AcDbEntity
  8
0
  6
CONTINUOUS
100
AcDbLine
 10
14.54309291258661
 20
0.332454594683643
 30
0.0
 11
13.75908329123172
 21
1.116464216038529
 31
0.0
  0
LINE
  5
21CC6
330
21C9A
100
AcDbEntity
  8
0
  6
CONTINUOUS
100
AcDbLine
 10
14.72714568935081
 20
0.8219210269996244
 30
0.0
 11
13.26913361706399
 21
2.27993309928645
 31
0.0
  0
LINE
  5
21CC7
330
21C9A
100
AcDbEntity
  8
0
  6
CONTINUOUS
100
AcDbLine
 10
14.91119846611502
 20
1.311387459315606
 30
0.0
 11
12.77918394289625
 21
3.443401982534371
 31
0.0
  0
LINE
  5
21CC8
330
21C9A
100
AcDbEntity
  8
0
  6
CONTINUOUS
100
AcDbLine
 10
15.09525124287922
 20
1.800853891631587
 30
0.0
 11
12.28923426872852
 21
4.606870865782293
 31
0.0
  0
LINE
  5
21CC9
330
21C9A
100
AcDbEntity
  8
0
  6
CONTINUOUS
100
AcDbLine
 10
15.27930401964343
 20
2.290320323947569
 30
0.0
 11
11.79928459456078
 21
5.770339749030213
 31
0.0
  0
LINE
  5
21CCA
330
21C9A
100
AcDbEntity
  8
0
  6
CONTINUOUS
100
AcDbLine
 10
15.46335679640763
 20
2.77978675626355
 30
0.0
 11
14.48885470994921
 21
3.754288842721972
 31
0.0
  0
LINE
  5
21CCB
330
21C9A
100
AcDbEntity
  8
0
  6
CONTINUOUS
100
AcDbLine
 10
13.88507249233704
 20
4.358071060334137
 30
0.0
 11
11.30933492039305
 21
6.933808632278135
 31
0.0
  0
LINE
  5
21CCC
330
21C9A
100
AcDbEntity
  8
0
  6
CONTINUOUS
100
AcDbLine
 10
18.75840522805855
 20
0.1582575336928151
 30
0.0
 11
18.25383727664818
 21
0.6628254851031863
 31
0.0
  0
LINE
  5
21CCD
330
21C9A
100
AcDbEntity
  8
0
  6
CONTINUOUS
100
AcDbLine
 10
15.64740957317184
 20
3.269253188579531
 30
0.0
 11
14.67288388101266
 21
4.243778880738705
 31
0.0
  0
LINE
  5
21CCE
330
21C9A
100
AcDbEntity
  8
0
  6
CONTINUOUS
100
AcDbLine
 10
13.39509276772158
 20
5.521569994029786
 30
0.0
 11
10.81938524622531
 21
8.097277515526056
 31
0.0
  0
LINE
  5
21CCF
330
21C9A
100
AcDbEntity
  8
0
  6
CONTINUOUS
100
AcDbLine
 10
18.95798597883369
 20
0.6321959919978686
 30
0.0
 11
17.84825644852853
 21
1.741925522303024
 31
0.0
  0
LINE
  5
21CD0
330
21C9A
100
AcDbEntity
  8
0
  6
CONTINUOUS
100
AcDbLine
 10
19.15756672960882
 20
1.106134450302922
 30
0.0
 11
17.44267562040888
 21
2.821025559502861
 31
0.0
  0
LINE
  5
21CD1
330
21C9A
100
AcDbEntity
  8
0
  6
CONTINUOUS
100
AcDbLine
 10
15.83146234993604
 20
3.758719620895513
 30
0.0
 11
14.85691305207612
 21
4.733268918755439
 31
0.0
  0
LINE
  5
21CD2
330
21C9A
100
AcDbEntity
  8
0
  6
CONTINUOUS
100
AcDbLine
 10
16.01551512670025
 20
4.248186053211494
 30
0.0
 11
15.04094222313957
 21
5.222758956772172
 31
0.0
  0
LINE
  5
21CD3
330
21C9A
100
AcDbEntity
  8
0
  6
CONTINUOUS
100
AcDbLine
 10
12.90511304310612
 20
6.685068927725435
 30
0.0
 11
10.8270819708403
 21
8.763099999991255
 31
0.0
  0
LINE
  5
21CD4
330
21C9A
100
AcDbEntity
  8
0
  6
CONTINUOUS
100
AcDbLine
 10
12.41513331849066
 20
7.848567861421083
 30
0.0
 11
11.50060117992049
 21
8.763099999991255
 31
0.0
  0
LINE
  5
21CD5
330
21C9A
100
AcDbEntity
  8
0
  6
CONTINUOUS
100
AcDbLine
 10
19.35714748038395
 20
1.580072908607975
 30
0.0
 11
17.03709479228923
 21
3.900125596702697
 31
0.0
  0
LINE
  5
21CD6
330
21C9A
100
AcDbEntity
  8
0
  6
CONTINUOUS
100
AcDbLine
 10
19.55672823115909
 20
2.054011366913028
 30
0.0
 11
16.63151396416958
 21
4.979225633902534
 31
0.0
  0
LINE
  5
21CD7
330
21C9A
100
AcDbEntity
  8
0
  6
CONTINUOUS
100
AcDbLine
 10
16.19956790346445
 20
4.737652485527476
 30
0.0
 11
15.22497139420302
 21
5.712248994788904
 31
0.0
  0
LINE
  5
21CD8
330
21C9A
100
AcDbEntity
  8
0
  6
CONTINUOUS
100
AcDbLine
 10
16.38362068022866
 20
5.227118917843457
 30
0.0
 11
15.40900056526648
 21
6.201739032805637
 31
0.0
  0
LINE
  5
21CD9
330
21C9A
100
AcDbEntity
  8
0
  6
CONTINUOUS
100
AcDbLine
 10
19.75630898193422
 20
2.527949825218081
 30
0.0
 11
18.70774536448286
 21
3.576513442669441
 31
0.0
  0
LINE
  5
21CDA
330
21C9A
100
AcDbEntity
  8
0
  6
CONTINUOUS
100
AcDbLine
 10
19.95588973270936
 20
3.001888283523134
 30
0.0
 11
18.90726987211446
 21
4.050508144118028
 31
0.0
  0
LINE
  5
21CDB
330
21C9A
100
AcDbEntity
  8
0
  6
CONTINUOUS
100
AcDbLine
 10
20.15547048348449
 20
3.475826741828186
 30
0.0
 11
19.10679437974606
 21
4.524502845566614
 31
0.0
  0
LINE
  5
21CDC
330
21C9A
100
AcDbEntity
  8
0
  6
CONTINUOUS
100
AcDbLine
 10
20.35505123425962
 20
3.94976520013324
 30
0.0
 11
19.30631888737766
 21
4.998497547015201
 31
0.0
  0
LINE
  5
21CDD
330
21C9A
100
AcDbEntity
  8
0
  6
CONTINUOUS
100
AcDbLine
 10
20.55463198503475
 20
4.423703658438292
 30
0.0
 11
19.50584339500926
 21
5.472492248463787
 31
0.0
  0
LINE
  5
21CDE
330
21C9A
100
AcDbEntity
  8
0
  6
CONTINUOUS
100
AcDbLine
 10
18.37481191085755
 20
3.909446896294752
 30
0.0
 11
15.59302973632993
 21
6.691229070822371
 31
0.0
  0
LINE
  5
21CDF
330
21C9A
100
AcDbEntity
  8
0
  6
CONTINUOUS
100
AcDbLine
 10
17.96904084440766
 20
4.988737171824825
 30
0.0
 11
15.77705890739338
 21
7.180719108839104
 31
0.0
  0
LINE
  5
21CE0
330
21C9A
100
AcDbEntity
  8
0
  6
CONTINUOUS
100
AcDbLine
 10
17.56326977795777
 20
6.068027447354899
 30
0.0
 11
15.96108807845684
 21
7.670209146855838
 31
0.0
  0
LINE
  5
21CE1
330
21C9A
100
AcDbEntity
  8
0
  6
CONTINUOUS
100
AcDbLine
 10
17.15749871150789
 20
7.147317722884972
 30
0.0
 11
16.14511724952029
 21
8.15969918487257
 31
0.0
  0
LINE
  5
21CE2
330
21C9A
100
AcDbEntity
  8
0
  6
CONTINUOUS
100
AcDbLine
 10
16.751727645058
 20
8.226607998415046
 30
0.0
 11
16.32914642058374
 21
8.649189222889303
 31
0.0
  0
LINE
  5
21CE3
330
21C9A
100
AcDbEntity
  8
0
  6
CONTINUOUS
100
AcDbLine
 10
20.75421273580989
 20
4.897642116743345
 30
0.0
 11
19.70536790264086
 21
5.946486949912374
 31
0.0
  0
LINE
  5
21CE4
330
21C9A
100
AcDbEntity
  8
0
  6
CONTINUOUS
100
AcDbLine
 10
20.95379348658502
 20
5.371580575048398
 30
0.0
 11
19.90489241027246
 21
6.42048165136096
 31
0.0
  0
LINE
  5
21CE5
330
21C9A
100
AcDbEntity
  8
0
  6
CONTINUOUS
100
AcDbLine
 10
21.15337423736015
 20
5.845519033353452
 30
0.0
 11
20.10441691790406
 21
6.894476352809547
 31
0.0
  0
LINE
  5
21CE6
330
21C9A
100
AcDbEntity
  8
0
  6
CONTINUOUS
100
AcDbLine
 10
21.35295498813529
 20
6.319457491658505
 30
0.0
 11
20.30394142553566
 21
7.368471054258134
 31
0.0
  0
LINE
  5
21CE7
330
21C9A
100
AcDbEntity
  8
0
  6
CONTINUOUS
100
AcDbLine
 10
21.55253573891042
 20
6.793395949963558
 30
0.0
 11
20.50346593316726
 21
7.842465755706721
 31
0.0
  0
LINE
  5
21CE8
330
21C9A
100
AcDbEntity
  8
0
  6
CONTINUOUS
100
AcDbLine
 10
21.75211648968556
 20
7.267334408268612
 30
0.0
 11
20.70299044079886
 21
8.316460457155308
 31
0.0
  0
LINE
  5
21CE9
330
21C9A
100
AcDbEntity
  8
0
  6
CONTINUOUS
100
AcDbLine
 10
21.95169724046069
 20
7.741272866573663
 30
0.0
 11
20.9298701070431
 21
8.763099999991256
 31
0.0
  0
LINE
  5
21CEA
330
21C9A
100
AcDbEntity
  8
0
  6
CONTINUOUS
100
AcDbLine
 10
22.15127799123582
 20
8.215211324878716
 30
0.0
 11
21.60338931612328
 21
8.763099999991256
 31
0.0
  0
LINE
  5
21CEB
330
21C9A
100
AcDbEntity
  8
0
  6
CONTINUOUS
100
AcDbLine
 10
22.35085874201096
 20
8.689149783183769
 30
0.0
 11
22.27690852520347
 21
8.763099999991255
 31
0.0
  0
ENDBLK
  5
21DDD
330
21C9A
100
AcDbEntity
  8
0
100
AcDbBlockEnd
  0
BLOCK
  5
21DDE
330
21CEC
100
AcDbEntity
  8
0
100
AcDbBlockBegin
  2
*X42
 70
     1
 10
0.0
 20
0.0
 30
0.0
  3
*X42
  1

  0
LINE
  5
21CED
330
21CEC
100
AcDbEntity
  8
0
  6
CONTINUOUS
100
AcDbLine
 10
23.19462913593892
 20
8.169917934846424
 30
0.0
 11
23.70775465517246
 21
8.683043454079957
 31
0.0
  0
LINE
  5
21CEE
330
21CEC
100
AcDbEntity
  8
0
  6
CONTINUOUS
100
AcDbLine
 10
22.64923161835078
 20
6.951001208178088
 30
0.0
 11
23.9159364069932
 21
8.217705996820516
 31
0.0
  0
LINE
  5
21CEF
330
21CEC
100
AcDbEntity
  8
0
  6
CONTINUOUS
100
AcDbLine
 10
22.10383410076263
 20
5.732084481509751
 30
0.0
 11
24.12411815881395
 21
7.752368539561078
 31
0.0
  0
LINE
  5
21CF0
330
21CEC
100
AcDbEntity
  8
0
  6
CONTINUOUS
100
AcDbLine
 10
21.55843658317447
 20
4.513167754841414
 30
0.0
 11
24.3322999106347
 21
7.287031082301639
 31
0.0
  0
LINE
  5
21CF1
330
21CEC
100
AcDbEntity
  8
0
  6
CONTINUOUS
100
AcDbLine
 10
21.01303906558632
 20
3.294251028173077
 30
0.0
 11
24.54048166245544
 21
6.821693625042199
 31
0.0
  0
LINE
  5
21CF2
330
21CEC
100
AcDbEntity
  8
0
  6
CONTINUOUS
100
AcDbLine
 10
20.46764154799817
 20
2.075334301504738
 30
0.0
 11
23.28571549467848
 21
4.89340824818505
 31
0.0
  0
LINE
  5
21CF3
330
21CEC
100
AcDbEntity
  8
0
  6
CONTINUOUS
100
AcDbLine
 10
19.92224403041002
 20
0.8564175748364002
 30
0.0
 11
22.74075865492779
 21
3.674932199354171
 31
0.0
  0
LINE
  5
21CF4
330
21CEC
100
AcDbEntity
  8
0
  6
CONTINUOUS
100
AcDbLine
 10
23.67305085490148
 20
5.280743608408048
 30
0.0
 11
24.74866341427619
 21
6.356356167782759
 31
0.0
  0
LINE
  5
21CF5
330
21CEC
100
AcDbEntity
  8
0
  6
CONTINUOUS
100
AcDbLine
 10
23.88118970842314
 20
4.815363252849522
 30
0.0
 11
24.95684516609694
 21
5.89101871052332
 31
0.0
  0
LINE
  5
21CF6
330
21CEC
100
AcDbEntity
  8
0
  6
CONTINUOUS
100
AcDbLine
 10
19.73925852647308
 20
-0.0000871381807288
 30
0.0
 11
23.4103456646501
 21
3.670999999996297
 31
0.0
  0
LINE
  5
21CF7
330
21CEC
100
AcDbEntity
  8
0
  6
CONTINUOUS
100
AcDbLine
 10
24.0893285619448
 20
4.349982897290997
 30
0.0
 11
25.16502691791769
 21
5.42568125326388
 31
0.0
  0
LINE
  5
21CF8
330
21CEC
100
AcDbEntity
  8
0
  6
CONTINUOUS
100
AcDbLine
 10
20.41282099582748
 20
-0.0000438779065108
 30
0.0
 11
21.64944178675636
 21
1.236576913022366
 31
0.0
  0
LINE
  5
21CF9
330
21CEC
100
AcDbEntity
  8
0
  6
CONTINUOUS
100
AcDbLine
 10
22.78126487373161
 20
2.36839999999762
 30
0.0
 11
24.08386487373029
 21
3.670999999996297
 31
0.0
  0
LINE
  5
21CFA
330
21CEC
100
AcDbEntity
  8
0
  6
CONTINUOUS
100
AcDbLine
 10
24.29746741546646
 20
3.884602541732471
 30
0.0
 11
25.37320866973843
 21
4.960343796004441
 31
0.0
  0
LINE
  5
21CFB
330
21CEC
100
AcDbEntity
  8
0
  6
CONTINUOUS
100
AcDbLine
 10
21.08638346518189
 20
-0.0000006176322938
 30
0.0
 11
21.10379033335899
 21
0.0174062505448083
 31
0.0
  0
LINE
  5
21CFC
330
21CEC
100
AcDbEntity
  8
0
  6
CONTINUOUS
100
AcDbLine
 10
23.4547840828118
 20
2.36839999999762
 30
0.0
 11
25.58139042155918
 21
4.495006338745002
 31
0.0
  0
LINE
  5
21CFD
330
21CEC
100
AcDbEntity
  8
0
  6
CONTINUOUS
100
AcDbLine
 10
29.30199999996933
 20
8.215615917155148
 30
0.0
 11
29.84948408280543
 21
8.763099999991255
 31
0.0
  0
LINE
  5
21CFE
330
21CEC
100
AcDbEntity
  8
0
  6
CONTINUOUS
100
AcDbLine
 10
24.12830329189199
 20
2.36839999999762
 30
0.0
 11
25.78957217337993
 21
4.029668881485562
 31
0.0
  0
LINE
  5
21CFF
330
21CEC
100
AcDbEntity
  8
0
  6
CONTINUOUS
100
AcDbLine
 10
29.30199999996933
 20
7.54209670807496
 30
0.0
 11
30.52300329188562
 21
8.763099999991255
 31
0.0
  0
LINE
  5
21D00
330
21CEC
100
AcDbEntity
  8
0
  6
CONTINUOUS
100
AcDbLine
 10
24.80182250097217
 20
2.36839999999762
 30
0.0
 11
25.99775392520067
 21
3.564331424226122
 31
0.0
  0
LINE
  5
21D01
330
21CEC
100
AcDbEntity
  8
0
  6
CONTINUOUS
100
AcDbLine
 10
29.30199999996933
 20
6.868577498994774
 30
0.0
 11
30.74199999996926
 21
8.308577498994712
 31
0.0
  0
LINE
  5
21D02
330
21CEC
100
AcDbEntity
  8
0
  6
CONTINUOUS
100
AcDbLine
 10
25.13028238392013
 20
2.023340673865392
 30
0.0
 11
26.20593567702142
 21
3.098993966966683
 31
0.0
  0
LINE
  5
21D03
330
21CEC
100
AcDbEntity
  8
0
  6
CONTINUOUS
100
AcDbLine
 10
25.33838066033617
 20
1.557919741201244
 30
0.0
 11
26.41411742884217
 21
2.633656509707244
 31
0.0
  0
LINE
  5
21D04
330
21CEC
100
AcDbEntity
  8
0
  6
CONTINUOUS
100
AcDbLine
 10
25.54647893675221
 20
1.092498808537098
 30
0.0
 11
26.62229918066291
 21
2.168319052447804
 31
0.0
  0
LINE
  5
21D05
330
21CEC
100
AcDbEntity
  8
0
  6
CONTINUOUS
100
AcDbLine
 10
25.75457721316825
 20
0.62707787587295
 30
0.0
 11
26.83048093248366
 21
1.702981595188365
 31
0.0
  0
LINE
  5
21D06
330
21CEC
100
AcDbEntity
  8
0
  6
CONTINUOUS
100
AcDbLine
 10
29.30199999996933
 20
6.195058289914587
 30
0.0
 11
30.74199999996926
 21
7.635058289914522
 31
0.0
  0
LINE
  5
21D07
330
21CEC
100
AcDbEntity
  8
0
  6
CONTINUOUS
100
AcDbLine
 10
29.30199999996933
 20
5.521539080834401
 30
0.0
 11
30.74199999996926
 21
6.961539080834331
 31
0.0
  0
LINE
  5
21D08
330
21CEC
100
AcDbEntity
  8
0
  6
CONTINUOUS
100
AcDbLine
 10
29.30199999996933
 20
4.848019871754214
 30
0.0
 11
30.74199999996925
 21
6.288019871754143
 31
0.0
  0
LINE
  5
21D09
330
21CEC
100
AcDbEntity
  8
0
  6
CONTINUOUS
100
AcDbLine
 10
29.30199999996933
 20
4.174500662674028
 30
0.0
 11
30.74199999996925
 21
5.614500662673953
 31
0.0
  0
LINE
  5
21D0A
330
21CEC
100
AcDbEntity
  8
0
  6
CONTINUOUS
100
AcDbLine
 10
25.96267548958429
 20
0.1616569432088024
 30
0.0
 11
27.18411854636669
 21
1.383099999991207
 31
0.0
  0
LINE
  5
21D0B
330
21CEC
100
AcDbEntity
  8
0
  6
CONTINUOUS
100
AcDbLine
 10
29.30199999996933
 20
3.500981453593841
 30
0.0
 11
30.74199999996925
 21
4.940981453593762
 31
0.0
  0
LINE
  5
21D0C
330
21CEC
100
AcDbEntity
  8
0
  6
CONTINUOUS
100
AcDbLine
 10
26.50763775544691
 20
0.0330999999912356
 30
0.0
 11
27.85763775544689
 21
1.383099999991223
 31
0.0
  0
LINE
  5
21D0D
330
21CEC
100
AcDbEntity
  8
0
  6
CONTINUOUS
100
AcDbLine
 10
29.30199999996933
 20
2.827462244513656
 30
0.0
 11
30.74199999996925
 21
4.267462244513574
 31
0.0
  0
LINE
  5
21D0E
330
21CEC
100
AcDbEntity
  8
0
  6
CONTINUOUS
100
AcDbLine
 10
27.18115696452709
 20
0.0330999999912356
 30
0.0
 11
28.6224847300034
 21
1.474427765467545
 31
0.0
  0
LINE
  5
21D0F
330
21CEC
100
AcDbEntity
  8
0
  6
CONTINUOUS
100
AcDbLine
 10
29.21067223449293
 20
2.062615269957069
 30
0.0
 11
30.74199999996924
 21
3.593943035433383
 31
0.0
  0
LINE
  5
21D10
330
21CEC
100
AcDbEntity
  8
0
  6
CONTINUOUS
100
AcDbLine
 10
27.85467617360728
 20
0.0330999999912356
 30
0.0
 11
30.74199999996924
 21
2.920423826353195
 31
0.0
  0
LINE
  5
21D11
330
21CEC
100
AcDbEntity
  8
0
  6
CONTINUOUS
100
AcDbLine
 10
28.57438609860264
 20
0.0792907159064073
 30
0.0
 11
30.69580928405405
 21
2.200713901357819
 31
0.0
  0
LINE
  5
21D12
330
21CEC
100
AcDbEntity
  8
0
  6
CONTINUOUS
100
AcDbLine
 10
29.49443044814297
 20
0.3258158563665496
 30
0.0
 11
30.44928414359389
 21
1.280669551817477
 31
0.0
  0
LINE
  5
21D13
330
21CEC
100
AcDbEntity
  8
0
  6
CONTINUOUS
100
AcDbLine
 10
19.59027867740337
 20
-0.0000967065718083
 30
0.0
 11
19.55485265190471
 21
0.035329318926844
 31
0.0
  0
LINE
  5
21D14
330
21CEC
100
AcDbEntity
  8
0
  6
CONTINUOUS
100
AcDbLine
 10
20.26375463176586
 20
-0.0000534518541091
 30
0.0
 11
19.76305575737534
 21
0.5006454225364014
 31
0.0
  0
LINE
  5
21D15
330
21CEC
100
AcDbEntity
  8
0
  6
CONTINUOUS
100
AcDbLine
 10
20.93723058612834
 20
-0.0000101971364099
 30
0.0
 11
19.97125886284597
 21
0.965961526145958
 31
0.0
  0
LINE
  5
21D16
330
21CEC
100
AcDbEntity
  8
0
  6
CONTINUOUS
100
AcDbLine
 10
21.25514828313686
 20
0.355591314935257
 30
0.0
 11
20.1794619683166
 21
1.431277629755512
 31
0.0
  0
LINE
  5
21D17
330
21CEC
100
AcDbEntity
  8
0
  6
CONTINUOUS
100
AcDbLine
 10
21.46338838394921
 20
0.8208704232030986
 30
0.0
 11
20.38766507378723
 21
1.896593733365069
 31
0.0
  0
LINE
  5
21D18
330
21CEC
100
AcDbEntity
  8
0
  6
CONTINUOUS
100
AcDbLine
 10
21.67162848476155
 20
1.28614953147094
 30
0.0
 11
20.59586817925786
 21
2.361909836974626
 31
0.0
  0
LINE
  5
21D19
330
21CEC
100
AcDbEntity
  8
0
  6
CONTINUOUS
100
AcDbLine
 10
21.8798685855739
 20
1.751428639738782
 30
0.0
 11
20.80407128472849
 21
2.827225940584183
 31
0.0
  0
LINE
  5
21D1A
330
21CEC
100
AcDbEntity
  8
0
  6
CONTINUOUS
100
AcDbLine
 10
22.08810868638624
 20
2.216707748006623
 30
0.0
 11
21.01227439019912
 21
3.292542044193739
 31
0.0
  0
LINE
  5
21D1B
330
21CEC
100
AcDbEntity
  8
0
  6
CONTINUOUS
100
AcDbLine
 10
22.60993564347543
 20
2.36839999999762
 30
0.0
 11
21.22047749566975
 21
3.757858147803296
 31
0.0
  0
LINE
  5
21D1C
330
21CEC
100
AcDbEntity
  8
0
  6
CONTINUOUS
100
AcDbLine
 10
23.28345485255561
 20
2.36839999999762
 30
0.0
 11
21.42868060114038
 21
4.223174251412853
 31
0.0
  0
LINE
  5
21D1D
330
21CEC
100
AcDbEntity
  8
0
  6
CONTINUOUS
100
AcDbLine
 10
26.29227406164219
 20
0.0330999999912356
 30
0.0
 11
25.80009199592872
 21
0.5252820657046957
 31
0.0
  0
LINE
  5
21D1E
330
21CEC
100
AcDbEntity
  8
0
  6
CONTINUOUS
100
AcDbLine
 10
23.9569740616358
 20
2.36839999999762
 30
0.0
 11
21.63688370661101
 21
4.688490355022409
 31
0.0
  0
LINE
  5
21D1F
330
21CEC
100
AcDbEntity
  8
0
  6
CONTINUOUS
100
AcDbLine
 10
26.96579327072237
 20
0.0330999999912356
 30
0.0
 11
25.2554132311971
 21
1.743480039516508
 31
0.0
  0
LINE
  5
21D20
330
21CEC
100
AcDbEntity
  8
0
  6
CONTINUOUS
100
AcDbLine
 10
24.63049327071599
 20
2.36839999999762
 30
0.0
 11
23.32789327071731
 21
3.670999999996297
 31
0.0
  0
LINE
  5
21D21
330
21CEC
100
AcDbEntity
  8
0
  6
CONTINUOUS
100
AcDbLine
 10
22.92098674744635
 20
4.077906523267254
 30
0.0
 11
21.84508681208164
 21
5.153806458631966
 31
0.0
  0
LINE
  5
21D22
330
21CEC
100
AcDbEntity
  8
0
  6
CONTINUOUS
100
AcDbLine
 10
27.63931247980256
 20
0.0330999999912356
 30
0.0
 11
24.0014124797975
 21
3.670999999996297
 31
0.0
  0
LINE
  5
21D23
330
21CEC
100
AcDbEntity
  8
0
  6
CONTINUOUS
100
AcDbLine
 10
23.129125600968
 20
4.5432868788258
 30
0.0
 11
22.05328991755227
 21
5.619122562241522
 31
0.0
  0
LINE
  5
21D24
330
21CEC
100
AcDbEntity
  8
0
  6
CONTINUOUS
100
AcDbLine
 10
28.31283168888275
 20
0.0330999999912356
 30
0.0
 11
24.16488385994816
 21
4.181047828925828
 31
0.0
  0
LINE
  5
21D25
330
21CEC
100
AcDbEntity
  8
0
  6
CONTINUOUS
100
AcDbLine
 10
23.33726445448964
 20
5.008667234384345
 30
0.0
 11
22.2614930230229
 21
6.084438665851079
 31
0.0
  0
LINE
  5
21D26
330
21CEC
100
AcDbEntity
  8
0
  6
CONTINUOUS
100
AcDbLine
 10
28.86286302309502
 20
0.1565878748591523
 30
0.0
 11
27.63635089796295
 21
1.383099999991217
 31
0.0
  0
LINE
  5
21D27
330
21CEC
100
AcDbEntity
  8
0
  6
CONTINUOUS
100
AcDbLine
 10
26.43704649509776
 20
2.582404402856405
 30
0.0
 11
23.61992702019732
 21
5.399523877756844
 31
0.0
  0
LINE
  5
21D28
330
21CEC
100
AcDbEntity
  8
0
  6
CONTINUOUS
100
AcDbLine
 10
23.54540330801128
 20
5.47404758994289
 30
0.0
 11
22.46969612849353
 21
6.549754769460635
 31
0.0
  0
LINE
  5
21D29
330
21CEC
100
AcDbEntity
  8
0
  6
CONTINUOUS
100
AcDbLine
 10
29.39405087596853
 20
0.2989192310658284
 30
0.0
 11
28.30987010704312
 21
1.383099999991234
 31
0.0
  0
LINE
  5
21D2A
330
21CEC
100
AcDbEntity
  8
0
  6
CONTINUOUS
100
AcDbLine
 10
25.89179548232307
 20
3.801174624711282
 30
0.0
 11
22.67789923396416
 21
7.015070873070191
 31
0.0
  0
LINE
  5
21D2B
330
21CEC
100
AcDbEntity
  8
0
  6
CONTINUOUS
100
AcDbLine
 10
29.79594438047407
 20
0.570544935640473
 30
0.0
 11
28.81310432793121
 21
1.553384988183336
 31
0.0
  0
LINE
  5
21D2C
330
21CEC
100
AcDbEntity
  8
0
  6
CONTINUOUS
100
AcDbLine
 10
25.34654446954838
 20
5.01994484656616
 30
0.0
 11
22.88610233943479
 21
7.480386976679748
 31
0.0
  0
LINE
  5
21D2D
330
21CEC
100
AcDbEntity
  8
0
  6
CONTINUOUS
100
AcDbLine
 10
30.13270398501416
 20
0.9073045401805646
 30
0.0
 11
29.14234640337737
 21
1.897662121817355
 31
0.0
  0
LINE
  5
21D2E
330
21CEC
100
AcDbEntity
  8
0
  6
CONTINUOUS
100
AcDbLine
 10
24.80129345677369
 20
6.238715068421037
 30
0.0
 11
23.09430544490542
 21
7.945703080289305
 31
0.0
  0
LINE
  5
21D2F
330
21CEC
100
AcDbEntity
  8
0
  6
CONTINUOUS
100
AcDbLine
 10
30.44581292956759
 20
1.26771480470732
 30
0.0
 11
29.30199999996933
 21
2.411527734305588
 31
0.0
  0
LINE
  5
21D30
330
21CEC
100
AcDbEntity
  8
0
  6
CONTINUOUS
100
AcDbLine
 10
30.58814428577427
 20
1.798902657580827
 30
0.0
 11
29.30199999996933
 21
3.085046943385775
 31
0.0
  0
LINE
  5
21D31
330
21CEC
100
AcDbEntity
  8
0
  6
CONTINUOUS
100
AcDbLine
 10
24.256042443999
 20
7.457485290275915
 30
0.0
 11
23.30250855037605
 21
8.411019183898862
 31
0.0
  0
LINE
  5
21D32
330
21CEC
100
AcDbEntity
  8
0
  6
CONTINUOUS
100
AcDbLine
 10
23.71079143122431
 20
8.676255512130794
 30
0.0
 11
23.51071165584668
 21
8.876335287508418
 31
0.0
  0
LINE
  5
21D33
330
21CEC
100
AcDbEntity
  8
0
  6
CONTINUOUS
100
AcDbLine
 10
30.73047564198095
 20
2.330090510454333
 30
0.0
 11
29.30199999996933
 21
3.758566152465961
 31
0.0
  0
LINE
  5
21D34
330
21CEC
100
AcDbEntity
  8
0
  6
CONTINUOUS
100
AcDbLine
 10
30.74199999996924
 20
2.992085361546236
 30
0.0
 11
29.30199999996933
 21
4.432085361546148
 31
0.0
  0
LINE
  5
21D35
330
21CEC
100
AcDbEntity
  8
0
  6
CONTINUOUS
100
AcDbLine
 10
30.74199999996924
 20
3.665604570626419
 30
0.0
 11
29.30199999996933
 21
5.105604570626333
 31
0.0
  0
LINE
  5
21D36
330
21CEC
100
AcDbEntity
  8
0
  6
CONTINUOUS
100
AcDbLine
 10
30.74199999996925
 20
4.339123779706602
 30
0.0
 11
29.30199999996933
 21
5.77912377970652
 31
0.0
  0
LINE
  5
21D37
330
21CEC
100
AcDbEntity
  8
0
  6
CONTINUOUS
100
AcDbLine
 10
30.74199999996925
 20
5.012642988786785
 30
0.0
 11
29.30199999996933
 21
6.452642988786707
 31
0.0
  0
LINE
  5
21D38
330
21CEC
100
AcDbEntity
  8
0
  6
CONTINUOUS
100
AcDbLine
 10
30.74199999996925
 20
5.68616219786697
 30
0.0
 11
29.30199999996933
 21
7.126162197866894
 31
0.0
  0
LINE
  5
21D39
330
21CEC
100
AcDbEntity
  8
0
  6
CONTINUOUS
100
AcDbLine
 10
30.74199999996925
 20
6.359681406947153
 30
0.0
 11
29.30199999996933
 21
7.799681406947081
 31
0.0
  0
LINE
  5
21D3A
330
21CEC
100
AcDbEntity
  8
0
  6
CONTINUOUS
100
AcDbLine
 10
30.74199999996926
 20
7.033200616027337
 30
0.0
 11
29.30199999996933
 21
8.473200616027269
 31
0.0
  0
LINE
  5
21D3B
330
21CEC
100
AcDbEntity
  8
0
  6
CONTINUOUS
100
AcDbLine
 10
30.74199999996926
 20
7.706719825107518
 30
0.0
 11
29.68561982508552
 21
8.763099999991255
 31
0.0
  0
LINE
  5
21D3C
330
21CEC
100
AcDbEntity
  8
0
  6
CONTINUOUS
100
AcDbLine
 10
30.74199999996926
 20
8.380239034187703
 30
0.0
 11
30.35913903416571
 21
8.763099999991255
 31
0.0
  0
ENDBLK
  5
21DDF
330
21CEC
100
AcDbEntity
  8
0
100
AcDbBlockEnd
  0
BLOCK
  5
21DE0
330
21D3D
100
AcDbEntity
  8
0
100
AcDbBlockBegin
  2
*X43
 70
     1
 10
0.0
 20
0.0
 30
0.0
  3
*X43
  1

  0
LINE
  5
21D3E
330
21D3D
100
AcDbEntity
  8
0
  6
CONTINUOUS
100
AcDbLine
 10
31.64199999996833
 20
8.5350582899136
 30
0.0
 11
31.87004171004599
 21
8.763099999991255
 31
0.0
  0
LINE
  5
21D3F
330
21D3D
100
AcDbEntity
  8
0
  6
CONTINUOUS
100
AcDbLine
 10
31.64199999996833
 20
7.861539080833413
 30
0.0
 11
32.54356091912618
 21
8.763099999991255
 31
0.0
  0
LINE
  5
21D40
330
21D3D
100
AcDbEntity
  8
0
  6
CONTINUOUS
100
AcDbLine
 10
31.64199999996833
 20
7.188019871753227
 30
0.0
 11
33.08199999996839
 21
8.628019871753281
 31
0.0
  0
LINE
  5
21D41
330
21D3D
100
AcDbEntity
  8
0
  6
CONTINUOUS
100
AcDbLine
 10
31.64199999996833
 20
6.514500662673041
 30
0.0
 11
33.08199999996839
 21
7.954500662673095
 31
0.0
  0
LINE
  5
21D42
330
21D3D
100
AcDbEntity
  8
0
  6
CONTINUOUS
100
AcDbLine
 10
31.64199999996833
 20
5.840981453592855
 30
0.0
 11
33.08199999996839
 21
7.28098145359291
 31
0.0
  0
LINE
  5
21D43
330
21D3D
100
AcDbEntity
  8
0
  6
CONTINUOUS
100
AcDbLine
 10
31.64199999996833
 20
5.167462244512668
 30
0.0
 11
33.08199999996839
 21
6.607462244512723
 31
0.0
  0
LINE
  5
21D44
330
21D3D
100
AcDbEntity
  8
0
  6
CONTINUOUS
100
AcDbLine
 10
31.64199999996833
 20
4.493943035432482
 30
0.0
 11
33.08199999996839
 21
5.933943035432536
 31
0.0
  0
LINE
  5
21D45
330
21D3D
100
AcDbEntity
  8
0
  6
CONTINUOUS
100
AcDbLine
 10
31.64199999996833
 20
3.820423826352294
 30
0.0
 11
33.08199999996839
 21
5.260423826352349
 31
0.0
  0
LINE
  5
21D46
330
21D3D
100
AcDbEntity
  8
0
  6
CONTINUOUS
100
AcDbLine
 10
31.64199999996833
 20
3.146904617272108
 30
0.0
 11
33.08199999996839
 21
4.586904617272163
 31
0.0
  0
LINE
  5
21D47
330
21D3D
100
AcDbEntity
  8
0
  6
CONTINUOUS
100
AcDbLine
 10
36.23199999996837
 20
8.410423826352327
 30
0.0
 11
36.58467617360729
 21
8.763099999991255
 31
0.0
  0
LINE
  5
21D48
330
21D3D
100
AcDbEntity
  8
0
  6
CONTINUOUS
100
AcDbLine
 10
36.23199999996837
 20
7.73690461727214
 30
0.0
 11
37.25819538268748
 21
8.763099999991255
 31
0.0
  0
LINE
  5
21D49
330
21D3D
100
AcDbEntity
  8
0
  6
CONTINUOUS
100
AcDbLine
 10
31.64323424774199
 20
2.474619655965573
 30
0.0
 11
33.08199999996839
 21
3.913385408191976
 31
0.0
  0
LINE
  5
21D4A
330
21D3D
100
AcDbEntity
  8
0
  6
CONTINUOUS
100
AcDbLine
 10
31.74419223861915
 20
1.902058437762552
 30
0.0
 11
33.08199999996839
 21
3.239866199111789
 31
0.0
  0
LINE
  5
21D4B
330
21D3D
100
AcDbEntity
  8
0
  6
CONTINUOUS
100
AcDbLine
 10
36.23199999996837
 20
7.063385408191953
 30
0.0
 11
37.67199999996831
 21
8.503385408191894
 31
0.0
  0
LINE
  5
21D4C
330
21D3D
100
AcDbEntity
  8
0
  6
CONTINUOUS
100
AcDbLine
 10
36.23199999996837
 20
6.389866199111767
 30
0.0
 11
37.67199999996831
 21
7.829866199111708
 31
0.0
  0
LINE
  5
21D4D
330
21D3D
100
AcDbEntity
  8
0
  6
CONTINUOUS
100
AcDbLine
 10
31.91111233414976
 20
1.39545932421297
 30
0.0
 11
33.08199999996839
 21
2.566346990031603
 31
0.0
  0
LINE
  5
21D4E
330
21D3D
100
AcDbEntity
  8
0
  6
CONTINUOUS
100
AcDbLine
 10
36.23199999996837
 20
5.71634699003158
 30
0.0
 11
37.67199999996831
 21
7.156346990031522
 31
0.0
  0
LINE
  5
21D4F
330
21D3D
100
AcDbEntity
  8
0
  6
CONTINUOUS
100
AcDbLine
 10
32.1576374746103
 20
0.9684652555933289
 30
0.0
 11
33.20642631446081
 21
2.017254095443838
 31
0.0
  0
LINE
  5
21D50
330
21D3D
100
AcDbEntity
  8
0
  6
CONTINUOUS
100
AcDbLine
 10
36.23199999996837
 20
5.042827780951393
 30
0.0
 11
37.67199999996831
 21
6.482827780951334
 31
0.0
  0
LINE
  5
21D51
330
21D3D
100
AcDbEntity
  8
0
  6
CONTINUOUS
100
AcDbLine
 10
32.47774023927325
 20
0.6150488111760914
 30
0.0
 11
33.49903056428258
 21
1.636339136185419
 31
0.0
  0
LINE
  5
21D52
330
21D3D
100
AcDbEntity
  8
0
  6
CONTINUOUS
100
AcDbLine
 10
36.23199999996837
 20
4.369308571871207
 30
0.0
 11
37.67199999996831
 21
5.809308571871148
 31
0.0
  0
LINE
  5
21D53
330
21D3D
100
AcDbEntity
  8
0
  6
CONTINUOUS
100
AcDbLine
 10
32.84396249154443
 20
0.3077518543670883
 30
0.0
 11
33.93324121824649
 21
1.397030581069146
 31
0.0
  0
LINE
  5
21D54
330
21D3D
100
AcDbEntity
  8
0
  6
CONTINUOUS
100
AcDbLine
 10
36.23199999996837
 20
3.695789362791021
 30
0.0
 11
37.67199999996831
 21
5.135789362790963
 31
0.0
  0
LINE
  5
21D55
330
21D3D
100
AcDbEntity
  8
0
  6
CONTINUOUS
100
AcDbLine
 10
33.30186329036846
 20
0.0921334441109263
 30
0.0
 11
34.46442907112041
 21
1.254699224862875
 31
0.0
  0
LINE
  5
21D56
330
21D3D
100
AcDbEntity
  8
0
  6
CONTINUOUS
100
AcDbLine
 10
36.23199999996837
 20
3.022270153710834
 30
0.0
 11
37.67199999996831
 21
4.462270153710776
 31
0.0
  0
LINE
  5
21D57
330
21D3D
100
AcDbEntity
  8
0
  6
CONTINUOUS
100
AcDbLine
 10
33.79565647746294
 20
-0.0875925778747773
 30
0.0
 11
35.24350171668284
 21
1.360252661345124
 31
0.0
  0
LINE
  5
21D58
330
21D3D
100
AcDbEntity
  8
0
  6
CONTINUOUS
100
AcDbLine
 10
36.18336676155003
 20
2.300117706212308
 30
0.0
 11
37.67199999996831
 21
3.788750944630589
 31
0.0
  0
LINE
  5
21D59
330
21D3D
100
AcDbEntity
  8
0
  6
CONTINUOUS
100
AcDbLine
 10
34.37182574910968
 20
-0.184942515308224
 30
0.0
 11
37.67199999996831
 21
3.115231735550402
 31
0.0
  0
LINE
  5
21D5A
330
21D3D
100
AcDbEntity
  8
0
  6
CONTINUOUS
100
AcDbLine
 10
35.0453449581892
 20
-0.1849425153088955
 30
0.0
 11
37.66345697088136
 21
2.433169497383271
 31
0.0
  0
LINE
  5
21D5B
330
21D3D
100
AcDbEntity
  8
0
  6
CONTINUOUS
100
AcDbLine
 10
35.98667157609191
 20
0.0828648935136398
 30
0.0
 11
37.51927401744566
 21
1.615467334867382
 31
0.0
  0
LINE
  5
21D5C
330
21D3D
100
AcDbEntity
  8
0
  6
CONTINUOUS
100
AcDbLine
 10
32.27747408544484
 20
0.7830920669904482
 30
0.0
 11
32.24716210471949
 21
0.8134040477157893
 31
0.0
  0
LINE
  5
21D5D
330
21D3D
100
AcDbEntity
  8
0
  6
CONTINUOUS
100
AcDbLine
 10
33.83656881101902
 20
-0.1024834495035494
 30
0.0
 11
31.72538911593758
 21
2.008696245577891
 31
0.0
  0
LINE
  5
21D5E
330
21D3D
100
AcDbEntity
  8
0
  6
CONTINUOUS
100
AcDbLine
 10
34.5925470859041
 20
-0.1849425153084434
 30
0.0
 11
31.64199999996833
 21
2.765604570627322
 31
0.0
  0
LINE
  5
21D5F
330
21D3D
100
AcDbEntity
  8
0
  6
CONTINUOUS
100
AcDbLine
 10
35.26201302775981
 20
-0.1808892480839752
 30
0.0
 11
31.64199999996833
 21
3.439123779707508
 31
0.0
  0
LINE
  5
21D60
330
21D3D
100
AcDbEntity
  8
0
  6
CONTINUOUS
100
AcDbLine
 10
35.75580621485512
 20
-0.0011632260990879
 30
0.0
 11
34.51294304365551
 21
1.241699945100514
 31
0.0
  0
LINE
  5
21D61
330
21D3D
100
AcDbEntity
  8
0
  6
CONTINUOUS
100
AcDbLine
 10
33.08199999996839
 20
2.672642988787641
 30
0.0
 11
31.64199999996833
 21
4.112642988787695
 31
0.0
  0
LINE
  5
21D62
330
21D3D
100
AcDbEntity
  8
0
  6
CONTINUOUS
100
AcDbLine
 10
36.24959940195042
 20
0.1785627958857976
 30
0.0
 11
35.10501653033629
 21
1.323145667499924
 31
0.0
  0
LINE
  5
21D63
330
21D3D
100
AcDbEntity
  8
0
  6
CONTINUOUS
100
AcDbLine
 10
33.08199999996839
 20
3.346162197867827
 30
0.0
 11
31.64199999996833
 21
4.786162197867881
 31
0.0
  0
LINE
  5
21D64
330
21D3D
100
AcDbEntity
  8
0
  6
CONTINUOUS
100
AcDbLine
 10
36.64615197150552
 20
0.4555294354108876
 30
0.0
 11
35.6362043832099
 21
1.465477023706505
 31
0.0
  0
LINE
  5
21D65
330
21D3D
100
AcDbEntity
  8
0
  6
CONTINUOUS
100
AcDbLine
 10
33.08199999996839
 20
4.019681406948013
 30
0.0
 11
31.64199999996833
 21
5.459681406948068
 31
0.0
  0
LINE
  5
21D66
330
21D3D
100
AcDbEntity
  8
0
  6
CONTINUOUS
100
AcDbLine
 10
37.0123742237774
 20
0.7628263922191891
 30
0.0
 11
35.97691545773309
 21
1.798285158263504
 31
0.0
  0
LINE
  5
21D67
330
21D3D
100
AcDbEntity
  8
0
  6
CONTINUOUS
100
AcDbLine
 10
33.08199999996839
 20
4.6932006160282
 30
0.0
 11
31.64199999996833
 21
6.133200616028255
 31
0.0
  0
LINE
  5
21D68
330
21D3D
100
AcDbEntity
  8
0
  6
CONTINUOUS
100
AcDbLine
 10
37.27491524157143
 20
1.173804583505349
 30
0.0
 11
36.17602012811361
 21
2.272699696963169
 31
0.0
  0
LINE
  5
21D69
330
21D3D
100
AcDbEntity
  8
0
  6
CONTINUOUS
100
AcDbLine
 10
33.08199999996839
 20
5.366719825108387
 30
0.0
 11
31.64199999996833
 21
6.806719825108441
 31
0.0
  0
LINE
  5
21D6A
330
21D3D
100
AcDbEntity
  8
0
  6
CONTINUOUS
100
AcDbLine
 10
37.51739996707661
 20
1.604839067080355
 30
0.0
 11
36.23199999996837
 21
2.890239034188595
 31
0.0
  0
LINE
  5
21D6B
330
21D3D
100
AcDbEntity
  8
0
  6
CONTINUOUS
100
AcDbLine
 10
37.6183579579535
 20
2.177400285283649
 30
0.0
 11
36.23199999996837
 21
3.563758243268782
 31
0.0
  0
LINE
  5
21D6C
330
21D3D
100
AcDbEntity
  8
0
  6
CONTINUOUS
100
AcDbLine
 10
33.08199999996839
 20
6.040239034188573
 30
0.0
 11
31.64199999996833
 21
7.480239034188628
 31
0.0
  0
LINE
  5
21D6D
330
21D3D
100
AcDbEntity
  8
0
  6
CONTINUOUS
100
AcDbLine
 10
33.08199999996839
 20
6.713758243268759
 30
0.0
 11
31.64199999996833
 21
8.153758243268815
 31
0.0
  0
LINE
  5
21D6E
330
21D3D
100
AcDbEntity
  8
0
  6
CONTINUOUS
100
AcDbLine
 10
37.67199999996831
 20
2.797277452349027
 30
0.0
 11
36.23199999996837
 21
4.237277452348969
 31
0.0
  0
LINE
  5
21D6F
330
21D3D
100
AcDbEntity
  8
0
  6
CONTINUOUS
100
AcDbLine
 10
37.67199999996831
 20
3.470796661429214
 30
0.0
 11
36.23199999996837
 21
4.910796661429155
 31
0.0
  0
LINE
  5
21D70
330
21D3D
100
AcDbEntity
  8
0
  6
CONTINUOUS
100
AcDbLine
 10
37.67199999996831
 20
4.1443158705094
 30
0.0
 11
36.23199999996837
 21
5.584315870509341
 31
0.0
  0
LINE
  5
21D71
330
21D3D
100
AcDbEntity
  8
0
  6
CONTINUOUS
100
AcDbLine
 10
33.08199999996839
 20
7.387277452348946
 30
0.0
 11
31.70617745232608
 21
8.763099999991255
 31
0.0
  0
LINE
  5
21D72
330
21D3D
100
AcDbEntity
  8
0
  6
CONTINUOUS
100
AcDbLine
 10
33.08199999996839
 20
8.060796661429134
 30
0.0
 11
32.37969666140626
 21
8.763099999991255
 31
0.0
  0
LINE
  5
21D73
330
21D3D
100
AcDbEntity
  8
0
  6
CONTINUOUS
100
AcDbLine
 10
33.08199999996839
 20
8.734315870509318
 30
0.0
 11
33.05321587048645
 21
8.763099999991255
 31
0.0
  0
LINE
  5
21D74
330
21D3D
100
AcDbEntity
  8
0
  6
CONTINUOUS
100
AcDbLine
 10
37.67199999996831
 20
4.817835079589586
 30
0.0
 11
36.23199999996837
 21
6.257835079589528
 31
0.0
  0
LINE
  5
21D75
330
21D3D
100
AcDbEntity
  8
0
  6
CONTINUOUS
100
AcDbLine
 10
37.67199999996831
 20
5.491354288669772
 30
0.0
 11
36.23199999996837
 21
6.931354288669715
 31
0.0
  0
LINE
  5
21D76
330
21D3D
100
AcDbEntity
  8
0
  6
CONTINUOUS
100
AcDbLine
 10
37.67199999996831
 20
6.164873497749959
 30
0.0
 11
36.23199999996837
 21
7.6048734977499
 31
0.0
  0
LINE
  5
21D77
330
21D3D
100
AcDbEntity
  8
0
  6
CONTINUOUS
100
AcDbLine
 10
37.67199999996831
 20
6.838392706830145
 30
0.0
 11
36.23199999996837
 21
8.278392706830086
 31
0.0
  0
LINE
  5
21D78
330
21D3D
100
AcDbEntity
  8
0
  6
CONTINUOUS
100
AcDbLine
 10
37.67199999996831
 20
7.511911915910333
 30
0.0
 11
36.42081191588738
 21
8.763099999991255
 31
0.0
  0
LINE
  5
21D79
330
21D3D
100
AcDbEntity
  8
0
  6
CONTINUOUS
100
AcDbLine
 10
37.67199999996831
 20
8.185431124990519
 30
0.0
 11
37.09433112496757
 21
8.763099999991255
 31
0.0
  0
ENDBLK
  5
21DE1
330
21D3D
100
AcDbEntity
  8
0
100
AcDbBlockEnd
  0
BLOCK
  5
21DE2
330
21D7A
100
AcDbEntity
  8
0
100
AcDbBlockBegin
  2
*X44
 70
     1
 10
0.0
 20
0.0
 30
0.0
  3
*X44
  1

  0
LINE
  5
21D7B
330
21D7A
100
AcDbEntity
  8
0
  6
CONTINUOUS
100
AcDbLine
 10
38.60499999996136
 20
8.762866199104765
 30
0.0
 11
38.71672554182345
 21
8.874591740966855
 31
0.0
  0
LINE
  5
21D7C
330
21D7A
100
AcDbEntity
  8
0
  6
CONTINUOUS
100
AcDbLine
 10
38.60499999996136
 20
8.089346990024577
 30
0.0
 11
39.03418785440363
 21
8.518534844466847
 31
0.0
  0
LINE
  5
21D7D
330
21D7A
100
AcDbEntity
  8
0
  6
CONTINUOUS
100
AcDbLine
 10
38.60499999996136
 20
7.41582778094439
 30
0.0
 11
39.35165016698382
 21
8.16247794796684
 31
0.0
  0
LINE
  5
21D7E
330
21D7A
100
AcDbEntity
  8
0
  6
CONTINUOUS
100
AcDbLine
 10
38.60499999996136
 20
6.742308571864204
 30
0.0
 11
39.66911247956399
 21
7.806421051466834
 31
0.0
  0
LINE
  5
21D7F
330
21D7A
100
AcDbEntity
  8
0
  6
CONTINUOUS
100
AcDbLine
 10
38.60499999996136
 20
6.068789362784018
 30
0.0
 11
39.98657479214418
 21
7.450364154966827
 31
0.0
  0
LINE
  5
21D80
330
21D7A
100
AcDbEntity
  8
0
  6
CONTINUOUS
100
AcDbLine
 10
38.60499999996136
 20
5.395270153703832
 30
0.0
 11
40.30403710472435
 21
7.09430725846682
 31
0.0
  0
LINE
  5
21D81
330
21D7A
100
AcDbEntity
  8
0
  6
CONTINUOUS
100
AcDbLine
 10
38.60499999996136
 20
4.721750944623645
 30
0.0
 11
40.62149941730453
 21
6.738250361966813
 31
0.0
  0
LINE
  5
21D82
330
21D7A
100
AcDbEntity
  8
0
  6
CONTINUOUS
100
AcDbLine
 10
38.60499999996136
 20
4.048231735543458
 30
0.0
 11
40.93896172988471
 21
6.382193465466806
 31
0.0
  0
LINE
  5
21D83
330
21D7A
100
AcDbEntity
  8
0
  6
CONTINUOUS
100
AcDbLine
 10
38.60499999996136
 20
3.374712526463272
 30
0.0
 11
40.02599999995994
 21
4.795712526461843
 31
0.0
  0
LINE
  5
21D84
330
21D7A
100
AcDbEntity
  8
0
  6
CONTINUOUS
100
AcDbLine
 10
38.60499999996136
 20
2.701193317383085
 30
0.0
 11
40.02599999995994
 21
4.122193317381657
 31
0.0
  0
LINE
  5
21D85
330
21D7A
100
AcDbEntity
  8
0
  6
CONTINUOUS
100
AcDbLine
 10
40.28339754687704
 20
5.053110073378947
 30
0.0
 11
41.25642404246489
 21
6.026136568966799
 31
0.0
  0
LINE
  5
21D86
330
21D7A
100
AcDbEntity
  8
0
  6
CONTINUOUS
100
AcDbLine
 10
40.60085985945722
 20
4.697053176878939
 30
0.0
 11
41.57388635504507
 21
5.670079672466793
 31
0.0
  0
LINE
  5
21D87
330
21D7A
100
AcDbEntity
  8
0
  6
CONTINUOUS
100
AcDbLine
 10
43.57899999995641
 20
8.348712526458318
 30
0.0
 11
43.99338747348935
 21
8.763099999991255
 31
0.0
  0
LINE
  5
21D88
330
21D7A
100
AcDbEntity
  8
0
  6
CONTINUOUS
100
AcDbLine
 10
43.57899999995641
 20
7.675193317378131
 30
0.0
 11
44.66690668256953
 21
8.763099999991255
 31
0.0
  0
LINE
  5
21D89
330
21D7A
100
AcDbEntity
  8
0
  6
CONTINUOUS
100
AcDbLine
 10
38.60499999996136
 20
2.027674108302898
 30
0.0
 11
40.02599999995994
 21
3.44867410830147
 31
0.0
  0
LINE
  5
21D8A
330
21D7A
100
AcDbEntity
  8
0
  6
CONTINUOUS
100
AcDbLine
 10
38.60499999996136
 20
1.354154899222712
 30
0.0
 11
40.02599999995994
 21
2.775154899221284
 31
0.0
  0
LINE
  5
21D8B
330
21D7A
100
AcDbEntity
  8
0
  6
CONTINUOUS
100
AcDbLine
 10
38.60499999996136
 20
0.6806356901425255
 30
0.0
 11
40.02599999995994
 21
2.101635690141098
 31
0.0
  0
LINE
  5
21D8C
330
21D7A
100
AcDbEntity
  8
0
  6
CONTINUOUS
100
AcDbLine
 10
38.60499999996136
 20
0.0071164810623383
 30
0.0
 11
40.02599999995994
 21
1.428116481060911
 31
0.0
  0
LINE
  5
21D8D
330
21D7A
100
AcDbEntity
  8
0
  6
CONTINUOUS
100
AcDbLine
 10
40.9183221720374
 20
4.340996280378933
 30
0.0
 11
41.89134866762525
 21
5.314022775966786
 31
0.0
  0
LINE
  5
21D8E
330
21D7A
100
AcDbEntity
  8
0
  6
CONTINUOUS
100
AcDbLine
 10
41.23578448461758
 20
3.984939383878926
 30
0.0
 11
42.20881098020543
 21
4.957965879466778
 31
0.0
  0
LINE
  5
21D8F
330
21D7A
100
AcDbEntity
  8
0
  6
CONTINUOUS
100
AcDbLine
 10
41.55324679719776
 20
3.628882487378919
 30
0.0
 11
42.52627329278561
 21
4.601908982966772
 31
0.0
  0
LINE
  5
21D90
330
21D7A
100
AcDbEntity
  8
0
  6
CONTINUOUS
100
AcDbLine
 10
41.87070910977793
 20
3.272825590878912
 30
0.0
 11
42.84373560536579
 21
4.245852086466765
 31
0.0
  0
LINE
  5
21D91
330
21D7A
100
AcDbEntity
  8
0
  6
CONTINUOUS
100
AcDbLine
 10
43.57899999995641
 20
7.001674108297943
 30
0.0
 11
44.99999999995498
 21
8.422674108296516
 31
0.0
  0
LINE
  5
21D92
330
21D7A
100
AcDbEntity
  8
0
  6
CONTINUOUS
100
AcDbLine
 10
43.57899999995641
 20
6.328154899217758
 30
0.0
 11
44.99999999995498
 21
7.749154899216329
 31
0.0
  0
LINE
  5
21D93
330
21D7A
100
AcDbEntity
  8
0
  6
CONTINUOUS
100
AcDbLine
 10
43.57899999995641
 20
5.654635690137571
 30
0.0
 11
44.99999999995498
 21
7.075635690136142
 31
0.0
  0
LINE
  5
21D94
330
21D7A
100
AcDbEntity
  8
0
  6
CONTINUOUS
100
AcDbLine
 10
43.57899999995641
 20
4.981116481057384
 30
0.0
 11
44.99999999995498
 21
6.402116481055955
 31
0.0
  0
LINE
  5
21D95
330
21D7A
100
AcDbEntity
  8
0
  6
CONTINUOUS
100
AcDbLine
 10
39.27140272797921
 20
-0.0000000000000009
 30
0.0
 11
40.02599999995994
 21
0.7545972719807246
 31
0.0
  0
LINE
  5
21D96
330
21D7A
100
AcDbEntity
  8
0
  6
CONTINUOUS
100
AcDbLine
 10
39.9449219370594
 20
-0.0000000000000009
 30
0.0
 11
40.02599999995994
 21
0.0810780629005379
 31
0.0
  0
LINE
  5
21D97
330
21D7A
100
AcDbEntity
  8
0
  6
CONTINUOUS
100
AcDbLine
 10
42.18817142235812
 20
2.916768694378905
 30
0.0
 11
43.16119791794597
 21
3.889795189966758
 31
0.0
  0
LINE
  5
21D98
330
21D7A
100
AcDbEntity
  8
0
  6
CONTINUOUS
100
AcDbLine
 10
42.50563373493829
 20
2.560711797878898
 30
0.0
 11
43.47866023052615
 21
3.533738293466751
 31
0.0
  0
LINE
  5
21D99
330
21D7A
100
AcDbEntity
  8
0
  6
CONTINUOUS
100
AcDbLine
 10
43.57899999995641
 20
4.307597271977198
 30
0.0
 11
44.99999999995498
 21
5.728597271975769
 31
0.0
  0
LINE
  5
21D9A
330
21D7A
100
AcDbEntity
  8
0
  6
CONTINUOUS
100
AcDbLine
 10
43.57899999995641
 20
3.634078062897011
 30
0.0
 11
44.99999999995498
 21
5.055078062895582
 31
0.0
  0
LINE
  5
21D9B
330
21D7A
100
AcDbEntity
  8
0
  6
CONTINUOUS
100
AcDbLine
 10
42.82309604751848
 20
2.204654901378891
 30
0.0
 11
44.99999999995498
 21
4.381558853815395
 31
0.0
  0
LINE
  5
21D9C
330
21D7A
100
AcDbEntity
  8
0
  6
CONTINUOUS
100
AcDbLine
 10
43.14055836009865
 20
1.848598004878885
 30
0.0
 11
44.99999999995498
 21
3.70803964473521
 31
0.0
  0
LINE
  5
21D9D
330
21D7A
100
AcDbEntity
  8
0
  6
CONTINUOUS
100
AcDbLine
 10
43.45802067267883
 20
1.492541108378878
 30
0.0
 11
44.99999999995498
 21
3.034520435655023
 31
0.0
  0
LINE
  5
21D9E
330
21D7A
100
AcDbEntity
  8
0
  6
CONTINUOUS
100
AcDbLine
 10
43.77548298525902
 20
1.136484211878871
 30
0.0
 11
44.99999999995498
 21
2.361001226574837
 31
0.0
  0
LINE
  5
21D9F
330
21D7A
100
AcDbEntity
  8
0
  6
CONTINUOUS
100
AcDbLine
 10
44.09294529783919
 20
0.7804273153788639
 30
0.0
 11
44.99999999995498
 21
1.687482017494649
 31
0.0
  0
LINE
  5
21DA0
330
21D7A
100
AcDbEntity
  8
0
  6
CONTINUOUS
100
AcDbLine
 10
44.41040761041938
 20
0.4243704188788566
 30
0.0
 11
44.99999999995498
 21
1.013962808414463
 31
0.0
  0
LINE
  5
21DA1
330
21D7A
100
AcDbEntity
  8
0
  6
CONTINUOUS
100
AcDbLine
 10
44.72786992299955
 20
0.0683135223788494
 30
0.0
 11
44.99999999995498
 21
0.340443599334276
 31
0.0
  0
LINE
  5
21DA2
330
21D7A
100
AcDbEntity
  8
0
  6
CONTINUOUS
100
AcDbLine
 10
39.12223903415696
 20
-0.0000000000000009
 30
0.0
 11
38.60499999996136
 21
0.5172390341955961
 31
0.0
  0
LINE
  5
21DA3
330
21D7A
100
AcDbEntity
  8
0
  6
CONTINUOUS
100
AcDbLine
 10
39.79575824323715
 20
-0.0000000000000009
 30
0.0
 11
38.60499999996136
 21
1.190758243275783
 31
0.0
  0
LINE
  5
21DA4
330
21D7A
100
AcDbEntity
  8
0
  6
CONTINUOUS
100
AcDbLine
 10
40.02599999995994
 20
0.443277452357397
 30
0.0
 11
38.60499999996136
 21
1.864277452355969
 31
0.0
  0
LINE
  5
21DA5
330
21D7A
100
AcDbEntity
  8
0
  6
CONTINUOUS
100
AcDbLine
 10
40.02599999995994
 20
1.116796661437583
 30
0.0
 11
38.60499999996136
 21
2.537796661436155
 31
0.0
  0
LINE
  5
21DA6
330
21D7A
100
AcDbEntity
  8
0
  6
CONTINUOUS
100
AcDbLine
 10
40.02599999995994
 20
1.79031587051777
 30
0.0
 11
38.60499999996136
 21
3.211315870516341
 31
0.0
  0
LINE
  5
21DA7
330
21D7A
100
AcDbEntity
  8
0
  6
CONTINUOUS
100
AcDbLine
 10
40.02599999995994
 20
2.463835079597956
 30
0.0
 11
38.60499999996136
 21
3.884835079596527
 31
0.0
  0
LINE
  5
21DA8
330
21D7A
100
AcDbEntity
  8
0
  6
CONTINUOUS
100
AcDbLine
 10
40.02599999995994
 20
3.137354288678143
 30
0.0
 11
38.60499999996136
 21
4.558354288676714
 31
0.0
  0
LINE
  5
21DA9
330
21D7A
100
AcDbEntity
  8
0
  6
CONTINUOUS
100
AcDbLine
 10
40.02599999995994
 20
3.810873497758329
 30
0.0
 11
38.60499999996136
 21
5.2318734977569
 31
0.0
  0
LINE
  5
21DAA
330
21D7A
100
AcDbEntity
  8
0
  6
CONTINUOUS
100
AcDbLine
 10
40.02599999995994
 20
4.484392706838515
 30
0.0
 11
38.60499999996136
 21
5.905392706837086
 31
0.0
  0
LINE
  5
21DAB
330
21D7A
100
AcDbEntity
  8
0
  6
CONTINUOUS
100
AcDbLine
 10
44.99999999995498
 20
0.183911915923658
 30
0.0
 11
41.53858364506288
 21
3.64532827081576
 31
0.0
  0
LINE
  5
21DAC
330
21D7A
100
AcDbEntity
  8
0
  6
CONTINUOUS
100
AcDbLine
 10
40.02599999995994
 20
5.157911915918703
 30
0.0
 11
38.60499999996136
 21
6.578911915917274
 31
0.0
  0
LINE
  5
21DAD
330
21D7A
100
AcDbEntity
  8
0
  6
CONTINUOUS
100
AcDbLine
 10
44.99999999995498
 20
0.8574311250038447
 30
0.0
 11
38.60499999996136
 21
7.25243112499746
 31
0.0
  0
LINE
  5
21DAE
330
21D7A
100
AcDbEntity
  8
0
  6
CONTINUOUS
100
AcDbLine
 10
44.99999999995498
 20
1.530950334084031
 30
0.0
 11
38.60499999996136
 21
7.925950334077647
 31
0.0
  0
LINE
  5
21DAF
330
21D7A
100
AcDbEntity
  8
0
  6
CONTINUOUS
100
AcDbLine
 10
44.99999999995498
 20
2.204469543164218
 30
0.0
 11
43.57899999995641
 21
3.625469543162789
 31
0.0
  0
LINE
  5
21DB0
330
21D7A
100
AcDbEntity
  8
0
  6
CONTINUOUS
100
AcDbLine
 10
41.89876730984767
 20
5.305702233271528
 30
0.0
 11
38.60499999996136
 21
8.599469543157834
 31
0.0
  0
LINE
  5
21DB1
330
21D7A
100
AcDbEntity
  8
0
  6
CONTINUOUS
100
AcDbLine
 10
44.99999999995498
 20
2.877988752244405
 30
0.0
 11
43.57899999995641
 21
4.298988752242975
 31
0.0
  0
LINE
  5
21DB2
330
21D7A
100
AcDbEntity
  8
0
  6
CONTINUOUS
100
AcDbLine
 10
44.99999999995498
 20
3.551507961324591
 30
0.0
 11
43.57899999995641
 21
4.972507961323163
 31
0.0
  0
LINE
  5
21DB3
330
21D7A
100
AcDbEntity
  8
0
  6
CONTINUOUS
100
AcDbLine
 10
44.99999999995498
 20
4.225027170404777
 30
0.0
 11
43.57899999995641
 21
5.646027170403348
 31
0.0
  0
LINE
  5
21DB4
330
21D7A
100
AcDbEntity
  8
0
  6
CONTINUOUS
100
AcDbLine
 10
44.99999999995498
 20
4.898546379484964
 30
0.0
 11
43.57899999995641
 21
6.319546379483535
 31
0.0
  0
LINE
  5
21DB5
330
21D7A
100
AcDbEntity
  8
0
  6
CONTINUOUS
100
AcDbLine
 10
44.99999999995498
 20
5.572065588565151
 30
0.0
 11
43.57899999995641
 21
6.993065588563722
 31
0.0
  0
LINE
  5
21DB6
330
21D7A
100
AcDbEntity
  8
0
  6
CONTINUOUS
100
AcDbLine
 10
44.99999999995498
 20
6.245584797645336
 30
0.0
 11
43.57899999995641
 21
7.666584797643908
 31
0.0
  0
LINE
  5
21DB7
330
21D7A
100
AcDbEntity
  8
0
  6
CONTINUOUS
100
AcDbLine
 10
44.99999999995498
 20
6.919104006725522
 30
0.0
 11
43.57899999995641
 21
8.340104006724093
 31
0.0
  0
LINE
  5
21DB8
330
21D7A
100
AcDbEntity
  8
0
  6
CONTINUOUS
100
AcDbLine
 10
44.99999999995498
 20
7.592623215805709
 30
0.0
 11
43.82952321576943
 21
8.763099999991255
 31
0.0
  0
LINE
  5
21DB9
330
21D7A
100
AcDbEntity
  8
0
  6
CONTINUOUS
100
AcDbLine
 10
44.99999999995498
 20
8.266142424885896
 30
0.0
 11
44.50304242484962
 21
8.763099999991255
 31
0.0
  0
ENDBLK
  5
21DE3
330
21D7A
100
AcDbEntity
  8
0
100
AcDbBlockEnd
  0
BLOCK
  5
21DE4
330
21DBA
100
AcDbEntity
  8
0
100
AcDbBlockBegin
  2
*X45
 70
     1
 10
0.0
 20
0.0
 30
0.0
  3
*X45
  1

  0
LINE
  5
21DBB
330
21DBA
100
AcDbEntity
  8
0
  6
CONTINUOUS
100
AcDbLine
 10
0.0
 20
8.548461116714023
 30
0.0
 11
0.2146388832772324
 21
8.763099999991255
 31
0.0
  0
LINE
  5
21DBC
330
21DBA
100
AcDbEntity
  8
0
  6
CONTINUOUS
100
AcDbLine
 10
-0.0000000000000002
 20
7.874941907633837
 30
0.0
 11
0.8881580923574184
 21
8.763099999991255
 31
0.0
  0
LINE
  5
21DBD
330
21DBA
100
AcDbEntity
  8
0
  6
CONTINUOUS
100
AcDbLine
 10
0.0
 20
7.20142269855365
 30
0.0
 11
1.420999999998572
 21
8.622422698552223
 31
0.0
  0
LINE
  5
21DBE
330
21DBA
100
AcDbEntity
  8
0
  6
CONTINUOUS
100
AcDbLine
 10
-0.0000000000000001
 20
6.527903489473465
 30
0.0
 11
1.420999999998571
 21
7.948903489472036
 31
0.0
  0
LINE
  5
21DBF
330
21DBA
100
AcDbEntity
  8
0
  6
CONTINUOUS
100
AcDbLine
 10
-0.0000000000000002
 20
5.854384280393278
 30
0.0
 11
1.420999999998571
 21
7.275384280391849
 31
0.0
  0
LINE
  5
21DC0
330
21DBA
100
AcDbEntity
  8
0
  6
CONTINUOUS
100
AcDbLine
 10
-0.0000000000000002
 20
5.180865071313091
 30
0.0
 11
1.420999999998571
 21
6.601865071311663
 31
0.0
  0
LINE
  5
21DC1
330
21DBA
100
AcDbEntity
  8
0
  6
CONTINUOUS
100
AcDbLine
 10
0.0
 20
4.507345862232905
 30
0.0
 11
1.420999999998571
 21
5.928345862231477
 31
0.0
  0
LINE
  5
21DC2
330
21DBA
100
AcDbEntity
  8
0
  6
CONTINUOUS
100
AcDbLine
 10
-0.0000000000000003
 20
3.833826653152718
 30
0.0
 11
1.420999999998571
 21
5.25482665315129
 31
0.0
  0
LINE
  5
21DC3
330
21DBA
100
AcDbEntity
  8
0
  6
CONTINUOUS
100
AcDbLine
 10
-0.0000000000000002
 20
3.160307444072532
 30
0.0
 11
1.420999999998571
 21
4.581307444071103
 31
0.0
  0
LINE
  5
21DC4
330
21DBA
100
AcDbEntity
  8
0
  6
CONTINUOUS
100
AcDbLine
 10
-0.0000000000000001
 20
2.486788234992345
 30
0.0
 11
1.420999999998571
 21
3.907788234990917
 31
0.0
  0
LINE
  5
21DC5
330
21DBA
100
AcDbEntity
  8
0
  6
CONTINUOUS
100
AcDbLine
 10
-0.0000000000000006
 20
1.813269025912159
 30
0.0
 11
1.420999999998571
 21
3.234269025910731
 31
0.0
  0
LINE
  5
21DC6
330
21DBA
100
AcDbEntity
  8
0
  6
CONTINUOUS
100
AcDbLine
 10
0.0
 20
1.139749816831973
 30
0.0
 11
1.420999999998571
 21
2.560749816830544
 31
0.0
  0
LINE
  5
21DC7
330
21DBA
100
AcDbEntity
  8
0
  6
CONTINUOUS
100
AcDbLine
 10
0.0000000000000002
 20
0.466230607751787
 30
0.0
 11
1.420999999998571
 21
1.887230607750358
 31
0.0
  0
LINE
  5
21DC8
330
21DBA
100
AcDbEntity
  8
0
  6
CONTINUOUS
100
AcDbLine
 10
0.2072886013284003
 20
-0.0000000000000009
 30
0.0
 11
1.420999999998571
 21
1.213711398670171
 31
0.0
  0
LINE
  5
21DC9
330
21DBA
100
AcDbEntity
  8
0
  6
CONTINUOUS
100
AcDbLine
 10
0.8808078104085864
 20
-0.0000000000000009
 30
0.0
 11
1.420999999998571
 21
0.5401921895899839
 31
0.0
  0
LINE
  5
21DCA
330
21DBA
100
AcDbEntity
  8
0
  6
CONTINUOUS
100
AcDbLine
 10
0.0581249075061505
 20
-0.0000000000000009
 30
0.0
 11
-0.0000000000000002
 21
0.0581249075061496
 31
0.0
  0
LINE
  5
21DCB
330
21DBA
100
AcDbEntity
  8
0
  6
CONTINUOUS
100
AcDbLine
 10
0.7316441165863372
 20
-0.0000000000000009
 30
0.0
 11
-0.0000000000000002
 21
0.7316441165863363
 31
0.0
  0
LINE
  5
21DCC
330
21DBA
100
AcDbEntity
  8
0
  6
CONTINUOUS
100
AcDbLine
 10
1.405163325666523
 20
-0.0000000000000009
 30
0.0
 11
-0.0000000000000002
 21
1.405163325666523
 31
0.0
  0
LINE
  5
21DCD
330
21DBA
100
AcDbEntity
  8
0
  6
CONTINUOUS
100
AcDbLine
 10
1.420999999998572
 20
0.6576825347481381
 30
0.0
 11
-0.0000000000000001
 21
2.07868253474671
 31
0.0
  0
LINE
  5
21DCE
330
21DBA
100
AcDbEntity
  8
0
  6
CONTINUOUS
100
AcDbLine
 10
1.420999999998571
 20
1.331201743828324
 30
0.0
 11
-0.0000000000000001
 21
2.752201743826896
 31
0.0
  0
LINE
  5
21DCF
330
21DBA
100
AcDbEntity
  8
0
  6
CONTINUOUS
100
AcDbLine
 10
1.420999999998571
 20
2.004720952908511
 30
0.0
 11
-0.0000000000000002
 21
3.425720952907082
 31
0.0
  0
LINE
  5
21DD0
330
21DBA
100
AcDbEntity
  8
0
  6
CONTINUOUS
100
AcDbLine
 10
1.420999999998571
 20
2.678240161988697
 30
0.0
 11
-0.0000000000000001
 21
4.099240161987269
 31
0.0
  0
LINE
  5
21DD1
330
21DBA
100
AcDbEntity
  8
0
  6
CONTINUOUS
100
AcDbLine
 10
1.420999999998572
 20
3.351759371068884
 30
0.0
 11
0.0
 21
4.772759371067455
 31
0.0
  0
LINE
  5
21DD2
330
21DBA
100
AcDbEntity
  8
0
  6
CONTINUOUS
100
AcDbLine
 10
1.420999999998571
 20
4.02527858014907
 30
0.0
 11
-0.0000000000000003
 21
5.446278580147642
 31
0.0
  0
LINE
  5
21DD3
330
21DBA
100
AcDbEntity
  8
0
  6
CONTINUOUS
100
AcDbLine
 10
1.420999999998571
 20
4.698797789229257
 30
0.0
 11
0.0
 21
6.119797789227828
 31
0.0
  0
LINE
  5
21DD4
330
21DBA
100
AcDbEntity
  8
0
  6
CONTINUOUS
100
AcDbLine
 10
1.420999999998571
 20
5.372316998309444
 30
0.0
 11
-0.0000000000000001
 21
6.793316998308015
 31
0.0
  0
LINE
  5
21DD5
330
21DBA
100
AcDbEntity
  8
0
  6
CONTINUOUS
100
AcDbLine
 10
1.420999999998572
 20
6.045836207389629
 30
0.0
 11
-0.0000000000000004
 21
7.466836207388202
 31
0.0
  0
LINE
  5
21DD6
330
21DBA
100
AcDbEntity
  8
0
  6
CONTINUOUS
100
AcDbLine
 10
1.420999999998571
 20
6.719355416469816
 30
0.0
 11
0.0
 21
8.140355416468388
 31
0.0
  0
LINE
  5
21DD7
330
21DBA
100
AcDbEntity
  8
0
  6
CONTINUOUS
100
AcDbLine
 10
1.420999999998571
 20
7.392874625550003
 30
0.0
 11
0.0507746255573185
 21
8.763099999991255
 31
0.0
  0
LINE
  5
21DD8
330
21DBA
100
AcDbEntity
  8
0
  6
CONTINUOUS
100
AcDbLine
 10
1.420999999998571
 20
8.06639383463019
 30
0.0
 11
0.7242938346375052
 21
8.763099999991255
 31
0.0
  0
LINE
  5
21DD9
330
21DBA
100
AcDbEntity
  8
0
  6
CONTINUOUS
100
AcDbLine
 10
1.420999999998571
 20
8.739913043710375
 30
0.0
 11
1.397813043717691
 21
8.763099999991255
 31
0.0
  0
ENDBLK
  5
21DE5
330
21DBA
100
AcDbEntity
  8
0
100
AcDbBlockEnd
  0
ENDSEC
  0
SECTION
  2
ENTITIES
  0
LINE
  5
20AA9
330
18
100
AcDbEntity
  8
01
100
AcDbLine
 10
632.536241615365
 20
-669.0113303512661
 30
0.0
 11
632.536241615365
 21
-691.1613303512676
 31
0.0
  0
LINE
  5
20AAA
330
18
100
AcDbEntity
  8
01
100
AcDbLine
 10
632.536241615365
 20
-671.5113303512668
 30
0.0
 11
632.536241615365
 21
-689.1613303512662
 31
0.0
  0
TEXT
  5
20AB4
330
18
100
AcDbEntity
  8
1TEXT
100
AcDbText
 10
593.3636125890391
 20
-571.1613303512664
 30
0.0
 40
8.0
  1
SE-395-X
100
AcDbText
  0
LINE
  5
20AB9
330
18
100
AcDbEntity
  8
01
100
AcDbLine
 10
645.0362416153649
 20
-650.316801731878
 30
0.0
 11
645.0362416153649
 21
-741.316801731878
 31
0.0
  0
LINE
  5
20ABA
330
18
100
AcDbEntity
  8
01
100
AcDbLine
 10
654.0362416153649
 20
-650.316801731878
 30
0.0
 11
654.0362416153649
 21
-741.316801731878
 31
0.0
  0
LINE
  5
20ABB
330
18
100
AcDbEntity
  8
01
100
AcDbLine
 10
632.5362416153649
 20
-650.316801731878
 30
0.0
 11
632.5362416153649
 21
-741.316801731878
 31
0.0
  0
LINE
  5
20AD9
330
18
100
AcDbEntity
  8
1DIM
100
AcDbLine
 10
593.3636125890391
 20
-576.1613303512664
 30
0.0
 11
663.3636125890391
 21
-576.1613303512664
 31
0.0
  0
LINE
  5
20ADA
330
18
100
AcDbEntity
  8
1DIM
100
AcDbLine
 10
593.3636125890391
 20
-590.1613303512664
 30
0.0
 11
663.3636125890391
 21
-590.1613303512664
 31
0.0
  0
LINE
  5
20ADB
330
18
100
AcDbEntity
  8
1DIM
100
AcDbLine
 10
593.3636125890391
 20
-583.1613303512664
 30
0.0
 11
663.3636125890391
 21
-583.1613303512664
 31
0.0
  0
LINE
  5
20ADC
330
18
100
AcDbEntity
  8
1DIM
100
AcDbLine
 10
593.3636125890391
 20
-597.1613303512664
 30
0.0
 11
663.3636125890391
 21
-597.1613303512664
 31
0.0
  0
LINE
  5
20ADD
330
18
100
AcDbEntity
  8
1DIM
100
AcDbLine
 10
593.3636125890391
 20
-597.1613303512664
 30
0.0
 11
663.3636125890391
 21
-597.1613303512664
 31
0.0
  0
LINE
  5
20ADE
330
18
100
AcDbEntity
  8
1DIM
100
AcDbLine
 10
663.3636125890391
 20
-576.1613303512664
 30
0.0
 11
663.3636125890391
 21
-597.1613303512664
 31
0.0
  0
TEXT
  5
20ADF
330
18
100
AcDbEntity
  8
1TEXT
100
AcDbText
 10
638.8969459223721
 20
-581.6613303512664
 30
0.0
 40
4.0
  1
コード
 72
     1
 11
645.7636125890388
 21
-581.6613303512664
 31
0.0
100
AcDbText
  0
LINE
  5
20AE0
330
18
100
AcDbEntity
  8
1DIM
100
AcDbLine
 10
628.3636125890391
 20
-597.1613303512664
 30
0.0
 11
628.3636125890391
 21
-576.1613303512664
 31
0.0
  0
TEXT
  5
20AE3
330
18
100
AcDbEntity
  8
1TEXT
100
AcDbText
 10
601.4969459223721
 20
-581.6613303512664
 30
0.0
 40
4.0
  1
表面処理
 72
     1
 11
610.7636125890388
 21
-581.6613303512664
 31
0.0
100
AcDbText
  0
TEXT
  5
20AE4
330
18
100
AcDbEntity
  8
1TEXT
100
AcDbText
 10
594.4969459223721
 20
-588.4966190107908
 30
0.0
 40
4.0
  1
マットブラック
 72
     1
 11
610.7636125890388
 21
-588.4966190107908
 31
0.0
100
AcDbText
  0
TEXT
  5
20AE5
330
18
100
AcDbEntity
  8
1TEXT
100
AcDbText
 10
594.9536125890388
 20
-595.4966190107908
 30
0.0
 40
4.0
  1
ブラストシルバー
 41
0.85
 72
     1
 11
610.7636125890388
 21
-595.4966190107908
 31
0.0
100
AcDbText
  0
LINE
  5
20AE6
330
18
100
AcDbEntity
  8
1DIM
100
AcDbLine
 10
593.3636125890391
 20
-597.1613303512664
 30
0.0
 11
593.3636125890391
 21
-576.1613303512664
 31
0.0
  0
TEXT
  5
20AE7
330
18
100
AcDbEntity
  8
1TEXT
100
AcDbText
 10
629.8843533297804
 20
-588.8756873349158
 30
0.0
 40
4.0
  1
SE-395-003
 41
0.85
 72
     1
 11
645.7636125890397
 21
-588.8756873349158
 31
0.0
100
AcDbText
  0
TEXT
  5
20AE8
330
18
100
AcDbEntity
  8
1TEXT
100
AcDbText
 10
629.8135199964471
 20
-595.8756873349158
 30
0.0
 40
4.0
  1
SE-395-040
 41
0.85
 72
     1
 11
645.7636125890397
 21
-595.8756873349158
 31
0.0
100
AcDbText
  0
LINE
  5
2135F
330
18
100
AcDbEntity
  8
01
  6
CONTINUOUS
100
AcDbLine
 10
515.5362418388822
 20
-693.4750404298635
 30
0.0
 11
515.5362418388822
 21
-711.1613313291551
 31
0.0
  0
LINE
  5
21360
330
18
100
AcDbEntity
  8
01
  6
CONTINUOUS
100
AcDbLine
 10
525.5362416153649
 20
-713.1613314214172
 30
0.0
 11
534.5362412279346
 21
-713.1613314214172
 31
0.0
  0
LINE
  5
21361
330
18
100
AcDbEntity
  8
01
  6
CONTINUOUS
100
AcDbLine
 10
535.5362413918474
 20
-711.1613313291551
 30
0.0
 11
535.5362413918474
 21
-693.4750404298635
 31
0.0
  0
LINE
  5
21362
330
18
100
AcDbEntity
  8
01
  6
CONTINUOUS
100
AcDbLine
 10
516.536242002795
 20
-713.1613314214172
 30
0.0
 11
525.5362416153648
 21
-713.1613314214172
 31
0.0
  0
LINE
  5
21363
330
18
100
AcDbEntity
  8
01
  6
CONTINUOUS
100
AcDbLine
 10
521.9504552895078
 20
-684.1613322586151
 30
0.0
 11
525.5362416153648
 21
-684.1613322586151
 31
0.0
  0
LINE
  5
21364
330
18
100
AcDbEntity
  8
01
  6
CONTINUOUS
100
AcDbLine
 10
525.5362416153649
 20
-684.1613322586151
 30
0.0
 11
529.1220279412219
 21
-684.1613322586151
 31
0.0
  0
SPLINE
  5
21365
330
18
100
AcDbEntity
  8
01
  6
CONTINUOUS
100
AcDbSpline
210
0.0
220
0.0
230
1.0
 70
     8
 71
     3
 72
    10
 73
     6
 74
     0
 42
0.000000001
 43
0.00000001
 40
0.0
 40
0.0
 40
0.0
 40
0.0
 40
0.5
 40
0.5
 40
1.0
 40
1.0
 40
1.0
 40
1.0
 10
535.5362416153649
 20
-693.4750399231347
 30
0.0
 10
535.5362416153649
 20
-692.8175307615398
 30
0.0
 10
535.4547737597048
 20
-692.1600619854349
 30
0.0
 10
535.133810400327
 20
-690.8848146712788
 30
0.0
 10
534.8943346108023
 20
-690.2671144613954
 30
0.0
 10
534.5830783683826
 20
-689.6879444957236
 30
0.0
  0
SPLINE
  5
21366
330
18
100
AcDbEntity
  8
01
  6
CONTINUOUS
100
AcDbSpline
210
0.0
220
0.0
230
1.0
 70
     8
 71
     3
 72
    10
 73
     6
 74
     0
 42
0.000000001
 43
0.00000001
 40
0.0
 40
0.0
 40
0.0
 40
0.0
 40
0.5
 40
0.5
 40
1.0
 40
1.0
 40
1.0
 40
1.0
 10
516.4894048623471
 20
-689.6879444957236
 30
0.0
 10
516.1781486199274
 20
-690.2671144613954
 30
0.0
 10
515.9386728304029
 20
-690.8848146712788
 30
0.0
 10
515.6177094710249
 20
-692.1600619854349
 30
0.0
 10
515.5362416153648
 20
-692.8175307615398
 30
0.0
 10
515.5362416153648
 20
-693.4750399231347
 30
0.0
  0
SPLINE
  5
21367
330
18
100
AcDbEntity
  8
01
  6
CONTINUOUS
100
AcDbSpline
210
0.0
220
0.0
230
1.0
 70
     8
 71
     3
 72
     8
 73
     4
 74
     0
 42
0.000000001
 43
0.00000001
 40
0.0
 40
0.0
 40
0.0
 40
0.0
 40
1.0
 40
1.0
 40
1.0
 40
1.0
 10
533.1930958648574
 20
-687.818185673642
 30
0.0
 10
533.7399816584838
 20
-688.3650714672686
 30
0.0
 10
534.2047404623867
 20
-688.9839523433901
 30
0.0
 10
534.583078368383
 20
-689.6879444957234
 30
0.0
  0
SPLINE
  5
21368
330
18
100
AcDbEntity
  8
01
  6
CONTINUOUS
100
AcDbSpline
210
0.0
220
0.0
230
1.0
 70
     8
 71
     3
 72
     8
 73
     4
 74
     0
 42
0.000000001
 43
0.00000001
 40
0.0
 40
0.0
 40
0.0
 40
0.0
 40
1.0
 40
1.0
 40
1.0
 40
1.0
 10
516.4894048623468
 20
-689.6879444957234
 30
0.0
 10
516.8677427683431
 20
-688.9839523433901
 30
0.0
 10
517.332501572246
 20
-688.3650714672686
 30
0.0
 10
517.8793873658724
 20
-687.818185673642
 30
0.0
  0
SPLINE
  5
21369
330
18
100
AcDbEntity
  8
01
  6
CONTINUOUS
100
AcDbSpline
210
0.0
220
0.0
230
1.0
 70
     8
 71
     3
 72
    14
 73
    10
 74
     0
 42
0.000000001
 43
0.00000001
 40
0.0
 40
0.0
 40
0.0
 40
0.0
 40
0.25
 40
0.25
 40
0.5
 40
0.5
 40
0.75
 40
0.75
 40
1.0
 40
1.0
 40
1.0
 40
1.0
 10
516.5362416153649
 20
-713.16133142415
 30
0.0
 10
516.4183883786063
 20
-713.16133142415
 30
0.0
 10
516.2912398819561
 20
-713.1398518701009
 30
0.0
 10
516.0450440286234
 20
-713.0423836605677
 30
0.0
 10
515.9267599494375
 20
-712.9660647660825
 30
0.0
 10
515.731499249537
 20
-712.7708011751312
 30
0.0
 10
515.6551831706252
 20
-712.6525171583593
 30
0.0
 10
515.5577195395912
 20
-712.4063252113398
 30
0.0
 10
515.5362416153649
 20
-712.2791888741434
 30
0.0
 10
515.5362416153649
 20
-712.16133142415
 30
0.0
  0
SPLINE
  5
2136A
330
18
100
AcDbEntity
  8
01
  6
CONTINUOUS
100
AcDbSpline
210
0.0
220
0.0
230
1.0
 70
    24
 71
     3
 72
    17
 73
    13
 74
     0
 42
0.000000001
 43
0.00000001
 40
0.0
 40
0.0
 40
0.0
 40
0.0
 40
0.0602589848582056
 40
0.1200207017116773
 40
0.1798243027525602
 40
0.2402078182571197
 40
0.3699983305618021
 40
0.5001303270819517
 40
0.6299209929574879
 40
0.7600531434437033
 40
0.8799432879683101
 40
1.0
 40
1.0
 40
1.0
 40
1.0
 10
515.5362416153649
 20
-711.16133142415
 30
0.0
 10
515.5362416153649
 20
-711.1928558383362
 30
0.0
 10
515.5362416153649
 20
-711.2556445215602
 30
0.0
 10
515.5362416153649
 20
-711.3488935654838
 30
0.0
 10
515.5362416153649
 20
-711.4405270075096
 30
0.0
 10
515.5362416153649
 20
-711.5643038496327
 30
0.0
 10
515.5362416153649
 20
-711.7143716033548
 30
0.0
 10
515.5362416153649
 20
-711.8730520010823
 30
0.0
 10
515.5362416153649
 20
-712.0034171353992
 30
0.0
 10
515.5362416153649
 20
-712.0945046784735
 30
0.0
 10
515.5362416153649
 20
-712.1513419118338
 30
0.0
 10
515.5362416153649
 20
-712.1580000460523
 30
0.0
 10
515.5362416153649
 20
-712.16133142415
 30
0.0
  0
SPLINE
  5
2136B
330
18
100
AcDbEntity
  8
01
  6
CONTINUOUS
100
AcDbSpline
210
0.0
220
0.0
230
1.0
 70
    24
 71
     3
 72
    17
 73
    13
 74
     0
 42
0.000000001
 43
0.00000001
 40
0.0
 40
0.0
 40
0.0
 40
0.0
 40
0.0602589848585845
 40
0.1200207017121798
 40
0.1798243027529377
 40
0.2402078182571269
 40
0.3699983305618369
 40
0.5001303270819233
 40
0.6299209929562287
 40
0.7600531434436584
 40
0.8799432879675253
 40
1.0
 40
1.0
 40
1.0
 40
1.0
 10
535.5362416153649
 20
-712.16133142415
 30
0.0
 10
535.5362416153649
 20
-712.1604967765699
 30
0.0
 10
535.5362416153649
 20
-712.1588343690715
 30
0.0
 10
535.5362416153649
 20
-712.1451438720261
 30
0.0
 10
535.5362416153649
 20
-712.1231992407444
 30
0.0
 10
535.5362416153649
 20
-712.0806799662743
 30
0.0
 10
535.5362416153649
 20
-712.0033803109271
 30
0.0
 10
535.5362416153649
 20
-711.8733473002732
 30
0.0
 10
535.5362416153649
 20
-711.7144919088192
 30
0.0
 10
535.5362416153649
 20
-711.5366974442408
 30
0.0
 10
535.5362416153649
 20
-711.3499258692224
 30
0.0
 10
535.5362416153649
 20
-711.2242253256514
 30
0.0
 10
535.5362416153649
 20
-711.16133142415
 30
0.0
  0
SPLINE
  5
2136C
330
18
100
AcDbEntity
  8
01
  6
CONTINUOUS
100
AcDbSpline
210
0.0
220
0.0
230
1.0
 70
     8
 71
     3
 72
    10
 73
     6
 74
     0
 42
0.000000001
 43
0.00000001
 40
0.0
 40
0.0
 40
0.0
 40
0.0
 40
0.5
 40
0.5
 40
1.0
 40
1.0
 40
1.0
 40
1.0
 10
535.5362416153649
 20
-712.1613314241503
 30
0.0
 10
535.5362416153649
 20
-712.4231308119494
 30
0.0
 10
535.4284685189748
 20
-712.6833180829136
 30
0.0
 10
535.0582282741283
 20
-713.05355832776
 30
0.0
 10
534.798041003164
 20
-713.1613314241503
 30
0.0
 10
534.5362416153649
 20
-713.1613314241503
 30
0.0
  0
SPLINE
  5
2136D
330
18
100
AcDbEntity
  8
01
  6
CONTINUOUS
100
AcDbSpline
210
0.0
220
0.0
230
1.0
 70
    24
 71
     3
 72
    18
 73
    14
 74
     0
 42
0.000000001
 43
0.00000001
 40
0.0
 40
0.0
 40
0.0
 40
0.0
 40
0.2499999999999994
 40
0.2499999999999994
 40
0.4999999999999989
 40
0.4999999999999989
 40
0.6249999999999991
 40
0.6249999999999991
 40
0.7499999999999994
 40
0.7499999999999994
 40
0.8749999999999998
 40
0.8749999999999998
 40
1.0
 40
1.0
 40
1.0
 40
1.0
 10
517.8793873658725
 20
-687.8181856736425
 30
0.0
 10
518.2943165272077
 20
-687.4032565123072
 30
0.0
 10
518.6932038351193
 20
-687.0043692043956
 30
0.0
 10
519.4534755821496
 20
-686.2440974573652
 30
0.0
 10
519.8186856673302
 20
-685.8788873721847
 30
0.0
 10
520.2960264887878
 20
-685.401546550727
 30
0.0
 10
520.4444207170694
 20
-685.2531523224455
 30
0.0
 10
520.7148605962159
 20
-684.982712443299
 30
0.0
 10
520.833549592522
 20
-684.8640234469927
 30
0.0
 10
521.030913628938
 20
-684.6666594105769
 30
0.0
 10
521.1102245054739
 20
-684.5873485340411
 30
0.0
 10
521.2157424072733
 20
-684.4818306322417
 30
0.0
 10
521.2433483933092
 20
-684.4542246462055
 30
0.0
 10
521.2433483965514
 20
-684.4542246429636
 30
0.0
  0
SPLINE
  5
2136E
330
18
100
AcDbEntity
  8
01
  6
CONTINUOUS
100
AcDbSpline
210
0.0
220
0.0
230
1.0
 70
     8
 71
     3
 72
    10
 73
     6
 74
     0
 42
0.000000001
 43
0.00000001
 40
0.0
 40
0.0
 40
0.0
 40
0.0
 40
0.5
 40
0.5
 40
1.0
 40
1.0
 40
1.0
 40
1.0
 10
521.9504551777379
 20
-684.16133142415
 30
0.0
 10
521.8326040475401
 20
-684.16133142415
 30
0.0
 10
521.7054574185598
 20
-684.1828101629636
 30
0.0
 10
521.4592635177921
 20
-684.2802760832118
 30
0.0
 10
521.3409794694892
 20
-684.3565935700257
 30
0.0
 10
521.2433483965514
 20
-684.4542246429636
 30
0.0
  0
SPLINE
  5
2136F
330
18
100
AcDbEntity
  8
01
  6
CONTINUOUS
100
AcDbSpline
210
0.0
220
0.0
230
1.0
 70
    24
 71
     3
 72
    18
 73
    14
 74
     0
 42
0.000000001
 43
0.00000001
 40
0.0
 40
0.0
 40
0.0
 40
0.0
 40
0.1250000000000003
 40
0.1250000000000003
 40
0.2500000000000006
 40
0.2500000000000006
 40
0.3750000000000008
 40
0.3750000000000008
 40
0.5000000000000011
 40
0.5000000000000011
 40
0.7500000000000006
 40
0.7500000000000006
 40
1.0
 40
1.0
 40
1.0
 40
1.0
 10
529.8291348341784
 20
-684.4542246429636
 30
0.0
 10
529.8291348374204
 20
-684.4542246462055
 30
0.0
 10
529.8567408234563
 20
-684.4818306322417
 30
0.0
 10
529.9622587252559
 20
-684.5873485340411
 30
0.0
 10
530.0415696017917
 20
-684.6666594105769
 30
0.0
 10
530.2389336382076
 20
-684.8640234469927
 30
0.0
 10
530.3576226345139
 20
-684.982712443299
 30
0.0
 10
530.6280625136603
 20
-685.2531523224455
 30
0.0
 10
530.776456741942
 20
-685.401546550727
 30
0.0
 10
531.2537975633995
 20
-685.8788873721847
 30
0.0
 10
531.6190076485801
 20
-686.2440974573652
 30
0.0
 10
532.3792793956104
 20
-687.0043692043956
 30
0.0
 10
532.7781667035221
 20
-687.4032565123072
 30
0.0
 10
533.1930958648572
 20
-687.8181856736425
 30
0.0
  0
SPLINE
  5
21370
330
18
100
AcDbEntity
  8
01
  6
CONTINUOUS
100
AcDbSpline
210
0.0
220
0.0
230
1.0
 70
     8
 71
     3
 72
    10
 73
     6
 74
     0
 42
0.000000001
 43
0.00000001
 40
0.0
 40
0.0
 40
0.0
 40
0.0
 40
0.5
 40
0.5
 40
1.0
 40
1.0
 40
1.0
 40
1.0
 10
529.8291348341785
 20
-684.4542246429636
 30
0.0
 10
529.7315037612406
 20
-684.3565935700257
 30
0.0
 10
529.6132197129376
 20
-684.2802760832118
 30
0.0
 10
529.3670258121699
 20
-684.1828101629636
 30
0.0
 10
529.2398791831897
 20
-684.16133142415
 30
0.0
 10
529.122028052992
 20
-684.16133142415
 30
0.0
  0
LINE
  5
21371
330
18
100
AcDbEntity
  8
01
  6
CONTINUOUS
100
AcDbLine
 10
515.5362418388822
 20
-667.1613313347431
 30
0.0
 11
515.5362418388822
 21
-693.4719354003997
 31
0.0
  0
LINE
  5
21372
330
18
100
AcDbEntity
  8
01
  6
CONTINUOUS
100
AcDbLine
 10
535.5362413918474
 20
-693.4719354003997
 30
0.0
 11
535.5362413918474
 21
-667.1613313347431
 31
0.0
  0
LINE
  5
21373
330
18
100
AcDbEntity
  8
01
  6
CONTINUOUS
100
AcDbLine
 10
534.5362412279346
 20
-661.1613303512664
 30
0.0
 11
525.5362416153648
 21
-661.1613303512664
 31
0.0
  0
LINE
  5
21374
330
18
100
AcDbEntity
  8
01
  6
CONTINUOUS
100
AcDbLine
 10
525.5362416153649
 20
-661.1613303512664
 30
0.0
 11
516.536242002795
 21
-661.1613303512664
 31
0.0
  0
SPLINE
  5
21375
330
18
100
AcDbEntity
  8
01
  6
CONTINUOUS
100
AcDbSpline
210
0.0
220
0.0
230
1.0
 70
     8
 71
     3
 72
    10
 73
     6
 74
     0
 42
0.000000001
 43
0.00000001
 40
0.0
 40
0.0
 40
0.0
 40
0.0
 40
0.5
 40
0.5
 40
1.0
 40
1.0
 40
1.0
 40
1.0
 10
515.5362416153649
 20
-662.1613314244793
 30
0.0
 10
515.5362416152788
 20
-661.8995320366251
 30
0.0
 10
515.6440147116303
 20
-661.6393447655724
 30
0.0
 10
516.0142549564936
 20
-661.2691045205873
 30
0.0
 10
516.2744422275108
 20
-661.16133142415
 30
0.0
 10
516.5362416153649
 20
-661.16133142415
 30
0.0
  0
SPLINE
  5
21376
330
18
100
AcDbEntity
  8
01
  6
CONTINUOUS
100
AcDbSpline
210
0.0
220
0.0
230
1.0
 70
    24
 71
     3
 72
    22
 73
    18
 74
     0
 42
0.000000001
 43
0.00000001
 40
0.0
 40
0.0
 40
0.0
 40
0.0
 40
0.1250000000000025
 40
0.1250000000000025
 40
0.1875000000000024
 40
0.1875000000000024
 40
0.2500000000000023
 40
0.2500000000000023
 40
0.3750000000000019
 40
0.3750000000000019
 40
0.5000000000000016
 40
0.5000000000000016
 40
0.6250000000000012
 40
0.6250000000000012
 40
0.7500000000000008
 40
0.7500000000000008
 40
1.0
 40
1.0
 40
1.0
 40
1.0
 10
515.5362416153649
 20
-667.1613314241503
 30
0.0
 10
515.5362416153649
 20
-666.8312158496154
 30
0.0
 10
515.5362416153649
 20
-666.506573835638
 30
0.0
 10
515.5362416153649
 20
-666.0275731625514
 30
0.0
 10
515.5362416153649
 20
-665.8692381320039
 30
0.0
 10
515.5362416153649
 20
-665.555292420216
 30
0.0
 10
515.5362416153649
 20
-665.3992488631562
 30
0.0
 10
515.5362416153649
 20
-664.9453196893129
 30
0.0
 10
515.5362416153649
 20
-664.6582531652535
 30
0.0
 10
515.5362416153649
 20
-664.1149423611272
 30
0.0
 10
515.5362416153649
 20
-663.8576646429009
 30
0.0
 10
515.5362416153649
 20
-663.3964587554789
 30
0.0
 10
515.5362416153649
 20
-663.1894816833725
 30
0.0
 10
515.5362416153649
 20
-662.823891889706
 30
0.0
 10
515.5362416153649
 20
-662.6684421379774
 30
0.0
 10
515.5362416153649
 20
-662.2940079416422
 30
0.0
 10
515.5362416153649
 20
-662.1613314273935
 30
0.0
 10
515.5362416153649
 20
-662.1613314244793
 30
0.0
  0
SPLINE
  5
21377
330
18
100
AcDbEntity
  8
01
  6
CONTINUOUS
100
AcDbSpline
210
0.0
220
0.0
230
1.0
 70
     8
 71
     3
 72
    14
 73
    10
 74
     0
 42
0.000000001
 43
0.00000001
 40
0.0
 40
0.0
 40
0.0
 40
0.0
 40
0.25
 40
0.25
 40
0.5
 40
0.5
 40
0.75
 40
0.75
 40
1.0
 40
1.0
 40
1.0
 40
1.0
 10
534.5362416153649
 20
-661.16133142415
 30
0.0
 10
534.65409274559
 20
-661.16133142415
 30
0.0
 10
534.7812393746023
 20
-661.1828101629739
 30
0.0
 10
535.027433275423
 20
-661.2802760832693
 30
0.0
 10
535.145717323746
 20
-661.3565935701205
 30
0.0
 10
535.3409794696295
 20
-661.5518557160791
 30
0.0
 10
535.417296956431
 20
-661.6701397644271
 30
0.0
 10
535.5147628766279
 20
-661.9163336652649
 30
0.0
 10
535.5362416154037
 20
-662.0434802942701
 30
0.0
 10
535.5362416153649
 20
-662.1613314244793
 30
0.0
  0
SPLINE
  5
21378
330
18
100
AcDbEntity
  8
01
  6
CONTINUOUS
100
AcDbSpline
210
0.0
220
0.0
230
1.0
 70
    24
 71
     3
 72
    22
 73
    18
 74
     0
 42
0.000000001
 43
0.00000001
 40
0.0
 40
0.0
 40
0.0
 40
0.0
 40
0.2499999999999992
 40
0.2499999999999992
 40
0.3749999999999988
 40
0.3749999999999988
 40
0.4999999999999984
 40
0.4999999999999984
 40
0.6249999999999981
 40
0.6249999999999981
 40
0.7499999999999978
 40
0.7499999999999978
 40
0.8124999999999976
 40
0.8124999999999976
 40
0.8749999999999974
 40
0.8749999999999974
 40
1.0
 40
1.0
 40
1.0
 40
1.0
 10
535.5362416153649
 20
-662.1613314244793
 30
0.0
 10
535.5362416153649
 20
-662.1613314273935
 30
0.0
 10
535.5362416153649
 20
-662.2940079416422
 30
0.0
 10
535.5362416153649
 20
-662.6684421379774
 30
0.0
 10
535.5362416153649
 20
-662.823891889706
 30
0.0
 10
535.5362416153649
 20
-663.1894816833725
 30
0.0
 10
535.5362416153649
 20
-663.3964587554789
 30
0.0
 10
535.5362416153649
 20
-663.8576646429009
 30
0.0
 10
535.5362416153649
 20
-664.1149423611272
 30
0.0
 10
535.5362416153649
 20
-664.6582531652535
 30
0.0
 10
535.5362416153649
 20
-664.9453196893129
 30
0.0
 10
535.5362416153649
 20
-665.3992488631562
 30
0.0
 10
535.5362416153649
 20
-665.555292420216
 30
0.0
 10
535.5362416153649
 20
-665.8692381320039
 30
0.0
 10
535.5362416153649
 20
-666.0275731625514
 30
0.0
 10
535.5362416153649
 20
-666.506573835638
 30
0.0
 10
535.5362416153649
 20
-666.8312158496154
 30
0.0
 10
535.5362416153649
 20
-667.1613314241503
 30
0.0
  0
SPLINE
  5
2139A
330
18
100
AcDbEntity
  8
01
  6
CONTINUOUS
100
AcDbSpline
210
0.0
220
0.0
230
1.0
 70
     8
 71
     3
 72
    26
 73
    22
 74
     0
 42
0.000000001
 43
0.00000001
 40
0.0
 40
0.0
 40
0.0
 40
0.0
 40
0.0768116587423742
 40
0.1374604492074306
 40
0.1827631920296514
 40
0.2134599248488623
 40
0.2736641392101337
 40
0.3248431560693463
 40
0.3675193270415157
 40
0.4034961319641751
 40
0.4502026342913548
 40
0.5084792025797259
 40
0.5768126010191542
 40
0.6415394865379357
 40
0.6929770645651587
 40
0.7315021887814953
 40
0.7832667186650425
 40
0.8461737822034835
 40
0.9082358604700631
 40
0.9662449768397424
 40
1.0
 40
1.0
 40
1.0
 40
1.0
 10
534.1247850572391
 20
-612.161331051621
 30
0.0
 10
534.1183922028289
 20
-612.161217553637
 30
0.0
 10
534.1069516916702
 20
-612.1610144401499
 30
0.0
 10
534.0907129487047
 20
-612.159505533769
 30
0.0
 10
534.0779510022176
 20
-612.1577474851453
 30
0.0
 10
534.0636023362266
 20
-612.155213502365
 30
0.0
 10
534.0457840920274
 20
-612.1510539654403
 30
0.0
 10
534.0280682367372
 20
-612.145497178521
 30
0.0
 10
534.0134233465249
 20
-612.1399511743916
 30
0.0
 10
534.0001004173348
 20
-612.1341109143495
 30
0.0
 10
533.9860981397951
 20
-612.1270965536994
 30
0.0
 10
533.9698672780656
 20
-612.1175928585097
 30
0.0
 10
533.9531608135915
 20
-612.1058747014201
 30
0.0
 10
533.9389916780547
 20
-612.0938456647981
 30
0.0
 10
533.929935817308
 20
-612.084839501517
 30
0.0
 10
533.9239341731261
 20
-612.0782458396341
 30
0.0
 10
533.9185665931598
 20
-612.0717495935924
 30
0.0
 10
533.9138338176024
 20
-612.0651852083988
 30
0.0
 10
533.9109113336758
 20
-612.0604312298568
 30
0.0
 10
533.909832966016
 20
-612.0583524531108
 30
0.0
 10
533.9098180212998
 20
-612.0583064456147
 30
0.0
 10
533.9098125239535
 20
-612.0582895219655
 30
0.0
  0
SPLINE
  5
2139B
330
18
100
AcDbEntity
  8
01
  6
CONTINUOUS
100
AcDbSpline
210
0.0
220
0.0
230
1.0
 70
     8
 71
     3
 72
    22
 73
    18
 74
     0
 42
0.000000001
 43
0.00000001
 40
0.0
 40
0.0
 40
0.0
 40
0.0
 40
0.0574583844262062
 40
0.1104213072915168
 40
0.1573374401871474
 40
0.210872646253092
 40
0.3316280261374095
 40
0.4566145618946064
 40
0.5833344379827855
 40
0.6285153676870159
 40
0.6717622124204169
 40
0.7128832601214938
 40
0.7516998123914016
 40
0.7933138159344421
 40
0.8477424880037663
 40
0.9162996019246359
 40
1.0
 40
1.0
 40
1.0
 40
1.0
 10
517.1377984350248
 20
-612.0582727581592
 30
0.0
 10
517.1377376274311
 20
-612.058414331887
 30
0.0
 10
517.1376207697424
 20
-612.0586864028172
 30
0.0
 10
517.1358363423913
 20
-612.0618968058237
 30
0.0
 10
517.132378988364
 20
-612.0671853774908
 30
0.0
 10
517.12552214237
 20
-612.07636362592
 30
0.0
 10
517.1119614115717
 20
-612.0913546886667
 30
0.0
 10
517.0872419651635
 20
-612.1118596244966
 30
0.0
 10
517.0615285990381
 20
-612.127446638685
 30
0.0
 10
517.0399195052752
 20
-612.1375421150659
 30
0.0
 10
517.0258849008034
 20
-612.1431805571675
 30
0.0
 10
517.0116730513598
 20
-612.1480327602645
 30
0.0
 10
516.9963522278525
 20
-612.1523682452123
 30
0.0
 10
516.9795156782552
 20
-612.1561249501734
 30
0.0
 10
516.962494332844
 20
-612.158884807226
 30
0.0
 10
516.9428115736135
 20
-612.1609518449006
 30
0.0
 10
516.9299111318346
 20
-612.16119653715
 30
0.0
 10
516.9228193824812
 20
-612.161331051621
 30
0.0
  0
SPLINE
  5
2139C
330
18
100
AcDbEntity
  8
01
  6
CONTINUOUS
100
AcDbSpline
210
0.0
220
0.0
230
1.0
 70
     8
 71
     3
 72
    22
 73
    18
 74
     0
 42
0.000000001
 43
0.00000001
 40
0.0
 40
0.0
 40
0.0
 40
0.0
 40
0.0574583304209406
 40
0.1104210786611755
 40
0.1573374855220456
 40
0.2108726848279568
 40
0.3316284598208206
 40
0.4566145285947756
 40
0.5833348211940858
 40
0.6285153523596282
 40
0.6717621916321346
 40
0.7128832341407471
 40
0.7517000752544676
 40
0.7933138420332587
 40
0.8477425072297291
 40
0.9162996124937088
 40
1.0
 40
1.0
 40
1.0
 40
1.0
 10
533.9098060046955
 20
-594.2643873259755
 30
0.0
 10
533.9098668105885
 20
-594.2642459935404
 30
0.0
 10
533.9099836648763
 20
-594.2639743866242
 30
0.0
 10
533.9117681147835
 20
-594.2607657352376
 30
0.0
 10
533.9152254332407
 20
-594.2554751886208
 30
0.0
 10
533.9220823311989
 20
-594.2462978587266
 30
0.0
 10
533.935642896114
 20
-594.2313044627759
 30
0.0
 10
533.9603626789399
 20
-594.2108025300512
 30
0.0
 10
533.9860756095776
 20
-594.1952123394186
 30
0.0
 10
534.0076850185017
 20
-594.1851192058103
 30
0.0
 10
534.0217195150358
 20
-594.1794802625873
 30
0.0
 10
534.0359314748649
 20
-594.17462868989
 30
0.0
 10
534.0512520759054
 20
-594.1702912044703
 30
0.0
 10
534.0680888440884
 20
-594.1665366367989
 30
0.0
 10
534.0851100845825
 20
-594.1637759896357
 30
0.0
 10
534.104792873783
 20
-594.161709245823
 30
0.0
 10
534.1176933106087
 20
-594.1614645050062
 30
0.0
 10
534.1247850572391
 20
-594.1613299638362
 30
0.0
  0
SPLINE
  5
2139D
330
18
100
AcDbEntity
  8
01
  6
CONTINUOUS
100
AcDbSpline
210
0.0
220
0.0
230
1.0
 70
     8
 71
     3
 72
    26
 73
    22
 74
     0
 42
0.000000001
 43
0.00000001
 40
0.0
 40
0.0
 40
0.0
 40
0.0
 40
0.0768116478932919
 40
0.1374604472274756
 40
0.1827633043529547
 40
0.213460041661179
 40
0.273664264826564
 40
0.3248432891700681
 40
0.3675194663830939
 40
0.4034959019415505
 40
0.4502028136699106
 40
0.5084793904805013
 40
0.5768123088730396
 40
0.6415392038573189
 40
0.6929767894066446
 40
0.7315023032148822
 40
0.7832664987592557
 40
0.8461738637079068
 40
0.9082357439690464
 40
0.9662449719034923
 40
1.0
 40
1.0
 40
1.0
 40
1.0
 10
516.9228193824812
 20
-594.1613299638362
 30
0.0
 10
516.9292122353435
 20
-594.1614431215254
 30
0.0
 10
516.9406527451828
 20
-594.1616456260541
 30
0.0
 10
516.9568915166442
 20
-594.163154105406
 30
0.0
 10
516.9696534193149
 20
-594.1649137325248
 30
0.0
 10
516.9840021075752
 20
-594.1674474095502
 30
0.0
 10
517.0018203396728
 20
-594.1716071307691
 30
0.0
 10
517.0195362234501
 20
-594.1771636797947
 30
0.0
 10
517.0341809928825
 20
-594.1827102595688
 30
0.0
 10
517.0475041893553
 20
-594.1885485722675
 30
0.0
 10
517.0615061901453
 20
-594.1955649572402
 30
0.0
 10
517.0777371039435
 20
-594.2050682082744
 30
0.0
 10
517.0944437060976
 20
-594.2167851059327
 30
0.0
 10
517.1086127439742
 20
-594.2288146676843
 30
0.0
 10
517.1176686712959
 20
-594.2378200831039
 30
0.0
 10
517.1236702028766
 20
-594.244415858891
 30
0.0
 10
517.1290379004955
 20
-594.2509095722086
 30
0.0
 10
517.1337705911401
 20
-594.257476745717
 30
0.0
 10
517.1366931182004
 20
-594.2622280350959
 30
0.0
 10
517.1377714720625
 20
-594.2643087874892
 30
0.0
 10
517.1377864179835
 20
-594.2643546304025
 30
0.0
 10
517.1377919157668
 20
-594.2643714934917
 30
0.0
  0
SPLINE
  5
213A0
330
18
100
AcDbEntity
  8
01
  6
CONTINUOUS
100
AcDbSpline
210
0.0
220
0.0
230
1.0
 70
     8
 71
     3
 72
    20
 73
    16
 74
     0
 42
0.000000001
 43
0.00000001
 40
0.0
 40
0.0
 40
0.0
 40
0.0
 40
0.1018529126776856
 40
0.1819248179501091
 40
0.2215249413608014
 40
0.2559529607185358
 40
0.290941478346204
 40
0.3985007514955999
 40
0.5069181505421446
 40
0.6153851622790348
 40
0.718816675390967
 40
0.7666450072619073
 40
0.8265572338306063
 40
0.904815778580866
 40
1.0
 40
1.0
 40
1.0
 40
1.0
 10
535.3238958035986
 20
-594.6613303511626
 30
0.0
 10
535.3222895804086
 20
-594.6460469537132
 30
0.0
 10
535.3211079926841
 20
-594.6187490230878
 30
0.0
 10
535.3138077918072
 20
-594.5862119933325
 30
0.0
 10
535.3069578759205
 20
-594.5641517930935
 30
0.0
 10
535.301227491
 20
-594.5488396300191
 30
0.0
 10
535.2906595980496
 20
-594.524504655625
 30
0.0
 10
535.2719915410457
 20
-594.4916418646397
 30
0.0
 10
535.2413474677945
 20
-594.4536399119323
 30
0.0
 10
535.2053918715974
 20
-594.4215066242276
 30
0.0
 10
535.1725656064397
 20
-594.4004347422714
 30
0.0
 10
535.1440296287989
 20
-594.3864220936911
 30
0.0
 10
535.1187333353771
 20
-594.3763902993094
 30
0.0
 10
535.0873146530936
 20
-594.3672029777697
 30
0.0
 10
535.0637649313245
 20
-594.3641942867588
 30
0.0
 10
535.0508410026952
 20
-594.3625431374045
 30
0.0
  0
SPLINE
  5
213A1
330
18
100
AcDbEntity
  8
01
  6
CONTINUOUS
100
AcDbSpline
210
0.0
220
0.0
230
1.0
 70
     8
 71
     3
 72
    21
 73
    17
 74
     0
 42
0.000000001
 43
0.00000001
 40
0.0
 40
0.0
 40
0.0
 40
0.0
 40
0.0753300643424001
 40
0.1378880966169448
 40
0.1900440553634576
 40
0.2412040724676735
 40
0.348697942753016
 40
0.4578280997990772
 40
0.5670023195355133
 40
0.6713553433172663
 40
0.7033933127837466
 40
0.7391990363939859
 40
0.7876102572961844
 40
0.8480426793774157
 40
0.9193633569321431
 40
1.0
 40
1.0
 40
1.0
 40
1.0
 10
515.9967634370252
 20
-594.3625431374045
 30
0.0
 10
515.987633594883
 20
-594.363601645806
 30
0.0
 10
515.970921853477
 20
-594.3655391950439
 30
0.0
 10
515.9457225466768
 20
-594.3714666044956
 30
0.0
 10
515.9218114797242
 20
-594.379113200157
 30
0.0
 10
515.8924384732387
 20
-594.3911334370678
 30
0.0
 10
515.8570171634669
 20
-594.4108375046234
 30
0.0
 10
515.8184329640044
 20
-594.4414976086065
 30
0.0
 10
515.7857030211635
 20
-594.4777214639649
 30
0.0
 10
515.7655316067204
 20
-594.5089369945251
 30
0.0
 10
515.753760059295
 20
-594.5320643483334
 30
0.0
 10
515.7466166159439
 20
-594.5480671639554
 30
0.0
 10
515.7389976465522
 20
-594.5685115604402
 30
0.0
 10
515.7316746575065
 20
-594.5946802253948
 30
0.0
 10
515.7258727359754
 20
-594.626256253484
 30
0.0
 10
515.725076080347
 20
-594.6491705175463
 30
0.0
 10
515.7237086361217
 20
-594.6613303511626
 30
0.0
  0
LINE
  5
213A4
330
18
100
AcDbEntity
  8
01
  6
CONTINUOUS
100
AcDbLine
 10
515.5238024433776
 20
-585.1613303512664
 30
0.0
 11
515.5238024433776
 21
-588.1613303773435
 31
0.0
  0
LINE
  5
213B6
330
18
100
AcDbEntity
  8
01
  6
CONTINUOUS
100
AcDbLine
 10
535.5238019963427
 20
-588.1613303773435
 30
0.0
 11
535.5238019963427
 21
-585.1613303512664
 31
0.0
  0
LINE
  5
213B7
330
18
100
AcDbEntity
  8
01
  6
CONTINUOUS
100
AcDbLine
 10
525.5238022198602
 20
-594.1613299638362
 30
0.0
 11
516.5238026072903
 21
-594.1613299638362
 31
0.0
  0
LINE
  5
213B8
330
18
100
AcDbEntity
  8
01
  6
CONTINUOUS
100
AcDbLine
 10
534.52380183243
 20
-594.1613299638362
 30
0.0
 11
525.5238022198602
 21
-594.1613299638362
 31
0.0
  0
SPLINE
  5
213B9
330
18
100
AcDbEntity
  8
01
  6
CONTINUOUS
100
AcDbSpline
210
0.0
220
0.0
230
1.0
 70
     8
 71
     3
 72
    14
 73
    10
 74
     0
 42
0.000000001
 43
0.00000001
 40
0.0
 40
0.0
 40
0.0
 40
0.0
 40
0.25
 40
0.25
 40
0.5
 40
0.5
 40
0.75
 40
0.75
 40
1.0
 40
1.0
 40
1.0
 40
1.0
 10
516.5238022198602
 20
-594.161330351266
 30
0.0
 10
516.405951089635
 20
-594.161330351266
 30
0.0
 10
516.2788044606227
 20
-594.1398516124422
 30
0.0
 10
516.0326105598019
 20
-594.0423856921467
 30
0.0
 10
515.914326511479
 20
-593.9660682052956
 30
0.0
 10
515.7190643655956
 20
-593.7708060593369
 30
0.0
 10
515.6427468787941
 20
-593.6525220109891
 30
0.0
 10
515.5452809585972
 20
-593.4063281101511
 30
0.0
 10
515.5238022198214
 20
-593.279181481146
 30
0.0
 10
515.5238022198602
 20
-593.161330350937
 30
0.0
  0
SPLINE
  5
213BA
330
18
100
AcDbEntity
  8
01
  6
CONTINUOUS
100
AcDbSpline
210
0.0
220
0.0
230
1.0
 70
    24
 71
     3
 72
    22
 73
    18
 74
     0
 42
0.000000001
 43
0.00000001
 40
0.0
 40
0.0
 40
0.0
 40
0.0
 40
0.1250000000000025
 40
0.1250000000000025
 40
0.1875000000000024
 40
0.1875000000000024
 40
0.2500000000000023
 40
0.2500000000000023
 40
0.3750000000000019
 40
0.3750000000000019
 40
0.5000000000000016
 40
0.5000000000000016
 40
0.6250000000000012
 40
0.6250000000000012
 40
0.7500000000000008
 40
0.7500000000000008
 40
1.0
 40
1.0
 40
1.0
 40
1.0
 10
515.5238022198602
 20
-593.161330350937
 30
0.0
 10
515.5238022198602
 20
-593.1613303486919
 30
0.0
 10
515.5238022198602
 20
-593.1289544910198
 30
0.0
 10
515.5238022198602
 20
-593.033813442447
 30
0.0
 10
515.5238022198602
 20
-592.9942792198514
 30
0.0
 10
515.5238022198602
 20
-592.8992136921205
 30
0.0
 10
515.5238022198602
 20
-592.8434119024834
 30
0.0
 10
515.5238022198602
 20
-592.6553911473961
 30
0.0
 10
515.5238022198602
 20
-592.5019796739111
 30
0.0
 10
515.5238022198602
 20
-592.1395398704202
 30
0.0
 10
515.5238022198602
 20
-591.9285661066342
 30
0.0
 10
515.5238022198602
 20
-591.4676898650487
 30
0.0
 10
515.5238022198602
 20
-591.2162200166883
 30
0.0
 10
515.5238022198602
 20
-590.670226422869
 30
0.0
 10
515.5238022198602
 20
-590.3794071814751
 30
0.0
 10
515.5238022198602
 20
-589.4777033903255
 30
0.0
 10
515.5238022198602
 20
-588.8191082911806
 30
0.0
 10
515.5238022198602
 20
-588.1613303512661
 30
0.0
  0
SPLINE
  5
213BB
330
18
100
AcDbEntity
  8
01
  6
CONTINUOUS
100
AcDbSpline
210
0.0
220
0.0
230
1.0
 70
    24
 71
     3
 72
    22
 73
    18
 74
     0
 42
0.000000001
 43
0.00000001
 40
0.0
 40
0.0
 40
0.0
 40
0.0
 40
0.2499999999999992
 40
0.2499999999999992
 40
0.3749999999999988
 40
0.3749999999999988
 40
0.4999999999999984
 40
0.4999999999999984
 40
0.6249999999999981
 40
0.6249999999999981
 40
0.7499999999999978
 40
0.7499999999999978
 40
0.8124999999999976
 40
0.8124999999999976
 40
0.8749999999999974
 40
0.8749999999999974
 40
1.0
 40
1.0
 40
1.0
 40
1.0
 10
535.5238022198602
 20
-588.1613303512661
 30
0.0
 10
535.5238022198602
 20
-588.8191082911806
 30
0.0
 10
535.5238022198602
 20
-589.4777033903255
 30
0.0
 10
535.5238022198602
 20
-590.3794071814751
 30
0.0
 10
535.5238022198602
 20
-590.670226422869
 30
0.0
 10
535.5238022198602
 20
-591.2162200166883
 30
0.0
 10
535.5238022198602
 20
-591.4676898650487
 30
0.0
 10
535.5238022198602
 20
-591.9285661066342
 30
0.0
 10
535.5238022198602
 20
-592.1395398704202
 30
0.0
 10
535.5238022198602
 20
-592.5019796739111
 30
0.0
 10
535.5238022198602
 20
-592.6553911473961
 30
0.0
 10
535.5238022198602
 20
-592.8434119024834
 30
0.0
 10
535.5238022198602
 20
-592.8992136921205
 30
0.0
 10
535.5238022198602
 20
-592.9942792198514
 30
0.0
 10
535.5238022198602
 20
-593.033813442447
 30
0.0
 10
535.5238022198602
 20
-593.1289544910198
 30
0.0
 10
535.5238022198602
 20
-593.1613303486919
 30
0.0
 10
535.5238022198602
 20
-593.161330350937
 30
0.0
  0
SPLINE
  5
213BC
330
18
100
AcDbEntity
  8
01
  6
CONTINUOUS
100
AcDbSpline
210
0.0
220
0.0
230
1.0
 70
     8
 71
     3
 72
    10
 73
     6
 74
     0
 42
0.000000001
 43
0.00000001
 40
0.0
 40
0.0
 40
0.0
 40
0.0
 40
0.5
 40
0.5
 40
1.0
 40
1.0
 40
1.0
 40
1.0
 10
535.5238022198602
 20
-593.161330350937
 30
0.0
 10
535.5238022199463
 20
-593.423129738791
 30
0.0
 10
535.4160291235947
 20
-593.6833170098438
 30
0.0
 10
535.0457888787315
 20
-594.0535572548289
 30
0.0
 10
534.7856016077142
 20
-594.1613303512662
 30
0.0
 10
534.5238022198602
 20
-594.1613303512662
 30
0.0
  0
LINE
  5
213BD
330
18
100
AcDbEntity
  8
01
  6
CONTINUOUS
100
AcDbLine
 10
525.5238022198602
 20
-619.1613321990104
 30
0.0
 11
533.6897847717329
 21
-619.1613321990104
 31
0.0
  0
LINE
  5
213BE
330
18
100
AcDbEntity
  8
01
  6
CONTINUOUS
100
AcDbLine
 10
529.1095885457172
 20
-612.161331051621
 30
0.0
 11
525.5238022198602
 21
-612.161331051621
 31
0.0
  0
LINE
  5
213BF
330
18
100
AcDbEntity
  8
01
  6
CONTINUOUS
100
AcDbLine
 10
525.5238022198602
 20
-612.161331051621
 30
0.0
 11
521.9380158940031
 21
-612.161331051621
 31
0.0
  0
LINE
  5
213C0
330
18
100
AcDbEntity
  8
01
  6
CONTINUOUS
100
AcDbLine
 10
517.3578196679874
 20
-619.1613321990104
 30
0.0
 11
525.5238022198602
 21
-619.1613321990104
 31
0.0
  0
LINE
  5
213C1
330
18
100
AcDbEntity
  8
01
  6
CONTINUOUS
100
AcDbLine
 10
532.4735496667846
 20
-612.161331051621
 30
0.0
 11
529.1095885457172
 21
-612.161331051621
 31
0.0
  0
LINE
  5
213C2
330
18
100
AcDbEntity
  8
01
  6
CONTINUOUS
100
AcDbLine
 10
521.9380158940031
 20
-612.161331051621
 30
0.0
 11
518.5740547729357
 21
-612.161331051621
 31
0.0
  0
LINE
  5
213C3
330
18
100
AcDbEntity
  8
01
  6
CONTINUOUS
100
AcDbLine
 10
515.5238024433776
 20
-613.1613312155338
 30
0.0
 11
515.5238024433776
 21
-618.1613301724525
 31
0.0
  0
LINE
  5
213C4
330
18
100
AcDbEntity
  8
01
  6
CONTINUOUS
100
AcDbLine
 10
535.5238019963427
 20
-618.1613301724525
 30
0.0
 11
535.5238019963427
 21
-613.1613312155338
 31
0.0
  0
SPLINE
  5
213C5
330
18
100
AcDbEntity
  8
01
  6
CONTINUOUS
100
AcDbSpline
210
0.0
220
0.0
230
1.0
 70
     8
 71
     3
 72
    10
 73
     6
 74
     0
 42
0.000000001
 43
0.00000001
 40
0.0
 40
0.0
 40
0.0
 40
0.0
 40
0.5
 40
0.5
 40
1.0
 40
1.0
 40
1.0
 40
1.0
 10
534.5238022198602
 20
-612.1613303512663
 30
0.0
 10
534.7856016076594
 20
-612.1613303512663
 30
0.0
 10
535.0457888786235
 20
-612.2691034476566
 30
0.0
 10
535.41602912347
 20
-612.6393436925031
 30
0.0
 10
535.5238022198603
 20
-612.8995309634672
 30
0.0
 10
535.5238022198603
 20
-613.1613303512664
 30
0.0
  0
SPLINE
  5
213C6
330
18
100
AcDbEntity
  8
01
  6
CONTINUOUS
100
AcDbSpline
210
0.0
220
0.0
230
1.0
 70
    24
 71
     3
 72
    10
 73
     6
 74
     0
 42
0.000000001
 43
0.00000001
 40
0.0
 40
0.0
 40
0.0
 40
0.0
 40
0.5
 40
0.5
 40
1.0
 40
1.0
 40
1.0
 40
1.0
 10
534.5238022198602
 20
-612.1613303512664
 30
0.0
 10
534.5238022198602
 20
-612.1613303512664
 30
0.0
 10
534.3416109565384
 20
-612.1613303512664
 30
0.0
 10
533.64030693834
 20
-612.1613303512664
 30
0.0
 10
533.1214701166474
 20
-612.1613303512664
 30
0.0
 10
532.473549688166
 20
-612.1613303512664
 30
0.0
  0
SPLINE
  5
213C7
330
18
100
AcDbEntity
  8
01
  6
CONTINUOUS
100
AcDbSpline
210
0.0
220
0.0
230
1.0
 70
     8
 71
     3
 72
    10
 73
     6
 74
     0
 42
0.000000001
 43
0.00000001
 40
0.0
 40
0.0
 40
0.0
 40
0.0
 40
0.5
 40
0.5
 40
1.0
 40
1.0
 40
1.0
 40
1.0
 10
516.5238022198602
 20
-612.1613303512664
 30
0.0
 10
516.2620028320611
 20
-612.1613303512664
 30
0.0
 10
516.0018155610969
 20
-612.2691034476567
 30
0.0
 10
515.6315753162504
 20
-612.6393436925031
 30
0.0
 10
515.5238022198602
 20
-612.8995309634672
 30
0.0
 10
515.5238022198602
 20
-613.1613303512664
 30
0.0
  0
SPLINE
  5
213C8
330
18
100
AcDbEntity
  8
01
  6
CONTINUOUS
100
AcDbSpline
210
0.0
220
0.0
230
1.0
 70
    24
 71
     3
 72
    19
 73
    15
 74
     0
 42
0.000000001
 43
0.00000001
 40
0.0
 40
0.0
 40
0.0
 40
0.0
 40
0.0495831888624432
 40
0.0990614121412412
 40
0.1485096991165906
 40
0.19800321521394
 40
0.2476169202909908
 40
0.3737672627328236
 40
0.5000135947223162
 40
0.6261639395000043
 40
0.7524102738264363
 40
0.8349770355287021
 40
0.9173908471542842
 40
1.0
 40
1.0
 40
1.0
 40
1.0
 10
518.5740547515543
 20
-612.1613303512664
 30
0.0
 10
518.510531441645
 20
-612.1613303512664
 30
0.0
 10
518.3836192980762
 20
-612.1613303512664
 30
0.0
 10
518.2031177344203
 20
-612.1613303512664
 30
0.0
 10
518.0302551961109
 20
-612.1613303512664
 30
0.0
 10
517.865707118826
 20
-612.1613303512664
 30
0.0
 10
517.6291136743968
 20
-612.1613303512664
 30
0.0
 10
517.3432788199168
 20
-612.1613303512664
 30
0.0
 10
517.0461813462824
 20
-612.1613303512664
 30
0.0
 10
516.8122053560154
 20
-612.1613303512664
 30
0.0
 10
516.663722500847
 20
-612.1613303512664
 30
0.0
 10
516.5779259038259
 20
-612.1613303512664
 30
0.0
 10
516.53222532464
 20
-612.1613303512664
 30
0.0
 10
516.5266121362706
 20
-612.1613303512664
 30
0.0
 10
516.5238022198602
 20
-612.1613303512664
 30
0.0
  0
SPLINE
  5
213C9
330
18
100
AcDbEntity
  8
01
  6
CONTINUOUS
100
AcDbSpline
210
0.0
220
0.0
230
1.0
 70
     8
 71
     3
 72
    10
 73
     6
 74
     0
 42
0.000000001
 43
0.00000001
 40
0.0
 40
0.0
 40
0.0
 40
0.0
 40
0.5
 40
0.5
 40
1.0
 40
1.0
 40
1.0
 40
1.0
 10
534.5238022198602
 20
-619.1613303512664
 30
0.0
 10
534.7856016076594
 20
-619.1613303512664
 30
0.0
 10
535.0457888786235
 20
-619.0535572548762
 30
0.0
 10
535.41602912347
 20
-618.6833170100297
 30
0.0
 10
535.5238022198603
 20
-618.4231297390655
 30
0.0
 10
535.5238022198603
 20
-618.1613303512664
 30
0.0
  0
SPLINE
  5
213CA
330
18
100
AcDbEntity
  8
01
  6
CONTINUOUS
100
AcDbSpline
210
0.0
220
0.0
230
1.0
 70
    24
 71
     3
 72
    10
 73
     6
 74
     0
 42
0.000000001
 43
0.00000001
 40
0.0
 40
0.0
 40
0.0
 40
0.0
 40
0.5
 40
0.5
 40
1.0
 40
1.0
 40
1.0
 40
1.0
 10
533.6897843787508
 20
-619.1613303512664
 30
0.0
 10
533.962133590868
 20
-619.1613303512664
 30
0.0
 10
534.171674906702
 20
-619.1613303512664
 30
0.0
 10
534.4525178461577
 20
-619.1613303512664
 30
0.0
 10
534.5238022198602
 20
-619.1613303512664
 30
0.0
 10
534.5238022198602
 20
-619.1613303512664
 30
0.0
  0
SPLINE
  5
213CB
330
18
100
AcDbEntity
  8
01
  6
CONTINUOUS
100
AcDbSpline
210
0.0
220
0.0
230
1.0
 70
     8
 71
     3
 72
    10
 73
     6
 74
     0
 42
0.000000001
 43
0.00000001
 40
0.0
 40
0.0
 40
0.0
 40
0.0
 40
0.5
 40
0.5
 40
1.0
 40
1.0
 40
1.0
 40
1.0
 10
516.5238022198602
 20
-619.1613303512663
 30
0.0
 10
516.2620028320611
 20
-619.1613303512663
 30
0.0
 10
516.0018155610969
 20
-619.0535572548762
 30
0.0
 10
515.6315753162504
 20
-618.6833170100296
 30
0.0
 10
515.5238022198603
 20
-618.4231297390655
 30
0.0
 10
515.5238022198603
 20
-618.1613303512663
 30
0.0
  0
SPLINE
  5
213CC
330
18
100
AcDbEntity
  8
01
  6
CONTINUOUS
100
AcDbSpline
210
0.0
220
0.0
230
1.0
 70
    24
 71
     3
 72
    10
 73
     6
 74
     0
 42
0.000000001
 43
0.00000001
 40
0.0
 40
0.0
 40
0.0
 40
0.0
 40
0.5
 40
0.5
 40
1.0
 40
1.0
 40
1.0
 40
1.0
 10
516.5238022198602
 20
-619.1613303512664
 30
0.0
 10
516.5238022198602
 20
-619.1613303512664
 30
0.0
 10
516.5950865935628
 20
-619.1613303512664
 30
0.0
 10
516.8759295330184
 20
-619.1613303512664
 30
0.0
 10
517.0854708488524
 20
-619.1613303512664
 30
0.0
 10
517.3578200609696
 20
-619.1613303512664
 30
0.0
  0
LINE
  5
213CD
330
18
100
AcDbEntity
  8
01
  6
CONTINUOUS
100
AcDbLine
 10
533.9238019203468
 20
-612.0779497415157
 30
0.0
 11
533.9238019203468
 21
-611.9613295287223
 31
0.0
  0
LINE
  5
213CE
330
18
100
AcDbEntity
  8
01
  6
CONTINUOUS
100
AcDbLine
 10
533.9238019203468
 20
-594.3613305554123
 30
0.0
 11
533.9238019203468
 21
-594.245104292068
 31
0.0
  0
LINE
  5
213CF
330
18
100
AcDbEntity
  8
01
  6
CONTINUOUS
100
AcDbLine
 10
517.1238025193735
 20
-594.244710342619
 30
0.0
 11
517.1238025193735
 21
-594.3613305554123
 31
0.0
  0
LINE
  5
213D0
330
18
100
AcDbEntity
  8
01
  6
CONTINUOUS
100
AcDbLine
 10
517.1238025193735
 20
-611.9613295287223
 30
0.0
 11
517.1238025193735
 21
-612.0775567233892
 31
0.0
  0
SPLINE
  5
213D1
330
18
100
AcDbEntity
  8
01
  6
CONTINUOUS
100
AcDbSpline
210
0.0
220
0.0
230
1.0
 70
    24
 71
     3
 72
    20
 73
    16
 74
     0
 42
0.000000001
 43
0.00000001
 40
0.0
 40
0.0
 40
0.0
 40
0.0
 40
0.25
 40
0.25
 40
0.375
 40
0.375
 40
0.5
 40
0.5
 40
0.625
 40
0.625
 40
0.75
 40
0.75
 40
0.875
 40
0.875
 40
1.0
 40
1.0
 40
1.0
 40
1.0
 10
535.5238022198602
 20
-610.1613303512664
 30
0.0
 10
535.5238022198602
 20
-610.5559971152194
 30
0.0
 10
535.5238022198602
 20
-610.9511541747762
 30
0.0
 10
535.5238022198602
 20
-611.4921764494685
 30
0.0
 10
535.5238022198602
 20
-611.6666679936769
 30
0.0
 10
535.5238022198602
 20
-611.9942641512908
 30
0.0
 10
535.5238022198603
 20
-612.1451460599376
 30
0.0
 10
535.5238022198602
 20
-612.421671804365
 30
0.0
 10
535.5238022198603
 20
-612.5482560624113
 30
0.0
 10
535.5238022198602
 20
-612.7657199455297
 30
0.0
 10
535.5238022198603
 20
-612.8577668298242
 30
0.0
 10
535.5238022198602
 20
-613.0081834324993
 30
0.0
 10
535.5238022198602
 20
-613.0657919962647
 30
0.0
 10
535.5238022198602
 20
-613.1419048355018
 30
0.0
 10
535.5238022198602
 20
-613.1613303475267
 30
0.0
 10
535.5238022198602
 20
-613.1613303512664
 30
0.0
  0
SPLINE
  5
213D2
330
18
100
AcDbEntity
  8
01
  6
CONTINUOUS
100
AcDbSpline
210
0.0
220
0.0
230
1.0
 70
    24
 71
     3
 72
    20
 73
    16
 74
     0
 42
0.000000001
 43
0.00000001
 40
0.0
 40
0.0
 40
0.0
 40
0.0
 40
0.124999999999999
 40
0.124999999999999
 40
0.249999999999998
 40
0.249999999999998
 40
0.374999999999998
 40
0.374999999999998
 40
0.499999999999998
 40
0.499999999999998
 40
0.624999999999998
 40
0.624999999999998
 40
0.749999999999998
 40
0.749999999999998
 40
1.0
 40
1.0
 40
1.0
 40
1.0
 10
515.5238022198602
 20
-613.1613303512664
 30
0.0
 10
515.5238022198602
 20
-613.1613303475267
 30
0.0
 10
515.5238022198602
 20
-613.1419048355018
 30
0.0
 10
515.5238022198602
 20
-613.0657919962647
 30
0.0
 10
515.5238022198602
 20
-613.0081834324993
 30
0.0
 10
515.5238022198602
 20
-612.8577668298242
 30
0.0
 10
515.5238022198602
 20
-612.7657199455297
 30
0.0
 10
515.5238022198602
 20
-612.5482560624113
 30
0.0
 10
515.5238022198602
 20
-612.421671804365
 30
0.0
 10
515.5238022198602
 20
-612.1451460599376
 30
0.0
 10
515.5238022198602
 20
-611.9942641512908
 30
0.0
 10
515.5238022198602
 20
-611.6666679936769
 30
0.0
 10
515.5238022198602
 20
-611.4921764494685
 30
0.0
 10
515.5238022198602
 20
-610.9511541747762
 30
0.0
 10
515.5238022198602
 20
-610.5559971152194
 30
0.0
 10
515.5238022198602
 20
-610.1613303512664
 30
0.0
  0
SPLINE
  5
213D3
330
18
100
AcDbEntity
  8
01
  6
CONTINUOUS
100
AcDbSpline
210
0.0
220
0.0
230
1.0
 70
    24
 71
     3
 72
    20
 73
    16
 74
     0
 42
0.000000001
 43
0.00000001
 40
0.0
 40
0.0
 40
0.0
 40
0.0
 40
0.1249999999999998
 40
0.1249999999999998
 40
0.2499999999999996
 40
0.2499999999999996
 40
0.3749999999999994
 40
0.3749999999999994
 40
0.4999999999999992
 40
0.4999999999999992
 40
0.624999999999999
 40
0.624999999999999
 40
0.7499999999999989
 40
0.7499999999999989
 40
1.0
 40
1.0
 40
1.0
 40
1.0
 10
515.5238022198602
 20
-596.1613303512664
 30
0.0
 10
515.5238022198602
 20
-595.963261006556
 30
0.0
 10
515.5238022198602
 20
-595.7684757981007
 30
0.0
 10
515.5238022198602
 20
-595.3852752596714
 30
0.0
 10
515.5238022198602
 20
-595.1948666497649
 30
0.0
 10
515.5238022198602
 20
-594.8317233098866
 30
0.0
 10
515.5238022198602
 20
-594.659483395549
 30
0.0
 10
515.5238022198602
 20
-594.3334969136126
 30
0.0
 10
515.5238022198602
 20
-594.1791302826892
 30
0.0
 10
515.5238022198602
 20
-593.9024067496118
 30
0.0
 10
515.5238022198602
 20
-593.7782205059123
 30
0.0
 10
515.5238022198602
 20
-593.5588666311593
 30
0.0
 10
515.5238022198602
 20
-593.4655967794079
 30
0.0
 10
515.5238022198602
 20
-593.2409362615242
 30
0.0
 10
515.5238022198602
 20
-593.1613303561272
 30
0.0
 10
515.5238022198602
 20
-593.1613303512663
 30
0.0
  0
SPLINE
  5
213D4
330
18
100
AcDbEntity
  8
01
  6
CONTINUOUS
100
AcDbSpline
210
0.0
220
0.0
230
1.0
 70
    24
 71
     3
 72
    20
 73
    16
 74
     0
 42
0.000000001
 43
0.00000001
 40
0.0
 40
0.0
 40
0.0
 40
0.0
 40
0.2499999999999996
 40
0.2499999999999996
 40
0.3749999999999996
 40
0.3749999999999996
 40
0.4999999999999997
 40
0.4999999999999997
 40
0.6249999999999998
 40
0.6249999999999998
 40
0.7499999999999998
 40
0.7499999999999998
 40
0.8749999999999999
 40
0.8749999999999999
 40
1.0
 40
1.0
 40
1.0
 40
1.0
 10
535.5238022198602
 20
-593.1613303512663
 30
0.0
 10
535.5238022198602
 20
-593.1613303561272
 30
0.0
 10
535.5238022198602
 20
-593.2409362615242
 30
0.0
 10
535.5238022198602
 20
-593.4655967794079
 30
0.0
 10
535.5238022198602
 20
-593.5588666311593
 30
0.0
 10
535.5238022198603
 20
-593.7782205059123
 30
0.0
 10
535.5238022198602
 20
-593.9024067496118
 30
0.0
 10
535.5238022198603
 20
-594.1791302826892
 30
0.0
 10
535.5238022198602
 20
-594.3334969136126
 30
0.0
 10
535.5238022198603
 20
-594.659483395549
 30
0.0
 10
535.5238022198602
 20
-594.8317233098866
 30
0.0
 10
535.5238022198603
 20
-595.1948666497649
 30
0.0
 10
535.5238022198602
 20
-595.3852752596714
 30
0.0
 10
535.5238022198603
 20
-595.7684757981007
 30
0.0
 10
535.5238022198602
 20
-595.963261006556
 30
0.0
 10
535.5238022198602
 20
-596.1613303512664
 30
0.0
  0
LINE
  5
213D5
330
18
100
AcDbEntity
  8
01
  6
CONTINUOUS
100
AcDbLine
 10
515.5238024433776
 20
-596.1613302916618
 30
0.0
 11
515.5238024433776
 21
-610.1613307237955
 31
0.0
  0
LINE
  5
213D6
330
18
100
AcDbEntity
  8
01
  6
CONTINUOUS
100
AcDbLine
 10
535.5238019963427
 20
-610.1613307237955
 30
0.0
 11
535.5238019963427
 21
-596.1613302916618
 31
0.0
  0
SPLINE
  5
213DB
330
18
100
AcDbEntity
  8
01
  6
CONTINUOUS
100
AcDbSpline
210
0.0
220
0.0
230
1.0
 70
     8
 71
     3
 72
     8
 73
     4
 74
     0
 42
0.000000001
 43
0.00000001
 40
0.0
 40
0.0
 40
0.0
 40
0.0
 40
1.0
 40
1.0
 40
1.0
 40
1.0
 10
535.3238957210164
 20
-594.8613356565386
 30
0.0
 10
535.3238957560219
 20
-594.7946605350232
 30
0.0
 10
535.3238957780491
 20
-594.7279970178113
 30
0.0
 10
535.3238958035986
 20
-594.6613303511625
 30
0.0
  0
SPLINE
  5
213DC
330
18
100
AcDbEntity
  8
01
  6
CONTINUOUS
100
AcDbSpline
210
0.0
220
0.0
230
1.0
 70
     8
 71
     3
 72
     8
 73
     4
 74
     0
 42
0.000000001
 43
0.00000001
 40
0.0
 40
0.0
 40
0.0
 40
0.0
 40
1.0
 40
1.0
 40
1.0
 40
1.0
 10
515.7237087187041
 20
-594.8613356565386
 30
0.0
 10
515.7237086836984
 20
-594.7946605350232
 30
0.0
 10
515.7237086616714
 20
-594.7279970178113
 30
0.0
 10
515.7237086361217
 20
-594.6613303511625
 30
0.0
  0
SPLINE
  5
213DD
330
18
100
AcDbEntity
  8
01
  6
CONTINUOUS
100
AcDbSpline
210
0.0
220
0.0
230
1.0
 70
     8
 71
     3
 72
     8
 73
     4
 74
     0
 42
0.000000001
 43
0.00000001
 40
0.0
 40
0.0
 40
0.0
 40
0.0
 40
1.0
 40
1.0
 40
1.0
 40
1.0
 10
535.3238958036063
 20
-611.661330351236
 30
0.0
 10
535.3238957908308
 20
-611.5946636839924
 30
0.0
 10
535.323895779816
 20
-611.5279985914673
 30
0.0
 10
535.3238957623138
 20
-611.4613276967905
 30
0.0
  0
SPLINE
  5
213DE
330
18
100
AcDbEntity
  8
01
  6
CONTINUOUS
100
AcDbSpline
210
0.0
220
0.0
230
1.0
 70
     8
 71
     3
 72
     8
 73
     4
 74
     0
 42
0.000000001
 43
0.00000001
 40
0.0
 40
0.0
 40
0.0
 40
0.0
 40
1.0
 40
1.0
 40
1.0
 40
1.0
 10
515.7237086361141
 20
-611.661330351236
 30
0.0
 10
515.7237086488896
 20
-611.5946636839924
 30
0.0
 10
515.7237086599043
 20
-611.5279985914673
 30
0.0
 10
515.7237086774065
 20
-611.4613276967905
 30
0.0
  0
LINE
  5
213E1
330
18
100
AcDbEntity
  8
01
  6
CONTINUOUS
100
AcDbLine
 10
535.0508410026952
 20
-594.3625431374045
 30
0.0
 11
535.0238959779664
 21
-594.3613305554123
 31
0.0
  0
LINE
  5
213E2
330
18
100
AcDbEntity
  8
01
  6
CONTINUOUS
100
AcDbLine
 10
515.9967634370252
 20
-594.3625431374045
 30
0.0
 11
516.0237084617539
 21
-594.3613305554123
 31
0.0
  0
SPLINE
  5
213E4
330
18
100
AcDbEntity
  8
01
  6
CONTINUOUS
100
AcDbSpline
210
0.0
220
0.0
230
1.0
 70
     8
 71
     3
 72
    10
 73
     6
 74
     0
 42
0.000000001
 43
0.00000001
 40
0.0
 40
0.0
 40
0.0
 40
0.0
 40
0.5
 40
0.5
 40
1.0
 40
1.0
 40
1.0
 40
1.0
 10
535.0238958036716
 20
-611.9613303512731
 30
0.0
 10
535.0946064817856
 20
-611.9613303512731
 30
0.0
 10
535.1774491942599
 20
-611.9320410293952
 30
0.0
 10
535.2946064817671
 20
-611.8148837418835
 30
0.0
 10
535.3238958036277
 20
-611.7320410294222
 30
0.0
 10
535.3238958036063
 20
-611.661330351327
 30
0.0
  0
SPLINE
  5
213E7
330
18
100
AcDbEntity
  8
01
  6
CONTINUOUS
100
AcDbSpline
210
0.0
220
0.0
230
1.0
 70
     8
 71
     3
 72
    10
 73
     6
 74
     0
 42
0.000000001
 43
0.00000001
 40
0.0
 40
0.0
 40
0.0
 40
0.0
 40
0.5
 40
0.5
 40
1.0
 40
1.0
 40
1.0
 40
1.0
 10
516.0237086361027
 20
-611.961330351327
 30
0.0
 10
515.9529979579711
 20
-611.9613303513282
 30
0.0
 10
515.8701552454788
 20
-611.9320410294306
 30
0.0
 10
515.7529979579535
 20
-611.8148837418581
 30
0.0
 10
515.7237086360924
 20
-611.7320410293818
 30
0.0
 10
515.7237086361142
 20
-611.6613303512338
 30
0.0
  0
SPLINE
  5
213E8
330
18
100
AcDbEntity
  8
01
  6
CONTINUOUS
100
AcDbSpline
210
0.0
220
0.0
230
1.0
 70
     8
 71
     3
 72
    36
 73
    32
 74
     0
 42
0.000000001
 43
0.00000001
 40
0.0
 40
0.0
 40
0.0
 40
0.0
 40
0.2499999999999998
 40
0.2499999999999998
 40
0.3749999999999998
 40
0.3749999999999998
 40
0.4999999999999997
 40
0.4999999999999997
 40
0.5624999999999999
 40
0.5624999999999999
 40
0.625
 40
0.625
 40
0.6875000000000002
 40
0.6875000000000002
 40
0.7500000000000003
 40
0.7500000000000003
 40
0.8125000000000006
 40
0.8125000000000006
 40
0.8750000000000003
 40
0.8750000000000003
 40
0.9062500000000002
 40
0.9062500000000002
 40
0.9375
 40
0.9375
 40
0.953125
 40
0.953125
 40
0.96875
 40
0.96875
 40
0.984375
 40
0.984375
 40
1.0
 40
1.0
 40
1.0
 40
1.0
 10
535.3238651841555
 20
-603.1612204784225
 30
0.0
 10
535.3238651762038
 20
-602.3048655566469
 30
0.0
 10
535.3238651907876
 20
-601.4485061872874
 30
0.0
 10
535.3238651634915
 20
-600.1639768377203
 30
0.0
 10
535.3238651461825
 20
-599.7358020082435
 30
0.0
 10
535.3238650811987
 20
-598.8794583422039
 30
0.0
 10
535.3238649530887
 20
-598.4504925951545
 30
0.0
 10
535.3238655622092
 20
-597.8144947334607
 30
0.0
 10
535.3238659128002
 20
-597.6014687275448
 30
0.0
 10
535.3238670311428
 20
-597.1911831174693
 30
0.0
 10
535.3238677842445
 20
-596.9962388390674
 30
0.0
 10
535.3238696302228
 20
-596.6242185356342
 30
0.0
 10
535.3238707284955
 20
-596.4464007439545
 30
0.0
 10
535.32387318503
 20
-596.1252611732273
 30
0.0
 10
535.3238745504318
 20
-595.9796274261512
 30
0.0
 10
535.3238775583303
 20
-595.7185398103903
 30
0.0
 10
535.3238791535586
 20
-595.6072266840737
 30
0.0
 10
535.3238825122164
 20
-595.4223734410715
 30
0.0
 10
535.3238842949775
 20
-595.3490400051675
 30
0.0
 10
535.3238870319884
 20
-595.2686054948177
 30
0.0
 10
535.3238879557732
 20
-595.2471876194999
 30
0.0
 10
535.3238898310335
 20
-595.218475917406
 30
0.0
 10
535.3238907745034
 20
-595.2117626034354
 30
0.0
 10
535.3238921927851
 20
-595.2062026655502
 30
0.0
 10
535.3238926681237
 20
-595.2084137013716
 30
0.0
 10
535.3238936051662
 20
-595.1913399929352
 30
0.0
 10
535.3238940698016
 20
-595.1730007892551
 30
0.0
 10
535.3238948529487
 20
-595.109802404072
 30
0.0
 10
535.3238951586017
 20
-595.066384136532
 30
0.0
 10
535.3238955993022
 20
-594.9700171483255
 30
0.0
 10
535.3238957252062
 20
-594.9162979215334
 30
0.0
 10
535.3238957210164
 20
-594.8613356565386
 30
0.0
  0
SPLINE
  5
213E9
330
18
100
AcDbEntity
  8
01
  6
CONTINUOUS
100
AcDbSpline
210
0.0
220
0.0
230
1.0
 70
     8
 71
     3
 72
    36
 73
    32
 74
     0
 42
0.000000001
 43
0.00000001
 40
0.0
 40
0.0
 40
0.0
 40
0.0
 40
0.2499999999999998
 40
0.2499999999999998
 40
0.3749999999999998
 40
0.3749999999999998
 40
0.4999999999999997
 40
0.4999999999999997
 40
0.5624999999999999
 40
0.5624999999999999
 40
0.625
 40
0.625
 40
0.6875000000000002
 40
0.6875000000000002
 40
0.7500000000000003
 40
0.7500000000000003
 40
0.8125000000000006
 40
0.8125000000000006
 40
0.8750000000000003
 40
0.8750000000000003
 40
0.9062500000000002
 40
0.9062500000000002
 40
0.9375
 40
0.9375
 40
0.953125
 40
0.953125
 40
0.96875
 40
0.96875
 40
0.984375
 40
0.984375
 40
1.0
 40
1.0
 40
1.0
 40
1.0
 10
515.7237392555649
 20
-603.1612204784225
 30
0.0
 10
515.7237392635166
 20
-602.3048655566469
 30
0.0
 10
515.7237392489327
 20
-601.4485061872874
 30
0.0
 10
515.7237392762288
 20
-600.1639768377203
 30
0.0
 10
515.7237392935378
 20
-599.7358020082435
 30
0.0
 10
515.7237393585216
 20
-598.8794583422039
 30
0.0
 10
515.7237394866318
 20
-598.4504925951545
 30
0.0
 10
515.7237388775111
 20
-597.8144947334607
 30
0.0
 10
515.7237385269202
 20
-597.6014687275448
 30
0.0
 10
515.7237374085776
 20
-597.1911831174693
 30
0.0
 10
515.7237366554758
 20
-596.9962388390674
 30
0.0
 10
515.7237348094976
 20
-596.6242185356342
 30
0.0
 10
515.7237337112248
 20
-596.4464007439545
 30
0.0
 10
515.7237312546904
 20
-596.1252611732273
 30
0.0
 10
515.7237298892886
 20
-595.9796274261512
 30
0.0
 10
515.7237268813901
 20
-595.7185398103903
 30
0.0
 10
515.7237252861618
 20
-595.6072266840737
 30
0.0
 10
515.723721927504
 20
-595.4223734410715
 30
0.0
 10
515.7237201447429
 20
-595.3490400051675
 30
0.0
 10
515.723717407732
 20
-595.2686054948177
 30
0.0
 10
515.7237164839471
 20
-595.2471876194999
 30
0.0
 10
515.7237146086868
 20
-595.218475917406
 30
0.0
 10
515.7237136652169
 20
-595.2117626034354
 30
0.0
 10
515.7237122469352
 20
-595.2062026655502
 30
0.0
 10
515.7237117715966
 20
-595.2084137013716
 30
0.0
 10
515.7237108345541
 20
-595.1913399929352
 30
0.0
 10
515.7237103699188
 20
-595.1730007892551
 30
0.0
 10
515.7237095867716
 20
-595.109802404072
 30
0.0
 10
515.7237092811187
 20
-595.066384136532
 30
0.0
 10
515.7237088404181
 20
-594.9700171483255
 30
0.0
 10
515.7237087145141
 20
-594.9162979215334
 30
0.0
 10
515.7237087187041
 20
-594.8613356565386
 30
0.0
  0
SPLINE
  5
213EA
330
18
100
AcDbEntity
  8
01
  6
CONTINUOUS
100
AcDbSpline
210
0.0
220
0.0
230
1.0
 70
     8
 71
     3
 72
    36
 73
    32
 74
     0
 42
0.000000001
 43
0.00000001
 40
0.0
 40
0.0
 40
0.0
 40
0.0
 40
0.015625
 40
0.015625
 40
0.0312499999999999
 40
0.0312499999999999
 40
0.0468749999999999
 40
0.0468749999999999
 40
0.0624999999999999
 40
0.0624999999999999
 40
0.0937499999999998
 40
0.0937499999999998
 40
0.1249999999999996
 40
0.1249999999999996
 40
0.1874999999999997
 40
0.1874999999999997
 40
0.2499999999999997
 40
0.2499999999999997
 40
0.3124999999999997
 40
0.3124999999999997
 40
0.3749999999999997
 40
0.3749999999999997
 40
0.4374999999999997
 40
0.4374999999999997
 40
0.4999999999999998
 40
0.4999999999999998
 40
0.6249999999999998
 40
0.6249999999999998
 40
0.7499999999999999
 40
0.7499999999999999
 40
1.0
 40
1.0
 40
1.0
 40
1.0
 10
535.3238957623138
 20
-611.4613276967905
 30
0.0
 10
535.3238957633425
 20
-611.4061060066531
 30
0.0
 10
535.3238956364175
 20
-611.3523959651474
 30
0.0
 10
535.3238951946837
 20
-611.2560641004576
 30
0.0
 10
535.3238948886012
 20
-611.2126692242472
 30
0.0
 10
535.3238941044062
 20
-611.149548078608
 30
0.0
 10
535.3238936395963
 20
-611.1312459523128
 30
0.0
 10
535.3238927022697
 20
-611.1142407574245
 30
0.0
 10
535.323892226852
 20
-611.1164512128055
 30
0.0
 10
535.323890808289
 20
-611.1108853591253
 30
0.0
 10
535.3238898646252
 20
-611.1041623166649
 30
0.0
 10
535.3238879889215
 20
-611.0754277376527
 30
0.0
 10
535.3238870649146
 20
-611.0540005504993
 30
0.0
 10
535.3238843271324
 20
-610.973540938058
 30
0.0
 10
535.3238825438207
 20
-610.9001940563434
 30
0.0
 10
535.3238791839487
 20
-610.7153119426517
 30
0.0
 10
535.3238775880159
 20
-610.6039815456884
 30
0.0
 10
535.3238745787507
 20
-610.342871343627
 30
0.0
 10
535.3238732126272
 20
-610.197226906982
 30
0.0
 10
535.3238707545887
 20
-609.8760654201409
 30
0.0
 10
535.3238696555256
 20
-609.6982376770488
 30
0.0
 10
535.3238678080062
 20
-609.3262049792572
 30
0.0
 10
535.323867054133
 20
-609.131254396887
 30
0.0
 10
535.3238659342669
 20
-608.7209548049801
 30
0.0
 10
535.3238655829227
 20
-608.5079305731136
 30
0.0
 10
535.3238649715051
 20
-607.8719320488366
 30
0.0
 10
535.323865097997
 20
-607.4429674576708
 30
0.0
 10
535.3238651596226
 20
-606.5866268212216
 30
0.0
 10
535.3238651752511
 20
-606.1584535069551
 30
0.0
 10
535.3238651975046
 20
-604.8739287040211
 30
0.0
 10
535.323865179558
 20
-604.0175723670861
 30
0.0
 10
535.3238651841555
 20
-603.1612204784225
 30
0.0
  0
SPLINE
  5
213EB
330
18
100
AcDbEntity
  8
01
  6
CONTINUOUS
100
AcDbSpline
210
0.0
220
0.0
230
1.0
 70
     8
 71
     3
 72
    36
 73
    32
 74
     0
 42
0.000000001
 43
0.00000001
 40
0.0
 40
0.0
 40
0.0
 40
0.0
 40
0.015625
 40
0.015625
 40
0.0312499999999999
 40
0.0312499999999999
 40
0.0468749999999999
 40
0.0468749999999999
 40
0.0624999999999999
 40
0.0624999999999999
 40
0.0937499999999998
 40
0.0937499999999998
 40
0.1249999999999996
 40
0.1249999999999996
 40
0.1874999999999997
 40
0.1874999999999997
 40
0.2499999999999997
 40
0.2499999999999997
 40
0.3124999999999997
 40
0.3124999999999997
 40
0.3749999999999997
 40
0.3749999999999997
 40
0.4374999999999997
 40
0.4374999999999997
 40
0.4999999999999998
 40
0.4999999999999998
 40
0.6249999999999998
 40
0.6249999999999998
 40
0.7499999999999999
 40
0.7499999999999999
 40
1.0
 40
1.0
 40
1.0
 40
1.0
 10
515.7237086774065
 20
-611.4613276967905
 30
0.0
 10
515.7237086763778
 20
-611.4061060066531
 30
0.0
 10
515.7237088033028
 20
-611.3523959651474
 30
0.0
 10
515.7237092450366
 20
-611.2560641004576
 30
0.0
 10
515.7237095511192
 20
-611.2126692242472
 30
0.0
 10
515.7237103353142
 20
-611.149548078608
 30
0.0
 10
515.7237108001241
 20
-611.1312459523128
 30
0.0
 10
515.7237117374506
 20
-611.1142407574245
 30
0.0
 10
515.7237122128683
 20
-611.1164512128055
 30
0.0
 10
515.7237136314313
 20
-611.1108853591253
 30
0.0
 10
515.7237145750951
 20
-611.1041623166649
 30
0.0
 10
515.7237164507989
 20
-611.0754277376527
 30
0.0
 10
515.7237173748057
 20
-611.0540005504993
 30
0.0
 10
515.7237201125879
 20
-610.973540938058
 30
0.0
 10
515.7237218958996
 20
-610.9001940563434
 30
0.0
 10
515.7237252557717
 20
-610.7153119426517
 30
0.0
 10
515.7237268517044
 20
-610.6039815456884
 30
0.0
 10
515.7237298609696
 20
-610.342871343627
 30
0.0
 10
515.7237312270931
 20
-610.197226906982
 30
0.0
 10
515.7237336851317
 20
-609.8760654201409
 30
0.0
 10
515.7237347841947
 20
-609.6982376770488
 30
0.0
 10
515.7237366317141
 20
-609.3262049792572
 30
0.0
 10
515.7237373855875
 20
-609.131254396887
 30
0.0
 10
515.7237385054534
 20
-608.7209548049801
 30
0.0
 10
515.7237388567976
 20
-608.5079305731136
 30
0.0
 10
515.7237394682153
 20
-607.8719320488366
 30
0.0
 10
515.7237393417233
 20
-607.4429674576708
 30
0.0
 10
515.7237392800977
 20
-606.5866268212216
 30
0.0
 10
515.7237392644693
 20
-606.1584535069551
 30
0.0
 10
515.7237392422157
 20
-604.8739287040211
 30
0.0
 10
515.7237392601623
 20
-604.0175723670861
 30
0.0
 10
515.7237392555649
 20
-603.1612204784225
 30
0.0
  0
SPLINE
  5
213F6
330
18
100
AcDbEntity
  8
01
100
AcDbSpline
210
0.0
220
0.0
230
1.0
 70
     8
 71
     3
 72
    18
 73
    14
 74
     0
 42
0.000000001
 43
0.00000001
 40
0.0
 40
0.0
 40
0.0
 40
0.0
 40
0.2499999999999997
 40
0.2499999999999997
 40
0.4999999999999993
 40
0.4999999999999993
 40
0.6249999999999988
 40
0.6249999999999988
 40
0.7499999999999993
 40
0.7499999999999993
 40
0.8749999999999997
 40
0.8749999999999997
 40
1.0
 40
1.0
 40
1.0
 40
1.0
 10
532.473549688166
 20
-618.8310448191072
 30
0.0
 10
532.058606584359
 20
-618.6586264633318
 30
0.0
 10
531.6597332189109
 20
-618.4209488123796
 30
0.0
 10
530.8994614718972
 20
-617.7945890873874
 30
0.0
 10
530.5342513867033
 20
-617.3995984166297
 30
0.0
 10
530.0569105652531
 20
-616.6886203325603
 30
0.0
 10
529.9085163369684
 20
-616.4311398303597
 30
0.0
 10
529.6380764578233
 20
-615.8658191528098
 30
0.0
 10
529.5193874615193
 20
-615.5645733194153
 30
0.0
 10
529.3220234250978
 20
-614.9249561612113
 30
0.0
 10
529.2427125485628
 20
-614.5815991968449
 30
0.0
 10
529.1371946467669
 20
-613.8839146173704
 30
0.0
 10
529.1095886607258
 20
-613.5270042580304
 30
0.0
 10
529.1095886574872
 20
-613.1613303512664
 30
0.0
  0
SPLINE
  5
213F7
330
18
100
AcDbEntity
  8
01
  6
PHANTOM
100
AcDbSpline
210
0.0
220
0.0
230
1.0
 70
     8
 71
     3
 72
    17
 73
    13
 74
     0
 42
0.000000001
 43
0.00000001
 40
0.0
 40
0.0
 40
0.0
 40
0.0
 40
0.098683326587875
 40
0.1974944311566141
 40
0.2964959811813368
 40
0.395750283525872
 40
0.4953191706818474
 40
0.5952638913896089
 40
0.6956450065486884
 40
0.7965222912165478
 40
0.8979546433732262
 40
1.0
 40
1.0
 40
1.0
 40
1.0
 10
533.6897843787507
 20
-619.1613303512651
 30
0.0
 10
533.657717154523
 20
-619.1606136188893
 30
0.0
 10
533.5935411845124
 20
-619.1591792260923
 30
0.0
 10
533.4904818798052
 20
-619.1478289994706
 30
0.0
 10
533.3824031703549
 20
-619.1300592171101
 30
0.0
 10
533.2688166298674
 20
-619.1054412787453
 30
0.0
 10
533.1498556541065
 20
-619.0744160198511
 30
0.0
 10
533.0254777091153
 20
-619.0371857998363
 30
0.0
 10
532.8957205345771
 20
-618.9940534439746
 30
0.0
 10
532.7604765657255
 20
-618.9451719794847
 30
0.0
 10
532.6201426522089
 20
-618.8912054046889
 30
0.0
 10
532.5225120513663
 20
-618.8511385832293
 30
0.0
 10
532.4735496881658
 20
-618.8310448191056
 30
0.0
  0
SPLINE
  5
213FA
330
18
100
AcDbEntity
  8
01
100
AcDbSpline
210
0.0
220
0.0
230
1.0
 70
    24
 71
     3
 72
    14
 73
    10
 74
     0
 42
0.000000001
 43
0.00000001
 40
0.0
 40
0.0
 40
0.0
 40
0.0
 40
0.25
 40
0.25
 40
0.5
 40
0.5
 40
0.75
 40
0.75
 40
1.0
 40
1.0
 40
1.0
 40
1.0
 10
529.1095886574872
 20
-613.1613303512664
 30
0.0
 10
529.1095886574872
 20
-613.0434792210687
 30
0.0
 10
529.1095886574872
 20
-612.9163325920885
 30
0.0
 10
529.1095886574872
 20
-612.6701386913206
 30
0.0
 10
529.1095886574872
 20
-612.5518546430177
 30
0.0
 10
529.1095886574872
 20
-612.3565924971421
 30
0.0
 10
529.1095886574872
 20
-612.2802750103281
 30
0.0
 10
529.1095886574872
 20
-612.1828090900799
 30
0.0
 10
529.1095886574872
 20
-612.1613303512664
 30
0.0
 10
529.1095886574872
 20
-612.1613303512664
 30
0.0
  0
SPLINE
  5
213FC
330
18
100
AcDbEntity
  8
01
100
AcDbSpline
210
0.0
220
0.0
230
1.0
 70
    24
 71
     3
 72
    14
 73
    10
 74
     0
 42
0.000000001
 43
0.00000001
 40
0.0
 40
0.0
 40
0.0
 40
0.0
 40
0.25
 40
0.25
 40
0.5
 40
0.5
 40
0.75
 40
0.75
 40
1.0
 40
1.0
 40
1.0
 40
1.0
 10
521.9380157822333
 20
-612.1613303512664
 30
0.0
 10
521.9380157822333
 20
-612.1613303512664
 30
0.0
 10
521.9380157822333
 20
-612.1828090900799
 30
0.0
 10
521.9380157822333
 20
-612.2802750103281
 30
0.0
 10
521.9380157822333
 20
-612.3565924971421
 30
0.0
 10
521.9380157822333
 20
-612.5518546430177
 30
0.0
 10
521.9380157822333
 20
-612.6701386913206
 30
0.0
 10
521.9380157822332
 20
-612.9163325920885
 30
0.0
 10
521.9380157822333
 20
-613.0434792210687
 30
0.0
 10
521.9380157822333
 20
-613.1613303512664
 30
0.0
  0
SPLINE
  5
213FD
330
18
100
AcDbEntity
  8
01
100
AcDbSpline
210
0.0
220
0.0
230
1.0
 70
     8
 71
     3
 72
    18
 73
    14
 74
     0
 42
0.000000001
 43
0.00000001
 40
0.0
 40
0.0
 40
0.0
 40
0.0
 40
0.1250000000000001
 40
0.1250000000000001
 40
0.2500000000000003
 40
0.2500000000000003
 40
0.3750000000000004
 40
0.3750000000000004
 40
0.4999999999999996
 40
0.4999999999999996
 40
0.7499999999999997
 40
0.7499999999999997
 40
1.0
 40
1.0
 40
1.0
 40
1.0
 10
521.9380157822333
 20
-613.1613303512664
 30
0.0
 10
521.9380157789947
 20
-613.5270042580304
 30
0.0
 10
521.9104097929534
 20
-613.8839146173704
 30
0.0
 10
521.8048918911576
 20
-614.5815991968449
 30
0.0
 10
521.7255810146227
 20
-614.9249561612113
 30
0.0
 10
521.5282169782012
 20
-615.5645733194153
 30
0.0
 10
521.4095279818971
 20
-615.8658191528098
 30
0.0
 10
521.1390881027519
 20
-616.4311398303597
 30
0.0
 10
520.9906938744672
 20
-616.6886203325603
 30
0.0
 10
520.513353053017
 20
-617.3995984166297
 30
0.0
 10
520.1481429678232
 20
-617.7945890873874
 30
0.0
 10
519.3878712208095
 20
-618.4209488123796
 30
0.0
 10
518.9889978553614
 20
-618.6586264633318
 30
0.0
 10
518.5740547515543
 20
-618.8310448191072
 30
0.0
  0
SPLINE
  5
213FE
330
18
100
AcDbEntity
  8
01
  6
PHANTOM
100
AcDbSpline
210
0.0
220
0.0
230
1.0
 70
     8
 71
     3
 72
    16
 73
    12
 74
     0
 42
0.000000001
 43
0.00000001
 40
0.0
 40
0.0
 40
0.0
 40
0.0
 40
0.1133450919661027
 40
0.2259412336867415
 40
0.3378681245176553
 40
0.4492069008186648
 40
0.5600399903472829
 40
0.6704509532174803
 40
0.7805243106755657
 40
0.8903453632376761
 40
1.0
 40
1.0
 40
1.0
 40
1.0
 10
518.5740547515545
 20
-618.8310448191056
 30
0.0
 10
518.5197228413277
 20
-618.8533110557611
 30
0.0
 10
518.4114180297806
 20
-618.8976964004834
 30
0.0
 10
518.256507995213
 20
-618.956665644455
 30
0.0
 10
518.1078839054608
 20
-619.009282256602
 30
0.0
 10
517.9660308999264
 20
-619.0546968926994
 30
0.0
 10
517.8308315438414
 20
-619.0926639634007
 30
0.0
 10
517.702277015188
 20
-619.1228523518482
 30
0.0
 10
517.5805206976197
 20
-619.1446922127944
 30
0.0
 10
517.4649623439441
 20
-619.1586738754497
 30
0.0
 10
517.3935160974338
 20
-619.1604453070515
 30
0.0
 10
517.3578200609696
 20
-619.1613303512651
 30
0.0
  0
SPLINE
  5
21453
330
18
100
AcDbEntity
  8
01
  6
CONTINUOUS
100
AcDbSpline
210
0.0
220
0.0
230
1.0
 70
     8
 71
     3
 72
    15
 73
    11
 74
     0
 42
0.000000001
 43
0.00000001
 40
0.0
 40
0.0
 40
0.0
 40
0.0
 40
0.041573212001477
 40
0.2205799892501979
 40
0.3358311745204248
 40
0.4543136304993389
 40
0.5786759620344731
 40
0.7103028624740091
 40
0.85040894934867
 40
1.0
 40
1.0
 40
1.0
 40
1.0
 10
605.736242437909
 20
-698.963268482718
 30
0.0
 10
605.7316023233291
 20
-698.9575248260398
 30
0.0
 10
605.7069827095228
 20
-698.9270500162444
 30
0.0
 10
605.6758406131911
 20
-698.875926705163
 30
0.0
 10
605.6406944293193
 20
-698.8116083331822
 30
0.0
 10
605.6143002754627
 20
-698.7536643630531
 30
0.0
 10
605.5910613653131
 20
-698.6925645577859
 30
0.0
 10
605.5715051480189
 20
-698.6285802148341
 30
0.0
 10
605.5556008644778
 20
-698.5621456609948
 30
0.0
 10
605.5489335930071
 20
-698.5192074091616
 30
0.0
 10
605.5454908108214
 20
-698.4970353633495
 30
0.0
  0
SPLINE
  5
21454
330
18
100
AcDbEntity
  8
01
  6
CONTINUOUS
100
AcDbSpline
210
0.0
220
0.0
230
1.0
 70
     8
 71
     3
 72
    19
 73
    15
 74
     0
 42
0.000000001
 43
0.00000001
 40
0.0
 40
0.0
 40
0.0
 40
0.0
 40
0.0934773031340895
 40
0.1780231012268965
 40
0.2551031352167026
 40
0.3266692846808182
 40
0.3951103316631364
 40
0.463130770014325
 40
0.5342920386112965
 40
0.6095046687209154
 40
0.71613134699092
 40
0.8300129812681971
 40
0.9510991475295081
 40
1.0
 40
1.0
 40
1.0
 40
1.0
 10
623.526992106984
 20
-698.4970353633495
 30
0.0
 10
623.5254733069078
 20
-698.5075644933154
 30
0.0
 10
623.52258082402
 20
-698.5276167231822
 30
0.0
 10
623.516375880374
 20
-698.561894806946
 30
0.0
 10
623.5088872812062
 20
-698.5969046086534
 30
0.0
 10
623.4998826074637
 20
-698.6326648411425
 30
0.0
 10
623.4892771647437
 20
-698.66884039272
 30
0.0
 10
623.4769468457179
 20
-698.7051664563014
 30
0.0
 10
623.4628353417404
 20
-698.7419144062824
 30
0.0
 10
623.4444151980504
 20
-698.7846445310203
 30
0.0
 10
623.420445450259
 20
-698.8334733009857
 30
0.0
 10
623.3891489422216
 20
-698.8879315752166
 30
0.0
 10
623.3609437643588
 20
-698.9319400013404
 30
0.0
 10
623.3417600638512
 20
-698.9566239108124
 30
0.0
 10
623.336241411219
 20
-698.9637248307796
 30
0.0
  0
SPLINE
  5
21455
330
18
100
AcDbEntity
  8
01
  6
CONTINUOUS
100
AcDbSpline
210
0.0
220
0.0
230
1.0
 70
     8
 71
     3
 72
     9
 73
     5
 74
     0
 42
0.000000001
 43
0.00000001
 40
0.0
 40
0.0
 40
0.0
 40
0.0
 40
0.4674721490805478
 40
1.0
 40
1.0
 40
1.0
 40
1.0
 10
614.5362926816443
 20
-698.1641946450205
 30
0.0
 10
614.3884392638361
 20
-698.1635596561118
 30
0.0
 10
614.0721564262401
 20
-698.1622013101443
 30
0.0
 10
613.7558616368299
 20
-698.1616503217833
 30
0.0
 10
613.5874258523683
 20
-698.1613569051357
 30
0.0
  0
SPLINE
  5
21456
330
18
100
AcDbEntity
  8
01
  6
CONTINUOUS
100
AcDbSpline
210
0.0
220
0.0
230
1.0
 70
     8
 71
     3
 72
    73
 73
    69
 74
     0
 42
0.000000001
 43
0.00000001
 40
0.0
 40
0.0
 40
0.0
 40
0.0
 40
0.036953495338269
 40
0.0711195990186489
 40
0.1024994449457086
 40
0.1310944947357663
 40
0.1569067328816336
 40
0.179938828778754
 40
0.2001947272873255
 40
0.2156457676181472
 40
0.2289814148878676
 40
0.240210887388182
 40
0.2493496205401686
 40
0.2564269144649757
 40
0.261507906036839
 40
0.2633535067205064
 40
0.2647984946154176
 40
0.2654061988707854
 40
0.267320249740592
 40
0.2703629706707516
 40
0.2748230986994681
 40
0.2807027725726679
 40
0.289017314088694
 40
0.2991361847617818
 40
0.3103949767702854
 40
0.321485704919987
 40
0.3323891378761946
 40
0.3431229703083212
 40
0.353706324740879
 40
0.3641583589871301
 40
0.3824750054646447
 40
0.4005630398696233
 40
0.4185520788196582
 40
0.4365963680354272
 40
0.4548483117909838
 40
0.4734403307799505
 40
0.492298583566228
 40
0.5114680512420053
 40
0.5310935621198518
 40
0.5513093945357953
 40
0.5722401948274418
 40
0.5939945571232549
 40
0.6166694997411567
 40
0.6403475857966665
 40
0.6650985227948267
 40
0.6844029334237045
 40
0.7043638715237266
 40
0.7249987915242061
 40
0.7456658560938587
 40
0.7644083957570783
 40
0.781136061833647
 40
0.795945920185504
 40
0.8089235451865726
 40
0.820184704447633
 40
0.8299139439502397
 40
0.8384044539433568
 40
0.8449417300895692
 40
0.8476617007244539
 40
0.8511839209827955
 40
0.8581467727068848
 40
0.8672087721015721
 40
0.8784126701808491
 40
0.8917808222500871
 40
0.908439967567466
 40
0.9275859896636506
 40
0.9492252727152238
 40
0.9733622223414944
 40
1.0
 40
1.0
 40
1.0
 40
1.0
 10
609.1024315154056
 20
-698.057457627389
 30
0.0
 10
609.101451963145
 20
-698.057158085818
 30
0.0
 10
609.0995667459727
 20
-698.0565815970115
 30
0.0
 10
609.0959118640313
 20
-698.0555612814828
 30
0.0
 10
609.0917727515271
 20
-698.054436928491
 30
0.0
 10
609.0871066682071
 20
-698.0531746973326
 30
0.0
 10
609.0819322309387
 20
-698.0517604389324
 30
0.0
 10
609.0762601241277
 20
-698.0501721288314
 30
0.0
 10
609.0703046840256
 20
-698.0484526350228
 30
0.0
 10
609.0641597685958
 20
-698.0466197561439
 30
0.0
 10
609.0579980153371
 20
-698.0447196246375
 30
0.0
 10
609.0514829356016
 20
-698.0426453710662
 30
0.0
 10
609.0446647723046
 20
-698.0404018003807
 30
0.0
 10
609.0375349144983
 20
-698.0379772522928
 30
0.0
 10
609.0309212260486
 20
-698.0356609283625
 30
0.0
 10
609.0249975599812
 20
-698.0335265916739
 30
0.0
 10
609.0213639140452
 20
-698.0321975002887
 30
0.0
 10
609.0167790827661
 20
-698.0304977588886
 30
0.0
 10
609.0091216977664
 20
-698.0276141977198
 30
0.0
 10
608.9968384888637
 20
-698.0229018352265
 30
0.0
 10
608.9791247991838
 20
-698.0159262650606
 30
0.0
 10
608.9546863671824
 20
-698.0059451182791
 30
0.0
 10
608.9229934146713
 20
-697.992380913513
 30
0.0
 10
608.8846775202509
 20
-697.9749952556369
 30
0.0
 10
608.8432090850388
 20
-697.9549462803798
 30
0.0
 10
608.8011669381153
 20
-697.9332943144254
 30
0.0
 10
608.7603151971123
 20
-697.9109774636909
 30
0.0
 10
608.7206861149863
 20
-697.8881002809853
 30
0.0
 10
608.6822731189219
 20
-697.8647431863136
 30
0.0
 10
608.6356147785818
 20
-697.8349454114966
 30
0.0
 10
608.5817158653648
 20
-697.7982280372509
 30
0.0
 10
608.522118433579
 20
-697.7543788272804
 30
0.0
 10
608.4660924655045
 20
-697.7101937852552
 30
0.0
 10
608.4138061762385
 20
-697.6657807917114
 30
0.0
 10
608.364797407695
 20
-697.6209735230121
 30
0.0
 10
608.3204008910584
 20
-697.5775853541871
 30
0.0
 10
608.2748796980513
 20
-697.5302218167433
 30
0.0
 10
608.2272778912732
 20
-697.4771514418197
 30
0.0
 10
608.1785711268634
 20
-697.4186612604793
 30
0.0
 10
608.1291269764741
 20
-697.3543687291823
 30
0.0
 10
608.0795031533013
 20
-697.2840775515416
 30
0.0
 10
608.0302602122298
 20
-697.2075708373218
 30
0.0
 10
607.9820228305118
 20
-697.1246740887826
 30
0.0
 10
607.9354528636121
 20
-697.0352565965363
 30
0.0
 10
607.8951842695253
 20
-696.9477256105762
 30
0.0
 10
607.8608415059398
 20
-696.8633869123263
 30
0.0
 10
607.8318982417497
 20
-696.7833302050637
 30
0.0
 10
607.8057091431626
 20
-696.7004855746584
 30
0.0
 10
607.7836224679527
 20
-696.6184747783813
 30
0.0
 10
607.7656673997265
 20
-696.5407272545217
 30
0.0
 10
607.7546520782088
 20
-696.4699953021557
 30
0.0
 10
607.7479009190307
 20
-696.4071140247806
 30
0.0
 10
607.7437872979242
 20
-696.3522079754291
 30
0.0
 10
607.7412254659407
 20
-696.3054854589604
 30
0.0
 10
607.7395470444676
 20
-696.2665314596475
 30
0.0
 10
607.7384916356749
 20
-696.2379501118961
 30
0.0
 10
607.7378546086571
 20
-696.2193750536364
 30
0.0
 10
607.7374794839924
 20
-696.2083072834447
 30
0.0
 10
607.7372246683678
 20
-696.2002643723071
 30
0.0
 10
607.7369459528921
 20
-696.1912346289007
 30
0.0
 10
607.7366651664311
 20
-696.1817365662628
 30
0.0
 10
607.7364013078413
 20
-696.1723303055404
 30
0.0
 10
607.7361344969335
 20
-696.1628375519269
 30
0.0
 10
607.7358731262482
 20
-696.1533495672861
 30
0.0
 10
607.7356002610376
 20
-696.1439100154843
 30
0.0
 10
607.7353131855186
 20
-696.134702748006
 30
0.0
 10
607.7350079516366
 20
-696.1256658199138
 30
0.0
 10
607.7347879661394
 20
-696.1202259668971
 30
0.0
 10
607.7346725558738
 20
-696.1173720747562
 30
0.0
  0
SPLINE
  5
21457
330
18
100
AcDbEntity
  8
01
  6
CONTINUOUS
100
AcDbSpline
210
0.0
220
0.0
230
1.0
 70
     8
 71
     3
 72
     9
 73
     5
 74
     0
 42
0.000000001
 43
0.00000001
 40
0.0
 40
0.0
 40
0.0
 40
0.0
 40
0.5759308012036549
 40
1.0
 40
1.0
 40
1.0
 40
1.0
 10
606.2463836913804
 20
-694.6612902075382
 30
0.0
 10
606.2447045694581
 20
-694.6613134719692
 30
0.0
 10
606.2417890769741
 20
-694.6613538664592
 30
0.0
 10
606.2388366071908
 20
-694.6616780129343
 30
0.0
 10
606.2375845556954
 20
-694.6618154734703
 30
0.0
  0
SPLINE
  5
21458
330
18
100
AcDbEntity
  8
01
  6
CONTINUOUS
100
AcDbSpline
210
0.0
220
0.0
230
1.0
 70
     8
 71
     3
 72
    57
 73
    53
 74
     0
 42
0.000000001
 43
0.00000001
 40
0.0
 40
0.0
 40
0.0
 40
0.0
 40
0.0333324888537036
 40
0.06335179132378
 40
0.0900624154604717
 40
0.1134709138857026
 40
0.1335869168170273
 40
0.1504260269076607
 40
0.1640148990654299
 40
0.1732790790686373
 40
0.1801683034817175
 40
0.1835301427692116
 40
0.1867680455465004
 40
0.1907960856019061
 40
0.1980229207403376
 40
0.2061141052593715
 40
0.2152306804075451
 40
0.225509132123325
 40
0.2411704225509131
 40
0.2591969063124457
 40
0.2796890763452681
 40
0.3027631861655017
 40
0.328463703453876
 40
0.3553030046512419
 40
0.3954967167535319
 40
0.4356009695982117
 40
0.4755994401670244
 40
0.515479126933901
 40
0.5552342599764482
 40
0.5948680409855451
 40
0.6343975276347573
 40
0.6738546205014605
 40
0.7001631574015104
 40
0.7250916750204304
 40
0.7475577535949671
 40
0.7675414908692677
 40
0.7850353803600708
 40
0.8000397345248013
 40
0.8125585972016598
 40
0.8225979018763174
 40
0.8301635662232105
 40
0.8347110322710243
 40
0.8400577487093353
 40
0.846898108403496
 40
0.8555535755224268
 40
0.867865493423912
 40
0.8828752493365497
 40
0.9006492056042159
 40
0.9212270864057491
 40
0.9446342972851269
 40
0.970887937324041
 40
1.0
 40
1.0
 40
1.0
 40
1.0
 10
621.3378112932543
 20
-696.1173720747562
 30
0.0
 10
621.3376897651139
 20
-696.1203827400132
 30
0.0
 10
621.3374587885005
 20
-696.1261048160915
 30
0.0
 10
621.337137454924
 20
-696.1356645294308
 30
0.0
 10
621.3368383921256
 20
-696.1454090178412
 30
0.0
 10
621.3365527431644
 20
-696.1554124995937
 30
0.0
 10
621.3362703399586
 20
-696.1656304022074
 30
0.0
 10
621.33597819255
 20
-696.1760751652029
 30
0.0
 10
621.3356831142582
 20
-696.1863514934686
 30
0.0
 10
621.3353784836697
 20
-696.1964983498726
 30
0.0
 10
621.3351010470835
 20
-696.2052798497983
 30
0.0
 10
621.3348060373495
 20
-696.2141808612994
 30
0.0
 10
621.334497189951
 20
-696.2231852609452
 30
0.0
 10
621.3340651395001
 20
-696.2356959645567
 30
0.0
 10
621.3334135323128
 20
-696.2537414270267
 30
0.0
 10
621.3323822960195
 20
-696.2797251427972
 30
0.0
 10
621.3309724733282
 20
-696.3105925075455
 30
0.0
 10
621.3287182762291
 20
-696.3512881138229
 30
0.0
 10
621.3249350416274
 20
-696.4032930909916
 30
0.0
 10
621.3181539038243
 20
-696.4677160242692
 30
0.0
 10
621.3068861065831
 20
-696.5406614000398
 30
0.0
 10
621.2881675484057
 20
-696.621409430486
 30
0.0
 10
621.2645369465858
 20
-696.7083924118875
 30
0.0
 10
621.2306965018304
 20
-696.8135120441084
 30
0.0
 10
621.1847469996901
 20
-696.9326920851036
 30
0.0
 10
621.1241479096645
 20
-697.0627124407009
 30
0.0
 10
621.0549947791139
 20
-697.1880288292314
 30
0.0
 10
620.9776064951361
 20
-697.3079954760315
 30
0.0
 10
620.8923029389814
 20
-697.4219885767258
 30
0.0
 10
620.7993843433204
 20
-697.5293725989726
 30
0.0
 10
620.699205114897
 20
-697.629588697419
 30
0.0
 10
620.603779969547
 20
-697.7115977412984
 30
0.0
 10
620.5176405710115
 20
-697.7772942092971
 30
0.0
 10
620.4454334602256
 20
-697.8276686594513
 30
0.0
 10
620.3775934258155
 20
-697.8709583256614
 30
0.0
 10
620.3158432452175
 20
-697.9071735546316
 30
0.0
 10
620.2607423402462
 20
-697.9370143780178
 30
0.0
 10
620.2127286063212
 20
-697.9611639862178
 30
0.0
 10
620.1721813916197
 20
-697.9802446419015
 30
0.0
 10
620.1392986263381
 20
-697.994841551046
 30
0.0
 10
620.1150722336336
 20
-698.0051018333663
 30
0.0
 10
620.0956172691281
 20
-698.013049603248
 30
0.0
 10
620.0811643988994
 20
-698.0187687199875
 30
0.0
 10
620.0677911791877
 20
-698.0239140108833
 30
0.0
 10
620.0541446424011
 20
-698.0290232144404
 30
0.0
 10
620.0405575707655
 20
-698.0339601687642
 30
0.0
 10
620.0271345215118
 20
-698.0386928202485
 30
0.0
 10
620.0143245812933
 20
-698.0430855923806
 30
0.0
 10
620.0021332440757
 20
-698.0471550592166
 30
0.0
 10
619.9906032943379
 20
-698.0509167811643
 30
0.0
 10
619.9796398013931
 20
-698.0544298169432
 30
0.0
 10
619.9733562913785
 20
-698.0564142071818
 30
0.0
 10
619.9700523337225
 20
-698.057457627389
 30
0.0
  0
LINE
  5
21459
330
18
100
AcDbEntity
  8
01
  6
CONTINUOUS
100
AcDbLine
 10
615.4850570654372
 20
-698.1613569051357
 30
0.0
 11
614.5362926816443
 21
-698.1642467990847
 31
0.0
  0
LINE
  5
2145A
330
18
100
AcDbEntity
  8
01
  6
CONTINUOUS
100
AcDbLine
 10
622.8345472534994
 20
-694.6618359625669
 30
0.0
 11
622.8260992264251
 21
-694.6612902075382
 31
0.0
  0
LINE
  5
2145B
330
18
100
AcDbEntity
  8
01
  6
CONTINUOUS
100
AcDbLine
 10
623.0362419208387
 20
-694.6614708841176
 30
0.0
 11
622.8362385352949
 21
-694.6614708841176
 31
0.0
  0
LINE
  5
2145C
330
18
100
AcDbEntity
  8
01
  6
CONTINUOUS
100
AcDbLine
 10
606.236243451188
 20
-694.6614708841176
 30
0.0
 11
606.0362419282893
 21
-694.6614708841176
 31
0.0
  0
SPLINE
  5
2145D
330
18
100
AcDbEntity
  8
01
  6
CONTINUOUS
100
AcDbSpline
210
0.0
220
0.0
230
1.0
 70
     8
 71
     3
 72
    29
 73
    25
 74
     0
 42
0.000000001
 43
0.00000001
 40
0.0
 40
0.0
 40
0.0
 40
0.0
 40
0.0500406428113315
 40
0.1535249249885668
 40
0.2467938398944113
 40
0.3299115157505803
 40
0.402969609281937
 40
0.4661026141048801
 40
0.5195221946005294
 40
0.5635779616487838
 40
0.5988969380144967
 40
0.6267032277544956
 40
0.6385462652736642
 40
0.6495925639156132
 40
0.6606386039904938
 40
0.6752958291067014
 40
0.6947097858398514
 40
0.7188841246555782
 40
0.7477750532627707
 40
0.782877339581568
 40
0.8265952470762513
 40
0.8782452393134067
 40
0.9366193682692956
 40
1.0
 40
1.0
 40
1.0
 40
1.0
 10
623.3345603739718
 20
-694.9300326496692
 30
0.0
 10
623.3344181522962
 20
-694.9285736656188
 30
0.0
 10
623.3339818155334
 20
-694.9240974957636
 30
0.0
 10
623.3327608040297
 20
-694.9154042507284
 30
0.0
 10
623.3308040730655
 20
-694.9041642561898
 30
0.0
 10
623.328233395847
 20
-694.8922795794886
 30
0.0
 10
623.3249937657132
 20
-694.879853045698
 30
0.0
 10
623.3209965033666
 20
-694.8669094740505
 30
0.0
 10
623.3161627235147
 20
-694.8535048868112
 30
0.0
 10
623.3103956935837
 20
-694.8396682053063
 30
0.0
 10
623.303610221252
 20
-694.8254695220877
 30
0.0
 10
623.2964939076197
 20
-694.8124375704919
 30
0.0
 10
623.2900318908876
 20
-694.8018535074706
 30
0.0
 10
623.2850261600712
 20
-694.7941801599964
 30
0.0
 10
623.2791343540679
 20
-694.7857252452773
 30
0.0
 10
623.2715875495958
 20
-694.7756887215698
 30
0.0
 10
623.2612186243894
 20
-694.7631734655433
 30
0.0
 10
623.2473959140044
 20
-694.7484225290102
 30
0.0
 10
623.2292934324947
 20
-694.7317587549952
 30
0.0
 10
623.2054414215908
 20
-694.7134504347192
 30
0.0
 10
623.1742631659752
 20
-694.6945299684721
 30
0.0
 10
623.1348553177911
 20
-694.6774213674623
 30
0.0
 10
623.087916473611
 20
-694.664544421928
 30
0.0
 10
623.0539325728331
 20
-694.6628146456343
 30
0.0
 10
623.0362419208387
 20
-694.6619141936632
 30
0.0
  0
SPLINE
  5
2145E
330
18
100
AcDbEntity
  8
01
  6
CONTINUOUS
100
AcDbSpline
210
0.0
220
0.0
230
1.0
 70
     8
 71
     3
 72
    29
 73
    25
 74
     0
 42
0.000000001
 43
0.00000001
 40
0.0
 40
0.0
 40
0.0
 40
0.0
 40
0.0629794415871691
 40
0.1212755249533613
 40
0.1732408161318684
 40
0.2176895954766753
 40
0.2539022212292013
 40
0.2834133005825999
 40
0.3075494451759371
 40
0.326268624205445
 40
0.3395836982804224
 40
0.3493066112002612
 40
0.3594118662263232
 40
0.3705927929682244
 40
0.3977651039520296
 40
0.4330404922411807
 40
0.4773781572307581
 40
0.5312548662446891
 40
0.5949330959675181
 40
0.6685722784090546
 40
0.7522742574558401
 40
0.8461087624676621
 40
0.9501246511177558
 40
1.0
 40
1.0
 40
1.0
 40
1.0
 10
606.0362419282893
 20
-694.6619141936632
 30
0.0
 10
606.0187925126602
 20
-694.6627903928367
 30
0.0
 10
605.9851912772851
 20
-694.664477634134
 30
0.0
 10
605.9386056277391
 20
-694.6770973519363
 30
0.0
 10
605.8991726285387
 20
-694.6940332308081
 30
0.0
 10
605.8676445759858
 20
-694.7130188383003
 30
0.0
 10
605.8433909941837
 20
-694.7315668532387
 30
0.0
 10
605.8250779286319
 20
-694.7484299180628
 30
0.0
 10
605.8113835600785
 20
-694.7630539191327
 30
0.0
 10
605.8014410559125
 20
-694.7750232200793
 30
0.0
 10
605.794471490203
 20
-694.7842114480821
 30
0.0
 10
605.789127366563
 20
-694.7917434022986
 30
0.0
 10
605.7846061527508
 20
-694.7985010958089
 30
0.0
 10
605.7785892802399
 20
-694.8080326109075
 30
0.0
 10
605.7718543792263
 20
-694.8198202397365
 30
0.0
 10
605.7651661654911
 20
-694.8330014361617
 30
0.0
 10
605.7592388381648
 20
-694.8462462002904
 30
0.0
 10
605.7540616637309
 20
-694.8594862781027
 30
0.0
 10
605.7496074557579
 20
-694.8726802559884
 30
0.0
 10
605.7458542960742
 20
-694.8857697153513
 30
0.0
 10
605.7427691524238
 20
-694.8987233488509
 30
0.0
 10
605.7403498637761
 20
-694.91143085972
 30
0.0
 10
605.7388005641644
 20
-694.9215485207164
 30
0.0
 10
605.7382556196924
 20
-694.9270050642103
 30
0.0
 10
605.7380790060262
 20
-694.9287735015483
 30
0.0
  0
SPLINE
  5
2145F
330
18
100
AcDbEntity
  8
01
  6
CONTINUOUS
100
AcDbSpline
210
0.0
220
0.0
230
1.0
 70
     8
 71
     3
 72
     9
 73
     5
 74
     0
 42
0.000000001
 43
0.00000001
 40
0.0
 40
0.0
 40
0.0
 40
0.0
 40
0.5325278313578943
 40
1.0
 40
1.0
 40
1.0
 40
1.0
 10
615.4850570654372
 20
-698.1613569051357
 30
0.0
 10
615.3166212774515
 20
-698.1616503217999
 30
0.0
 10
615.0003264698053
 20
-698.1622013102121
 30
0.0
 10
614.6840436512537
 20
-698.1635596561154
 30
0.0
 10
614.5361902361611
 20
-698.1641946450205
 30
0.0
  0
LINE
  5
21460
330
18
100
AcDbEntity
  8
01
  6
CONTINUOUS
100
AcDbLine
 10
632.5362416153649
 20
-712.1613313766526
 30
0.0
 11
632.5362416153649
 21
-662.1613323778244
 31
0.0
  0
LINE
  5
21461
330
18
100
AcDbEntity
  8
01
  6
CONTINUOUS
100
AcDbLine
 10
600.5362400954465
 20
-713.1613314241501
 30
0.0
 11
632.5362416153649
 21
-713.16133142415
 31
0.0
  0
SPLINE
  5
21462
330
18
100
AcDbEntity
  8
01
  6
CONTINUOUS
100
AcDbSpline
210
0.0
220
0.0
230
1.0
 70
     8
 71
     3
 72
    17
 73
    13
 74
     0
 42
0.000000001
 43
0.00000001
 40
0.0
 40
0.0
 40
0.0
 40
0.0
 40
0.0602589848575091
 40
0.1200207017101441
 40
0.1798243027500722
 40
0.2402078182535822
 40
0.3699983305594316
 40
0.5001303270779552
 40
0.6299209929559874
 40
0.7600531434416843
 40
0.8799432879717173
 40
1.0
 40
1.0
 40
1.0
 40
1.0
 10
632.536361859726
 20
-713.161331423779
 30
0.0
 10
632.5363620993032
 20
-713.160496776198
 30
0.0
 10
632.536362576481
 20
-713.1588343686982
 30
0.0
 10
632.5363632505239
 20
-713.1451438716507
 30
0.0
 10
632.5363638866877
 20
-713.123199240367
 30
0.0
 10
632.5363647062733
 20
-713.0806799658939
 30
0.0
 10
632.5363656204918
 20
-713.0033803105442
 30
0.0
 10
632.5363664381528
 20
-712.8733472998858
 30
0.0
 10
632.5363669493768
 20
-712.7144919084309
 30
0.0
 10
632.5363671004537
 20
-712.5366974438497
 30
0.0
 10
632.5363669607392
 20
-712.3499258688335
 30
0.0
 10
632.5363666240191
 20
-712.2242253252632
 30
0.0
 10
632.5363664555422
 20
-712.1613314237648
 30
0.0
  0
LINE
  5
21463
330
18
100
AcDbEntity
  8
01
  6
CONTINUOUS
100
AcDbLine
 10
632.5362416153649
 20
-661.1613303512664
 30
0.0
 11
629.5362415892879
 21
-661.1613303512664
 31
0.0
  0
SPLINE
  5
21464
330
18
100
AcDbEntity
  8
01
  6
CONTINUOUS
100
AcDbSpline
210
0.0
220
0.0
230
1.0
 70
     8
 71
     3
 72
    17
 73
    13
 74
     0
 42
0.000000001
 43
0.00000001
 40
0.0
 40
0.0
 40
0.0
 40
0.0
 40
0.0602589848619171
 40
0.120020701717245
 40
0.1798243027580222
 40
0.2402078182604617
 40
0.369998330566161
 40
0.5001303270858057
 40
0.629920992961023
 40
0.7600531434455651
 40
0.8799432879689777
 40
0.9999999999999999
 40
0.9999999999999999
 40
0.9999999999999999
 40
0.9999999999999999
 10
632.5362121745343
 20
-662.1613314242409
 30
0.0
 10
632.5362120708506
 20
-662.1298070100538
 30
0.0
 10
632.536211864339
 20
-662.0670183268287
 30
0.0
 10
632.5362114714451
 20
-661.9737692829052
 30
0.0
 10
632.5362110201328
 20
-661.8821358408819
 30
0.0
 10
632.5362103115954
 20
-661.7583589987628
 30
0.0
 10
632.5362092547709
 20
-661.6082912450453
 30
0.0
 10
632.5362077663032
 20
-661.4496108473222
 30
0.0
 10
632.5362061438083
 20
-661.3192457130106
 30
0.0
 10
632.5362044970299
 20
-661.228158169941
 30
0.0
 10
632.5362028869778
 20
-661.1713209365857
 30
0.0
 10
632.5362019008726
 20
-661.1646628023702
 30
0.0
 10
632.5362014074776
 20
-661.1613314242741
 30
0.0
  0
LINE
  5
21465
330
18
100
AcDbEntity
  8
01
  6
CONTINUOUS
100
AcDbLine
 10
623.5362420027951
 20
-704.1613318115802
 30
0.0
 11
623.5362420027951
 21
-667.1613313347431
 31
0.0
  0
LINE
  5
21466
330
18
100
AcDbEntity
  8
01
  6
CONTINUOUS
100
AcDbLine
 10
607.5362412428359
 20
-706.1613312080832
 30
0.0
 11
621.5362416749696
 21
-706.1613312080832
 31
0.0
  0
LINE
  5
21467
330
18
100
AcDbEntity
  8
01
  6
CONTINUOUS
100
AcDbLine
 10
605.5362409150104
 20
-693.4750404298635
 30
0.0
 11
605.5362409150104
 21
-704.1613318115802
 31
0.0
  0
SPLINE
  5
21468
330
18
100
AcDbEntity
  8
01
  6
CONTINUOUS
100
AcDbSpline
210
0.0
220
0.0
230
1.0
 70
    24
 71
     3
 72
    10
 73
     6
 74
     0
 42
0.000000001
 43
0.00000001
 40
0.0
 40
0.0
 40
0.0
 40
0.0
 40
0.5
 40
0.5
 40
1.0
 40
1.0
 40
1.0
 40
1.0
 10
605.5362416153649
 20
-693.4750399231348
 30
0.0
 10
605.5362416153649
 20
-692.5587420658377
 30
0.0
 10
605.5362416153649
 20
-691.6428047326198
 30
0.0
 10
605.5362416153649
 20
-689.9497070605385
 30
0.0
 10
605.5362416153649
 20
-689.1732128833103
 30
0.0
 10
605.5362416153649
 20
-688.5252924548289
 30
0.0
  0
LINE
  5
21469
330
18
100
AcDbEntity
  8
01
  6
CONTINUOUS
100
AcDbLine
 10
598.5362397676209
 20
-711.1613313291551
 30
0.0
 11
598.5362397676209
 21
-693.4750404298635
 31
0.0
  0
SPLINE
  5
2146A
330
18
100
AcDbEntity
  8
01
  6
CONTINUOUS
100
AcDbSpline
210
0.0
220
0.0
230
1.0
 70
    24
 71
     3
 72
    10
 73
     6
 74
     0
 42
0.000000001
 43
0.00000001
 40
0.0
 40
0.0
 40
0.0
 40
0.0
 40
0.5
 40
0.5
 40
1.0
 40
1.0
 40
1.0
 40
1.0
 10
598.5362416153649
 20
-690.16133142415
 30
0.0
 10
598.5362416153649
 20
-690.6681051441127
 30
0.0
 10
598.5362416153649
 20
-691.2085928277609
 30
0.0
 10
598.5362416153649
 20
-692.3244342276474
 30
0.0
 10
598.5362416153649
 20
-692.8997194067391
 30
0.0
 10
598.5362416153649
 20
-693.4750399231347
 30
0.0
  0
SPLINE
  5
2146B
330
18
100
AcDbEntity
  8
01
  6
CONTINUOUS
100
AcDbSpline
210
0.0
220
0.0
230
1.0
 70
     8
 71
     3
 72
    24
 73
    20
 74
     0
 42
0.000000001
 43
0.00000001
 40
0.0
 40
0.0
 40
0.0
 40
0.0
 40
0.1250000000000019
 40
0.1250000000000019
 40
0.1875000000000028
 40
0.1875000000000028
 40
0.2500000000000037
 40
0.2500000000000037
 40
0.3750000000000037
 40
0.3750000000000037
 40
0.5000000000000034
 40
0.5000000000000034
 40
0.6250000000000032
 40
0.6250000000000032
 40
0.6875000000000026
 40
0.6875000000000026
 40
0.7500000000000018
 40
0.7500000000000018
 40
1.0
 40
1.0
 40
1.0
 40
1.0
 10
623.5362416153653
 20
-667.16133142415
 30
0.0
 10
623.5362416153653
 20
-666.7651927346515
 30
0.0
 10
623.5750926474784
 20
-666.3756223179258
 30
0.0
 10
623.6892619054582
 20
-665.8008215101212
 30
0.0
 10
623.7367029731558
 20
-665.6108194736158
 30
0.0
 10
623.850781605491
 20
-665.2340846191588
 30
0.0
 10
623.9177437531218
 20
-665.0468323506473
 30
0.0
 10
624.1433686604801
 20
-664.5021173425121
 30
0.0
 10
624.3274624283852
 20
-664.1576375136333
 30
0.0
 10
624.7623901915291
 20
-663.5056645479249
 30
0.0
 10
625.0155587083025
 20
-663.1969312860656
 30
0.0
 10
625.5686101988883
 20
-662.6434842217716
 30
0.0
 10
625.8703740172235
 20
-662.3951117358083
 30
0.0
 10
626.3617682507837
 20
-662.0660809201295
 30
0.0
 10
626.5320578621581
 20
-661.9638892660594
 30
0.0
 10
626.8781649272141
 20
-661.7786598449395
 30
0.0
 10
627.0548901771755
 20
-661.6949774411031
 30
0.0
 10
627.9565939684117
 20
-661.3205432448077
 30
0.0
 10
628.7469080873936
 20
-661.16133142415
 30
0.0
 10
629.5362416153653
 20
-661.16133142415
 30
0.0
  0
SPLINE
  5
2146C
330
18
100
AcDbEntity
  8
01
  6
CONTINUOUS
100
AcDbSpline
210
0.0
220
0.0
230
1.0
 70
     8
 71
     3
 72
    14
 73
    10
 74
     0
 42
0.000000001
 43
0.00000001
 40
0.0
 40
0.0
 40
0.0
 40
0.0
 40
0.25
 40
0.25
 40
0.5
 40
0.5
 40
0.75
 40
0.75
 40
1.0
 40
1.0
 40
1.0
 40
1.0
 10
605.5362416153655
 20
-704.1613314241491
 30
0.0
 10
605.5362416153655
 20
-704.4231308119482
 30
0.0
 10
605.588296262029
 20
-704.6848271928676
 30
0.0
 10
605.7886688386569
 20
-705.1685693848908
 30
0.0
 10
605.936907930569
 20
-705.3904248640988
 30
0.0
 10
606.3071481754154
 20
-705.7606651089453
 30
0.0
 10
606.5290036546234
 20
-705.9089042008575
 30
0.0
 10
607.0127458466465
 20
-706.1092767774857
 30
0.0
 10
607.2744422275658
 20
-706.1613314241491
 30
0.0
 10
607.5362416153649
 20
-706.1613314241492
 30
0.0
  0
SPLINE
  5
2146D
330
18
100
AcDbEntity
  8
01
100
AcDbSpline
210
0.0
220
0.0
230
1.0
 70
     8
 71
     3
 72
    14
 73
    10
 74
     0
 42
0.000000001
 43
0.00000001
 40
0.0
 40
0.0
 40
0.0
 40
0.0
 40
0.2500000000000003
 40
0.2500000000000003
 40
0.5000000000000006
 40
0.5000000000000006
 40
0.7500000000000002
 40
0.7500000000000002
 40
1.0
 40
1.0
 40
1.0
 40
1.0
 10
621.5362416153648
 20
-706.1613314241481
 30
0.0
 10
621.7980410031637
 20
-706.1613314241478
 30
0.0
 10
622.0597373840827
 20
-706.1092767774843
 30
0.0
 10
622.5434795761053
 20
-705.9089042008562
 30
0.0
 10
622.765335055313
 20
-705.7606651089442
 30
0.0
 10
623.1355753001591
 20
-705.3904248640981
 30
0.0
 10
623.283814392071
 20
-705.1685693848904
 30
0.0
 10
623.4841869686992
 20
-704.6848271928678
 30
0.0
 10
623.5362416153627
 20
-704.4231308119488
 30
0.0
 10
623.536241615363
 20
-704.16133142415
 30
0.0
  0
SPLINE
  5
2146E
330
18
100
AcDbEntity
  8
01
  6
CONTINUOUS
100
AcDbSpline
210
0.0
220
0.0
230
1.0
 70
     8
 71
     3
 72
    14
 73
    10
 74
     0
 42
0.000000001
 43
0.00000001
 40
0.0
 40
0.0
 40
0.0
 40
0.0
 40
0.25
 40
0.25
 40
0.5
 40
0.5
 40
0.75
 40
0.75
 40
1.0
 40
1.0
 40
1.0
 40
1.0
 10
600.5362416153649
 20
-713.16133142415
 30
0.0
 10
600.3005393430296
 20
-713.16133142415
 30
0.0
 10
600.0462460711315
 20
-713.118373942008
 30
0.0
 10
599.5538582465239
 20
-712.9234420809184
 30
0.0
 10
599.3172901412175
 20
-712.770807091137
 30
0.0
 10
598.9267658460722
 20
-712.3802827632153
 30
0.0
 10
598.7741308779123
 20
-712.1437146470777
 30
0.0
 10
598.5791990596979
 20
-711.6513268149893
 30
0.0
 10
598.5362415984687
 20
-711.3970335601934
 30
0.0
 10
598.5362416153649
 20
-711.1613312808738
 30
0.0
  0
SPLINE
  5
2146F
330
18
100
AcDbEntity
  8
01
  6
CONTINUOUS
100
AcDbSpline
210
0.0
220
0.0
230
1.0
 70
     8
 71
     3
 72
    17
 73
    13
 74
     0
 42
0.000000001
 43
0.00000001
 40
0.0
 40
0.0
 40
0.0
 40
0.0
 40
0.098683326587875
 40
0.1974944311566141
 40
0.2964959811813368
 40
0.395750283525872
 40
0.4953191706818474
 40
0.5952638913896089
 40
0.6956450065486884
 40
0.7965222912165478
 40
0.8979546433732262
 40
1.0
 40
1.0
 40
1.0
 40
1.0
 10
598.5362416153662
 20
-690.16133142415
 30
0.0
 10
598.536958347742
 20
-690.0911075689153
 30
0.0
 10
598.538392740539
 20
-689.9505689305988
 30
0.0
 10
598.5497429671607
 20
-689.743004683354
 30
0.0
 10
598.5675127495213
 20
-689.5380151043129
 30
0.0
 10
598.5921306878861
 20
-689.3360405263512
 30
0.0
 10
598.6231559467801
 20
-689.1372244721674
 30
0.0
 10
598.6603861667951
 20
-688.9417802894128
 30
0.0
 10
598.7035185226567
 20
-688.7498435959859
 30
0.0
 10
598.7523999871466
 20
-688.5616977615864
 30
0.0
 10
598.8063665619425
 20
-688.3770165782054
 30
0.0
 10
598.846433383402
 20
-688.257848303629
 30
0.0
 10
598.8665271475257
 20
-688.1980846609654
 30
0.0
  0
SPLINE
  5
21470
330
18
100
AcDbEntity
  8
01
  6
CONTINUOUS
100
AcDbSpline
210
0.0
220
0.0
230
1.0
 70
     8
 71
     3
 72
     9
 73
     5
 74
     0
 42
0.000000001
 43
0.00000001
 40
0.0
 40
0.0
 40
0.0
 40
0.0
 40
0.7209294164570218
 40
1.0
 40
1.0
 40
1.0
 40
1.0
 10
605.5362409150104
 20
-698.3613398015829
 30
0.0
 10
605.5366954135598
 20
-698.3941255174287
 30
0.0
 10
605.5373258477454
 20
-698.4396025295986
 30
0.0
 10
605.544600584595
 20
-698.4844251690431
 30
0.0
 10
605.5466307496528
 20
-698.4969338491888
 30
0.0
  0
SPLINE
  5
21471
330
18
100
AcDbEntity
  8
01
  6
CONTINUOUS
100
AcDbSpline
210
0.0
220
0.0
230
1.0
 70
     8
 71
     3
 72
     9
 73
     5
 74
     0
 42
0.000000001
 43
0.00000001
 40
0.0
 40
0.0
 40
0.0
 40
0.0
 40
0.7212726534408102
 40
1.0
 40
1.0
 40
1.0
 40
1.0
 10
623.5362420027951
 20
-698.3613398015829
 30
0.0
 10
623.5357888235122
 20
-698.3941256286978
 30
0.0
 10
623.5351605184176
 20
-698.4395811536767
 30
0.0
 10
623.5278884153659
 20
-698.4843822869352
 30
0.0
 10
623.5258614813785
 20
-698.4968695879312
 30
0.0
  0
LINE
  5
21472
330
18
100
AcDbEntity
  8
01
  6
CONTINUOUS
100
AcDbLine
 10
607.0362420922021
 20
-705.8390223510893
 30
0.0
 11
607.0362420922021
 21
-706.0978229247363
 31
0.0
  0
LINE
  5
21473
330
18
100
AcDbEntity
  8
01
  6
CONTINUOUS
100
AcDbLine
 10
622.036241756926
 20
-706.0978229247363
 30
0.0
 11
622.036241756926
 21
-705.8389469139607
 31
0.0
  0
LINE
  5
21474
330
18
100
AcDbEntity
  8
01
  6
CONTINUOUS
100
AcDbLine
 10
605.5362409150104
 20
-688.5252919137807
 30
0.0
 11
605.5362409150104
 21
-685.1613305598827
 31
0.0
  0
SPLINE
  5
21475
330
18
100
AcDbEntity
  8
01
  6
CONTINUOUS
100
AcDbSpline
210
0.0
220
0.0
230
1.0
 70
     8
 71
     3
 72
    18
 73
    14
 74
     0
 42
0.000000001
 43
0.00000001
 40
0.0
 40
0.0
 40
0.0
 40
0.0
 40
0.2499999999999997
 40
0.2499999999999997
 40
0.4999999999999993
 40
0.4999999999999993
 40
0.6249999999999988
 40
0.6249999999999988
 40
0.7499999999999993
 40
0.7499999999999993
 40
0.8749999999999997
 40
0.8749999999999997
 40
1.0
 40
1.0
 40
1.0
 40
1.0
 10
598.8665271475242
 20
-688.1980846609647
 30
0.0
 10
599.0389455032995
 20
-687.7001529365416
 30
0.0
 10
599.2766231542516
 20
-687.2215048990874
 30
0.0
 10
599.9029828792438
 20
-686.3091788002132
 30
0.0
 10
600.2979735500016
 20
-685.8709267015679
 30
0.0
 10
601.0089516340711
 20
-685.29811771229
 30
0.0
 10
601.2664321362716
 20
-685.1200446419391
 30
0.0
 10
601.8317528138216
 20
-684.7955167821418
 30
0.0
 10
602.132998647216
 20
-684.6530899909511
 30
0.0
 10
602.7726158054201
 20
-684.4162531433201
 30
0.0
 10
603.1159727697864
 20
-684.3210800939936
 30
0.0
 10
603.8136573492609
 20
-684.1944586107331
 30
0.0
 10
604.1705677086009
 20
-684.1613314241499
 30
0.0
 10
604.5362416153648
 20
-684.1613314241499
 30
0.0
  0
SPLINE
  5
21476
330
18
100
AcDbEntity
  8
01
  6
CONTINUOUS
100
AcDbSpline
210
0.0
220
0.0
230
1.0
 70
     8
 71
     3
 72
    14
 73
    10
 74
     0
 42
0.000000001
 43
0.00000001
 40
0.0
 40
0.0
 40
0.0
 40
0.0
 40
0.25
 40
0.25
 40
0.5
 40
0.5
 40
0.75
 40
0.75
 40
1.0
 40
1.0
 40
1.0
 40
1.0
 10
604.5362416153649
 20
-684.16133142415
 30
0.0
 10
604.6540927455626
 20
-684.16133142415
 30
0.0
 10
604.7812393745429
 20
-684.1828101629635
 30
0.0
 10
605.0274332753106
 20
-684.2802760832117
 30
0.0
 10
605.1457173236136
 20
-684.3565935700257
 30
0.0
 10
605.3409794694892
 20
-684.5518557159012
 30
0.0
 10
605.4172969563033
 20
-684.6701397642042
 30
0.0
 10
605.5147628765513
 20
-684.916333664972
 30
0.0
 10
605.5362416153649
 20
-685.0434802939521
 30
0.0
 10
605.5362416153649
 20
-685.1613314241499
 30
0.0
  0
LINE
  5
21477
330
18
100
AcDbEntity
  8
01
  6
CONTINUOUS
100
AcDbLine
 10
632.5362416153648
 20
-711.5343507003369
 30
0.0
 11
632.5362412928221
 21
-703.6823079079719
 31
0.0
  0
LINE
  5
21478
330
18
100
AcDbEntity
  8
01
  6
CONTINUOUS
100
AcDbLine
 10
632.5362412928221
 20
-691.6403554469676
 30
0.0
 11
632.5362413275965
 21
-683.6823083550067
 31
0.0
  0
SPLINE
  5
21479
330
18
100
AcDbEntity
  8
01
  6
CONTINUOUS
100
AcDbSpline
210
0.0
220
0.0
230
1.0
 70
    24
 71
     3
 72
    14
 73
    10
 74
     0
 42
0.000000001
 43
0.00000001
 40
0.0
 40
0.0
 40
0.0
 40
0.0
 40
0.25
 40
0.25
 40
0.5
 40
0.5
 40
0.75
 40
0.75
 40
1.0
 40
1.0
 40
1.0
 40
1.0
 10
623.3362416154254
 20
-695.8162394642115
 30
0.0
 10
623.3362416154254
 20
-695.7352111201437
 30
0.0
 10
623.3362416154253
 20
-695.6480805964565
 30
0.0
 10
623.3362416154253
 20
-695.4791746101105
 30
0.0
 10
623.3362416154253
 20
-695.39787662458
 30
0.0
 10
623.3362416154253
 20
-695.2622587403272
 30
0.0
 10
623.3362416154253
 20
-695.2083554131758
 30
0.0
 10
623.3362416154253
 20
-695.1370813886314
 30
0.0
 10
623.3362416154254
 20
-695.1195265913586
 30
0.0
 10
623.3362416154254
 20
-695.1166688342039
 30
0.0
  0
SPLINE
  5
2147A
330
18
100
AcDbEntity
  8
01
  6
CONTINUOUS
100
AcDbSpline
210
0.0
220
0.0
230
1.0
 70
    24
 71
     3
 72
    14
 73
    10
 74
     0
 42
0.000000001
 43
0.00000001
 40
0.0
 40
0.0
 40
0.0
 40
0.0
 40
0.25
 40
0.25
 40
0.5
 40
0.5
 40
0.75
 40
0.75
 40
1.0
 40
1.0
 40
1.0
 40
1.0
 10
605.7362416153582
 20
-695.1166688342967
 30
0.0
 10
605.7362416153711
 20
-695.1195265914514
 30
0.0
 10
605.7362416153826
 20
-695.1370813887243
 30
0.0
 10
605.7362416153989
 20
-695.2083554132686
 30
0.0
 10
605.7362416154033
 20
-695.2622587404201
 30
0.0
 10
605.7362416154033
 20
-695.3978766246728
 30
0.0
 10
605.7362416153989
 20
-695.4791746102032
 30
0.0
 10
605.7362416153826
 20
-695.6480805965493
 30
0.0
 10
605.7362416153711
 20
-695.7352111202365
 30
0.0
 10
605.7362416153582
 20
-695.8162394643044
 30
0.0
  0
SPLINE
  5
2147B
330
18
100
AcDbEntity
  8
01
100
AcDbSpline
210
0.0
220
0.0
230
1.0
 70
     8
 71
     3
 72
    16
 73
    12
 74
     0
 42
0.000000001
 43
0.00000001
 40
0.0
 40
0.0
 40
0.0
 40
0.0
 40
0.25
 40
0.25
 40
0.5
 40
0.5
 40
0.625
 40
0.625
 40
0.75
 40
0.75
 40
1.0
 40
1.0
 40
1.0
 40
1.0
 10
621.5362416154255
 20
-705.91133142415
 30
0.0
 10
621.7730416738209
 20
-705.91133142415
 30
0.0
 10
622.0101359095175
 20
-705.8635678779511
 30
0.0
 10
622.4429537293116
 20
-705.6838394637272
 30
0.0
 10
622.6435733166726
 20
-705.549702644617
 30
0.0
 10
622.8924464876052
 20
-705.3006514655139
 30
0.0
 10
622.9683970424895
 20
-705.208031487148
 30
0.0
 10
623.0988753716091
 20
-705.0124395971704
 30
0.0
 10
623.1541035017715
 20
-704.9090956489292
 30
0.0
 10
623.2894784465404
 20
-704.5822666431956
 30
0.0
 10
623.3362416154226
 20
-704.3467636729229
 30
0.0
 10
623.3362416154255
 20
-704.1113314241716
 30
0.0
  0
SPLINE
  5
2147C
330
18
100
AcDbEntity
  8
01
  6
CONTINUOUS
100
AcDbSpline
210
0.0
220
0.0
230
1.0
 70
     8
 71
     3
 72
    16
 73
    12
 74
     0
 42
0.000000001
 43
0.00000001
 40
0.0
 40
0.0
 40
0.0
 40
0.0
 40
0.2499999999999997
 40
0.2499999999999997
 40
0.4999999999999993
 40
0.4999999999999993
 40
0.6249999999999996
 40
0.6249999999999996
 40
0.7499999999999997
 40
0.7499999999999997
 40
1.0
 40
1.0
 40
1.0
 40
1.0
 10
605.7362416153043
 20
-704.1113314241716
 30
0.0
 10
605.7362416153071
 20
-704.3481314825624
 30
0.0
 10
605.7840051615059
 20
-704.5852257182487
 30
0.0
 10
605.9637335757247
 20
-705.01804353803
 30
0.0
 10
606.097870394831
 20
-705.218663125389
 30
0.0
 10
606.3469215739321
 20
-705.4675362963224
 30
0.0
 10
606.4395415522977
 20
-705.5434868512075
 30
0.0
 10
606.635133442278
 20
-705.6739651803302
 30
0.0
 10
606.7384773905208
 20
-705.7291933104941
 30
0.0
 10
607.0653063962625
 20
-705.8645682552668
 30
0.0
 10
607.3008093665446
 20
-705.91133142415
 30
0.0
 10
607.5362416153043
 20
-705.91133142415
 30
0.0
  0
SPLINE
  5
2147D
330
18
100
AcDbEntity
  8
01
  6
CONTINUOUS
100
AcDbSpline
210
0.0
220
0.0
230
1.0
 70
     8
 71
     3
 72
    14
 73
    10
 74
     0
 42
0.000000001
 43
0.00000001
 40
0.0
 40
0.0
 40
0.0
 40
0.0
 40
0.25
 40
0.25
 40
0.5
 40
0.5
 40
0.75
 40
0.75
 40
1.0
 40
1.0
 40
1.0
 40
1.0
 10
611.5362416153649
 20
-704.91133142415
 30
0.0
 10
611.477316050266
 20
-704.91133142415
 30
0.0
 10
611.4137427357759
 20
-704.9220707935567
 30
0.0
 10
611.290645785392
 20
-704.9708037536808
 30
0.0
 10
611.2315037612406
 20
-705.0089624970879
 30
0.0
 10
611.1338726883027
 20
-705.1065935700257
 30
0.0
 10
611.0957139448957
 20
-705.1657355941771
 30
0.0
 10
611.0469809847716
 20
-705.288832544561
 30
0.0
 10
611.0362416153649
 20
-705.3524058590511
 30
0.0
 10
611.0362416153649
 20
-705.41133142415
 30
0.0
  0
SPLINE
  5
2147E
330
18
100
AcDbEntity
  8
01
  6
CONTINUOUS
100
AcDbSpline
210
0.0
220
0.0
230
1.0
 70
     8
 71
     3
 72
    14
 73
    10
 74
     0
 42
0.000000001
 43
0.00000001
 40
0.0
 40
0.0
 40
0.0
 40
0.0
 40
0.25
 40
0.25
 40
0.5
 40
0.5
 40
0.75
 40
0.75
 40
1.0
 40
1.0
 40
1.0
 40
1.0
 10
618.0362416153649
 20
-705.41133142415
 30
0.0
 10
618.0362416153649
 20
-705.3524058590511
 30
0.0
 10
618.0255022459581
 20
-705.288832544561
 30
0.0
 10
617.976769285834
 20
-705.1657355941771
 30
0.0
 10
617.9386105424271
 20
-705.1065935700257
 30
0.0
 10
617.8409794694893
 20
-705.0089624970879
 30
0.0
 10
617.7818374453378
 20
-704.9708037536808
 30
0.0
 10
617.6587404949539
 20
-704.9220707935567
 30
0.0
 10
617.5951671804638
 20
-704.91133142415
 30
0.0
 10
617.5362416153649
 20
-704.91133142415
 30
0.0
  0
LINE
  5
2147F
330
18
100
AcDbEntity
  8
01
  6
CONTINUOUS
100
AcDbLine
 10
605.736242437909
 20
-695.8162400961252
 30
0.0
 11
605.736242437909
 21
-704.1113309651943
 31
0.0
  0
LINE
  5
21480
330
18
100
AcDbEntity
  8
01
  6
CONTINUOUS
100
AcDbLine
 10
623.336241411219
 20
-704.1113309651943
 30
0.0
 11
623.336241411219
 21
-695.8162400961252
 31
0.0
  0
LINE
  5
21481
330
18
100
AcDbEntity
  8
01
  6
CONTINUOUS
100
AcDbLine
 10
611.536241898487
 20
-704.9113314688535
 30
0.0
 11
617.536241950641
 21
-704.9113314688535
 31
0.0
  0
LINE
  5
21482
330
18
100
AcDbEntity
  8
01
  6
CONTINUOUS
100
AcDbLine
 10
611.036240885208
 20
-705.6113312110634
 30
0.0
 11
611.036240885208
 21
-705.4113315508099
 31
0.0
  0
LINE
  5
21483
330
18
100
AcDbEntity
  8
01
  6
CONTINUOUS
100
AcDbLine
 10
618.0362420325974
 20
-705.4113315508099
 30
0.0
 11
618.0362420325974
 21
-705.6113312110634
 31
0.0
  0
LINE
  5
21484
330
18
100
AcDbEntity
  8
01
  6
CONTINUOUS
100
AcDbLine
 10
607.5362412428359
 20
-705.9113316327663
 30
0.0
 11
610.7362413948277
 21
-705.9113316327663
 31
0.0
  0
LINE
  5
21485
330
18
100
AcDbEntity
  8
01
  6
CONTINUOUS
100
AcDbLine
 10
618.3362415229777
 20
-705.9113316327663
 30
0.0
 11
621.5362416749696
 21
-705.9113316327663
 31
0.0
  0
SPLINE
  5
21486
330
18
100
AcDbEntity
  8
01
  6
CONTINUOUS
100
AcDbSpline
210
0.0
220
0.0
230
1.0
 70
     8
 71
     3
 72
    10
 73
     6
 74
     0
 42
0.000000001
 43
0.00000001
 40
0.0
 40
0.0
 40
0.0
 40
0.0
 40
0.5
 40
0.5
 40
1.0
 40
1.0
 40
1.0
 40
1.0
 10
610.7362416153649
 20
-705.91133142415
 30
0.0
 10
610.8069522934836
 20
-705.91133142415
 30
0.0
 10
610.8897950059581
 20
-705.8820421022687
 30
0.0
 10
611.0069522934836
 20
-705.7648848147433
 30
0.0
 10
611.0362416153649
 20
-705.6820421022687
 30
0.0
 10
611.0362416153649
 20
-705.61133142415
 30
0.0
  0
SPLINE
  5
21487
330
18
100
AcDbEntity
  8
01
  6
CONTINUOUS
100
AcDbSpline
210
0.0
220
0.0
230
1.0
 70
     8
 71
     3
 72
    10
 73
     6
 74
     0
 42
0.000000001
 43
0.00000001
 40
0.0
 40
0.0
 40
0.0
 40
0.0
 40
0.5
 40
0.5
 40
1.0
 40
1.0
 40
1.0
 40
1.0
 10
618.0362416153649
 20
-705.61133142415
 30
0.0
 10
618.0362416153649
 20
-705.6820421023824
 30
0.0
 10
618.0655309372657
 20
-705.7648848150454
 30
0.0
 10
618.1826882248691
 20
-705.8820421026488
 30
0.0
 10
618.2655309373599
 20
-705.9113314243774
 30
0.0
 10
618.3362416153649
 20
-705.91133142415
 30
0.0
  0
SPLINE
  5
21488
330
18
100
AcDbEntity
  8
01
  6
CONTINUOUS
100
AcDbSpline
210
0.0
220
0.0
230
1.0
 70
     8
 71
     3
 72
    13
 73
     9
 74
     0
 42
0.000000001
 43
0.00000001
 40
0.0
 40
0.0
 40
0.0
 40
0.0
 40
0.5000000000000022
 40
0.7500000000000022
 40
0.7500000000000022
 40
0.8750000000000011
 40
0.8750000000000011
 40
1.0
 40
1.0
 40
1.0
 40
1.0
 10
614.5362416549872
 20
-698.1619878926856
 30
0.0
 10
613.7362454722119
 20
-698.162132748031
 30
0.0
 10
612.5362440549768
 20
-698.1586702143811
 30
0.0
 10
611.3362365165152
 20
-698.1623371888476
 30
0.0
 10
610.7362321098619
 20
-698.1664130301934
 30
0.0
 10
610.5362303199952
 20
-698.168350410916
 30
0.0
 10
610.1362275236094
 20
-698.1722583993345
 30
0.0
 10
609.9362277797703
 20
-698.1730233859989
 30
0.0
 10
609.7362416154053
 20
-698.161331423611
 30
0.0
  0
LINE
  5
21489
330
18
100
AcDbEntity
  8
01
  6
CONTINUOUS
100
AcDbLine
 10
606.2362415885428
 20
-694.66274865869
 30
0.0
 11
606.2362415885428
 21
-694.6629647255273
 31
0.0
  0
SPLINE
  5
2148A
330
18
100
AcDbEntity
  8
01
  6
CONTINUOUS
100
AcDbSpline
210
0.0
220
0.0
230
1.0
 70
     8
 71
     3
 72
    12
 73
     8
 74
     0
 42
0.000000001
 43
0.00000001
 40
0.0
 40
0.0
 40
0.0
 40
0.0
 40
0.2138754103443786
 40
0.4275283403820634
 40
0.6406216682786446
 40
0.8531470084720693
 40
1.0
 40
1.0
 40
1.0
 40
1.0
 10
609.736241230915
 20
-698.1613317594262
 30
0.0
 10
609.6904391713439
 20
-698.158271085968
 30
0.0
 10
609.5988826970256
 20
-698.1521529228659
 30
0.0
 10
609.4621866048342
 20
-698.136773962271
 30
0.0
 10
609.3267589044317
 20
-698.1146990877807
 30
0.0
 10
609.2064495383736
 20
-698.0889316953821
 30
0.0
 10
609.1328322898446
 20
-698.0658316005164
 30
0.0
 10
609.1027500277261
 20
-698.0563921943636
 30
0.0
  0
SPLINE
  5
2148B
330
18
100
AcDbEntity
  8
01
  6
CONTINUOUS
100
AcDbSpline
210
0.0
220
0.0
230
1.0
 70
     8
 71
     3
 72
    28
 73
    24
 74
     0
 42
0.000000001
 43
0.00000001
 40
0.0
 40
0.0
 40
0.0
 40
0.0
 40
0.0231238264389042
 40
0.0657764576570207
 40
0.1084177243110016
 40
0.1582300326977197
 40
0.2080173653913996
 40
0.2577879417249712
 40
0.3075540441097415
 40
0.3573312518936528
 40
0.4071468668186925
 40
0.4569531210401522
 40
0.5067136926707351
 40
0.5564669069574392
 40
0.6062272537232629
 40
0.6559991805520787
 40
0.7057768761246279
 40
0.7555508842461143
 40
0.805313167330156
 40
0.8550619450261187
 40
0.9048056053144465
 40
0.9545712234302152
 40
1.0
 40
1.0
 40
1.0
 40
1.0
 10
607.7343223785857
 20
-696.1173869759174
 30
0.0
 10
607.7336290653107
 20
-696.0996618865815
 30
0.0
 10
607.731656913712
 20
-696.0492423078305
 30
0.0
 10
607.7245224914459
 20
-695.9663171683753
 30
0.0
 10
607.7082892601193
 20
-695.8638478832485
 30
0.0
 10
607.6818205428459
 20
-695.7578648168151
 30
0.0
 10
607.6465448360782
 20
-695.6487584566028
 30
0.0
 10
607.6032070303374
 20
-695.5426081259835
 30
0.0
 10
607.5522025498917
 20
-695.4399378204831
 30
0.0
 10
607.4936440333279
 20
-695.3413362579797
 30
0.0
 10
607.4278454392418
 20
-695.2473662150286
 30
0.0
 10
607.3548134091438
 20
-695.1589022821239
 30
0.0
 10
607.274961118492
 20
-695.076615998874
 30
0.0
 10
607.1889964776193
 20
-695.0008009031294
 30
0.0
 10
607.0974852758517
 20
-694.9317725911447
 30
0.0
 10
607.0010234473787
 20
-694.8698206741334
 30
0.0
 10
606.9001922137952
 20
-694.8152486206795
 30
0.0
 10
606.7955745700435
 20
-694.7683558644694
 30
0.0
 10
606.6877575074092
 20
-694.7294548806201
 30
0.0
 10
606.5773198998811
 20
-694.6987872552891
 30
0.0
 10
606.4648458593147
 20
-694.6769312492627
 30
0.0
 10
606.354282382394
 20
-694.6635469939536
 30
0.0
 10
606.2812318909256
 20
-694.6622764957409
 30
0.0
 10
606.2463706528644
 20
-694.6616701871486
 30
0.0
  0
SPLINE
  5
2148C
330
18
100
AcDbEntity
  8
01
  6
CONTINUOUS
100
AcDbSpline
210
0.0
220
0.0
230
1.0
 70
     8
 71
     3
 72
    29
 73
    25
 74
     0
 42
0.000000001
 43
0.00000001
 40
0.0
 40
0.0
 40
0.0
 40
0.0
 40
0.0454259156163948
 40
0.0951879976353515
 40
0.1449289223774503
 40
0.1946745670607071
 40
0.2444337162815185
 40
0.2942045898013707
 40
0.3439791505400623
 40
0.3937479428983168
 40
0.4435051559228533
 40
0.4932549334704925
 40
0.5430126530409844
 40
0.5928155129482232
 40
0.6426282229994539
 40
0.692402295980227
 40
0.7421650841392173
 40
0.7839718967749824
 40
0.8257896193042322
 40
0.8676224372367127
 40
0.9094540982749078
 40
0.9512282114422416
 40
0.9930464839056607
 40
1.0
 40
1.0
 40
1.0
 40
1.0
 10
622.8261122649411
 20
-694.6616701871486
 30
0.0
 10
622.7912510244751
 20
-694.66227647748
 30
0.0
 10
622.7182008364927
 20
-694.663546932062
 30
0.0
 10
622.6076374010681
 20
-694.6769314465481
 30
0.0
 10
622.4951632998657
 20
-694.6987871084951
 30
0.0
 10
622.3847254138814
 20
-694.7294548983939
 30
0.0
 10
622.2769083457594
 20
-694.7683558585807
 30
0.0
 10
622.1722907085353
 20
-694.8152486264553
 30
0.0
 10
622.071459454329
 20
-694.8698206569198
 30
0.0
 10
621.9749977018057
 20
-694.9317726542088
 30
0.0
 10
621.8834864029662
 20
-695.0008005278379
 30
0.0
 10
621.7975228140339
 20
-695.0766167035557
 30
0.0
 10
621.7176692628395
 20
-695.1589015557197
 30
0.0
 10
621.644638827624
 20
-695.2473668702197
 30
0.0
 10
621.5788380950428
 20
-695.3413359932948
 30
0.0
 10
621.5202827071206
 20
-695.4399373658979
 30
0.0
 10
621.471987832792
 20
-695.5371350502325
 30
0.0
 10
621.4327595969094
 20
-695.6317105307334
 30
0.0
 10
621.4014012126231
 20
-695.7227733156922
 30
0.0
 10
621.3757934026967
 20
-695.815614816937
 30
0.0
 10
621.3556639266503
 20
-695.9098229721152
 30
0.0
 10
621.3441972619087
 20
-696.0054474979727
 30
0.0
 10
621.3394125089981
 20
-696.0747724304972
 30
0.0
 10
621.3381260267366
 20
-696.112165629858
 30
0.0
 10
621.3379426097373
 20
-696.1174968719812
 30
0.0
  0
SPLINE
  5
2148D
330
18
100
AcDbEntity
  8
01
  6
CONTINUOUS
100
AcDbSpline
210
0.0
220
0.0
230
1.0
 70
     8
 71
     3
 72
    12
 73
     8
 74
     0
 42
0.000000001
 43
0.00000001
 40
0.0
 40
0.0
 40
0.0
 40
0.0
 40
0.146852990764804
 40
0.3593783298538333
 40
0.5724716566430674
 40
0.7861231482612865
 40
1.0
 40
1.0
 40
1.0
 40
1.0
 10
619.9697328900794
 20
-698.0563921943636
 30
0.0
 10
619.9396506279119
 20
-698.0658316000561
 30
0.0
 10
619.8660333792628
 20
-698.0889316937953
 30
0.0
 10
619.7457240144162
 20
-698.1146990975739
 30
0.0
 10
619.6102966135837
 20
-698.1367738762137
 30
0.0
 10
619.4736005419779
 20
-698.15215303238
 30
0.0
 10
619.3820440591026
 20
-698.1582711087507
 30
0.0
 10
619.3362416868905
 20
-698.1613317594262
 30
0.0
  0
LINE
  5
2148E
330
18
100
AcDbEntity
  8
01
  6
CONTINUOUS
100
AcDbLine
 10
622.8362385352949
 20
-694.6626592517229
 30
0.0
 11
622.8362385352949
 21
-694.6629256099792
 31
0.0
  0
SPLINE
  5
2148F
330
18
100
AcDbEntity
  8
01
  6
CONTINUOUS
100
AcDbSpline
210
0.0
220
0.0
230
1.0
 70
     8
 71
     3
 72
    13
 73
     9
 74
     0
 42
0.000000001
 43
0.00000001
 40
0.0
 40
0.0
 40
0.0
 40
0.0
 40
0.1250000000000004
 40
0.1250000000000004
 40
0.2500000000000009
 40
0.2500000000000009
 40
0.5000000000000006
 40
1.0
 40
1.0
 40
1.0
 40
1.0
 10
619.3362416153244
 20
-698.161331423611
 30
0.0
 10
619.1362554509625
 20
-698.1730233859984
 30
0.0
 10
618.9362557071231
 20
-698.1722583993339
 30
0.0
 10
618.5362529107364
 20
-698.1683504109157
 30
0.0
 10
618.3362511208691
 20
-698.1664130301932
 30
0.0
 10
617.7362467142146
 20
-698.1623371888476
 30
0.0
 10
616.5362391757523
 20
-698.1586702143812
 30
0.0
 10
615.3362377585181
 20
-698.162132748031
 30
0.0
 10
614.5362415757428
 20
-698.1619878926856
 30
0.0
  0
LINE
  5
21491
330
18
100
AcDbEntity
  8
01
  6
CONTINUOUS
100
AcDbLine
 10
623.0362419208387
 20
-694.6621935904355
 30
0.0
 11
623.0362419208387
 21
-694.6628753185602
 31
0.0
  0
LINE
  5
21492
330
18
100
AcDbEntity
  8
01
  6
CONTINUOUS
100
AcDbLine
 10
606.0362419282893
 20
-694.6628753185602
 30
0.0
 11
606.0362419282893
 21
-694.6621935904355
 31
0.0
  0
LINE
  5
21494
330
18
100
AcDbEntity
  8
01
  6
CONTINUOUS
100
AcDbLine
 10
623.336241411219
 20
-694.9613306761117
 30
0.0
 11
623.3333794569472
 21
-694.9301406830879
 31
0.0
  0
SPLINE
  5
21495
330
18
100
AcDbEntity
  8
01
  6
CONTINUOUS
100
AcDbSpline
210
0.0
220
0.0
230
1.0
 70
    24
 71
     3
 72
     8
 73
     4
 74
     0
 42
0.000000001
 43
0.00000001
 40
0.0
 40
0.0
 40
0.0
 40
0.0
 40
1.0
 40
1.0
 40
1.0
 40
1.0
 10
623.3362416154254
 20
-695.1166688342039
 30
0.0
 10
623.3362416153988
 20
-695.0129002850654
 30
0.0
 10
623.3362416153722
 20
-694.961146828481
 30
0.0
 10
623.3362416153456
 20
-694.961329971685
 30
0.0
  0
LINE
  5
21496
330
18
100
AcDbEntity
  8
01
  6
CONTINUOUS
100
AcDbLine
 10
605.7392189448575
 20
-694.9288778096767
 30
0.0
 11
605.736242437909
 21
-694.9613306761117
 31
0.0
  0
SPLINE
  5
21497
330
18
100
AcDbEntity
  8
01
  6
CONTINUOUS
100
AcDbSpline
210
0.0
220
0.0
230
1.0
 70
    24
 71
     3
 72
     8
 73
     4
 74
     0
 42
0.000000001
 43
0.00000001
 40
0.0
 40
0.0
 40
0.0
 40
0.0
 40
1.0
 40
1.0
 40
1.0
 40
1.0
 10
605.7362416153592
 20
-694.9613299717777
 30
0.0
 10
605.736241615359
 20
-694.9611468285786
 30
0.0
 10
605.7362416153586
 20
-695.0129002851581
 30
0.0
 10
605.7362416153582
 20
-695.1166688342967
 30
0.0
  0
LINE
  5
21498
330
18
100
AcDbEntity
  8
01
  6
CONTINUOUS
100
AcDbLine
 10
623.0362419208387
 20
-694.6621451616617
 30
0.0
 11
623.0362419208387
 21
-694.6627914995285
 31
0.0
  0
LINE
  5
21499
330
18
100
AcDbEntity
  8
01
  6
CONTINUOUS
100
AcDbLine
 10
606.0362419282893
 20
-694.6629442364307
 30
0.0
 11
606.0362419282893
 21
-694.6627914995285
 31
0.0
  0
LINE
  5
2149E
330
18
100
AcDbEntity
  8
01
100
AcDbLine
 10
599.5362417941789
 20
-693.4750404298635
 30
0.0
 11
604.5362407510976
 21
-693.4750404298635
 31
0.0
  0
SPLINE
  5
214AB
330
18
100
AcDbEntity
  8
01
100
AcDbSpline
210
0.0
220
0.0
230
1.0
 70
    24
 71
     3
 72
    10
 73
     6
 74
     0
 42
0.000000001
 43
0.00000001
 40
0.0
 40
0.0
 40
0.0
 40
0.0
 40
0.5
 40
0.5
 40
1.0
 40
1.0
 40
1.0
 40
1.0
 10
605.5362416153649
 20
-693.4750399231348
 30
0.0
 10
605.5362416153649
 20
-693.4750399231348
 30
0.0
 10
605.4284685189748
 20
-693.4750399231348
 30
0.0
 10
605.0582282741282
 20
-693.4750399231348
 30
0.0
 10
604.7980410031641
 20
-693.4750399231347
 30
0.0
 10
604.5362416153649
 20
-693.4750399231347
 30
0.0
  0
SPLINE
  5
214B3
330
18
100
AcDbEntity
  8
01
100
AcDbSpline
210
0.0
220
0.0
230
1.0
 70
    24
 71
     3
 72
    10
 73
     6
 74
     0
 42
0.000000001
 43
0.00000001
 40
0.0
 40
0.0
 40
0.0
 40
0.0
 40
0.5
 40
0.5
 40
1.0
 40
1.0
 40
1.0
 40
1.0
 10
598.5362416153649
 20
-693.4750399231348
 30
0.0
 10
598.5362416153649
 20
-693.4750399231347
 30
0.0
 10
598.6440147117551
 20
-693.4750399231347
 30
0.0
 10
599.0142549566016
 20
-693.4750399231347
 30
0.0
 10
599.2744422275657
 20
-693.4750399231347
 30
0.0
 10
599.5362416153649
 20
-693.4750399231347
 30
0.0
  0
LINE
  5
214ED
330
18
100
AcDbEntity
  8
01
  6
PHANTOM
100
AcDbLine
 10
614.5362423902253
 20
-698.1619883418413
 30
0.0
 11
614.5361920988063
 21
-698.1650533244343
 31
0.0
  0
CIRCLE
  5
214F1
330
18
100
AcDbEntity
  8
01
100
AcDbCircle
 10
525.5362416153649
 20
-677.6571783954683
 30
0.0
 40
2.25
  0
CIRCLE
  5
214F2
330
18
100
AcDbEntity
  8
01
100
AcDbCircle
 10
525.5362416153649
 20
-697.6571783954683
 30
0.0
 40
2.25
  0
LINE
  5
214F3
330
18
100
AcDbEntity
  8
1CENTER
100
AcDbLine
 10
521.2862416153649
 20
-677.6571783954683
 30
0.0
 11
529.7862416153649
 21
-677.6571783954683
 31
0.0
  0
LINE
  5
214F4
330
18
100
AcDbEntity
  8
1CENTER
100
AcDbLine
 10
521.2862416153649
 20
-697.6571783954683
 30
0.0
 11
529.7862416153649
 21
-697.6571783954683
 31
0.0
  0
LINE
  5
216C1
330
18
100
AcDbEntity
  8
1PHANTOM
100
AcDbLine
 10
659.184881962079
 20
-679.1571818689432
 30
0.0
 11
632.2849168639552
 21
-679.1571818689432
 31
0.0
  0
LINE
  5
216C2
330
18
100
AcDbEntity
  8
1PHANTOM
100
AcDbLine
 10
632.2849168639552
 20
-679.1571818689432
 30
0.0
 11
629.784887779283
 21
-681.6572284048411
 31
0.0
  0
LINE
  5
216C3
330
18
100
AcDbEntity
  8
1PHANTOM
100
AcDbLine
 10
629.784887779283
 20
-681.6572284048411
 30
0.0
 11
629.4848877792821
 21
-681.6572284048411
 31
0.0
  0
LINE
  5
216C4
330
18
100
AcDbEntity
  8
1PHANTOM
100
AcDbLine
 10
629.4848877792821
 20
-681.6572284048411
 30
0.0
 11
629.4848691649229
 21
-673.6572284048411
 31
0.0
  0
LINE
  5
216C5
330
18
100
AcDbEntity
  8
1PHANTOM
100
AcDbLine
 10
629.4848691649229
 20
-673.6572284048411
 30
0.0
 11
629.784869164924
 21
-673.6572284048411
 31
0.0
  0
LINE
  5
216C6
330
18
100
AcDbEntity
  8
1PHANTOM
100
AcDbLine
 10
629.784869164924
 20
-673.6572284048411
 30
0.0
 11
632.28485171359
 21
-676.1571818689432
 31
0.0
  0
LINE
  5
216C7
330
18
100
AcDbEntity
  8
1PHANTOM
100
AcDbLine
 10
659.1848749816947
 20
-676.1571818689432
 30
0.0
 11
664.4848784719401
 21
-677.6571818689432
 31
0.0
  0
LINE
  5
216C8
330
18
100
AcDbEntity
  8
1PHANTOM
100
AcDbLine
 10
664.4848784719401
 20
-677.6571818689432
 30
0.0
 11
659.184881962079
 21
-679.1571818689432
 31
0.0
  0
LINE
  5
216C9
330
18
100
AcDbEntity
  8
1CENTER
100
AcDbLine
 10
665.9393746627405
 20
-677.6572284048411
 30
0.0
 11
628.1062416153658
 21
-677.6572284048411
 31
0.0
  0
LINE
  5
216CA
330
18
100
AcDbEntity
  8
1PHANTOM
100
AcDbLine
 10
649.3848831254767
 20
-679.6571818689432
 30
0.0
 11
650.1848738182993
 21
-675.6571818689432
 31
0.0
  0
LINE
  5
216CB
330
18
100
AcDbEntity
  8
1PHANTOM
100
AcDbLine
 10
650.1848738182993
 20
-675.6571818689432
 30
0.0
 11
650.2848749816965
 21
-676.1571818689432
 31
0.0
  0
LINE
  5
216CC
330
18
100
AcDbEntity
  8
1PHANTOM
100
AcDbLine
 10
660.6721125595164
 20
-678.7362672717345
 30
0.0
 11
660.7848820718665
 21
-679.2043657268845
 31
0.0
  0
LINE
  5
216CD
330
18
100
AcDbEntity
  8
1PHANTOM
100
AcDbLine
 10
663.1848764523132
 20
-676.7892171299608
 30
0.0
 11
663.4966463085653
 21
-677.3774937050032
 31
0.0
  0
LINE
  5
216CE
330
18
100
AcDbEntity
  8
1PHANTOM
100
AcDbLine
 10
662.2334452218219
 20
-678.2943803782051
 30
0.0
 11
662.3848810182623
 21
-678.7515522188362
 31
0.0
  0
LINE
  5
216CF
330
18
100
AcDbEntity
  8
1PHANTOM
100
AcDbLine
 10
661.5848753987076
 20
-676.336403025554
 30
0.0
 11
661.7676395413356
 21
-676.8881524893573
 31
0.0
  0
LINE
  5
216D0
330
18
100
AcDbEntity
  8
1PHANTOM
100
AcDbLine
 10
662.3848810182623
 20
-678.7515522188362
 30
0.0
 11
663.1848764523132
 21
-676.7892171299608
 31
0.0
  0
LINE
  5
216D1
330
18
100
AcDbEntity
  8
1PHANTOM
100
AcDbLine
 10
660.7848820718665
 20
-679.2043657268845
 30
0.0
 11
661.5848753987076
 21
-676.336403025554
 31
0.0
  0
LINE
  5
216D2
330
18
100
AcDbEntity
  8
1PHANTOM
100
AcDbLine
 10
650.9848831254767
 20
-679.6571818689432
 30
0.0
 11
651.7848738182993
 21
-675.6571818689432
 31
0.0
  0
LINE
  5
216D3
330
18
100
AcDbEntity
  8
1PHANTOM
100
AcDbLine
 10
652.5848831254767
 20
-679.6571818689432
 30
0.0
 11
653.3848738182993
 21
-675.6571818689432
 31
0.0
  0
LINE
  5
216D4
330
18
100
AcDbEntity
  8
1PHANTOM
100
AcDbLine
 10
652.4848819620796
 20
-679.1571818689432
 30
0.0
 11
652.5848831254767
 21
-679.6571818689432
 31
0.0
  0
LINE
  5
216D5
330
18
100
AcDbEntity
  8
1PHANTOM
100
AcDbLine
 10
653.3848738182993
 20
-675.6571818689432
 30
0.0
 11
653.4848749816964
 21
-676.1571818689432
 31
0.0
  0
LINE
  5
216D6
330
18
100
AcDbEntity
  8
1PHANTOM
100
AcDbLine
 10
651.7848738182993
 20
-675.6571818689432
 30
0.0
 11
651.8848749816963
 21
-676.1571818689432
 31
0.0
  0
LINE
  5
216D7
330
18
100
AcDbEntity
  8
1PHANTOM
100
AcDbLine
 10
659.984874345102
 20
-675.8835889211472
 30
0.0
 11
660.1141450427318
 21
-676.4201826564183
 31
0.0
  0
LINE
  5
216D8
330
18
100
AcDbEntity
  8
1PHANTOM
100
AcDbLine
 10
659.1848831254766
 20
-679.6571818689432
 30
0.0
 11
659.984874345102
 21
-675.8835889211472
 31
0.0
  0
LINE
  5
216D9
330
18
100
AcDbEntity
  8
1PHANTOM
100
AcDbLine
 10
659.0848819620795
 20
-679.1571818689432
 30
0.0
 11
659.1848831254766
 21
-679.6571818689432
 31
0.0
  0
LINE
  5
216DA
330
18
100
AcDbEntity
  8
1PHANTOM
100
AcDbLine
 10
650.8848819620795
 20
-679.1571818689432
 30
0.0
 11
650.9848831254767
 21
-679.6571818689432
 31
0.0
  0
LINE
  5
216DB
330
18
100
AcDbEntity
  8
1PHANTOM
100
AcDbLine
 10
646.1848831254766
 20
-679.6571818689432
 30
0.0
 11
646.9848738182992
 21
-675.6571818689432
 31
0.0
  0
LINE
  5
216DC
330
18
100
AcDbEntity
  8
1PHANTOM
100
AcDbLine
 10
647.7848831254768
 20
-679.6571818689432
 30
0.0
 11
648.5848738182993
 21
-675.6571818689432
 31
0.0
  0
LINE
  5
216DD
330
18
100
AcDbEntity
  8
1PHANTOM
100
AcDbLine
 10
649.2848819620796
 20
-679.1571818689432
 30
0.0
 11
649.3848831254767
 21
-679.6571818689432
 31
0.0
  0
LINE
  5
216DE
330
18
100
AcDbEntity
  8
1PHANTOM
100
AcDbLine
 10
647.6848819620797
 20
-679.1571818689432
 30
0.0
 11
647.7848831254768
 21
-679.6571818689432
 31
0.0
  0
LINE
  5
216DF
330
18
100
AcDbEntity
  8
1PHANTOM
100
AcDbLine
 10
648.5848738182993
 20
-675.6571818689432
 30
0.0
 11
648.6848749816965
 21
-676.1571818689432
 31
0.0
  0
LINE
  5
216E0
330
18
100
AcDbEntity
  8
1PHANTOM
100
AcDbLine
 10
646.9848738182992
 20
-675.6571818689432
 30
0.0
 11
647.0848749816964
 21
-676.1571818689432
 31
0.0
  0
LINE
  5
216E1
330
18
100
AcDbEntity
  8
1PHANTOM
100
AcDbLine
 10
646.0848819620795
 20
-679.1571818689432
 30
0.0
 11
646.1848831254766
 21
-679.6571818689432
 31
0.0
  0
LINE
  5
216E2
330
18
100
AcDbEntity
  8
1PHANTOM
100
AcDbLine
 10
654.9848738182993
 20
-675.6571818689432
 30
0.0
 11
655.0848749816964
 21
-676.1571818689432
 31
0.0
  0
LINE
  5
216E3
330
18
100
AcDbEntity
  8
1PHANTOM
100
AcDbLine
 10
654.1848831254767
 20
-679.6571818689432
 30
0.0
 11
654.9848738182993
 21
-675.6571818689432
 31
0.0
  0
LINE
  5
216E4
330
18
100
AcDbEntity
  8
1PHANTOM
100
AcDbLine
 10
654.0848819620796
 20
-679.1571818689432
 30
0.0
 11
654.1848831254767
 21
-679.6571818689432
 31
0.0
  0
LINE
  5
216E5
330
18
100
AcDbEntity
  8
1PHANTOM
100
AcDbLine
 10
655.7848831254768
 20
-679.6571818689432
 30
0.0
 11
656.5848738182993
 21
-675.6571818689432
 31
0.0
  0
LINE
  5
216E6
330
18
100
AcDbEntity
  8
1PHANTOM
100
AcDbLine
 10
656.5848738182993
 20
-675.6571818689432
 30
0.0
 11
656.6848749816965
 21
-676.1571818689432
 31
0.0
  0
LINE
  5
216E7
330
18
100
AcDbEntity
  8
1PHANTOM
100
AcDbLine
 10
655.6848819620797
 20
-679.1571818689432
 30
0.0
 11
655.7848831254768
 21
-679.6571818689432
 31
0.0
  0
LINE
  5
216E8
330
18
100
AcDbEntity
  8
1PHANTOM
100
AcDbLine
 10
658.1848738182994
 20
-675.6571818689432
 30
0.0
 11
658.2848749816965
 21
-676.1571818689432
 31
0.0
  0
LINE
  5
216E9
330
18
100
AcDbEntity
  8
1PHANTOM
100
AcDbLine
 10
657.3848831254768
 20
-679.6571818689432
 30
0.0
 11
658.1848738182994
 21
-675.6571818689432
 31
0.0
  0
LINE
  5
216EA
330
18
100
AcDbEntity
  8
1PHANTOM
100
AcDbLine
 10
657.2848819620797
 20
-679.1571818689432
 30
0.0
 11
657.3848831254768
 21
-679.6571818689432
 31
0.0
  0
LINE
  5
216EB
330
18
100
AcDbEntity
  8
1PHANTOM
100
AcDbLine
 10
636.584883125468
 20
-679.6571818689432
 30
0.0
 11
637.3848738182905
 21
-675.6571818689432
 31
0.0
  0
LINE
  5
216EC
330
18
100
AcDbEntity
  8
1PHANTOM
100
AcDbLine
 10
639.7848831254767
 20
-679.6571818689432
 30
0.0
 11
640.5848738182949
 21
-675.6571818689432
 31
0.0
  0
LINE
  5
216ED
330
18
100
AcDbEntity
  8
1PHANTOM
100
AcDbLine
 10
632.5848738182906
 20
-675.6571818689432
 30
0.0
 11
632.6848749816877
 21
-676.1571818689432
 31
0.0
  0
LINE
  5
216EE
330
18
100
AcDbEntity
  8
1PHANTOM
100
AcDbLine
 10
633.2848819620708
 20
-679.1571818689432
 30
0.0
 11
633.3848831254679
 21
-679.6571818689432
 31
0.0
  0
LINE
  5
216EF
330
18
100
AcDbEntity
  8
1PHANTOM
100
AcDbLine
 10
632.184869164808
 20
-677.6572284048411
 30
0.0
 11
632.5848738182906
 21
-675.6571818689432
 31
0.0
  0
LINE
  5
216F0
330
18
100
AcDbEntity
  8
1PHANTOM
100
AcDbLine
 10
634.8848819620707
 20
-679.1571818689432
 30
0.0
 11
634.984883125468
 21
-679.6571818689432
 31
0.0
  0
LINE
  5
216F1
330
18
100
AcDbEntity
  8
1PHANTOM
100
AcDbLine
 10
635.7848738182905
 20
-675.6571818689432
 30
0.0
 11
635.8848749816875
 21
-676.1571818689432
 31
0.0
  0
LINE
  5
216F2
330
18
100
AcDbEntity
  8
1PHANTOM
100
AcDbLine
 10
637.3848738182905
 20
-675.6571818689432
 30
0.0
 11
637.4848749816877
 21
-676.1571818689432
 31
0.0
  0
LINE
  5
216F3
330
18
100
AcDbEntity
  8
1PHANTOM
100
AcDbLine
 10
636.4848819620709
 20
-679.1571818689432
 30
0.0
 11
636.584883125468
 21
-679.6571818689432
 31
0.0
  0
LINE
  5
216F4
330
18
100
AcDbEntity
  8
1PHANTOM
100
AcDbLine
 10
634.984883125468
 20
-679.6571818689432
 30
0.0
 11
635.7848738182905
 21
-675.6571818689432
 31
0.0
  0
LINE
  5
216F5
330
18
100
AcDbEntity
  8
1PHANTOM
100
AcDbLine
 10
634.1848738182905
 20
-675.6571818689432
 30
0.0
 11
634.2848749816877
 21
-676.1571818689432
 31
0.0
  0
LINE
  5
216F6
330
18
100
AcDbEntity
  8
1PHANTOM
100
AcDbLine
 10
633.3848831254679
 20
-679.6571818689432
 30
0.0
 11
634.1848738182905
 21
-675.6571818689432
 31
0.0
  0
LINE
  5
216F7
330
18
100
AcDbEntity
  8
1PHANTOM
100
AcDbLine
 10
638.1848831254723
 20
-679.6571818689432
 30
0.0
 11
638.9848738182906
 21
-675.6571818689432
 31
0.0
  0
LINE
  5
216F8
330
18
100
AcDbEntity
  8
1PHANTOM
100
AcDbLine
 10
642.9848831254767
 20
-679.6571818689432
 30
0.0
 11
643.784873818295
 21
-675.6571818689432
 31
0.0
  0
LINE
  5
216F9
330
18
100
AcDbEntity
  8
1PHANTOM
100
AcDbLine
 10
644.5848831254767
 20
-679.6571818689432
 30
0.0
 11
645.3848738182993
 21
-675.6571818689432
 31
0.0
  0
LINE
  5
216FA
330
18
100
AcDbEntity
  8
1PHANTOM
100
AcDbLine
 10
644.4848819620789
 20
-679.1571818689432
 30
0.0
 11
644.5848831254767
 21
-679.6571818689432
 31
0.0
  0
LINE
  5
216FB
330
18
100
AcDbEntity
  8
1PHANTOM
100
AcDbLine
 10
643.784873818295
 20
-675.6571818689432
 30
0.0
 11
643.8848749816926
 21
-676.1571818689432
 31
0.0
  0
LINE
  5
216FC
330
18
100
AcDbEntity
  8
1PHANTOM
100
AcDbLine
 10
645.3848738182993
 20
-675.6571818689432
 30
0.0
 11
645.4848749816964
 21
-676.1571818689432
 31
0.0
  0
LINE
  5
216FD
330
18
100
AcDbEntity
  8
1PHANTOM
100
AcDbLine
 10
640.5848738182949
 20
-675.6571818689432
 30
0.0
 11
640.6848749816926
 21
-676.1571818689432
 31
0.0
  0
LINE
  5
216FE
330
18
100
AcDbEntity
  8
1PHANTOM
100
AcDbLine
 10
641.2848819620789
 20
-679.1571818689432
 30
0.0
 11
641.3848831254766
 21
-679.6571818689432
 31
0.0
  0
LINE
  5
216FF
330
18
100
AcDbEntity
  8
1PHANTOM
100
AcDbLine
 10
642.1848738182948
 20
-675.6571818689432
 30
0.0
 11
642.2848749816925
 21
-676.1571818689432
 31
0.0
  0
LINE
  5
21700
330
18
100
AcDbEntity
  8
1PHANTOM
100
AcDbLine
 10
641.3848831254766
 20
-679.6571818689432
 30
0.0
 11
642.1848738182948
 21
-675.6571818689432
 31
0.0
  0
LINE
  5
21701
330
18
100
AcDbEntity
  8
1PHANTOM
100
AcDbLine
 10
642.884881962079
 20
-679.1571818689432
 30
0.0
 11
642.9848831254767
 21
-679.6571818689432
 31
0.0
  0
LINE
  5
21702
330
18
100
AcDbEntity
  8
1PHANTOM
100
AcDbLine
 10
638.9848738182906
 20
-675.6571818689432
 30
0.0
 11
639.0848749816882
 21
-676.1571818689432
 31
0.0
  0
LINE
  5
21703
330
18
100
AcDbEntity
  8
1PHANTOM
100
AcDbLine
 10
639.684881962079
 20
-679.1571818689432
 30
0.0
 11
639.7848831254767
 21
-679.6571818689432
 31
0.0
  0
LINE
  5
21704
330
18
100
AcDbEntity
  8
1PHANTOM
100
AcDbLine
 10
638.0848819620746
 20
-679.1571818689432
 30
0.0
 11
638.1848831254723
 21
-679.6571818689432
 31
0.0
  0
LINE
  5
21705
330
18
100
AcDbEntity
  8
1PHANTOM
100
AcDbLine
 10
629.784887779283
 20
-681.6572284048411
 30
0.0
 11
629.784869164924
 21
-673.6572284048411
 31
0.0
  0
LINE
  5
21706
330
18
100
AcDbEntity
  8
1PHANTOM
100
AcDbLine
 10
632.28485171359
 20
-676.1571818689432
 30
0.0
 11
659.1848749816947
 21
-676.1571818689432
 31
0.0
  0
LINE
  5
21791
330
18
100
AcDbEntity
  8
1PHANTOM
100
AcDbLine
 10
632.5362416153649
 20
-670.3939232924002
 30
0.0
 11
630.8603981133562
 21
-664.13959019737
 31
0.0
  0
LINE
  5
21835
330
18
100
AcDbEntity
  8
1PHANTOM
 48
0.5
100
AcDbLine
 10
610.5362416153645
 20
-708.6572282875751
 30
0.0
 11
632.5362416153645
 21
-708.6572282875751
 31
0.0
  0
LINE
  5
21838
330
18
100
AcDbEntity
  8
1PHANTOM
 48
0.5
100
AcDbLine
 10
625.5362416153645
 20
-705.6572282875751
 30
0.0
 11
610.5362416153645
 21
-705.6572282875751
 31
0.0
  0
LINE
  5
21839
330
18
100
AcDbEntity
  8
1PHANTOM
 48
0.5
100
AcDbLine
 10
628.5362416153645
 20
-691.6572282875751
 30
0.0
 11
628.5362416153645
 21
-691.6572282875751
 31
0.0
  0
ARC
  5
2183A
330
18
100
AcDbEntity
  8
1PHANTOM
 48
0.5
100
AcDbCircle
 10
628.5362416153645
 20
-690.6572282875751
 30
0.0
 40
1.0
100
AcDbArc
 50
270.0
 51
0.0
  0
LINE
  5
2183B
330
18
100
AcDbEntity
  8
1PHANTOM
 48
0.5
100
AcDbLine
 10
628.5362416153645
 20
-683.6572282875751
 30
0.0
 11
628.5362416153645
 21
-683.6572282875751
 31
0.0
  0
LINE
  5
2183E
330
18
100
AcDbEntity
  8
1PHANTOM
 48
0.5
100
AcDbLine
 10
629.5362416153645
 20
-690.6572282875751
 30
0.0
 11
629.5362416153645
 21
-684.6572282875751
 31
0.0
  0
ARC
  5
2183F
330
18
100
AcDbEntity
  8
1PHANTOM
 48
0.5
100
AcDbCircle
 10
628.5362416153645
 20
-684.6572282875751
 30
0.0
 40
1.0
100
AcDbArc
 50
0.0
 51
90.0
  0
LINE
  5
21840
330
18
100
AcDbEntity
  8
1PHANTOM
 48
0.5
100
AcDbLine
 10
628.5362416153645
 20
-702.6572282875751
 30
0.0
 11
628.5362416153645
 21
-691.6572282875751
 31
0.0
  0
LINE
  5
21841
330
18
100
AcDbEntity
  8
1PHANTOM
 48
0.5
100
AcDbLine
 10
628.5362416153645
 20
-683.6572282875751
 30
0.0
 11
628.5362416153645
 21
-671.6572282875751
 31
0.0
  0
LINE
  5
21842
330
18
100
AcDbEntity
  8
1PHANTOM
 48
0.5
100
AcDbLine
 10
610.5362416153645
 20
-705.6572282875751
 30
0.0
 11
610.5362416153645
 21
-708.6572282875751
 31
0.0
  0
ARC
  5
21843
330
18
100
AcDbEntity
  8
1PHANTOM
 48
0.5
100
AcDbCircle
 10
625.5362416153636
 20
-702.6572282875746
 30
0.0
 40
3.0
100
AcDbArc
 50
270.0000000000173
 51
0.000000000008685
  0
LINE
  5
21844
330
18
100
AcDbEntity
  8
1PHANTOM
 48
0.5
100
AcDbLine
 10
628.928546460778
 20
-664.6572282875753
 30
0.0
 11
629.9638226411881
 21
-668.5209315927308
 31
0.0
  0
LINE
  5
21846
330
18
100
AcDbEntity
  8
1PHANTOM
 48
0.5
100
AcDbLine
 10
628.928546460778
 20
-664.6572282875751
 30
0.0
 11
630.8603981133562
 21
-664.13959019737
 31
0.0
  0
LINE
  5
21847
330
18
100
AcDbEntity
  8
1PHANTOM
 48
0.5
100
AcDbLine
 10
628.5362416153645
 20
-671.6572282875751
 30
0.0
 11
629.9638226411881
 21
-668.5209315927308
 31
0.0
  0
LINE
  5
2187C
330
18
100
AcDbEntity
  8
1PHANTOM
100
AcDbLine
 10
659.184881962079
 20
-699.1571818689432
 30
0.0
 11
632.2849168639552
 21
-699.1571818689432
 31
0.0
  0
LINE
  5
2187D
330
18
100
AcDbEntity
  8
1PHANTOM
100
AcDbLine
 10
632.2849168639552
 20
-699.1571818689432
 30
0.0
 11
629.784887779283
 21
-701.6572284048411
 31
0.0
  0
LINE
  5
2187E
330
18
100
AcDbEntity
  8
1PHANTOM
100
AcDbLine
 10
629.784887779283
 20
-701.6572284048411
 30
0.0
 11
629.4848877792821
 21
-701.6572284048411
 31
0.0
  0
LINE
  5
2187F
330
18
100
AcDbEntity
  8
1PHANTOM
100
AcDbLine
 10
629.4848877792821
 20
-701.6572284048411
 30
0.0
 11
629.4848691649229
 21
-693.6572284048411
 31
0.0
  0
LINE
  5
21880
330
18
100
AcDbEntity
  8
1PHANTOM
100
AcDbLine
 10
629.4848691649229
 20
-693.6572284048411
 30
0.0
 11
629.784869164924
 21
-693.6572284048411
 31
0.0
  0
LINE
  5
21881
330
18
100
AcDbEntity
  8
1PHANTOM
100
AcDbLine
 10
629.784869164924
 20
-693.6572284048411
 30
0.0
 11
632.28485171359
 21
-696.1571818689432
 31
0.0
  0
LINE
  5
21882
330
18
100
AcDbEntity
  8
1PHANTOM
100
AcDbLine
 10
659.1848749816947
 20
-696.1571818689432
 30
0.0
 11
664.4848784719401
 21
-697.6571818689432
 31
0.0
  0
LINE
  5
21883
330
18
100
AcDbEntity
  8
1PHANTOM
100
AcDbLine
 10
664.4848784719401
 20
-697.6571818689432
 30
0.0
 11
659.184881962079
 21
-699.1571818689432
 31
0.0
  0
LINE
  5
21884
330
18
100
AcDbEntity
  8
1CENTER
100
AcDbLine
 10
665.9393746627405
 20
-697.6572284048411
 30
0.0
 11
628.1062416153658
 21
-697.6572284048411
 31
0.0
  0
LINE
  5
21885
330
18
100
AcDbEntity
  8
1PHANTOM
100
AcDbLine
 10
649.3848831254767
 20
-699.6571818689432
 30
0.0
 11
650.1848738182993
 21
-695.6571818689432
 31
0.0
  0
LINE
  5
21886
330
18
100
AcDbEntity
  8
1PHANTOM
100
AcDbLine
 10
650.1848738182993
 20
-695.6571818689432
 30
0.0
 11
650.2848749816965
 21
-696.1571818689432
 31
0.0
  0
LINE
  5
21887
330
18
100
AcDbEntity
  8
1PHANTOM
100
AcDbLine
 10
660.6721125595164
 20
-698.7362672717345
 30
0.0
 11
660.7848820718665
 21
-699.2043657268845
 31
0.0
  0
LINE
  5
21888
330
18
100
AcDbEntity
  8
1PHANTOM
100
AcDbLine
 10
663.1848764523132
 20
-696.7892171299608
 30
0.0
 11
663.4966463085653
 21
-697.3774937050032
 31
0.0
  0
LINE
  5
21889
330
18
100
AcDbEntity
  8
1PHANTOM
100
AcDbLine
 10
662.2334452218219
 20
-698.2943803782051
 30
0.0
 11
662.3848810182623
 21
-698.7515522188362
 31
0.0
  0
LINE
  5
2188A
330
18
100
AcDbEntity
  8
1PHANTOM
100
AcDbLine
 10
661.5848753987076
 20
-696.336403025554
 30
0.0
 11
661.7676395413356
 21
-696.8881524893573
 31
0.0
  0
LINE
  5
2188B
330
18
100
AcDbEntity
  8
1PHANTOM
100
AcDbLine
 10
662.3848810182623
 20
-698.7515522188362
 30
0.0
 11
663.1848764523132
 21
-696.7892171299608
 31
0.0
  0
LINE
  5
2188C
330
18
100
AcDbEntity
  8
1PHANTOM
100
AcDbLine
 10
660.7848820718665
 20
-699.2043657268845
 30
0.0
 11
661.5848753987076
 21
-696.336403025554
 31
0.0
  0
LINE
  5
2188D
330
18
100
AcDbEntity
  8
1PHANTOM
100
AcDbLine
 10
650.9848831254767
 20
-699.6571818689432
 30
0.0
 11
651.7848738182993
 21
-695.6571818689432
 31
0.0
  0
LINE
  5
2188E
330
18
100
AcDbEntity
  8
1PHANTOM
100
AcDbLine
 10
652.5848831254767
 20
-699.6571818689432
 30
0.0
 11
653.3848738182993
 21
-695.6571818689432
 31
0.0
  0
LINE
  5
2188F
330
18
100
AcDbEntity
  8
1PHANTOM
100
AcDbLine
 10
652.4848819620796
 20
-699.1571818689432
 30
0.0
 11
652.5848831254767
 21
-699.6571818689432
 31
0.0
  0
LINE
  5
21890
330
18
100
AcDbEntity
  8
1PHANTOM
100
AcDbLine
 10
653.3848738182993
 20
-695.6571818689432
 30
0.0
 11
653.4848749816964
 21
-696.1571818689432
 31
0.0
  0
LINE
  5
21891
330
18
100
AcDbEntity
  8
1PHANTOM
100
AcDbLine
 10
651.7848738182993
 20
-695.6571818689432
 30
0.0
 11
651.8848749816963
 21
-696.1571818689432
 31
0.0
  0
LINE
  5
21892
330
18
100
AcDbEntity
  8
1PHANTOM
100
AcDbLine
 10
659.984874345102
 20
-695.8835889211472
 30
0.0
 11
660.1141450427318
 21
-696.4201826564183
 31
0.0
  0
LINE
  5
21893
330
18
100
AcDbEntity
  8
1PHANTOM
100
AcDbLine
 10
659.1848831254766
 20
-699.6571818689432
 30
0.0
 11
659.984874345102
 21
-695.8835889211472
 31
0.0
  0
LINE
  5
21894
330
18
100
AcDbEntity
  8
1PHANTOM
100
AcDbLine
 10
659.0848819620795
 20
-699.1571818689432
 30
0.0
 11
659.1848831254766
 21
-699.6571818689432
 31
0.0
  0
LINE
  5
21895
330
18
100
AcDbEntity
  8
1PHANTOM
100
AcDbLine
 10
650.8848819620795
 20
-699.1571818689432
 30
0.0
 11
650.9848831254767
 21
-699.6571818689432
 31
0.0
  0
LINE
  5
21896
330
18
100
AcDbEntity
  8
1PHANTOM
100
AcDbLine
 10
646.1848831254766
 20
-699.6571818689432
 30
0.0
 11
646.9848738182992
 21
-695.6571818689432
 31
0.0
  0
LINE
  5
21897
330
18
100
AcDbEntity
  8
1PHANTOM
100
AcDbLine
 10
647.7848831254768
 20
-699.6571818689432
 30
0.0
 11
648.5848738182993
 21
-695.6571818689432
 31
0.0
  0
LINE
  5
21898
330
18
100
AcDbEntity
  8
1PHANTOM
100
AcDbLine
 10
649.2848819620796
 20
-699.1571818689432
 30
0.0
 11
649.3848831254767
 21
-699.6571818689432
 31
0.0
  0
LINE
  5
21899
330
18
100
AcDbEntity
  8
1PHANTOM
100
AcDbLine
 10
647.6848819620797
 20
-699.1571818689432
 30
0.0
 11
647.7848831254768
 21
-699.6571818689432
 31
0.0
  0
LINE
  5
2189A
330
18
100
AcDbEntity
  8
1PHANTOM
100
AcDbLine
 10
648.5848738182993
 20
-695.6571818689432
 30
0.0
 11
648.6848749816965
 21
-696.1571818689432
 31
0.0
  0
LINE
  5
2189B
330
18
100
AcDbEntity
  8
1PHANTOM
100
AcDbLine
 10
646.9848738182992
 20
-695.6571818689432
 30
0.0
 11
647.0848749816964
 21
-696.1571818689432
 31
0.0
  0
LINE
  5
2189C
330
18
100
AcDbEntity
  8
1PHANTOM
100
AcDbLine
 10
646.0848819620795
 20
-699.1571818689432
 30
0.0
 11
646.1848831254766
 21
-699.6571818689432
 31
0.0
  0
LINE
  5
2189D
330
18
100
AcDbEntity
  8
1PHANTOM
100
AcDbLine
 10
654.9848738182993
 20
-695.6571818689432
 30
0.0
 11
655.0848749816964
 21
-696.1571818689432
 31
0.0
  0
LINE
  5
2189E
330
18
100
AcDbEntity
  8
1PHANTOM
100
AcDbLine
 10
654.1848831254767
 20
-699.6571818689432
 30
0.0
 11
654.9848738182993
 21
-695.6571818689432
 31
0.0
  0
LINE
  5
2189F
330
18
100
AcDbEntity
  8
1PHANTOM
100
AcDbLine
 10
654.0848819620796
 20
-699.1571818689432
 30
0.0
 11
654.1848831254767
 21
-699.6571818689432
 31
0.0
  0
LINE
  5
218A0
330
18
100
AcDbEntity
  8
1PHANTOM
100
AcDbLine
 10
655.7848831254768
 20
-699.6571818689432
 30
0.0
 11
656.5848738182993
 21
-695.6571818689432
 31
0.0
  0
LINE
  5
218A1
330
18
100
AcDbEntity
  8
1PHANTOM
100
AcDbLine
 10
656.5848738182993
 20
-695.6571818689432
 30
0.0
 11
656.6848749816965
 21
-696.1571818689432
 31
0.0
  0
LINE
  5
218A2
330
18
100
AcDbEntity
  8
1PHANTOM
100
AcDbLine
 10
655.6848819620797
 20
-699.1571818689432
 30
0.0
 11
655.7848831254768
 21
-699.6571818689432
 31
0.0
  0
LINE
  5
218A3
330
18
100
AcDbEntity
  8
1PHANTOM
100
AcDbLine
 10
658.1848738182994
 20
-695.6571818689432
 30
0.0
 11
658.2848749816965
 21
-696.1571818689432
 31
0.0
  0
LINE
  5
218A4
330
18
100
AcDbEntity
  8
1PHANTOM
100
AcDbLine
 10
657.3848831254768
 20
-699.6571818689432
 30
0.0
 11
658.1848738182994
 21
-695.6571818689432
 31
0.0
  0
LINE
  5
218A5
330
18
100
AcDbEntity
  8
1PHANTOM
100
AcDbLine
 10
657.2848819620797
 20
-699.1571818689432
 30
0.0
 11
657.3848831254768
 21
-699.6571818689432
 31
0.0
  0
LINE
  5
218A6
330
18
100
AcDbEntity
  8
1PHANTOM
100
AcDbLine
 10
636.584883125468
 20
-699.6571818689432
 30
0.0
 11
637.3848738182905
 21
-695.6571818689432
 31
0.0
  0
LINE
  5
218A7
330
18
100
AcDbEntity
  8
1PHANTOM
100
AcDbLine
 10
639.7848831254767
 20
-699.6571818689432
 30
0.0
 11
640.5848738182949
 21
-695.6571818689432
 31
0.0
  0
LINE
  5
218A8
330
18
100
AcDbEntity
  8
1PHANTOM
100
AcDbLine
 10
632.5848738182906
 20
-695.6571818689432
 30
0.0
 11
632.6848749816877
 21
-696.1571818689432
 31
0.0
  0
LINE
  5
218A9
330
18
100
AcDbEntity
  8
1PHANTOM
100
AcDbLine
 10
633.2848819620708
 20
-699.1571818689432
 30
0.0
 11
633.3848831254679
 21
-699.6571818689432
 31
0.0
  0
LINE
  5
218AA
330
18
100
AcDbEntity
  8
1PHANTOM
100
AcDbLine
 10
632.184869164808
 20
-697.6572284048411
 30
0.0
 11
632.5848738182906
 21
-695.6571818689432
 31
0.0
  0
LINE
  5
218AB
330
18
100
AcDbEntity
  8
1PHANTOM
100
AcDbLine
 10
634.8848819620707
 20
-699.1571818689432
 30
0.0
 11
634.984883125468
 21
-699.6571818689432
 31
0.0
  0
LINE
  5
218AC
330
18
100
AcDbEntity
  8
1PHANTOM
100
AcDbLine
 10
635.7848738182905
 20
-695.6571818689432
 30
0.0
 11
635.8848749816875
 21
-696.1571818689432
 31
0.0
  0
LINE
  5
218AD
330
18
100
AcDbEntity
  8
1PHANTOM
100
AcDbLine
 10
637.3848738182905
 20
-695.6571818689432
 30
0.0
 11
637.4848749816877
 21
-696.1571818689432
 31
0.0
  0
LINE
  5
218AE
330
18
100
AcDbEntity
  8
1PHANTOM
100
AcDbLine
 10
636.4848819620709
 20
-699.1571818689432
 30
0.0
 11
636.584883125468
 21
-699.6571818689432
 31
0.0
  0
LINE
  5
218AF
330
18
100
AcDbEntity
  8
1PHANTOM
100
AcDbLine
 10
634.984883125468
 20
-699.6571818689432
 30
0.0
 11
635.7848738182905
 21
-695.6571818689432
 31
0.0
  0
LINE
  5
218B0
330
18
100
AcDbEntity
  8
1PHANTOM
100
AcDbLine
 10
634.1848738182905
 20
-695.6571818689432
 30
0.0
 11
634.2848749816877
 21
-696.1571818689432
 31
0.0
  0
LINE
  5
218B1
330
18
100
AcDbEntity
  8
1PHANTOM
100
AcDbLine
 10
633.3848831254679
 20
-699.6571818689432
 30
0.0
 11
634.1848738182905
 21
-695.6571818689432
 31
0.0
  0
LINE
  5
218B2
330
18
100
AcDbEntity
  8
1PHANTOM
100
AcDbLine
 10
638.1848831254723
 20
-699.6571818689432
 30
0.0
 11
638.9848738182906
 21
-695.6571818689432
 31
0.0
  0
LINE
  5
218B3
330
18
100
AcDbEntity
  8
1PHANTOM
100
AcDbLine
 10
642.9848831254767
 20
-699.6571818689432
 30
0.0
 11
643.784873818295
 21
-695.6571818689432
 31
0.0
  0
LINE
  5
218B4
330
18
100
AcDbEntity
  8
1PHANTOM
100
AcDbLine
 10
644.5848831254767
 20
-699.6571818689432
 30
0.0
 11
645.3848738182993
 21
-695.6571818689432
 31
0.0
  0
LINE
  5
218B5
330
18
100
AcDbEntity
  8
1PHANTOM
100
AcDbLine
 10
644.4848819620789
 20
-699.1571818689432
 30
0.0
 11
644.5848831254767
 21
-699.6571818689432
 31
0.0
  0
LINE
  5
218B6
330
18
100
AcDbEntity
  8
1PHANTOM
100
AcDbLine
 10
643.784873818295
 20
-695.6571818689432
 30
0.0
 11
643.8848749816926
 21
-696.1571818689432
 31
0.0
  0
LINE
  5
218B7
330
18
100
AcDbEntity
  8
1PHANTOM
100
AcDbLine
 10
645.3848738182993
 20
-695.6571818689432
 30
0.0
 11
645.4848749816964
 21
-696.1571818689432
 31
0.0
  0
LINE
  5
218B8
330
18
100
AcDbEntity
  8
1PHANTOM
100
AcDbLine
 10
640.5848738182949
 20
-695.6571818689432
 30
0.0
 11
640.6848749816926
 21
-696.1571818689432
 31
0.0
  0
LINE
  5
218B9
330
18
100
AcDbEntity
  8
1PHANTOM
100
AcDbLine
 10
641.2848819620789
 20
-699.1571818689432
 30
0.0
 11
641.3848831254766
 21
-699.6571818689432
 31
0.0
  0
LINE
  5
218BA
330
18
100
AcDbEntity
  8
1PHANTOM
100
AcDbLine
 10
642.1848738182948
 20
-695.6571818689432
 30
0.0
 11
642.2848749816925
 21
-696.1571818689432
 31
0.0
  0
LINE
  5
218BB
330
18
100
AcDbEntity
  8
1PHANTOM
100
AcDbLine
 10
641.3848831254766
 20
-699.6571818689432
 30
0.0
 11
642.1848738182948
 21
-695.6571818689432
 31
0.0
  0
LINE
  5
218BC
330
18
100
AcDbEntity
  8
1PHANTOM
100
AcDbLine
 10
642.884881962079
 20
-699.1571818689432
 30
0.0
 11
642.9848831254767
 21
-699.6571818689432
 31
0.0
  0
LINE
  5
218BD
330
18
100
AcDbEntity
  8
1PHANTOM
100
AcDbLine
 10
638.9848738182906
 20
-695.6571818689432
 30
0.0
 11
639.0848749816882
 21
-696.1571818689432
 31
0.0
  0
LINE
  5
218BE
330
18
100
AcDbEntity
  8
1PHANTOM
100
AcDbLine
 10
639.684881962079
 20
-699.1571818689432
 30
0.0
 11
639.7848831254767
 21
-699.6571818689432
 31
0.0
  0
LINE
  5
218BF
330
18
100
AcDbEntity
  8
1PHANTOM
100
AcDbLine
 10
638.0848819620746
 20
-699.1571818689432
 30
0.0
 11
638.1848831254723
 21
-699.6571818689432
 31
0.0
  0
LINE
  5
218C0
330
18
100
AcDbEntity
  8
1PHANTOM
100
AcDbLine
 10
629.784887779283
 20
-701.6572284048411
 30
0.0
 11
629.784869164924
 21
-693.6572284048411
 31
0.0
  0
LINE
  5
218C1
330
18
100
AcDbEntity
  8
1PHANTOM
100
AcDbLine
 10
632.28485171359
 20
-696.1571818689432
 30
0.0
 11
659.1848749816947
 21
-696.1571818689432
 31
0.0
  0
LINE
  5
21900
330
18
100
AcDbEntity
  8
01
100
AcDbLine
 10
515.5238024433776
 20
-585.1613303512664
 30
0.0
 11
535.5238019963427
 21
-585.1613303512664
 31
0.0
  0
LINE
  5
21901
330
18
100
AcDbEntity
  8
01
100
AcDbLine
 10
516.0237084617539
 20
-594.3613305554123
 30
0.0
 11
535.0238959779664
 21
-594.3613305554123
 31
0.0
  0
LINE
  5
21902
330
18
100
AcDbEntity
  8
01
100
AcDbLine
 10
515.7237393013104
 20
-596.3613306743695
 30
0.0
 11
535.32386513841
 21
-596.3613306743692
 31
0.0
  0
LINE
  5
21903
330
18
100
AcDbEntity
  8
01
100
AcDbLine
 10
516.0237086361027
 20
-611.961330351327
 30
0.0
 11
535.0238958036716
 21
-611.9613303512731
 31
0.0
  0
LINE
  5
21904
330
18
100
AcDbEntity
  8
01
100
AcDbLine
 10
515.723739282497
 20
-609.961330231165
 30
0.0
 11
535.3238651572342
 21
-609.9613302311111
 31
0.0
  0
LINE
  5
21981
330
18
100
AcDbEntity
  8
1PHANTOM
100
AcDbLine
 10
527.0237556839622
 20
-558.5126900045532
 30
0.0
 11
527.0237556839622
 21
-585.4126551026769
 31
0.0
  0
LINE
  5
21982
330
18
100
AcDbEntity
  8
1PHANTOM
100
AcDbLine
 10
527.0237556839622
 20
-585.4126551026769
 30
0.0
 11
529.5238022198602
 21
-587.9126841873491
 31
0.0
  0
LINE
  5
21983
330
18
100
AcDbEntity
  8
01
100
AcDbLine
 10
529.5238022198602
 20
-587.9126841873491
 30
0.0
 11
529.5238022198602
 21
-588.2126841873501
 31
0.0
  0
LINE
  5
21984
330
18
100
AcDbEntity
  8
1PHANTOM
100
AcDbLine
 10
529.5238022198602
 20
-588.2126841873501
 30
0.0
 11
521.5238022198602
 21
-588.2127028017093
 31
0.0
  0
LINE
  5
21985
330
18
100
AcDbEntity
  8
1PHANTOM
100
AcDbLine
 10
521.5238022198602
 20
-588.2127028017093
 30
0.0
 11
521.5238022198602
 21
-587.9127028017082
 31
0.0
  0
LINE
  5
21986
330
18
100
AcDbEntity
  8
1PHANTOM
100
AcDbLine
 10
521.5238022198602
 20
-587.9127028017082
 30
0.0
 11
524.0237556839622
 21
-585.4127202530422
 31
0.0
  0
LINE
  5
21987
330
18
100
AcDbEntity
  8
1PHANTOM
100
AcDbLine
 10
524.0237556839622
 20
-558.5126969849374
 30
0.0
 11
525.5237556839622
 21
-553.2126934946921
 31
0.0
  0
LINE
  5
21988
330
18
100
AcDbEntity
  8
1PHANTOM
100
AcDbLine
 10
525.5237556839622
 20
-553.2126934946921
 30
0.0
 11
527.0237556839622
 21
-558.5126900045532
 31
0.0
  0
LINE
  5
21989
330
18
100
AcDbEntity
  8
1CENTER
100
AcDbLine
 10
525.5238022198602
 20
-551.7581973038916
 30
0.0
 11
525.5238022198602
 21
-589.5913303512664
 31
0.0
  0
LINE
  5
2198A
330
18
100
AcDbEntity
  8
1PHANTOM
100
AcDbLine
 10
527.5237556839622
 20
-568.3126888411555
 30
0.0
 11
523.5237556839622
 21
-567.5126981483329
 31
0.0
  0
LINE
  5
2198B
330
18
100
AcDbEntity
  8
1PHANTOM
100
AcDbLine
 10
523.5237556839622
 20
-567.5126981483329
 30
0.0
 11
524.0237556839622
 21
-567.4126969849357
 31
0.0
  0
LINE
  5
2198C
330
18
100
AcDbEntity
  8
1PHANTOM
100
AcDbLine
 10
526.6028410867535
 20
-557.0254594071157
 30
0.0
 11
527.0709395419035
 21
-556.9126898947657
 31
0.0
  0
LINE
  5
2198D
330
18
100
AcDbEntity
  8
1PHANTOM
100
AcDbLine
 10
524.6557909449798
 20
-554.5126955143189
 30
0.0
 11
525.2440675200222
 21
-554.2009256580668
 31
0.0
  0
LINE
  5
2198E
330
18
100
AcDbEntity
  8
1PHANTOM
100
AcDbLine
 10
526.1609541932241
 20
-555.4641267448103
 30
0.0
 11
526.6181260338552
 21
-555.3126909483699
 31
0.0
  0
LINE
  5
2198F
330
18
100
AcDbEntity
  8
1PHANTOM
100
AcDbLine
 10
524.202976840573
 20
-556.1126965679246
 30
0.0
 11
524.7547263043763
 21
-555.9299324252966
 31
0.0
  0
LINE
  5
21990
330
18
100
AcDbEntity
  8
1PHANTOM
100
AcDbLine
 10
526.6181260338552
 20
-555.3126909483699
 30
0.0
 11
524.6557909449798
 21
-554.5126955143189
 31
0.0
  0
LINE
  5
21991
330
18
100
AcDbEntity
  8
1PHANTOM
100
AcDbLine
 10
527.0709395419035
 20
-556.9126898947657
 30
0.0
 11
524.202976840573
 21
-556.1126965679246
 31
0.0
  0
LINE
  5
21992
330
18
100
AcDbEntity
  8
1PHANTOM
100
AcDbLine
 10
527.5237556839622
 20
-566.7126888411555
 30
0.0
 11
523.5237556839622
 21
-565.9126981483329
 31
0.0
  0
LINE
  5
21993
330
18
100
AcDbEntity
  8
1PHANTOM
100
AcDbLine
 10
527.5237556839622
 20
-565.1126888411554
 30
0.0
 11
523.5237556839622
 21
-564.3126981483329
 31
0.0
  0
LINE
  5
21994
330
18
100
AcDbEntity
  8
1PHANTOM
100
AcDbLine
 10
527.0237556839622
 20
-565.2126900045525
 30
0.0
 11
527.5237556839622
 21
-565.1126888411554
 31
0.0
  0
LINE
  5
21995
330
18
100
AcDbEntity
  8
1PHANTOM
100
AcDbLine
 10
523.5237556839622
 20
-564.3126981483329
 30
0.0
 11
524.0237556839622
 21
-564.2126969849357
 31
0.0
  0
LINE
  5
21996
330
18
100
AcDbEntity
  8
1PHANTOM
100
AcDbLine
 10
523.5237556839622
 20
-565.9126981483329
 30
0.0
 11
524.0237556839622
 21
-565.8126969849359
 31
0.0
  0
LINE
  5
21997
330
18
100
AcDbEntity
  8
1PHANTOM
100
AcDbLine
 10
523.7501627361662
 20
-557.7126976215302
 30
0.0
 11
524.2867564714373
 21
-557.5834269239003
 31
0.0
  0
LINE
  5
21998
330
18
100
AcDbEntity
  8
1PHANTOM
100
AcDbLine
 10
527.5237556839622
 20
-558.5126888411555
 30
0.0
 11
523.7501627361662
 21
-557.7126976215302
 31
0.0
  0
LINE
  5
21999
330
18
100
AcDbEntity
  8
1PHANTOM
100
AcDbLine
 10
527.0237556839622
 20
-558.6126900045526
 30
0.0
 11
527.5237556839622
 21
-558.5126888411555
 31
0.0
  0
LINE
  5
2199A
330
18
100
AcDbEntity
  8
1PHANTOM
100
AcDbLine
 10
527.0237556839622
 20
-566.8126900045527
 30
0.0
 11
527.5237556839622
 21
-566.7126888411555
 31
0.0
  0
LINE
  5
2199B
330
18
100
AcDbEntity
  8
1PHANTOM
100
AcDbLine
 10
527.5237556839622
 20
-571.5126888411555
 30
0.0
 11
523.5237556839622
 21
-570.712698148333
 31
0.0
  0
LINE
  5
2199C
330
18
100
AcDbEntity
  8
1PHANTOM
100
AcDbLine
 10
527.5237556839622
 20
-569.9126888411554
 30
0.0
 11
523.5237556839622
 21
-569.1126981483328
 31
0.0
  0
LINE
  5
2199D
330
18
100
AcDbEntity
  8
1PHANTOM
100
AcDbLine
 10
527.0237556839622
 20
-568.4126900045526
 30
0.0
 11
527.5237556839622
 21
-568.3126888411555
 31
0.0
  0
LINE
  5
2199E
330
18
100
AcDbEntity
  8
1PHANTOM
100
AcDbLine
 10
527.0237556839622
 20
-570.0126900045525
 30
0.0
 11
527.5237556839622
 21
-569.9126888411554
 31
0.0
  0
LINE
  5
2199F
330
18
100
AcDbEntity
  8
1PHANTOM
100
AcDbLine
 10
523.5237556839622
 20
-569.1126981483328
 30
0.0
 11
524.0237556839622
 21
-569.0126969849357
 31
0.0
  0
LINE
  5
219A0
330
18
100
AcDbEntity
  8
1PHANTOM
100
AcDbLine
 10
523.5237556839622
 20
-570.712698148333
 30
0.0
 11
524.0237556839622
 21
-570.6126969849357
 31
0.0
  0
LINE
  5
219A1
330
18
100
AcDbEntity
  8
1PHANTOM
100
AcDbLine
 10
527.0237556839622
 20
-571.6126900045526
 30
0.0
 11
527.5237556839622
 21
-571.5126888411555
 31
0.0
  0
LINE
  5
219A2
330
18
100
AcDbEntity
  8
1PHANTOM
100
AcDbLine
 10
523.5237556839622
 20
-562.7126981483328
 30
0.0
 11
524.0237556839622
 21
-562.6126969849357
 31
0.0
  0
LINE
  5
219A3
330
18
100
AcDbEntity
  8
1PHANTOM
100
AcDbLine
 10
527.5237556839622
 20
-563.5126888411554
 30
0.0
 11
523.5237556839622
 21
-562.7126981483328
 31
0.0
  0
LINE
  5
219A4
330
18
100
AcDbEntity
  8
1PHANTOM
100
AcDbLine
 10
527.0237556839622
 20
-563.6126900045525
 30
0.0
 11
527.5237556839622
 21
-563.5126888411554
 31
0.0
  0
LINE
  5
219A5
330
18
100
AcDbEntity
  8
1PHANTOM
100
AcDbLine
 10
527.5237556839622
 20
-561.9126888411554
 30
0.0
 11
523.5237556839622
 21
-561.1126981483328
 31
0.0
  0
LINE
  5
219A6
330
18
100
AcDbEntity
  8
1PHANTOM
100
AcDbLine
 10
523.5237556839622
 20
-561.1126981483328
 30
0.0
 11
524.0237556839622
 21
-561.0126969849357
 31
0.0
  0
LINE
  5
219A7
330
18
100
AcDbEntity
  8
1PHANTOM
100
AcDbLine
 10
527.0237556839622
 20
-562.0126900045525
 30
0.0
 11
527.5237556839622
 21
-561.9126888411554
 31
0.0
  0
LINE
  5
219A8
330
18
100
AcDbEntity
  8
1PHANTOM
100
AcDbLine
 10
523.5237556839622
 20
-559.5126981483328
 30
0.0
 11
524.0237556839622
 21
-559.4126969849357
 31
0.0
  0
LINE
  5
219A9
330
18
100
AcDbEntity
  8
1PHANTOM
100
AcDbLine
 10
527.5237556839622
 20
-560.3126888411554
 30
0.0
 11
523.5237556839622
 21
-559.5126981483328
 31
0.0
  0
LINE
  5
219AA
330
18
100
AcDbEntity
  8
1PHANTOM
100
AcDbLine
 10
527.0237556839622
 20
-560.4126900045525
 30
0.0
 11
527.5237556839622
 21
-560.3126888411554
 31
0.0
  0
LINE
  5
219AB
330
18
100
AcDbEntity
  8
1PHANTOM
100
AcDbLine
 10
527.5237556839622
 20
-581.1126888411642
 30
0.0
 11
523.5237556839622
 21
-580.3126981483416
 31
0.0
  0
LINE
  5
219AC
330
18
100
AcDbEntity
  8
1PHANTOM
100
AcDbLine
 10
527.5237556839622
 20
-577.9126888411555
 30
0.0
 11
523.5237556839622
 21
-577.1126981483372
 31
0.0
  0
LINE
  5
219AD
330
18
100
AcDbEntity
  8
1PHANTOM
100
AcDbLine
 10
523.5237556839622
 20
-585.1126981483416
 30
0.0
 11
524.0237556839622
 21
-585.0126969849445
 31
0.0
  0
LINE
  5
219AE
330
18
100
AcDbEntity
  8
1PHANTOM
100
AcDbLine
 10
527.0237556839622
 20
-584.4126900045613
 30
0.0
 11
527.5237556839622
 21
-584.3126888411642
 31
0.0
  0
LINE
  5
219AF
330
18
100
AcDbEntity
  8
1PHANTOM
100
AcDbLine
 10
525.5238022198602
 20
-585.5127028018242
 30
0.0
 11
523.5237556839622
 21
-585.1126981483416
 31
0.0
  0
LINE
  5
219B0
330
18
100
AcDbEntity
  8
1PHANTOM
100
AcDbLine
 10
527.0237556839622
 20
-582.8126900045614
 30
0.0
 11
527.5237556839622
 21
-582.7126888411642
 31
0.0
  0
LINE
  5
219B1
330
18
100
AcDbEntity
  8
1PHANTOM
100
AcDbLine
 10
523.5237556839622
 20
-581.9126981483416
 30
0.0
 11
524.0237556839622
 21
-581.8126969849446
 31
0.0
  0
LINE
  5
219B2
330
18
100
AcDbEntity
  8
1PHANTOM
100
AcDbLine
 10
523.5237556839622
 20
-580.3126981483416
 30
0.0
 11
524.0237556839622
 21
-580.2126969849445
 31
0.0
  0
LINE
  5
219B3
330
18
100
AcDbEntity
  8
1PHANTOM
100
AcDbLine
 10
527.0237556839622
 20
-581.2126900045613
 30
0.0
 11
527.5237556839622
 21
-581.1126888411642
 31
0.0
  0
LINE
  5
219B4
330
18
100
AcDbEntity
  8
1PHANTOM
100
AcDbLine
 10
527.5237556839622
 20
-582.7126888411642
 30
0.0
 11
523.5237556839622
 21
-581.9126981483416
 31
0.0
  0
LINE
  5
219B5
330
18
100
AcDbEntity
  8
1PHANTOM
100
AcDbLine
 10
523.5237556839622
 20
-583.5126981483417
 30
0.0
 11
524.0237556839622
 21
-583.4126969849444
 31
0.0
  0
LINE
  5
219B6
330
18
100
AcDbEntity
  8
1PHANTOM
100
AcDbLine
 10
527.5237556839622
 20
-584.3126888411642
 30
0.0
 11
523.5237556839622
 21
-583.5126981483417
 31
0.0
  0
LINE
  5
219B7
330
18
100
AcDbEntity
  8
1PHANTOM
100
AcDbLine
 10
527.5237556839622
 20
-579.5126888411598
 30
0.0
 11
523.5237556839622
 21
-578.7126981483416
 31
0.0
  0
LINE
  5
219B8
330
18
100
AcDbEntity
  8
1PHANTOM
100
AcDbLine
 10
527.5237556839622
 20
-574.7126888411555
 30
0.0
 11
523.5237556839622
 21
-573.9126981483372
 31
0.0
  0
LINE
  5
219B9
330
18
100
AcDbEntity
  8
1PHANTOM
100
AcDbLine
 10
527.5237556839622
 20
-573.1126888411554
 30
0.0
 11
523.5237556839622
 21
-572.3126981483329
 31
0.0
  0
LINE
  5
219BA
330
18
100
AcDbEntity
  8
1PHANTOM
100
AcDbLine
 10
527.0237556839622
 20
-573.2126900045532
 30
0.0
 11
527.5237556839622
 21
-573.1126888411554
 31
0.0
  0
LINE
  5
219BB
330
18
100
AcDbEntity
  8
1PHANTOM
100
AcDbLine
 10
523.5237556839622
 20
-573.9126981483372
 30
0.0
 11
524.0237556839622
 21
-573.8126969849395
 31
0.0
  0
LINE
  5
219BC
330
18
100
AcDbEntity
  8
1PHANTOM
100
AcDbLine
 10
523.5237556839622
 20
-572.3126981483329
 30
0.0
 11
524.0237556839622
 21
-572.2126969849357
 31
0.0
  0
LINE
  5
219BD
330
18
100
AcDbEntity
  8
1PHANTOM
100
AcDbLine
 10
523.5237556839622
 20
-577.1126981483372
 30
0.0
 11
524.0237556839622
 21
-577.0126969849396
 31
0.0
  0
LINE
  5
219BE
330
18
100
AcDbEntity
  8
1PHANTOM
100
AcDbLine
 10
527.0237556839622
 20
-576.4126900045533
 30
0.0
 11
527.5237556839622
 21
-576.3126888411556
 31
0.0
  0
LINE
  5
219BF
330
18
100
AcDbEntity
  8
1PHANTOM
100
AcDbLine
 10
523.5237556839622
 20
-575.5126981483373
 30
0.0
 11
524.0237556839622
 21
-575.4126969849397
 31
0.0
  0
LINE
  5
219C0
330
18
100
AcDbEntity
  8
1PHANTOM
100
AcDbLine
 10
527.5237556839622
 20
-576.3126888411556
 30
0.0
 11
523.5237556839622
 21
-575.5126981483373
 31
0.0
  0
LINE
  5
219C1
330
18
100
AcDbEntity
  8
1PHANTOM
100
AcDbLine
 10
527.0237556839622
 20
-574.8126900045531
 30
0.0
 11
527.5237556839622
 21
-574.7126888411555
 31
0.0
  0
LINE
  5
219C2
330
18
100
AcDbEntity
  8
1PHANTOM
100
AcDbLine
 10
523.5237556839622
 20
-578.7126981483416
 30
0.0
 11
524.0237556839622
 21
-578.6126969849439
 31
0.0
  0
LINE
  5
219C3
330
18
100
AcDbEntity
  8
1PHANTOM
100
AcDbLine
 10
527.0237556839622
 20
-578.0126900045532
 30
0.0
 11
527.5237556839622
 21
-577.9126888411555
 31
0.0
  0
LINE
  5
219C4
330
18
100
AcDbEntity
  8
1PHANTOM
100
AcDbLine
 10
527.0237556839622
 20
-579.6126900045575
 30
0.0
 11
527.5237556839622
 21
-579.5126888411598
 31
0.0
  0
LINE
  5
219C5
330
18
100
AcDbEntity
  8
1PHANTOM
100
AcDbLine
 10
529.5238022198602
 20
-587.9126841873491
 30
0.0
 11
521.5238022198602
 21
-587.9127028017082
 31
0.0
  0
LINE
  5
219C6
330
18
100
AcDbEntity
  8
1PHANTOM
100
AcDbLine
 10
524.0237556839622
 20
-585.4127202530422
 30
0.0
 11
524.0237556839622
 21
-558.5126969849374
 31
0.0
  0
LINE
  5
219D6
330
18
100
AcDbEntity
  8
1CENTER
100
AcDbLine
 10
525.5362416153648
 20
-681.9071783954681
 30
0.0
 11
525.5362416153648
 21
-673.4071783954681
 31
0.0
  0
LINE
  5
219D8
330
18
100
AcDbEntity
  8
1CENTER
100
AcDbLine
 10
525.5362416153648
 20
-701.9071783954681
 30
0.0
 11
525.5362416153648
 21
-693.4071783954681
 31
0.0
  0
LINE
  5
21A1B
330
18
100
AcDbEntity
  8
1CENTER
100
AcDbLine
 10
614.2332261475806
 20
-699.0826966976848
 30
0.0
 11
614.2332401083501
 21
-711.8413428613534
 31
0.0
  0
LINE
  5
21A1C
330
18
100
AcDbEntity
  8
01
100
AcDbLine
 10
615.7332760283882
 20
-703.1613430805173
 30
0.0
 11
615.7332430168543
 21
-710.2113486783122
 31
0.0
  0
LINE
  5
21A1D
330
18
100
AcDbEntity
  8
01
100
AcDbLine
 10
615.7332430168543
 20
-710.2113486783122
 30
0.0
 11
615.4832401083324
 21
-710.4613515868342
 31
0.0
  0
LINE
  5
21A1E
330
18
100
AcDbEntity
  8
01
100
AcDbLine
 10
615.4832401083324
 20
-710.4613515868342
 30
0.0
 11
612.9832401083676
 21
-710.4613341358726
 31
0.0
  0
LINE
  5
21A1F
330
18
100
AcDbEntity
  8
01
100
AcDbLine
 10
612.9832401083676
 20
-710.4613341358726
 30
0.0
 11
612.7332430168328
 21
-710.2113370443379
 31
0.0
  0
LINE
  5
21A20
330
18
100
AcDbEntity
  8
01
100
AcDbLine
 10
612.7332430168328
 20
-710.2113370443379
 30
0.0
 11
612.7332760284348
 21
-703.1613430805173
 31
0.0
  0
LINE
  5
21A21
330
18
100
AcDbEntity
  8
1DIM
100
AcDbLine
 10
612.7332430168328
 20
-710.2113370443379
 30
0.0
 11
615.7332430165399
 21
-710.2113741205354
 31
0.0
  0
LINE
  5
21A22
330
18
100
AcDbEntity
  8
1DIM
100
AcDbLine
 10
612.9832401083676
 20
-710.4613341358726
 30
0.0
 11
612.9832401083676
 21
-703.1613430805173
 31
0.0
  0
LINE
  5
21A23
330
18
100
AcDbEntity
  8
1DIM
100
AcDbLine
 10
615.4832401083324
 20
-710.4613515868342
 30
0.0
 11
615.4832401083324
 21
-703.1613430805173
 31
0.0
  0
LINE
  5
21A24
330
18
100
AcDbEntity
  8
01
  6
CONTINUOUS
100
AcDbLine
 10
611.4832965480275
 20
-701.9613428616011
 30
0.0
 11
611.4832965480275
 21
-702.4613428616011
 31
0.0
  0
LINE
  5
21A25
330
18
100
AcDbEntity
  8
01
100
AcDbLine
 10
616.9832965182252
 20
-702.4613428616011
 30
0.0
 11
611.4832965480275
 21
-702.4613428616011
 31
0.0
  0
LINE
  5
21A26
330
18
100
AcDbEntity
  8
01
100
AcDbLine
 10
616.9832965182252
 20
-702.4613428616011
 30
0.0
 11
616.9832965182252
 21
-701.9613428616011
 31
0.0
  0
LINE
  5
21A27
330
18
100
AcDbEntity
  8
01
100
AcDbLine
 10
615.4832965182252
 20
-700.4613428616011
 30
0.0
 11
612.9832965480275
 21
-700.4613428616011
 31
0.0
  0
ARC
  5
21A28
330
18
100
AcDbEntity
  8
01
100
AcDbCircle
 10
612.9832965480275
 20
-701.9613428616011
 30
0.0
 40
1.5
100
AcDbArc
 50
90.0
 51
180.0
  0
ARC
  5
21A29
330
18
100
AcDbEntity
  8
01
100
AcDbCircle
 10
615.4832965182252
 20
-701.9613428616011
 30
0.0
 40
1.5
100
AcDbArc
 50
0.0
 51
90.0
  0
LINE
  5
21A2A
330
18
100
AcDbEntity
  8
01
100
AcDbLine
 10
617.1832306105181
 20
-703.1613430805173
 30
0.0
 11
611.2832306105181
 21
-703.1613430805173
 31
0.0
  0
LINE
  5
21A2B
330
18
100
AcDbEntity
  8
01
100
AcDbLine
 10
617.1832965331263
 20
-702.4613428616011
 30
0.0
 11
611.2832965331263
 21
-702.4613428616011
 31
0.0
  0
LINE
  5
21A2C
330
18
100
AcDbEntity
  8
01
100
AcDbLine
 10
617.1832965331263
 20
-702.4613428616011
 30
0.0
 11
617.1832965331263
 21
-703.1613430805173
 31
0.0
  0
LINE
  5
21A2D
330
18
100
AcDbEntity
  8
01
100
AcDbLine
 10
611.2832965331263
 20
-702.4613428616011
 30
0.0
 11
611.2832306105181
 21
-703.1613430805173
 31
0.0
  0
LINE
  5
21ACB
330
18
100
AcDbEntity
  8
1PHANTOM
 48
0.5
100
AcDbLine
 10
519.6238022198602
 20
-607.1613303512664
 30
0.0
 11
531.4238022198601
 21
-607.1613303512667
 31
0.0
  0
LINE
  5
21ACC
330
18
100
AcDbEntity
  8
1PHANTOM
 48
0.5
100
AcDbLine
 10
531.4238022198601
 20
-607.1613303512667
 30
0.0
 11
531.4238022198601
 21
-585.1613303512664
 31
0.0
  0
LINE
  5
21ACD
330
18
100
AcDbEntity
  8
1PHANTOM
 48
0.5
100
AcDbLine
 10
519.6238022198602
 20
-607.1613303512664
 30
0.0
 11
519.6238022198602
 21
-585.1613303512664
 31
0.0
  0
TEXT
  5
21BE6
330
18
100
AcDbEntity
  8
01
  6
CONTINUOUS
100
AcDbText
 10
639.5556584652343
 20
-637.4789313232421
 30
0.0
 40
3.5
  1
PB
100
AcDbText
  0
TEXT
  5
21BE7
330
18
100
AcDbEntity
  8
01
  6
CONTINUOUS
100
AcDbText
 10
652.6910766103995
 20
-637.4789313232421
 30
0.0
 40
3.5
  1
合板9mm以上
100
AcDbText
  0
LINE
  5
21BE8
330
18
100
AcDbEntity
  8
01
  6
CONTINUOUS
100
AcDbLine
 10
623.0362419208387
 20
-694.6613311857315
 30
0.0
 11
622.924241999338
 21
-694.6613293230863
 31
0.0
  0
LINE
  5
21BE9
330
18
100
AcDbEntity
  8
01
  6
CONTINUOUS
100
AcDbLine
 10
622.924241999338
 20
-694.6613293230863
 30
0.0
 11
622.8362413292626
 21
-694.6613293230863
 31
0.0
  0
LINE
  5
21BEA
330
18
100
AcDbEntity
  8
01
  6
CONTINUOUS
100
AcDbLine
 10
606.2362415885428
 20
-694.6613293230863
 30
0.0
 11
606.1242407357196
 21
-694.6613311857315
 31
0.0
  0
LINE
  5
21BEB
330
18
100
AcDbEntity
  8
01
  6
CONTINUOUS
100
AcDbLine
 10
606.1242407357196
 20
-694.6613311857315
 30
0.0
 11
606.0362419282893
 21
-694.6613311857315
 31
0.0
  0
LINE
  5
21BEC
330
18
100
AcDbEntity
  8
1DIM
100
AcDbLine
 10
598.5362416153649
 20
-711.1613312808738
 30
0.0
 11
598.5362416153649
 21
-735.1583684659604
 31
0.0
1001
ACAD
1000
DSTYLE
1002
{
1070
    45
1040
0.5
1002
}
  0
LINE
  5
21BED
330
18
100
AcDbEntity
  8
1DIM
100
AcDbLine
 10
632.536361859726
 20
-713.161331423779
 30
0.0
 11
632.536361859726
 21
-735.1583684659604
 31
0.0
1001
ACAD
1000
DSTYLE
1002
{
1070
    45
1040
0.5
1002
}
  0
LINE
  5
21BEE
330
18
100
AcDbEntity
  8
1DIM
100
AcDbLine
 10
600.5362416153649
 20
-734.1583684659604
 30
0.0
 11
630.536361859726
 21
-734.1583684659604
 31
0.0
1001
ACAD
1000
DSTYLE
1002
{
1070
    45
1040
0.5
1002
}
  0
LINE
  5
21BF2
330
18
100
AcDbEntity
  8
1DIM
100
AcDbLine
 10
665.9393746627405
 20
-677.6572284048411
 30
0.0
 11
675.0362416153649
 21
-677.6572284048411
 31
0.0
1001
ACAD
1000
DSTYLE
1002
{
1070
    45
1040
0.5
1070
   271
1070
     1
1002
}
  0
LINE
  5
21BF3
330
18
100
AcDbEntity
  8
1DIM
100
AcDbLine
 10
632.5362416153649
 20
-661.1613303512664
 30
0.0
 11
675.0362416153649
 21
-661.1613303512664
 31
0.0
1001
ACAD
1000
DSTYLE
1002
{
1070
    45
1040
0.5
1070
   271
1070
     1
1002
}
  0
LINE
  5
21BF4
330
18
100
AcDbEntity
  8
1DIM
100
AcDbLine
 10
674.0362416153649
 20
-675.6572284048411
 30
0.0
 11
674.0362416153649
 21
-663.1613303512664
 31
0.0
1001
ACAD
1000
DSTYLE
1002
{
1070
    45
1040
0.5
1070
   271
1070
     1
1002
}
  0
LINE
  5
21BF8
330
18
100
AcDbEntity
  8
1DIM
100
AcDbLine
 10
632.5362416153649
 20
-713.16133142415
 30
0.0
 11
685.0362416153649
 21
-713.16133142415
 31
0.0
1001
ACAD
1000
DSTYLE
1002
{
1070
    45
1040
0.5
1002
}
  0
LINE
  5
21BF9
330
18
100
AcDbEntity
  8
1DIM
100
AcDbLine
 10
632.5362416153649
 20
-661.1613303512664
 30
0.0
 11
685.0362416153649
 21
-661.1613303512664
 31
0.0
1001
ACAD
1000
DSTYLE
1002
{
1070
    45
1040
0.5
1002
}
  0
LINE
  5
21BFA
330
18
100
AcDbEntity
  8
1DIM
100
AcDbLine
 10
684.0362416153649
 20
-711.16133142415
 30
0.0
 11
684.0362416153649
 21
-663.1613303512664
 31
0.0
1001
ACAD
1000
DSTYLE
1002
{
1070
    45
1040
0.5
1002
}
  0
LINE
  5
21BFE
330
18
100
AcDbEntity
  8
1DIM
100
AcDbLine
 10
665.9670365326679
 20
-697.6572284048411
 30
0.0
 11
675.0362416153649
 21
-697.6572284048411
 31
0.0
1001
ACAD
1000
DSTYLE
1002
{
1070
    45
1040
0.5
1002
}
  0
LINE
  5
21BFF
330
18
100
AcDbEntity
  8
1DIM
100
AcDbLine
 10
665.9393746627405
 20
-677.6572284048411
 30
0.0
 11
675.0362416153649
 21
-677.6572284048411
 31
0.0
1001
ACAD
1000
DSTYLE
1002
{
1070
    45
1040
0.5
1002
}
  0
LINE
  5
21C00
330
18
100
AcDbEntity
  8
1DIM
100
AcDbLine
 10
674.0362416153649
 20
-695.6572284048411
 30
0.0
 11
674.0362416153649
 21
-679.6572284048411
 31
0.0
1001
ACAD
1000
DSTYLE
1002
{
1070
    45
1040
0.5
1002
}
  0
SOLID
  5
21C04
330
18
100
AcDbEntity
  8
1DIM
100
AcDbTrace
 10
636.4727492588121
 20
-651.0240992329263
 30
0.0
 11
635.7318145321192
 21
-652.9114589871575
 31
0.0
 12
635.820582055997
 22
-650.8858155244978
 32
0.0
 13
635.820582055997
 23
-650.8858155244978
 33
0.0
1001
ACAD
1000
DSTYLE
1002
{
1070
    45
1040
0.5
1002
}
  0
LINE
  5
21C05
330
18
100
AcDbEntity
  8
1DIM
100
AcDbLine
 10
636.1466656574045
 20
-650.954957378712
 30
0.0
 11
638.8556584652342
 21
-638.1789313232422
 31
0.0
1001
ACAD
1000
DSTYLE
1002
{
1070
    45
1040
0.5
1002
}
  0
SOLID
  5
21C06
330
18
100
AcDbEntity
  8
1DIM
100
AcDbTrace
 10
649.6081674039773
 20
-651.0240992329263
 30
0.0
 11
648.8672326772844
 21
-652.9114589871575
 31
0.0
 12
648.9560002011622
 22
-650.8858155244978
 32
0.0
 13
648.9560002011622
 23
-650.8858155244978
 33
0.0
1001
ACAD
1000
DSTYLE
1002
{
1070
    45
1040
0.5
1002
}
  0
LINE
  5
21C07
330
18
100
AcDbEntity
  8
1DIM
100
AcDbLine
 10
649.2820838025697
 20
-650.954957378712
 30
0.0
 11
651.9910766103994
 21
-638.1789313232422
 31
0.0
1001
ACAD
1000
DSTYLE
1002
{
1070
    45
1040
0.5
1002
}
  0
SOLID
  5
21C08
330
18
100
AcDbEntity
  8
1DIM
100
AcDbTrace
 10
625.9847569572698
 20
-664.1500978026702
 30
0.0
 11
626.0791648701514
 21
-666.1754862239604
 31
0.0
 12
625.3329773564666
 22
-664.2901970404313
 32
0.0
 13
625.3329773564666
 23
-664.2901970404313
 33
0.0
1001
ACAD
1000
DSTYLE
1002
{
1070
    45
1040
0.5
1002
}
  0
LINE
  5
21C09
330
18
100
AcDbEntity
  8
1DIM
100
AcDbLine
 10
625.6588671568682
 20
-664.2201474215508
 30
0.0
 11
619.118297262509
 21
-633.7916447194818
 31
0.0
1001
ACAD
1000
DSTYLE
1002
{
1070
    45
1040
0.5
1002
}
  0
LINE
  5
21C0A
330
18
100
AcDbEntity
  8
1DIM
100
AcDbLine
 10
619.118297262509
 20
-633.7916447194818
 30
0.0
 11
571.8516305958424
 21
-633.7916447194818
 31
0.0
1001
ACAD
1000
DSTYLE
1002
{
1070
    45
1040
0.5
1002
}
  0
TEXT
  5
21C0B
330
18
100
AcDbEntity
  8
1DIM
  6
CONTINUOUS
100
AcDbText
 10
571.618297262509
 20
-627.2583113861484
 30
0.0
 40
3.499999999999998
  1
材質：亜鉛ダイキャスト
100
AcDbText
  0
TEXT
  5
21C0C
330
18
100
AcDbEntity
  8
1DIM
  6
CONTINUOUS
100
AcDbText
 10
579.318297262509
 20
-633.0916447194818
 30
0.0
 40
3.499999999999998
  1
仕上げ：各種仕上げ
100
AcDbText
  0
LINE
  5
21C0D
330
18
100
AcDbEntity
  8
1DIM
100
AcDbLine
 10
535.5362416153649
 20
-662.1613314244793
 30
0.0
 11
535.5362416153649
 21
-653.1563996043327
 31
0.0
1001
ACAD
1000
DSTYLE
1002
{
1070
    45
1040
0.5
1002
}
  0
LINE
  5
21C0E
330
18
100
AcDbEntity
  8
1DIM
100
AcDbLine
 10
515.5362416153649
 20
-662.1613314244793
 30
0.0
 11
515.5362416153649
 21
-653.1563996043327
 31
0.0
1001
ACAD
1000
DSTYLE
1002
{
1070
    45
1040
0.5
1002
}
  0
LINE
  5
21C0F
330
18
100
AcDbEntity
  8
1DIM
100
AcDbLine
 10
533.5362416153649
 20
-654.1563996043327
 30
0.0
 11
517.5362416153649
 21
-654.1563996043327
 31
0.0
1001
ACAD
1000
DSTYLE
1002
{
1070
    45
1040
0.5
1002
}
  0
TEXT
  5
21C13
330
18
100
AcDbEntity
  8
1DIM
  6
CONTINUOUS
100
AcDbText
 10
570.4140882024496
 20
-660.0916238452129
 30
0.0
 40
3.499999999999998
  1
材質：ABS樹脂
100
AcDbText
1001
ACADANNOTATIVE
1000
AnnotativeData
1002
{
1070
     1
1070
     0
1002
}
  0
TEXT
  5
21C14
330
18
100
AcDbEntity
  8
1DIM
  6
CONTINUOUS
100
AcDbText
 10
568.7807548691163
 20
-665.9249571785463
 30
0.0
 40
3.499999999999998
  1
仕上げ：ブラック
100
AcDbText
1001
ACADANNOTATIVE
1000
AnnotativeData
1002
{
1070
     1
1070
     0
1002
}
  0
SOLID
  5
21C15
330
18
100
AcDbEntity
  8
1DIM
100
AcDbTrace
 10
610.7805478972105
 20
-696.9834102617347
 30
0.0
 11
610.874955810092
 21
-699.0087986830249
 31
0.0
 12
610.1287682964072
 22
-697.1235094994958
 32
0.0
 13
610.1287682964072
 23
-697.1235094994958
 33
0.0
1001
ACAD
1000
DSTYLE
1002
{
1070
    45
1040
0.5
1002
}
  0
LINE
  5
21C16
330
18
100
AcDbEntity
  8
1DIM
100
AcDbLine
 10
610.4546580968088
 20
-697.0534598806153
 30
0.0
 11
603.9140882024496
 21
-666.6249571785463
 31
0.0
1001
ACAD
1000
DSTYLE
1002
{
1070
    45
1040
0.5
1002
}
  0
LINE
  5
21C17
330
18
100
AcDbEntity
  8
1DIM
100
AcDbLine
 10
603.9140882024496
 20
-666.6249571785463
 30
0.0
 11
568.897421535783
 21
-666.6249571785463
 31
0.0
1001
ACAD
1000
DSTYLE
1002
{
1070
    45
1040
0.5
1002
}
  0
LINE
  5
21C18
330
18
100
AcDbEntity
  8
1DIM
100
AcDbLine
 10
614.2332401083501
 20
-711.8413428613534
 30
0.0
 11
614.2332401083501
 21
-725.1598499448696
 31
0.0
1001
ACAD
1000
DSTYLE
1002
{
1070
    45
1040
0.5
1002
}
  0
LINE
  5
21C19
330
18
100
AcDbEntity
  8
1DIM
100
AcDbLine
 10
632.536361859726
 20
-713.161331423779
 30
0.0
 11
632.536361859726
 21
-725.1598499448696
 31
0.0
1001
ACAD
1000
DSTYLE
1002
{
1070
    45
1040
0.5
1002
}
  0
LINE
  5
21C1A
330
18
100
AcDbEntity
  8
1DIM
100
AcDbLine
 10
616.2332401083501
 20
-724.1598499448696
 30
0.0
 11
630.536361859726
 21
-724.1598499448696
 31
0.0
1001
ACAD
1000
DSTYLE
1002
{
1070
    45
1040
0.5
1002
}
  0
LINE
  5
21C1E
330
18
100
AcDbEntity
  8
0
  6
BYBLOCK
100
AcDbLine
 10
600.5362416153649
 20
-734.6942668459604
 30
0.0
 11
598.5362416153649
 21
-734.1583684659604
 31
0.0
  0
LINE
  5
21C1F
330
18
100
AcDbEntity
  8
0
  6
BYBLOCK
100
AcDbLine
 10
598.5362416153649
 20
-734.1583684659604
 30
0.0
 11
600.5362416153649
 21
-733.6224700859603
 31
0.0
  0
LINE
  5
21C20
330
18
100
AcDbEntity
  8
0
  6
BYBLOCK
100
AcDbLine
 10
598.5362416153649
 20
-734.1583684659604
 30
0.0
 11
600.5362416153649
 21
-734.1583684659604
 31
0.0
  0
LINE
  5
21C21
330
18
100
AcDbEntity
  8
0
  6
BYBLOCK
100
AcDbLine
 10
630.536361859726
 20
-733.6224700859603
 30
0.0
 11
632.536361859726
 21
-734.1583684659604
 31
0.0
  0
LINE
  5
21C22
330
18
100
AcDbEntity
  8
0
  6
BYBLOCK
100
AcDbLine
 10
632.536361859726
 20
-734.1583684659604
 30
0.0
 11
630.536361859726
 21
-734.6942668459604
 31
0.0
  0
LINE
  5
21C23
330
18
100
AcDbEntity
  8
0
  6
BYBLOCK
100
AcDbLine
 10
632.536361859726
 20
-734.1583684659604
 30
0.0
 11
630.536361859726
 21
-734.1583684659604
 31
0.0
  0
TEXT
  5
21C24
330
18
100
AcDbEntity
  8
1DIM
  6
CONTINUOUS
100
AcDbText
 10
612.6195749486983
 20
-733.4583684659603
 30
0.0
 40
3.5
  1
34
100
AcDbText
1001
ACAD
1000
DSTYLE
1002
{
1070
    45
1040
0.5
1002
}
  0
LINE
  5
21C25
330
18
100
AcDbEntity
  8
0
  6
BYBLOCK
100
AcDbLine
 10
674.572139995365
 20
-675.6572284048411
 30
0.0
 11
674.0362416153649
 21
-677.6572284048411
 31
0.0
  0
LINE
  5
21C26
330
18
100
AcDbEntity
  8
0
  6
BYBLOCK
100
AcDbLine
 10
674.0362416153649
 20
-677.6572284048411
 30
0.0
 11
673.5003432353649
 21
-675.6572284048411
 31
0.0
  0
LINE
  5
21C27
330
18
100
AcDbEntity
  8
0
  6
BYBLOCK
100
AcDbLine
 10
674.0362416153649
 20
-677.6572284048411
 30
0.0
 11
674.0362416153649
 21
-675.6572284048411
 31
0.0
  0
LINE
  5
21C28
330
18
100
AcDbEntity
  8
0
  6
BYBLOCK
100
AcDbLine
 10
673.5003432353649
 20
-663.1613303512664
 30
0.0
 11
674.0362416153649
 21
-661.1613303512664
 31
0.0
  0
LINE
  5
21C29
330
18
100
AcDbEntity
  8
0
  6
BYBLOCK
100
AcDbLine
 10
674.0362416153649
 20
-661.1613303512664
 30
0.0
 11
674.572139995365
 21
-663.1613303512664
 31
0.0
  0
LINE
  5
21C2A
330
18
100
AcDbEntity
  8
0
  6
BYBLOCK
100
AcDbLine
 10
674.0362416153649
 20
-661.1613303512664
 30
0.0
 11
674.0362416153649
 21
-663.1613303512664
 31
0.0
  0
TEXT
  5
21C2B
330
18
100
AcDbEntity
  8
1DIM
  6
CONTINUOUS
100
AcDbText
 10
673.336241615365
 20
-674.0880988224983
 30
0.0
 40
3.5
  1
16.5
 50
90.0
100
AcDbText
1001
ACAD
1000
DSTYLE
1002
{
1070
    45
1040
0.5
1070
   271
1070
     1
1002
}
  0
LINE
  5
21C2C
330
18
100
AcDbEntity
  8
0
  6
BYBLOCK
100
AcDbLine
 10
684.572139995365
 20
-711.16133142415
 30
0.0
 11
684.0362416153649
 21
-713.16133142415
 31
0.0
  0
LINE
  5
21C2D
330
18
100
AcDbEntity
  8
0
  6
BYBLOCK
100
AcDbLine
 10
684.0362416153649
 20
-713.16133142415
 30
0.0
 11
683.5003432353649
 21
-711.16133142415
 31
0.0
  0
LINE
  5
21C2E
330
18
100
AcDbEntity
  8
0
  6
BYBLOCK
100
AcDbLine
 10
684.0362416153649
 20
-713.16133142415
 30
0.0
 11
684.0362416153649
 21
-711.16133142415
 31
0.0
  0
LINE
  5
21C2F
330
18
100
AcDbEntity
  8
0
  6
BYBLOCK
100
AcDbLine
 10
683.5003432353649
 20
-663.1613303512664
 30
0.0
 11
684.0362416153649
 21
-661.1613303512664
 31
0.0
  0
LINE
  5
21C30
330
18
100
AcDbEntity
  8
0
  6
BYBLOCK
100
AcDbLine
 10
684.0362416153649
 20
-661.1613303512664
 30
0.0
 11
684.572139995365
 21
-663.1613303512664
 31
0.0
  0
LINE
  5
21C31
330
18
100
AcDbEntity
  8
0
  6
BYBLOCK
100
AcDbLine
 10
684.0362416153649
 20
-661.1613303512664
 30
0.0
 11
684.0362416153649
 21
-663.1613303512664
 31
0.0
  0
TEXT
  5
21C32
330
18
100
AcDbEntity
  8
1DIM
  6
CONTINUOUS
100
AcDbText
 10
683.336241615365
 20
-690.0901503321527
 30
0.0
 40
3.5
  1
52
 50
90.0
100
AcDbText
1001
ACAD
1000
DSTYLE
1002
{
1070
    45
1040
0.5
1002
}
  0
LINE
  5
21C33
330
18
100
AcDbEntity
  8
0
  6
BYBLOCK
100
AcDbLine
 10
674.572139995365
 20
-695.6572284048411
 30
0.0
 11
674.0362416153649
 21
-697.6572284048411
 31
0.0
  0
LINE
  5
21C34
330
18
100
AcDbEntity
  8
0
  6
BYBLOCK
100
AcDbLine
 10
674.0362416153649
 20
-697.6572284048411
 30
0.0
 11
673.5003432353649
 21
-695.6572284048411
 31
0.0
  0
LINE
  5
21C35
330
18
100
AcDbEntity
  8
0
  6
BYBLOCK
100
AcDbLine
 10
674.0362416153649
 20
-697.6572284048411
 30
0.0
 11
674.0362416153649
 21
-695.6572284048411
 31
0.0
  0
LINE
  5
21C36
330
18
100
AcDbEntity
  8
0
  6
BYBLOCK
100
AcDbLine
 10
673.5003432353649
 20
-679.6572284048411
 30
0.0
 11
674.0362416153649
 21
-677.6572284048411
 31
0.0
  0
LINE
  5
21C37
330
18
100
AcDbEntity
  8
0
  6
BYBLOCK
100
AcDbLine
 10
674.0362416153649
 20
-677.6572284048411
 30
0.0
 11
674.572139995365
 21
-679.6572284048411
 31
0.0
  0
LINE
  5
21C38
330
18
100
AcDbEntity
  8
0
  6
BYBLOCK
100
AcDbLine
 10
674.0362416153649
 20
-677.6572284048411
 30
0.0
 11
674.0362416153649
 21
-679.6572284048411
 31
0.0
  0
TEXT
  5
21C39
330
18
100
AcDbEntity
  8
1DIM
  6
CONTINUOUS
100
AcDbText
 10
673.3362416153649
 20
-692.1051450715079
 30
0.0
 40
3.5
  1
P20
 50
90.0
100
AcDbText
1001
ACAD
1000
DSTYLE
1002
{
1070
    45
1040
0.5
1002
}
  0
LINE
  5
21C3A
330
18
100
AcDbEntity
  8
0
  6
BYBLOCK
100
AcDbLine
 10
533.5362416153649
 20
-653.6205012243327
 30
0.0
 11
535.5362416153649
 21
-654.1563996043327
 31
0.0
  0
LINE
  5
21C3B
330
18
100
AcDbEntity
  8
0
  6
BYBLOCK
100
AcDbLine
 10
535.5362416153649
 20
-654.1563996043327
 30
0.0
 11
533.5362416153649
 21
-654.6922979843328
 31
0.0
  0
LINE
  5
21C3C
330
18
100
AcDbEntity
  8
0
  6
BYBLOCK
100
AcDbLine
 10
535.5362416153649
 20
-654.1563996043327
 30
0.0
 11
533.5362416153649
 21
-654.1563996043327
 31
0.0
  0
LINE
  5
21C3D
330
18
100
AcDbEntity
  8
0
  6
BYBLOCK
100
AcDbLine
 10
517.5362416153649
 20
-654.6922979843328
 30
0.0
 11
515.5362416153649
 21
-654.1563996043327
 31
0.0
  0
LINE
  5
21C3E
330
18
100
AcDbEntity
  8
0
  6
BYBLOCK
100
AcDbLine
 10
515.5362416153649
 20
-654.1563996043327
 30
0.0
 11
517.5362416153649
 21
-653.6205012243327
 31
0.0
  0
LINE
  5
21C3F
330
18
100
AcDbEntity
  8
0
  6
BYBLOCK
100
AcDbLine
 10
515.5362416153649
 20
-654.1563996043327
 30
0.0
 11
517.5362416153649
 21
-654.1563996043327
 31
0.0
  0
TEXT
  5
21C40
330
18
100
AcDbEntity
  8
1DIM
  6
CONTINUOUS
100
AcDbText
 10
522.6199527206849
 20
-653.4563996043327
 30
0.0
 40
3.5
  1
20
100
AcDbText
1001
ACAD
1000
DSTYLE
1002
{
1070
    45
1040
0.5
1002
}
  0
LINE
  5
21C41
330
18
100
AcDbEntity
  8
0
  6
BYBLOCK
100
AcDbLine
 10
616.2332401083501
 20
-724.6957483248697
 30
0.0
 11
614.2332401083501
 21
-724.1598499448696
 31
0.0
  0
LINE
  5
21C42
330
18
100
AcDbEntity
  8
0
  6
BYBLOCK
100
AcDbLine
 10
614.2332401083501
 20
-724.1598499448696
 30
0.0
 11
616.2332401083501
 21
-723.6239515648696
 31
0.0
  0
LINE
  5
21C43
330
18
100
AcDbEntity
  8
0
  6
BYBLOCK
100
AcDbLine
 10
614.2332401083501
 20
-724.1598499448696
 30
0.0
 11
616.2332401083501
 21
-724.1598499448696
 31
0.0
  0
LINE
  5
21C44
330
18
100
AcDbEntity
  8
0
  6
BYBLOCK
100
AcDbLine
 10
630.536361859726
 20
-723.6239515648696
 30
0.0
 11
632.536361859726
 21
-724.1598499448696
 31
0.0
  0
LINE
  5
21C45
330
18
100
AcDbEntity
  8
0
  6
BYBLOCK
100
AcDbLine
 10
632.536361859726
 20
-724.1598499448696
 30
0.0
 11
630.536361859726
 21
-724.6957483248697
 31
0.0
  0
LINE
  5
21C46
330
18
100
AcDbEntity
  8
0
  6
BYBLOCK
100
AcDbLine
 10
632.536361859726
 20
-724.1598499448696
 30
0.0
 11
630.536361859726
 21
-724.1598499448696
 31
0.0
  0
TEXT
  5
21C47
330
18
100
AcDbEntity
  8
1DIM
  6
CONTINUOUS
100
AcDbText
 10
618.7181343173714
 20
-723.4598499448697
 30
0.0
 40
3.5
  1
18.5
100
AcDbText
1001
ACAD
1000
DSTYLE
1002
{
1070
    45
1040
0.5
1002
}
  0
VIEWPORT
  5
57
330
15
100
AcDbEntity
 67
     1
  8
0
100
AcDbViewport
 68
     1
 10
0.0
 20
0.0
 30
0.0
 40
464.1063829787234
 41
297.0
 68
     1
 69
     1
1001
ACAD
1000
MVIEW
1002
{
1070
    16
1010
0.0
1020
0.0
1030
0.0
1010
0.0
1020
0.0
1030
1.0
1040
0.0
1040
297.0
1040
-4.171999999925333
1040
12.83903210976956
1040
50.0
1040
0.0
1040
0.0
1070
    16
1070
   100
1070
     0
1070
     1
1070
     0
1070
     0
1070
     0
1070
     0
1040
0.0
1040
0.0
1040
0.0
1040
10.0
1040
10.0
1040
10.0
1040
10.0
1070
     0
1002
{
1002
}
1002
}
  0
ENDSEC
  0
SECTION
  2
OBJECTS
  0
DICTIONARY
  5
C
330
0
100
AcDbDictionary
  3
ACAD_CIP_PREVIOUS_PRODUCT_INFO
350
206F2
  3
ACAD_COLOR
350
2D0
  3
ACAD_GROUP
350
D
  3
ACAD_LAYOUT
350
2D1
  3
ACAD_MATERIAL
350
2CF
  3
ACAD_MLEADERSTYLE
350
19E18
  3
ACAD_MLINESTYLE
350
1B
  3
ACAD_PLOTSETTINGS
350
2D2
  3
ACAD_SCALELIST
350
19DF6
  3
ACAD_VISUALSTYLE
350
19DE5
  3
ACDBHEADERROUNDTRIPXREC
350
21C48
  3
ACDBVARIABLEDICTIONARY
350
37
  3
CONTENTDICTIONARY
350
D8
  3
DRAWINGVARIABLESDICT
350
20
  3
DWGPROPS
350
21C4B
1001
ACAD
1000
TREAT_AS_HARD
1070
     0
  0
DICTIONARY
  5
18FE8
330
2
100
AcDbDictionary
  3
ACAD_LAYERSTATES
360
18FE9
1001
ACAD
1000
TREAT_AS_HARD
1070
     1
  0
DICTIONARY
  5
1A20A
330
E
100
AcDbDictionary
  3
ADSK_XREC_LAYER_RECONCILED
360
1A20B
1001
ACAD
1000
TREAT_AS_HARD
1070
     1
  0
DICTIONARY
  5
1A20C
330
29
100
AcDbDictionary
  3
ADSK_XREC_LAYER_RECONCILED
360
1A20D
1001
ACAD
1000
TREAT_AS_HARD
1070
     1
  0
DICTIONARY
  5
1A20E
330
31
100
AcDbDictionary
  3
ADSK_XREC_LAYER_RECONCILED
360
1A20F
1001
ACAD
1000
TREAT_AS_HARD
1070
     1
  0
DICTIONARY
  5
1A218
330
101
100
AcDbDictionary
  3
ADSK_XREC_LAYER_RECONCILED
360
1A219
1001
ACAD
1000
TREAT_AS_HARD
1070
     1
  0
DICTIONARY
  5
1A21C
330
103
100
AcDbDictionary
  3
ADSK_XREC_LAYER_RECONCILED
360
1A21D
1001
ACAD
1000
TREAT_AS_HARD
1070
     1
  0
DICTIONARY
  5
1A220
330
25F
100
AcDbDictionary
  3
ADSK_XREC_LAYER_RECONCILED
360
1A221
1001
ACAD
1000
TREAT_AS_HARD
1070
     1
  0
DICTIONARY
  5
6E9
330
18
100
AcDbDictionary
  3
ACAD_SORTENTS
360
6EA
1001
ACAD
1000
TREAT_AS_HARD
1070
     1
  0
DICTIONARY
  5
59B
330
15
100
AcDbDictionary
  3
ACAD_SORTENTS
360
59C
1001
ACAD
1000
TREAT_AS_HARD
1070
     1
  0
XRECORD
  5
206F2
102
{ACAD_REACTORS
330
C
102
}
330
C
100
AcDbXrecord
300
ACDLT
300
2012
300
ACDLT_F_S
  0
DICTIONARY
  5
2D0
102
{ACAD_REACTORS
330
C
102
}
330
C
100
AcDbDictionary
1001
ACAD
1000
TREAT_AS_HARD
1070
     0
  0
DICTIONARY
  5
D
102
{ACAD_REACTORS
330
C
102
}
330
C
100
AcDbDictionary
1001
ACAD
1000
TREAT_AS_HARD
1070
     0
  0
DICTIONARY
  5
2D1
102
{ACAD_REACTORS
330
C
102
}
330
C
100
AcDbDictionary
1001
ACAD
1000
TREAT_AS_HARD
1070
     0
  0
DICTIONARY
  5
2CF
102
{ACAD_REACTORS
330
C
102
}
330
C
100
AcDbDictionary
  3
BYBLOCK
350
19DD5
  3
BYLAYER
350
19DCD
  3
GLOBAL
350
19DDD
1001
ACAD
1000
TREAT_AS_HARD
1070
     0
  0
DICTIONARY
  5
19E18
102
{ACAD_REACTORS
330
C
102
}
330
C
100
AcDbDictionary
  3
STANDARD
350
19E19
1001
ACAD
1000
TREAT_AS_HARD
1070
     0
  0
DICTIONARY
  5
1B
102
{ACAD_REACTORS
330
C
102
}
330
C
100
AcDbDictionary
  3
STANDARD
350
1C
1001
ACAD
1000
TREAT_AS_HARD
1070
     0
  0
DICTIONARY
  5
2D2
102
{ACAD_REACTORS
330
C
102
}
330
C
100
AcDbDictionary
1001
ACAD
1000
TREAT_AS_HARD
1070
     0
  0
DICTIONARY
  5
19DF6
102
{ACAD_REACTORS
330
C
102
}
330
C
100
AcDbDictionary
  3
A0
350
19DF7
  3
A1
350
19DF8
  3
A2
350
19DF9
  3
A3
350
19DFA
  3
A4
350
19DFB
  3
A5
350
19DFC
  3
A6
350
19DFD
  3
A7
350
19DFE
  3
A8
350
19DFF
  3
A9
350
19E00
  3
B0
350
19E01
  3
B1
350
19E02
  3
B2
350
19E03
  3
B3
350
19E04
  3
B4
350
19E05
  3
B5
350
19E06
  3
B6
350
19E07
  3
B7
350
19E08
  3
B8
350
19E09
  3
B9
350
19E0A
  3
C0
350
19E0B
  3
C1
350
19E0C
  3
C2
350
19E0D
  3
C3
350
19E0E
  3
C4
350
19E0F
  3
C5
350
19E10
  3
C6
350
19E11
  3
C7
350
19E12
  3
C8
350
19E13
  3
C9
350
19E14
  3
D0
350
19E15
  3
D1
350
19E16
  3
D2
350
19E17
1001
ACAD
1000
TREAT_AS_HARD
1070
     0
  0
DICTIONARY
  5
19DE5
102
{ACAD_REACTORS
330
C
102
}
330
C
100
AcDbDictionary
  3
2DWIREFRAME
350
19DEB
  3
3D_HIDDEN
350
19DED
  3
3DWIREFRAME
350
19DEC
  3
BASIC
350
19DEA
  3
BRIGHTEN
350
19DF1
  3
COLORCHANGE
350
19DF5
  3
CONCEPTUAL
350
19DEE
  3
DIM
350
19DF0
  3
EDGECOLOROFF
350
1E02A
  3
FACEPATTERN
350
19DF4
  3
FLAT
350
19DE6
  3
FLATWITHEDGES
350
19DE7
  3
GOURAUD
350
19DE8
  3
GOURAUDWITHEDGES
350
19DE9
  3
HIDDEN
350
1FE4A
  3
JITTEROFF
350
1E028
  3
LINEPATTERN
350
19DF3
  3
MODELING
350
2106D
  3
OVERHANGOFF
350
1E029
  3
REALISTIC
350
19DEF
  3
SHADED
350
1FE4F
  3
SHADED_WITH_EDGES
350
1FE4E
  3
SHADES_OF_GRAY
350
1FE4B
  3
SKETCHY
350
1FE4C
  3
THICKEN
350
19DF2
  3
WIREFRAME
350
1FE49
  3
X-RAY
350
1FE4D
1001
ACAD
1000
TREAT_AS_HARD
1070
     0
  0
DICTIONARY
  5
21C48
102
{ACAD_REACTORS
330
C
102
}
330
C
100
AcDbDictionary
  3
COLORDICT
350
21C49
  3
MATERIALDICT
350
21C4A
1001
ACAD
1000
TREAT_AS_HARD
1070
     0
  0
DICTIONARY
  5
37
102
{ACAD_REACTORS
330
C
102
}
330
C
100
AcDbDictionary
  3
CANNOSCALE
350
2106E
  3
CMLEADERSTYLE
350
1AC19
  3
CTABLESTYLE
350
4F1
  3
DIMADEC
350
38
  3
DIMASSOC
350
408
  3
HIDETEXT
350
1891
  3
INDEXCTL
350
1AC1C
  3
INTERSECTIONCOLOR
350
1895
  3
INTERSECTIONDISPLAY
350
1894
  3
MSLTSCALE
350
20667
  3
OBSCOLOR
350
1892
  3
OBSLTYPE
350
1893
  3
PROJECTNAME
350
409
  3
SORTENTS
350
1AC1B
  3
XCLIPFRAME
350
2106C
1001
ACAD
1000
TREAT_AS_HARD
1070
     0
  0
DICTIONARY
  5
D8
102
{ACAD_REACTORS
330
C
102
}
330
C
100
AcDbDictionary
1001
CONTENTTABDATA
1070
    11
1000
Child
1000
D:\ACLT\TABset\CHILDREN.dwg
1070
     0
1070
     0
1070
     1
1000
PK
1000
D:\ACLT\TABset\PK.dwg
1070
     0
1070
     0
1070
     1
1000
Lev1
1000
D:\ACLT\TABset\Lever01.dwg
1070
     0
1070
     0
1070
     1
1000
Lev2
1000
D:\ACLT\TABset\Lever02.dwg
1070
     0
1070
     0
1070
     1
1000
L3
1000
D:\Aclt\TABset\Lever03.dwg
1070
     0
1070
     0
1070
     1
1000
Form
1000
D:\ACLT\FORMAT
1070
     1
1070
     0
1070
     1
1000
Jnt
1000
D:\ACLT\TABset\JOINTPARTS.dwg
1070
     0
1070
     0
1070
     1
1000
ISO
1000
D:\ACLT\TABset\Isome01.dwg
1070
     0
1070
     0
1070
     1
1000
R
1000
D:\ACLT\TABset\REGION.dwg
1070
     0
1070
     0
1070
     1
1000
std
1000
D:\ACLT\TABset\std_sym_all.dwg
1070
     0
1070
     0
1070
     1
1000
丸
1000
D:\Aclt\TABset\MARU.dwg
1070
     0
1070
     0
1070
     1
1001
CONTENTCURRENTTAB
1070
     0
1001
ACAD
1000
TREAT_AS_HARD
1070
     0
  0
DICTIONARY
  5
20
102
{ACAD_REACTORS
330
C
102
}
330
C
100
AcDbDictionary
1001
DRAWINGVARIABLESXDATA
1000
POLARANG
1000
0.261799387799149410000000
1000
POLARMODE
1000
1
1000
POLARSTYLE
1000
1
1001
ACAD
1000
TREAT_AS_HARD
1070
     0
  0
XRECORD
  5
21C4B
102
{ACAD_REACTORS
330
C
102
}
330
C
100
AcDbXrecord
  1
DWGPROPS COOKIE
  2

  3

  4

  6

  7

  8
3684
  9

300
=
301
=
302
=
303
=
304
=
305
=
306
=
307
=
308
=
309
=
 40
0.0
 41
2453033.357663484
 42
2459555.042560058
  1

 90
        0
  0
DICTIONARY
  5
18FE9
102
{ACAD_REACTORS
330
18FE8
102
}
330
18FE8
100
AcDbDictionary
1001
ACAD
1000
TREAT_AS_HARD
1070
     0
  0
ACAD_PROXY_OBJECT
  5
1A20B
102
{ACAD_REACTORS
330
1A20A
102
}
330
1A20A
100
AcDbZombieObject
 90
      499
 91
      517
 93
       34
310
40C8804040
  0
ACAD_PROXY_OBJECT
  5
1A20D
102
{ACAD_REACTORS
330
1A20C
102
}
330
1A20C
100
AcDbZombieObject
 90
      499
 91
      517
 93
       34
310
40C8804040
  0
ACAD_PROXY_OBJECT
  5
1A20F
102
{ACAD_REACTORS
330
1A20E
102
}
330
1A20E
100
AcDbZombieObject
 90
      499
 91
      517
 93
       34
310
40C8804040
  0
ACAD_PROXY_OBJECT
  5
1A219
102
{ACAD_REACTORS
330
1A218
102
}
330
1A218
100
AcDbZombieObject
 90
      499
 91
      517
 93
       34
310
40C8804040
  0
ACAD_PROXY_OBJECT
  5
1A21D
102
{ACAD_REACTORS
330
1A21C
102
}
330
1A21C
100
AcDbZombieObject
 90
      499
 91
      517
 93
       34
310
40C8804040
  0
ACAD_PROXY_OBJECT
  5
1A221
102
{ACAD_REACTORS
330
1A220
102
}
330
1A220
100
AcDbZombieObject
 90
      499
 91
      517
 93
       34
310
40C8804040
  0
SORTENTSTABLE
  5
6EA
102
{ACAD_REACTORS
330
6E9
102
}
330
6E9
100
AcDbSortentsTable
330
18
331
20AB4
  5
20AE7
331
20AB9
  5
20AE8
331
20ABA
  5
20C4E
331
20ABB
  5
21363
331
20AD9
  5
213BE
331
20ADA
  5
213BF
331
20ADB
  5
213C0
331
20ADC
  5
213C1
331
20ADD
  5
213C2
331
20ADE
  5
213C3
331
20ADF
  5
213C4
331
20AE0
  5
213C5
331
20AE3
  5
213C6
331
20AE4
  5
213C7
331
20AE5
  5
213C8
331
20AE6
  5
213C9
331
20AE7
  5
213CA
331
20AE8
  5
213CB
331
0
  5
20C50
331
0
  5
20FF0
331
0
  5
2135F
331
0
  5
21360
331
2135F
  5
213EA
331
21360
  5
213EB
331
21361
  5
213F6
331
21362
  5
213F7
331
21363
  5
213FA
331
21364
  5
213FC
331
21365
  5
213FD
331
21366
  5
213FE
331
21367
  5
21453
331
21368
  5
21454
331
21369
  5
21455
331
2136A
  5
21456
331
2136B
  5
21457
331
2136C
  5
21458
331
2136D
  5
21459
331
2136E
  5
2145A
331
2136F
  5
2145B
331
21370
  5
2145C
331
21371
  5
2145D
331
21372
  5
2145E
331
21373
  5
2145F
331
21374
  5
21460
331
21375
  5
21461
331
21376
  5
21462
331
21377
  5
21463
331
21378
  5
21464
331
2139A
  5
21465
331
2139B
  5
21466
331
2139C
  5
21467
331
2139D
  5
21468
331
213A0
  5
21469
331
213A1
  5
2146A
331
213A4
  5
2146B
331
213B6
  5
2146C
331
213B7
  5
2146D
331
213B8
  5
2146E
331
213B9
  5
2146F
331
213BA
  5
21470
331
213BB
  5
21471
331
213BC
  5
21472
331
213BD
  5
21473
331
213BE
  5
21474
331
213BF
  5
21475
331
213C0
  5
21476
331
213C1
  5
21477
331
213C2
  5
21478
331
213C3
  5
21479
331
213C4
  5
2147A
331
213C5
  5
2147B
331
213C6
  5
2147C
331
213C7
  5
2147D
331
213C8
  5
2147E
331
213C9
  5
2147F
331
213CA
  5
21480
331
213CB
  5
21481
331
213CC
  5
21482
331
213CD
  5
21483
331
213CE
  5
21484
331
213CF
  5
21485
331
213D0
  5
21486
331
213D1
  5
21487
331
213D2
  5
21488
331
213D3
  5
21489
331
213D4
  5
2148A
331
213D5
  5
2148B
331
213D6
  5
2148C
331
213DB
  5
2148D
331
213DC
  5
2148E
331
213DD
  5
2148F
331
213DE
  5
21491
331
213E1
  5
21492
331
213E2
  5
21494
331
213E4
  5
21495
331
213E7
  5
21496
331
213E8
  5
21497
331
213E9
  5
21498
331
213EA
  5
21499
331
213EB
  5
2149E
331
213F6
  5
214AB
331
213F7
  5
214B3
331
213FA
  5
214ED
331
213FC
  5
214F1
331
213FD
  5
214F2
331
213FE
  5
214F3
331
21453
  5
214F4
331
21454
  5
216C1
331
21455
  5
216C2
331
21456
  5
216C3
331
21457
  5
216C4
331
21458
  5
216C5
331
21459
  5
216C6
331
2145A
  5
216C7
331
2145B
  5
216C8
331
2145C
  5
216C9
331
2145D
  5
216CA
331
2145E
  5
216CB
331
2145F
  5
216CC
331
21460
  5
216CD
331
21461
  5
216CE
331
21462
  5
216CF
331
21463
  5
216D0
331
21464
  5
216D1
331
21465
  5
216D2
331
21466
  5
216D3
331
21467
  5
216D4
331
21468
  5
216D5
331
21469
  5
216D6
331
2146A
  5
216D7
331
2146B
  5
216D8
331
2146C
  5
216D9
331
2146D
  5
216DA
331
2146E
  5
216DB
331
2146F
  5
216DC
331
21470
  5
216DD
331
21471
  5
216DE
331
21472
  5
216DF
331
21473
  5
216E0
331
21474
  5
216E1
331
21475
  5
216E2
331
21476
  5
216E3
331
21477
  5
216E4
331
21478
  5
216E5
331
21479
  5
216E6
331
2147A
  5
216E7
331
2147B
  5
216E8
331
2147C
  5
216E9
331
2147D
  5
216EA
331
2147E
  5
216EB
331
2147F
  5
216EC
331
21480
  5
216ED
331
21481
  5
216EE
331
21482
  5
216EF
331
21483
  5
216F0
331
21484
  5
216F1
331
21485
  5
216F2
331
21486
  5
216F3
331
21487
  5
216F4
331
21488
  5
216F5
331
21489
  5
216F6
331
2148A
  5
216F7
331
2148B
  5
216F8
331
2148C
  5
216F9
331
2148D
  5
216FA
331
2148E
  5
216FB
331
2148F
  5
216FC
331
21491
  5
216FF
331
21492
  5
21700
331
21494
  5
21703
331
21495
  5
21704
331
21496
  5
21705
331
21497
  5
21706
331
21498
  5
21791
331
21499
  5
21835
331
2149E
  5
21838
331
214AB
  5
21839
331
214B3
  5
2183A
331
214ED
  5
2183B
331
214F1
  5
2183E
331
214F2
  5
2183F
331
214F3
  5
21840
331
214F4
  5
21841
331
216C1
  5
21842
331
216C2
  5
21843
331
216C3
  5
21844
331
216C4
  5
21846
331
216C5
  5
21847
331
216C6
  5
2187C
331
216C7
  5
2187D
331
216C8
  5
2187E
331
216C9
  5
2187F
331
216CA
  5
21880
331
216CB
  5
21881
331
216CC
  5
21882
331
216CD
  5
21883
331
216CE
  5
21884
331
216CF
  5
21885
331
216D0
  5
21886
331
216D1
  5
21887
331
216D2
  5
21888
331
216D3
  5
21889
331
216D4
  5
2188A
331
216D5
  5
2188B
331
216D6
  5
2188C
331
216D7
  5
2188D
331
216D8
  5
2188E
331
216D9
  5
2188F
331
216DA
  5
21890
331
216DB
  5
21891
331
216DC
  5
21892
331
216DD
  5
21893
331
216DE
  5
21894
331
216DF
  5
21895
331
216E0
  5
21896
331
216E1
  5
21897
331
216E2
  5
21898
331
216E3
  5
21899
331
216E4
  5
2189A
331
216E5
  5
2189B
331
216E6
  5
2189C
331
216E7
  5
2189D
331
216E8
  5
2189E
331
216E9
  5
2189F
331
216EA
  5
218A0
331
216EB
  5
218A1
331
216EC
  5
218A2
331
216ED
  5
218A3
331
216EE
  5
218A4
331
216EF
  5
218A5
331
216F0
  5
218A6
331
216F1
  5
218A7
331
216F2
  5
218A8
331
216F3
  5
218A9
331
216F4
  5
218AA
331
216F5
  5
218AB
331
216F6
  5
218AC
331
216F7
  5
218AD
331
216F8
  5
218AE
331
216F9
  5
218AF
331
216FA
  5
218B0
331
216FB
  5
218B1
331
216FC
  5
218B2
331
216FD
  5
218B3
331
216FE
  5
218B4
331
216FF
  5
218B5
331
21700
  5
218B6
331
21701
  5
218B7
331
21702
  5
218B8
331
21703
  5
218B9
331
21704
  5
218BA
331
21705
  5
218BB
331
21706
  5
218BC
331
21791
  5
218BD
331
21835
  5
218BE
331
21838
  5
218BF
331
21839
  5
218C0
331
2183A
  5
218C1
331
2183B
  5
218FA
331
2183E
  5
218FB
331
2183F
  5
21900
331
21840
  5
21901
331
21841
  5
21902
331
21842
  5
21903
331
21843
  5
21982
331
21844
  5
21983
331
21846
  5
21984
331
21847
  5
21985
331
2187C
  5
21986
331
2187D
  5
21987
331
2187E
  5
21988
331
2187F
  5
21989
331
21880
  5
2198A
331
21881
  5
2198B
331
21882
  5
2198C
331
21883
  5
2198D
331
21884
  5
2198E
331
21885
  5
2198F
331
21886
  5
21990
331
21887
  5
21991
331
21888
  5
21992
331
21889
  5
21993
331
2188A
  5
21994
331
2188B
  5
21995
331
2188C
  5
21996
331
2188D
  5
21997
331
2188E
  5
21998
331
2188F
  5
21999
331
21890
  5
2199A
331
21891
  5
2199B
331
21892
  5
2199C
331
21893
  5
2199D
331
21894
  5
2199E
331
21895
  5
2199F
331
21896
  5
219A0
331
21897
  5
219A1
331
21898
  5
219A2
331
21899
  5
219A3
331
2189A
  5
219A4
331
2189B
  5
219A5
331
2189C
  5
219A6
331
2189D
  5
219A7
331
2189E
  5
219A8
331
2189F
  5
219A9
331
218A0
  5
219AA
331
218A1
  5
219AB
331
218A2
  5
219AC
331
218A3
  5
219AD
331
218A4
  5
219AE
331
218A5
  5
219AF
331
218A6
  5
219B0
331
218A7
  5
219B1
331
218A8
  5
219B2
331
218A9
  5
219B3
331
218AA
  5
219B4
331
218AB
  5
219B5
331
218AC
  5
219B6
331
218AD
  5
219B7
331
218AE
  5
219B8
331
218AF
  5
219B9
331
218B0
  5
219BA
331
218B1
  5
219BB
331
218B2
  5
219BC
331
218B3
  5
219BD
331
218B4
  5
219BE
331
218B5
  5
219BF
331
218B6
  5
219C0
331
218B7
  5
219C1
331
218B8
  5
219C2
331
218B9
  5
219C3
331
218BA
  5
219C4
331
218BB
  5
219C5
331
218BC
  5
219C6
331
218BD
  5
219D6
331
218BE
  5
219D8
331
218BF
  5
21A1B
331
218C0
  5
21A1C
331
218C1
  5
21A1D
331
0
  5
21904
331
0
  5
21981
331
21900
  5
21A23
331
21901
  5
21A24
331
21902
  5
21A25
331
21903
  5
21A26
331
21904
  5
21A27
331
21981
  5
21A28
331
21982
  5
21A29
331
21983
  5
21A2A
331
21984
  5
21A2B
331
21985
  5
21A2C
331
21986
  5
21A2D
331
21987
  5
21A89
331
21988
  5
21ACB
331
21989
  5
21ACC
331
2198A
  5
21ACD
331
2198B
  5
21BE6
331
2198C
  5
21BE7
331
2198D
  5
21BE9
331
2198E
  5
21BEA
331
2198F
  5
21BEB
331
21990
  5
21BEC
331
21991
  5
21BED
331
21992
  5
21BEE
331
21993
  5
21BEF
331
21994
  5
21BF0
331
21995
  5
21BF1
331
21996
  5
21BF2
331
21997
  5
21BF3
331
21998
  5
21BF4
331
21999
  5
21BF5
331
2199A
  5
21BF6
331
2199B
  5
21BF7
331
2199C
  5
21BF8
331
2199D
  5
21BF9
331
2199E
  5
21BFA
331
2199F
  5
21BFB
331
219A0
  5
21BFC
331
219A1
  5
21BFD
331
219A2
  5
21BFE
331
219A3
  5
21BFF
331
219A4
  5
21C00
331
219A5
  5
21C01
331
219A6
  5
21C02
331
219A7
  5
21C03
331
219A8
  5
21C04
331
219A9
  5
21C05
331
219AA
  5
21C06
331
219AB
  5
21C07
331
219AC
  5
21C08
331
219AD
  5
21C09
331
219AE
  5
21C0A
331
219AF
  5
21C0B
331
219B0
  5
21C0C
331
219B1
  5
21C0D
331
219B2
  5
21C0E
331
219B3
  5
21C0F
331
219B4
  5
21C10
331
219B5
  5
21C11
331
219B6
  5
21C12
331
219B7
  5
21C13
331
219B8
  5
21C14
331
219B9
  5
21C15
331
219BA
  5
21C16
331
219BB
  5
21C17
331
219BC
  5
21C1B
331
219BD
  5
21C1C
331
219BE
  5
21C1D
331
219BF
  5
21C1E
331
219C0
  5
21C1F
331
219C1
  5
21C20
331
219C2
  5
21C21
331
219C3
  5
21C22
331
219C4
  5
21C23
331
219C5
  5
21C24
331
219C6
  5
21C25
331
219D6
  5
21C26
331
219D8
  5
21C27
331
21A1B
  5
21C28
331
21A1C
  5
21C29
331
21A1D
  5
21C2A
331
21A1E
  5
21C2B
331
21A1F
  5
21C2C
331
21A20
  5
21C2D
331
21A21
  5
21C2E
331
21A22
  5
21C2F
331
21A23
  5
21C30
331
21A24
  5
21C31
331
21A25
  5
21C32
331
21A26
  5
21C33
331
21A27
  5
21C34
331
21A28
  5
21C35
331
21A29
  5
21C36
331
21A2A
  5
21C37
331
21A2B
  5
21C38
331
21A2C
  5
21C39
331
21A2D
  5
21C3A
331
0
  5
21BE8
331
21ACB
  5
21C45
331
21ACC
  5
21C46
331
21ACD
  5
21C47
331
21BE6
  5
213CE
331
21BE7
  5
213D1
331
21BE8
  5
216FD
331
21BE9
  5
216FE
331
21BEA
  5
21701
331
21BEB
  5
21702
331
21BEC
  5
20AB4
331
21BED
  5
20AB9
331
21BEE
  5
20ABA
331
0
  5
20ABB
331
0
  5
20AD9
331
0
  5
20ADA
331
21BF2
  5
21364
331
21BF3
  5
21365
331
21BF4
  5
21369
331
0
  5
20AE4
331
0
  5
20AE5
331
0
  5
20AE6
331
21BF8
  5
21371
331
21BF9
  5
21372
331
21BFA
  5
21373
331
0
  5
20C51
331
0
  5
21361
331
0
  5
21362
331
21BFE
  5
2139C
331
21BFF
  5
2139D
331
21C00
  5
213A0
331
0
  5
21366
331
0
  5
21367
331
0
  5
21368
331
21C04
  5
213CC
331
21C05
  5
213CD
331
21C06
  5
213CF
331
21C07
  5
213D0
331
21C08
  5
213D2
331
21C09
  5
213D3
331
21C0A
  5
213D4
331
21C0B
  5
213D5
331
21C0C
  5
213D6
331
21C0D
  5
213DB
331
21C0E
  5
213DC
331
21C0F
  5
213DD
331
0
  5
213BB
331
0
  5
213BC
331
0
  5
213BD
331
21C13
  5
21A1E
331
21C14
  5
21A1F
331
21C15
  5
21A20
331
21C16
  5
21A21
331
21C17
  5
21A22
331
21C18
  5
21C3B
331
21C19
  5
21C3C
331
21C1A
  5
21C3D
331
0
  5
21C18
331
0
  5
21C19
331
0
  5
21C1A
331
21C1E
  5
20ADB
331
21C1F
  5
20ADC
331
21C20
  5
20ADD
331
21C21
  5
20ADE
331
21C22
  5
20ADF
331
21C23
  5
20AE0
331
21C24
  5
20AE3
331
21C25
  5
2136A
331
21C26
  5
2136B
331
21C27
  5
2136C
331
21C28
  5
2136D
331
21C29
  5
2136E
331
21C2A
  5
2136F
331
21C2B
  5
21370
331
21C2C
  5
21374
331
21C2D
  5
21375
331
21C2E
  5
21376
331
21C2F
  5
21377
331
21C30
  5
21378
331
21C31
  5
2139A
331
21C32
  5
2139B
331
21C33
  5
213A1
331
21C34
  5
213A4
331
21C35
  5
213B6
331
21C36
  5
213B7
331
21C37
  5
213B8
331
21C38
  5
213B9
331
21C39
  5
213BA
331
21C3A
  5
213DE
331
21C3B
  5
213E1
331
21C3C
  5
213E2
331
21C3D
  5
213E4
331
21C3E
  5
213E7
331
21C3F
  5
213E8
331
21C40
  5
213E9
331
21C41
  5
21C3E
331
21C42
  5
21C3F
331
21C43
  5
21C40
331
21C44
  5
21C41
331
21C45
  5
21C42
331
21C46
  5
21C43
331
21C47
  5
21C44
  0
SORTENTSTABLE
  5
59C
102
{ACAD_REACTORS
330
59B
102
}
330
59B
100
AcDbSortentsTable
330
15
331
57
  5
57
331
0
  5
70
  0
MATERIAL
  5
19DD5
102
{ACAD_REACTORS
330
2CF
102
}
102
{ACAD_XDICTIONARY
360
21DE6
102
}
330
2CF
100
AcDbMaterial
  1
BYBLOCK
 72
     0
 73
     2
 43
0.0208333333333333
 43
0.0
 43
0.0
 43
0.0
 43
0.0
 43
0.0208333333333333
 43
0.0
 43
0.0
 43
0.0
 43
0.0
 43
1.0
 43
0.0
 43
0.0
 43
0.0
 43
0.0
 43
1.0
 77
     0
 78
     2
 47
0.0208333333333333
 47
0.0
 47
0.0
 47
0.0
 47
0.0
 47
0.0208333333333333
 47
0.0
 47
0.0
 47
0.0
 47
0.0
 47
1.0
 47
0.0
 47
0.0
 47
0.0
 47
0.0
 47
1.0
171
     0
172
     2
 49
0.0208333333333333
 49
0.0
 49
0.0
 49
0.0
 49
0.0
 49
0.0208333333333333
 49
0.0
 49
0.0
 49
0.0
 49
0.0
 49
1.0
 49
0.0
 49
0.0
 49
0.0
 49
0.0
 49
1.0
175
     0
176
     2
142
0.0208333333333333
142
0.0
142
0.0
142
0.0
142
0.0
142
0.0208333333333333
142
0.0
142
0.0
142
0.0
142
0.0
142
1.0
142
0.0
142
0.0
142
0.0
142
0.0
142
1.0
179
     0
270
     2
144
0.0208333333333333
144
0.0
144
0.0
144
0.0
144
0.0
144
0.0208333333333333
144
0.0
144
0.0
144
0.0
144
0.0
144
1.0
144
0.0
144
0.0
144
0.0
144
0.0
144
1.0
274
     2
147
0.0208333333333333
147
0.0
147
0.0
147
0.0
147
0.0
147
0.0208333333333333
147
0.0
147
0.0
147
0.0
147
0.0
147
1.0
147
0.0
147
0.0
147
0.0
147
0.0
147
1.0
  0
MATERIAL
  5
19DCD
102
{ACAD_REACTORS
330
2CF
102
}
102
{ACAD_XDICTIONARY
360
21DE8
102
}
330
2CF
100
AcDbMaterial
  1
BYLAYER
 72
     0
 73
     2
 43
0.0208333333333333
 43
0.0
 43
0.0
 43
0.0
 43
0.0
 43
0.0208333333333333
 43
0.0
 43
0.0
 43
0.0
 43
0.0
 43
1.0
 43
0.0
 43
0.0
 43
0.0
 43
0.0
 43
1.0
 77
     0
 78
     2
 47
0.0208333333333333
 47
0.0
 47
0.0
 47
0.0
 47
0.0
 47
0.0208333333333333
 47
0.0
 47
0.0
 47
0.0
 47
0.0
 47
1.0
 47
0.0
 47
0.0
 47
0.0
 47
0.0
 47
1.0
171
     0
172
     2
 49
0.0208333333333333
 49
0.0
 49
0.0
 49
0.0
 49
0.0
 49
0.0208333333333333
 49
0.0
 49
0.0
 49
0.0
 49
0.0
 49
1.0
 49
0.0
 49
0.0
 49
0.0
 49
0.0
 49
1.0
175
     0
176
     2
142
0.0208333333333333
142
0.0
142
0.0
142
0.0
142
0.0
142
0.0208333333333333
142
0.0
142
0.0
142
0.0
142
0.0
142
1.0
142
0.0
142
0.0
142
0.0
142
0.0
142
1.0
179
     0
270
     2
144
0.0208333333333333
144
0.0
144
0.0
144
0.0
144
0.0
144
0.0208333333333333
144
0.0
144
0.0
144
0.0
144
0.0
144
1.0
144
0.0
144
0.0
144
0.0
144
0.0
144
1.0
274
     2
147
0.0208333333333333
147
0.0
147
0.0
147
0.0
147
0.0
147
0.0208333333333333
147
0.0
147
0.0
147
0.0
147
0.0
147
1.0
147
0.0
147
0.0
147
0.0
147
0.0
147
1.0
  0
MATERIAL
  5
19DDD
102
{ACAD_REACTORS
330
2CF
102
}
102
{ACAD_XDICTIONARY
360
21DEA
102
}
330
2CF
100
AcDbMaterial
  1
GLOBAL
 72
     0
 73
     2
 43
0.0208333333333333
 43
0.0
 43
0.0
 43
0.0
 43
0.0
 43
0.0208333333333333
 43
0.0
 43
0.0
 43
0.0
 43
0.0
 43
1.0
 43
0.0
 43
0.0
 43
0.0
 43
0.0
 43
1.0
 77
     0
 78
     2
 47
0.0208333333333333
 47
0.0
 47
0.0
 47
0.0
 47
0.0
 47
0.0208333333333333
 47
0.0
 47
0.0
 47
0.0
 47
0.0
 47
1.0
 47
0.0
 47
0.0
 47
0.0
 47
0.0
 47
1.0
171
     0
172
     2
 49
0.0208333333333333
 49
0.0
 49
0.0
 49
0.0
 49
0.0
 49
0.0208333333333333
 49
0.0
 49
0.0
 49
0.0
 49
0.0
 49
1.0
 49
0.0
 49
0.0
 49
0.0
 49
0.0
 49
1.0
175
     0
176
     2
142
0.0208333333333333
142
0.0
142
0.0
142
0.0
142
0.0
142
0.0208333333333333
142
0.0
142
0.0
142
0.0
142
0.0
142
1.0
142
0.0
142
0.0
142
0.0
142
0.0
142
1.0
179
     0
270
     2
144
0.0208333333333333
144
0.0
144
0.0
144
0.0
144
0.0
144
0.0208333333333333
144
0.0
144
0.0
144
0.0
144
0.0
144
1.0
144
0.0
144
0.0
144
0.0
144
0.0
144
1.0
274
     2
147
0.0208333333333333
147
0.0
147
0.0
147
0.0
147
0.0
147
0.0208333333333333
147
0.0
147
0.0
147
0.0
147
0.0
147
1.0
147
0.0
147
0.0
147
0.0
147
0.0
147
1.0
  0
ACAD_PROXY_OBJECT
  5
19E19
102
{ACAD_REACTORS
330
19E18
102
}
330
19E18
100
AcDbZombieObject
 90
      499
 91
      512
 93
      610
310
40901902A4063FBFFFFFE000000000000002040AD7A3703D0AD73F4214DD185B99185C990000000000000104090141901A00000000000004100000000000000041025764000000000000300FC0
340
12
340
0
340
F
340
0
 94
        0
1001
ACAD_MLEADERVER
1070
     2
  0
MLINESTYLE
  5
1C
102
{ACAD_REACTORS
330
1B
102
}
330
1B
100
AcDbMlineStyle
  2
STANDARD
 70
     0
  3

 62
   256
 51
90.0
 52
90.0
 71
     2
 49
0.5
 62
   256
  6
BYLAYER
 49
-0.5
 62
   256
  6
BYLAYER
  0
ACAD_PROXY_OBJECT
  5
19DF7
102
{ACAD_REACTORS
330
19DF6
102
}
330
19DF6
100
AcDbZombieObject
 90
      499
 91
      511
 93
       41
310
903313A31580
  0
ACAD_PROXY_OBJECT
  5
19DF8
102
{ACAD_REACTORS
330
19DF6
102
}
330
19DF6
100
AcDbZombieObject
 90
      499
 91
      511
 93
      105
310
903313A324000000000000004000
  0
ACAD_PROXY_OBJECT
  5
19DF9
102
{ACAD_REACTORS
330
19DF6
102
}
330
19DF6
100
AcDbZombieObject
 90
      499
 91
      511
 93
      105
310
903313A344000000000000104000
  0
ACAD_PROXY_OBJECT
  5
19DFA
102
{ACAD_REACTORS
330
19DF6
102
}
330
19DF6
100
AcDbZombieObject
 90
      499
 91
      511
 93
      105
310
903313A354000000000000144000
  0
ACAD_PROXY_OBJECT
  5
19DFB
102
{ACAD_REACTORS
330
19DF6
102
}
330
19DF6
100
AcDbZombieObject
 90
      499
 91
      511
 93
      105
310
903313A384000000000000204000
  0
ACAD_PROXY_OBJECT
  5
19DFC
102
{ACAD_REACTORS
330
19DF6
102
}
330
19DF6
100
AcDbZombieObject
 90
      499
 91
      511
 93
      113
310
904313A31304000000000000244000
  0
ACAD_PROXY_OBJECT
  5
19DFD
102
{ACAD_REACTORS
330
19DF6
102
}
330
19DF6
100
AcDbZombieObject
 90
      499
 91
      511
 93
      113
310
904313A31364000000000000304000
  0
ACAD_PROXY_OBJECT
  5
19DFE
102
{ACAD_REACTORS
330
19DF6
102
}
330
19DF6
100
AcDbZombieObject
 90
      499
 91
      511
 93
      113
310
904313A32304000000000000344000
  0
ACAD_PROXY_OBJECT
  5
19DFF
102
{ACAD_REACTORS
330
19DF6
102
}
330
19DF6
100
AcDbZombieObject
 90
      499
 91
      511
 93
      113
310
904313A333040000000000003E4000
  0
ACAD_PROXY_OBJECT
  5
19E00
102
{ACAD_REACTORS
330
19DF6
102
}
330
19DF6
100
AcDbZombieObject
 90
      499
 91
      511
 93
      113
310
904313A34304000000000000444000
  0
ACAD_PROXY_OBJECT
  5
19E01
102
{ACAD_REACTORS
330
19DF6
102
}
330
19DF6
100
AcDbZombieObject
 90
      499
 91
      511
 93
      113
310
904313A35304000000000000494000
  0
ACAD_PROXY_OBJECT
  5
19E02
102
{ACAD_REACTORS
330
19DF6
102
}
330
19DF6
100
AcDbZombieObject
 90
      499
 91
      511
 93
      121
310
905313A3130304000000000000594000
  0
ACAD_PROXY_OBJECT
  5
19E03
102
{ACAD_REACTORS
330
19DF6
102
}
330
19DF6
100
AcDbZombieObject
 90
      499
 91
      511
 93
      105
310
903323A310000000000000010100
  0
ACAD_PROXY_OBJECT
  5
19E04
102
{ACAD_REACTORS
330
19DF6
102
}
330
19DF6
100
AcDbZombieObject
 90
      499
 91
      511
 93
      105
310
903343A310000000000000410100
  0
ACAD_PROXY_OBJECT
  5
19E05
102
{ACAD_REACTORS
330
19DF6
102
}
330
19DF6
100
AcDbZombieObject
 90
      499
 91
      511
 93
      105
310
903383A310000000000000810100
  0
ACAD_PROXY_OBJECT
  5
19E06
102
{ACAD_REACTORS
330
19DF6
102
}
330
19DF6
100
AcDbZombieObject
 90
      499
 91
      511
 93
      113
310
90431303A310000000000000910100
  0
ACAD_PROXY_OBJECT
  5
19E07
102
{ACAD_REACTORS
330
19DF6
102
}
330
19DF6
100
AcDbZombieObject
 90
      499
 91
      511
 93
      121
310
9053130303A310000000000001650100
  0
ACAD_PROXY_OBJECT
  5
19E08
102
{ACAD_REACTORS
330
19DF6
102
}
330
19DF6
100
AcDbZombieObject
 90
      499
 91
      511
 93
      257
310
90E312F31323822203D2031272D3022000000000000200FC000000000000284000
  0
ACAD_PROXY_OBJECT
  5
19E09
102
{ACAD_REACTORS
330
19DF6
102
}
330
19DF6
100
AcDbZombieObject
 90
      499
 91
      511
 93
      249
310
90D312F363422203D2031272D3022000000000000240FC000000000000284000
  0
ACAD_PROXY_OBJECT
  5
19E0A
102
{ACAD_REACTORS
330
19DF6
102
}
330
19DF6
100
AcDbZombieObject
 90
      499
 91
      511
 93
      249
310
90D312F333222203D2031272D3022000000000000280FC000000000000284000
  0
ACAD_PROXY_OBJECT
  5
19E0B
102
{ACAD_REACTORS
330
19DF6
102
}
330
19DF6
100
AcDbZombieObject
 90
      499
 91
      511
 93
      249
310
90D312F313622203D2031272D30220000000000002C0FC000000000000284000
  0
ACAD_PROXY_OBJECT
  5
19E0C
102
{ACAD_REACTORS
330
19DF6
102
}
330
19DF6
100
AcDbZombieObject
 90
      499
 91
      511
 93
      249
310
90D332F333222203D2031272D30220000000000002E0FC000000000000284000
  0
ACAD_PROXY_OBJECT
  5
19E0D
102
{ACAD_REACTORS
330
19DF6
102
}
330
19DF6
100
AcDbZombieObject
 90
      499
 91
      511
 93
      241
310
90C312F3822203D2031272D3022000000000000300FC000000000000284000
  0
ACAD_PROXY_OBJECT
  5
19E0E
102
{ACAD_REACTORS
330
19DF6
102
}
330
19DF6
100
AcDbZombieObject
 90
      499
 91
      511
 93
      249
310
90D332F313622203D2031272D3022000000000000320FC000000000000284000
  0
ACAD_PROXY_OBJECT
  5
19E0F
102
{ACAD_REACTORS
330
19DF6
102
}
330
19DF6
100
AcDbZombieObject
 90
      499
 91
      511
 93
      241
310
90C312F3422203D2031272D3022000000000000340FC000000000000284000
  0
ACAD_PROXY_OBJECT
  5
19E10
102
{ACAD_REACTORS
330
19DF6
102
}
330
19DF6
100
AcDbZombieObject
 90
      499
 91
      511
 93
      241
310
90C332F3822203D2031272D3022000000000000360FC000000000000284000
  0
ACAD_PROXY_OBJECT
  5
19E11
102
{ACAD_REACTORS
330
19DF6
102
}
330
19DF6
100
AcDbZombieObject
 90
      499
 91
      511
 93
      241
310
90C312F3222203D2031272D3022000000000000380FC000000000000284000
  0
ACAD_PROXY_OBJECT
  5
19E12
102
{ACAD_REACTORS
330
19DF6
102
}
330
19DF6
100
AcDbZombieObject
 90
      499
 91
      511
 93
      241
310
90C332F3422203D2031272D30220000000000003A0FC000000000000284000
  0
ACAD_PROXY_OBJECT
  5
19E13
102
{ACAD_REACTORS
330
19DF6
102
}
330
19DF6
100
AcDbZombieObject
 90
      499
 91
      511
 93
      161
310
90A3122203D2031272D30224000000000000284000
  0
ACAD_PROXY_OBJECT
  5
19E14
102
{ACAD_REACTORS
330
19DF6
102
}
330
19DF6
100
AcDbZombieObject
 90
      499
 91
      511
 93
      257
310
90E312D312F3222203D2031272D30220000000000003E0FC000000000000284000
  0
ACAD_PROXY_OBJECT
  5
19E15
102
{ACAD_REACTORS
330
19DF6
102
}
330
19DF6
100
AcDbZombieObject
 90
      499
 91
      511
 93
      225
310
90A3322203D2031272D302200000000000002100000000000000284000
  0
ACAD_PROXY_OBJECT
  5
19E16
102
{ACAD_REACTORS
330
19DF6
102
}
330
19DF6
100
AcDbZombieObject
 90
      499
 91
      511
 93
      225
310
90A3622203D2031272D302200000000000006100000000000000284000
  0
ACAD_PROXY_OBJECT
  5
19E17
102
{ACAD_REACTORS
330
19DF6
102
}
330
19DF6
100
AcDbZombieObject
 90
      499
 91
      511
 93
      249
310
90D31272D3022203D2031272D30220000000000000A100000000000000284000
  0
ACAD_PROXY_OBJECT
  5
19DEB
102
{ACAD_REACTORS
330
19DE5
102
}
330
19DE5
100
AcDbZombieObject
 90
      499
 91
      510
 93
      436
310
42CC9915DA5C99599C985B595049028333333333333E3BF0000000000000FB0107901411070040501600405405064090741402480A0340
1001
ACAD
1000
AcDbSavedByObjectVersion
1070
     0
  0
ACAD_PROXY_OBJECT
  5
19DED
102
{ACAD_REACTORS
330
19DE5
102
}
330
19DE5
100
AcDbZombieObject
 90
      499
 91
      510
 93
      500
310
424CD108121A5919195B90640502408333333333333E3BF0000000000000FB01079024090700405020000000000001110200405405064090740C02480A0340
1001
ACAD
1000
AcDbSavedByObjectVersion
1070
     0
  0
ACAD_PROXY_OBJECT
  5
19DEC
102
{ACAD_REACTORS
330
19DE5
102
}
330
19DE5
100
AcDbZombieObject
 90
      499
 91
      510
 93
      436
310
42CCD915DA5C99599C985B595059028333333333333E3BF0000000000000FB0107901411070040501600405405064090741402480A0340
1001
ACAD
1000
AcDbSavedByObjectVersion
1070
     0
  0
ACAD_PROXY_OBJECT
  5
19DEA
102
{ACAD_REACTORS
330
19DE5
102
}
330
19DE5
100
AcDbZombieObject
 90
      499
 91
      510
 93
      388
310
4150985CDA58D07406404333333333333E3BF0000000000000FB0107A41107004050150841D405064090741402480A0350
1001
ACAD
1000
AcDbSavedByObjectVersion
1070
     0
  0
ACAD_PROXY_OBJECT
  5
19DF1
102
{ACAD_REACTORS
330
19DE5
102
}
330
19DE5
100
AcDbZombieObject
 90
      499
 91
      510
 93
      428
310
42109C9A59DA1D195B90C409028333333333333E3BF0000000000000FB010790141107004050150841D405064090741402480A029950
1001
ACAD
1000
AcDbSavedByObjectVersion
1070
     0
  0
ACAD_PROXY_OBJECT
  5
19DF5
102
{ACAD_REACTORS
330
19DE5
102
}
330
19DE5
100
AcDbZombieObject
 90
      499
 91
      510
 93
      452
310
42D0DBDB1BDC90DA185B99D95104090240C333333333333E3BF0000000000000FB0108901411070040501508421405064090741402480A0350
1001
ACAD
1000
AcDbSavedByObjectVersion
1070
     0
  0
ACAD_PROXY_OBJECT
  5
19DEE
102
{ACAD_REACTORS
330
19DE5
102
}
330
19DE5
100
AcDbZombieObject
 90
      499
 91
      510
 93
      500
310
4290DBDB98D95C1D1D585B10940D028333333333333E3BF0000000000000FB0107902409070040501000000000000111010841D405064090740C02480A0340
1001
ACAD
1000
AcDbSavedByObjectVersion
1070
     0
  0
ACAD_PROXY_OBJECT
  5
19DF0
102
{ACAD_REACTORS
330
19DE5
102
}
330
19DE5
100
AcDbZombieObject
 90
      499
 91
      510
 93
      412
310
40D11A5B50B409028333333333333E3BF0000000000000FB010790141107004050150841D405064090741402480A02677FFFFFD0
1001
ACAD
1000
AcDbSavedByObjectVersion
1070
     0
  0
ACAD_PROXY_OBJECT
  5
1E02A
102
{ACAD_REACTORS
330
19DE5
102
}
330
19DE5
100
AcDbZombieObject
 90
      499
 91
      510
 93
      452
310
43115919D950DBDB1BDC93D999916409028333333333333E3BF0000000000000FB010790141107004050150841D405064090741402480A0350
1001
ACAD
1000
AcDbSavedByObjectVersion
1070
     0
  0
ACAD_PROXY_OBJECT
  5
19DF4
102
{ACAD_REACTORS
330
19DE5
102
}
330
19DE5
100
AcDbZombieObject
 90
      499
 91
      510
 93
      444
310
42D19858D95C185D1D195C9B90F409028333333333333E3BF0000000000000FB010790141107004050150841D405064090741402480A0350
1001
ACAD
1000
AcDbSavedByObjectVersion
1070
     0
  0
ACAD_PROXY_OBJECT
  5
19DE6
102
{ACAD_REACTORS
330
19DE5
102
}
330
19DE5
100
AcDbZombieObject
 90
      499
 91
      510
 93
      388
310
41119B185D240901404333333333333E3BF0000000000000F9010740A41107004050150841D405064090741402480A1B50
1001
ACAD
1000
AcDbSavedByObjectVersion
1070
     0
  0
ACAD_PROXY_OBJECT
  5
19DE7
102
{ACAD_REACTORS
330
19DE5
102
}
330
19DE5
100
AcDbZombieObject
 90
      499
 91
      510
 93
      476
310
43519B185D15DA5D1A115919D95CD0140901404333333333333E3BF0000000000000F9010740901411070040501600405405064090741402480A1B50
1001
ACAD
1000
AcDbSavedByObjectVersion
1070
     0
  0
ACAD_PROXY_OBJECT
  5
19DE8
102
{ACAD_REACTORS
330
19DE5
102
}
330
19DE5
100
AcDbZombieObject
 90
      499
 91
      510
 93
      412
310
41D1DBDD5C985D5910240902404333333333333E3BF0000000000000F9010740A411070040501641D405064090741402480A1B50
1001
ACAD
1000
AcDbSavedByObjectVersion
1070
     0
  0
ACAD_PROXY_OBJECT
  5
19DE9
102
{ACAD_REACTORS
330
19DE5
102
}
330
19DE5
100
AcDbZombieObject
 90
      499
 91
      510
 93
      500
310
4411DBDD5C985D5915DA5D1A115919D95CD0340902404333333333333E3BF0000000000000F9010740901411070040501600405405064090741402480A1B50
1001
ACAD
1000
AcDbSavedByObjectVersion
1070
     0
  0
ACAD_PROXY_OBJECT
  5
1FE4A
102
{ACAD_REACTORS
330
19DE5
102
}
330
19DE5
100
AcDbZombieObject
 90
      499
 91
      510
 93
      476
310
41921A5919195B90640502408333333333333E3BF0000000000000FB01079024090700405020000000000001110200405405064090740C02480A0340
1001
ACAD
1000
AcDbSavedByObjectVersion
1070
     0
  0
ACAD_PROXY_OBJECT
  5
1E028
102
{ACAD_REACTORS
330
19DE5
102
}
330
19DE5
100
AcDbZombieObject
 90
      499
 91
      510
 93
      428
310
42529A5D1D195C93D999914409028333333333333E3BF0000000000000FB010790141107004050150A41D405064090741402480A0350
1001
ACAD
1000
AcDbSavedByObjectVersion
1070
     0
  0
ACAD_PROXY_OBJECT
  5
19DF3
102
{ACAD_REACTORS
330
19DE5
102
}
330
19DE5
100
AcDbZombieObject
 90
      499
 91
      510
 93
      444
310
42D31A5B995C185D1D195C9B90E409028333333333333E3BF0000000000000FB010790141107004050750841D405064090741402483A0350
1001
ACAD
1000
AcDbSavedByObjectVersion
1070
     0
  0
ACAD_PROXY_OBJECT
  5
2106D
102
{ACAD_REACTORS
330
19DE5
102
}
330
19DE5
100
AcDbZombieObject
 90
      499
 91
      510
 93
      484
310
42135BD9195B1A5B99D0A409038333333333333E33F0000000000000F901074090290700405010000000000201990108421405064090741402480A1B40
1001
ACAD
1000
AcDbSavedByObjectVersion
1070
     0
  0
ACAD_PROXY_OBJECT
  5
1E029
102
{ACAD_REACTORS
330
19DE5
102
}
330
19DE5
100
AcDbZombieObject
 90
      499
 91
      510
 93
      444
310
42D3DD995C9A185B99D3D999915409028333333333333E3BF0000000000000FB010790141107004050150941D405064090741402480A0350
1001
ACAD
1000
AcDbSavedByObjectVersion
1070
     0
  0
ACAD_PROXY_OBJECT
  5
19DEF
102
{ACAD_REACTORS
330
19DE5
102
}
330
19DE5
100
AcDbZombieObject
 90
      499
 91
      510
 93
      420
310
425499585B1A5CDD1A58D08409028333333333333E3BF0000000000000FB01079019070040501508421405064090741402480A1B40
1001
ACAD
1000
AcDbSavedByObjectVersion
1070
     0
  0
ACAD_PROXY_OBJECT
  5
1FE4F
102
{ACAD_REACTORS
330
19DE5
102
}
330
19DE5
100
AcDbZombieObject
 90
      499
 91
      510
 93
      420
310
4194DA1859195911B40902404333333333333E3BF0000000000000F9010740A41107004050150800405405064090840C02480A0B40
1001
ACAD
1000
AcDbSavedByObjectVersion
1070
     0
  0
ACAD_PROXY_OBJECT
  5
1FE4E
102
{ACAD_REACTORS
330
19DE5
102
}
330
19DE5
100
AcDbZombieObject
 90
      499
 91
      510
 93
      516
310
4454DA18591959081DDA5D1A08195919D95CD1A40902404333333333333E3BF0000000000000F901074090142907004050250800405405064090740C02480A0B40
1001
ACAD
1000
AcDbSavedByObjectVersion
1070
     0
  0
ACAD_PROXY_OBJECT
  5
1FE4B
102
{ACAD_REACTORS
330
19DE5
102
}
330
19DE5
100
AcDbZombieObject
 90
      499
 91
      510
 93
      532
310
4394DA1859195CC81BD98811DC985E5174090240C333333333333E3BF0000000000000FB01079024090741D01000000000000111010841D405064090740C02480A0340
1001
ACAD
1000
AcDbSavedByObjectVersion
1070
     0
  0
ACAD_PROXY_OBJECT
  5
1FE4C
102
{ACAD_REACTORS
330
19DE5
102
}
330
19DE5
100
AcDbZombieObject
 90
      499
 91
      510
 93
      476
310
41D4DAD95D18DA1E51840502408333333333333E3BF0000000000000FB01079024090741D01000000000000111010B41D405064090741802480A0340
1001
ACAD
1000
AcDbSavedByObjectVersion
1070
     0
  0
ACAD_PROXY_OBJECT
  5
19DF2
102
{ACAD_REACTORS
330
19DE5
102
}
330
19DE5
100
AcDbZombieObject
 90
      499
 91
      510
 93
      412
310
41D51A1A58DAD95B90D409028333333333333E3BF0000000000000FB010790141107004050150C41D405064090741402480A0350
1001
ACAD
1000
AcDbSavedByObjectVersion
1070
     0
  0
ACAD_PROXY_OBJECT
  5
1FE49
102
{ACAD_REACTORS
330
19DE5
102
}
330
19DE5
100
AcDbZombieObject
 90
      499
 91
      510
 93
      420
310
4255DA5C99599C985B595059028333333333333E3BF0000000000000FB0107901411070040501600405405064090740C02480A0340
1001
ACAD
1000
AcDbSavedByObjectVersion
1070
     0
  0
ACAD_PROXY_OBJECT
  5
1FE4D
102
{ACAD_REACTORS
330
19DE5
102
}
330
19DE5
100
AcDbZombieObject
 90
      499
 91
      510
 93
      404
310
41560B54985E51940902404000000000000E03F0000000000000FB010740501907004050150841D405064090740C02480A1B40
1001
ACAD
1000
AcDbSavedByObjectVersion
1070
     0
  0
XRECORD
  5
21C49
102
{ACAD_REACTORS
330
21C48
102
}
330
21C48
100
AcDbXrecord
340
2D0
  0
XRECORD
  5
21C4A
102
{ACAD_REACTORS
330
21C48
102
}
330
21C48
100
AcDbXrecord
340
2CF
  0
DICTIONARYVAR
  5
2106E
102
{ACAD_REACTORS
330
37
102
}
330
37
100
DictionaryVariables
280
     0
  1
1:1
  0
DICTIONARYVAR
  5
1AC19
102
{ACAD_REACTORS
330
37
102
}
330
37
100
DictionaryVariables
280
     0
  1
Standard
  0
DICTIONARYVAR
  5
4F1
102
{ACAD_REACTORS
330
37
102
}
330
37
100
DictionaryVariables
280
     0
  1
Standard
  0
DICTIONARYVAR
  5
38
102
{ACAD_REACTORS
330
37
102
}
330
37
100
DictionaryVariables
280
     0
  1
-1
  0
DICTIONARYVAR
  5
408
102
{ACAD_REACTORS
330
37
102
}
330
37
100
DictionaryVariables
280
     0
  1
2
  0
DICTIONARYVAR
  5
1891
102
{ACAD_REACTORS
330
37
102
}
330
37
100
DictionaryVariables
280
     0
  1
1
  0
DICTIONARYVAR
  5
1AC1C
102
{ACAD_REACTORS
330
37
102
}
330
37
100
DictionaryVariables
280
     0
  1
0
  0
DICTIONARYVAR
  5
1895
102
{ACAD_REACTORS
330
37
102
}
330
37
100
DictionaryVariables
280
     0
  1
8
  0
DICTIONARYVAR
  5
1894
102
{ACAD_REACTORS
330
37
102
}
330
37
100
DictionaryVariables
280
     0
  1
1
  0
DICTIONARYVAR
  5
20667
102
{ACAD_REACTORS
330
37
102
}
330
37
100
DictionaryVariables
280
     0
  1
0
  0
DICTIONARYVAR
  5
1892
102
{ACAD_REACTORS
330
37
102
}
330
37
100
DictionaryVariables
280
     0
  1
8
  0
DICTIONARYVAR
  5
1893
102
{ACAD_REACTORS
330
37
102
}
330
37
100
DictionaryVariables
280
     0
  1
2
  0
DICTIONARYVAR
  5
409
102
{ACAD_REACTORS
330
37
102
}
330
37
100
DictionaryVariables
280
     0
  1

  0
DICTIONARYVAR
  5
1AC1B
102
{ACAD_REACTORS
330
37
102
}
330
37
100
DictionaryVariables
280
     0
  1
127
  0
DICTIONARYVAR
  5
2106C
102
{ACAD_REACTORS
330
37
102
}
330
37
100
DictionaryVariables
280
     0
  1
2
  0
DICTIONARY
  5
21DE6
330
19DD5
100
AcDbDictionary
  3
ACAD_XREC_ROUNDTRIP
360
21DE7
1001
ACAD
1000
TREAT_AS_HARD
1070
     1
  0
DICTIONARY
  5
21DE8
330
19DCD
100
AcDbDictionary
  3
ACAD_XREC_ROUNDTRIP
360
21DE9
1001
ACAD
1000
TREAT_AS_HARD
1070
     1
  0
DICTIONARY
  5
21DEA
330
19DDD
100
AcDbDictionary
  3
ACAD_XREC_ROUNDTRIP
360
21DEB
1001
ACAD
1000
TREAT_AS_HARD
1070
     1
  0
XRECORD
  5
21DE7
102
{ACAD_REACTORS
330
21DE6
102
}
330
21DE6
100
AcDbXrecord
102
MATERIAL
148
0.0
149
0.0
149
0.0
 93
        0
 94
      127
282
     0
 72
     0
 77
     0
171
     0
175
     0
179
     0
273
     0
  0
XRECORD
  5
21DE9
102
{ACAD_REACTORS
330
21DE8
102
}
330
21DE8
100
AcDbXrecord
102
MATERIAL
148
0.0
149
0.0
149
0.0
 93
        0
 94
      127
282
     0
 72
     0
 77
     0
171
     0
175
     0
179
     0
273
     0
  0
XRECORD
  5
21DEB
102
{ACAD_REACTORS
330
21DEA
102
}
330
21DEA
100
AcDbXrecord
102
MATERIAL
148
0.0
149
0.0
149
0.0
 93
        0
 94
      127
282
     0
 72
     0
 77
     0
171
     0
175
     0
179
     0
273
     0
  0
ENDSEC
  0
EOF
