  0
SECTION
  2
HEADER
  9
$ACADVER
  1
AC1009
  9
$DWGCODEPAGE
  3
ansi_932
  9
$INSBASE
 10
0.0
 20
0.0
 30
0.0
  9
$EXTMIN
 10
-2.306965609596841
 20
-734.4213610078866
 30
0.0
  9
$EXTMAX
 10
795.516241615365
 20
-473.3290934743441
 30
0.0
  9
$LIMMIN
 10
0.0
 20
0.0
  9
$LIMMAX
 10
420.0
 20
297.0
  9
$ORTHOMODE
 70
     0
  9
$REGENMODE
 70
     1
  9
$FILLMODE
 70
     1
  9
$QTEXTMODE
 70
     0
  9
$MIRRTEXT
 70
     0
  9
$DRAGMODE
 70
     2
  9
$LTSCALE
 40
0.5
  9
$OSMODE
 70
 14591
  9
$ATTMODE
 70
     1
  9
$TEXTSIZE
 40
4.0
  9
$TRACEWID
 40
1.0
  9
$TEXTSTYLE
  7
STANDARD
  9
$CLAYER
  8
1TEXT
  9
$CELTYPE
  6
BYLAYER
  9
$CECOLOR
 62
   256
  9
$DIMSCALE
 40
1.0
  9
$DIMASZ
 40
2.0
  9
$DIMEXO
 40
0.0
  9
$DIMDLI
 40
7.0
  9
$DIMRND
 40
0.0
  9
$DIMDLE
 40
0.0
  9
$DIMEXE
 40
1.0
  9
$DIMTP
 40
0.0
  9
$DIMTM
 40
0.0
  9
$DIMTXT
 40
3.5
  9
$DIMCEN
 40
0.0
  9
$DIMTSZ
 40
0.0
  9
$DIMTOL
 70
     0
  9
$DIMLIM
 70
     0
  9
$DIMTIH
 70
     0
  9
$DIMTOH
 70
     0
  9
$DIMSE1
 70
     0
  9
$DIMSE2
 70
     0
  9
$DIMTAD
 70
     1
  9
$DIMZIN
 70
     8
  9
$DIMBLK
  1

  9
$DIMASO
 70
     1
  9
$DIMSHO
 70
     1
  9
$DIMPOST
  1
 
  9
$DIMAPOST
  1

  9
$DIMALT
 70
     0
  9
$DIMALTD
 70
     2
  9
$DIMALTF
 40
25.4
  9
$DIMLFAC
 40
1.0
  9
$DIMTOFL
 70
     1
  9
$DIMTVP
 40
0.0
  9
$DIMTIX
 70
     0
  9
$DIMSOXD
 70
     0
  9
$DIMSAH
 70
     1
  9
$DIMBLK1
  1
OPEN30
  9
$DIMBLK2
  1
OPEN30
  9
$DIMSTYLE
  2
NEWX10
  9
$DIMCLRD
 70
   256
  9
$DIMCLRE
 70
   256
  9
$DIMCLRT
 70
   201
  9
$DIMTFAC
 40
0.7
  9
$DIMGAP
 40
0.7
  9
$LUNITS
 70
     2
  9
$LUPREC
 70
     4
  9
$SKETCHINC
 40
1.0
  9
$FILLETRAD
 40
1.2
  9
$AUNITS
 70
     0
  9
$AUPREC
 70
     2
  9
$MENU
  1
acad
  9
$ELEVATION
 40
0.0
  9
$PELEVATION
 40
0.0
  9
$THICKNESS
 40
0.0
  9
$LIMCHECK
 70
     0
  9
$CHAMFERA
 40
1.0
  9
$CHAMFERB
 40
1.0
  9
$SKPOLY
 70
     0
  9
$TDCREATE
 40
2453033.732663484
  9
$TDUPDATE
 40
2459762.416340405
  9
$TDINDWG
 40
2.5179327894
  9
$TDUSRTIMER
 40
2.5179327894
  9
$USRTIMER
 70
     1
  9
$ANGBASE
 50
0.0
  9
$ANGDIR
 70
     0
  9
$PDMODE
 70
     0
  9
$PDSIZE
 40
0.0
  9
$PLINEWID
 40
0.0
  9
$COORDS
 70
     2
  9
$SPLFRAME
 70
     0
  9
$SPLINETYPE
 70
     6
  9
$SPLINESEGS
 70
     8
  9
$ATTDIA
 70
     0
  9
$ATTREQ
 70
     1
  9
$HANDLING
 70
     1
  9
$HANDSEED
  5
221E4
  9
$SURFTAB1
 70
     6
  9
$SURFTAB2
 70
     6
  9
$SURFTYPE
 70
     6
  9
$SURFU
 70
     6
  9
$SURFV
 70
     6
  9
$UCSNAME
  2

  9
$UCSORG
 10
0.0
 20
0.0
 30
0.0
  9
$UCSXDIR
 10
1.0
 20
0.0
 30
0.0
  9
$UCSYDIR
 10
0.0
 20
1.0
 30
0.0
  9
$PUCSNAME
  2

  9
$PUCSORG
 10
0.0
 20
0.0
 30
0.0
  9
$PUCSXDIR
 10
1.0
 20
0.0
 30
0.0
  9
$PUCSYDIR
 10
0.0
 20
1.0
 30
0.0
  9
$USERI1
 70
     0
  9
$USERI2
 70
     0
  9
$USERI3
 70
     0
  9
$USERI4
 70
     0
  9
$USERI5
 70
     0
  9
$USERR1
 40
0.0
  9
$USERR2
 40
0.0
  9
$USERR3
 40
0.0
  9
$USERR4
 40
0.0
  9
$USERR5
 40
0.0
  9
$WORLDVIEW
 70
     1
  9
$SHADEDGE
 70
     3
  9
$SHADEDIF
 70
    70
  9
$TILEMODE
 70
     1
  9
$MAXACTVP
 70
    48
  9
$PLIMCHECK
 70
     0
  9
$PEXTMIN
 10
1.000000000000000E+20
 20
1.000000000000000E+20
 30
1.000000000000000E+20
  9
$PEXTMAX
 10
-1.000000000000000E+20
 20
-1.000000000000000E+20
 30
-1.000000000000000E+20
  9
$PLIMMIN
 10
0.0
 20
0.0
  9
$PLIMMAX
 10
420.0
 20
297.0
  9
$UNITMODE
 70
     0
  9
$VISRETAIN
 70
     1
  9
$PLINEGEN
 70
     0
  9
$PSLTSCALE
 70
     1
  0
ENDSEC
  0
SECTION
  2
TABLES
  0
TABLE
  2
VPORT
 70
     1
  0
VPORT
  2
*ACTIVE
 70
     0
 10
0.0
 20
0.0
 11
1.0
 21
1.0
 12
396.604638002884
 22
-603.8752272411153
 13
0.0
 23
0.0
 14
10.0
 24
10.0
 15
10.0
 25
10.0
 16
0.0
 26
0.0
 36
1.0
 17
0.0
 27
0.0
 37
0.0
 40
458.9183720509748
 41
1.866585067319461
 42
50.0
 43
0.0
 44
0.0
 50
0.0
 51
0.0
 71
    16
 72
   100
 73
     1
 74
     1
 75
     0
 76
     0
 77
     0
 78
     0
  0
ENDTAB
  0
TABLE
  2
LTYPE
 70
    18
  0
LTYPE
  2
CONTINUOUS
 70
     0
  3
Solid line
 72
    65
 73
     0
 40
0.0
  0
LTYPE
  2
CENTER2
 70
     0
  3
Center (.5x) ___ _ ___ _ ___ _ ___ _ ___ _ ___
 72
    65
 73
     4
 40
28.575
 49
19.05
 49
-3.175
 49
3.175
 49
-3.175
  0
LTYPE
  2
PHANTOM2
 70
     0
  3
Phantom (0.5x) ___ _ _ ___ _ _ ___ _ _ ___ _ _
 72
    65
 73
     6
 40
31.75
 49
15.875
 49
-3.175
 49
3.175
 49
-3.175
 49
3.175
 49
-3.175
  0
ENDTAB
  0
TABLE
  2
LAYER
 70
    44
  0
LAYER
  2
0
 70
     0
 62
     7
  6
CONTINUOUS
  0
LAYER
  2
1CENTER
 70
     0
 62
     7
  6
CENTER2
  0
LAYER
  2
1TEXT
 70
     0
 62
     7
  6
CONTINUOUS
  0
LAYER
  2
1DIM
 70
     0
 62
     7
  6
CONTINUOUS
  0
LAYER
  2
1PHANTOM
 70
     0
 62
     7
  6
PHANTOM2
  0
LAYER
  2
01
 70
     0
 62
     1
  6
CONTINUOUS
  0
LAYER
  2
1DIM1
 70
     0
 62
     7
  6
CONTINUOUS
  0
LAYER
  2
1HATCH
 70
     0
 62
     7
  6
CONTINUOUS
  0
ENDTAB
  0
TABLE
  2
STYLE
 70
    24
  0
STYLE
  2
STANDARD
 70
     0
 40
0.0
 41
1.0
 50
0.0
 71
     0
 42
4.0
  3
txt.shx
  4
extfont.shx
  0
ENDTAB
  0
TABLE
  2
VIEW
 70
     0
  0
ENDTAB
  0
TABLE
  2
UCS
 70
     0
  0
ENDTAB
  0
TABLE
  2
APPID
 70
    17
  0
APPID
  2
ACAD
 70
     0
  0
APPID
  2
DRAWINGVARIABLESXDATA
 70
     0
  0
APPID
  2
CONTENTTABDATA
 70
     0
  0
APPID
  2
CONTENTCURRENTTAB
 70
     0
  0
APPID
  2
CONTENTBLOCKDESCRIPTION
 70
     0
  0
APPID
  2
CONTENTBLOCKICON
 70
     0
  0
APPID
  2
CONTENTLONGBLOCKNAME
 70
     0
  0
APPID
  2
ACAD_PSEXT
 70
     0
  0
APPID
  2
ACAD_DSTYLE_DIMTEXT_FILL
 70
     0
  0
APPID
  2
ACAD_MLEADERVER
 70
     0
  0
APPID
  2
ACAD_DSTYLE_DIMRADIAL_EXTE
 70
     0
  0
APPID
  2
ACADANNOTATIVE
 70
     0
  0
APPID
  2
ACAD_EXEMPT_FROM_CAD_STAND
 70
     0
  0
APPID
  2
ACDBBLOCKREPETAG
 70
     0
  0
APPID
  2
ACAD_OBJECT_CHANGE_GUID
 70
     0
  0
APPID
  2
ACLAYERTOOLS
 70
     0
  0
APPID
  2
ACAD_NAV_VCDISPLAY
 70
     0
  0
ENDTAB
  0
TABLE
  2
DIMSTYLE
 70
    10
  0
DIMSTYLE
  2
NEWX10
 70
     0
  3
 
  4

  5

  6
OPEN30
  7
OPEN30
 40
1.0
 41
2.0
 42
0.0
 43
7.0
 44
1.0
 45
0.0
 46
0.0
 47
0.0
 48
0.0
140
3.5
141
0.0
142
0.0
143
25.4
144
1.0
145
0.0
146
0.7
147
0.7
 71
     0
 72
     0
 73
     0
 74
     0
 75
     0
 76
     0
 77
     1
 78
     8
170
     0
171
     2
172
     1
173
     1
174
     0
175
     0
176
   256
177
   256
178
   201
  0
ENDTAB
  0
ENDSEC
  0
SECTION
  2
BLOCKS
  0
BLOCK
  8
0
  2
$MODEL_SPACE
 70
     0
 10
0.0
 20
0.0
 30
0.0
  3
$MODEL_SPACE
  1

  0
ENDBLK
  5
1A
  8
0
  0
BLOCK
 67
     1
  8
0
  2
$PAPER_SPACE
 70
     0
 10
0.0
 20
0.0
 30
0.0
  3
$PAPER_SPACE
  1

  0
ENDBLK
  5
17
 67
     1
  8
0
  0
BLOCK
  8
0
  2
_OPEN30
 70
     0
 10
0.0
 20
0.0
 30
0.0
  3
_OPEN30
  1

  0
LINE
  5
44
  8
0
  6
BYBLOCK
 62
     0
 10
-1.0
 20
0.26794919
 30
0.0
 11
0.0
 21
0.0
 31
0.0
  0
LINE
  5
45
  8
0
  6
BYBLOCK
 62
     0
 10
0.0
 20
0.0
 30
0.0
 11
-1.0
 21
-0.26794919
 31
0.0
  0
LINE
  5
46
  8
0
  6
BYBLOCK
 62
     0
 10
0.0
 20
0.0
 30
0.0
 11
-1.0
 21
0.0
 31
0.0
  0
ENDBLK
  5
47
  8
0
  0
BLOCK
  8
0
  2
A3WAKUKAWAJUN2017_HYOUDAI_
 70
     0
 10
0.0
 20
0.0
 30
0.0
  3
A3WAKUKAWAJUN2017_HYOUDAI_
  1

  0
LINE
  5
20318
  8
0
 10
13.26299999998673
 20
-0.0001000000000317
 30
0.0
 11
9.236999999990758
 21
8.999899999990987
 31
0.0
1001
ACAD
1000
ASC_BOUNDS
1002
{
1070
    19
1005
20359
1002
}
  0
LINE
  5
20319
  8
0
 10
5.657999999994331
 20
0.9999999999989768
 30
0.0
 11
9.236999999990758
 21
8.999999999991019
 31
0.0
1001
ACAD
1000
ASC_BOUNDS
1002
{
1070
    19
1005
20359
1002
}
  0
LINE
  5
2031A
  8
0
 10
18.59199999998134
 20
-0.2368999999997641
 30
0.0
 11
16.46099999998353
 21
5.432899999994561
 31
0.0
1001
ACAD
1000
ASC_BOUNDS
1002
{
1070
    19
1005
2035A
1002
}
  0
LINE
  5
2031B
  8
0
 10
18.59199999998134
 20
-0.2368999999997641
 30
0.0
 11
22.38199999997767
 21
8.763099999991255
 31
0.0
1001
ACAD
1000
ASC_BOUNDS
1002
{
1070
    19
1005
2035A
1002
}
  0
LINE
  5
2031C
  8
0
 10
14.32899999998563
 20
-0.2368999999997641
 30
0.0
 11
16.46099999998353
 21
5.432899999994561
 31
0.0
1001
ACAD
1000
ASC_BOUNDS
1002
{
1070
    19
1005
2035A
1002
}
  0
LINE
  5
2031D
  8
0
 10
14.32899999998563
 20
-0.2368999999997641
 30
0.0
 11
10.53899999998941
 21
8.763099999991255
 31
0.0
1001
ACAD
1000
ASC_BOUNDS
1002
{
1070
    19
1005
2035A
1002
}
  0
LINE
  5
2031E
  8
0
 10
19.53899999998043
 20
-0.0001000000000317
 30
0.0
 11
23.56599999997638
 21
8.999899999990987
 31
0.0
1001
ACAD
1000
ASC_BOUNDS
1002
{
1070
    19
1005
2035B
1002
}
  0
LINE
  5
2031F
  8
0
 10
26.97358892824991
 20
1.383099999991202
 30
0.0
 11
23.56599999997638
 21
8.999899999990987
 31
0.0
1001
ACAD
1000
ASC_BOUNDS
1002
{
1070
    19
1005
2035B
1002
}
  0
LINE
  5
20320
  8
0
 10
5.657999999994331
 20
0.9999999999989768
 30
0.0
 11
3.181999999996833
 21
4.668599999995308
 31
0.0
1001
ACAD
1000
ASC_BOUNDS
1002
{
1070
    19
1005
20359
1002
}
  0
LINE
  5
20321
  8
0
 10
4.617999999995391
 20
-0.0001000000000317
 30
0.0
 11
1.420999999998571
 21
4.736799999995242
 31
0.0
1001
ACAD
1000
ASC_BOUNDS
1002
{
1070
    19
1005
20359
1002
}
  0
LINE
  5
20322
  8
0
 10
1.420999999998571
 20
8.763099999991255
 30
0.0
 11
1.420999999998571
 21
0.0
 31
0.0
1001
ACAD
1000
ASC_BOUNDS
1002
{
1070
    19
1005
2035E
1002
}
  0
LINE
  5
20323
  8
0
 10
0.0
 20
8.763099999991255
 30
0.0
 11
0.0
 21
0.0
 31
0.0
1001
ACAD
1000
ASC_BOUNDS
1002
{
1070
    19
1005
2035E
1002
}
  0
LINE
  5
20324
  8
0
 10
6.766999999993232
 20
-0.0001000000000317
 30
0.0
 11
7.826999999992154
 21
2.368399999997621
 31
0.0
1001
ACAD
1000
ASC_BOUNDS
1002
{
1070
    19
1005
20359
1002
}
  0
LINE
  5
20325
  8
0
 10
0.0
 20
0.0
 30
0.0
 11
1.420999999998571
 21
0.0
 31
0.0
1001
ACAD
1000
ASC_BOUNDS
1002
{
1070
    19
1005
2035E
1002
}
  0
LINE
  5
20326
  8
0
 10
4.617999999995391
 20
0.0
 30
0.0
 11
6.766999999993232
 21
0.0
 31
0.0
1001
ACAD
1000
ASC_BOUNDS
1002
{
1070
    19
1005
20359
1002
}
  0
LINE
  5
20327
  8
0
 10
11.70599999998831
 20
-0.0001000000000317
 30
0.0
 11
10.64699999998936
 21
2.368399999997621
 31
0.0
1001
ACAD
1000
ASC_BOUNDS
1002
{
1070
    19
1005
20359
1002
}
  0
LINE
  5
20328
  8
0
 10
7.826999999992154
 20
2.368399999997621
 30
0.0
 11
10.64699999998936
 21
2.368399999997621
 31
0.0
1001
ACAD
1000
ASC_BOUNDS
1002
{
1070
    19
1005
20359
1002
}
  0
LINE
  5
20329
  8
0
 10
11.70599999998831
 20
0.0
 30
0.0
 11
13.26299999998673
 21
0.0
 31
0.0
1001
ACAD
1000
ASC_BOUNDS
1002
{
1070
    19
1005
20359
1002
}
  0
LINE
  5
2032A
  8
0
 10
22.15599999997789
 20
2.368399999997621
 30
0.0
 11
24.97599999997499
 21
2.368399999997621
 31
0.0
1001
ACAD
1000
ASC_BOUNDS
1002
{
1070
    19
1005
2035B
1002
}
  0
LINE
  5
2032B
  8
0
 10
19.53899999998043
 20
0.0
 30
0.0
 11
21.09599999997886
 21
0.0
 31
0.0
1001
ACAD
1000
ASC_BOUNDS
1002
{
1070
    19
1005
2035B
1002
}
  0
LINE
  5
2032C
  8
0
 10
21.09599999997886
 20
-0.0001000000000317
 30
0.0
 11
22.15599999997789
 21
2.368399999997621
 31
0.0
1001
ACAD
1000
ASC_BOUNDS
1002
{
1070
    19
1005
2035B
1002
}
  0
LINE
  5
2032D
  8
0
 10
26.02015566812236
 20
0.0330999999912365
 30
0.0
 11
24.97599999997499
 21
2.368399999997621
 31
0.0
1001
ACAD
1000
ASC_BOUNDS
1002
{
1070
    19
1005
2035B
1002
}
  0
LINE
  5
2032E
  8
0
 10
14.32399999998563
 20
3.315799999996671
 30
0.0
 11
16.46099999998353
 21
8.999899999990987
 31
0.0
1001
ACAD
1000
ASC_BOUNDS
1002
{
1070
    19
1005
2035A
1002
}
  0
LINE
  5
2032F
  8
0
 10
6.432999999993513
 20
8.763099999991255
 30
0.0
 11
3.181999999996833
 21
4.668599999995308
 31
0.0
1001
ACAD
1000
ASC_BOUNDS
1002
{
1070
    19
1005
20359
1002
}
  0
LINE
  5
20330
  8
0
 10
4.617999999995391
 20
8.763099999991255
 30
0.0
 11
1.420999999998571
 21
4.736799999995242
 31
0.0
1001
ACAD
1000
ASC_BOUNDS
1002
{
1070
    19
1005
20359
1002
}
  0
LINE
  5
20331
  8
0
 10
0.0
 20
8.763099999991255
 30
0.0
 11
1.420999999998571
 21
8.763099999991255
 31
0.0
1001
ACAD
1000
ASC_BOUNDS
1002
{
1070
    19
1005
2035E
1002
}
  0
LINE
  5
20332
  8
0
 10
4.617999999995391
 20
8.763099999991255
 30
0.0
 11
6.432999999993513
 21
8.763099999991255
 31
0.0
1001
ACAD
1000
ASC_BOUNDS
1002
{
1070
    19
1005
20359
1002
}
  0
LINE
  5
20333
  8
0
 10
14.32399999998563
 20
3.315799999996671
 30
0.0
 11
12.02999999998792
 21
8.763099999991255
 31
0.0
1001
ACAD
1000
ASC_BOUNDS
1002
{
1070
    19
1005
2035A
1002
}
  0
LINE
  5
20334
  8
0
 10
10.06399999998996
 20
3.670999999996297
 30
0.0
 11
9.236999999990758
 21
5.5200999999945
 31
0.0
1001
ACAD
1000
ASC_BOUNDS
1002
{
1070
    19
1005
20359
1002
}
  0
LINE
  5
20335
  8
0
 10
8.409999999991555
 20
3.670999999996297
 30
0.0
 11
9.236999999990758
 21
5.5200999999945
 31
0.0
1001
ACAD
1000
ASC_BOUNDS
1002
{
1070
    19
1005
20359
1002
}
  0
LINE
  5
20336
  8
0
 10
8.409999999991555
 20
3.670999999996297
 30
0.0
 11
10.06399999998996
 21
3.670999999996297
 31
0.0
1001
ACAD
1000
ASC_BOUNDS
1002
{
1070
    19
1005
20359
1002
}
  0
LINE
  5
20337
  8
0
 10
10.53899999998941
 20
8.763099999991255
 30
0.0
 11
12.02999999998792
 21
8.763099999991255
 31
0.0
1001
ACAD
1000
ASC_BOUNDS
1002
{
1070
    19
1005
2035A
1002
}
  0
LINE
  5
20338
  8
0
 10
22.7389999999773
 20
3.670999999996297
 30
0.0
 11
23.56599999997638
 21
5.5200999999945
 31
0.0
1001
ACAD
1000
ASC_BOUNDS
1002
{
1070
    19
1005
2035B
1002
}
  0
LINE
  5
20339
  8
0
 10
22.7389999999773
 20
3.670999999996297
 30
0.0
 11
24.39299999997559
 21
3.670999999996297
 31
0.0
1001
ACAD
1000
ASC_BOUNDS
1002
{
1070
    19
1005
2035B
1002
}
  0
LINE
  5
2033A
  8
0
 10
18.59799999998143
 20
3.315799999996671
 30
0.0
 11
20.89099999997916
 21
8.763099999991255
 31
0.0
1001
ACAD
1000
ASC_BOUNDS
1002
{
1070
    19
1005
2035A
1002
}
  0
LINE
  5
2033B
  8
0
 10
18.59799999998143
 20
3.315799999996671
 30
0.0
 11
16.46099999998353
 21
8.999899999990987
 31
0.0
1001
ACAD
1000
ASC_BOUNDS
1002
{
1070
    19
1005
2035A
1002
}
  0
LINE
  5
2033C
  8
0
 10
20.89099999997916
 20
8.763099999991255
 30
0.0
 11
22.38199999997767
 21
8.763099999991255
 31
0.0
1001
ACAD
1000
ASC_BOUNDS
1002
{
1070
    19
1005
2035A
1002
}
  0
LINE
  5
2033D
  8
0
 10
24.39299999997559
 20
3.670999999996297
 30
0.0
 11
23.56599999997638
 21
5.5200999999945
 31
0.0
1001
ACAD
1000
ASC_BOUNDS
1002
{
1070
    19
1005
2035B
1002
}
  0
LINE
  5
2033E
  8
0
 10
44.99999999995498
 20
-0.2368999999997641
 30
0.0
 11
40.02599999995994
 21
5.341799999994635
 31
0.0
1001
ACAD
1000
ASC_BOUNDS
1002
{
1070
    19
1005
2035D
1002
}
  0
LINE
  5
2033F
  8
0
 10
40.02599999995994
 20
5.341799999994635
 30
0.0
 11
40.02599999995994
 21
0.0
 31
0.0
1001
ACAD
1000
ASC_BOUNDS
1002
{
1070
    19
1005
2035D
1002
}
  0
LINE
  5
20340
  8
0
 10
38.60499999996136
 20
8.999999999991019
 30
0.0
 11
38.60499999996136
 21
0.0
 31
0.0
1001
ACAD
1000
ASC_BOUNDS
1002
{
1070
    19
1005
2035D
1002
}
  0
LINE
  5
20341
  8
0
 10
44.99999999995498
 20
8.763099999991255
 30
0.0
 11
44.99999999995498
 21
-0.2368999999997641
 31
0.0
1001
ACAD
1000
ASC_BOUNDS
1002
{
1070
    19
1005
2035D
1002
}
  0
LINE
  5
20342
  8
0
 10
38.60499999996136
 20
0.0
 30
0.0
 11
40.02599999995994
 21
0.0
 31
0.0
1001
ACAD
1000
ASC_BOUNDS
1002
{
1070
    19
1005
2035D
1002
}
  0
LINE
  5
20343
  8
0
 10
43.57899999995641
 20
3.421199999996588
 30
0.0
 11
38.60499999996136
 21
8.999899999990987
 31
0.0
1001
ACAD
1000
ASC_BOUNDS
1002
{
1070
    19
1005
2035D
1002
}
  0
LINE
  5
20344
  8
0
 10
43.57899999995641
 20
8.763099999991255
 30
0.0
 11
43.57899999995641
 21
3.421199999996588
 31
0.0
1001
ACAD
1000
ASC_BOUNDS
1002
{
1070
    19
1005
2035D
1002
}
  0
LINE
  5
20345
  8
0
 10
43.57899999995641
 20
8.763099999991255
 30
0.0
 11
44.99999999995498
 21
8.763099999991255
 31
0.0
1001
ACAD
1000
ASC_BOUNDS
1002
{
1070
    19
1005
2035D
1002
}
  0
LINE
  5
20346
  8
0
 10
37.67199999996831
 20
8.763099999991255
 30
0.0
 11
36.23199999996837
 21
8.763099999991255
 31
0.0
  0
LINE
  5
20347
  8
0
 10
31.64199999996833
 20
8.763099999991255
 30
0.0
 11
31.64199999996833
 21
2.481619422925121
 31
0.0
  0
LINE
  5
20348
  8
0
 10
37.67199999996831
 20
8.763099999991255
 30
0.0
 11
37.67199999996831
 21
2.481619422925121
 31
0.0
  0
LINE
  5
20349
  8
0
 10
36.23199999996837
 20
8.763099999991255
 30
0.0
 11
36.23199999996837
 21
2.481619422925064
 31
0.0
  0
LINE
  5
2034A
  8
0
 10
33.08199999996839
 20
8.763099999991255
 30
0.0
 11
33.08199999996839
 21
2.481619422925121
 31
0.0
  0
ARC
  5
2034B
  8
0
 10
34.65699999996832
 20
3.183099999991214
 30
0.0
 40
3.420000000000007
 50
240.0000000000255
 51
299.9999999999766
  0
ARC
  5
2034C
  8
0
 10
34.65699999996832
 20
3.183099999991214
 30
0.0
 40
1.97999999999999
 50
240.000000000026
 51
299.9999999999703
  0
LINE
  5
2034D
  8
0
 10
33.08199999996828
 20
8.763099999991255
 30
0.0
 11
31.64199999996833
 21
8.763099999991255
 31
0.0
  0
ARC
  5
2034E
  8
0
 10
35.06199999996829
 20
2.481619422925064
 30
0.0
 40
1.17
 50
299.9999999999699
 51
0.0
  0
ARC
  5
2034F
  8
0
 10
34.25199999996835
 20
2.481619422925121
 30
0.0
 40
1.17
 50
180.0
 51
240.0000000000238
  0
ARC
  5
20350
  8
0
 10
35.06199999996841
 20
2.481619422925121
 30
0.0
 40
2.61
 50
299.9999999999756
 51
0.0
  0
ARC
  5
20351
  8
0
 10
34.25199999996835
 20
2.481619422925121
 30
0.0
 40
2.61
 50
180.0
 51
240.0000000000244
  0
LINE
  5
20352
  8
0
 10
29.30199999996933
 20
8.763099999991255
 30
0.0
 11
30.74199999996927
 21
8.763099999991255
 31
0.0
1001
ACAD
1000
ASC_BOUNDS
1002
{
1070
    19
1005
2035B
1002
}
  0
LINE
  5
20353
  8
0
 10
30.74199999996927
 20
8.763099999991255
 30
0.0
 11
30.74199999996927
 21
2.373099999991211
 31
0.0
1001
ACAD
1000
ASC_BOUNDS
1002
{
1070
    19
1005
2035B
1002
}
  0
LINE
  5
20354
  8
0
 10
26.02015566812236
 20
0.0330999999912365
 30
0.0
 11
28.40199999996923
 21
0.0330999999912365
 31
0.0
1001
ACAD
1000
ASC_BOUNDS
1002
{
1070
    19
1005
2035B
1002
}
  0
LINE
  5
20355
  8
0
 10
29.30199999996933
 20
8.763099999991255
 30
0.0
 11
29.30199999996933
 21
2.283099999991236
 31
0.0
1001
ACAD
1000
ASC_BOUNDS
1002
{
1070
    19
1005
2035B
1002
}
  0
LINE
  5
20356
  8
0
 10
26.97358892824991
 20
1.383099999991202
 30
0.0
 11
28.40199999996923
 21
1.383099999991202
 31
0.0
1001
ACAD
1000
ASC_BOUNDS
1002
{
1070
    19
1005
2035B
1002
}
  0
ARC
  5
20357
  8
0
 10
28.40199999996923
 20
2.283099999991236
 30
0.0
 40
0.9
 50
270.0
 51
0.0
1001
ACAD
1000
ASC_BOUNDS
1002
{
1070
    19
1005
2035B
1002
}
  0
ARC
  5
20358
  8
0
 10
28.40199999996923
 20
2.373099999991211
 30
0.0
 40
2.34
 50
270.0
 51
0.0
1001
ACAD
1000
ASC_BOUNDS
1002
{
1070
    19
1005
2035B
1002
}
  0
INSERT
  5
20359
  8
0
  2
*X58
 10
0.0
 20
0.0
 30
0.0
1001
ACAD
1000
HATCH
1002
{
1070
    19
1000
ANSI37
1040
0.15
1040
0.0
1000
ASC_BOUNDS
1070
     2
1070
     2
1070
    12
1005
20318
1005
20319
1005
20320
1005
2032F
1005
20332
1005
20330
1005
20321
1005
20326
1005
20324
1005
20328
1005
20327
1005
20329
1070
     2
1070
     3
1005
20334
1005
20336
1005
20335
1000
ASC_SEEDPOINT
1011
3.614004224891801
1021
2.996669441146025
1031
0.0
1021
2.996669441146025
1031
0.0
1000
R14_HATCH_DATA
1000
20359
1011
1.0
1021
0.0
1031
0.0
1021
0.0
1031
0.0
1011
0.0
1021
1.0
1031
0.0
1021
1.0
1031
0.0
1011
0.0
1021
0.0
1031
1.0
1021
0.0
1031
1.0
1040
0.0
1010
0.0
1020
0.0
1030
1.0
1000
ANSI37
1070
     0
1070
     1
1071
        2
1071
        7
1070
     0
1070
     1
1071
       17
1040
13.26299999998673
1040
-0.0001000000000317
1040
9.236999999990758
1040
8.999899999990987
1040
9.236999999990758
1040
8.999999999991019
1040
5.657999999994331
1040
0.9999999999989768
1040
3.181999999996833
1040
4.668599999995308
1040
6.432999999993513
1040
8.763099999991255
1040
4.617999999995391
1040
8.763099999991255
1040
1.420999999998571
1040
4.736799999995242
1040
4.617999999995391
1040
-0.0001000000000317
1040
4.617999999995391
1040
0.0
1040
6.766999999993232
1040
0.0
1040
6.766999999993232
1040
-0.0001000000000317
1040
7.826999999992154
1040
2.368399999997621
1040
10.64699999998936
1040
2.368399999997621
1040
11.70599999998831
1040
-0.0001000000000317
1040
11.70599999998831
1040
0.0
1040
13.26299999998673
1040
0.0
1071
       12
1005
20318
1005
20319
1005
20320
1005
2032F
1005
20332
1005
20330
1005
20321
1005
20326
1005
20324
1005
20328
1005
20327
1005
20329
1071
       22
1070
     0
1070
     1
1071
        3
1040
9.236999999990758
1040
5.5200999999945
1040
10.06399999998996
1040
3.670999999996297
1040
8.409999999991555
1040
3.670999999996297
1071
        3
1005
20334
1005
20336
1005
20335
1070
     0
1070
     1
1040
0.0
1040
0.15
1070
     0
1070
     2
1040
0.7853981633974483
1040
49.29960901727088
1040
-10.17736998311392
1040
-0.3367596045400932
1040
0.3367596045400932
1070
     0
1040
2.356194490192345
1040
49.29960901727088
1040
-10.17736998311392
1040
-0.3367596045400932
1040
-0.3367596045400932
1070
     0
1040
0.0110235143455945
1071
        2
1040
3.614004224891801
1040
2.996669441146025
1040
0.0
1040
3.614004224891801
1040
2.996669441146025
1040
0.0
1002
}
  0
INSERT
  5
2035A
  8
0
  2
*X59
 10
0.0
 20
0.0
 30
0.0
1001
ACAD
1000
HATCH
1002
{
1070
    19
1000
ANSI37
1040
0.15
1040
0.0
1000
ASC_BOUNDS
1070
     1
1070
     2
1070
    10
1005
2031A
1005
2031B
1005
2033C
1005
2033A
1005
2033B
1005
2032E
1005
20333
1005
20337
1005
2031D
1005
2031C
1000
ASC_SEEDPOINT
1011
14.73245321214324
1021
2.798246178283421
1031
0.0
1021
2.798246178283421
1031
0.0
1000
R14_HATCH_DATA
1000
2035A
1011
1.0
1021
0.0
1031
0.0
1021
0.0
1031
0.0
1011
0.0
1021
1.0
1031
0.0
1021
1.0
1031
0.0
1011
0.0
1021
0.0
1031
1.0
1021
0.0
1031
1.0
1040
0.0
1010
0.0
1020
0.0
1030
1.0
1000
ANSI37
1070
     0
1070
     1
1071
        1
1071
        7
1070
     0
1070
     1
1071
       10
1040
16.46099999998353
1040
5.432899999994561
1040
18.59199999998134
1040
-0.2368999999997641
1040
22.38199999997767
1040
8.763099999991255
1040
20.89099999997916
1040
8.763099999991255
1040
18.59799999998143
1040
3.315799999996671
1040
16.46099999998353
1040
8.999899999990987
1040
14.32399999998563
1040
3.315799999996671
1040
12.02999999998792
1040
8.763099999991255
1040
10.53899999998941
1040
8.763099999991255
1040
14.32899999998563
1040
-0.2368999999997641
1071
       10
1005
2031A
1005
2031B
1005
2033C
1005
2033A
1005
2033B
1005
2032E
1005
20333
1005
20337
1005
2031D
1005
2031C
1070
     0
1070
     1
1040
0.0
1040
0.15
1070
     0
1070
     2
1040
0.7853981633974483
1040
49.29960901727088
1040
-10.17736998311392
1040
-0.3367596045400932
1040
0.3367596045400932
1070
     0
1040
2.356194490192345
1040
49.29960901727088
1040
-10.17736998311392
1040
-0.3367596045400932
1040
-0.3367596045400932
1070
     0
1040
0.0110235143455945
1071
        1
1040
14.73245321214324
1040
2.798246178283421
1040
0.0
1002
}
  0
INSERT
  5
2035B
  8
0
  2
*X60
 10
0.0
 20
0.0
 30
0.0
1001
ACAD
1000
HATCH
1002
{
1070
    19
1000
ANSI37
1040
0.15
1040
0.0
1000
ASC_BOUNDS
1070
     2
1070
     2
1070
    13
1005
2031E
1005
2032B
1005
2032C
1005
2032A
1005
2032D
1005
20354
1005
20358
1005
20353
1005
20352
1005
20355
1005
20357
1005
20356
1005
2031F
1070
     2
1070
     3
1005
20338
1005
2033D
1005
20339
1000
ASC_SEEDPOINT
1011
21.97929957367762
1021
3.294304244259308
1031
0.0
1021
3.294304244259308
1031
0.0
1000
R14_HATCH_DATA
1000
2035B
1011
1.0
1021
0.0
1031
0.0
1021
0.0
1031
0.0
1011
0.0
1021
1.0
1031
0.0
1021
1.0
1031
0.0
1011
0.0
1021
0.0
1031
1.0
1021
0.0
1031
1.0
1040
0.0
1010
0.0
1020
0.0
1030
1.0
1000
ANSI37
1070
     0
1070
     1
1071
        2
1071
        7
1070
     1
1070
     1
1071
       15
1040
23.56599999997638
1040
8.999899999990987
1040
0.0
1040
19.53899999998043
1040
-0.0001000000000317
1040
0.0
1040
19.53899999998043
1040
0.0
1040
0.0
1040
21.09599999997886
1040
0.0
1040
0.0
1040
21.09599999997886
1040
-0.0001000000000317
1040
0.0
1040
22.15599999997789
1040
2.368399999997621
1040
0.0
1040
24.97599999997499
1040
2.368399999997621
1040
0.0
1040
26.02015566812236
1040
0.0330999999912365
1040
0.0
1040
28.40199999996923
1040
0.0330999999912365
1040
0.414213562373095
1040
30.74199999996923
1040
2.373099999991211
1040
0.0
1040
30.74199999996927
1040
8.763099999991255
1040
0.0
1040
29.30199999996933
1040
8.763099999991255
1040
0.0
1040
29.30199999996933
1040
2.283099999991236
1040
-0.414213562373095
1040
28.40199999996923
1040
1.383099999991237
1040
0.0
1040
26.97358892824991
1040
1.383099999991202
1040
0.0
1071
       13
1005
2031E
1005
2032B
1005
2032C
1005
2032A
1005
2032D
1005
20354
1005
20358
1005
20353
1005
20352
1005
20355
1005
20357
1005
20356
1005
2031F
1071
       22
1070
     0
1070
     1
1071
        3
1040
22.7389999999773
1040
3.670999999996297
1040
23.56599999997638
1040
5.5200999999945
1040
24.39299999997559
1040
3.670999999996297
1071
        3
1005
20338
1005
2033D
1005
20339
1070
     0
1070
     1
1040
0.0
1040
0.15
1070
     0
1070
     2
1040
0.7853981633974483
1040
49.29960901727088
1040
-10.17736998311392
1040
-0.3367596045400932
1040
0.3367596045400932
1070
     0
1040
2.356194490192345
1040
49.29960901727088
1040
-10.17736998311392
1040
-0.3367596045400932
1040
-0.3367596045400932
1070
     0
1040
0.0110235143455945
1071
        2
1040
21.97929957367762
1040
3.294304244259308
1040
0.0
1040
21.97929957367762
1040
3.294304244259308
1040
0.0
1002
}
  0
INSERT
  5
2035C
  8
0
  2
*X61
 10
0.0
 20
0.0
 30
0.0
1001
ACAD
1000
HATCH
1002
{
1070
    19
1000
ANSI37
1040
0.15
1040
0.0
1000
R14_HATCH_DATA
1000
2035C
1011
1.0
1021
0.0
1031
0.0
1021
0.0
1031
0.0
1011
0.0
1021
1.0
1031
0.0
1021
1.0
1031
0.0
1011
0.0
1021
0.0
1031
1.0
1021
0.0
1031
1.0
1040
0.0
1010
0.0
1020
0.0
1030
1.0
1000
ANSI37
1070
     0
1070
     1
1071
        1
1071
        7
1070
     1
1070
     1
1071
       12
1040
31.64199999996833
1040
2.481619422925121
1040
0.2679491924310942
1040
32.94699999997067
1040
0.2212931190493919
1040
0.2679491924301353
1040
36.36699999995983
1040
0.2212931190459813
1040
0.2679491924321411
1040
37.67199999996831
1040
2.481619422928361
1040
0.0
1040
37.67199999996831
1040
8.763099999991255
1040
0.0
1040
36.23199999996837
1040
8.763099999991255
1040
0.0
1040
36.23199999996837
1040
2.481619422925064
1040
-0.2679491924310291
1040
35.64699999996708
1040
1.468369700498386
1040
-0.267949192430519
1040
33.66699999997093
1040
1.468369700497703
1040
-0.267949192431809
1040
33.08199999996839
1040
2.481619422926997
1040
0.0
1040
33.08199999996839
1040
8.763099999991255
1040
0.0
1040
31.64199999996833
1040
8.763099999991255
1040
0.0
1071
        0
1070
     0
1070
     1
1040
0.0
1040
0.15
1070
     0
1070
     2
1040
0.7853981633974483
1040
49.29960901727088
1040
-10.17736998311392
1040
-0.3367596045400932
1040
0.3367596045400932
1070
     0
1040
2.356194490192345
1040
49.29960901727088
1040
-10.17736998311392
1040
-0.3367596045400932
1040
-0.3367596045400932
1070
     0
1040
0.0110235143455945
1071
        1
1040
32.30357378967278
1040
3.988785755459219
1040
0.0
1002
}
  0
INSERT
  5
2035D
  8
0
  2
*X62
 10
0.0
 20
0.0
 30
0.0
1001
ACAD
1000
HATCH
1002
{
1070
    19
1000
ANSI37
1040
0.15
1040
0.0
1000
ASC_BOUNDS
1070
     1
1070
     2
1070
     8
1005
2033E
1005
20341
1005
20345
1005
20344
1005
20343
1005
20340
1005
20342
1005
2033F
1000
ASC_SEEDPOINT
1011
39.74896370716704
1021
4.484843821435049
1031
0.0
1021
4.484843821435049
1031
0.0
1000
R14_HATCH_DATA
1000
2035D
1011
1.0
1021
0.0
1031
0.0
1021
0.0
1031
0.0
1011
0.0
1021
1.0
1031
0.0
1021
1.0
1031
0.0
1011
0.0
1021
0.0
1031
1.0
1021
0.0
1031
1.0
1040
0.0
1010
0.0
1020
0.0
1030
1.0
1000
ANSI37
1070
     0
1070
     1
1071
        1
1071
        7
1070
     0
1070
     1
1071
        9
1040
40.02599999995994
1040
5.341799999994635
1040
44.99999999995498
1040
-0.2368999999997641
1040
44.99999999995498
1040
8.763099999991255
1040
43.57899999995641
1040
8.763099999991255
1040
43.57899999995641
1040
3.421199999996588
1040
38.60499999996136
1040
8.999899999990987
1040
38.60499999996136
1040
8.999999999991019
1040
38.60499999996136
1040
0.0
1040
40.02599999995994
1040
0.0
1071
        8
1005
2033E
1005
20341
1005
20345
1005
20344
1005
20343
1005
20340
1005
20342
1005
2033F
1070
     0
1070
     1
1040
0.0
1040
0.15
1070
     0
1070
     2
1040
0.7853981633974483
1040
49.29960901727088
1040
-10.17736998311392
1040
-0.3367596045400932
1040
0.3367596045400932
1070
     0
1040
2.356194490192345
1040
49.29960901727088
1040
-10.17736998311392
1040
-0.3367596045400932
1040
-0.3367596045400932
1070
     0
1040
0.0110235143455945
1071
        1
1040
39.74896370716704
1040
4.484843821435049
1040
0.0
1002
}
  0
INSERT
  5
2035E
  8
0
  2
*X63
 10
0.0
 20
0.0
 30
0.0
1001
ACAD
1000
HATCH
1002
{
1070
    19
1000
ANSI37
1040
0.15
1040
0.0
1000
ASC_BOUNDS
1070
     1
1070
     2
1070
     4
1005
20322
1005
20331
1005
20323
1005
20325
1000
ASC_SEEDPOINT
1011
1.079051535452663
1021
4.148538732891836
1031
0.0
1021
4.148538732891836
1031
0.0
1000
R14_HATCH_DATA
1000
2035E
1011
1.0
1021
0.0
1031
0.0
1021
0.0
1031
0.0
1011
0.0
1021
1.0
1031
0.0
1021
1.0
1031
0.0
1011
0.0
1021
0.0
1031
1.0
1021
0.0
1031
1.0
1040
0.0
1010
0.0
1020
0.0
1030
1.0
1000
ANSI37
1070
     0
1070
     1
1071
        1
1071
        7
1070
     0
1070
     1
1071
        4
1040
1.420999999998571
1040
0.0
1040
1.420999999998571
1040
8.763099999991255
1040
0.0
1040
8.763099999991255
1040
0.0
1040
0.0
1071
        4
1005
20322
1005
20331
1005
20323
1005
20325
1070
     0
1070
     1
1040
0.0
1040
0.15
1070
     0
1070
     2
1040
0.7853981633974483
1040
49.29960901727088
1040
-10.17736998311392
1040
-0.3367596045400932
1040
0.3367596045400932
1070
     0
1040
2.356194490192345
1040
49.29960901727088
1040
-10.17736998311392
1040
-0.3367596045400932
1040
-0.3367596045400932
1070
     0
1040
0.0053004257112761
1071
        1
1040
1.079051535452663
1040
4.148538732891836
1040
0.0
1002
}
  0
ENDBLK
  5
20A16
  8
0
  0
BLOCK
  8
0
  2
*X58
 70
     1
 10
0.0
 20
0.0
 30
0.0
  3
*X58
  1

  0
LINE
  5
2204B
  8
0
  6
CONTINUOUS
 10
3.418023043697893
 20
7.251849696850613
 30
0.0
 11
4.929273346838536
 21
8.763099999991255
 31
0.0
  0
LINE
  5
2204C
  8
0
  6
CONTINUOUS
 10
1.483656411257782
 20
4.643963855330318
 30
0.0
 11
5.60279255591872
 21
8.763099999991255
 31
0.0
  0
LINE
  5
2204D
  8
0
  6
CONTINUOUS
 10
1.755053947328235
 20
4.241842182320584
 30
0.0
 11
6.276311764998907
 21
8.763099999991255
 31
0.0
  0
LINE
  5
2204E
  8
0
  6
CONTINUOUS
 10
2.026451483398688
 20
3.839720509310849
 30
0.0
 11
4.441040904851878
 21
6.254309930764039
 31
0.0
  0
LINE
  5
2204F
  8
0
  6
CONTINUOUS
 10
2.297849019469139
 20
3.437598836301114
 30
0.0
 11
3.321765168359338
 21
4.461514985191313
 31
0.0
  0
LINE
  5
22050
  8
0
  6
CONTINUOUS
 10
2.569246555539591
 20
3.03547716329138
 30
0.0
 11
3.593163397972743
 21
4.059394005724531
 31
0.0
  0
LINE
  5
22051
  8
0
  6
CONTINUOUS
 10
2.840644091610043
 20
2.633355490281646
 30
0.0
 11
3.864561627586149
 21
3.657273026257751
 31
0.0
  0
LINE
  5
22052
  8
0
  6
CONTINUOUS
 10
3.112041627680496
 20
2.231233817271911
 30
0.0
 11
4.135959857199554
 21
3.25515204679097
 31
0.0
  0
LINE
  5
22053
  8
0
  6
CONTINUOUS
 10
3.383439163750948
 20
1.829112144262177
 30
0.0
 11
4.40735808681296
 21
2.853031067324189
 31
0.0
  0
LINE
  5
22054
  8
0
  6
CONTINUOUS
 10
3.654836699821399
 20
1.426990471252442
 30
0.0
 11
4.678756316426365
 21
2.450910087857407
 31
0.0
  0
LINE
  5
22055
  8
0
  6
CONTINUOUS
 10
3.926234235891853
 20
1.024868798242709
 30
0.0
 11
4.95015454603977
 21
2.048789108390626
 31
0.0
  0
LINE
  5
22056
  8
0
  6
CONTINUOUS
 10
4.197631771962304
 20
0.6227471252329737
 30
0.0
 11
5.221552775653176
 21
1.646668128923846
 31
0.0
  0
LINE
  5
22057
  8
0
  6
CONTINUOUS
 10
8.715877546767851
 20
7.835069736359266
 30
0.0
 11
9.435953450375058
 21
8.555145639966472
 31
0.0
  0
LINE
  5
22058
  8
0
  6
CONTINUOUS
 10
8.170620868422267
 20
6.616293848933497
 30
0.0
 11
9.644120833743461
 21
8.08979381425469
 31
0.0
  0
LINE
  5
22059
  8
0
  6
CONTINUOUS
 10
7.625364190076684
 20
5.397517961507727
 30
0.0
 11
9.852288217111864
 21
7.624441988542907
 31
0.0
  0
LINE
  5
2205A
  8
0
  6
CONTINUOUS
 10
7.080107511731101
 20
4.178742074081957
 30
0.0
 11
10.06045560048027
 21
7.159090162831124
 31
0.0
  0
LINE
  5
2205B
  8
0
  6
CONTINUOUS
 10
6.534850833385518
 20
2.959966186656187
 30
0.0
 11
10.26862298384867
 21
6.693738337119342
 31
0.0
  0
LINE
  5
2205C
  8
0
  6
CONTINUOUS
 10
4.469029308032756
 20
0.2206254522232385
 30
0.0
 11
5.492951005266582
 21
1.244547149457064
 31
0.0
  0
LINE
  5
2205D
  8
0
  6
CONTINUOUS
 10
5.989594155039935
 20
1.741190299230417
 30
0.0
 11
8.806950407233131
 21
4.558546551423613
 31
0.0
  0
LINE
  5
2205E
  8
0
  6
CONTINUOUS
 10
9.401251593263643
 20
5.152847737454126
 30
0.0
 11
10.47679036721708
 21
6.228386511407559
 31
0.0
  0
LINE
  5
2205F
  8
0
  6
CONTINUOUS
 10
4.921837203428691
 20
-0.0000858614610131
 30
0.0
 11
8.592923064886001
 21
3.670999999996297
 31
0.0
  0
LINE
  5
22060
  8
0
  6
CONTINUOUS
 10
9.609390446785305
 20
4.6874673818956
 30
0.0
 11
10.68495775058548
 21
5.763034685695775
 31
0.0
  0
LINE
  5
22061
  8
0
  6
CONTINUOUS
 10
5.595387755019432
 20
-0.0000545189504582
 30
0.0
 11
7.716137258923768
 21
2.120694984953879
 31
0.0
  0
LINE
  5
22062
  8
0
  6
CONTINUOUS
 10
6.268938306610172
 20
-0.000023176439905
 30
0.0
 11
7.170485805526503
 21
0.9015243224764267
 31
0.0
  0
LINE
  5
22063
  8
0
  6
CONTINUOUS
 10
7.963842273967511
 20
2.368399999997621
 30
0.0
 11
9.266442273966188
 21
3.670999999996297
 31
0.0
  0
LINE
  5
22064
  8
0
  6
CONTINUOUS
 10
8.637361483047696
 20
2.368399999997621
 30
0.0
 11
9.939961483046375
 21
3.670999999996297
 31
0.0
  0
LINE
  5
22065
  8
0
  6
CONTINUOUS
 10
9.817529300306965
 20
4.222087026337075
 30
0.0
 11
10.89312513395388
 21
5.297682859983993
 31
0.0
  0
LINE
  5
22066
  8
0
  6
CONTINUOUS
 10
10.02566815382863
 20
3.756706670778549
 30
0.0
 11
11.10129251732229
 21
4.832331034272211
 31
0.0
  0
LINE
  5
22067
  8
0
  6
CONTINUOUS
 10
9.310880692127883
 20
2.368399999997621
 30
0.0
 11
11.30945990069069
 21
4.366979208560428
 31
0.0
  0
LINE
  5
22068
  8
0
  6
CONTINUOUS
 10
9.98439990120807
 20
2.36839999999762
 30
0.0
 11
11.5176272840591
 21
3.901627382848645
 31
0.0
  0
LINE
  5
22069
  8
0
  6
CONTINUOUS
 10
10.65037369446246
 20
2.36085458417182
 30
0.0
 11
11.7257946674275
 21
3.436275557136862
 31
0.0
  0
LINE
  5
2206A
  8
0
  6
CONTINUOUS
 10
10.85847197087848
 20
1.895433651507656
 30
0.0
 11
11.9339620507959
 21
2.97092373142508
 31
0.0
  0
LINE
  5
2206B
  8
0
  6
CONTINUOUS
 10
11.0665702472945
 20
1.430012718843491
 30
0.0
 11
12.14212943416431
 21
2.505571905713296
 31
0.0
  0
LINE
  5
2206C
  8
0
  6
CONTINUOUS
 10
11.27466852371052
 20
0.9645917861793256
 30
0.0
 11
12.35029681753271
 21
2.040220080001513
 31
0.0
  0
LINE
  5
2206D
  8
0
  6
CONTINUOUS
 10
11.48276680012654
 20
0.4991708535151611
 30
0.0
 11
12.55846420090111
 21
1.57486825428973
 31
0.0
  0
LINE
  5
2206E
  8
0
  6
CONTINUOUS
 10
11.69086507654257
 20
0.0337499208509957
 30
0.0
 11
12.76663158426952
 21
1.109516428577947
 31
0.0
  0
LINE
  5
2206F
  8
0
  6
CONTINUOUS
 10
12.33057447873954
 20
-0.0000598860322123
 30
0.0
 11
12.97479896763792
 21
0.6441646028661663
 31
0.0
  0
LINE
  5
22070
  8
0
  6
CONTINUOUS
 10
13.00413694809395
 20
-0.0000166257579952
 30
0.0
 11
13.18296635100632
 21
0.1788127771543824
 31
0.0
  0
LINE
  5
22071
  8
0
  6
CONTINUOUS
 10
4.772852165289667
 20
-0.000092794222212
 30
0.0
 11
4.296495091028902
 21
0.4762642800385528
 31
0.0
  0
LINE
  5
22072
  8
0
  6
CONTINUOUS
 10
5.446340034776103
 20
-0.0000614546284616
 30
0.0
 11
2.898195908335625
 21
2.548082671812017
 31
0.0
  0
LINE
  5
22073
  8
0
  6
CONTINUOUS
 10
6.119827904262539
 20
-0.0000301150347113
 30
0.0
 11
1.499896725642348
 21
4.61990106358548
 31
0.0
  0
LINE
  5
22074
  8
0
  6
CONTINUOUS
 10
6.775136745476159
 20
0.0181802528318542
 30
0.0
 11
5.699826040202669
 21
1.093490958105344
 31
0.0
  0
LINE
  5
22075
  8
0
  6
CONTINUOUS
 10
6.983376846288489
 20
0.4834593610997118
 30
0.0
 11
5.908008617934405
 21
1.558827589453796
 31
0.0
  0
LINE
  5
22076
  8
0
  6
CONTINUOUS
 10
5.377063484962296
 20
1.416253513345719
 30
0.0
 11
1.702276957014131
 21
5.091040041293883
 31
0.0
  0
LINE
  5
22077
  8
0
  6
CONTINUOUS
 10
3.978745891735324
 20
3.488090315652877
 30
0.0
 11
2.000373521109399
 21
5.466462686278803
 31
0.0
  0
LINE
  5
22078
  8
0
  6
CONTINUOUS
 10
7.191616947100819
 20
0.948738469367568
 30
0.0
 11
6.11619119566614
 21
2.024164220802247
 31
0.0
  0
LINE
  5
22079
  8
0
  6
CONTINUOUS
 10
7.399857047913149
 20
1.414017577635424
 30
0.0
 11
6.324373773397875
 21
2.489500852150698
 31
0.0
  0
LINE
  5
2207A
  8
0
  6
CONTINUOUS
 10
7.608097148725479
 20
1.879296685903281
 30
0.0
 11
6.53255635112961
 21
2.95483748349915
 31
0.0
  0
LINE
  5
2207B
  8
0
  6
CONTINUOUS
 10
7.816337249537808
 20
2.344575794171138
 30
0.0
 11
6.740738928861345
 21
3.420174114847601
 31
0.0
  0
LINE
  5
2207C
  8
0
  6
CONTINUOUS
 10
3.310241080789734
 20
4.830114335678653
 30
0.0
 11
2.298470085204666
 21
5.84188533126372
 31
0.0
  0
LINE
  5
2207D
  8
0
  6
CONTINUOUS
 10
3.60832983563551
 20
5.205544789913063
 30
0.0
 11
2.596566649299935
 21
6.217307976248638
 31
0.0
  0
LINE
  5
2207E
  8
0
  6
CONTINUOUS
 10
3.906418590481286
 20
5.580975244147473
 30
0.0
 11
2.894663213395203
 21
6.592730621233557
 31
0.0
  0
LINE
  5
2207F
  8
0
  6
CONTINUOUS
 10
4.204507345327062
 20
5.956405698381884
 30
0.0
 11
3.192759777490472
 21
6.968153266218474
 31
0.0
  0
LINE
  5
22080
  8
0
  6
CONTINUOUS
 10
8.466032252791512
 20
2.368399999997621
 30
0.0
 11
6.948921506593081
 21
3.885510746196053
 31
0.0
  0
LINE
  5
22081
  8
0
  6
CONTINUOUS
 10
9.139551461871699
 20
2.36839999999762
 30
0.0
 11
7.157104084324816
 21
4.350847377544504
 31
0.0
  0
LINE
  5
22082
  8
0
  6
CONTINUOUS
 10
4.502596100172839
 20
6.331836152616295
 30
0.0
 11
3.49085634158574
 21
7.343575911203393
 31
0.0
  0
LINE
  5
22083
  8
0
  6
CONTINUOUS
 10
4.800684855018615
 20
6.707266606850705
 30
0.0
 11
3.788952905681008
 21
7.718998556188312
 31
0.0
  0
LINE
  5
22084
  8
0
  6
CONTINUOUS
 10
12.18154012887317
 20
-0.0000694579236642
 30
0.0
 11
11.32140332908496
 21
0.8600673418645499
 31
0.0
  0
LINE
  5
22085
  8
0
  6
CONTINUOUS
 10
12.85501608323566
 20
-0.0000262032059659
 30
0.0
 11
10.77672456435345
 21
2.078265315676246
 31
0.0
  0
LINE
  5
22086
  8
0
  6
CONTINUOUS
 10
9.813070670951886
 20
2.36839999999762
 30
0.0
 11
8.51047067095321
 21
3.670999999996297
 31
0.0
  0
LINE
  5
22087
  8
0
  6
CONTINUOUS
 10
10.48658988003207
 20
2.36839999999762
 30
0.0
 11
9.183989880033396
 21
3.670999999996297
 31
0.0
  0
LINE
  5
22088
  8
0
  6
CONTINUOUS
 10
8.441048632286794
 20
3.740422038662712
 30
0.0
 11
7.365286662056551
 21
4.816184008892956
 31
0.0
  0
LINE
  5
22089
  8
0
  6
CONTINUOUS
 10
8.649187485808454
 20
4.205802394221237
 30
0.0
 11
7.573469239788285
 21
5.281520640241407
 31
0.0
  0
LINE
  5
2208A
  8
0
  6
CONTINUOUS
 10
5.098773609864391
 20
7.082697061085115
 30
0.0
 11
4.087049469776277
 21
8.09442120117323
 31
0.0
  0
LINE
  5
2208B
  8
0
  6
CONTINUOUS
 10
5.396862364710167
 20
7.458127515319526
 30
0.0
 11
4.385146033871544
 21
8.469843846158149
 31
0.0
  0
LINE
  5
2208C
  8
0
  6
CONTINUOUS
 10
13.04801363231285
 20
0.4804954567970334
 30
0.0
 11
9.85750908911358
 21
3.670999999996297
 31
0.0
  0
LINE
  5
2208D
  8
0
  6
CONTINUOUS
 10
8.857326339330116
 20
4.671182749779763
 30
0.0
 11
7.781651817520021
 21
5.746857271589858
 31
0.0
  0
LINE
  5
2208E
  8
0
  6
CONTINUOUS
 10
5.694951119555943
 20
7.833557969553937
 30
0.0
 11
4.765409089118624
 21
8.763099999991255
 31
0.0
  0
LINE
  5
2208F
  8
0
  6
CONTINUOUS
 10
12.50286117236978
 20
1.699167125820288
 30
0.0
 11
9.68611877250287
 21
4.515909525687196
 31
0.0
  0
LINE
  5
22090
  8
0
  6
CONTINUOUS
 10
9.065465192851777
 20
5.136563105338288
 30
0.0
 11
7.989834395251757
 21
6.21219390293831
 31
0.0
  0
LINE
  5
22091
  8
0
  6
CONTINUOUS
 10
5.993039874401719
 20
8.208988423788346
 30
0.0
 11
5.43892829819881
 21
8.763099999991255
 31
0.0
  0
LINE
  5
22092
  8
0
  6
CONTINUOUS
 10
11.95770871242671
 20
2.917838794843543
 30
0.0
 11
8.19801697298349
 21
6.677530534286761
 31
0.0
  0
LINE
  5
22093
  8
0
  6
CONTINUOUS
 10
6.291128629247495
 20
8.584418878022756
 30
0.0
 11
6.112447507278997
 21
8.763099999991255
 31
0.0
  0
LINE
  5
22094
  8
0
  6
CONTINUOUS
 10
11.41255625248364
 20
4.136510463866797
 30
0.0
 11
8.406199550715227
 21
7.142867165635211
 31
0.0
  0
LINE
  5
22095
  8
0
  6
CONTINUOUS
 10
10.86740379254057
 20
5.355182132890051
 30
0.0
 11
8.614382128446962
 21
7.608203796983664
 31
0.0
  0
LINE
  5
22096
  8
0
  6
CONTINUOUS
 10
10.3222513325975
 20
6.573853801913305
 30
0.0
 11
8.822564706178696
 21
8.073540428332114
 31
0.0
  0
LINE
  5
22097
  8
0
  6
CONTINUOUS
 10
9.777098872654436
 20
7.792525470936562
 30
0.0
 11
9.030747283910433
 21
8.538877059680566
 31
0.0
  0
ENDBLK
  5
221D9
  8
0
  0
BLOCK
  8
0
  2
*X59
 70
     1
 10
0.0
 20
0.0
 30
0.0
  3
*X59
  1

  0
LINE
  5
22099
  8
0
  6
CONTINUOUS
 10
10.67292308101235
 20
8.445076852443387
 30
0.0
 11
10.99094622856022
 21
8.763099999991255
 31
0.0
  0
LINE
  5
2209A
  8
0
  6
CONTINUOUS
 10
10.87250383178748
 20
7.971138394138331
 30
0.0
 11
11.6644654376404
 21
8.763099999991255
 31
0.0
  0
LINE
  5
2209B
  8
0
  6
CONTINUOUS
 10
11.07208458256261
 20
7.497199935833273
 30
0.0
 11
12.12126590876355
 21
8.546381262034211
 31
0.0
  0
LINE
  5
2209C
  8
0
  6
CONTINUOUS
 10
11.27166533333774
 20
7.023261477528216
 30
0.0
 11
12.32085164573666
 21
8.072447789927136
 31
0.0
  0
LINE
  5
2209D
  8
0
  6
CONTINUOUS
 10
11.47124608411287
 20
6.549323019223158
 30
0.0
 11
12.52043738270977
 21
7.59851431782006
 31
0.0
  0
LINE
  5
2209E
  8
0
  6
CONTINUOUS
 10
11.670826834888
 20
6.075384560918101
 30
0.0
 11
12.72002311968288
 21
7.124580845712984
 31
0.0
  0
LINE
  5
2209F
  8
0
  6
CONTINUOUS
 10
11.87040758566313
 20
5.601446102613043
 30
0.0
 11
12.91960885665599
 21
6.650647373605907
 31
0.0
  0
LINE
  5
220A0
  8
0
  6
CONTINUOUS
 10
12.06998833643825
 20
5.127507644307986
 30
0.0
 11
13.1191945936291
 21
6.176713901498832
 31
0.0
  0
LINE
  5
220A1
  8
0
  6
CONTINUOUS
 10
12.26956908721338
 20
4.65356918600293
 30
0.0
 11
13.31878033060221
 21
5.702780429391757
 31
0.0
  0
LINE
  5
220A2
  8
0
  6
CONTINUOUS
 10
12.46914983798851
 20
4.179630727697873
 30
0.0
 11
13.51836606757532
 21
5.228846957284683
 31
0.0
  0
LINE
  5
220A3
  8
0
  6
CONTINUOUS
 10
12.66873058876364
 20
3.705692269392816
 30
0.0
 11
13.71795180454843
 21
4.754913485177607
 31
0.0
  0
LINE
  5
220A4
  8
0
  6
CONTINUOUS
 10
12.86831133953877
 20
3.231753811087759
 30
0.0
 11
13.91753754152154
 21
4.280980013070531
 31
0.0
  0
LINE
  5
220A5
  8
0
  6
CONTINUOUS
 10
13.0678920903139
 20
2.757815352782702
 30
0.0
 11
14.11712327849465
 21
3.807046540963456
 31
0.0
  0
LINE
  5
220A6
  8
0
  6
CONTINUOUS
 10
13.26747284108903
 20
2.283876894477644
 30
0.0
 11
14.31670901546777
 21
3.333113068856379
 31
0.0
  0
LINE
  5
220A7
  8
0
  6
CONTINUOUS
 10
16.36767838827179
 20
8.751678487061342
 30
0.0
 11
16.50332410898388
 21
8.887324207773432
 31
0.0
  0
LINE
  5
220A8
  8
0
  6
CONTINUOUS
 10
15.96190732182191
 20
7.67238821153127
 30
0.0
 11
16.68735328004734
 21
8.397834169756699
 31
0.0
  0
LINE
  5
220A9
  8
0
  6
CONTINUOUS
 10
15.55613625537202
 20
6.593097936001196
 30
0.0
 11
16.87138245111079
 21
7.908344131739965
 31
0.0
  0
LINE
  5
220AA
  8
0
  6
CONTINUOUS
 10
15.15036518892213
 20
5.513807660471122
 30
0.0
 11
17.05541162217424
 21
7.418854093723231
 31
0.0
  0
LINE
  5
220AB
  8
0
  6
CONTINUOUS
 10
14.74459412247225
 20
4.434517384941048
 30
0.0
 11
17.2394407932377
 21
6.929364055706499
 31
0.0
  0
LINE
  5
220AC
  8
0
  6
CONTINUOUS
 10
14.33882305602236
 20
3.355227109410975
 30
0.0
 11
17.42346996430115
 21
6.439874017689766
 31
0.0
  0
LINE
  5
220AD
  8
0
  6
CONTINUOUS
 10
13.46705359186416
 20
1.809938436172586
 30
0.0
 11
16.0819338255367
 21
4.424818669845129
 31
0.0
  0
LINE
  5
220AE
  8
0
  6
CONTINUOUS
 10
16.63283254238972
 20
4.975717386698149
 30
0.0
 11
17.60749913536461
 21
5.950383979673033
 31
0.0
  0
LINE
  5
220AF
  8
0
  6
CONTINUOUS
 10
13.66663434263929
 20
1.335999977867529
 30
0.0
 11
15.67604797733754
 21
3.345413612565779
 31
0.0
  0
LINE
  5
220B0
  8
0
  6
CONTINUOUS
 10
13.86621509341442
 20
0.8620615195624723
 30
0.0
 11
15.27016212913838
 21
2.26600855528643
 31
0.0
  0
LINE
  5
220B1
  8
0
  6
CONTINUOUS
 10
16.81682257348267
 20
4.486188208710908
 30
0.0
 11
17.79152830642806
 21
5.460893941656299
 31
0.0
  0
LINE
  5
220B2
  8
0
  6
CONTINUOUS
 10
17.00081260457561
 20
3.996659030723667
 30
0.0
 11
17.97555747749151
 21
4.971403903639565
 31
0.0
  0
LINE
  5
220B3
  8
0
  6
CONTINUOUS
 10
20.74362343514722
 20
8.412989070375462
 30
0.0
 11
21.09373436476302
 21
8.763099999991256
 31
0.0
  0
LINE
  5
220B4
  8
0
  6
CONTINUOUS
 10
20.25401257174777
 20
7.249858997895826
 30
0.0
 11
21.7672535738432
 21
8.763099999991255
 31
0.0
  0
LINE
  5
220B5
  8
0
  6
CONTINUOUS
 10
14.06579584418955
 20
0.3881230612574149
 30
0.0
 11
14.86427628093921
 21
1.186603498007082
 31
0.0
  0
LINE
  5
220B6
  8
0
  6
CONTINUOUS
 10
14.26537659496467
 20
-0.0858153970476412
 30
0.0
 11
14.45839043274005
 21
0.1071984407277329
 31
0.0
  0
LINE
  5
220B7
  8
0
  6
CONTINUOUS
 10
17.18480263566856
 20
3.507129852736426
 30
0.0
 11
18.15958664855496
 21
4.481913865622833
 31
0.0
  0
LINE
  5
220B8
  8
0
  6
CONTINUOUS
 10
17.3687926667615
 20
3.017600674749186
 30
0.0
 11
18.34361581961842
 21
3.9924238276061
 31
0.0
  0
LINE
  5
220B9
  8
0
  6
CONTINUOUS
 10
19.76440170834832
 20
6.086728925416191
 30
0.0
 11
22.33924590259489
 21
8.661573119662755
 31
0.0
  0
LINE
  5
220BA
  8
0
  6
CONTINUOUS
 10
19.27479084494887
 20
4.923598852936555
 30
0.0
 11
21.84929622842713
 21
7.498104236414807
 31
0.0
  0
LINE
  5
220BB
  8
0
  6
CONTINUOUS
 10
17.55278269785445
 20
2.528071496761945
 30
0.0
 11
18.52764499068187
 21
3.502933789589366
 31
0.0
  0
LINE
  5
220BC
  8
0
  6
CONTINUOUS
 10
18.78517998154942
 20
3.760468780456919
 30
0.0
 11
21.35934655425936
 21
6.33463535316686
 31
0.0
  0
LINE
  5
220BD
  8
0
  6
CONTINUOUS
 10
17.73677272894739
 20
2.038542318774704
 30
0.0
 11
20.8693968800916
 21
5.171166469918914
 31
0.0
  0
LINE
  5
220BE
  8
0
  6
CONTINUOUS
 10
17.92076276004034
 20
1.549013140787464
 30
0.0
 11
20.37944720592384
 21
4.007697586670968
 31
0.0
  0
LINE
  5
220BF
  8
0
  6
CONTINUOUS
 10
18.10475279113329
 20
1.059483962800223
 30
0.0
 11
19.88949753175608
 21
2.84422870342302
 31
0.0
  0
LINE
  5
220C0
  8
0
  6
CONTINUOUS
 10
18.28874282222623
 20
0.5699547848129822
 30
0.0
 11
19.39954785758832
 21
1.680759820175074
 31
0.0
  0
LINE
  5
220C1
  8
0
  6
CONTINUOUS
 10
18.47273285331918
 20
0.0804256068257416
 30
0.0
 11
18.90959818342056
 21
0.517290936927127
 31
0.0
  0
LINE
  5
220C2
  8
0
  6
CONTINUOUS
 10
14.3590401358224
 20
-0.1570118376323384
 30
0.0
 11
14.24903296539946
 21
-0.0470046672093929
 31
0.0
  0
LINE
  5
220C3
  8
0
  6
CONTINUOUS
 10
14.54309291258661
 20
0.332454594683643
 30
0.0
 11
13.75908329123172
 21
1.116464216038529
 31
0.0
  0
LINE
  5
220C4
  8
0
  6
CONTINUOUS
 10
14.72714568935081
 20
0.8219210269996244
 30
0.0
 11
13.26913361706399
 21
2.27993309928645
 31
0.0
  0
LINE
  5
220C5
  8
0
  6
CONTINUOUS
 10
14.91119846611502
 20
1.311387459315606
 30
0.0
 11
12.77918394289625
 21
3.443401982534371
 31
0.0
  0
LINE
  5
220C6
  8
0
  6
CONTINUOUS
 10
15.09525124287922
 20
1.800853891631587
 30
0.0
 11
12.28923426872852
 21
4.606870865782293
 31
0.0
  0
LINE
  5
220C7
  8
0
  6
CONTINUOUS
 10
15.27930401964343
 20
2.290320323947569
 30
0.0
 11
11.79928459456078
 21
5.770339749030213
 31
0.0
  0
LINE
  5
220C8
  8
0
  6
CONTINUOUS
 10
15.46335679640763
 20
2.77978675626355
 30
0.0
 11
14.48885470994921
 21
3.754288842721972
 31
0.0
  0
LINE
  5
220C9
  8
0
  6
CONTINUOUS
 10
13.88507249233704
 20
4.358071060334137
 30
0.0
 11
11.30933492039305
 21
6.933808632278135
 31
0.0
  0
LINE
  5
220CA
  8
0
  6
CONTINUOUS
 10
18.75840522805855
 20
0.1582575336928151
 30
0.0
 11
18.25383727664818
 21
0.6628254851031863
 31
0.0
  0
LINE
  5
220CB
  8
0
  6
CONTINUOUS
 10
15.64740957317184
 20
3.269253188579531
 30
0.0
 11
14.67288388101266
 21
4.243778880738705
 31
0.0
  0
LINE
  5
220CC
  8
0
  6
CONTINUOUS
 10
13.39509276772158
 20
5.521569994029786
 30
0.0
 11
10.81938524622531
 21
8.097277515526056
 31
0.0
  0
LINE
  5
220CD
  8
0
  6
CONTINUOUS
 10
18.95798597883369
 20
0.6321959919978686
 30
0.0
 11
17.84825644852853
 21
1.741925522303024
 31
0.0
  0
LINE
  5
220CE
  8
0
  6
CONTINUOUS
 10
19.15756672960882
 20
1.106134450302922
 30
0.0
 11
17.44267562040888
 21
2.821025559502861
 31
0.0
  0
LINE
  5
220CF
  8
0
  6
CONTINUOUS
 10
15.83146234993604
 20
3.758719620895513
 30
0.0
 11
14.85691305207612
 21
4.733268918755439
 31
0.0
  0
LINE
  5
220D0
  8
0
  6
CONTINUOUS
 10
16.01551512670025
 20
4.248186053211494
 30
0.0
 11
15.04094222313957
 21
5.222758956772172
 31
0.0
  0
LINE
  5
220D1
  8
0
  6
CONTINUOUS
 10
12.90511304310612
 20
6.685068927725435
 30
0.0
 11
10.8270819708403
 21
8.763099999991255
 31
0.0
  0
LINE
  5
220D2
  8
0
  6
CONTINUOUS
 10
12.41513331849066
 20
7.848567861421083
 30
0.0
 11
11.50060117992049
 21
8.763099999991255
 31
0.0
  0
LINE
  5
220D3
  8
0
  6
CONTINUOUS
 10
19.35714748038395
 20
1.580072908607975
 30
0.0
 11
17.03709479228923
 21
3.900125596702697
 31
0.0
  0
LINE
  5
220D4
  8
0
  6
CONTINUOUS
 10
19.55672823115909
 20
2.054011366913028
 30
0.0
 11
16.63151396416958
 21
4.979225633902534
 31
0.0
  0
LINE
  5
220D5
  8
0
  6
CONTINUOUS
 10
16.19956790346445
 20
4.737652485527476
 30
0.0
 11
15.22497139420302
 21
5.712248994788904
 31
0.0
  0
LINE
  5
220D6
  8
0
  6
CONTINUOUS
 10
16.38362068022866
 20
5.227118917843457
 30
0.0
 11
15.40900056526648
 21
6.201739032805637
 31
0.0
  0
LINE
  5
220D7
  8
0
  6
CONTINUOUS
 10
19.75630898193422
 20
2.527949825218081
 30
0.0
 11
18.70774536448286
 21
3.576513442669441
 31
0.0
  0
LINE
  5
220D8
  8
0
  6
CONTINUOUS
 10
19.95588973270936
 20
3.001888283523134
 30
0.0
 11
18.90726987211446
 21
4.050508144118028
 31
0.0
  0
LINE
  5
220D9
  8
0
  6
CONTINUOUS
 10
20.15547048348449
 20
3.475826741828186
 30
0.0
 11
19.10679437974606
 21
4.524502845566614
 31
0.0
  0
LINE
  5
220DA
  8
0
  6
CONTINUOUS
 10
20.35505123425962
 20
3.94976520013324
 30
0.0
 11
19.30631888737766
 21
4.998497547015201
 31
0.0
  0
LINE
  5
220DB
  8
0
  6
CONTINUOUS
 10
20.55463198503475
 20
4.423703658438292
 30
0.0
 11
19.50584339500926
 21
5.472492248463787
 31
0.0
  0
LINE
  5
220DC
  8
0
  6
CONTINUOUS
 10
18.37481191085755
 20
3.909446896294752
 30
0.0
 11
15.59302973632993
 21
6.691229070822371
 31
0.0
  0
LINE
  5
220DD
  8
0
  6
CONTINUOUS
 10
17.96904084440766
 20
4.988737171824825
 30
0.0
 11
15.77705890739338
 21
7.180719108839104
 31
0.0
  0
LINE
  5
220DE
  8
0
  6
CONTINUOUS
 10
17.56326977795777
 20
6.068027447354899
 30
0.0
 11
15.96108807845684
 21
7.670209146855838
 31
0.0
  0
LINE
  5
220DF
  8
0
  6
CONTINUOUS
 10
17.15749871150789
 20
7.147317722884972
 30
0.0
 11
16.14511724952029
 21
8.15969918487257
 31
0.0
  0
LINE
  5
220E0
  8
0
  6
CONTINUOUS
 10
16.751727645058
 20
8.226607998415046
 30
0.0
 11
16.32914642058374
 21
8.649189222889303
 31
0.0
  0
LINE
  5
220E1
  8
0
  6
CONTINUOUS
 10
20.75421273580989
 20
4.897642116743345
 30
0.0
 11
19.70536790264086
 21
5.946486949912374
 31
0.0
  0
LINE
  5
220E2
  8
0
  6
CONTINUOUS
 10
20.95379348658502
 20
5.371580575048398
 30
0.0
 11
19.90489241027246
 21
6.42048165136096
 31
0.0
  0
LINE
  5
220E3
  8
0
  6
CONTINUOUS
 10
21.15337423736015
 20
5.845519033353452
 30
0.0
 11
20.10441691790406
 21
6.894476352809547
 31
0.0
  0
LINE
  5
220E4
  8
0
  6
CONTINUOUS
 10
21.35295498813529
 20
6.319457491658505
 30
0.0
 11
20.30394142553566
 21
7.368471054258134
 31
0.0
  0
LINE
  5
220E5
  8
0
  6
CONTINUOUS
 10
21.55253573891042
 20
6.793395949963558
 30
0.0
 11
20.50346593316726
 21
7.842465755706721
 31
0.0
  0
LINE
  5
220E6
  8
0
  6
CONTINUOUS
 10
21.75211648968556
 20
7.267334408268612
 30
0.0
 11
20.70299044079886
 21
8.316460457155308
 31
0.0
  0
LINE
  5
220E7
  8
0
  6
CONTINUOUS
 10
21.95169724046069
 20
7.741272866573663
 30
0.0
 11
20.9298701070431
 21
8.763099999991256
 31
0.0
  0
LINE
  5
220E8
  8
0
  6
CONTINUOUS
 10
22.15127799123582
 20
8.215211324878716
 30
0.0
 11
21.60338931612328
 21
8.763099999991256
 31
0.0
  0
LINE
  5
220E9
  8
0
  6
CONTINUOUS
 10
22.35085874201096
 20
8.689149783183769
 30
0.0
 11
22.27690852520347
 21
8.763099999991255
 31
0.0
  0
ENDBLK
  5
221DB
  8
0
  0
BLOCK
  8
0
  2
*X60
 70
     1
 10
0.0
 20
0.0
 30
0.0
  3
*X60
  1

  0
LINE
  5
220EB
  8
0
  6
CONTINUOUS
 10
23.19462913593892
 20
8.169917934846424
 30
0.0
 11
23.70775465517246
 21
8.683043454079957
 31
0.0
  0
LINE
  5
220EC
  8
0
  6
CONTINUOUS
 10
22.64923161835078
 20
6.951001208178088
 30
0.0
 11
23.9159364069932
 21
8.217705996820516
 31
0.0
  0
LINE
  5
220ED
  8
0
  6
CONTINUOUS
 10
22.10383410076263
 20
5.732084481509751
 30
0.0
 11
24.12411815881395
 21
7.752368539561078
 31
0.0
  0
LINE
  5
220EE
  8
0
  6
CONTINUOUS
 10
21.55843658317447
 20
4.513167754841414
 30
0.0
 11
24.3322999106347
 21
7.287031082301639
 31
0.0
  0
LINE
  5
220EF
  8
0
  6
CONTINUOUS
 10
21.01303906558632
 20
3.294251028173077
 30
0.0
 11
24.54048166245544
 21
6.821693625042199
 31
0.0
  0
LINE
  5
220F0
  8
0
  6
CONTINUOUS
 10
20.46764154799817
 20
2.075334301504738
 30
0.0
 11
23.28571549467848
 21
4.89340824818505
 31
0.0
  0
LINE
  5
220F1
  8
0
  6
CONTINUOUS
 10
19.92224403041002
 20
0.8564175748364002
 30
0.0
 11
22.74075865492779
 21
3.674932199354171
 31
0.0
  0
LINE
  5
220F2
  8
0
  6
CONTINUOUS
 10
23.67305085490148
 20
5.280743608408048
 30
0.0
 11
24.74866341427619
 21
6.356356167782759
 31
0.0
  0
LINE
  5
220F3
  8
0
  6
CONTINUOUS
 10
23.88118970842314
 20
4.815363252849522
 30
0.0
 11
24.95684516609694
 21
5.89101871052332
 31
0.0
  0
LINE
  5
220F4
  8
0
  6
CONTINUOUS
 10
19.73925852647308
 20
-0.0000871381807288
 30
0.0
 11
23.4103456646501
 21
3.670999999996297
 31
0.0
  0
LINE
  5
220F5
  8
0
  6
CONTINUOUS
 10
24.0893285619448
 20
4.349982897290997
 30
0.0
 11
25.16502691791769
 21
5.42568125326388
 31
0.0
  0
LINE
  5
220F6
  8
0
  6
CONTINUOUS
 10
20.41282099582748
 20
-0.0000438779065108
 30
0.0
 11
21.64944178675636
 21
1.236576913022366
 31
0.0
  0
LINE
  5
220F7
  8
0
  6
CONTINUOUS
 10
22.78126487373161
 20
2.36839999999762
 30
0.0
 11
24.08386487373029
 21
3.670999999996297
 31
0.0
  0
LINE
  5
220F8
  8
0
  6
CONTINUOUS
 10
24.29746741546646
 20
3.884602541732471
 30
0.0
 11
25.37320866973843
 21
4.960343796004441
 31
0.0
  0
LINE
  5
220F9
  8
0
  6
CONTINUOUS
 10
21.08638346518189
 20
-0.0000006176322938
 30
0.0
 11
21.10379033335899
 21
0.0174062505448083
 31
0.0
  0
LINE
  5
220FA
  8
0
  6
CONTINUOUS
 10
23.4547840828118
 20
2.36839999999762
 30
0.0
 11
25.58139042155918
 21
4.495006338745002
 31
0.0
  0
LINE
  5
220FB
  8
0
  6
CONTINUOUS
 10
29.30199999996933
 20
8.215615917155148
 30
0.0
 11
29.84948408280543
 21
8.763099999991255
 31
0.0
  0
LINE
  5
220FC
  8
0
  6
CONTINUOUS
 10
24.12830329189199
 20
2.36839999999762
 30
0.0
 11
25.78957217337993
 21
4.029668881485562
 31
0.0
  0
LINE
  5
220FD
  8
0
  6
CONTINUOUS
 10
29.30199999996933
 20
7.54209670807496
 30
0.0
 11
30.52300329188562
 21
8.763099999991255
 31
0.0
  0
LINE
  5
220FE
  8
0
  6
CONTINUOUS
 10
24.80182250097217
 20
2.36839999999762
 30
0.0
 11
25.99775392520067
 21
3.564331424226122
 31
0.0
  0
LINE
  5
220FF
  8
0
  6
CONTINUOUS
 10
29.30199999996933
 20
6.868577498994774
 30
0.0
 11
30.74199999996926
 21
8.308577498994712
 31
0.0
  0
LINE
  5
22100
  8
0
  6
CONTINUOUS
 10
25.13028238392013
 20
2.023340673865392
 30
0.0
 11
26.20593567702142
 21
3.098993966966683
 31
0.0
  0
LINE
  5
22101
  8
0
  6
CONTINUOUS
 10
25.33838066033617
 20
1.557919741201244
 30
0.0
 11
26.41411742884217
 21
2.633656509707244
 31
0.0
  0
LINE
  5
22102
  8
0
  6
CONTINUOUS
 10
25.54647893675221
 20
1.092498808537098
 30
0.0
 11
26.62229918066291
 21
2.168319052447804
 31
0.0
  0
LINE
  5
22103
  8
0
  6
CONTINUOUS
 10
25.75457721316825
 20
0.62707787587295
 30
0.0
 11
26.83048093248366
 21
1.702981595188365
 31
0.0
  0
LINE
  5
22104
  8
0
  6
CONTINUOUS
 10
29.30199999996933
 20
6.195058289914587
 30
0.0
 11
30.74199999996926
 21
7.635058289914522
 31
0.0
  0
LINE
  5
22105
  8
0
  6
CONTINUOUS
 10
29.30199999996933
 20
5.521539080834401
 30
0.0
 11
30.74199999996926
 21
6.961539080834331
 31
0.0
  0
LINE
  5
22106
  8
0
  6
CONTINUOUS
 10
29.30199999996933
 20
4.848019871754214
 30
0.0
 11
30.74199999996925
 21
6.288019871754143
 31
0.0
  0
LINE
  5
22107
  8
0
  6
CONTINUOUS
 10
29.30199999996933
 20
4.174500662674028
 30
0.0
 11
30.74199999996925
 21
5.614500662673953
 31
0.0
  0
LINE
  5
22108
  8
0
  6
CONTINUOUS
 10
25.96267548958429
 20
0.1616569432088024
 30
0.0
 11
27.18411854636669
 21
1.383099999991207
 31
0.0
  0
LINE
  5
22109
  8
0
  6
CONTINUOUS
 10
29.30199999996933
 20
3.500981453593841
 30
0.0
 11
30.74199999996925
 21
4.940981453593762
 31
0.0
  0
LINE
  5
2210A
  8
0
  6
CONTINUOUS
 10
26.50763775544691
 20
0.0330999999912356
 30
0.0
 11
27.85763775544689
 21
1.383099999991223
 31
0.0
  0
LINE
  5
2210B
  8
0
  6
CONTINUOUS
 10
29.30199999996933
 20
2.827462244513656
 30
0.0
 11
30.74199999996925
 21
4.267462244513574
 31
0.0
  0
LINE
  5
2210C
  8
0
  6
CONTINUOUS
 10
27.18115696452709
 20
0.0330999999912356
 30
0.0
 11
28.6224847300034
 21
1.474427765467545
 31
0.0
  0
LINE
  5
2210D
  8
0
  6
CONTINUOUS
 10
29.21067223449293
 20
2.062615269957069
 30
0.0
 11
30.74199999996924
 21
3.593943035433383
 31
0.0
  0
LINE
  5
2210E
  8
0
  6
CONTINUOUS
 10
27.85467617360728
 20
0.0330999999912356
 30
0.0
 11
30.74199999996924
 21
2.920423826353195
 31
0.0
  0
LINE
  5
2210F
  8
0
  6
CONTINUOUS
 10
28.57438609860264
 20
0.0792907159064073
 30
0.0
 11
30.69580928405405
 21
2.200713901357819
 31
0.0
  0
LINE
  5
22110
  8
0
  6
CONTINUOUS
 10
29.49443044814297
 20
0.3258158563665496
 30
0.0
 11
30.44928414359389
 21
1.280669551817477
 31
0.0
  0
LINE
  5
22111
  8
0
  6
CONTINUOUS
 10
19.59027867740337
 20
-0.0000967065718083
 30
0.0
 11
19.55485265190471
 21
0.035329318926844
 31
0.0
  0
LINE
  5
22112
  8
0
  6
CONTINUOUS
 10
20.26375463176586
 20
-0.0000534518541091
 30
0.0
 11
19.76305575737534
 21
0.5006454225364014
 31
0.0
  0
LINE
  5
22113
  8
0
  6
CONTINUOUS
 10
20.93723058612834
 20
-0.0000101971364099
 30
0.0
 11
19.97125886284597
 21
0.965961526145958
 31
0.0
  0
LINE
  5
22114
  8
0
  6
CONTINUOUS
 10
21.25514828313686
 20
0.355591314935257
 30
0.0
 11
20.1794619683166
 21
1.431277629755512
 31
0.0
  0
LINE
  5
22115
  8
0
  6
CONTINUOUS
 10
21.46338838394921
 20
0.8208704232030986
 30
0.0
 11
20.38766507378723
 21
1.896593733365069
 31
0.0
  0
LINE
  5
22116
  8
0
  6
CONTINUOUS
 10
21.67162848476155
 20
1.28614953147094
 30
0.0
 11
20.59586817925786
 21
2.361909836974626
 31
0.0
  0
LINE
  5
22117
  8
0
  6
CONTINUOUS
 10
21.8798685855739
 20
1.751428639738782
 30
0.0
 11
20.80407128472849
 21
2.827225940584183
 31
0.0
  0
LINE
  5
22118
  8
0
  6
CONTINUOUS
 10
22.08810868638624
 20
2.216707748006623
 30
0.0
 11
21.01227439019912
 21
3.292542044193739
 31
0.0
  0
LINE
  5
22119
  8
0
  6
CONTINUOUS
 10
22.60993564347543
 20
2.36839999999762
 30
0.0
 11
21.22047749566975
 21
3.757858147803296
 31
0.0
  0
LINE
  5
2211A
  8
0
  6
CONTINUOUS
 10
23.28345485255561
 20
2.36839999999762
 30
0.0
 11
21.42868060114038
 21
4.223174251412853
 31
0.0
  0
LINE
  5
2211B
  8
0
  6
CONTINUOUS
 10
26.29227406164219
 20
0.0330999999912356
 30
0.0
 11
25.80009199592872
 21
0.5252820657046957
 31
0.0
  0
LINE
  5
2211C
  8
0
  6
CONTINUOUS
 10
23.9569740616358
 20
2.36839999999762
 30
0.0
 11
21.63688370661101
 21
4.688490355022409
 31
0.0
  0
LINE
  5
2211D
  8
0
  6
CONTINUOUS
 10
26.96579327072237
 20
0.0330999999912356
 30
0.0
 11
25.2554132311971
 21
1.743480039516508
 31
0.0
  0
LINE
  5
2211E
  8
0
  6
CONTINUOUS
 10
24.63049327071599
 20
2.36839999999762
 30
0.0
 11
23.32789327071731
 21
3.670999999996297
 31
0.0
  0
LINE
  5
2211F
  8
0
  6
CONTINUOUS
 10
22.92098674744635
 20
4.077906523267254
 30
0.0
 11
21.84508681208164
 21
5.153806458631966
 31
0.0
  0
LINE
  5
22120
  8
0
  6
CONTINUOUS
 10
27.63931247980256
 20
0.0330999999912356
 30
0.0
 11
24.0014124797975
 21
3.670999999996297
 31
0.0
  0
LINE
  5
22121
  8
0
  6
CONTINUOUS
 10
23.129125600968
 20
4.5432868788258
 30
0.0
 11
22.05328991755227
 21
5.619122562241522
 31
0.0
  0
LINE
  5
22122
  8
0
  6
CONTINUOUS
 10
28.31283168888275
 20
0.0330999999912356
 30
0.0
 11
24.16488385994816
 21
4.181047828925828
 31
0.0
  0
LINE
  5
22123
  8
0
  6
CONTINUOUS
 10
23.33726445448964
 20
5.008667234384345
 30
0.0
 11
22.2614930230229
 21
6.084438665851079
 31
0.0
  0
LINE
  5
22124
  8
0
  6
CONTINUOUS
 10
28.86286302309502
 20
0.1565878748591523
 30
0.0
 11
27.63635089796295
 21
1.383099999991217
 31
0.0
  0
LINE
  5
22125
  8
0
  6
CONTINUOUS
 10
26.43704649509776
 20
2.582404402856405
 30
0.0
 11
23.61992702019732
 21
5.399523877756844
 31
0.0
  0
LINE
  5
22126
  8
0
  6
CONTINUOUS
 10
23.54540330801128
 20
5.47404758994289
 30
0.0
 11
22.46969612849353
 21
6.549754769460635
 31
0.0
  0
LINE
  5
22127
  8
0
  6
CONTINUOUS
 10
29.39405087596853
 20
0.2989192310658284
 30
0.0
 11
28.30987010704312
 21
1.383099999991234
 31
0.0
  0
LINE
  5
22128
  8
0
  6
CONTINUOUS
 10
25.89179548232307
 20
3.801174624711282
 30
0.0
 11
22.67789923396416
 21
7.015070873070191
 31
0.0
  0
LINE
  5
22129
  8
0
  6
CONTINUOUS
 10
29.79594438047407
 20
0.570544935640473
 30
0.0
 11
28.81310432793121
 21
1.553384988183336
 31
0.0
  0
LINE
  5
2212A
  8
0
  6
CONTINUOUS
 10
25.34654446954838
 20
5.01994484656616
 30
0.0
 11
22.88610233943479
 21
7.480386976679748
 31
0.0
  0
LINE
  5
2212B
  8
0
  6
CONTINUOUS
 10
30.13270398501416
 20
0.9073045401805646
 30
0.0
 11
29.14234640337737
 21
1.897662121817355
 31
0.0
  0
LINE
  5
2212C
  8
0
  6
CONTINUOUS
 10
24.80129345677369
 20
6.238715068421037
 30
0.0
 11
23.09430544490542
 21
7.945703080289305
 31
0.0
  0
LINE
  5
2212D
  8
0
  6
CONTINUOUS
 10
30.44581292956759
 20
1.26771480470732
 30
0.0
 11
29.30199999996933
 21
2.411527734305588
 31
0.0
  0
LINE
  5
2212E
  8
0
  6
CONTINUOUS
 10
30.58814428577427
 20
1.798902657580827
 30
0.0
 11
29.30199999996933
 21
3.085046943385775
 31
0.0
  0
LINE
  5
2212F
  8
0
  6
CONTINUOUS
 10
24.256042443999
 20
7.457485290275915
 30
0.0
 11
23.30250855037605
 21
8.411019183898862
 31
0.0
  0
LINE
  5
22130
  8
0
  6
CONTINUOUS
 10
23.71079143122431
 20
8.676255512130794
 30
0.0
 11
23.51071165584668
 21
8.876335287508418
 31
0.0
  0
LINE
  5
22131
  8
0
  6
CONTINUOUS
 10
30.73047564198095
 20
2.330090510454333
 30
0.0
 11
29.30199999996933
 21
3.758566152465961
 31
0.0
  0
LINE
  5
22132
  8
0
  6
CONTINUOUS
 10
30.74199999996924
 20
2.992085361546236
 30
0.0
 11
29.30199999996933
 21
4.432085361546148
 31
0.0
  0
LINE
  5
22133
  8
0
  6
CONTINUOUS
 10
30.74199999996924
 20
3.665604570626419
 30
0.0
 11
29.30199999996933
 21
5.105604570626333
 31
0.0
  0
LINE
  5
22134
  8
0
  6
CONTINUOUS
 10
30.74199999996925
 20
4.339123779706602
 30
0.0
 11
29.30199999996933
 21
5.77912377970652
 31
0.0
  0
LINE
  5
22135
  8
0
  6
CONTINUOUS
 10
30.74199999996925
 20
5.012642988786785
 30
0.0
 11
29.30199999996933
 21
6.452642988786707
 31
0.0
  0
LINE
  5
22136
  8
0
  6
CONTINUOUS
 10
30.74199999996925
 20
5.68616219786697
 30
0.0
 11
29.30199999996933
 21
7.126162197866894
 31
0.0
  0
LINE
  5
22137
  8
0
  6
CONTINUOUS
 10
30.74199999996925
 20
6.359681406947153
 30
0.0
 11
29.30199999996933
 21
7.799681406947081
 31
0.0
  0
LINE
  5
22138
  8
0
  6
CONTINUOUS
 10
30.74199999996926
 20
7.033200616027337
 30
0.0
 11
29.30199999996933
 21
8.473200616027269
 31
0.0
  0
LINE
  5
22139
  8
0
  6
CONTINUOUS
 10
30.74199999996926
 20
7.706719825107518
 30
0.0
 11
29.68561982508552
 21
8.763099999991255
 31
0.0
  0
LINE
  5
2213A
  8
0
  6
CONTINUOUS
 10
30.74199999996926
 20
8.380239034187703
 30
0.0
 11
30.35913903416571
 21
8.763099999991255
 31
0.0
  0
ENDBLK
  5
221DD
  8
0
  0
BLOCK
  8
0
  2
*X61
 70
     1
 10
0.0
 20
0.0
 30
0.0
  3
*X61
  1

  0
LINE
  5
2213C
  8
0
  6
CONTINUOUS
 10
31.64199999996833
 20
8.5350582899136
 30
0.0
 11
31.87004171004599
 21
8.763099999991255
 31
0.0
  0
LINE
  5
2213D
  8
0
  6
CONTINUOUS
 10
31.64199999996833
 20
7.861539080833413
 30
0.0
 11
32.54356091912618
 21
8.763099999991255
 31
0.0
  0
LINE
  5
2213E
  8
0
  6
CONTINUOUS
 10
31.64199999996833
 20
7.188019871753227
 30
0.0
 11
33.08199999996839
 21
8.628019871753281
 31
0.0
  0
LINE
  5
2213F
  8
0
  6
CONTINUOUS
 10
31.64199999996833
 20
6.514500662673041
 30
0.0
 11
33.08199999996839
 21
7.954500662673095
 31
0.0
  0
LINE
  5
22140
  8
0
  6
CONTINUOUS
 10
31.64199999996833
 20
5.840981453592855
 30
0.0
 11
33.08199999996839
 21
7.28098145359291
 31
0.0
  0
LINE
  5
22141
  8
0
  6
CONTINUOUS
 10
31.64199999996833
 20
5.167462244512668
 30
0.0
 11
33.08199999996839
 21
6.607462244512723
 31
0.0
  0
LINE
  5
22142
  8
0
  6
CONTINUOUS
 10
31.64199999996833
 20
4.493943035432482
 30
0.0
 11
33.08199999996839
 21
5.933943035432536
 31
0.0
  0
LINE
  5
22143
  8
0
  6
CONTINUOUS
 10
31.64199999996833
 20
3.820423826352294
 30
0.0
 11
33.08199999996839
 21
5.260423826352349
 31
0.0
  0
LINE
  5
22144
  8
0
  6
CONTINUOUS
 10
31.64199999996833
 20
3.146904617272108
 30
0.0
 11
33.08199999996839
 21
4.586904617272163
 31
0.0
  0
LINE
  5
22145
  8
0
  6
CONTINUOUS
 10
36.23199999996837
 20
8.410423826352327
 30
0.0
 11
36.58467617360729
 21
8.763099999991255
 31
0.0
  0
LINE
  5
22146
  8
0
  6
CONTINUOUS
 10
36.23199999996837
 20
7.73690461727214
 30
0.0
 11
37.25819538268748
 21
8.763099999991255
 31
0.0
  0
LINE
  5
22147
  8
0
  6
CONTINUOUS
 10
31.64323424774199
 20
2.474619655965573
 30
0.0
 11
33.08199999996839
 21
3.913385408191976
 31
0.0
  0
LINE
  5
22148
  8
0
  6
CONTINUOUS
 10
31.74419223861915
 20
1.902058437762552
 30
0.0
 11
33.08199999996839
 21
3.239866199111789
 31
0.0
  0
LINE
  5
22149
  8
0
  6
CONTINUOUS
 10
36.23199999996837
 20
7.063385408191953
 30
0.0
 11
37.67199999996831
 21
8.503385408191894
 31
0.0
  0
LINE
  5
2214A
  8
0
  6
CONTINUOUS
 10
36.23199999996837
 20
6.389866199111767
 30
0.0
 11
37.67199999996831
 21
7.829866199111708
 31
0.0
  0
LINE
  5
2214B
  8
0
  6
CONTINUOUS
 10
31.91111233414976
 20
1.39545932421297
 30
0.0
 11
33.08199999996839
 21
2.566346990031603
 31
0.0
  0
LINE
  5
2214C
  8
0
  6
CONTINUOUS
 10
36.23199999996837
 20
5.71634699003158
 30
0.0
 11
37.67199999996831
 21
7.156346990031522
 31
0.0
  0
LINE
  5
2214D
  8
0
  6
CONTINUOUS
 10
32.1576374746103
 20
0.9684652555933289
 30
0.0
 11
33.20642631446081
 21
2.017254095443838
 31
0.0
  0
LINE
  5
2214E
  8
0
  6
CONTINUOUS
 10
36.23199999996837
 20
5.042827780951393
 30
0.0
 11
37.67199999996831
 21
6.482827780951334
 31
0.0
  0
LINE
  5
2214F
  8
0
  6
CONTINUOUS
 10
32.47774023927325
 20
0.6150488111760914
 30
0.0
 11
33.49903056428258
 21
1.636339136185419
 31
0.0
  0
LINE
  5
22150
  8
0
  6
CONTINUOUS
 10
36.23199999996837
 20
4.369308571871207
 30
0.0
 11
37.67199999996831
 21
5.809308571871148
 31
0.0
  0
LINE
  5
22151
  8
0
  6
CONTINUOUS
 10
32.84396249154443
 20
0.3077518543670883
 30
0.0
 11
33.93324121824649
 21
1.397030581069146
 31
0.0
  0
LINE
  5
22152
  8
0
  6
CONTINUOUS
 10
36.23199999996837
 20
3.695789362791021
 30
0.0
 11
37.67199999996831
 21
5.135789362790963
 31
0.0
  0
LINE
  5
22153
  8
0
  6
CONTINUOUS
 10
33.30186329036846
 20
0.0921334441109263
 30
0.0
 11
34.46442907112041
 21
1.254699224862875
 31
0.0
  0
LINE
  5
22154
  8
0
  6
CONTINUOUS
 10
36.23199999996837
 20
3.022270153710834
 30
0.0
 11
37.67199999996831
 21
4.462270153710776
 31
0.0
  0
LINE
  5
22155
  8
0
  6
CONTINUOUS
 10
33.79565647746294
 20
-0.0875925778747773
 30
0.0
 11
35.24350171668284
 21
1.360252661345124
 31
0.0
  0
LINE
  5
22156
  8
0
  6
CONTINUOUS
 10
36.18336676155003
 20
2.300117706212308
 30
0.0
 11
37.67199999996831
 21
3.788750944630589
 31
0.0
  0
LINE
  5
22157
  8
0
  6
CONTINUOUS
 10
34.37182574910968
 20
-0.184942515308224
 30
0.0
 11
37.67199999996831
 21
3.115231735550402
 31
0.0
  0
LINE
  5
22158
  8
0
  6
CONTINUOUS
 10
35.0453449581892
 20
-0.1849425153088955
 30
0.0
 11
37.66345697088136
 21
2.433169497383271
 31
0.0
  0
LINE
  5
22159
  8
0
  6
CONTINUOUS
 10
35.98667157609191
 20
0.0828648935136398
 30
0.0
 11
37.51927401744566
 21
1.615467334867382
 31
0.0
  0
LINE
  5
2215A
  8
0
  6
CONTINUOUS
 10
32.27747408544484
 20
0.7830920669904482
 30
0.0
 11
32.24716210471949
 21
0.8134040477157893
 31
0.0
  0
LINE
  5
2215B
  8
0
  6
CONTINUOUS
 10
33.83656881101902
 20
-0.1024834495035494
 30
0.0
 11
31.72538911593758
 21
2.008696245577891
 31
0.0
  0
LINE
  5
2215C
  8
0
  6
CONTINUOUS
 10
34.5925470859041
 20
-0.1849425153084434
 30
0.0
 11
31.64199999996833
 21
2.765604570627322
 31
0.0
  0
LINE
  5
2215D
  8
0
  6
CONTINUOUS
 10
35.26201302775981
 20
-0.1808892480839752
 30
0.0
 11
31.64199999996833
 21
3.439123779707508
 31
0.0
  0
LINE
  5
2215E
  8
0
  6
CONTINUOUS
 10
35.75580621485512
 20
-0.0011632260990879
 30
0.0
 11
34.51294304365551
 21
1.241699945100514
 31
0.0
  0
LINE
  5
2215F
  8
0
  6
CONTINUOUS
 10
33.08199999996839
 20
2.672642988787641
 30
0.0
 11
31.64199999996833
 21
4.112642988787695
 31
0.0
  0
LINE
  5
22160
  8
0
  6
CONTINUOUS
 10
36.24959940195042
 20
0.1785627958857976
 30
0.0
 11
35.10501653033629
 21
1.323145667499924
 31
0.0
  0
LINE
  5
22161
  8
0
  6
CONTINUOUS
 10
33.08199999996839
 20
3.346162197867827
 30
0.0
 11
31.64199999996833
 21
4.786162197867881
 31
0.0
  0
LINE
  5
22162
  8
0
  6
CONTINUOUS
 10
36.64615197150552
 20
0.4555294354108876
 30
0.0
 11
35.6362043832099
 21
1.465477023706505
 31
0.0
  0
LINE
  5
22163
  8
0
  6
CONTINUOUS
 10
33.08199999996839
 20
4.019681406948013
 30
0.0
 11
31.64199999996833
 21
5.459681406948068
 31
0.0
  0
LINE
  5
22164
  8
0
  6
CONTINUOUS
 10
37.0123742237774
 20
0.7628263922191891
 30
0.0
 11
35.97691545773309
 21
1.798285158263504
 31
0.0
  0
LINE
  5
22165
  8
0
  6
CONTINUOUS
 10
33.08199999996839
 20
4.6932006160282
 30
0.0
 11
31.64199999996833
 21
6.133200616028255
 31
0.0
  0
LINE
  5
22166
  8
0
  6
CONTINUOUS
 10
37.27491524157143
 20
1.173804583505349
 30
0.0
 11
36.17602012811361
 21
2.272699696963169
 31
0.0
  0
LINE
  5
22167
  8
0
  6
CONTINUOUS
 10
33.08199999996839
 20
5.366719825108387
 30
0.0
 11
31.64199999996833
 21
6.806719825108441
 31
0.0
  0
LINE
  5
22168
  8
0
  6
CONTINUOUS
 10
37.51739996707661
 20
1.604839067080355
 30
0.0
 11
36.23199999996837
 21
2.890239034188595
 31
0.0
  0
LINE
  5
22169
  8
0
  6
CONTINUOUS
 10
37.6183579579535
 20
2.177400285283649
 30
0.0
 11
36.23199999996837
 21
3.563758243268782
 31
0.0
  0
LINE
  5
2216A
  8
0
  6
CONTINUOUS
 10
33.08199999996839
 20
6.040239034188573
 30
0.0
 11
31.64199999996833
 21
7.480239034188628
 31
0.0
  0
LINE
  5
2216B
  8
0
  6
CONTINUOUS
 10
33.08199999996839
 20
6.713758243268759
 30
0.0
 11
31.64199999996833
 21
8.153758243268815
 31
0.0
  0
LINE
  5
2216C
  8
0
  6
CONTINUOUS
 10
37.67199999996831
 20
2.797277452349027
 30
0.0
 11
36.23199999996837
 21
4.237277452348969
 31
0.0
  0
LINE
  5
2216D
  8
0
  6
CONTINUOUS
 10
37.67199999996831
 20
3.470796661429214
 30
0.0
 11
36.23199999996837
 21
4.910796661429155
 31
0.0
  0
LINE
  5
2216E
  8
0
  6
CONTINUOUS
 10
37.67199999996831
 20
4.1443158705094
 30
0.0
 11
36.23199999996837
 21
5.584315870509341
 31
0.0
  0
LINE
  5
2216F
  8
0
  6
CONTINUOUS
 10
33.08199999996839
 20
7.387277452348946
 30
0.0
 11
31.70617745232608
 21
8.763099999991255
 31
0.0
  0
LINE
  5
22170
  8
0
  6
CONTINUOUS
 10
33.08199999996839
 20
8.060796661429134
 30
0.0
 11
32.37969666140626
 21
8.763099999991255
 31
0.0
  0
LINE
  5
22171
  8
0
  6
CONTINUOUS
 10
33.08199999996839
 20
8.734315870509318
 30
0.0
 11
33.05321587048645
 21
8.763099999991255
 31
0.0
  0
LINE
  5
22172
  8
0
  6
CONTINUOUS
 10
37.67199999996831
 20
4.817835079589586
 30
0.0
 11
36.23199999996837
 21
6.257835079589528
 31
0.0
  0
LINE
  5
22173
  8
0
  6
CONTINUOUS
 10
37.67199999996831
 20
5.491354288669772
 30
0.0
 11
36.23199999996837
 21
6.931354288669715
 31
0.0
  0
LINE
  5
22174
  8
0
  6
CONTINUOUS
 10
37.67199999996831
 20
6.164873497749959
 30
0.0
 11
36.23199999996837
 21
7.6048734977499
 31
0.0
  0
LINE
  5
22175
  8
0
  6
CONTINUOUS
 10
37.67199999996831
 20
6.838392706830145
 30
0.0
 11
36.23199999996837
 21
8.278392706830086
 31
0.0
  0
LINE
  5
22176
  8
0
  6
CONTINUOUS
 10
37.67199999996831
 20
7.511911915910333
 30
0.0
 11
36.42081191588738
 21
8.763099999991255
 31
0.0
  0
LINE
  5
22177
  8
0
  6
CONTINUOUS
 10
37.67199999996831
 20
8.185431124990519
 30
0.0
 11
37.09433112496757
 21
8.763099999991255
 31
0.0
  0
ENDBLK
  5
221DF
  8
0
  0
BLOCK
  8
0
  2
*X62
 70
     1
 10
0.0
 20
0.0
 30
0.0
  3
*X62
  1

  0
LINE
  5
22179
  8
0
  6
CONTINUOUS
 10
38.60499999996136
 20
8.762866199104765
 30
0.0
 11
38.71672554182345
 21
8.874591740966855
 31
0.0
  0
LINE
  5
2217A
  8
0
  6
CONTINUOUS
 10
38.60499999996136
 20
8.089346990024577
 30
0.0
 11
39.03418785440363
 21
8.518534844466847
 31
0.0
  0
LINE
  5
2217B
  8
0
  6
CONTINUOUS
 10
38.60499999996136
 20
7.41582778094439
 30
0.0
 11
39.35165016698382
 21
8.16247794796684
 31
0.0
  0
LINE
  5
2217C
  8
0
  6
CONTINUOUS
 10
38.60499999996136
 20
6.742308571864204
 30
0.0
 11
39.66911247956399
 21
7.806421051466834
 31
0.0
  0
LINE
  5
2217D
  8
0
  6
CONTINUOUS
 10
38.60499999996136
 20
6.068789362784018
 30
0.0
 11
39.98657479214418
 21
7.450364154966827
 31
0.0
  0
LINE
  5
2217E
  8
0
  6
CONTINUOUS
 10
38.60499999996136
 20
5.395270153703832
 30
0.0
 11
40.30403710472435
 21
7.09430725846682
 31
0.0
  0
LINE
  5
2217F
  8
0
  6
CONTINUOUS
 10
38.60499999996136
 20
4.721750944623645
 30
0.0
 11
40.62149941730453
 21
6.738250361966813
 31
0.0
  0
LINE
  5
22180
  8
0
  6
CONTINUOUS
 10
38.60499999996136
 20
4.048231735543458
 30
0.0
 11
40.93896172988471
 21
6.382193465466806
 31
0.0
  0
LINE
  5
22181
  8
0
  6
CONTINUOUS
 10
38.60499999996136
 20
3.374712526463272
 30
0.0
 11
40.02599999995994
 21
4.795712526461843
 31
0.0
  0
LINE
  5
22182
  8
0
  6
CONTINUOUS
 10
38.60499999996136
 20
2.701193317383085
 30
0.0
 11
40.02599999995994
 21
4.122193317381657
 31
0.0
  0
LINE
  5
22183
  8
0
  6
CONTINUOUS
 10
40.28339754687704
 20
5.053110073378947
 30
0.0
 11
41.25642404246489
 21
6.026136568966799
 31
0.0
  0
LINE
  5
22184
  8
0
  6
CONTINUOUS
 10
40.60085985945722
 20
4.697053176878939
 30
0.0
 11
41.57388635504507
 21
5.670079672466793
 31
0.0
  0
LINE
  5
22185
  8
0
  6
CONTINUOUS
 10
43.57899999995641
 20
8.348712526458318
 30
0.0
 11
43.99338747348935
 21
8.763099999991255
 31
0.0
  0
LINE
  5
22186
  8
0
  6
CONTINUOUS
 10
43.57899999995641
 20
7.675193317378131
 30
0.0
 11
44.66690668256953
 21
8.763099999991255
 31
0.0
  0
LINE
  5
22187
  8
0
  6
CONTINUOUS
 10
38.60499999996136
 20
2.027674108302898
 30
0.0
 11
40.02599999995994
 21
3.44867410830147
 31
0.0
  0
LINE
  5
22188
  8
0
  6
CONTINUOUS
 10
38.60499999996136
 20
1.354154899222712
 30
0.0
 11
40.02599999995994
 21
2.775154899221284
 31
0.0
  0
LINE
  5
22189
  8
0
  6
CONTINUOUS
 10
38.60499999996136
 20
0.6806356901425255
 30
0.0
 11
40.02599999995994
 21
2.101635690141098
 31
0.0
  0
LINE
  5
2218A
  8
0
  6
CONTINUOUS
 10
38.60499999996136
 20
0.0071164810623383
 30
0.0
 11
40.02599999995994
 21
1.428116481060911
 31
0.0
  0
LINE
  5
2218B
  8
0
  6
CONTINUOUS
 10
40.9183221720374
 20
4.340996280378933
 30
0.0
 11
41.89134866762525
 21
5.314022775966786
 31
0.0
  0
LINE
  5
2218C
  8
0
  6
CONTINUOUS
 10
41.23578448461758
 20
3.984939383878926
 30
0.0
 11
42.20881098020543
 21
4.957965879466778
 31
0.0
  0
LINE
  5
2218D
  8
0
  6
CONTINUOUS
 10
41.55324679719776
 20
3.628882487378919
 30
0.0
 11
42.52627329278561
 21
4.601908982966772
 31
0.0
  0
LINE
  5
2218E
  8
0
  6
CONTINUOUS
 10
41.87070910977793
 20
3.272825590878912
 30
0.0
 11
42.84373560536579
 21
4.245852086466765
 31
0.0
  0
LINE
  5
2218F
  8
0
  6
CONTINUOUS
 10
43.57899999995641
 20
7.001674108297943
 30
0.0
 11
44.99999999995498
 21
8.422674108296516
 31
0.0
  0
LINE
  5
22190
  8
0
  6
CONTINUOUS
 10
43.57899999995641
 20
6.328154899217758
 30
0.0
 11
44.99999999995498
 21
7.749154899216329
 31
0.0
  0
LINE
  5
22191
  8
0
  6
CONTINUOUS
 10
43.57899999995641
 20
5.654635690137571
 30
0.0
 11
44.99999999995498
 21
7.075635690136142
 31
0.0
  0
LINE
  5
22192
  8
0
  6
CONTINUOUS
 10
43.57899999995641
 20
4.981116481057384
 30
0.0
 11
44.99999999995498
 21
6.402116481055955
 31
0.0
  0
LINE
  5
22193
  8
0
  6
CONTINUOUS
 10
39.27140272797921
 20
-0.0000000000000009
 30
0.0
 11
40.02599999995994
 21
0.7545972719807246
 31
0.0
  0
LINE
  5
22194
  8
0
  6
CONTINUOUS
 10
39.9449219370594
 20
-0.0000000000000009
 30
0.0
 11
40.02599999995994
 21
0.0810780629005379
 31
0.0
  0
LINE
  5
22195
  8
0
  6
CONTINUOUS
 10
42.18817142235812
 20
2.916768694378905
 30
0.0
 11
43.16119791794597
 21
3.889795189966758
 31
0.0
  0
LINE
  5
22196
  8
0
  6
CONTINUOUS
 10
42.50563373493829
 20
2.560711797878898
 30
0.0
 11
43.47866023052615
 21
3.533738293466751
 31
0.0
  0
LINE
  5
22197
  8
0
  6
CONTINUOUS
 10
43.57899999995641
 20
4.307597271977198
 30
0.0
 11
44.99999999995498
 21
5.728597271975769
 31
0.0
  0
LINE
  5
22198
  8
0
  6
CONTINUOUS
 10
43.57899999995641
 20
3.634078062897011
 30
0.0
 11
44.99999999995498
 21
5.055078062895582
 31
0.0
  0
LINE
  5
22199
  8
0
  6
CONTINUOUS
 10
42.82309604751848
 20
2.204654901378891
 30
0.0
 11
44.99999999995498
 21
4.381558853815395
 31
0.0
  0
LINE
  5
2219A
  8
0
  6
CONTINUOUS
 10
43.14055836009865
 20
1.848598004878885
 30
0.0
 11
44.99999999995498
 21
3.70803964473521
 31
0.0
  0
LINE
  5
2219B
  8
0
  6
CONTINUOUS
 10
43.45802067267883
 20
1.492541108378878
 30
0.0
 11
44.99999999995498
 21
3.034520435655023
 31
0.0
  0
LINE
  5
2219C
  8
0
  6
CONTINUOUS
 10
43.77548298525902
 20
1.136484211878871
 30
0.0
 11
44.99999999995498
 21
2.361001226574837
 31
0.0
  0
LINE
  5
2219D
  8
0
  6
CONTINUOUS
 10
44.09294529783919
 20
0.7804273153788639
 30
0.0
 11
44.99999999995498
 21
1.687482017494649
 31
0.0
  0
LINE
  5
2219E
  8
0
  6
CONTINUOUS
 10
44.41040761041938
 20
0.4243704188788566
 30
0.0
 11
44.99999999995498
 21
1.013962808414463
 31
0.0
  0
LINE
  5
2219F
  8
0
  6
CONTINUOUS
 10
44.72786992299955
 20
0.0683135223788494
 30
0.0
 11
44.99999999995498
 21
0.340443599334276
 31
0.0
  0
LINE
  5
221A0
  8
0
  6
CONTINUOUS
 10
39.12223903415696
 20
-0.0000000000000009
 30
0.0
 11
38.60499999996136
 21
0.5172390341955961
 31
0.0
  0
LINE
  5
221A1
  8
0
  6
CONTINUOUS
 10
39.79575824323715
 20
-0.0000000000000009
 30
0.0
 11
38.60499999996136
 21
1.190758243275783
 31
0.0
  0
LINE
  5
221A2
  8
0
  6
CONTINUOUS
 10
40.02599999995994
 20
0.443277452357397
 30
0.0
 11
38.60499999996136
 21
1.864277452355969
 31
0.0
  0
LINE
  5
221A3
  8
0
  6
CONTINUOUS
 10
40.02599999995994
 20
1.116796661437583
 30
0.0
 11
38.60499999996136
 21
2.537796661436155
 31
0.0
  0
LINE
  5
221A4
  8
0
  6
CONTINUOUS
 10
40.02599999995994
 20
1.79031587051777
 30
0.0
 11
38.60499999996136
 21
3.211315870516341
 31
0.0
  0
LINE
  5
221A5
  8
0
  6
CONTINUOUS
 10
40.02599999995994
 20
2.463835079597956
 30
0.0
 11
38.60499999996136
 21
3.884835079596527
 31
0.0
  0
LINE
  5
221A6
  8
0
  6
CONTINUOUS
 10
40.02599999995994
 20
3.137354288678143
 30
0.0
 11
38.60499999996136
 21
4.558354288676714
 31
0.0
  0
LINE
  5
221A7
  8
0
  6
CONTINUOUS
 10
40.02599999995994
 20
3.810873497758329
 30
0.0
 11
38.60499999996136
 21
5.2318734977569
 31
0.0
  0
LINE
  5
221A8
  8
0
  6
CONTINUOUS
 10
40.02599999995994
 20
4.484392706838515
 30
0.0
 11
38.60499999996136
 21
5.905392706837086
 31
0.0
  0
LINE
  5
221A9
  8
0
  6
CONTINUOUS
 10
44.99999999995498
 20
0.183911915923658
 30
0.0
 11
41.53858364506288
 21
3.64532827081576
 31
0.0
  0
LINE
  5
221AA
  8
0
  6
CONTINUOUS
 10
40.02599999995994
 20
5.157911915918703
 30
0.0
 11
38.60499999996136
 21
6.578911915917274
 31
0.0
  0
LINE
  5
221AB
  8
0
  6
CONTINUOUS
 10
44.99999999995498
 20
0.8574311250038447
 30
0.0
 11
38.60499999996136
 21
7.25243112499746
 31
0.0
  0
LINE
  5
221AC
  8
0
  6
CONTINUOUS
 10
44.99999999995498
 20
1.530950334084031
 30
0.0
 11
38.60499999996136
 21
7.925950334077647
 31
0.0
  0
LINE
  5
221AD
  8
0
  6
CONTINUOUS
 10
44.99999999995498
 20
2.204469543164218
 30
0.0
 11
43.57899999995641
 21
3.625469543162789
 31
0.0
  0
LINE
  5
221AE
  8
0
  6
CONTINUOUS
 10
41.89876730984767
 20
5.305702233271528
 30
0.0
 11
38.60499999996136
 21
8.599469543157834
 31
0.0
  0
LINE
  5
221AF
  8
0
  6
CONTINUOUS
 10
44.99999999995498
 20
2.877988752244405
 30
0.0
 11
43.57899999995641
 21
4.298988752242975
 31
0.0
  0
LINE
  5
221B0
  8
0
  6
CONTINUOUS
 10
44.99999999995498
 20
3.551507961324591
 30
0.0
 11
43.57899999995641
 21
4.972507961323163
 31
0.0
  0
LINE
  5
221B1
  8
0
  6
CONTINUOUS
 10
44.99999999995498
 20
4.225027170404777
 30
0.0
 11
43.57899999995641
 21
5.646027170403348
 31
0.0
  0
LINE
  5
221B2
  8
0
  6
CONTINUOUS
 10
44.99999999995498
 20
4.898546379484964
 30
0.0
 11
43.57899999995641
 21
6.319546379483535
 31
0.0
  0
LINE
  5
221B3
  8
0
  6
CONTINUOUS
 10
44.99999999995498
 20
5.572065588565151
 30
0.0
 11
43.57899999995641
 21
6.993065588563722
 31
0.0
  0
LINE
  5
221B4
  8
0
  6
CONTINUOUS
 10
44.99999999995498
 20
6.245584797645336
 30
0.0
 11
43.57899999995641
 21
7.666584797643908
 31
0.0
  0
LINE
  5
221B5
  8
0
  6
CONTINUOUS
 10
44.99999999995498
 20
6.919104006725522
 30
0.0
 11
43.57899999995641
 21
8.340104006724093
 31
0.0
  0
LINE
  5
221B6
  8
0
  6
CONTINUOUS
 10
44.99999999995498
 20
7.592623215805709
 30
0.0
 11
43.82952321576943
 21
8.763099999991255
 31
0.0
  0
LINE
  5
221B7
  8
0
  6
CONTINUOUS
 10
44.99999999995498
 20
8.266142424885896
 30
0.0
 11
44.50304242484962
 21
8.763099999991255
 31
0.0
  0
ENDBLK
  5
221E1
  8
0
  0
BLOCK
  8
0
  2
*X63
 70
     1
 10
0.0
 20
0.0
 30
0.0
  3
*X63
  1

  0
LINE
  5
221B9
  8
0
  6
CONTINUOUS
 10
0.0
 20
8.548461116714023
 30
0.0
 11
0.2146388832772324
 21
8.763099999991255
 31
0.0
  0
LINE
  5
221BA
  8
0
  6
CONTINUOUS
 10
-0.0000000000000002
 20
7.874941907633837
 30
0.0
 11
0.8881580923574184
 21
8.763099999991255
 31
0.0
  0
LINE
  5
221BB
  8
0
  6
CONTINUOUS
 10
0.0
 20
7.20142269855365
 30
0.0
 11
1.420999999998572
 21
8.622422698552223
 31
0.0
  0
LINE
  5
221BC
  8
0
  6
CONTINUOUS
 10
-0.0000000000000001
 20
6.527903489473465
 30
0.0
 11
1.420999999998571
 21
7.948903489472036
 31
0.0
  0
LINE
  5
221BD
  8
0
  6
CONTINUOUS
 10
-0.0000000000000002
 20
5.854384280393278
 30
0.0
 11
1.420999999998571
 21
7.275384280391849
 31
0.0
  0
LINE
  5
221BE
  8
0
  6
CONTINUOUS
 10
-0.0000000000000002
 20
5.180865071313091
 30
0.0
 11
1.420999999998571
 21
6.601865071311663
 31
0.0
  0
LINE
  5
221BF
  8
0
  6
CONTINUOUS
 10
0.0
 20
4.507345862232905
 30
0.0
 11
1.420999999998571
 21
5.928345862231477
 31
0.0
  0
LINE
  5
221C0
  8
0
  6
CONTINUOUS
 10
-0.0000000000000003
 20
3.833826653152718
 30
0.0
 11
1.420999999998571
 21
5.25482665315129
 31
0.0
  0
LINE
  5
221C1
  8
0
  6
CONTINUOUS
 10
-0.0000000000000002
 20
3.160307444072532
 30
0.0
 11
1.420999999998571
 21
4.581307444071103
 31
0.0
  0
LINE
  5
221C2
  8
0
  6
CONTINUOUS
 10
-0.0000000000000001
 20
2.486788234992345
 30
0.0
 11
1.420999999998571
 21
3.907788234990917
 31
0.0
  0
LINE
  5
221C3
  8
0
  6
CONTINUOUS
 10
-0.0000000000000006
 20
1.813269025912159
 30
0.0
 11
1.420999999998571
 21
3.234269025910731
 31
0.0
  0
LINE
  5
221C4
  8
0
  6
CONTINUOUS
 10
0.0
 20
1.139749816831973
 30
0.0
 11
1.420999999998571
 21
2.560749816830544
 31
0.0
  0
LINE
  5
221C5
  8
0
  6
CONTINUOUS
 10
0.0000000000000002
 20
0.466230607751787
 30
0.0
 11
1.420999999998571
 21
1.887230607750358
 31
0.0
  0
LINE
  5
221C6
  8
0
  6
CONTINUOUS
 10
0.2072886013284003
 20
-0.0000000000000009
 30
0.0
 11
1.420999999998571
 21
1.213711398670171
 31
0.0
  0
LINE
  5
221C7
  8
0
  6
CONTINUOUS
 10
0.8808078104085864
 20
-0.0000000000000009
 30
0.0
 11
1.420999999998571
 21
0.5401921895899839
 31
0.0
  0
LINE
  5
221C8
  8
0
  6
CONTINUOUS
 10
0.0581249075061505
 20
-0.0000000000000009
 30
0.0
 11
-0.0000000000000002
 21
0.0581249075061496
 31
0.0
  0
LINE
  5
221C9
  8
0
  6
CONTINUOUS
 10
0.7316441165863372
 20
-0.0000000000000009
 30
0.0
 11
-0.0000000000000002
 21
0.7316441165863363
 31
0.0
  0
LINE
  5
221CA
  8
0
  6
CONTINUOUS
 10
1.405163325666523
 20
-0.0000000000000009
 30
0.0
 11
-0.0000000000000002
 21
1.405163325666523
 31
0.0
  0
LINE
  5
221CB
  8
0
  6
CONTINUOUS
 10
1.420999999998572
 20
0.6576825347481381
 30
0.0
 11
-0.0000000000000001
 21
2.07868253474671
 31
0.0
  0
LINE
  5
221CC
  8
0
  6
CONTINUOUS
 10
1.420999999998571
 20
1.331201743828324
 30
0.0
 11
-0.0000000000000001
 21
2.752201743826896
 31
0.0
  0
LINE
  5
221CD
  8
0
  6
CONTINUOUS
 10
1.420999999998571
 20
2.004720952908511
 30
0.0
 11
-0.0000000000000002
 21
3.425720952907082
 31
0.0
  0
LINE
  5
221CE
  8
0
  6
CONTINUOUS
 10
1.420999999998571
 20
2.678240161988697
 30
0.0
 11
-0.0000000000000001
 21
4.099240161987269
 31
0.0
  0
LINE
  5
221CF
  8
0
  6
CONTINUOUS
 10
1.420999999998572
 20
3.351759371068884
 30
0.0
 11
0.0
 21
4.772759371067455
 31
0.0
  0
LINE
  5
221D0
  8
0
  6
CONTINUOUS
 10
1.420999999998571
 20
4.02527858014907
 30
0.0
 11
-0.0000000000000003
 21
5.446278580147642
 31
0.0
  0
LINE
  5
221D1
  8
0
  6
CONTINUOUS
 10
1.420999999998571
 20
4.698797789229257
 30
0.0
 11
0.0
 21
6.119797789227828
 31
0.0
  0
LINE
  5
221D2
  8
0
  6
CONTINUOUS
 10
1.420999999998571
 20
5.372316998309444
 30
0.0
 11
-0.0000000000000001
 21
6.793316998308015
 31
0.0
  0
LINE
  5
221D3
  8
0
  6
CONTINUOUS
 10
1.420999999998572
 20
6.045836207389629
 30
0.0
 11
-0.0000000000000004
 21
7.466836207388202
 31
0.0
  0
LINE
  5
221D4
  8
0
  6
CONTINUOUS
 10
1.420999999998571
 20
6.719355416469816
 30
0.0
 11
0.0
 21
8.140355416468388
 31
0.0
  0
LINE
  5
221D5
  8
0
  6
CONTINUOUS
 10
1.420999999998571
 20
7.392874625550003
 30
0.0
 11
0.0507746255573185
 21
8.763099999991255
 31
0.0
  0
LINE
  5
221D6
  8
0
  6
CONTINUOUS
 10
1.420999999998571
 20
8.06639383463019
 30
0.0
 11
0.7242938346375052
 21
8.763099999991255
 31
0.0
  0
LINE
  5
221D7
  8
0
  6
CONTINUOUS
 10
1.420999999998571
 20
8.739913043710375
 30
0.0
 11
1.397813043717691
 21
8.763099999991255
 31
0.0
  0
ENDBLK
  5
221E3
  8
0
  0
ENDSEC
  0
SECTION
  2
ENTITIES
  0
LINE
  5
1D8CA
  8
01
 10
743.016241615365
 20
-650.6713303512659
 30
0.0
 11
743.016241615365
 21
-672.8213303512673
 31
0.0
  0
LINE
  5
1D90A
  8
01
 10
743.016241615365
 20
-653.1713303512665
 30
0.0
 11
743.016241615365
 21
-670.8213303512659
 31
0.0
  0
TEXT
  5
1DB93
  8
1TEXT
 10
521.5039948787517
 20
-491.8290934743441
 30
0.0
 40
4.0
  1
表面処理
 72
     1
 11
530.7706615454183
 21
-491.8290934743441
 31
0.0
  0
LINE
  5
1DB94
  8
1DIM
 10
513.3706615454182
 20
-486.3290934743441
 30
0.0
 11
583.3706615454182
 21
-486.3290934743441
 31
0.0
  0
LINE
  5
1DB95
  8
1DIM
 10
513.3706615454182
 20
-500.3290934743441
 30
0.0
 11
583.3706615454182
 21
-500.3290934743441
 31
0.0
  0
LINE
  5
1DB96
  8
1DIM
 10
513.3706615454182
 20
-493.3290934743441
 30
0.0
 11
583.3706615454182
 21
-493.3290934743441
 31
0.0
  0
LINE
  5
1DB97
  8
1DIM
 10
548.3706615454182
 20
-486.3290934743441
 30
0.0
 11
548.3706615454178
 21
-500.3290934743441
 31
0.0
  0
TEXT
  5
1DB98
  8
1TEXT
 10
558.9039948787516
 20
-491.8290934743441
 30
0.0
 40
4.0
  1
コード
 72
     1
 11
565.7706615454183
 21
-491.8290934743441
 31
0.0
  0
LINE
  5
1DB99
  8
1DIM
 10
513.3706615454182
 20
-500.3290934743441
 30
0.0
 11
513.3706615454182
 21
-486.3290934743441
 31
0.0
  0
LINE
  5
1DB9A
  8
1DIM
 10
583.370661545418
 20
-500.3290934743441
 30
0.0
 11
583.3706615454182
 21
-486.3290934743441
 31
0.0
  0
TEXT
  5
1DB9B
  8
1TEXT
 10
513.3706615454182
 20
-481.3290934743441
 30
0.0
 40
8.0
  1
SE-411-XXL
  0
TEXT
  5
1DB9C
  8
1TEXT
 10
526.4373282120849
 20
-498.6643821338684
 30
0.0
 40
4.0
  1
鏡面
 72
     1
 11
530.7706615454183
 21
-498.6643821338684
 31
0.0
  0
TEXT
  5
1DB9D
  8
1TEXT
 10
550.4706615454186
 20
-499.0434504579934
 30
0.0
 40
4.0
  1
SE-411-XPL
 41
0.85
 72
     1
 11
565.7706615454185
 21
-499.0434504579934
 31
0.0
  0
LINE
  5
1DBA4
  8
01
 10
755.516241615365
 20
-618.5931567659845
 30
0.0
 11
755.516241615365
 21
-693.0495039365483
 31
0.0
  0
LINE
  5
1DBA5
  8
01
 10
764.516241615365
 20
-618.5931567659845
 30
0.0
 11
764.516241615365
 21
-693.0495039365483
 31
0.0
  0
LINE
  5
1DBA6
  8
01
 10
743.016241615365
 20
-618.5931567659845
 30
0.0
 11
743.016241615365
 21
-693.0495039365483
 31
0.0
  0
LINE
  5
20DF8
  8
01
  6
CONTINUOUS
 10
611.8930689745915
 20
-637.8213303512664
 30
0.0
 11
621.4930689745916
 21
-637.8213303512664
 31
0.0
  0
ARC
  5
20DF9
  8
01
  6
CONTINUOUS
 10
621.4930689745916
 20
-639.0213303512662
 30
0.0
 40
1.200000000000045
 50
0.0
 51
90.0
  0
LINE
  5
20DFA
  8
01
  6
CONTINUOUS
 10
622.6930700782189
 20
-660.8213303512664
 30
0.0
 11
622.6930634638846
 21
-672.6213303512664
 31
0.0
  0
LINE
  5
20DFB
  8
01
  6
CONTINUOUS
 10
621.4930700782188
 20
-661.0213303512662
 30
0.0
 11
622.6930700782189
 21
-661.0213303512662
 31
0.0
  0
LINE
  5
20DFC
  8
01
  6
CONTINUOUS
 10
622.6930689745916
 20
-639.0213302429572
 30
0.0
 11
622.6930700396305
 21
-650.8213303512664
 31
0.0
  0
LINE
  5
20DFD
  8
01
  6
CONTINUOUS
 10
622.6930700782189
 20
-650.6213303512664
 30
0.0
 11
621.4930700782188
 21
-650.6213303512664
 31
0.0
  0
LINE
  5
20DFE
  8
01
  6
CONTINUOUS
 10
610.6930700782189
 20
-650.8213303512664
 30
0.0
 11
610.6930689745916
 21
-639.0213303512662
 31
0.0
  0
LINE
  5
20DFF
  8
01
  6
CONTINUOUS
 10
611.8930700782188
 20
-650.6213303512664
 30
0.0
 11
610.6930700782189
 21
-650.6213303512664
 31
0.0
  0
LINE
  5
20E00
  8
01
  6
CONTINUOUS
 10
621.4930700782188
 20
-650.6213303512664
 30
0.0
 11
611.8930700782188
 21
-650.6213303512664
 31
0.0
  0
ARC
  5
20E01
  8
01
  6
CONTINUOUS
 10
611.8930689745915
 20
-639.0213303512662
 30
0.0
 40
1.199999999999989
 50
90.0
 51
180.0
  0
LINE
  5
20E02
  8
01
  6
CONTINUOUS
 10
621.4930700782188
 20
-661.0213303512662
 30
0.0
 11
611.8930700782188
 21
-661.0213303512662
 31
0.0
  0
ARC
  5
20E03
  8
01
  6
CONTINUOUS
 10
611.8930634638846
 20
-672.6213303512664
 30
0.0
 40
1.200000000000003
 50
180.0
 51
270.0
  0
LINE
  5
20E04
  8
01
  6
CONTINUOUS
 10
621.4930634638846
 20
-673.8213303512664
 30
0.0
 11
611.8930634638846
 21
-673.8213303512664
 31
0.0
  0
LINE
  5
20E05
  8
01
  6
CONTINUOUS
 10
610.6930634638846
 20
-672.6213303512664
 30
0.0
 11
610.6930700782189
 21
-660.8213303512664
 31
0.0
  0
LINE
  5
20E06
  8
01
  6
CONTINUOUS
 10
610.6930700782189
 20
-661.0213303512662
 30
0.0
 11
611.8930700782188
 21
-661.0213303512662
 31
0.0
  0
ARC
  5
20E07
  8
01
  6
CONTINUOUS
 10
621.4930634638846
 20
-672.6213303512664
 30
0.0
 40
1.200000000000045
 50
270.0
 51
0.0
  0
LINE
  5
20E1C
  8
01
  6
CONTINUOUS
 10
689.0162405117377
 20
-639.0213492749153
 30
0.0
 11
689.0162416060122
 21
-650.7213492749153
 31
0.0
  0
LINE
  5
20E1E
  8
01
  6
CONTINUOUS
 10
743.016241615365
 20
-672.6213492749152
 30
0.0
 11
743.0162471260719
 21
-637.8213492749153
 31
0.0
  0
LINE
  5
20E25
  8
01
  6
CONTINUOUS
 10
689.016241615365
 20
-661.1213492749151
 30
0.0
 11
706.8162482296991
 21
-661.1213492749151
 31
0.0
  0
LINE
  5
20E26
  8
01
  6
CONTINUOUS
 10
689.016241615365
 20
-650.7213492749153
 30
0.0
 11
706.8162482296991
 21
-650.7213492749153
 31
0.0
  0
ARC
  5
20E27
  8
01
  6
CONTINUOUS
 10
706.8162482296991
 20
-651.9213492749153
 30
0.0
 40
1.200000000000017
 50
0.0
 51
90.0
  0
ARC
  5
20E28
  8
01
  6
CONTINUOUS
 10
706.8162482296991
 20
-651.9213492749153
 30
0.0
 40
1.200000000000017
 50
0.0
 51
90.0
  0
ARC
  5
20E29
  8
01
  6
CONTINUOUS
 10
706.8162482296991
 20
-659.9213492749151
 30
0.0
 40
1.200000000000017
 50
270.0
 51
0.0
  0
ARC
  5
20E2A
  8
01
  6
CONTINUOUS
 10
706.8162482296991
 20
-659.9213492749151
 30
0.0
 40
1.200000000000017
 50
270.0
 51
0.0
  0
ARC
  5
20E2B
  8
01
  6
CONTINUOUS
 10
706.8162482296991
 20
-651.9213492749153
 30
0.0
 40
1.200000000000017
 50
0.0
 51
90.0
  0
ARC
  5
20E2C
  8
01
  6
CONTINUOUS
 10
706.8162482296991
 20
-651.9213492749153
 30
0.0
 40
1.200000000000017
 50
0.0
 51
90.0
  0
ARC
  5
20E2D
  8
01
  6
CONTINUOUS
 10
706.8162482296991
 20
-659.9213492749151
 30
0.0
 40
1.200000000000017
 50
270.0
 51
0.0
  0
ARC
  5
20E2E
  8
01
  6
CONTINUOUS
 10
706.8162482296991
 20
-659.9213492749151
 30
0.0
 40
1.200000000000017
 50
270.0
 51
0.0
  0
LINE
  5
20E2F
  8
01
  6
CONTINUOUS
 10
743.0162471260719
 20
-637.8213492749153
 30
0.0
 11
690.2162405117377
 21
-637.8213492749153
 31
0.0
  0
LINE
  5
20E30
  8
01
  6
CONTINUOUS
 10
689.0162350010307
 20
-672.6213492749152
 30
0.0
 11
689.0162415583449
 21
-661.1213492749151
 31
0.0
  0
LINE
  5
20E31
  8
01
  6
CONTINUOUS
 10
743.016241615365
 20
-672.6213492749152
 30
0.0
 11
743.016241615365
 21
-673.8213492749153
 31
0.0
  0
LINE
  5
20E32
  8
01
  6
CONTINUOUS
 10
743.016241615365
 20
-673.8213492749153
 30
0.0
 11
743.016241615365
 21
-672.6213492749152
 31
0.0
  0
ARC
  5
20E35
  8
01
  6
CONTINUOUS
 10
690.2162350010308
 20
-672.6213492749152
 30
0.0
 40
1.200000000000017
 50
180.0
 51
270.0
  0
ARC
  5
20E36
  8
01
  6
CONTINUOUS
 10
690.2162350010308
 20
-672.6213492749152
 30
0.0
 40
1.200000000000017
 50
180.0
 51
270.0
  0
ARC
  5
20E39
  8
01
  6
CONTINUOUS
 10
690.2162405117377
 20
-639.0213492749153
 30
0.0
 40
1.200000000000017
 50
90.0
 51
180.0
  0
LINE
  5
20E3C
  8
01
  6
CONTINUOUS
 10
635.6930700782186
 20
-576.741079052214
 30
0.0
 11
635.6930700782189
 21
-594.3411097088331
 31
0.0
  0
ARC
  5
20E3E
  8
01
  6
CONTINUOUS
 10
634.4930700782188
 20
-594.3410790522141
 30
0.0
 40
1.2
 50
270.0
 51
0.0
  0
ARC
  5
20E3F
  8
01
  6
CONTINUOUS
 10
634.4930700782188
 20
-576.741079052214
 30
0.0
 40
1.2
 50
0.0
 51
90.0
  0
LINE
  5
20E40
  8
01
  6
CONTINUOUS
 10
-1.106965609596728
 20
-650.8213610078853
 30
0.0
 11
634.5016476621171
 21
-650.8213610078853
 31
0.0
  0
ARC
  5
20E41
  8
01
  6
CONTINUOUS
 10
634.4930700782187
 20
-652.0213303512664
 30
0.0
 40
1.2
 50
0.0
 51
90.0
  0
LINE
  5
20E47
  8
01
  6
CONTINUOUS
 10
688.016241615365
 20
-652.2213492749152
 30
0.0
 11
688.016241615365
 21
-659.6213492749152
 31
0.0
  0
LINE
  5
20E49
  8
01
  6
CONTINUOUS
 10
689.216241615365
 20
-660.9213492749153
 30
0.0
 11
706.8162482296991
 21
-660.9213492749152
 31
0.0
  0
LINE
  5
20E4A
  8
01
  6
CONTINUOUS
 10
689.216241615365
 20
-650.9213492749153
 30
0.0
 11
706.8162482296991
 21
-650.9213492749153
 31
0.0
  0
ARC
  5
20E4B
  8
01
  6
CONTINUOUS
 10
689.216241615365
 20
-659.7213492749153
 30
0.0
 40
1.2
 50
180.0
 51
270.0
  0
ARC
  5
20E4C
  8
01
  6
CONTINUOUS
 10
689.216241615365
 20
-652.1213492749154
 30
0.0
 40
1.2
 50
90.0
 51
180.0
  0
ARC
  5
20E4D
  8
01
  6
CONTINUOUS
 10
706.8162482296991
 20
-652.1213492749151
 30
0.0
 40
1.2
 50
0.0
 51
90.0
  0
ARC
  5
20E4E
  8
01
  6
CONTINUOUS
 10
706.8162482296991
 20
-659.7213492749153
 30
0.0
 40
1.2
 50
270.0
 51
0.0
  0
LINE
  5
20E59
  8
01
  6
CONTINUOUS
 10
610.693070078219
 20
-593.3410790522141
 30
0.0
 11
610.6930700782189
 21
-540.5410790522142
 31
0.0
  0
ARC
  5
20E5C
  8
01
  6
CONTINUOUS
 10
611.8930700782189
 20
-593.3410790522141
 30
0.0
 40
1.200000000000017
 50
180.0
 51
270.0
  0
LINE
  5
20E5D
  8
01
  6
CONTINUOUS
 10
621.4930700782188
 20
-594.5410790522142
 30
0.0
 11
611.8930700782189
 21
-594.5410790522142
 31
0.0
  0
LINE
  5
20E5E
  8
01
  6
CONTINUOUS
 10
622.6930700782189
 20
-540.5410790522142
 30
0.0
 11
622.6930700782189
 21
-593.3410790522141
 31
0.0
  0
LINE
  5
20E5F
  8
01
  6
CONTINUOUS
 10
610.6930700782189
 20
-540.5410790522142
 30
0.0
 11
622.6930700782189
 21
-540.5410790522142
 31
0.0
  0
ARC
  5
20E60
  8
01
  6
CONTINUOUS
 10
621.4930700782188
 20
-593.3410790522141
 30
0.0
 40
1.200000000000017
 50
270.0
 51
0.0
  0
LINE
  5
20E61
  8
01
  6
CONTINUOUS
 10
622.6930700782189
 20
-575.5410790522142
 30
0.0
 11
634.4930700782188
 21
-575.5410790522142
 31
0.0
  0
LINE
  5
20E7C
  8
01
  6
CONTINUOUS
 10
21.49303328677604
 20
-637.8213610078853
 30
0.0
 11
11.89303328677602
 21
-637.8213610078853
 31
0.0
  0
ARC
  5
20E7D
  8
01
  6
CONTINUOUS
 10
11.89303328677602
 20
-639.0213610078852
 30
0.0
 40
1.200000000000045
 50
90.0
 51
180.0
  0
LINE
  5
20E7E
  8
01
  6
CONTINUOUS
 10
10.69303415913282
 20
-660.8213610078853
 30
0.0
 11
10.69302777606902
 21
-672.6213610078853
 31
0.0
  0
LINE
  5
20E7F
  8
01
  6
CONTINUOUS
 10
11.89303439040327
 20
-661.0213610078852
 30
0.0
 11
10.69303439040323
 21
-661.0213610078852
 31
0.0
  0
LINE
  5
20E80
  8
01
  6
CONTINUOUS
 10
10.69303328677597
 20
-639.0213610078852
 30
0.0
 11
10.69303435181484
 21
-650.8213610078853
 31
0.0
  0
LINE
  5
20E81
  8
01
  6
CONTINUOUS
 10
10.69303439040323
 20
-650.6213610078853
 30
0.0
 11
11.89303439040327
 21
-650.6213610078853
 31
0.0
  0
LINE
  5
20E82
  8
01
  6
CONTINUOUS
 10
22.69303436692178
 20
-650.8213610078853
 30
0.0
 11
22.69303328677603
 21
-639.0213608980399
 31
0.0
  0
LINE
  5
20E83
  8
01
  6
CONTINUOUS
 10
21.4930343904033
 20
-650.6213610078853
 30
0.0
 11
22.69303439040323
 21
-650.6213610078853
 31
0.0
  0
LINE
  5
20E84
  8
01
  6
CONTINUOUS
 10
10.69303433376334
 20
-650.6213610078853
 30
0.0
 11
21.4930343904033
 21
-650.6213610078853
 31
0.0
  0
ARC
  5
20E85
  8
01
  6
CONTINUOUS
 10
21.49303328677604
 20
-639.0213610078852
 30
0.0
 40
1.199999999999989
 50
0.0
 51
90.0
  0
LINE
  5
20E86
  8
01
  6
CONTINUOUS
 10
11.89303439040327
 20
-661.0213610078852
 30
0.0
 11
21.4930343904033
 21
-661.0213610078852
 31
0.0
  0
ARC
  5
20E87
  8
01
  6
CONTINUOUS
 10
21.49302777606908
 20
-672.6213610078853
 30
0.0
 40
1.200000000000003
 50
270.0
 51
0.0
  0
LINE
  5
20E88
  8
01
  6
CONTINUOUS
 10
11.89302777606906
 20
-673.8213610078853
 30
0.0
 11
21.49302777606908
 21
-673.8213610078853
 31
0.0
  0
LINE
  5
20E89
  8
01
  6
CONTINUOUS
 10
22.69302777606913
 20
-672.6213610078853
 30
0.0
 11
22.69303424967268
 21
-660.8213610078853
 31
0.0
  0
LINE
  5
20E8A
  8
01
  6
CONTINUOUS
 10
22.69303439040323
 20
-661.0213610078852
 30
0.0
 11
21.4930343904033
 21
-661.0213610078852
 31
0.0
  0
ARC
  5
20E8B
  8
01
  6
CONTINUOUS
 10
11.89302777606906
 20
-672.6213610078853
 30
0.0
 40
1.200000000000045
 50
180.0
 51
270.0
  0
LINE
  5
20E8D
  8
1CENTER
 10
16.69302364673456
 20
-659.4496265712758
 30
0.0
 11
16.69302364673456
 21
-652.6996265712758
 31
0.0
  0
LINE
  5
20E8E
  8
01
  6
CONTINUOUS
 10
-1.106965609596841
 20
-595.5411097088331
 30
0.0
 11
634.4930700782188
 21
-595.5411097088331
 31
0.0
  0
LINE
  5
20E8F
  8
01
  6
CONTINUOUS
 10
-2.306965609596659
 20
-576.7411097088329
 30
0.0
 11
-2.30696560959683
 21
-594.3411097088331
 31
0.0
  0
LINE
  5
20E91
  8
01
  6
CONTINUOUS
 10
-2.306965609596716
 20
-652.0213610078854
 30
0.0
 11
-2.306965609596716
 21
-659.6213610078853
 31
0.0
  0
ARC
  5
20E93
  8
01
  6
CONTINUOUS
 10
-1.106965609596841
 20
-594.3411097088331
 30
0.0
 40
1.2
 50
180.0
 51
270.0
  0
ARC
  5
20E94
  8
01
  6
CONTINUOUS
 10
-1.106965609596841
 20
-576.7411097088329
 30
0.0
 40
1.2
 50
90.0
 51
180.0
  0
ARC
  5
20E96
  8
01
  6
CONTINUOUS
 10
-1.106965609596728
 20
-652.0213610078854
 30
0.0
 40
1.2
 50
90.0
 51
180.0
  0
ARC
  5
20E97
  8
01
  6
CONTINUOUS
 10
-1.106965609596728
 20
-659.6213610078853
 30
0.0
 40
1.2
 50
180.0
 51
270.0
  0
LINE
  5
20E99
  8
01
  6
CONTINUOUS
 10
22.69303439040323
 20
-593.3411097088331
 30
0.0
 11
22.69303439040323
 21
-540.5411097088331
 31
0.0
  0
ARC
  5
20E9C
  8
01
  6
CONTINUOUS
 10
21.49303439040318
 20
-593.3411097088331
 30
0.0
 40
1.200000000000017
 50
270.0
 51
0.0
  0
LINE
  5
20E9D
  8
01
  6
CONTINUOUS
 10
11.89303439040327
 20
-594.5411097088331
 30
0.0
 11
21.49303439040318
 21
-594.5411097088331
 31
0.0
  0
LINE
  5
20E9E
  8
01
  6
CONTINUOUS
 10
10.69303439040323
 20
-540.5411097088331
 30
0.0
 11
10.69303439040323
 21
-593.3411097088331
 31
0.0
  0
LINE
  5
20E9F
  8
01
  6
CONTINUOUS
 10
22.69303439040323
 20
-540.5411097088331
 30
0.0
 11
10.69303439040323
 21
-540.5411097088331
 31
0.0
  0
ARC
  5
20EA0
  8
01
  6
CONTINUOUS
 10
11.89303439040327
 20
-593.3411097088331
 30
0.0
 40
1.200000000000017
 50
180.0
 51
270.0
  0
LINE
  5
20EA1
  8
01
  6
CONTINUOUS
 10
10.69303439040323
 20
-575.5411097088331
 30
0.0
 11
-1.106965609596841
 21
-575.5411097088331
 31
0.0
  0
LINE
  5
20EAB
  8
01
  6
CONTINUOUS
 10
635.6930700782187
 20
-652.0213303512664
 30
0.0
 11
635.6930700782187
 21
-659.6213610078938
 31
0.0
  0
LINE
  5
20EC2
  8
01
  6
CONTINUOUS
 10
690.2162350010308
 20
-673.8213492749153
 30
0.0
 11
743.016241615365
 21
-673.8213492749153
 31
0.0
  0
LINE
  5
20EC3
  8
01
  6
CONTINUOUS
 10
743.016241615365
 20
-672.6213492749152
 30
0.0
 11
743.016241615365
 21
-673.8213492749153
 31
0.0
  0
LINE
  5
20EC4
  8
01
  6
CONTINUOUS
 10
743.016241615365
 20
-673.8213492749153
 30
0.0
 11
743.016241615365
 21
-672.6213492749152
 31
0.0
  0
LINE
  5
20ECE
  8
01
  6
CONTINUOUS
 10
-1.106965609596784
 20
-660.8213610078575
 30
0.0
 11
634.4930700782187
 21
-660.821361007894
 31
0.0
  0
LINE
  5
20EFA
  8
01
  6
CONTINUOUS
 10
610.693070078219
 20
-575.5411097088331
 30
0.0
 11
22.69303439040323
 21
-575.5411097088331
 31
0.0
  0
LINE
  5
20F37
  8
01
 10
708.0162482296992
 20
-652.2213492749152
 30
0.0
 11
708.0162482296992
 21
-659.6213492749152
 31
0.0
  0
LINE
  5
21544
  8
1PHANTOM
 10
621.193070078219
 20
-540.5410790522142
 30
0.0
 11
621.193070078219
 21
-565.5410790522142
 31
0.0
  0
LINE
  5
21546
  8
1PHANTOM
 10
612.193070078219
 20
-565.5410790522142
 30
0.0
 11
612.193070078219
 21
-540.5410790522142
 31
0.0
  0
LINE
  5
21551
  8
1PHANTOM
 10
718.0162418053893
 20
-671.4213492749152
 30
0.0
 11
743.0162418053893
 21
-671.4213492749152
 31
0.0
  0
LINE
  5
21552
  8
1PHANTOM
 10
743.0162418053893
 20
-671.4213492749152
 30
0.0
 11
743.0162418053893
 21
-670.4213492749152
 31
0.0
  0
LINE
  5
21554
  8
1PHANTOM
 10
743.0162418053893
 20
-670.4213492749152
 30
0.0
 11
743.0162418053893
 21
-658.2507987466856
 31
0.0
  0
LINE
  5
2156B
  8
1PHANTOM
 10
718.0162418053893
 20
-640.7213492749152
 30
0.0
 11
743.0162418053893
 21
-640.7213492749152
 31
0.0
  0
LINE
  5
215E2
  8
1PHANTOM
 10
743.0162418053893
 20
-653.891899803145
 30
0.0
 11
742.5162418053893
 21
-653.891899803145
 31
0.0
  0
LINE
  5
215E3
  8
1PHANTOM
 10
743.0162418053893
 20
-658.2507987466856
 30
0.0
 11
742.5162418053893
 21
-658.2507987466856
 31
0.0
  0
LINE
  5
215E4
  8
1PHANTOM
 10
743.0162418053893
 20
-653.891899803145
 30
0.0
 11
743.0162418053893
 21
-640.7213492749152
 31
0.0
  0
LINE
  5
215E8
  8
1PHANTOM
 10
742.5162418053893
 20
-658.2507987466856
 30
0.0
 11
742.5162418053893
 21
-653.891899803145
 31
0.0
  0
CIRCLE
  5
21758
  8
1PHANTOM
 10
616.693042705119
 20
-656.0745959146568
 30
0.0
 40
2.25
  0
LINE
  5
21798
  8
1PHANTOM
 10
717.0162418053893
 20
-656.5746264212758
 30
0.0
 11
718.0162418053893
 21
-655.5746267212758
 31
0.0
  0
LINE
  5
21843
  8
1PHANTOM
 10
617.193069928219
 20
-563.5410790522142
 30
0.0
 11
616.193070228219
 21
-562.5410790522142
 31
0.0
  0
LINE
  5
21846
  8
1CENTER
 10
613.3180236467346
 20
-656.0746265712758
 30
0.0
 11
620.0680236467346
 21
-656.0746265712758
 31
0.0
  0
LINE
  5
21847
  8
1CENTER
 10
616.6930236467346
 20
-659.4496265712758
 30
0.0
 11
616.6930236467346
 21
-652.6996265712758
 31
0.0
  0
CIRCLE
  5
2184D
  8
1PHANTOM
 10
16.69302364673445
 20
-656.0746265712758
 30
0.0
 40
2.25
  0
LINE
  5
21851
  8
1CENTER
 10
20.06804270511884
 20
-656.0746572278947
 30
0.0
 11
13.31804270511884
 21
-656.0746572278947
 31
0.0
  0
LINE
  5
21852
  8
1CENTER
 10
16.69304270511884
 20
-659.4496572278947
 30
0.0
 11
16.69304270511884
 21
-652.6996572278947
 31
0.0
  0
LINE
  5
21A0E
  8
01
  6
CONTINUOUS
 10
689.0162416060122
 20
-650.7213492749153
 30
0.0
 11
706.8162482296991
 21
-650.7213492749153
 31
0.0
  0
LINE
  5
21A0F
  8
01
  6
CONTINUOUS
 10
689.0162415583449
 20
-661.1213492749151
 30
0.0
 11
706.8162482296991
 21
-661.1213492749151
 31
0.0
  0
LINE
  5
21C6D
  8
1PHANTOM
 10
718.0162418053893
 20
-640.7213492749152
 30
0.0
 11
718.0162418053893
 21
-671.4213492749152
 31
0.0
  0
LINE
  5
21C6E
  8
1PHANTOM
 10
621.193070078219
 20
-565.5410790522142
 30
0.0
 11
612.193070078219
 21
-565.5410790522142
 31
0.0
  0
LINE
  5
21C6F
  8
1PHANTOM
 10
12.19303439040291
 20
-540.5411097088331
 30
0.0
 11
12.19303439040291
 21
-565.5411097088331
 31
0.0
  0
LINE
  5
21C70
  8
1PHANTOM
 10
21.19303439040291
 20
-565.5411097088331
 30
0.0
 11
21.19303439040291
 21
-540.5411097088331
 31
0.0
  0
LINE
  5
21C73
  8
1PHANTOM
 10
16.19303454040292
 20
-563.5411097088331
 30
0.0
 11
17.19303424040291
 21
-562.5411097088331
 31
0.0
  0
LINE
  5
21C74
  8
1PHANTOM
 10
12.19303439040291
 20
-565.5411097088331
 30
0.0
 11
21.19303439040291
 21
-565.5411097088331
 31
0.0
  0
LINE
  5
21D93
  8
1CENTER
 10
16.69302364673456
 20
-659.4496265712758
 30
0.0
 11
16.69302364673456
 21
-652.6996265712758
 31
0.0
  0
ARC
  5
21D94
  8
01
  6
CONTINUOUS
 10
634.4930700782187
 20
-659.6213610078939
 30
0.0
 40
1.2
 50
270.0
 51
0.0000000000054281
  0
TEXT
  5
21E45
  8
01
  6
CONTINUOUS
 10
749.7537571261875
 20
-611.3902613041472
 30
0.0
 40
3.5
  1
PB
  0
TEXT
  5
21E46
  8
01
  6
CONTINUOUS
 10
762.8891752713527
 20
-611.3902613041472
 30
0.0
 40
3.5
  1
合板9mm以上
  0
LINE
  5
21E47
  8
1CENTER
 10
774.9771563965353
 20
-656.0746265712758
 30
0.0
 11
712.7472242528448
 21
-656.0746265712758
 31
0.0
  0
LINE
  5
21E49
  8
01
 10
755.5162464587636
 20
-654.0746731071737
 30
0.0
 11
756.3162371515818
 21
-658.0746731071737
 31
0.0
  0
LINE
  5
21E4A
  8
01
 10
757.1162464587635
 20
-654.0746731071737
 30
0.0
 11
757.9162371515861
 21
-658.0746731071737
 31
0.0
  0
LINE
  5
21E4B
  8
01
 10
757.0162452953657
 20
-654.5746731071737
 30
0.0
 11
757.1162464587635
 21
-654.0746731071737
 31
0.0
  0
LINE
  5
21E4C
  8
01
 10
758.6162452953663
 20
-654.5746731071737
 30
0.0
 11
758.7162464587634
 21
-654.0746731071737
 31
0.0
  0
LINE
  5
21E4D
  8
01
 10
757.9162371515861
 20
-658.0746731071737
 30
0.0
 11
758.0162383149832
 21
-657.5746731071737
 31
0.0
  0
LINE
  5
21E4E
  8
01
 10
756.3162371515818
 20
-658.0746731071737
 30
0.0
 11
756.4162383149794
 21
-657.5746731071737
 31
0.0
  0
LINE
  5
21E4F
  8
01
 10
763.5162464587636
 20
-654.0746731071737
 30
0.0
 11
764.3162371515862
 21
-658.0746731071737
 31
0.0
  0
LINE
  5
21E50
  8
01
 10
766.7162464587634
 20
-654.0746731071737
 30
0.0
 11
767.5162376783887
 21
-657.8482660549697
 31
0.0
  0
LINE
  5
21E51
  8
01
 10
765.1162464587635
 20
-654.0746731071737
 30
0.0
 11
765.9162371515861
 21
-658.0746731071737
 31
0.0
  0
LINE
  5
21E52
  8
01
 10
768.3162454051533
 20
-654.5274892492324
 30
0.0
 11
769.1162387319944
 21
-657.3954519505629
 31
0.0
  0
LINE
  5
21E53
  8
01
 10
769.7648085551086
 20
-655.4374745979118
 30
0.0
 11
769.916244351549
 21
-654.9803027572807
 31
0.0
  0
LINE
  5
21E54
  8
01
 10
766.6162452953663
 20
-654.5746731071737
 30
0.0
 11
766.7162464587634
 21
-654.0746731071737
 31
0.0
  0
LINE
  5
21E55
  8
01
 10
765.0162452953664
 20
-654.5746731071737
 30
0.0
 11
765.1162464587635
 21
-654.0746731071737
 31
0.0
  0
LINE
  5
21E56
  8
01
 10
768.2034758928032
 20
-654.9955877043824
 30
0.0
 11
768.3162454051533
 21
-654.5274892492324
 31
0.0
  0
LINE
  5
21E57
  8
01
 10
767.5162376783887
 20
-657.8482660549697
 30
0.0
 11
767.6455083760186
 21
-657.3116723196986
 31
0.0
  0
LINE
  5
21E58
  8
01
 10
764.3162371515862
 20
-658.0746731071737
 30
0.0
 11
764.416238314983
 21
-657.5746731071737
 31
0.0
  0
LINE
  5
21E59
  8
01
 10
765.9162371515861
 20
-658.0746731071737
 30
0.0
 11
766.0162383149832
 21
-657.5746731071737
 31
0.0
  0
LINE
  5
21E5A
  8
01
 10
769.1162387319944
 20
-657.3954519505629
 30
0.0
 11
769.2990028746224
 21
-656.8437024867596
 31
0.0
  0
LINE
  5
21E5B
  8
01
 10
760.3162464587635
 20
-654.0746731071737
 30
0.0
 11
761.1162371515861
 21
-658.0746731071737
 31
0.0
  0
LINE
  5
21E5C
  8
01
 10
760.2162452953664
 20
-654.5746731071737
 30
0.0
 11
760.3162464587635
 21
-654.0746731071737
 31
0.0
  0
LINE
  5
21E5D
  8
01
 10
761.8162452953663
 20
-654.5746731071737
 30
0.0
 11
761.9162464587635
 21
-654.0746731071737
 31
0.0
  0
LINE
  5
21E5E
  8
01
 10
761.1162371515861
 20
-658.0746731071737
 30
0.0
 11
761.2162383149832
 21
-657.5746731071737
 31
0.0
  0
LINE
  5
21E5F
  8
01
 10
759.516237151586
 20
-658.0746731071737
 30
0.0
 11
759.6162383149833
 21
-657.5746731071737
 31
0.0
  0
LINE
  5
21E60
  8
01
 10
763.4162452953663
 20
-654.5746731071737
 30
0.0
 11
763.5162464587636
 21
-654.0746731071737
 31
0.0
  0
LINE
  5
21E61
  8
01
 10
762.716237151586
 20
-658.0746731071737
 30
0.0
 11
762.8162383149834
 21
-657.5746731071737
 31
0.0
  0
LINE
  5
21E62
  8
01
 10
761.9162464587635
 20
-654.0746731071737
 30
0.0
 11
762.716237151586
 21
-658.0746731071737
 31
0.0
  0
LINE
  5
21E63
  8
01
 10
758.7162464587634
 20
-654.0746731071737
 30
0.0
 11
759.516237151586
 21
-658.0746731071737
 31
0.0
  0
LINE
  5
21E64
  8
01
 10
770.7162397856
 20
-656.9426378461561
 30
0.0
 11
771.0280096418521
 21
-656.3543612711137
 31
0.0
  0
LINE
  5
21E65
  8
01
 10
769.916244351549
 20
-654.9803027572807
 30
0.0
 11
770.7162397856
 21
-656.9426378461561
 31
0.0
  0
LINE
  5
21E66
  8
01
 10
717.016245295341
 20
-654.5746731071737
 30
0.0
 11
717.1162464587387
 21
-654.0746731071737
 31
0.0
  0
LINE
  5
21E67
  8
01
 10
717.1162464587387
 20
-654.0746731071737
 30
0.0
 11
717.9162371515569
 21
-658.0746731071737
 31
0.0
  0
LINE
  5
21E68
  8
01
 10
717.9162371515569
 20
-658.0746731071737
 30
0.0
 11
718.0162383149545
 21
-657.5746731071737
 31
0.0
  0
LINE
  5
21E69
  8
01
 10
718.616245295341
 20
-654.5746731071737
 30
0.0
 11
718.7162464587386
 21
-654.0746731071737
 31
0.0
  0
LINE
  5
21E6A
  8
01
 10
718.7162464587386
 20
-654.0746731071737
 30
0.0
 11
719.5162371515568
 21
-658.0746731071737
 31
0.0
  0
LINE
  5
21E6B
  8
01
 10
719.5162371515568
 20
-658.0746731071737
 30
0.0
 11
719.6162383149544
 21
-657.5746731071737
 31
0.0
  0
LINE
  5
21E6C
  8
01
 10
720.2162452953407
 20
-654.5746731071737
 30
0.0
 11
720.3162464587385
 21
-654.0746731071737
 31
0.0
  0
LINE
  5
21E6D
  8
01
 10
720.3162464587385
 20
-654.0746731071737
 30
0.0
 11
721.1162371515568
 21
-658.0746731071737
 31
0.0
  0
LINE
  5
21E6E
  8
01
 10
721.1162371515568
 20
-658.0746731071737
 30
0.0
 11
721.2162383149544
 21
-657.5746731071737
 31
0.0
  0
LINE
  5
21E6F
  8
01
 10
721.8162452953452
 20
-654.5746731071737
 30
0.0
 11
721.9162464587428
 21
-654.0746731071737
 31
0.0
  0
LINE
  5
21E70
  8
01
 10
721.9162464587428
 20
-654.0746731071737
 30
0.0
 11
722.716237151561
 21
-658.0746731071737
 31
0.0
  0
LINE
  5
21E71
  8
01
 10
722.716237151561
 20
-658.0746731071737
 30
0.0
 11
722.8162383149588
 21
-657.5746731071737
 31
0.0
  0
LINE
  5
21E72
  8
01
 10
723.4162452953451
 20
-654.5746731071737
 30
0.0
 11
723.5162464587427
 21
-654.0746731071737
 31
0.0
  0
LINE
  5
21E73
  8
01
 10
723.5162464587427
 20
-654.0746731071737
 30
0.0
 11
724.3162371515609
 21
-658.0746731071737
 31
0.0
  0
LINE
  5
21E74
  8
01
 10
724.3162371515609
 20
-658.0746731071737
 30
0.0
 11
724.4162383149587
 21
-657.5746731071737
 31
0.0
  0
LINE
  5
21E75
  8
01
 10
725.016245295345
 20
-654.5746731071737
 30
0.0
 11
725.1162464587426
 21
-654.0746731071737
 31
0.0
  0
LINE
  5
21E76
  8
01
 10
725.1162464587426
 20
-654.0746731071737
 30
0.0
 11
725.9162371515608
 21
-658.0746731071737
 31
0.0
  0
LINE
  5
21E77
  8
01
 10
725.9162371515608
 20
-658.0746731071737
 30
0.0
 11
726.0162383149586
 21
-657.5746731071737
 31
0.0
  0
LINE
  5
21E78
  8
01
 10
726.6162452953449
 20
-654.5746731071737
 30
0.0
 11
726.7162464587425
 21
-654.0746731071737
 31
0.0
  0
LINE
  5
21E79
  8
01
 10
726.7162464587425
 20
-654.0746731071737
 30
0.0
 11
727.5162371515607
 21
-658.0746731071737
 31
0.0
  0
LINE
  5
21E7A
  8
01
 10
727.5162371515607
 20
-658.0746731071737
 30
0.0
 11
727.6162383149585
 21
-657.5746731071737
 31
0.0
  0
LINE
  5
21E7B
  8
01
 10
728.2162452953492
 20
-654.5746731071737
 30
0.0
 11
728.316246458747
 21
-654.0746731071737
 31
0.0
  0
LINE
  5
21E7C
  8
01
 10
728.316246458747
 20
-654.0746731071737
 30
0.0
 11
729.1162371515652
 21
-658.0746731071737
 31
0.0
  0
LINE
  5
21E7D
  8
01
 10
729.1162371515652
 20
-658.0746731071737
 30
0.0
 11
729.2162383149628
 21
-657.5746731071737
 31
0.0
  0
LINE
  5
21E7E
  8
01
 10
729.8162452953491
 20
-654.5746731071737
 30
0.0
 11
729.9162464587469
 21
-654.0746731071737
 31
0.0
  0
LINE
  5
21E7F
  8
01
 10
729.9162464587469
 20
-654.0746731071737
 30
0.0
 11
730.7162371515651
 21
-658.0746731071737
 31
0.0
  0
LINE
  5
21E80
  8
01
 10
730.7162371515651
 20
-658.0746731071737
 30
0.0
 11
730.8162383149627
 21
-657.5746731071737
 31
0.0
  0
LINE
  5
21E81
  8
01
 10
731.416245295349
 20
-654.5746731071737
 30
0.0
 11
731.5162464587468
 21
-654.0746731071737
 31
0.0
  0
LINE
  5
21E82
  8
01
 10
731.5162464587468
 20
-654.0746731071737
 30
0.0
 11
732.316237151565
 21
-658.0746731071737
 31
0.0
  0
LINE
  5
21E83
  8
01
 10
732.316237151565
 20
-658.0746731071737
 30
0.0
 11
732.4162383149626
 21
-657.5746731071737
 31
0.0
  0
LINE
  5
21E84
  8
01
 10
733.0162452953489
 20
-654.5746731071737
 30
0.0
 11
733.1162464587467
 21
-654.0746731071737
 31
0.0
  0
LINE
  5
21E85
  8
01
 10
733.1162464587467
 20
-654.0746731071737
 30
0.0
 11
733.9162371515649
 21
-658.0746731071737
 31
0.0
  0
LINE
  5
21E86
  8
01
 10
733.9162371515649
 20
-658.0746731071737
 30
0.0
 11
734.0162383149625
 21
-657.5746731071737
 31
0.0
  0
LINE
  5
21E87
  8
01
 10
734.6162452953533
 20
-654.5746731071737
 30
0.0
 11
734.7162464587509
 21
-654.0746731071737
 31
0.0
  0
LINE
  5
21E88
  8
01
 10
734.7162464587509
 20
-654.0746731071737
 30
0.0
 11
735.5162371515692
 21
-658.0746731071737
 31
0.0
  0
LINE
  5
21E89
  8
01
 10
735.5162371515692
 20
-658.0746731071737
 30
0.0
 11
735.616238314967
 21
-657.5746731071737
 31
0.0
  0
LINE
  5
21E8A
  8
01
 10
736.2162452953532
 20
-654.5746731071737
 30
0.0
 11
736.3162464587508
 21
-654.0746731071737
 31
0.0
  0
LINE
  5
21E8B
  8
01
 10
736.3162464587508
 20
-654.0746731071737
 30
0.0
 11
737.1162371515691
 21
-658.0746731071737
 31
0.0
  0
LINE
  5
21E8C
  8
01
 10
737.1162371515691
 20
-658.0746731071737
 30
0.0
 11
737.2162383149669
 21
-657.5746731071737
 31
0.0
  0
LINE
  5
21E8D
  8
01
 10
737.8162452953532
 20
-654.5746731071737
 30
0.0
 11
737.9162464587507
 21
-654.0746731071737
 31
0.0
  0
LINE
  5
21E8E
  8
01
 10
737.9162464587507
 20
-654.0746731071737
 30
0.0
 11
738.716237151569
 21
-658.0746731071737
 31
0.0
  0
LINE
  5
21E8F
  8
01
 10
738.716237151569
 20
-658.0746731071737
 30
0.0
 11
738.8162383149668
 21
-657.5746731071737
 31
0.0
  0
LINE
  5
21E90
  8
01
 10
739.4162452953531
 20
-654.5746731071737
 30
0.0
 11
739.5162464587506
 21
-654.0746731071737
 31
0.0
  0
LINE
  5
21E91
  8
01
 10
739.5162464587506
 20
-654.0746731071737
 30
0.0
 11
740.3162371515689
 21
-658.0746731071737
 31
0.0
  0
LINE
  5
21E92
  8
01
 10
740.3162371515689
 20
-658.0746731071737
 30
0.0
 11
740.4162383149667
 21
-657.5746731071737
 31
0.0
  0
LINE
  5
21E93
  8
01
 10
741.0162452953573
 20
-654.5746731071737
 30
0.0
 11
741.1162464587551
 21
-654.0746731071737
 31
0.0
  0
LINE
  5
21E94
  8
01
 10
741.1162464587551
 20
-654.0746731071737
 30
0.0
 11
741.9162371515733
 21
-658.0746731071737
 31
0.0
  0
LINE
  5
21E95
  8
01
 10
741.9162371515733
 20
-658.0746731071737
 30
0.0
 11
742.0162383149709
 21
-657.5746731071737
 31
0.0
  0
LINE
  5
21E96
  8
01
 10
717.0162383150887
 20
-657.5746731071737
 30
0.0
 11
717.0162452954734
 21
-654.5746731071739
 31
0.0
  0
LINE
  5
21E97
  8
01
 10
747.4162452953615
 20
-654.5746731071737
 30
0.0
 11
747.516246458759
 21
-654.0746731071737
 31
0.0
  0
LINE
  5
21E98
  8
01
 10
744.3162464587549
 20
-654.0746731071737
 30
0.0
 11
745.1162371515732
 21
-658.0746731071737
 31
0.0
  0
LINE
  5
21E99
  8
01
 10
746.7162371515731
 20
-658.0746731071737
 30
0.0
 11
746.8162383149706
 21
-657.5746731071737
 31
0.0
  0
LINE
  5
21E9A
  8
01
 10
745.1162371515732
 20
-658.0746731071737
 30
0.0
 11
745.2162383149707
 21
-657.5746731071737
 31
0.0
  0
LINE
  5
21E9B
  8
01
 10
745.9162464587548
 20
-654.0746731071737
 30
0.0
 11
746.7162371515731
 21
-658.0746731071737
 31
0.0
  0
LINE
  5
21E9C
  8
01
 10
745.816245295357
 20
-654.5746731071737
 30
0.0
 11
745.9162464587548
 21
-654.0746731071737
 31
0.0
  0
LINE
  5
21E9D
  8
01
 10
744.2162452953571
 20
-654.5746731071737
 30
0.0
 11
744.3162464587549
 21
-654.0746731071737
 31
0.0
  0
LINE
  5
21E9E
  8
01
 10
743.5162371515733
 20
-658.0746731071737
 30
0.0
 11
743.6162383149708
 21
-657.5746731071737
 31
0.0
  0
LINE
  5
21E9F
  8
01
 10
742.716246458755
 20
-654.0746731071737
 30
0.0
 11
743.5162371515733
 21
-658.0746731071737
 31
0.0
  0
LINE
  5
21EA0
  8
01
 10
742.6162452953572
 20
-654.5746731071737
 30
0.0
 11
742.716246458755
 21
-654.0746731071737
 31
0.0
  0
LINE
  5
21EA1
  8
01
 10
752.3162464587635
 20
-654.0746731071737
 30
0.0
 11
753.1162371515818
 21
-658.0746731071737
 31
0.0
  0
LINE
  5
21EA2
  8
01
 10
753.9162464587635
 20
-654.0746731071737
 30
0.0
 11
754.7162371515817
 21
-658.0746731071737
 31
0.0
  0
LINE
  5
21EA3
  8
01
 10
755.4162452953658
 20
-654.5746731071737
 30
0.0
 11
755.5162464587636
 21
-654.0746731071737
 31
0.0
  0
LINE
  5
21EA4
  8
01
 10
753.8162452953657
 20
-654.5746731071737
 30
0.0
 11
753.9162464587635
 21
-654.0746731071737
 31
0.0
  0
LINE
  5
21EA5
  8
01
 10
754.7162371515817
 20
-658.0746731071737
 30
0.0
 11
754.8162383149793
 21
-657.5746731071737
 31
0.0
  0
LINE
  5
21EA6
  8
01
 10
753.1162371515818
 20
-658.0746731071737
 30
0.0
 11
753.2162383149794
 21
-657.5746731071737
 31
0.0
  0
LINE
  5
21EA7
  8
01
 10
749.116246458759
 20
-654.0746731071737
 30
0.0
 11
749.9162371515772
 21
-658.0746731071737
 31
0.0
  0
LINE
  5
21EA8
  8
01
 10
749.0162452953614
 20
-654.5746731071737
 30
0.0
 11
749.116246458759
 21
-654.0746731071737
 31
0.0
  0
LINE
  5
21EA9
  8
01
 10
750.6162452953615
 20
-654.5746731071737
 30
0.0
 11
750.7162464587591
 21
-654.0746731071737
 31
0.0
  0
LINE
  5
21EAA
  8
01
 10
748.3162371515773
 20
-658.0746731071737
 30
0.0
 11
748.4162383149751
 21
-657.5746731071737
 31
0.0
  0
LINE
  5
21EAB
  8
01
 10
749.9162371515772
 20
-658.0746731071737
 30
0.0
 11
750.016238314975
 21
-657.5746731071737
 31
0.0
  0
LINE
  5
21EAC
  8
01
 10
752.2162452953658
 20
-654.5746731071737
 30
0.0
 11
752.3162464587635
 21
-654.0746731071737
 31
0.0
  0
LINE
  5
21EAD
  8
01
 10
751.5162371515773
 20
-658.0746731071737
 30
0.0
 11
751.6162383149751
 21
-657.5746731071737
 31
0.0
  0
LINE
  5
21EAE
  8
01
 10
750.7162464587591
 20
-654.0746731071737
 30
0.0
 11
751.5162371515773
 21
-658.0746731071737
 31
0.0
  0
LINE
  5
21EAF
  8
01
 10
747.516246458759
 20
-654.0746731071737
 30
0.0
 11
748.3162371515773
 21
-658.0746731071737
 31
0.0
  0
LINE
  5
21EB1
  8
1HATCH
 10
726.6664594668332
 20
-665.5711428213618
 30
0.0
 11
726.6662514512601
 21
-670.9211545708125
 31
0.0
  0
LINE
  5
21EB2
  8
1HATCH
 10
723.3664594668895
 20
-665.5711214148488
 30
0.0
 11
723.3662514516368
 21
-670.9210987276332
 31
0.0
  0
LINE
  5
21EB3
  8
1HATCH
 10
727.0164567973038
 20
-665.9211460788645
 30
0.0
 11
723.016456797391
 21
-665.9211181573257
 31
0.0
  0
LINE
  5
21EB4
  8
01
 10
729.016229579439
 20
-673.271160038736
 30
0.0
 11
721.0162295796122
 21
-673.2711041956585
 31
0.0
  0
LINE
  5
21EB5
  8
1HATCH
 10
726.6662514512601
 20
-670.9211545708125
 30
0.0
 11
727.0162481937548
 21
-671.2711553851842
 31
0.0
  0
LINE
  5
21EB6
  8
1HATCH
 10
723.3662514516368
 20
-670.9210987276332
 30
0.0
 11
723.0162481941013
 21
-671.2710995420199
 31
0.0
  0
LINE
  5
21EB7
  8
1CENTER
 10
725.016477722756
 20
-663.6096469587428
 30
0.0
 11
725.0162087337585
 21
-675.5108833606217
 31
0.0
  0
LINE
  5
21EB8
  8
1CENTER
 10
616.693070078219
 20
-508.5801644610681
 30
0.0
 11
616.693070078219
 21
-570.8100966047587
 31
0.0
  0
LINE
  5
21EBA
  8
01
 10
614.6931166141169
 20
-528.04107439884
 30
0.0
 11
618.6931166141169
 21
-527.2410837060218
 31
0.0
  0
LINE
  5
21EBB
  8
01
 10
614.6931166141169
 20
-526.4410743988399
 30
0.0
 11
618.6931166141169
 21
-525.6410837060173
 31
0.0
  0
LINE
  5
21EBC
  8
01
 10
615.1931166141169
 20
-526.5410755622377
 30
0.0
 11
614.6931166141169
 21
-526.4410743988399
 31
0.0
  0
LINE
  5
21EBD
  8
01
 10
615.1931166141169
 20
-524.9410755622371
 30
0.0
 11
614.6931166141169
 21
-524.84107439884
 31
0.0
  0
LINE
  5
21EBE
  8
01
 10
618.6931166141169
 20
-525.6410837060173
 30
0.0
 11
618.1931166141169
 21
-525.5410825426202
 31
0.0
  0
LINE
  5
21EBF
  8
01
 10
618.6931166141169
 20
-527.2410837060218
 30
0.0
 11
618.1931166141169
 21
-527.141082542624
 31
0.0
  0
LINE
  5
21EC0
  8
01
 10
614.6931166141169
 20
-520.04107439884
 30
0.0
 11
618.6931166141169
 21
-519.2410837060174
 31
0.0
  0
LINE
  5
21EC1
  8
01
 10
614.6931166141169
 20
-516.84107439884
 30
0.0
 11
618.4667095619129
 21
-516.0410831792146
 31
0.0
  0
LINE
  5
21EC2
  8
01
 10
614.6931166141169
 20
-518.4410743988399
 30
0.0
 11
618.6931166141169
 21
-517.6410837060173
 31
0.0
  0
LINE
  5
21EC3
  8
01
 10
615.1459327561756
 20
-515.2410754524501
 30
0.0
 11
618.0138954575061
 21
-514.441082125609
 31
0.0
  0
LINE
  5
21EC4
  8
01
 10
616.055918104855
 20
-513.7925123024947
 30
0.0
 11
615.5987462642239
 21
-513.6410765060543
 31
0.0
  0
LINE
  5
21EC5
  8
01
 10
615.1931166141169
 20
-516.9410755622371
 30
0.0
 11
614.6931166141169
 21
-516.84107439884
 31
0.0
  0
LINE
  5
21EC6
  8
01
 10
615.1931166141169
 20
-518.541075562237
 30
0.0
 11
614.6931166141169
 21
-518.4410743988399
 31
0.0
  0
LINE
  5
21EC7
  8
01
 10
615.6140312113256
 20
-515.3538449648001
 30
0.0
 11
615.1459327561756
 21
-515.2410754524501
 31
0.0
  0
LINE
  5
21EC8
  8
01
 10
618.4667095619129
 20
-516.0410831792146
 30
0.0
 11
617.9301158266418
 21
-515.9118124815848
 31
0.0
  0
LINE
  5
21EC9
  8
01
 10
618.6931166141169
 20
-519.2410837060174
 30
0.0
 11
618.1931166141169
 21
-519.1410825426203
 31
0.0
  0
LINE
  5
21ECA
  8
01
 10
618.6931166141169
 20
-517.6410837060173
 30
0.0
 11
618.1931166141169
 21
-517.5410825426202
 31
0.0
  0
LINE
  5
21ECB
  8
01
 10
618.0138954575061
 20
-514.441082125609
 30
0.0
 11
617.4621459937028
 21
-514.258317982981
 31
0.0
  0
LINE
  5
21ECC
  8
01
 10
614.6931166141169
 20
-523.2410743988398
 30
0.0
 11
618.6931166141169
 21
-522.4410837060173
 31
0.0
  0
LINE
  5
21ECD
  8
01
 10
615.1931166141169
 20
-523.3410755622369
 30
0.0
 11
614.6931166141169
 21
-523.2410743988398
 31
0.0
  0
LINE
  5
21ECE
  8
01
 10
615.1931166141169
 20
-521.741075562237
 30
0.0
 11
614.6931166141169
 21
-521.6410743988399
 31
0.0
  0
LINE
  5
21ECF
  8
01
 10
618.6931166141169
 20
-522.4410837060173
 30
0.0
 11
618.1931166141169
 21
-522.3410825426201
 31
0.0
  0
LINE
  5
21ED0
  8
01
 10
618.6931166141169
 20
-524.0410837060174
 30
0.0
 11
618.1931166141169
 21
-523.9410825426203
 31
0.0
  0
LINE
  5
21ED1
  8
01
 10
615.1931166141169
 20
-520.1410755622371
 30
0.0
 11
614.6931166141169
 21
-520.04107439884
 31
0.0
  0
LINE
  5
21ED2
  8
01
 10
618.6931166141169
 20
-520.8410837060173
 30
0.0
 11
618.1931166141169
 21
-520.7410825426202
 31
0.0
  0
LINE
  5
21ED3
  8
01
 10
614.6931166141169
 20
-521.6410743988399
 30
0.0
 11
618.6931166141169
 21
-520.8410837060173
 31
0.0
  0
LINE
  5
21ED4
  8
01
 10
614.6931166141169
 20
-524.84107439884
 30
0.0
 11
618.6931166141169
 21
-524.0410837060174
 31
0.0
  0
LINE
  5
21ED5
  8
01
 10
617.5610813530993
 20
-512.8410810720034
 30
0.0
 11
616.9728047780569
 21
-512.5293112157512
 31
0.0
  0
LINE
  5
21ED6
  8
01
 10
615.5987462642239
 20
-513.6410765060543
 30
0.0
 11
617.5610813530993
 21
-512.8410810720034
 31
0.0
  0
LINE
  5
21ED7
  8
01
 10
615.1931166141169
 20
-566.5410755622624
 30
0.0
 11
614.6931166141169
 21
-566.4410743988648
 31
0.0
  0
LINE
  5
21ED8
  8
01
 10
614.6931166141169
 20
-566.4410743988648
 30
0.0
 11
618.6931166141169
 21
-565.6410837060466
 31
0.0
  0
LINE
  5
21ED9
  8
01
 10
618.6931166141169
 20
-565.6410837060466
 30
0.0
 11
618.1931166141169
 21
-565.541082542649
 31
0.0
  0
LINE
  5
21EDA
  8
01
 10
615.1931166141169
 20
-564.9410755622625
 30
0.0
 11
614.6931166141169
 21
-564.8410743988649
 31
0.0
  0
LINE
  5
21EDB
  8
01
 10
614.6931166141169
 20
-564.8410743988649
 30
0.0
 11
618.6931166141169
 21
-564.0410837060467
 31
0.0
  0
LINE
  5
21EDC
  8
01
 10
618.6931166141169
 20
-564.0410837060467
 30
0.0
 11
618.1931166141169
 21
-563.941082542649
 31
0.0
  0
LINE
  5
21EDD
  8
01
 10
615.1931166141169
 20
-563.3410755622626
 30
0.0
 11
614.6931166141169
 21
-563.241074398865
 31
0.0
  0
LINE
  5
21EDE
  8
01
 10
614.6931166141169
 20
-563.241074398865
 30
0.0
 11
618.6931166141169
 21
-562.4410837060468
 31
0.0
  0
LINE
  5
21EDF
  8
01
 10
618.6931166141169
 20
-562.4410837060468
 30
0.0
 11
618.1931166141169
 21
-562.341082542649
 31
0.0
  0
LINE
  5
21EE0
  8
01
 10
615.1931166141169
 20
-561.7410755622584
 30
0.0
 11
614.6931166141169
 21
-561.6410743988606
 31
0.0
  0
LINE
  5
21EE1
  8
01
 10
614.6931166141169
 20
-561.6410743988606
 30
0.0
 11
618.6931166141169
 21
-560.8410837060424
 31
0.0
  0
LINE
  5
21EE2
  8
01
 10
618.6931166141169
 20
-560.8410837060424
 30
0.0
 11
618.1931166141169
 21
-560.7410825426448
 31
0.0
  0
LINE
  5
21EE3
  8
01
 10
615.1931166141169
 20
-560.1410755622585
 30
0.0
 11
614.6931166141169
 21
-560.0410743988607
 31
0.0
  0
LINE
  5
21EE4
  8
01
 10
614.6931166141169
 20
-560.0410743988607
 30
0.0
 11
618.6931166141169
 21
-559.2410837060424
 31
0.0
  0
LINE
  5
21EE5
  8
01
 10
618.6931166141169
 20
-559.2410837060424
 30
0.0
 11
618.1931166141169
 21
-559.1410825426449
 31
0.0
  0
LINE
  5
21EE6
  8
01
 10
615.1931166141169
 20
-558.5410755622586
 30
0.0
 11
614.6931166141169
 21
-558.4410743988608
 31
0.0
  0
LINE
  5
21EE7
  8
01
 10
614.6931166141169
 20
-558.4410743988608
 30
0.0
 11
618.6931166141169
 21
-557.6410837060425
 31
0.0
  0
LINE
  5
21EE8
  8
01
 10
618.6931166141169
 20
-557.6410837060425
 30
0.0
 11
618.1931166141169
 21
-557.541082542645
 31
0.0
  0
LINE
  5
21EE9
  8
01
 10
615.1931166141169
 20
-556.9410755622587
 30
0.0
 11
614.6931166141169
 21
-556.8410743988609
 31
0.0
  0
LINE
  5
21EEA
  8
01
 10
614.6931166141169
 20
-556.8410743988609
 30
0.0
 11
618.6931166141169
 21
-556.0410837060426
 31
0.0
  0
LINE
  5
21EEB
  8
01
 10
618.6931166141169
 20
-556.0410837060426
 30
0.0
 11
618.1931166141169
 21
-555.9410825426451
 31
0.0
  0
LINE
  5
21EEC
  8
01
 10
615.1931166141169
 20
-555.3410755622542
 30
0.0
 11
614.6931166141169
 21
-555.2410743988567
 31
0.0
  0
LINE
  5
21EED
  8
01
 10
614.6931166141169
 20
-555.2410743988567
 30
0.0
 11
618.6931166141169
 21
-554.4410837060384
 31
0.0
  0
LINE
  5
21EEE
  8
01
 10
618.6931166141169
 20
-554.4410837060384
 30
0.0
 11
618.1931166141169
 21
-554.3410825426406
 31
0.0
  0
LINE
  5
21EEF
  8
01
 10
615.1931166141169
 20
-553.7410755622543
 30
0.0
 11
614.6931166141169
 21
-553.6410743988567
 31
0.0
  0
LINE
  5
21EF0
  8
01
 10
614.6931166141169
 20
-553.6410743988567
 30
0.0
 11
618.6931166141169
 21
-552.8410837060385
 31
0.0
  0
LINE
  5
21EF1
  8
01
 10
618.6931166141169
 20
-552.8410837060385
 30
0.0
 11
618.1931166141169
 21
-552.7410825426407
 31
0.0
  0
LINE
  5
21EF2
  8
01
 10
615.1931166141169
 20
-552.1410755622544
 30
0.0
 11
614.6931166141169
 21
-552.0410743988568
 31
0.0
  0
LINE
  5
21EF3
  8
01
 10
614.6931166141169
 20
-552.0410743988568
 30
0.0
 11
618.6931166141169
 21
-551.2410837060386
 31
0.0
  0
LINE
  5
21EF4
  8
01
 10
618.6931166141169
 20
-551.2410837060386
 30
0.0
 11
618.1931166141169
 21
-551.1410825426408
 31
0.0
  0
LINE
  5
21EF5
  8
01
 10
615.1931166141169
 20
-550.5410755622545
 30
0.0
 11
614.6931166141169
 21
-550.4410743988569
 31
0.0
  0
LINE
  5
21EF6
  8
01
 10
614.6931166141169
 20
-550.4410743988569
 30
0.0
 11
618.6931166141169
 21
-549.6410837060387
 31
0.0
  0
LINE
  5
21EF7
  8
01
 10
618.6931166141169
 20
-549.6410837060387
 30
0.0
 11
618.1931166141169
 21
-549.5410825426409
 31
0.0
  0
LINE
  5
21EF8
  8
01
 10
615.1931166141169
 20
-548.9410755622503
 30
0.0
 11
614.6931166141169
 21
-548.8410743988525
 31
0.0
  0
LINE
  5
21EF9
  8
01
 10
614.6931166141169
 20
-548.8410743988525
 30
0.0
 11
618.6931166141169
 21
-548.0410837060342
 31
0.0
  0
LINE
  5
21EFA
  8
01
 10
618.6931166141169
 20
-548.0410837060342
 30
0.0
 11
618.1931166141169
 21
-547.9410825426367
 31
0.0
  0
LINE
  5
21EFB
  8
01
 10
615.1931166141169
 20
-547.3410755622504
 30
0.0
 11
614.6931166141169
 21
-547.2410743988526
 31
0.0
  0
LINE
  5
21EFC
  8
01
 10
614.6931166141169
 20
-547.2410743988526
 30
0.0
 11
618.6931166141169
 21
-546.4410837060343
 31
0.0
  0
LINE
  5
21EFD
  8
01
 10
618.6931166141169
 20
-546.4410837060343
 30
0.0
 11
618.1931166141169
 21
-546.3410825426367
 31
0.0
  0
LINE
  5
21EFE
  8
01
 10
615.1931166141169
 20
-545.7410755622504
 30
0.0
 11
614.6931166141169
 21
-545.6410743988527
 31
0.0
  0
LINE
  5
21EFF
  8
01
 10
614.6931166141169
 20
-545.6410743988527
 30
0.0
 11
618.6931166141169
 21
-544.8410837060344
 31
0.0
  0
LINE
  5
21F00
  8
01
 10
618.6931166141169
 20
-544.8410837060344
 30
0.0
 11
618.1931166141169
 21
-544.7410825426368
 31
0.0
  0
LINE
  5
21F01
  8
01
 10
615.1931166141169
 20
-544.1410755622505
 30
0.0
 11
614.6931166141169
 21
-544.0410743988527
 31
0.0
  0
LINE
  5
21F02
  8
01
 10
614.6931166141169
 20
-544.0410743988527
 30
0.0
 11
618.6931166141169
 21
-543.2410837060345
 31
0.0
  0
LINE
  5
21F03
  8
01
 10
618.6931166141169
 20
-543.2410837060345
 30
0.0
 11
618.1931166141169
 21
-543.1410825426369
 31
0.0
  0
LINE
  5
21F04
  8
01
 10
615.1931166141169
 20
-542.5410755622461
 30
0.0
 11
614.6931166141169
 21
-542.4410743988485
 31
0.0
  0
LINE
  5
21F05
  8
01
 10
614.6931166141169
 20
-542.4410743988485
 30
0.0
 11
618.6931166141169
 21
-541.6410837060303
 31
0.0
  0
LINE
  5
21F06
  8
01
 10
618.6931166141169
 20
-541.6410837060303
 30
0.0
 11
618.1931166141169
 21
-541.5410825426325
 31
0.0
  0
LINE
  5
21F07
  8
01
 10
618.1931166141169
 20
-566.5410825425148
 30
0.0
 11
615.1931166141171
 21
-566.5410755621301
 31
0.0
  0
LINE
  5
21F08
  8
01
 10
615.1931166141169
 20
-536.1410755622421
 30
0.0
 11
614.6931166141169
 21
-536.0410743988443
 31
0.0
  0
LINE
  5
21F09
  8
01
 10
614.6931166141169
 20
-539.2410743988487
 30
0.0
 11
618.6931166141169
 21
-538.4410837060304
 31
0.0
  0
LINE
  5
21F0A
  8
01
 10
618.6931166141169
 20
-536.8410837060305
 30
0.0
 11
618.1931166141169
 21
-536.7410825426327
 31
0.0
  0
LINE
  5
21F0B
  8
01
 10
618.6931166141169
 20
-538.4410837060304
 30
0.0
 11
618.1931166141169
 21
-538.3410825426326
 31
0.0
  0
LINE
  5
21F0C
  8
01
 10
614.6931166141169
 20
-537.6410743988488
 30
0.0
 11
618.6931166141169
 21
-536.8410837060305
 31
0.0
  0
LINE
  5
21F0D
  8
01
 10
615.1931166141169
 20
-537.7410755622464
 30
0.0
 11
614.6931166141169
 21
-537.6410743988488
 31
0.0
  0
LINE
  5
21F0E
  8
01
 10
615.1931166141169
 20
-539.3410755622463
 30
0.0
 11
614.6931166141169
 21
-539.2410743988487
 31
0.0
  0
LINE
  5
21F0F
  8
01
 10
618.6931166141169
 20
-540.0410837060303
 30
0.0
 11
618.1931166141169
 21
-539.9410825426326
 31
0.0
  0
LINE
  5
21F10
  8
01
 10
614.6931166141169
 20
-540.8410743988486
 30
0.0
 11
618.6931166141169
 21
-540.0410837060303
 31
0.0
  0
LINE
  5
21F11
  8
01
 10
615.1931166141169
 20
-540.9410755622462
 30
0.0
 11
614.6931166141169
 21
-540.8410743988486
 31
0.0
  0
LINE
  5
21F12
  8
01
 10
614.6931166141169
 20
-531.24107439884
 30
0.0
 11
618.6931166141169
 21
-530.4410837060218
 31
0.0
  0
LINE
  5
21F13
  8
01
 10
614.6931166141169
 20
-529.6410743988401
 30
0.0
 11
618.6931166141169
 21
-528.8410837060219
 31
0.0
  0
LINE
  5
21F14
  8
01
 10
615.1931166141169
 20
-528.1410755622376
 30
0.0
 11
614.6931166141169
 21
-528.04107439884
 31
0.0
  0
LINE
  5
21F15
  8
01
 10
615.1931166141169
 20
-529.7410755622377
 30
0.0
 11
614.6931166141169
 21
-529.6410743988401
 31
0.0
  0
LINE
  5
21F16
  8
01
 10
618.6931166141169
 20
-528.8410837060219
 30
0.0
 11
618.1931166141169
 21
-528.7410825426241
 31
0.0
  0
LINE
  5
21F17
  8
01
 10
618.6931166141169
 20
-530.4410837060218
 30
0.0
 11
618.1931166141169
 21
-530.341082542624
 31
0.0
  0
LINE
  5
21F18
  8
01
 10
614.6931166141169
 20
-534.4410743988444
 30
0.0
 11
618.6931166141169
 21
-533.6410837060262
 31
0.0
  0
LINE
  5
21F19
  8
01
 10
615.1931166141169
 20
-534.5410755622422
 30
0.0
 11
614.6931166141169
 21
-534.4410743988444
 31
0.0
  0
LINE
  5
21F1A
  8
01
 10
615.1931166141169
 20
-532.9410755622421
 30
0.0
 11
614.6931166141169
 21
-532.8410743988443
 31
0.0
  0
LINE
  5
21F1B
  8
01
 10
618.6931166141169
 20
-535.2410837060261
 30
0.0
 11
618.1931166141169
 21
-535.1410825426285
 31
0.0
  0
LINE
  5
21F1C
  8
01
 10
618.6931166141169
 20
-533.6410837060262
 30
0.0
 11
618.1931166141169
 21
-533.5410825426286
 31
0.0
  0
LINE
  5
21F1D
  8
01
 10
615.1931166141169
 20
-531.3410755622376
 30
0.0
 11
614.6931166141169
 21
-531.24107439884
 31
0.0
  0
LINE
  5
21F1E
  8
01
 10
618.6931166141169
 20
-532.041083706026
 30
0.0
 11
618.1931166141169
 21
-531.9410825426285
 31
0.0
  0
LINE
  5
21F1F
  8
01
 10
614.6931166141169
 20
-532.8410743988443
 30
0.0
 11
618.6931166141169
 21
-532.041083706026
 31
0.0
  0
LINE
  5
21F20
  8
01
 10
614.6931166141169
 20
-536.0410743988443
 30
0.0
 11
618.6931166141169
 21
-535.2410837060261
 31
0.0
  0
LINE
  5
21F21
  8
1CENTER
 10
16.69303439040294
 20
-508.5801951176871
 30
0.0
 11
16.69303439040291
 21
-570.8101272613776
 31
0.0
  0
LINE
  5
21F23
  8
01
 10
18.69298785450501
 20
-528.041105055459
 30
0.0
 11
14.69298785450501
 21
-527.2411143626407
 31
0.0
  0
LINE
  5
21F24
  8
01
 10
18.69298785450501
 20
-526.4411050554588
 30
0.0
 11
14.69298785450501
 21
-525.6411143626362
 31
0.0
  0
LINE
  5
21F25
  8
01
 10
18.19298785450501
 20
-526.5411062188566
 30
0.0
 11
18.69298785450501
 21
-526.4411050554588
 31
0.0
  0
LINE
  5
21F26
  8
01
 10
18.19298785450501
 20
-524.941106218856
 30
0.0
 11
18.69298785450501
 21
-524.8411050554589
 31
0.0
  0
LINE
  5
21F27
  8
01
 10
14.69298785450501
 20
-525.6411143626362
 30
0.0
 11
15.19298785450501
 21
-525.5411131992391
 31
0.0
  0
LINE
  5
21F28
  8
01
 10
14.69298785450501
 20
-527.2411143626407
 30
0.0
 11
15.19298785450501
 21
-527.1411131992429
 31
0.0
  0
LINE
  5
21F29
  8
01
 10
18.69298785450502
 20
-520.041105055459
 30
0.0
 11
14.69298785450502
 21
-519.2411143626364
 31
0.0
  0
LINE
  5
21F2A
  8
01
 10
18.69298785450502
 20
-516.8411050554589
 30
0.0
 11
14.91939490670898
 21
-516.0411138358336
 31
0.0
  0
LINE
  5
21F2B
  8
01
 10
18.69298785450502
 20
-518.4411050554588
 30
0.0
 11
14.69298785450502
 21
-517.6411143626362
 31
0.0
  0
LINE
  5
21F2C
  8
01
 10
18.24017171244628
 20
-515.241106109069
 30
0.0
 11
15.37220901111578
 21
-514.441112782228
 31
0.0
  0
LINE
  5
21F2D
  8
01
 10
17.33018636376693
 20
-513.7925429591137
 30
0.0
 11
17.787358204398
 21
-513.6411071626733
 31
0.0
  0
LINE
  5
21F2E
  8
01
 10
18.19298785450502
 20
-516.941106218856
 30
0.0
 11
18.69298785450502
 21
-516.8411050554589
 31
0.0
  0
LINE
  5
21F2F
  8
01
 10
18.19298785450502
 20
-518.5411062188559
 30
0.0
 11
18.69298785450502
 21
-518.4411050554588
 31
0.0
  0
LINE
  5
21F30
  8
01
 10
17.77207325729631
 20
-515.3538756214191
 30
0.0
 11
18.24017171244628
 21
-515.241106109069
 31
0.0
  0
LINE
  5
21F31
  8
01
 10
14.91939490670898
 20
-516.0411138358336
 30
0.0
 11
15.45598864198012
 21
-515.9118431382037
 31
0.0
  0
LINE
  5
21F32
  8
01
 10
14.69298785450502
 20
-519.2411143626364
 30
0.0
 11
15.19298785450502
 21
-519.1411131992393
 31
0.0
  0
LINE
  5
21F33
  8
01
 10
14.69298785450502
 20
-517.6411143626362
 30
0.0
 11
15.19298785450502
 21
-517.5411131992391
 31
0.0
  0
LINE
  5
21F34
  8
01
 10
15.37220901111578
 20
-514.441112782228
 30
0.0
 11
15.92395847491906
 21
-514.2583486396
 31
0.0
  0
LINE
  5
21F35
  8
01
 10
18.69298785450501
 20
-523.2411050554588
 30
0.0
 11
14.69298785450501
 21
-522.4411143626362
 31
0.0
  0
LINE
  5
21F36
  8
01
 10
18.19298785450501
 20
-523.3411062188559
 30
0.0
 11
18.69298785450501
 21
-523.2411050554588
 31
0.0
  0
LINE
  5
21F37
  8
01
 10
18.19298785450501
 20
-521.741106218856
 30
0.0
 11
18.69298785450501
 21
-521.6411050554589
 31
0.0
  0
LINE
  5
21F38
  8
01
 10
14.69298785450501
 20
-522.4411143626362
 30
0.0
 11
15.19298785450501
 21
-522.3411131992391
 31
0.0
  0
LINE
  5
21F39
  8
01
 10
14.69298785450501
 20
-524.0411143626363
 30
0.0
 11
15.19298785450501
 21
-523.9411131992392
 31
0.0
  0
LINE
  5
21F3A
  8
01
 10
18.19298785450502
 20
-520.1411062188561
 30
0.0
 11
18.69298785450502
 21
-520.041105055459
 31
0.0
  0
LINE
  5
21F3B
  8
01
 10
14.69298785450501
 20
-520.8411143626363
 30
0.0
 11
15.19298785450501
 21
-520.7411131992392
 31
0.0
  0
LINE
  5
21F3C
  8
01
 10
18.69298785450501
 20
-521.6411050554589
 30
0.0
 11
14.69298785450501
 21
-520.8411143626363
 31
0.0
  0
LINE
  5
21F3D
  8
01
 10
18.69298785450501
 20
-524.8411050554589
 30
0.0
 11
14.69298785450501
 21
-524.0411143626363
 31
0.0
  0
LINE
  5
21F3E
  8
01
 10
15.82502311552258
 20
-512.8411117286223
 30
0.0
 11
16.413299690565
 21
-512.5293418723702
 31
0.0
  0
LINE
  5
21F3F
  8
01
 10
17.787358204398
 20
-513.6411071626733
 30
0.0
 11
15.82502311552258
 21
-512.8411117286223
 31
0.0
  0
LINE
  5
21F40
  8
01
 10
18.19298785450499
 20
-566.5411062188815
 30
0.0
 11
18.69298785450499
 21
-566.4411050554838
 31
0.0
  0
LINE
  5
21F41
  8
01
 10
18.69298785450499
 20
-566.4411050554838
 30
0.0
 11
14.69298785450499
 21
-565.6411143626655
 31
0.0
  0
LINE
  5
21F42
  8
01
 10
14.69298785450499
 20
-565.6411143626655
 30
0.0
 11
15.19298785450499
 21
-565.5411131992678
 31
0.0
  0
LINE
  5
21F43
  8
01
 10
18.19298785450499
 20
-564.9411062188816
 30
0.0
 11
18.69298785450499
 21
-564.8411050554839
 31
0.0
  0
LINE
  5
21F44
  8
01
 10
18.69298785450499
 20
-564.8411050554839
 30
0.0
 11
14.69298785450499
 21
-564.0411143626656
 31
0.0
  0
LINE
  5
21F45
  8
01
 10
14.69298785450499
 20
-564.0411143626656
 30
0.0
 11
15.19298785450499
 21
-563.9411131992679
 31
0.0
  0
LINE
  5
21F46
  8
01
 10
18.19298785450499
 20
-563.3411062188817
 30
0.0
 11
18.69298785450499
 21
-563.241105055484
 31
0.0
  0
LINE
  5
21F47
  8
01
 10
18.69298785450499
 20
-563.241105055484
 30
0.0
 11
14.69298785450499
 21
-562.4411143626656
 31
0.0
  0
LINE
  5
21F48
  8
01
 10
14.69298785450499
 20
-562.4411143626656
 30
0.0
 11
15.19298785450499
 21
-562.341113199268
 31
0.0
  0
LINE
  5
21F49
  8
01
 10
18.192987854505
 20
-561.7411062188773
 30
0.0
 11
18.692987854505
 21
-561.6411050554797
 31
0.0
  0
LINE
  5
21F4A
  8
01
 10
18.692987854505
 20
-561.6411050554797
 30
0.0
 11
14.692987854505
 21
-560.8411143626613
 31
0.0
  0
LINE
  5
21F4B
  8
01
 10
14.692987854505
 20
-560.8411143626613
 30
0.0
 11
15.192987854505
 21
-560.7411131992636
 31
0.0
  0
LINE
  5
21F4C
  8
01
 10
18.192987854505
 20
-560.1411062188774
 30
0.0
 11
18.692987854505
 21
-560.0411050554798
 31
0.0
  0
LINE
  5
21F4D
  8
01
 10
18.692987854505
 20
-560.0411050554798
 30
0.0
 11
14.692987854505
 21
-559.2411143626614
 31
0.0
  0
LINE
  5
21F4E
  8
01
 10
14.692987854505
 20
-559.2411143626614
 30
0.0
 11
15.192987854505
 21
-559.1411131992637
 31
0.0
  0
LINE
  5
21F4F
  8
01
 10
18.192987854505
 20
-558.5411062188775
 30
0.0
 11
18.692987854505
 21
-558.4411050554799
 31
0.0
  0
LINE
  5
21F50
  8
01
 10
18.692987854505
 20
-558.4411050554799
 30
0.0
 11
14.692987854505
 21
-557.6411143626615
 31
0.0
  0
LINE
  5
21F51
  8
01
 10
14.692987854505
 20
-557.6411143626615
 30
0.0
 11
15.192987854505
 21
-557.5411131992639
 31
0.0
  0
LINE
  5
21F52
  8
01
 10
18.192987854505
 20
-556.9411062188776
 30
0.0
 11
18.692987854505
 21
-556.8411050554799
 31
0.0
  0
LINE
  5
21F53
  8
01
 10
18.692987854505
 20
-556.8411050554799
 30
0.0
 11
14.692987854505
 21
-556.0411143626616
 31
0.0
  0
LINE
  5
21F54
  8
01
 10
14.692987854505
 20
-556.0411143626616
 30
0.0
 11
15.192987854505
 21
-555.941113199264
 31
0.0
  0
LINE
  5
21F55
  8
01
 10
18.192987854505
 20
-555.3411062188732
 30
0.0
 11
18.692987854505
 21
-555.2411050554756
 31
0.0
  0
LINE
  5
21F56
  8
01
 10
18.692987854505
 20
-555.2411050554756
 30
0.0
 11
14.692987854505
 21
-554.4411143626572
 31
0.0
  0
LINE
  5
21F57
  8
01
 10
14.692987854505
 20
-554.4411143626572
 30
0.0
 11
15.192987854505
 21
-554.3411131992596
 31
0.0
  0
LINE
  5
21F58
  8
01
 10
18.192987854505
 20
-553.7411062188733
 30
0.0
 11
18.692987854505
 21
-553.6411050554757
 31
0.0
  0
LINE
  5
21F59
  8
01
 10
18.692987854505
 20
-553.6411050554757
 30
0.0
 11
14.692987854505
 21
-552.8411143626573
 31
0.0
  0
LINE
  5
21F5A
  8
01
 10
14.692987854505
 20
-552.8411143626573
 30
0.0
 11
15.192987854505
 21
-552.7411131992596
 31
0.0
  0
LINE
  5
21F5B
  8
01
 10
18.192987854505
 20
-552.1411062188733
 30
0.0
 11
18.692987854505
 21
-552.0411050554758
 31
0.0
  0
LINE
  5
21F5C
  8
01
 10
18.692987854505
 20
-552.0411050554758
 30
0.0
 11
14.692987854505
 21
-551.2411143626574
 31
0.0
  0
LINE
  5
21F5D
  8
01
 10
14.692987854505
 20
-551.2411143626574
 30
0.0
 11
15.192987854505
 21
-551.1411131992597
 31
0.0
  0
LINE
  5
21F5E
  8
01
 10
18.192987854505
 20
-550.5411062188734
 30
0.0
 11
18.692987854505
 21
-550.4411050554759
 31
0.0
  0
LINE
  5
21F5F
  8
01
 10
18.692987854505
 20
-550.4411050554759
 30
0.0
 11
14.692987854505
 21
-549.6411143626576
 31
0.0
  0
LINE
  5
21F60
  8
01
 10
14.692987854505
 20
-549.6411143626576
 30
0.0
 11
15.192987854505
 21
-549.5411131992598
 31
0.0
  0
LINE
  5
21F61
  8
01
 10
18.192987854505
 20
-548.9411062188692
 30
0.0
 11
18.692987854505
 21
-548.8411050554714
 31
0.0
  0
LINE
  5
21F62
  8
01
 10
18.692987854505
 20
-548.8411050554714
 30
0.0
 11
14.692987854505
 21
-548.0411143626532
 31
0.0
  0
LINE
  5
21F63
  8
01
 10
14.692987854505
 20
-548.0411143626532
 30
0.0
 11
15.192987854505
 21
-547.9411131992556
 31
0.0
  0
LINE
  5
21F64
  8
01
 10
18.192987854505
 20
-547.3411062188693
 30
0.0
 11
18.692987854505
 21
-547.2411050554715
 31
0.0
  0
LINE
  5
21F65
  8
01
 10
18.692987854505
 20
-547.2411050554715
 30
0.0
 11
14.692987854505
 21
-546.4411143626533
 31
0.0
  0
LINE
  5
21F66
  8
01
 10
14.692987854505
 20
-546.4411143626533
 30
0.0
 11
15.192987854505
 21
-546.3411131992557
 31
0.0
  0
LINE
  5
21F67
  8
01
 10
18.192987854505
 20
-545.7411062188694
 30
0.0
 11
18.692987854505
 21
-545.6411050554716
 31
0.0
  0
LINE
  5
21F68
  8
01
 10
18.692987854505
 20
-545.6411050554716
 30
0.0
 11
14.692987854505
 21
-544.8411143626533
 31
0.0
  0
LINE
  5
21F69
  8
01
 10
14.692987854505
 20
-544.8411143626533
 30
0.0
 11
15.192987854505
 21
-544.7411131992558
 31
0.0
  0
LINE
  5
21F6A
  8
01
 10
18.192987854505
 20
-544.1411062188695
 30
0.0
 11
18.692987854505
 21
-544.0411050554717
 31
0.0
  0
LINE
  5
21F6B
  8
01
 10
18.692987854505
 20
-544.0411050554717
 30
0.0
 11
14.692987854505
 21
-543.2411143626534
 31
0.0
  0
LINE
  5
21F6C
  8
01
 10
14.692987854505
 20
-543.2411143626534
 30
0.0
 11
15.192987854505
 21
-543.1411131992559
 31
0.0
  0
LINE
  5
21F6D
  8
01
 10
18.192987854505
 20
-542.541106218865
 30
0.0
 11
18.692987854505
 21
-542.4411050554675
 31
0.0
  0
LINE
  5
21F6E
  8
01
 10
18.692987854505
 20
-542.4411050554675
 30
0.0
 11
14.692987854505
 21
-541.6411143626492
 31
0.0
  0
LINE
  5
21F6F
  8
01
 10
14.692987854505
 20
-541.6411143626492
 30
0.0
 11
15.192987854505
 21
-541.5411131992514
 31
0.0
  0
LINE
  5
21F70
  8
01
 10
15.19298785450499
 20
-566.5411131991337
 30
0.0
 11
18.19298785450476
 21
-566.5411062187491
 31
0.0
  0
LINE
  5
21F71
  8
01
 10
18.19298785450501
 20
-536.1411062188611
 30
0.0
 11
18.69298785450501
 21
-536.0411050554633
 31
0.0
  0
LINE
  5
21F72
  8
01
 10
18.69298785450501
 20
-539.2411050554676
 30
0.0
 11
14.69298785450501
 21
-538.4411143626494
 31
0.0
  0
LINE
  5
21F73
  8
01
 10
14.69298785450501
 20
-536.8411143626495
 30
0.0
 11
15.19298785450501
 21
-536.7411131992517
 31
0.0
  0
LINE
  5
21F74
  8
01
 10
14.69298785450501
 20
-538.4411143626494
 30
0.0
 11
15.19298785450501
 21
-538.3411131992516
 31
0.0
  0
LINE
  5
21F75
  8
01
 10
18.69298785450501
 20
-537.6411050554677
 30
0.0
 11
14.69298785450501
 21
-536.8411143626495
 31
0.0
  0
LINE
  5
21F76
  8
01
 10
18.19298785450501
 20
-537.7411062188653
 30
0.0
 11
18.69298785450501
 21
-537.6411050554677
 31
0.0
  0
LINE
  5
21F77
  8
01
 10
18.19298785450501
 20
-539.3411062188652
 30
0.0
 11
18.69298785450501
 21
-539.2411050554676
 31
0.0
  0
LINE
  5
21F78
  8
01
 10
14.69298785450501
 20
-540.0411143626493
 30
0.0
 11
15.19298785450501
 21
-539.9411131992515
 31
0.0
  0
LINE
  5
21F79
  8
01
 10
18.69298785450501
 20
-540.8411050554676
 30
0.0
 11
14.69298785450501
 21
-540.0411143626493
 31
0.0
  0
LINE
  5
21F7A
  8
01
 10
18.19298785450501
 20
-540.9411062188651
 30
0.0
 11
18.69298785450501
 21
-540.8411050554676
 31
0.0
  0
LINE
  5
21F7B
  8
01
 10
18.69298785450501
 20
-531.241105055459
 30
0.0
 11
14.69298785450501
 21
-530.4411143626407
 31
0.0
  0
LINE
  5
21F7C
  8
01
 10
18.69298785450501
 20
-529.6411050554591
 30
0.0
 11
14.69298785450501
 21
-528.8411143626408
 31
0.0
  0
LINE
  5
21F7D
  8
01
 10
18.19298785450501
 20
-528.1411062188565
 30
0.0
 11
18.69298785450501
 21
-528.041105055459
 31
0.0
  0
LINE
  5
21F7E
  8
01
 10
18.19298785450501
 20
-529.7411062188567
 30
0.0
 11
18.69298785450501
 21
-529.6411050554591
 31
0.0
  0
LINE
  5
21F7F
  8
01
 10
14.69298785450501
 20
-528.8411143626408
 30
0.0
 11
15.19298785450501
 21
-528.741113199243
 31
0.0
  0
LINE
  5
21F80
  8
01
 10
14.69298785450501
 20
-530.4411143626407
 30
0.0
 11
15.19298785450501
 21
-530.341113199243
 31
0.0
  0
LINE
  5
21F81
  8
01
 10
18.69298785450501
 20
-534.4411050554634
 30
0.0
 11
14.69298785450501
 21
-533.6411143626451
 31
0.0
  0
LINE
  5
21F82
  8
01
 10
18.19298785450501
 20
-534.5411062188612
 30
0.0
 11
18.69298785450501
 21
-534.4411050554634
 31
0.0
  0
LINE
  5
21F83
  8
01
 10
18.19298785450501
 20
-532.941106218861
 30
0.0
 11
18.69298785450501
 21
-532.8411050554632
 31
0.0
  0
LINE
  5
21F84
  8
01
 10
14.69298785450501
 20
-535.241114362645
 30
0.0
 11
15.19298785450501
 21
-535.1411131992475
 31
0.0
  0
LINE
  5
21F85
  8
01
 10
14.69298785450501
 20
-533.6411143626451
 30
0.0
 11
15.19298785450501
 21
-533.5411131992475
 31
0.0
  0
LINE
  5
21F86
  8
01
 10
18.19298785450501
 20
-531.3411062188566
 30
0.0
 11
18.69298785450501
 21
-531.241105055459
 31
0.0
  0
LINE
  5
21F87
  8
01
 10
14.69298785450501
 20
-532.041114362645
 30
0.0
 11
15.19298785450501
 21
-531.9411131992474
 31
0.0
  0
LINE
  5
21F88
  8
01
 10
18.69298785450501
 20
-532.8411050554632
 30
0.0
 11
14.69298785450501
 21
-532.041114362645
 31
0.0
  0
LINE
  5
21F89
  8
01
 10
18.69298785450501
 20
-536.0411050554633
 30
0.0
 11
14.69298785450501
 21
-535.241114362645
 31
0.0
  0
LINE
  5
21F8A
  8
01
 10
772.0162418052269
 20
-656.0746731071737
 30
0.0
 11
766.7162452953653
 21
-654.5746731071737
 31
0.0
  0
LINE
  5
21F8B
  8
01
 10
766.7162452953653
 20
-654.5746731071737
 30
0.0
 11
717.0162452954734
 21
-654.5746731071741
 31
0.0
  0
LINE
  5
21F8C
  8
01
 10
717.0162452954734
 20
-654.5746731071741
 30
0.0
 11
717.0162499491714
 21
-652.5746265712759
 31
0.0
  0
LINE
  5
21F8D
  8
01
 10
717.0162499491714
 20
-652.5746265712759
 30
0.0
 11
715.9162464589762
 21
-652.5746265712758
 31
0.0
  0
ARC
  5
21F8E
  8
01
 10
715.9162464589762
 20
-654.0746265712758
 30
0.0
 40
1.5
 50
90.0
 51
179.9998666844706
  0
LINE
  5
21F8F
  8
01
 10
714.4162464589801
 20
-654.0746230810834
 30
0.0
 11
714.4162371518006
 21
-658.0746230810834
 31
0.0
  0
ARC
  5
21F90
  8
01
 10
715.9162371517965
 20
-658.0746265712758
 30
0.0
 40
1.5
 50
179.9998666844706
 51
270.0
  0
LINE
  5
21F91
  8
01
 10
715.9162371517965
 20
-659.5746265712758
 30
0.0
 11
717.0162336616072
 21
-659.5746265712758
 31
0.0
  0
LINE
  5
21F92
  8
01
 10
717.0162336616072
 20
-659.5746265712758
 30
0.0
 11
717.0162383150887
 21
-657.5746731071737
 31
0.0
  0
LINE
  5
21F93
  8
01
 10
717.0162383150887
 20
-657.5746731071737
 30
0.0
 11
766.7162383149816
 21
-657.5746731071738
 31
0.0
  0
LINE
  5
21F94
  8
01
 10
766.7162383149816
 20
-657.5746731071738
 30
0.0
 11
772.0162418052269
 21
-656.0746731071737
 31
0.0
  0
LINE
  5
21F95
  8
01
 10
727.0162481937548
 20
-671.2711553851842
 30
0.0
 11
727.0164567973038
 21
-665.9211460788645
 31
0.0
  0
LINE
  5
21F96
  8
01
 10
727.0164567973038
 20
-665.9211460788645
 30
0.0
 11
726.6664594668266
 21
-665.5711436357401
 31
0.0
  0
LINE
  5
21F97
  8
01
 10
726.6664594668266
 20
-665.5711436357401
 30
0.0
 11
723.3664594668962
 21
-665.5711206004705
 31
0.0
  0
LINE
  5
21F98
  8
01
 10
723.3664594668962
 20
-665.5711206004705
 30
0.0
 11
723.016456797391
 21
-665.9211181573257
 31
0.0
  0
LINE
  5
21F99
  8
01
 10
723.016456797391
 20
-665.9211181573257
 30
0.0
 11
723.0162481941013
 21
-671.2710995420199
 31
0.0
  0
LINE
  5
21F9A
  8
01
 10
723.0162481941013
 20
-671.2710995420199
 30
0.0
 11
721.0162295796122
 21
-673.2711041956585
 31
0.0
  0
LINE
  5
21F9B
  8
01
 10
721.0162295796122
 20
-673.2711041956585
 30
0.0
 11
721.0162267874583
 21
-673.5711041956463
 31
0.0
  0
LINE
  5
21F9C
  8
01
 10
721.0162267874583
 20
-673.5711041956463
 30
0.0
 11
729.0162267872852
 21
-673.5711600387239
 31
0.0
  0
LINE
  5
21F9D
  8
01
 10
729.0162267872852
 20
-673.5711600387239
 30
0.0
 11
729.016229579439
 21
-673.271160038736
 31
0.0
  0
LINE
  5
21F9E
  8
01
 10
729.016229579439
 20
-673.271160038736
 30
0.0
 11
727.0162481937548
 21
-671.2711553851842
 31
0.0
  0
LINE
  5
21F9F
  8
01
 10
616.6931166141169
 20
-511.5410790523766
 30
0.0
 11
615.1931166141169
 21
-516.8410755622383
 31
0.0
  0
LINE
  5
21FA0
  8
01
 10
615.1931166141169
 20
-516.8410755622383
 30
0.0
 11
615.1931166141173
 21
-566.5410755621301
 31
0.0
  0
LINE
  5
21FA1
  8
01
 10
615.1931166141173
 20
-566.5410755621301
 30
0.0
 11
613.1930700782191
 21
-566.5410709084321
 31
0.0
  0
LINE
  5
21FA2
  8
01
 10
613.1930700782191
 20
-566.5410709084321
 30
0.0
 11
613.193070078219
 21
-567.6410743986273
 31
0.0
  0
ARC
  5
21FA3
  8
01
 10
614.693070078219
 20
-567.6410743986273
 30
0.0
 40
1.5
 50
180.0
 51
269.9998666844705
  0
LINE
  5
21FA4
  8
01
 10
614.6930665880266
 20
-569.1410743986232
 30
0.0
 11
618.6930665880266
 21
-569.1410837058029
 31
0.0
  0
ARC
  5
21FA5
  8
01
 10
618.693070078219
 20
-567.641083705807
 30
0.0
 40
1.5
 50
269.9998666844705
 51
0.0
  0
LINE
  5
21FA6
  8
01
 10
620.193070078219
 20
-567.641083705807
 30
0.0
 11
620.193070078219
 21
-566.5410871959963
 31
0.0
  0
LINE
  5
21FA7
  8
01
 10
620.193070078219
 20
-566.5410871959963
 30
0.0
 11
618.1931166141169
 21
-566.5410825425148
 31
0.0
  0
LINE
  5
21FA8
  8
01
 10
618.1931166141169
 20
-566.5410825425148
 30
0.0
 11
618.193116614117
 21
-516.8410825426218
 31
0.0
  0
LINE
  5
21FA9
  8
01
 10
618.193116614117
 20
-516.8410825426218
 30
0.0
 11
616.6931166141169
 21
-511.5410790523766
 31
0.0
  0
LINE
  5
21FAA
  8
01
 10
18.19298785450502
 20
-516.8411062188572
 30
0.0
 11
16.69298785450502
 21
-511.5411097089955
 31
0.0
  0
LINE
  5
21FAB
  8
01
 10
16.69298785450502
 20
-511.5411097089955
 30
0.0
 11
15.1929878545049
 21
-516.8411131992408
 31
0.0
  0
LINE
  5
21FAC
  8
01
 10
15.1929878545049
 20
-516.8411131992408
 30
0.0
 11
15.19298785450499
 21
-566.5411131991337
 31
0.0
  0
LINE
  5
21FAD
  8
01
 10
15.19298785450499
 20
-566.5411131991337
 30
0.0
 11
13.19303439040291
 21
-566.5411178526152
 31
0.0
  0
LINE
  5
21FAE
  8
01
 10
13.19303439040291
 20
-566.5411178526152
 30
0.0
 11
13.19303439040291
 21
-567.6411143624259
 31
0.0
  0
ARC
  5
21FAF
  8
01
 10
14.69303439040291
 20
-567.6411143624259
 30
0.0
 40
1.5
 50
180.0
 51
270.0001333155294
  0
LINE
  5
21FB0
  8
01
 10
14.69303788059531
 20
-569.1411143624218
 30
0.0
 11
18.69303788059531
 21
-569.1411050552422
 31
0.0
  0
ARC
  5
21FB1
  8
01
 10
18.69303439040291
 20
-567.6411050552463
 30
0.0
 40
1.5
 50
270.0001333155292
 51
0.0
  0
LINE
  5
21FB2
  8
01
 10
20.19303439040291
 20
-567.6411050552463
 30
0.0
 11
20.1930343904028
 21
-566.541101565051
 31
0.0
  0
LINE
  5
21FB3
  8
01
 10
20.1930343904028
 20
-566.541101565051
 30
0.0
 11
18.19298785450454
 21
-566.5411062187491
 31
0.0
  0
LINE
  5
21FB4
  8
01
 10
18.19298785450454
 20
-566.5411062187491
 30
0.0
 11
18.19298785450502
 21
-516.8411062188572
 31
0.0
  0
LINE
  5
21FB5
  8
1DIM1
 10
16.69304270511884
 20
-656.0746572278947
 30
0.0
 11
16.69304270511884
 21
-704.6746572278955
 31
0.0
1001
ACAD
1000
DSTYLE
1002
{
1070
    40
1040
3.0
1070
    45
1040
0.5
1002
}
  0
LINE
  5
21FB6
  8
1DIM1
 10
616.6930236467346
 20
-659.4496265712758
 30
0.0
 11
616.6930236467346
 21
-704.6746572278955
 31
0.0
1001
ACAD
1000
DSTYLE
1002
{
1070
    40
1040
3.0
1070
    45
1040
0.5
1002
}
  0
LINE
  5
21FB7
  8
1DIM1
 10
22.69304270511884
 20
-701.6746572278955
 30
0.0
 11
610.6930236467346
 21
-701.6746572278955
 31
0.0
1001
ACAD
1000
DSTYLE
1002
{
1070
    40
1040
3.0
1070
    45
1040
0.5
1002
}
  0
LINE
  5
21FBB
  8
1DIM
 10
538.1074838555983
 20
-660.8213114276175
 30
0.0
 11
547.9226318760789
 21
-660.8213114276175
 31
0.0
1001
ACAD
1000
DSTYLE
1002
{
1070
    45
1040
0.5
1002
}
  0
LINE
  5
21FBC
  8
1DIM
 10
538.1074838555983
 20
-650.8213114276175
 30
0.0
 11
547.9226318760789
 21
-650.8213114276175
 31
0.0
1001
ACAD
1000
DSTYLE
1002
{
1070
    45
1040
0.5
1002
}
  0
LINE
  5
21FBD
  8
1DIM
 10
546.9226318760789
 20
-650.8213114276175
 30
0.0
 11
546.9226318760789
 21
-642.2546447609506
 31
0.0
1001
ACAD
1000
DSTYLE
1002
{
1070
    45
1040
0.5
1002
}
  0
LINE
  5
21FBE
  8
1DIM
 10
546.9226318760789
 20
-658.8213114276175
 30
0.0
 11
546.9226318760789
 21
-652.8213114276175
 31
0.0
1001
ACAD
1000
DSTYLE
1002
{
1070
    45
1040
0.5
1002
}
  0
SOLID
  5
21FC2
  8
1DIM
 10
598.6398877782336
 20
-654.021972794464
 30
0.0
 11
599.3494510922656
 21
-655.9213492749152
 31
0.0
 12
598.0622285583053
 22
-654.354770435796
 32
0.0
 13
598.0622285583053
 23
-654.354770435796
 33
0.0
1001
ACAD
1000
DSTYLE
1002
{
1070
    45
1040
0.5
1002
}
  0
LINE
  5
21FC3
  8
1DIM
 10
598.3510581682694
 20
-654.18837161513
 30
0.0
 11
586.1997903244204
 21
-633.0965998233484
 31
0.0
1001
ACAD
1000
DSTYLE
1002
{
1070
    45
1040
0.5
1002
}
  0
LINE
  5
21FC4
  8
1DIM
 10
586.1997903244204
 20
-633.0965998233484
 30
0.0
 11
546.5164569910871
 21
-633.0965998233484
 31
0.0
1001
ACAD
1000
DSTYLE
1002
{
1070
    45
1040
0.5
1002
}
  0
TEXT
  5
21FC5
  8
1DIM
  6
CONTINUOUS
 10
548.1174737036258
 20
-625.2238825381362
 30
0.0
 40
3.5
  1
材質：ステンレス
  0
TEXT
  5
21FC6
  8
1DIM
  6
CONTINUOUS
 10
543.5674737036258
 20
-631.0572158714696
 30
0.0
 40
3.5
  1
仕上げ：各種仕上げ
  0
LINE
  5
21FC7
  8
1DIM
 10
538.2255702324283
 20
-595.5410790522142
 30
0.0
 11
548.7525025039411
 21
-595.5410790522142
 31
0.0
1001
ACAD
1000
DSTYLE
1002
{
1070
    45
1040
0.5
1002
}
  0
LINE
  5
21FC8
  8
1DIM
 10
538.2255702324283
 20
-575.5410790522142
 30
0.0
 11
548.7525025039411
 21
-575.5410790522142
 31
0.0
1001
ACAD
1000
DSTYLE
1002
{
1070
    45
1040
0.5
1002
}
  0
LINE
  5
21FC9
  8
1DIM
 10
547.7525025039411
 20
-575.5410790522142
 30
0.0
 11
547.7525025039411
 21
-566.4744123855473
 31
0.0
1001
ACAD
1000
DSTYLE
1002
{
1070
    45
1040
0.5
1002
}
  0
LINE
  5
21FCA
  8
1DIM
 10
547.7525025039411
 20
-593.5410790522142
 30
0.0
 11
547.7525025039411
 21
-577.5410790522142
 31
0.0
1001
ACAD
1000
DSTYLE
1002
{
1070
    45
1040
0.5
1002
}
  0
LINE
  5
21FCE
  8
1DIM
 10
688.016241615365
 20
-655.9213492749152
 30
0.0
 11
688.016241615365
 21
-694.2278442439673
 31
0.0
1001
ACAD
1000
DSTYLE
1002
{
1070
    45
1040
0.5
1002
}
  0
LINE
  5
21FCF
  8
1DIM
 10
743.016241615365
 20
-693.0495039365483
 30
0.0
 11
743.016241615365
 21
-694.2278442439673
 31
0.0
1001
ACAD
1000
DSTYLE
1002
{
1070
    45
1040
0.5
1002
}
  0
LINE
  5
21FD0
  8
1DIM
 10
690.016241615365
 20
-693.2278442439673
 30
0.0
 11
741.016241615365
 21
-693.2278442439673
 31
0.0
1001
ACAD
1000
DSTYLE
1002
{
1070
    45
1040
0.5
1002
}
  0
LINE
  5
21FD4
  8
1DIM
 10
743.016241615365
 20
-693.0495039365483
 30
0.0
 11
743.016241615365
 21
-683.8779212619615
 31
0.0
1001
ACAD
1000
DSTYLE
1002
{
1070
    45
1040
0.5
1002
}
  0
LINE
  5
21FD5
  8
1DIM
 10
725.016241615365
 20
-670.161126558528
 30
0.0
 11
725.016241615365
 21
-685.8779212619615
 31
0.0
1001
ACAD
1000
DSTYLE
1002
{
1070
    45
1040
0.5
1002
}
  0
LINE
  5
21FD6
  8
1DIM
 10
741.016241615365
 20
-684.8779212619615
 30
0.0
 11
727.016241615365
 21
-684.8779212619615
 31
0.0
1001
ACAD
1000
DSTYLE
1002
{
1070
    45
1040
0.5
1002
}
  0
LINE
  5
21FDA
  8
1DIM
 10
774.9771563965353
 20
-656.0746265712758
 30
0.0
 11
785.516241615365
 21
-656.0746265712758
 31
0.0
1001
ACAD
1000
DSTYLE
1002
{
1070
    45
1040
0.5
1070
   271
1070
     0
1002
}
  0
LINE
  5
21FDB
  8
1DIM
 10
743.0162471260719
 20
-637.8213492749153
 30
0.0
 11
785.516241615365
 21
-637.8213492749153
 31
0.0
1001
ACAD
1000
DSTYLE
1002
{
1070
    45
1040
0.5
1070
   271
1070
     0
1002
}
  0
LINE
  5
21FDC
  8
1DIM
 10
784.516241615365
 20
-654.0746265712758
 30
0.0
 11
784.516241615365
 21
-639.8213492749153
 31
0.0
1001
ACAD
1000
DSTYLE
1002
{
1070
    45
1040
0.5
1070
   271
1070
     0
1002
}
  0
LINE
  5
21FE0
  8
1DIM1
 10
-2.306965609596716
 20
-655.8213610078853
 30
0.0
 11
-2.306965609596716
 21
-734.4213610078866
 31
0.0
1001
ACAD
1000
DSTYLE
1002
{
1070
    40
1040
3.0
1070
    45
1040
0.5
1002
}
  0
LINE
  5
21FE1
  8
1DIM1
 10
635.6930700782187
 20
-659.6213610078938
 30
0.0
 11
635.6930700782187
 21
-734.4213610078866
 31
0.0
1001
ACAD
1000
DSTYLE
1002
{
1070
    40
1040
3.0
1070
    45
1040
0.5
1002
}
  0
LINE
  5
21FE2
  8
1DIM1
 10
3.693034390403284
 20
-731.4213610078866
 30
0.0
 11
629.6930700782187
 21
-731.4213610078866
 31
0.0
1001
ACAD
1000
DSTYLE
1002
{
1070
    40
1040
3.0
1070
    45
1040
0.5
1002
}
  0
LINE
  5
21FE6
  8
1DIM
 10
743.016241615365
 20
-673.8213492749153
 30
0.0
 11
795.516241615365
 21
-673.8213492749153
 31
0.0
1001
ACAD
1000
DSTYLE
1002
{
1070
    45
1040
0.5
1002
}
  0
LINE
  5
21FE7
  8
1DIM
 10
743.0162471260719
 20
-637.8213492749153
 30
0.0
 11
795.516241615365
 21
-637.8213492749153
 31
0.0
1001
ACAD
1000
DSTYLE
1002
{
1070
    45
1040
0.5
1002
}
  0
LINE
  5
21FE8
  8
1DIM
 10
794.516241615365
 20
-671.8213492749153
 30
0.0
 11
794.516241615365
 21
-639.8213492749153
 31
0.0
1001
ACAD
1000
DSTYLE
1002
{
1070
    45
1040
0.5
1002
}
  0
LINE
  5
21FEC
  8
1DIM
 10
622.6930700782189
 20
-540.5410790522142
 30
0.0
 11
622.6930700782189
 21
-533.6443764328857
 31
0.0
1001
ACAD
1000
DSTYLE
1002
{
1070
    45
1040
0.5
1002
}
  0
LINE
  5
21FED
  8
1DIM
 10
610.6930700782189
 20
-540.5410790522142
 30
0.0
 11
610.6930700782189
 21
-533.6443764328857
 31
0.0
1001
ACAD
1000
DSTYLE
1002
{
1070
    45
1040
0.5
1002
}
  0
LINE
  5
21FEE
  8
1DIM
 10
622.6930700782189
 20
-534.6443764328857
 30
0.0
 11
631.2597367448857
 21
-534.6443764328857
 31
0.0
1001
ACAD
1000
DSTYLE
1002
{
1070
    45
1040
0.5
1002
}
  0
LINE
  5
21FEF
  8
1DIM
 10
620.6930700782189
 20
-534.6443764328857
 30
0.0
 11
612.6930700782189
 21
-534.6443764328857
 31
0.0
1001
ACAD
1000
DSTYLE
1002
{
1070
    45
1040
0.5
1002
}
  0
SOLID
  5
21FF3
  8
1DIM
 10
746.6708479197653
 20
-624.9354292138315
 30
0.0
 11
745.9299131930724
 21
-626.8227889680627
 31
0.0
 12
746.0186807169501
 22
-624.797145505403
 32
0.0
 13
746.0186807169501
 23
-624.797145505403
 33
0.0
1001
ACAD
1000
DSTYLE
1002
{
1070
    45
1040
0.5
1002
}
  0
LINE
  5
21FF4
  8
1DIM
 10
746.3447643183576
 20
-624.8662873596172
 30
0.0
 11
749.0537571261874
 21
-612.0902613041472
 31
0.0
1001
ACAD
1000
DSTYLE
1002
{
1070
    45
1040
0.5
1002
}
  0
SOLID
  5
21FF5
  8
1DIM
 10
759.8062660649305
 20
-624.9354292138315
 30
0.0
 11
759.0653313382376
 21
-626.8227889680627
 31
0.0
 12
759.1540988621153
 22
-624.797145505403
 32
0.0
 13
759.1540988621153
 23
-624.797145505403
 33
0.0
1001
ACAD
1000
DSTYLE
1002
{
1070
    45
1040
0.5
1002
}
  0
LINE
  5
21FF6
  8
1DIM
 10
759.4801824635229
 20
-624.8662873596172
 30
0.0
 11
762.1891752713526
 21
-612.0902613041472
 31
0.0
1001
ACAD
1000
DSTYLE
1002
{
1070
    45
1040
0.5
1002
}
  0
LINE
  5
21FF7
  8
1PHANTOM
 10
717.0162418053893
 20
-652.2746265712758
 30
0.0
 11
718.0162418053893
 21
-652.2746265712758
 31
0.0
  0
LINE
  5
21FF8
  8
1PHANTOM
 10
718.0162418053893
 20
-652.2746265712758
 30
0.0
 11
718.0162418053893
 21
-659.8746265712757
 31
0.0
  0
LINE
  5
21FF9
  8
1PHANTOM
 10
718.0162418053893
 20
-659.8746265712757
 30
0.0
 11
717.0162418053893
 21
-659.8746265712757
 31
0.0
  0
LINE
  5
21FFA
  8
1PHANTOM
 10
717.0162418053893
 20
-659.8746265712757
 30
0.0
 11
717.0162418053893
 21
-652.2746265712758
 31
0.0
  0
LINE
  5
21FFB
  8
1PHANTOM
 10
612.893070078219
 20
-566.5410790522142
 30
0.0
 11
612.893070078219
 21
-565.5410790522142
 31
0.0
  0
LINE
  5
21FFC
  8
1PHANTOM
 10
612.893070078219
 20
-565.5410790522142
 30
0.0
 11
620.4930700782189
 21
-565.5410790522142
 31
0.0
  0
LINE
  5
21FFD
  8
1PHANTOM
 10
620.4930700782189
 20
-565.5410790522142
 30
0.0
 11
620.4930700782189
 21
-566.5410790522142
 31
0.0
  0
LINE
  5
21FFE
  8
1PHANTOM
 10
620.4930700782189
 20
-566.5410790522142
 30
0.0
 11
612.893070078219
 21
-566.5410790522142
 31
0.0
  0
TEXT
  5
21FFF
  8
1DIM
  6
CONTINUOUS
 10
633.1644748878315
 20
-621.9886264083052
 30
0.0
 40
3.5
  1
材質：ステンレス
  0
TEXT
  5
22000
  8
1DIM
  6
CONTINUOUS
 10
633.2811415544982
 20
-627.8219597416386
 30
0.0
 40
3.5
  1
仕上げ：各種仕上げ
  0
SOLID
  5
22001
  8
1DIM
 10
619.035088233367
 20
-641.3610796573065
 30
0.0
 11
617.4197406893334
 21
-642.5865442317008
 31
0.0
 12
618.5503241798319
 22
-640.9034244848845
 32
0.0
 13
618.5503241798319
 23
-640.9034244848845
 33
0.0
1001
ACAD
1000
DSTYLE
1002
{
1070
    45
1040
0.5
1002
}
  0
LINE
  5
22002
  8
1DIM
 10
618.7927062065995
 20
-641.1322520710954
 30
0.0
 11
630.6978082211648
 21
-628.5219597416386
 31
0.0
1001
ACAD
1000
DSTYLE
1002
{
1070
    45
1040
0.5
1002
}
  0
LINE
  5
22003
  8
1DIM
 10
630.6978082211648
 20
-628.5219597416386
 30
0.0
 11
632.6978082211648
 21
-628.5219597416386
 31
0.0
1001
ACAD
1000
DSTYLE
1002
{
1070
    45
1040
0.5
1002
}
  0
LINE
  5
22004
  8
1PHANTOM
 10
20.49303439040287
 20
-566.5411097088331
 30
0.0
 11
20.49303439040287
 21
-565.5411097088331
 31
0.0
  0
LINE
  5
22005
  8
1PHANTOM
 10
20.49303439040287
 20
-565.5411097088331
 30
0.0
 11
12.89303439040296
 21
-565.5411097088331
 31
0.0
  0
LINE
  5
22006
  8
1PHANTOM
 10
12.89303439040296
 20
-565.5411097088331
 30
0.0
 11
12.89303439040296
 21
-566.5411097088331
 31
0.0
  0
LINE
  5
22007
  8
1PHANTOM
 10
12.89303439040296
 20
-566.5411097088331
 30
0.0
 11
20.49303439040287
 21
-566.5411097088331
 31
0.0
  0
LINE
  5
22008
  8
0
  6
BYBLOCK
 10
22.69304270511884
 20
-703.2823523678956
 30
0.0
 11
16.69304270511884
 21
-701.6746572278955
 31
0.0
  0
LINE
  5
22009
  8
0
  6
BYBLOCK
 10
16.69304270511884
 20
-701.6746572278955
 30
0.0
 11
22.69304270511884
 21
-700.0669620878955
 31
0.0
  0
LINE
  5
2200A
  8
0
  6
BYBLOCK
 10
16.69304270511884
 20
-701.6746572278955
 30
0.0
 11
22.69304270511884
 21
-701.6746572278955
 31
0.0
  0
LINE
  5
2200B
  8
0
  6
BYBLOCK
 10
610.6930236467346
 20
-700.0669620878955
 30
0.0
 11
616.6930236467346
 21
-701.6746572278955
 31
0.0
  0
LINE
  5
2200C
  8
0
  6
BYBLOCK
 10
616.6930236467346
 20
-701.6746572278955
 30
0.0
 11
610.6930236467346
 21
-703.2823523678956
 31
0.0
  0
LINE
  5
2200D
  8
0
  6
BYBLOCK
 10
616.6930236467346
 20
-701.6746572278955
 30
0.0
 11
610.6930236467346
 21
-701.6746572278955
 31
0.0
  0
TEXT
  5
2200E
  8
1DIM1
  6
CONTINUOUS
 10
298.9378248425934
 20
-699.5746572278955
 30
0.0
 40
10.5
  1
P600
1001
ACAD
1000
DSTYLE
1002
{
1070
    40
1040
3.0
1070
    45
1040
0.5
1002
}
  0
LINE
  5
2200F
  8
0
  6
BYBLOCK
 10
547.4585302560789
 20
-658.8213114276175
 30
0.0
 11
546.9226318760789
 21
-660.8213114276175
 31
0.0
  0
LINE
  5
22010
  8
0
  6
BYBLOCK
 10
546.9226318760789
 20
-660.8213114276175
 30
0.0
 11
546.3867334960788
 21
-658.8213114276175
 31
0.0
  0
LINE
  5
22011
  8
0
  6
BYBLOCK
 10
546.9226318760789
 20
-660.8213114276175
 30
0.0
 11
546.9226318760789
 21
-658.8213114276175
 31
0.0
  0
LINE
  5
22012
  8
0
  6
BYBLOCK
 10
546.3867334960788
 20
-652.8213114276175
 30
0.0
 11
546.9226318760789
 21
-650.8213114276175
 31
0.0
  0
LINE
  5
22013
  8
0
  6
BYBLOCK
 10
546.9226318760789
 20
-650.8213114276175
 30
0.0
 11
547.4585302560789
 21
-652.8213114276175
 31
0.0
  0
LINE
  5
22014
  8
0
  6
BYBLOCK
 10
546.9226318760789
 20
-650.8213114276175
 30
0.0
 11
546.9226318760789
 21
-652.8213114276175
 31
0.0
  0
TEXT
  5
22015
  8
1DIM
  6
CONTINUOUS
 10
546.2226318760788
 20
-647.6525614276173
 30
0.0
 40
3.5
  1
10
 50
90.0
1001
ACAD
1000
DSTYLE
1002
{
1070
    45
1040
0.5
1002
}
  0
LINE
  5
22016
  8
0
  6
BYBLOCK
 10
548.2884008839411
 20
-593.5410790522142
 30
0.0
 11
547.7525025039411
 21
-595.5410790522142
 31
0.0
  0
LINE
  5
22017
  8
0
  6
BYBLOCK
 10
547.7525025039411
 20
-595.5410790522142
 30
0.0
 11
547.216604123941
 21
-593.5410790522142
 31
0.0
  0
LINE
  5
22018
  8
0
  6
BYBLOCK
 10
547.7525025039411
 20
-595.5410790522142
 30
0.0
 11
547.7525025039411
 21
-593.5410790522142
 31
0.0
  0
LINE
  5
22019
  8
0
  6
BYBLOCK
 10
547.216604123941
 20
-577.5410790522142
 30
0.0
 11
547.7525025039411
 21
-575.5410790522142
 31
0.0
  0
LINE
  5
2201A
  8
0
  6
BYBLOCK
 10
547.7525025039411
 20
-575.5410790522142
 30
0.0
 11
548.2884008839411
 21
-577.5410790522142
 31
0.0
  0
LINE
  5
2201B
  8
0
  6
BYBLOCK
 10
547.7525025039411
 20
-575.5410790522142
 30
0.0
 11
547.7525025039411
 21
-577.5410790522142
 31
0.0
  0
TEXT
  5
2201C
  8
1DIM
  6
CONTINUOUS
 10
547.052502503941
 20
-572.7056623855475
 30
0.0
 40
3.5
  1
20
 50
90.0
1001
ACAD
1000
DSTYLE
1002
{
1070
    45
1040
0.5
1002
}
  0
LINE
  5
2201D
  8
0
  6
BYBLOCK
 10
690.016241615365
 20
-693.7637426239673
 30
0.0
 11
688.016241615365
 21
-693.2278442439673
 31
0.0
  0
LINE
  5
2201E
  8
0
  6
BYBLOCK
 10
688.016241615365
 20
-693.2278442439673
 30
0.0
 11
690.016241615365
 21
-692.6919458639672
 31
0.0
  0
LINE
  5
2201F
  8
0
  6
BYBLOCK
 10
688.016241615365
 20
-693.2278442439673
 30
0.0
 11
690.016241615365
 21
-693.2278442439673
 31
0.0
  0
LINE
  5
22020
  8
0
  6
BYBLOCK
 10
741.016241615365
 20
-692.6919458639672
 30
0.0
 11
743.016241615365
 21
-693.2278442439673
 31
0.0
  0
LINE
  5
22021
  8
0
  6
BYBLOCK
 10
743.016241615365
 20
-693.2278442439673
 30
0.0
 11
741.016241615365
 21
-693.7637426239673
 31
0.0
  0
LINE
  5
22022
  8
0
  6
BYBLOCK
 10
743.016241615365
 20
-693.2278442439673
 30
0.0
 11
741.016241615365
 21
-693.2278442439673
 31
0.0
  0
TEXT
  5
22023
  8
1DIM
  6
CONTINUOUS
 10
712.5874221709205
 20
-692.5278442439671
 30
0.0
 40
3.5
  1
55
1001
ACAD
1000
DSTYLE
1002
{
1070
    45
1040
0.5
1002
}
  0
LINE
  5
22024
  8
0
  6
BYBLOCK
 10
741.016241615365
 20
-684.3420228819615
 30
0.0
 11
743.016241615365
 21
-684.8779212619615
 31
0.0
  0
LINE
  5
22025
  8
0
  6
BYBLOCK
 10
743.016241615365
 20
-684.8779212619615
 30
0.0
 11
741.016241615365
 21
-685.4138196419616
 31
0.0
  0
LINE
  5
22026
  8
0
  6
BYBLOCK
 10
743.016241615365
 20
-684.8779212619615
 30
0.0
 11
741.016241615365
 21
-684.8779212619615
 31
0.0
  0
LINE
  5
22027
  8
0
  6
BYBLOCK
 10
727.016241615365
 20
-685.4138196419616
 30
0.0
 11
725.016241615365
 21
-684.8779212619615
 31
0.0
  0
LINE
  5
22028
  8
0
  6
BYBLOCK
 10
725.016241615365
 20
-684.8779212619615
 30
0.0
 11
727.016241615365
 21
-684.3420228819615
 31
0.0
  0
LINE
  5
22029
  8
0
  6
BYBLOCK
 10
725.016241615365
 20
-684.8779212619615
 30
0.0
 11
727.016241615365
 21
-684.8779212619615
 31
0.0
  0
TEXT
  5
2202A
  8
1DIM
  6
CONTINUOUS
 10
731.6829082820316
 20
-684.1779212619615
 30
0.0
 40
3.5
  1
18
1001
ACAD
1000
DSTYLE
1002
{
1070
    45
1040
0.5
1002
}
  0
LINE
  5
2202B
  8
0
  6
BYBLOCK
 10
785.052139995365
 20
-654.0746265712758
 30
0.0
 11
784.516241615365
 21
-656.0746265712758
 31
0.0
  0
LINE
  5
2202C
  8
0
  6
BYBLOCK
 10
784.516241615365
 20
-656.0746265712758
 30
0.0
 11
783.9803432353649
 21
-654.0746265712758
 31
0.0
  0
LINE
  5
2202D
  8
0
  6
BYBLOCK
 10
784.516241615365
 20
-656.0746265712758
 30
0.0
 11
784.516241615365
 21
-654.0746265712758
 31
0.0
  0
LINE
  5
2202E
  8
0
  6
BYBLOCK
 10
783.9803432353649
 20
-639.8213492749153
 30
0.0
 11
784.516241615365
 21
-637.8213492749153
 31
0.0
  0
LINE
  5
2202F
  8
0
  6
BYBLOCK
 10
784.516241615365
 20
-637.8213492749153
 30
0.0
 11
785.052139995365
 21
-639.8213492749153
 31
0.0
  0
LINE
  5
22030
  8
0
  6
BYBLOCK
 10
784.516241615365
 20
-637.8213492749153
 30
0.0
 11
784.516241615365
 21
-639.8213492749153
 31
0.0
  0
TEXT
  5
22031
  8
1DIM
  6
CONTINUOUS
 10
783.8162416153649
 20
-649.282131441614
 30
0.0
 40
3.5
  1
19
 50
90.0
1001
ACAD
1000
DSTYLE
1002
{
1070
    45
1040
0.5
1070
   271
1070
     0
1002
}
  0
LINE
  5
22032
  8
0
  6
BYBLOCK
 10
3.693034390403284
 20
-733.0290561478866
 30
0.0
 11
-2.306965609596716
 21
-731.4213610078866
 31
0.0
  0
LINE
  5
22033
  8
0
  6
BYBLOCK
 10
-2.306965609596716
 20
-731.4213610078866
 30
0.0
 11
3.693034390403284
 21
-729.8136658678866
 31
0.0
  0
LINE
  5
22034
  8
0
  6
BYBLOCK
 10
-2.306965609596716
 20
-731.4213610078866
 30
0.0
 11
3.693034390403284
 21
-731.4213610078866
 31
0.0
  0
LINE
  5
22035
  8
0
  6
BYBLOCK
 10
629.6930700782187
 20
-729.8136658678866
 30
0.0
 11
635.6930700782187
 21
-731.4213610078866
 31
0.0
  0
LINE
  5
22036
  8
0
  6
BYBLOCK
 10
635.6930700782187
 20
-731.4213610078866
 30
0.0
 11
629.6930700782187
 21
-733.0290561478866
 31
0.0
  0
LINE
  5
22037
  8
0
  6
BYBLOCK
 10
635.6930700782187
 20
-731.4213610078866
 30
0.0
 11
629.6930700782187
 21
-731.4213610078866
 31
0.0
  0
TEXT
  5
22038
  8
1DIM1
  6
CONTINUOUS
 10
302.6565939009777
 20
-729.3213610078866
 30
0.0
 40
10.5
  1
638
1001
ACAD
1000
DSTYLE
1002
{
1070
    40
1040
3.0
1070
    45
1040
0.5
1002
}
  0
LINE
  5
22039
  8
0
  6
BYBLOCK
 10
795.052139995365
 20
-671.8213492749153
 30
0.0
 11
794.516241615365
 21
-673.8213492749153
 31
0.0
  0
LINE
  5
2203A
  8
0
  6
BYBLOCK
 10
794.516241615365
 20
-673.8213492749153
 30
0.0
 11
793.9803432353649
 21
-671.8213492749153
 31
0.0
  0
LINE
  5
2203B
  8
0
  6
BYBLOCK
 10
794.516241615365
 20
-673.8213492749153
 30
0.0
 11
794.516241615365
 21
-671.8213492749153
 31
0.0
  0
LINE
  5
2203C
  8
0
  6
BYBLOCK
 10
793.9803432353649
 20
-639.8213492749153
 30
0.0
 11
794.516241615365
 21
-637.8213492749153
 31
0.0
  0
LINE
  5
2203D
  8
0
  6
BYBLOCK
 10
794.516241615365
 20
-637.8213492749153
 30
0.0
 11
795.052139995365
 21
-639.8213492749153
 31
0.0
  0
LINE
  5
2203E
  8
0
  6
BYBLOCK
 10
794.516241615365
 20
-637.8213492749153
 30
0.0
 11
794.516241615365
 21
-639.8213492749153
 31
0.0
  0
TEXT
  5
2203F
  8
1DIM
  6
CONTINUOUS
 10
793.8162416153649
 20
-658.7380159415818
 30
0.0
 40
3.5
  1
36
 50
90.0
1001
ACAD
1000
DSTYLE
1002
{
1070
    45
1040
0.5
1002
}
  0
LINE
  5
22040
  8
0
  6
BYBLOCK
 10
620.6930700782189
 20
-534.1084780528856
 30
0.0
 11
622.6930700782189
 21
-534.6443764328857
 31
0.0
  0
LINE
  5
22041
  8
0
  6
BYBLOCK
 10
622.6930700782189
 20
-534.6443764328857
 30
0.0
 11
620.6930700782189
 21
-535.1802748128857
 31
0.0
  0
LINE
  5
22042
  8
0
  6
BYBLOCK
 10
622.6930700782189
 20
-534.6443764328857
 30
0.0
 11
620.6930700782189
 21
-534.6443764328857
 31
0.0
  0
LINE
  5
22043
  8
0
  6
BYBLOCK
 10
612.6930700782189
 20
-535.1802748128857
 30
0.0
 11
610.6930700782189
 21
-534.6443764328857
 31
0.0
  0
LINE
  5
22044
  8
0
  6
BYBLOCK
 10
610.6930700782189
 20
-534.6443764328857
 30
0.0
 11
612.6930700782189
 21
-534.1084780528856
 31
0.0
  0
LINE
  5
22045
  8
0
  6
BYBLOCK
 10
610.6930700782189
 20
-534.6443764328857
 30
0.0
 11
612.6930700782189
 21
-534.6443764328857
 31
0.0
  0
TEXT
  5
22046
  8
1DIM
  6
CONTINUOUS
 10
625.6430700782189
 20
-533.9443764328856
 30
0.0
 40
3.5
  1
12
1001
ACAD
1000
DSTYLE
1002
{
1070
    45
1040
0.5
1002
}
  0
VIEWPORT
  5
57
 67
     1
  8
0
 10
0.0
 20
0.0
 30
0.0
 40
554.37576499388
 41
297.0
 68
     1
 69
     1
1001
ACAD
1000
MVIEW
1002
{
1070
    16
1010
0.0
1020
0.0
1030
0.0
1010
0.0
1020
0.0
1030
1.0
1040
0.0
1040
297.0
1040
-4.171999999925333
1040
12.83903210976956
1040
50.0
1040
0.0
1040
0.0
1070
    16
1070
   100
1070
     0
1070
     1
1070
     0
1070
     0
1070
     0
1070
     0
1040
0.0
1040
0.0
1040
0.0
1040
10.0
1040
10.0
1040
10.0
1040
10.0
1070
     0
1002
{
1002
}
1002
}
  0
ENDSEC
  0
EOF
