  0
SECTION
  2
HEADER
  9
$ACADVER
  1
AC1009
  9
$DWGCODEPAGE
  3
ansi_932
  9
$INSBASE
 10
0.0
 20
0.0
 30
0.0
  9
$EXTMIN
 10
461.4527211417183
 20
-647.0417205643523
 30
0.0
  9
$EXTMAX
 10
810.4632207284608
 20
-458.8184469593324
 30
0.0
  9
$LIMMIN
 10
0.0
 20
0.0
  9
$LIMMAX
 10
420.0
 20
297.0
  9
$ORTHOMODE
 70
     0
  9
$REGENMODE
 70
     1
  9
$FILLMODE
 70
     1
  9
$QTEXTMODE
 70
     0
  9
$MIRRTEXT
 70
     0
  9
$DRAGMODE
 70
     2
  9
$LTSCALE
 40
0.5
  9
$OSMODE
 70
 14591
  9
$ATTMODE
 70
     1
  9
$TEXTSIZE
 40
4.0
  9
$TRACEWID
 40
1.0
  9
$TEXTSTYLE
  7
STANDARD
  9
$CLAYER
  8
1TEXT
  9
$CELTYPE
  6
BYLAYER
  9
$CECOLOR
 62
   256
  9
$DIMSCALE
 40
1.0
  9
$DIMASZ
 40
2.0
  9
$DIMEXO
 40
0.0
  9
$DIMDLI
 40
7.0
  9
$DIMRND
 40
0.0
  9
$DIMDLE
 40
0.0
  9
$DIMEXE
 40
1.0
  9
$DIMTP
 40
0.0
  9
$DIMTM
 40
0.0
  9
$DIMTXT
 40
3.5
  9
$DIMCEN
 40
0.0
  9
$DIMTSZ
 40
0.0
  9
$DIMTOL
 70
     0
  9
$DIMLIM
 70
     0
  9
$DIMTIH
 70
     0
  9
$DIMTOH
 70
     0
  9
$DIMSE1
 70
     0
  9
$DIMSE2
 70
     0
  9
$DIMTAD
 70
     1
  9
$DIMZIN
 70
     8
  9
$DIMBLK
  1

  9
$DIMASO
 70
     1
  9
$DIMSHO
 70
     1
  9
$DIMPOST
  1
 
  9
$DIMAPOST
  1

  9
$DIMALT
 70
     0
  9
$DIMALTD
 70
     2
  9
$DIMALTF
 40
25.4
  9
$DIMLFAC
 40
1.0
  9
$DIMTOFL
 70
     1
  9
$DIMTVP
 40
0.0
  9
$DIMTIX
 70
     0
  9
$DIMSOXD
 70
     0
  9
$DIMSAH
 70
     1
  9
$DIMBLK1
  1
OPEN30
  9
$DIMBLK2
  1
OPEN30
  9
$DIMSTYLE
  2
NEWX10
  9
$DIMCLRD
 70
   256
  9
$DIMCLRE
 70
   256
  9
$DIMCLRT
 70
   201
  9
$DIMTFAC
 40
0.7
  9
$DIMGAP
 40
0.7
  9
$LUNITS
 70
     2
  9
$LUPREC
 70
     4
  9
$SKETCHINC
 40
1.0
  9
$FILLETRAD
 40
0.0
  9
$AUNITS
 70
     0
  9
$AUPREC
 70
     2
  9
$MENU
  1
acad
  9
$ELEVATION
 40
0.0
  9
$PELEVATION
 40
0.0
  9
$THICKNESS
 40
0.0
  9
$LIMCHECK
 70
     0
  9
$CHAMFERA
 40
1.0
  9
$CHAMFERB
 40
1.0
  9
$SKPOLY
 70
     0
  9
$TDCREATE
 40
2453033.732663484
  9
$TDUPDATE
 40
2459762.411849433
  9
$TDINDWG
 40
2.3809911111
  9
$TDUSRTIMER
 40
2.3809911111
  9
$USRTIMER
 70
     1
  9
$ANGBASE
 50
0.0
  9
$ANGDIR
 70
     0
  9
$PDMODE
 70
     0
  9
$PDSIZE
 40
0.0
  9
$PLINEWID
 40
0.0
  9
$COORDS
 70
     2
  9
$SPLFRAME
 70
     0
  9
$SPLINETYPE
 70
     6
  9
$SPLINESEGS
 70
     8
  9
$ATTDIA
 70
     0
  9
$ATTREQ
 70
     1
  9
$HANDLING
 70
     1
  9
$HANDSEED
  5
2096A
  9
$SURFTAB1
 70
     6
  9
$SURFTAB2
 70
     6
  9
$SURFTYPE
 70
     6
  9
$SURFU
 70
     6
  9
$SURFV
 70
     6
  9
$UCSNAME
  2

  9
$UCSORG
 10
0.0
 20
0.0
 30
0.0
  9
$UCSXDIR
 10
1.0
 20
0.0
 30
0.0
  9
$UCSYDIR
 10
0.0
 20
1.0
 30
0.0
  9
$PUCSNAME
  2

  9
$PUCSORG
 10
0.0
 20
0.0
 30
0.0
  9
$PUCSXDIR
 10
1.0
 20
0.0
 30
0.0
  9
$PUCSYDIR
 10
0.0
 20
1.0
 30
0.0
  9
$USERI1
 70
     0
  9
$USERI2
 70
     0
  9
$USERI3
 70
     0
  9
$USERI4
 70
     0
  9
$USERI5
 70
     0
  9
$USERR1
 40
0.0
  9
$USERR2
 40
0.0
  9
$USERR3
 40
0.0
  9
$USERR4
 40
0.0
  9
$USERR5
 40
0.0
  9
$WORLDVIEW
 70
     1
  9
$SHADEDGE
 70
     3
  9
$SHADEDIF
 70
    70
  9
$TILEMODE
 70
     1
  9
$MAXACTVP
 70
    48
  9
$PLIMCHECK
 70
     0
  9
$PEXTMIN
 10
1.000000000000000E+20
 20
1.000000000000000E+20
 30
1.000000000000000E+20
  9
$PEXTMAX
 10
-1.000000000000000E+20
 20
-1.000000000000000E+20
 30
-1.000000000000000E+20
  9
$PLIMMIN
 10
0.0
 20
0.0
  9
$PLIMMAX
 10
420.0
 20
297.0
  9
$UNITMODE
 70
     0
  9
$VISRETAIN
 70
     1
  9
$PLINEGEN
 70
     0
  9
$PSLTSCALE
 70
     1
  0
ENDSEC
  0
SECTION
  2
TABLES
  0
TABLE
  2
VPORT
 70
     1
  0
VPORT
  2
*ACTIVE
 70
     0
 10
0.0
 20
0.0
 11
1.0
 21
1.0
 12
635.9579709350895
 22
-552.9300837618424
 13
0.0
 23
0.0
 14
10.0
 24
10.0
 15
10.0
 25
10.0
 16
0.0
 26
0.0
 36
1.0
 17
0.0
 27
0.0
 37
0.0
 40
202.0923569232845
 41
1.866585067319461
 42
50.0
 43
0.0
 44
0.0
 50
0.0
 51
0.0
 71
    16
 72
   100
 73
     1
 74
     1
 75
     0
 76
     0
 77
     0
 78
     0
  0
ENDTAB
  0
TABLE
  2
LTYPE
 70
    18
  0
LTYPE
  2
CONTINUOUS
 70
     0
  3
Solid line
 72
    65
 73
     0
 40
0.0
  0
LTYPE
  2
CENTER2
 70
     0
  3
Center (.5x) ___ _ ___ _ ___ _ ___ _ ___ _ ___
 72
    65
 73
     4
 40
28.575
 49
19.05
 49
-3.175
 49
3.175
 49
-3.175
  0
LTYPE
  2
PHANTOM2
 70
     0
  3
Phantom (0.5x) ___ _ _ ___ _ _ ___ _ _ ___ _ _
 72
    65
 73
     6
 40
31.75
 49
15.875
 49
-3.175
 49
3.175
 49
-3.175
 49
3.175
 49
-3.175
  0
ENDTAB
  0
TABLE
  2
LAYER
 70
    44
  0
LAYER
  2
0
 70
     0
 62
     7
  6
CONTINUOUS
  0
LAYER
  2
1CENTER
 70
     0
 62
     7
  6
CENTER2
  0
LAYER
  2
1TEXT
 70
     0
 62
     7
  6
CONTINUOUS
  0
LAYER
  2
1DIM
 70
     0
 62
     7
  6
CONTINUOUS
  0
LAYER
  2
1PHANTOM
 70
     0
 62
     7
  6
PHANTOM2
  0
LAYER
  2
01
 70
     0
 62
     1
  6
CONTINUOUS
  0
LAYER
  2
1HATCH
 70
     0
 62
     7
  6
CONTINUOUS
  0
ENDTAB
  0
TABLE
  2
STYLE
 70
    24
  0
STYLE
  2
STANDARD
 70
     0
 40
0.0
 41
1.0
 50
0.0
 71
     0
 42
4.0
  3
txt.shx
  4
extfont.shx
  0
ENDTAB
  0
TABLE
  2
VIEW
 70
     0
  0
ENDTAB
  0
TABLE
  2
UCS
 70
     0
  0
ENDTAB
  0
TABLE
  2
APPID
 70
    15
  0
APPID
  2
ACAD
 70
     0
  0
APPID
  2
DRAWINGVARIABLESXDATA
 70
     0
  0
APPID
  2
CONTENTTABDATA
 70
     0
  0
APPID
  2
CONTENTCURRENTTAB
 70
     0
  0
APPID
  2
CONTENTBLOCKDESCRIPTION
 70
     0
  0
APPID
  2
CONTENTBLOCKICON
 70
     0
  0
APPID
  2
CONTENTLONGBLOCKNAME
 70
     0
  0
APPID
  2
ACAD_PSEXT
 70
     0
  0
APPID
  2
ACAD_DSTYLE_DIMTEXT_FILL
 70
     0
  0
APPID
  2
ACAD_MLEADERVER
 70
     0
  0
APPID
  2
ACAD_DSTYLE_DIMRADIAL_EXTE
 70
     0
  0
APPID
  2
ACADANNOTATIVE
 70
     0
  0
APPID
  2
ACAD_EXEMPT_FROM_CAD_STAND
 70
     0
  0
APPID
  2
ACDBBLOCKREPETAG
 70
     0
  0
APPID
  2
ACAD_OBJECT_CHANGE_GUID
 70
     0
  0
ENDTAB
  0
TABLE
  2
DIMSTYLE
 70
    10
  0
DIMSTYLE
  2
NEWX10
 70
     0
  3
 
  4

  5

  6
OPEN30
  7
OPEN30
 40
1.0
 41
2.0
 42
0.0
 43
7.0
 44
1.0
 45
0.0
 46
0.0
 47
0.0
 48
0.0
140
3.5
141
0.0
142
0.0
143
25.4
144
1.0
145
0.0
146
0.7
147
0.7
 71
     0
 72
     0
 73
     0
 74
     0
 75
     0
 76
     0
 77
     1
 78
     8
170
     0
171
     2
172
     1
173
     1
174
     0
175
     0
176
   256
177
   256
178
   201
  0
ENDTAB
  0
ENDSEC
  0
SECTION
  2
BLOCKS
  0
BLOCK
  8
0
  2
$MODEL_SPACE
 70
     0
 10
0.0
 20
0.0
 30
0.0
  3
$MODEL_SPACE
  1

  0
ENDBLK
  5
1A
  8
0
  0
BLOCK
 67
     1
  8
0
  2
$PAPER_SPACE
 70
     0
 10
0.0
 20
0.0
 30
0.0
  3
$PAPER_SPACE
  1

  0
ENDBLK
  5
17
 67
     1
  8
0
  0
BLOCK
  8
0
  2
_OPEN30
 70
     0
 10
0.0
 20
0.0
 30
0.0
  3
_OPEN30
  1

  0
LINE
  5
44
  8
0
  6
BYBLOCK
 62
     0
 10
-1.0
 20
0.26794919
 30
0.0
 11
0.0
 21
0.0
 31
0.0
  0
LINE
  5
45
  8
0
  6
BYBLOCK
 62
     0
 10
0.0
 20
0.0
 30
0.0
 11
-1.0
 21
-0.26794919
 31
0.0
  0
LINE
  5
46
  8
0
  6
BYBLOCK
 62
     0
 10
0.0
 20
0.0
 30
0.0
 11
-1.0
 21
0.0
 31
0.0
  0
ENDBLK
  5
47
  8
0
  0
BLOCK
  8
0
  2
A3WAKUKAWAJUN2017_HYOUDAI_
 70
     0
 10
0.0
 20
0.0
 30
0.0
  3
A3WAKUKAWAJUN2017_HYOUDAI_
  1

  0
LINE
  5
1F5D5
  8
0
 10
13.26299999998673
 20
-0.0001000000000317
 30
0.0
 11
9.236999999990758
 21
8.999899999990987
 31
0.0
1001
ACAD
1000
ASC_BOUNDS
1002
{
1070
    19
1005
1F616
1002
}
  0
LINE
  5
1F5D6
  8
0
 10
5.657999999994331
 20
0.9999999999989768
 30
0.0
 11
9.236999999990758
 21
8.999999999991019
 31
0.0
1001
ACAD
1000
ASC_BOUNDS
1002
{
1070
    19
1005
1F616
1002
}
  0
LINE
  5
1F5D7
  8
0
 10
18.59199999998134
 20
-0.2368999999997641
 30
0.0
 11
16.46099999998353
 21
5.432899999994561
 31
0.0
1001
ACAD
1000
ASC_BOUNDS
1002
{
1070
    19
1005
1F617
1002
}
  0
LINE
  5
1F5D8
  8
0
 10
18.59199999998134
 20
-0.2368999999997641
 30
0.0
 11
22.38199999997767
 21
8.763099999991255
 31
0.0
1001
ACAD
1000
ASC_BOUNDS
1002
{
1070
    19
1005
1F617
1002
}
  0
LINE
  5
1F5D9
  8
0
 10
14.32899999998563
 20
-0.2368999999997641
 30
0.0
 11
16.46099999998353
 21
5.432899999994561
 31
0.0
1001
ACAD
1000
ASC_BOUNDS
1002
{
1070
    19
1005
1F617
1002
}
  0
LINE
  5
1F5DA
  8
0
 10
14.32899999998563
 20
-0.2368999999997641
 30
0.0
 11
10.53899999998941
 21
8.763099999991255
 31
0.0
1001
ACAD
1000
ASC_BOUNDS
1002
{
1070
    19
1005
1F617
1002
}
  0
LINE
  5
1F5DB
  8
0
 10
19.53899999998043
 20
-0.0001000000000317
 30
0.0
 11
23.56599999997638
 21
8.999899999990987
 31
0.0
1001
ACAD
1000
ASC_BOUNDS
1002
{
1070
    19
1005
1F618
1002
}
  0
LINE
  5
1F5DC
  8
0
 10
26.97358892824991
 20
1.383099999991202
 30
0.0
 11
23.56599999997638
 21
8.999899999990987
 31
0.0
1001
ACAD
1000
ASC_BOUNDS
1002
{
1070
    19
1005
1F618
1002
}
  0
LINE
  5
1F5DD
  8
0
 10
5.657999999994331
 20
0.9999999999989768
 30
0.0
 11
3.181999999996833
 21
4.668599999995308
 31
0.0
1001
ACAD
1000
ASC_BOUNDS
1002
{
1070
    19
1005
1F616
1002
}
  0
LINE
  5
1F5DE
  8
0
 10
4.617999999995391
 20
-0.0001000000000317
 30
0.0
 11
1.420999999998571
 21
4.736799999995242
 31
0.0
1001
ACAD
1000
ASC_BOUNDS
1002
{
1070
    19
1005
1F616
1002
}
  0
LINE
  5
1F5DF
  8
0
 10
1.420999999998571
 20
8.763099999991255
 30
0.0
 11
1.420999999998571
 21
0.0
 31
0.0
1001
ACAD
1000
ASC_BOUNDS
1002
{
1070
    19
1005
1F61B
1002
}
  0
LINE
  5
1F5E0
  8
0
 10
0.0
 20
8.763099999991255
 30
0.0
 11
0.0
 21
0.0
 31
0.0
1001
ACAD
1000
ASC_BOUNDS
1002
{
1070
    19
1005
1F61B
1002
}
  0
LINE
  5
1F5E1
  8
0
 10
6.766999999993232
 20
-0.0001000000000317
 30
0.0
 11
7.826999999992154
 21
2.368399999997621
 31
0.0
1001
ACAD
1000
ASC_BOUNDS
1002
{
1070
    19
1005
1F616
1002
}
  0
LINE
  5
1F5E2
  8
0
 10
0.0
 20
0.0
 30
0.0
 11
1.420999999998571
 21
0.0
 31
0.0
1001
ACAD
1000
ASC_BOUNDS
1002
{
1070
    19
1005
1F61B
1002
}
  0
LINE
  5
1F5E3
  8
0
 10
4.617999999995391
 20
0.0
 30
0.0
 11
6.766999999993232
 21
0.0
 31
0.0
1001
ACAD
1000
ASC_BOUNDS
1002
{
1070
    19
1005
1F616
1002
}
  0
LINE
  5
1F5E4
  8
0
 10
11.70599999998831
 20
-0.0001000000000317
 30
0.0
 11
10.64699999998936
 21
2.368399999997621
 31
0.0
1001
ACAD
1000
ASC_BOUNDS
1002
{
1070
    19
1005
1F616
1002
}
  0
LINE
  5
1F5E5
  8
0
 10
7.826999999992154
 20
2.368399999997621
 30
0.0
 11
10.64699999998936
 21
2.368399999997621
 31
0.0
1001
ACAD
1000
ASC_BOUNDS
1002
{
1070
    19
1005
1F616
1002
}
  0
LINE
  5
1F5E6
  8
0
 10
11.70599999998831
 20
0.0
 30
0.0
 11
13.26299999998673
 21
0.0
 31
0.0
1001
ACAD
1000
ASC_BOUNDS
1002
{
1070
    19
1005
1F616
1002
}
  0
LINE
  5
1F5E7
  8
0
 10
22.15599999997789
 20
2.368399999997621
 30
0.0
 11
24.97599999997499
 21
2.368399999997621
 31
0.0
1001
ACAD
1000
ASC_BOUNDS
1002
{
1070
    19
1005
1F618
1002
}
  0
LINE
  5
1F5E8
  8
0
 10
19.53899999998043
 20
0.0
 30
0.0
 11
21.09599999997886
 21
0.0
 31
0.0
1001
ACAD
1000
ASC_BOUNDS
1002
{
1070
    19
1005
1F618
1002
}
  0
LINE
  5
1F5E9
  8
0
 10
21.09599999997886
 20
-0.0001000000000317
 30
0.0
 11
22.15599999997789
 21
2.368399999997621
 31
0.0
1001
ACAD
1000
ASC_BOUNDS
1002
{
1070
    19
1005
1F618
1002
}
  0
LINE
  5
1F5EA
  8
0
 10
26.02015566812236
 20
0.0330999999912365
 30
0.0
 11
24.97599999997499
 21
2.368399999997621
 31
0.0
1001
ACAD
1000
ASC_BOUNDS
1002
{
1070
    19
1005
1F618
1002
}
  0
LINE
  5
1F5EB
  8
0
 10
14.32399999998563
 20
3.315799999996671
 30
0.0
 11
16.46099999998353
 21
8.999899999990987
 31
0.0
1001
ACAD
1000
ASC_BOUNDS
1002
{
1070
    19
1005
1F617
1002
}
  0
LINE
  5
1F5EC
  8
0
 10
6.432999999993513
 20
8.763099999991255
 30
0.0
 11
3.181999999996833
 21
4.668599999995308
 31
0.0
1001
ACAD
1000
ASC_BOUNDS
1002
{
1070
    19
1005
1F616
1002
}
  0
LINE
  5
1F5ED
  8
0
 10
4.617999999995391
 20
8.763099999991255
 30
0.0
 11
1.420999999998571
 21
4.736799999995242
 31
0.0
1001
ACAD
1000
ASC_BOUNDS
1002
{
1070
    19
1005
1F616
1002
}
  0
LINE
  5
1F5EE
  8
0
 10
0.0
 20
8.763099999991255
 30
0.0
 11
1.420999999998571
 21
8.763099999991255
 31
0.0
1001
ACAD
1000
ASC_BOUNDS
1002
{
1070
    19
1005
1F61B
1002
}
  0
LINE
  5
1F5EF
  8
0
 10
4.617999999995391
 20
8.763099999991255
 30
0.0
 11
6.432999999993513
 21
8.763099999991255
 31
0.0
1001
ACAD
1000
ASC_BOUNDS
1002
{
1070
    19
1005
1F616
1002
}
  0
LINE
  5
1F5F0
  8
0
 10
14.32399999998563
 20
3.315799999996671
 30
0.0
 11
12.02999999998792
 21
8.763099999991255
 31
0.0
1001
ACAD
1000
ASC_BOUNDS
1002
{
1070
    19
1005
1F617
1002
}
  0
LINE
  5
1F5F1
  8
0
 10
10.06399999998996
 20
3.670999999996297
 30
0.0
 11
9.236999999990758
 21
5.5200999999945
 31
0.0
1001
ACAD
1000
ASC_BOUNDS
1002
{
1070
    19
1005
1F616
1002
}
  0
LINE
  5
1F5F2
  8
0
 10
8.409999999991555
 20
3.670999999996297
 30
0.0
 11
9.236999999990758
 21
5.5200999999945
 31
0.0
1001
ACAD
1000
ASC_BOUNDS
1002
{
1070
    19
1005
1F616
1002
}
  0
LINE
  5
1F5F3
  8
0
 10
8.409999999991555
 20
3.670999999996297
 30
0.0
 11
10.06399999998996
 21
3.670999999996297
 31
0.0
1001
ACAD
1000
ASC_BOUNDS
1002
{
1070
    19
1005
1F616
1002
}
  0
LINE
  5
1F5F4
  8
0
 10
10.53899999998941
 20
8.763099999991255
 30
0.0
 11
12.02999999998792
 21
8.763099999991255
 31
0.0
1001
ACAD
1000
ASC_BOUNDS
1002
{
1070
    19
1005
1F617
1002
}
  0
LINE
  5
1F5F5
  8
0
 10
22.7389999999773
 20
3.670999999996297
 30
0.0
 11
23.56599999997638
 21
5.5200999999945
 31
0.0
1001
ACAD
1000
ASC_BOUNDS
1002
{
1070
    19
1005
1F618
1002
}
  0
LINE
  5
1F5F6
  8
0
 10
22.7389999999773
 20
3.670999999996297
 30
0.0
 11
24.39299999997559
 21
3.670999999996297
 31
0.0
1001
ACAD
1000
ASC_BOUNDS
1002
{
1070
    19
1005
1F618
1002
}
  0
LINE
  5
1F5F7
  8
0
 10
18.59799999998143
 20
3.315799999996671
 30
0.0
 11
20.89099999997916
 21
8.763099999991255
 31
0.0
1001
ACAD
1000
ASC_BOUNDS
1002
{
1070
    19
1005
1F617
1002
}
  0
LINE
  5
1F5F8
  8
0
 10
18.59799999998143
 20
3.315799999996671
 30
0.0
 11
16.46099999998353
 21
8.999899999990987
 31
0.0
1001
ACAD
1000
ASC_BOUNDS
1002
{
1070
    19
1005
1F617
1002
}
  0
LINE
  5
1F5F9
  8
0
 10
20.89099999997916
 20
8.763099999991255
 30
0.0
 11
22.38199999997767
 21
8.763099999991255
 31
0.0
1001
ACAD
1000
ASC_BOUNDS
1002
{
1070
    19
1005
1F617
1002
}
  0
LINE
  5
1F5FA
  8
0
 10
24.39299999997559
 20
3.670999999996297
 30
0.0
 11
23.56599999997638
 21
5.5200999999945
 31
0.0
1001
ACAD
1000
ASC_BOUNDS
1002
{
1070
    19
1005
1F618
1002
}
  0
LINE
  5
1F5FB
  8
0
 10
44.99999999995498
 20
-0.2368999999997641
 30
0.0
 11
40.02599999995994
 21
5.341799999994635
 31
0.0
1001
ACAD
1000
ASC_BOUNDS
1002
{
1070
    19
1005
1F61A
1002
}
  0
LINE
  5
1F5FC
  8
0
 10
40.02599999995994
 20
5.341799999994635
 30
0.0
 11
40.02599999995994
 21
0.0
 31
0.0
1001
ACAD
1000
ASC_BOUNDS
1002
{
1070
    19
1005
1F61A
1002
}
  0
LINE
  5
1F5FD
  8
0
 10
38.60499999996136
 20
8.999999999991019
 30
0.0
 11
38.60499999996136
 21
0.0
 31
0.0
1001
ACAD
1000
ASC_BOUNDS
1002
{
1070
    19
1005
1F61A
1002
}
  0
LINE
  5
1F5FE
  8
0
 10
44.99999999995498
 20
8.763099999991255
 30
0.0
 11
44.99999999995498
 21
-0.2368999999997641
 31
0.0
1001
ACAD
1000
ASC_BOUNDS
1002
{
1070
    19
1005
1F61A
1002
}
  0
LINE
  5
1F5FF
  8
0
 10
38.60499999996136
 20
0.0
 30
0.0
 11
40.02599999995994
 21
0.0
 31
0.0
1001
ACAD
1000
ASC_BOUNDS
1002
{
1070
    19
1005
1F61A
1002
}
  0
LINE
  5
1F600
  8
0
 10
43.57899999995641
 20
3.421199999996588
 30
0.0
 11
38.60499999996136
 21
8.999899999990987
 31
0.0
1001
ACAD
1000
ASC_BOUNDS
1002
{
1070
    19
1005
1F61A
1002
}
  0
LINE
  5
1F601
  8
0
 10
43.57899999995641
 20
8.763099999991255
 30
0.0
 11
43.57899999995641
 21
3.421199999996588
 31
0.0
1001
ACAD
1000
ASC_BOUNDS
1002
{
1070
    19
1005
1F61A
1002
}
  0
LINE
  5
1F602
  8
0
 10
43.57899999995641
 20
8.763099999991255
 30
0.0
 11
44.99999999995498
 21
8.763099999991255
 31
0.0
1001
ACAD
1000
ASC_BOUNDS
1002
{
1070
    19
1005
1F61A
1002
}
  0
LINE
  5
1F603
  8
0
 10
37.67199999996831
 20
8.763099999991255
 30
0.0
 11
36.23199999996837
 21
8.763099999991255
 31
0.0
  0
LINE
  5
1F604
  8
0
 10
31.64199999996833
 20
8.763099999991255
 30
0.0
 11
31.64199999996833
 21
2.481619422925121
 31
0.0
  0
LINE
  5
1F605
  8
0
 10
37.67199999996831
 20
8.763099999991255
 30
0.0
 11
37.67199999996831
 21
2.481619422925121
 31
0.0
  0
LINE
  5
1F606
  8
0
 10
36.23199999996837
 20
8.763099999991255
 30
0.0
 11
36.23199999996837
 21
2.481619422925064
 31
0.0
  0
LINE
  5
1F607
  8
0
 10
33.08199999996839
 20
8.763099999991255
 30
0.0
 11
33.08199999996839
 21
2.481619422925121
 31
0.0
  0
ARC
  5
1F608
  8
0
 10
34.65699999996832
 20
3.183099999991214
 30
0.0
 40
3.420000000000007
 50
240.0000000000255
 51
299.9999999999766
  0
ARC
  5
1F609
  8
0
 10
34.65699999996832
 20
3.183099999991214
 30
0.0
 40
1.97999999999999
 50
240.000000000026
 51
299.9999999999703
  0
LINE
  5
1F60A
  8
0
 10
33.08199999996828
 20
8.763099999991255
 30
0.0
 11
31.64199999996833
 21
8.763099999991255
 31
0.0
  0
ARC
  5
1F60B
  8
0
 10
35.06199999996829
 20
2.481619422925064
 30
0.0
 40
1.17
 50
299.9999999999699
 51
0.0
  0
ARC
  5
1F60C
  8
0
 10
34.25199999996835
 20
2.481619422925121
 30
0.0
 40
1.17
 50
180.0
 51
240.0000000000238
  0
ARC
  5
1F60D
  8
0
 10
35.06199999996841
 20
2.481619422925121
 30
0.0
 40
2.61
 50
299.9999999999756
 51
0.0
  0
ARC
  5
1F60E
  8
0
 10
34.25199999996835
 20
2.481619422925121
 30
0.0
 40
2.61
 50
180.0
 51
240.0000000000244
  0
LINE
  5
1F60F
  8
0
 10
29.30199999996933
 20
8.763099999991255
 30
0.0
 11
30.74199999996927
 21
8.763099999991255
 31
0.0
1001
ACAD
1000
ASC_BOUNDS
1002
{
1070
    19
1005
1F618
1002
}
  0
LINE
  5
1F610
  8
0
 10
30.74199999996927
 20
8.763099999991255
 30
0.0
 11
30.74199999996927
 21
2.373099999991211
 31
0.0
1001
ACAD
1000
ASC_BOUNDS
1002
{
1070
    19
1005
1F618
1002
}
  0
LINE
  5
1F611
  8
0
 10
26.02015566812236
 20
0.0330999999912365
 30
0.0
 11
28.40199999996923
 21
0.0330999999912365
 31
0.0
1001
ACAD
1000
ASC_BOUNDS
1002
{
1070
    19
1005
1F618
1002
}
  0
LINE
  5
1F612
  8
0
 10
29.30199999996933
 20
8.763099999991255
 30
0.0
 11
29.30199999996933
 21
2.283099999991236
 31
0.0
1001
ACAD
1000
ASC_BOUNDS
1002
{
1070
    19
1005
1F618
1002
}
  0
LINE
  5
1F613
  8
0
 10
26.97358892824991
 20
1.383099999991202
 30
0.0
 11
28.40199999996923
 21
1.383099999991202
 31
0.0
1001
ACAD
1000
ASC_BOUNDS
1002
{
1070
    19
1005
1F618
1002
}
  0
ARC
  5
1F614
  8
0
 10
28.40199999996923
 20
2.283099999991236
 30
0.0
 40
0.9
 50
270.0
 51
0.0
1001
ACAD
1000
ASC_BOUNDS
1002
{
1070
    19
1005
1F618
1002
}
  0
ARC
  5
1F615
  8
0
 10
28.40199999996923
 20
2.373099999991211
 30
0.0
 40
2.34
 50
270.0
 51
0.0
1001
ACAD
1000
ASC_BOUNDS
1002
{
1070
    19
1005
1F618
1002
}
  0
INSERT
  5
1F616
  8
0
  2
*X82
 10
0.0
 20
0.0
 30
0.0
1001
ACAD
1000
HATCH
1002
{
1070
    19
1000
ANSI37
1040
0.15
1040
0.0
1000
ASC_BOUNDS
1070
     2
1070
     2
1070
    12
1005
1F5D5
1005
1F5D6
1005
1F5DD
1005
1F5EC
1005
1F5EF
1005
1F5ED
1005
1F5DE
1005
1F5E3
1005
1F5E1
1005
1F5E5
1005
1F5E4
1005
1F5E6
1070
     2
1070
     3
1005
1F5F1
1005
1F5F3
1005
1F5F2
1000
ASC_SEEDPOINT
1011
3.614004224891801
1021
2.996669441146025
1031
0.0
1021
2.996669441146025
1031
0.0
1000
R14_HATCH_DATA
1000
1F616
1011
1.0
1021
0.0
1031
0.0
1021
0.0
1031
0.0
1011
0.0
1021
1.0
1031
0.0
1021
1.0
1031
0.0
1011
0.0
1021
0.0
1031
1.0
1021
0.0
1031
1.0
1040
0.0
1010
0.0
1020
0.0
1030
1.0
1000
ANSI37
1070
     0
1070
     1
1071
        2
1071
        7
1070
     0
1070
     1
1071
       17
1040
13.26299999998673
1040
-0.0001000000000317
1040
9.236999999990758
1040
8.999899999990987
1040
9.236999999990758
1040
8.999999999991019
1040
5.657999999994331
1040
0.9999999999989768
1040
3.181999999996833
1040
4.668599999995308
1040
6.432999999993513
1040
8.763099999991255
1040
4.617999999995391
1040
8.763099999991255
1040
1.420999999998571
1040
4.736799999995242
1040
4.617999999995391
1040
-0.0001000000000317
1040
4.617999999995391
1040
0.0
1040
6.766999999993232
1040
0.0
1040
6.766999999993232
1040
-0.0001000000000317
1040
7.826999999992154
1040
2.368399999997621
1040
10.64699999998936
1040
2.368399999997621
1040
11.70599999998831
1040
-0.0001000000000317
1040
11.70599999998831
1040
0.0
1040
13.26299999998673
1040
0.0
1071
       12
1005
1F5D5
1005
1F5D6
1005
1F5DD
1005
1F5EC
1005
1F5EF
1005
1F5ED
1005
1F5DE
1005
1F5E3
1005
1F5E1
1005
1F5E5
1005
1F5E4
1005
1F5E6
1071
       22
1070
     0
1070
     1
1071
        3
1040
9.236999999990758
1040
5.5200999999945
1040
10.06399999998996
1040
3.670999999996297
1040
8.409999999991555
1040
3.670999999996297
1071
        3
1005
1F5F1
1005
1F5F3
1005
1F5F2
1070
     0
1070
     1
1040
0.0
1040
0.15
1070
     0
1070
     2
1040
0.7853981633974483
1040
49.29960901727088
1040
-10.17736998311392
1040
-0.3367596045400932
1040
0.3367596045400932
1070
     0
1040
2.356194490192345
1040
49.29960901727088
1040
-10.17736998311392
1040
-0.3367596045400932
1040
-0.3367596045400932
1070
     0
1040
0.0110235143455945
1071
        2
1040
3.614004224891801
1040
2.996669441146025
1040
0.0
1040
3.614004224891801
1040
2.996669441146025
1040
0.0
1002
}
  0
INSERT
  5
1F617
  8
0
  2
*X83
 10
0.0
 20
0.0
 30
0.0
1001
ACAD
1000
HATCH
1002
{
1070
    19
1000
ANSI37
1040
0.15
1040
0.0
1000
ASC_BOUNDS
1070
     1
1070
     2
1070
    10
1005
1F5D7
1005
1F5D8
1005
1F5F9
1005
1F5F7
1005
1F5F8
1005
1F5EB
1005
1F5F0
1005
1F5F4
1005
1F5DA
1005
1F5D9
1000
ASC_SEEDPOINT
1011
14.73245321214324
1021
2.798246178283421
1031
0.0
1021
2.798246178283421
1031
0.0
1000
R14_HATCH_DATA
1000
1F617
1011
1.0
1021
0.0
1031
0.0
1021
0.0
1031
0.0
1011
0.0
1021
1.0
1031
0.0
1021
1.0
1031
0.0
1011
0.0
1021
0.0
1031
1.0
1021
0.0
1031
1.0
1040
0.0
1010
0.0
1020
0.0
1030
1.0
1000
ANSI37
1070
     0
1070
     1
1071
        1
1071
        7
1070
     0
1070
     1
1071
       10
1040
16.46099999998353
1040
5.432899999994561
1040
18.59199999998134
1040
-0.2368999999997641
1040
22.38199999997767
1040
8.763099999991255
1040
20.89099999997916
1040
8.763099999991255
1040
18.59799999998143
1040
3.315799999996671
1040
16.46099999998353
1040
8.999899999990987
1040
14.32399999998563
1040
3.315799999996671
1040
12.02999999998792
1040
8.763099999991255
1040
10.53899999998941
1040
8.763099999991255
1040
14.32899999998563
1040
-0.2368999999997641
1071
       10
1005
1F5D7
1005
1F5D8
1005
1F5F9
1005
1F5F7
1005
1F5F8
1005
1F5EB
1005
1F5F0
1005
1F5F4
1005
1F5DA
1005
1F5D9
1070
     0
1070
     1
1040
0.0
1040
0.15
1070
     0
1070
     2
1040
0.7853981633974483
1040
49.29960901727088
1040
-10.17736998311392
1040
-0.3367596045400932
1040
0.3367596045400932
1070
     0
1040
2.356194490192345
1040
49.29960901727088
1040
-10.17736998311392
1040
-0.3367596045400932
1040
-0.3367596045400932
1070
     0
1040
0.0110235143455945
1071
        1
1040
14.73245321214324
1040
2.798246178283421
1040
0.0
1002
}
  0
INSERT
  5
1F618
  8
0
  2
*X84
 10
0.0
 20
0.0
 30
0.0
1001
ACAD
1000
HATCH
1002
{
1070
    19
1000
ANSI37
1040
0.15
1040
0.0
1000
ASC_BOUNDS
1070
     2
1070
     2
1070
    13
1005
1F5DB
1005
1F5E8
1005
1F5E9
1005
1F5E7
1005
1F5EA
1005
1F611
1005
1F615
1005
1F610
1005
1F60F
1005
1F612
1005
1F614
1005
1F613
1005
1F5DC
1070
     2
1070
     3
1005
1F5F5
1005
1F5FA
1005
1F5F6
1000
ASC_SEEDPOINT
1011
21.97929957367762
1021
3.294304244259308
1031
0.0
1021
3.294304244259308
1031
0.0
1000
R14_HATCH_DATA
1000
1F618
1011
1.0
1021
0.0
1031
0.0
1021
0.0
1031
0.0
1011
0.0
1021
1.0
1031
0.0
1021
1.0
1031
0.0
1011
0.0
1021
0.0
1031
1.0
1021
0.0
1031
1.0
1040
0.0
1010
0.0
1020
0.0
1030
1.0
1000
ANSI37
1070
     0
1070
     1
1071
        2
1071
        7
1070
     1
1070
     1
1071
       15
1040
23.56599999997638
1040
8.999899999990987
1040
0.0
1040
19.53899999998043
1040
-0.0001000000000317
1040
0.0
1040
19.53899999998043
1040
0.0
1040
0.0
1040
21.09599999997886
1040
0.0
1040
0.0
1040
21.09599999997886
1040
-0.0001000000000317
1040
0.0
1040
22.15599999997789
1040
2.368399999997621
1040
0.0
1040
24.97599999997499
1040
2.368399999997621
1040
0.0
1040
26.02015566812236
1040
0.0330999999912365
1040
0.0
1040
28.40199999996923
1040
0.0330999999912365
1040
0.414213562373095
1040
30.74199999996923
1040
2.373099999991211
1040
0.0
1040
30.74199999996927
1040
8.763099999991255
1040
0.0
1040
29.30199999996933
1040
8.763099999991255
1040
0.0
1040
29.30199999996933
1040
2.283099999991236
1040
-0.414213562373095
1040
28.40199999996923
1040
1.383099999991237
1040
0.0
1040
26.97358892824991
1040
1.383099999991202
1040
0.0
1071
       13
1005
1F5DB
1005
1F5E8
1005
1F5E9
1005
1F5E7
1005
1F5EA
1005
1F611
1005
1F615
1005
1F610
1005
1F60F
1005
1F612
1005
1F614
1005
1F613
1005
1F5DC
1071
       22
1070
     0
1070
     1
1071
        3
1040
22.7389999999773
1040
3.670999999996297
1040
23.56599999997638
1040
5.5200999999945
1040
24.39299999997559
1040
3.670999999996297
1071
        3
1005
1F5F5
1005
1F5FA
1005
1F5F6
1070
     0
1070
     1
1040
0.0
1040
0.15
1070
     0
1070
     2
1040
0.7853981633974483
1040
49.29960901727088
1040
-10.17736998311392
1040
-0.3367596045400932
1040
0.3367596045400932
1070
     0
1040
2.356194490192345
1040
49.29960901727088
1040
-10.17736998311392
1040
-0.3367596045400932
1040
-0.3367596045400932
1070
     0
1040
0.0110235143455945
1071
        2
1040
21.97929957367762
1040
3.294304244259308
1040
0.0
1040
21.97929957367762
1040
3.294304244259308
1040
0.0
1002
}
  0
INSERT
  5
1F619
  8
0
  2
*X85
 10
0.0
 20
0.0
 30
0.0
1001
ACAD
1000
HATCH
1002
{
1070
    19
1000
ANSI37
1040
0.15
1040
0.0
1000
R14_HATCH_DATA
1000
1F619
1011
1.0
1021
0.0
1031
0.0
1021
0.0
1031
0.0
1011
0.0
1021
1.0
1031
0.0
1021
1.0
1031
0.0
1011
0.0
1021
0.0
1031
1.0
1021
0.0
1031
1.0
1040
0.0
1010
0.0
1020
0.0
1030
1.0
1000
ANSI37
1070
     0
1070
     1
1071
        1
1071
        7
1070
     1
1070
     1
1071
       12
1040
31.64199999996833
1040
2.481619422925121
1040
0.2679491924310942
1040
32.94699999997067
1040
0.2212931190493919
1040
0.2679491924301353
1040
36.36699999995983
1040
0.2212931190459813
1040
0.2679491924321411
1040
37.67199999996831
1040
2.481619422928361
1040
0.0
1040
37.67199999996831
1040
8.763099999991255
1040
0.0
1040
36.23199999996837
1040
8.763099999991255
1040
0.0
1040
36.23199999996837
1040
2.481619422925064
1040
-0.2679491924310291
1040
35.64699999996708
1040
1.468369700498386
1040
-0.267949192430519
1040
33.66699999997093
1040
1.468369700497703
1040
-0.267949192431809
1040
33.08199999996839
1040
2.481619422926997
1040
0.0
1040
33.08199999996839
1040
8.763099999991255
1040
0.0
1040
31.64199999996833
1040
8.763099999991255
1040
0.0
1071
        0
1070
     0
1070
     1
1040
0.0
1040
0.15
1070
     0
1070
     2
1040
0.7853981633974483
1040
49.29960901727088
1040
-10.17736998311392
1040
-0.3367596045400932
1040
0.3367596045400932
1070
     0
1040
2.356194490192345
1040
49.29960901727088
1040
-10.17736998311392
1040
-0.3367596045400932
1040
-0.3367596045400932
1070
     0
1040
0.0110235143455945
1071
        1
1040
32.30357378967278
1040
3.988785755459219
1040
0.0
1002
}
  0
INSERT
  5
1F61A
  8
0
  2
*X86
 10
0.0
 20
0.0
 30
0.0
1001
ACAD
1000
HATCH
1002
{
1070
    19
1000
ANSI37
1040
0.15
1040
0.0
1000
ASC_BOUNDS
1070
     1
1070
     2
1070
     8
1005
1F5FB
1005
1F5FE
1005
1F602
1005
1F601
1005
1F600
1005
1F5FD
1005
1F5FF
1005
1F5FC
1000
ASC_SEEDPOINT
1011
39.74896370716704
1021
4.484843821435049
1031
0.0
1021
4.484843821435049
1031
0.0
1000
R14_HATCH_DATA
1000
1F61A
1011
1.0
1021
0.0
1031
0.0
1021
0.0
1031
0.0
1011
0.0
1021
1.0
1031
0.0
1021
1.0
1031
0.0
1011
0.0
1021
0.0
1031
1.0
1021
0.0
1031
1.0
1040
0.0
1010
0.0
1020
0.0
1030
1.0
1000
ANSI37
1070
     0
1070
     1
1071
        1
1071
        7
1070
     0
1070
     1
1071
        9
1040
40.02599999995994
1040
5.341799999994635
1040
44.99999999995498
1040
-0.2368999999997641
1040
44.99999999995498
1040
8.763099999991255
1040
43.57899999995641
1040
8.763099999991255
1040
43.57899999995641
1040
3.421199999996588
1040
38.60499999996136
1040
8.999899999990987
1040
38.60499999996136
1040
8.999999999991019
1040
38.60499999996136
1040
0.0
1040
40.02599999995994
1040
0.0
1071
        8
1005
1F5FB
1005
1F5FE
1005
1F602
1005
1F601
1005
1F600
1005
1F5FD
1005
1F5FF
1005
1F5FC
1070
     0
1070
     1
1040
0.0
1040
0.15
1070
     0
1070
     2
1040
0.7853981633974483
1040
49.29960901727088
1040
-10.17736998311392
1040
-0.3367596045400932
1040
0.3367596045400932
1070
     0
1040
2.356194490192345
1040
49.29960901727088
1040
-10.17736998311392
1040
-0.3367596045400932
1040
-0.3367596045400932
1070
     0
1040
0.0110235143455945
1071
        1
1040
39.74896370716704
1040
4.484843821435049
1040
0.0
1002
}
  0
INSERT
  5
1F61B
  8
0
  2
*X87
 10
0.0
 20
0.0
 30
0.0
1001
ACAD
1000
HATCH
1002
{
1070
    19
1000
ANSI37
1040
0.15
1040
0.0
1000
ASC_BOUNDS
1070
     1
1070
     2
1070
     4
1005
1F5DF
1005
1F5EE
1005
1F5E0
1005
1F5E2
1000
ASC_SEEDPOINT
1011
1.079051535452663
1021
4.148538732891836
1031
0.0
1021
4.148538732891836
1031
0.0
1000
R14_HATCH_DATA
1000
1F61B
1011
1.0
1021
0.0
1031
0.0
1021
0.0
1031
0.0
1011
0.0
1021
1.0
1031
0.0
1021
1.0
1031
0.0
1011
0.0
1021
0.0
1031
1.0
1021
0.0
1031
1.0
1040
0.0
1010
0.0
1020
0.0
1030
1.0
1000
ANSI37
1070
     0
1070
     1
1071
        1
1071
        7
1070
     0
1070
     1
1071
        4
1040
1.420999999998571
1040
0.0
1040
1.420999999998571
1040
8.763099999991255
1040
0.0
1040
8.763099999991255
1040
0.0
1040
0.0
1071
        4
1005
1F5DF
1005
1F5EE
1005
1F5E0
1005
1F5E2
1070
     0
1070
     1
1040
0.0
1040
0.15
1070
     0
1070
     2
1040
0.7853981633974483
1040
49.29960901727088
1040
-10.17736998311392
1040
-0.3367596045400932
1040
0.3367596045400932
1070
     0
1040
2.356194490192345
1040
49.29960901727088
1040
-10.17736998311392
1040
-0.3367596045400932
1040
-0.3367596045400932
1070
     0
1040
0.0053004257112761
1071
        1
1040
1.079051535452663
1040
4.148538732891836
1040
0.0
1002
}
  0
ENDBLK
  5
1FCE0
  8
0
  0
BLOCK
  8
0
  2
*X82
 70
     1
 10
0.0
 20
0.0
 30
0.0
  3
*X82
  1

  0
LINE
  5
207D1
  8
0
  6
CONTINUOUS
 10
3.418023043697893
 20
7.251849696850613
 30
0.0
 11
4.929273346838536
 21
8.763099999991255
 31
0.0
  0
LINE
  5
207D2
  8
0
  6
CONTINUOUS
 10
1.483656411257782
 20
4.643963855330318
 30
0.0
 11
5.60279255591872
 21
8.763099999991255
 31
0.0
  0
LINE
  5
207D3
  8
0
  6
CONTINUOUS
 10
1.755053947328235
 20
4.241842182320584
 30
0.0
 11
6.276311764998907
 21
8.763099999991255
 31
0.0
  0
LINE
  5
207D4
  8
0
  6
CONTINUOUS
 10
2.026451483398688
 20
3.839720509310849
 30
0.0
 11
4.441040904851878
 21
6.254309930764039
 31
0.0
  0
LINE
  5
207D5
  8
0
  6
CONTINUOUS
 10
2.297849019469139
 20
3.437598836301114
 30
0.0
 11
3.321765168359338
 21
4.461514985191313
 31
0.0
  0
LINE
  5
207D6
  8
0
  6
CONTINUOUS
 10
2.569246555539591
 20
3.03547716329138
 30
0.0
 11
3.593163397972743
 21
4.059394005724531
 31
0.0
  0
LINE
  5
207D7
  8
0
  6
CONTINUOUS
 10
2.840644091610043
 20
2.633355490281646
 30
0.0
 11
3.864561627586149
 21
3.657273026257751
 31
0.0
  0
LINE
  5
207D8
  8
0
  6
CONTINUOUS
 10
3.112041627680496
 20
2.231233817271911
 30
0.0
 11
4.135959857199554
 21
3.25515204679097
 31
0.0
  0
LINE
  5
207D9
  8
0
  6
CONTINUOUS
 10
3.383439163750948
 20
1.829112144262177
 30
0.0
 11
4.40735808681296
 21
2.853031067324189
 31
0.0
  0
LINE
  5
207DA
  8
0
  6
CONTINUOUS
 10
3.654836699821399
 20
1.426990471252442
 30
0.0
 11
4.678756316426365
 21
2.450910087857407
 31
0.0
  0
LINE
  5
207DB
  8
0
  6
CONTINUOUS
 10
3.926234235891853
 20
1.024868798242709
 30
0.0
 11
4.95015454603977
 21
2.048789108390626
 31
0.0
  0
LINE
  5
207DC
  8
0
  6
CONTINUOUS
 10
4.197631771962304
 20
0.6227471252329737
 30
0.0
 11
5.221552775653176
 21
1.646668128923846
 31
0.0
  0
LINE
  5
207DD
  8
0
  6
CONTINUOUS
 10
8.715877546767851
 20
7.835069736359266
 30
0.0
 11
9.435953450375058
 21
8.555145639966472
 31
0.0
  0
LINE
  5
207DE
  8
0
  6
CONTINUOUS
 10
8.170620868422267
 20
6.616293848933497
 30
0.0
 11
9.644120833743461
 21
8.08979381425469
 31
0.0
  0
LINE
  5
207DF
  8
0
  6
CONTINUOUS
 10
7.625364190076684
 20
5.397517961507727
 30
0.0
 11
9.852288217111864
 21
7.624441988542907
 31
0.0
  0
LINE
  5
207E0
  8
0
  6
CONTINUOUS
 10
7.080107511731101
 20
4.178742074081957
 30
0.0
 11
10.06045560048027
 21
7.159090162831124
 31
0.0
  0
LINE
  5
207E1
  8
0
  6
CONTINUOUS
 10
6.534850833385518
 20
2.959966186656187
 30
0.0
 11
10.26862298384867
 21
6.693738337119342
 31
0.0
  0
LINE
  5
207E2
  8
0
  6
CONTINUOUS
 10
4.469029308032756
 20
0.2206254522232385
 30
0.0
 11
5.492951005266582
 21
1.244547149457064
 31
0.0
  0
LINE
  5
207E3
  8
0
  6
CONTINUOUS
 10
5.989594155039935
 20
1.741190299230417
 30
0.0
 11
8.806950407233131
 21
4.558546551423613
 31
0.0
  0
LINE
  5
207E4
  8
0
  6
CONTINUOUS
 10
9.401251593263643
 20
5.152847737454126
 30
0.0
 11
10.47679036721708
 21
6.228386511407559
 31
0.0
  0
LINE
  5
207E5
  8
0
  6
CONTINUOUS
 10
4.921837203428691
 20
-0.0000858614610131
 30
0.0
 11
8.592923064886001
 21
3.670999999996297
 31
0.0
  0
LINE
  5
207E6
  8
0
  6
CONTINUOUS
 10
9.609390446785305
 20
4.6874673818956
 30
0.0
 11
10.68495775058548
 21
5.763034685695775
 31
0.0
  0
LINE
  5
207E7
  8
0
  6
CONTINUOUS
 10
5.595387755019432
 20
-0.0000545189504582
 30
0.0
 11
7.716137258923768
 21
2.120694984953879
 31
0.0
  0
LINE
  5
207E8
  8
0
  6
CONTINUOUS
 10
6.268938306610172
 20
-0.000023176439905
 30
0.0
 11
7.170485805526503
 21
0.9015243224764267
 31
0.0
  0
LINE
  5
207E9
  8
0
  6
CONTINUOUS
 10
7.963842273967511
 20
2.368399999997621
 30
0.0
 11
9.266442273966188
 21
3.670999999996297
 31
0.0
  0
LINE
  5
207EA
  8
0
  6
CONTINUOUS
 10
8.637361483047696
 20
2.368399999997621
 30
0.0
 11
9.939961483046375
 21
3.670999999996297
 31
0.0
  0
LINE
  5
207EB
  8
0
  6
CONTINUOUS
 10
9.817529300306965
 20
4.222087026337075
 30
0.0
 11
10.89312513395388
 21
5.297682859983993
 31
0.0
  0
LINE
  5
207EC
  8
0
  6
CONTINUOUS
 10
10.02566815382863
 20
3.756706670778549
 30
0.0
 11
11.10129251732229
 21
4.832331034272211
 31
0.0
  0
LINE
  5
207ED
  8
0
  6
CONTINUOUS
 10
9.310880692127883
 20
2.368399999997621
 30
0.0
 11
11.30945990069069
 21
4.366979208560428
 31
0.0
  0
LINE
  5
207EE
  8
0
  6
CONTINUOUS
 10
9.98439990120807
 20
2.36839999999762
 30
0.0
 11
11.5176272840591
 21
3.901627382848645
 31
0.0
  0
LINE
  5
207EF
  8
0
  6
CONTINUOUS
 10
10.65037369446246
 20
2.36085458417182
 30
0.0
 11
11.7257946674275
 21
3.436275557136862
 31
0.0
  0
LINE
  5
207F0
  8
0
  6
CONTINUOUS
 10
10.85847197087848
 20
1.895433651507656
 30
0.0
 11
11.9339620507959
 21
2.97092373142508
 31
0.0
  0
LINE
  5
207F1
  8
0
  6
CONTINUOUS
 10
11.0665702472945
 20
1.430012718843491
 30
0.0
 11
12.14212943416431
 21
2.505571905713296
 31
0.0
  0
LINE
  5
207F2
  8
0
  6
CONTINUOUS
 10
11.27466852371052
 20
0.9645917861793256
 30
0.0
 11
12.35029681753271
 21
2.040220080001513
 31
0.0
  0
LINE
  5
207F3
  8
0
  6
CONTINUOUS
 10
11.48276680012654
 20
0.4991708535151611
 30
0.0
 11
12.55846420090111
 21
1.57486825428973
 31
0.0
  0
LINE
  5
207F4
  8
0
  6
CONTINUOUS
 10
11.69086507654257
 20
0.0337499208509957
 30
0.0
 11
12.76663158426952
 21
1.109516428577947
 31
0.0
  0
LINE
  5
207F5
  8
0
  6
CONTINUOUS
 10
12.33057447873954
 20
-0.0000598860322123
 30
0.0
 11
12.97479896763792
 21
0.6441646028661663
 31
0.0
  0
LINE
  5
207F6
  8
0
  6
CONTINUOUS
 10
13.00413694809395
 20
-0.0000166257579952
 30
0.0
 11
13.18296635100632
 21
0.1788127771543824
 31
0.0
  0
LINE
  5
207F7
  8
0
  6
CONTINUOUS
 10
4.772852165289667
 20
-0.000092794222212
 30
0.0
 11
4.296495091028902
 21
0.4762642800385528
 31
0.0
  0
LINE
  5
207F8
  8
0
  6
CONTINUOUS
 10
5.446340034776103
 20
-0.0000614546284616
 30
0.0
 11
2.898195908335625
 21
2.548082671812017
 31
0.0
  0
LINE
  5
207F9
  8
0
  6
CONTINUOUS
 10
6.119827904262539
 20
-0.0000301150347113
 30
0.0
 11
1.499896725642348
 21
4.61990106358548
 31
0.0
  0
LINE
  5
207FA
  8
0
  6
CONTINUOUS
 10
6.775136745476159
 20
0.0181802528318542
 30
0.0
 11
5.699826040202669
 21
1.093490958105344
 31
0.0
  0
LINE
  5
207FB
  8
0
  6
CONTINUOUS
 10
6.983376846288489
 20
0.4834593610997118
 30
0.0
 11
5.908008617934405
 21
1.558827589453796
 31
0.0
  0
LINE
  5
207FC
  8
0
  6
CONTINUOUS
 10
5.377063484962296
 20
1.416253513345719
 30
0.0
 11
1.702276957014131
 21
5.091040041293883
 31
0.0
  0
LINE
  5
207FD
  8
0
  6
CONTINUOUS
 10
3.978745891735324
 20
3.488090315652877
 30
0.0
 11
2.000373521109399
 21
5.466462686278803
 31
0.0
  0
LINE
  5
207FE
  8
0
  6
CONTINUOUS
 10
7.191616947100819
 20
0.948738469367568
 30
0.0
 11
6.11619119566614
 21
2.024164220802247
 31
0.0
  0
LINE
  5
207FF
  8
0
  6
CONTINUOUS
 10
7.399857047913149
 20
1.414017577635424
 30
0.0
 11
6.324373773397875
 21
2.489500852150698
 31
0.0
  0
LINE
  5
20800
  8
0
  6
CONTINUOUS
 10
7.608097148725479
 20
1.879296685903281
 30
0.0
 11
6.53255635112961
 21
2.95483748349915
 31
0.0
  0
LINE
  5
20801
  8
0
  6
CONTINUOUS
 10
7.816337249537808
 20
2.344575794171138
 30
0.0
 11
6.740738928861345
 21
3.420174114847601
 31
0.0
  0
LINE
  5
20802
  8
0
  6
CONTINUOUS
 10
3.310241080789734
 20
4.830114335678653
 30
0.0
 11
2.298470085204666
 21
5.84188533126372
 31
0.0
  0
LINE
  5
20803
  8
0
  6
CONTINUOUS
 10
3.60832983563551
 20
5.205544789913063
 30
0.0
 11
2.596566649299935
 21
6.217307976248638
 31
0.0
  0
LINE
  5
20804
  8
0
  6
CONTINUOUS
 10
3.906418590481286
 20
5.580975244147473
 30
0.0
 11
2.894663213395203
 21
6.592730621233557
 31
0.0
  0
LINE
  5
20805
  8
0
  6
CONTINUOUS
 10
4.204507345327062
 20
5.956405698381884
 30
0.0
 11
3.192759777490472
 21
6.968153266218474
 31
0.0
  0
LINE
  5
20806
  8
0
  6
CONTINUOUS
 10
8.466032252791512
 20
2.368399999997621
 30
0.0
 11
6.948921506593081
 21
3.885510746196053
 31
0.0
  0
LINE
  5
20807
  8
0
  6
CONTINUOUS
 10
9.139551461871699
 20
2.36839999999762
 30
0.0
 11
7.157104084324816
 21
4.350847377544504
 31
0.0
  0
LINE
  5
20808
  8
0
  6
CONTINUOUS
 10
4.502596100172839
 20
6.331836152616295
 30
0.0
 11
3.49085634158574
 21
7.343575911203393
 31
0.0
  0
LINE
  5
20809
  8
0
  6
CONTINUOUS
 10
4.800684855018615
 20
6.707266606850705
 30
0.0
 11
3.788952905681008
 21
7.718998556188312
 31
0.0
  0
LINE
  5
2080A
  8
0
  6
CONTINUOUS
 10
12.18154012887317
 20
-0.0000694579236642
 30
0.0
 11
11.32140332908496
 21
0.8600673418645499
 31
0.0
  0
LINE
  5
2080B
  8
0
  6
CONTINUOUS
 10
12.85501608323566
 20
-0.0000262032059659
 30
0.0
 11
10.77672456435345
 21
2.078265315676246
 31
0.0
  0
LINE
  5
2080C
  8
0
  6
CONTINUOUS
 10
9.813070670951886
 20
2.36839999999762
 30
0.0
 11
8.51047067095321
 21
3.670999999996297
 31
0.0
  0
LINE
  5
2080D
  8
0
  6
CONTINUOUS
 10
10.48658988003207
 20
2.36839999999762
 30
0.0
 11
9.183989880033396
 21
3.670999999996297
 31
0.0
  0
LINE
  5
2080E
  8
0
  6
CONTINUOUS
 10
8.441048632286794
 20
3.740422038662712
 30
0.0
 11
7.365286662056551
 21
4.816184008892956
 31
0.0
  0
LINE
  5
2080F
  8
0
  6
CONTINUOUS
 10
8.649187485808454
 20
4.205802394221237
 30
0.0
 11
7.573469239788285
 21
5.281520640241407
 31
0.0
  0
LINE
  5
20810
  8
0
  6
CONTINUOUS
 10
5.098773609864391
 20
7.082697061085115
 30
0.0
 11
4.087049469776277
 21
8.09442120117323
 31
0.0
  0
LINE
  5
20811
  8
0
  6
CONTINUOUS
 10
5.396862364710167
 20
7.458127515319526
 30
0.0
 11
4.385146033871544
 21
8.469843846158149
 31
0.0
  0
LINE
  5
20812
  8
0
  6
CONTINUOUS
 10
13.04801363231285
 20
0.4804954567970334
 30
0.0
 11
9.85750908911358
 21
3.670999999996297
 31
0.0
  0
LINE
  5
20813
  8
0
  6
CONTINUOUS
 10
8.857326339330116
 20
4.671182749779763
 30
0.0
 11
7.781651817520021
 21
5.746857271589858
 31
0.0
  0
LINE
  5
20814
  8
0
  6
CONTINUOUS
 10
5.694951119555943
 20
7.833557969553937
 30
0.0
 11
4.765409089118624
 21
8.763099999991255
 31
0.0
  0
LINE
  5
20815
  8
0
  6
CONTINUOUS
 10
12.50286117236978
 20
1.699167125820288
 30
0.0
 11
9.68611877250287
 21
4.515909525687196
 31
0.0
  0
LINE
  5
20816
  8
0
  6
CONTINUOUS
 10
9.065465192851777
 20
5.136563105338288
 30
0.0
 11
7.989834395251757
 21
6.21219390293831
 31
0.0
  0
LINE
  5
20817
  8
0
  6
CONTINUOUS
 10
5.993039874401719
 20
8.208988423788346
 30
0.0
 11
5.43892829819881
 21
8.763099999991255
 31
0.0
  0
LINE
  5
20818
  8
0
  6
CONTINUOUS
 10
11.95770871242671
 20
2.917838794843543
 30
0.0
 11
8.19801697298349
 21
6.677530534286761
 31
0.0
  0
LINE
  5
20819
  8
0
  6
CONTINUOUS
 10
6.291128629247495
 20
8.584418878022756
 30
0.0
 11
6.112447507278997
 21
8.763099999991255
 31
0.0
  0
LINE
  5
2081A
  8
0
  6
CONTINUOUS
 10
11.41255625248364
 20
4.136510463866797
 30
0.0
 11
8.406199550715227
 21
7.142867165635211
 31
0.0
  0
LINE
  5
2081B
  8
0
  6
CONTINUOUS
 10
10.86740379254057
 20
5.355182132890051
 30
0.0
 11
8.614382128446962
 21
7.608203796983664
 31
0.0
  0
LINE
  5
2081C
  8
0
  6
CONTINUOUS
 10
10.3222513325975
 20
6.573853801913305
 30
0.0
 11
8.822564706178696
 21
8.073540428332114
 31
0.0
  0
LINE
  5
2081D
  8
0
  6
CONTINUOUS
 10
9.777098872654436
 20
7.792525470936562
 30
0.0
 11
9.030747283910433
 21
8.538877059680566
 31
0.0
  0
ENDBLK
  5
2095F
  8
0
  0
BLOCK
  8
0
  2
*X83
 70
     1
 10
0.0
 20
0.0
 30
0.0
  3
*X83
  1

  0
LINE
  5
2081F
  8
0
  6
CONTINUOUS
 10
10.67292308101235
 20
8.445076852443387
 30
0.0
 11
10.99094622856022
 21
8.763099999991255
 31
0.0
  0
LINE
  5
20820
  8
0
  6
CONTINUOUS
 10
10.87250383178748
 20
7.971138394138331
 30
0.0
 11
11.6644654376404
 21
8.763099999991255
 31
0.0
  0
LINE
  5
20821
  8
0
  6
CONTINUOUS
 10
11.07208458256261
 20
7.497199935833273
 30
0.0
 11
12.12126590876355
 21
8.546381262034211
 31
0.0
  0
LINE
  5
20822
  8
0
  6
CONTINUOUS
 10
11.27166533333774
 20
7.023261477528216
 30
0.0
 11
12.32085164573666
 21
8.072447789927136
 31
0.0
  0
LINE
  5
20823
  8
0
  6
CONTINUOUS
 10
11.47124608411287
 20
6.549323019223158
 30
0.0
 11
12.52043738270977
 21
7.59851431782006
 31
0.0
  0
LINE
  5
20824
  8
0
  6
CONTINUOUS
 10
11.670826834888
 20
6.075384560918101
 30
0.0
 11
12.72002311968288
 21
7.124580845712984
 31
0.0
  0
LINE
  5
20825
  8
0
  6
CONTINUOUS
 10
11.87040758566313
 20
5.601446102613043
 30
0.0
 11
12.91960885665599
 21
6.650647373605907
 31
0.0
  0
LINE
  5
20826
  8
0
  6
CONTINUOUS
 10
12.06998833643825
 20
5.127507644307986
 30
0.0
 11
13.1191945936291
 21
6.176713901498832
 31
0.0
  0
LINE
  5
20827
  8
0
  6
CONTINUOUS
 10
12.26956908721338
 20
4.65356918600293
 30
0.0
 11
13.31878033060221
 21
5.702780429391757
 31
0.0
  0
LINE
  5
20828
  8
0
  6
CONTINUOUS
 10
12.46914983798851
 20
4.179630727697873
 30
0.0
 11
13.51836606757532
 21
5.228846957284683
 31
0.0
  0
LINE
  5
20829
  8
0
  6
CONTINUOUS
 10
12.66873058876364
 20
3.705692269392816
 30
0.0
 11
13.71795180454843
 21
4.754913485177607
 31
0.0
  0
LINE
  5
2082A
  8
0
  6
CONTINUOUS
 10
12.86831133953877
 20
3.231753811087759
 30
0.0
 11
13.91753754152154
 21
4.280980013070531
 31
0.0
  0
LINE
  5
2082B
  8
0
  6
CONTINUOUS
 10
13.0678920903139
 20
2.757815352782702
 30
0.0
 11
14.11712327849465
 21
3.807046540963456
 31
0.0
  0
LINE
  5
2082C
  8
0
  6
CONTINUOUS
 10
13.26747284108903
 20
2.283876894477644
 30
0.0
 11
14.31670901546777
 21
3.333113068856379
 31
0.0
  0
LINE
  5
2082D
  8
0
  6
CONTINUOUS
 10
16.36767838827179
 20
8.751678487061342
 30
0.0
 11
16.50332410898388
 21
8.887324207773432
 31
0.0
  0
LINE
  5
2082E
  8
0
  6
CONTINUOUS
 10
15.96190732182191
 20
7.67238821153127
 30
0.0
 11
16.68735328004734
 21
8.397834169756699
 31
0.0
  0
LINE
  5
2082F
  8
0
  6
CONTINUOUS
 10
15.55613625537202
 20
6.593097936001196
 30
0.0
 11
16.87138245111079
 21
7.908344131739965
 31
0.0
  0
LINE
  5
20830
  8
0
  6
CONTINUOUS
 10
15.15036518892213
 20
5.513807660471122
 30
0.0
 11
17.05541162217424
 21
7.418854093723231
 31
0.0
  0
LINE
  5
20831
  8
0
  6
CONTINUOUS
 10
14.74459412247225
 20
4.434517384941048
 30
0.0
 11
17.2394407932377
 21
6.929364055706499
 31
0.0
  0
LINE
  5
20832
  8
0
  6
CONTINUOUS
 10
14.33882305602236
 20
3.355227109410975
 30
0.0
 11
17.42346996430115
 21
6.439874017689766
 31
0.0
  0
LINE
  5
20833
  8
0
  6
CONTINUOUS
 10
13.46705359186416
 20
1.809938436172586
 30
0.0
 11
16.0819338255367
 21
4.424818669845129
 31
0.0
  0
LINE
  5
20834
  8
0
  6
CONTINUOUS
 10
16.63283254238972
 20
4.975717386698149
 30
0.0
 11
17.60749913536461
 21
5.950383979673033
 31
0.0
  0
LINE
  5
20835
  8
0
  6
CONTINUOUS
 10
13.66663434263929
 20
1.335999977867529
 30
0.0
 11
15.67604797733754
 21
3.345413612565779
 31
0.0
  0
LINE
  5
20836
  8
0
  6
CONTINUOUS
 10
13.86621509341442
 20
0.8620615195624723
 30
0.0
 11
15.27016212913838
 21
2.26600855528643
 31
0.0
  0
LINE
  5
20837
  8
0
  6
CONTINUOUS
 10
16.81682257348267
 20
4.486188208710908
 30
0.0
 11
17.79152830642806
 21
5.460893941656299
 31
0.0
  0
LINE
  5
20838
  8
0
  6
CONTINUOUS
 10
17.00081260457561
 20
3.996659030723667
 30
0.0
 11
17.97555747749151
 21
4.971403903639565
 31
0.0
  0
LINE
  5
20839
  8
0
  6
CONTINUOUS
 10
20.74362343514722
 20
8.412989070375462
 30
0.0
 11
21.09373436476302
 21
8.763099999991256
 31
0.0
  0
LINE
  5
2083A
  8
0
  6
CONTINUOUS
 10
20.25401257174777
 20
7.249858997895826
 30
0.0
 11
21.7672535738432
 21
8.763099999991255
 31
0.0
  0
LINE
  5
2083B
  8
0
  6
CONTINUOUS
 10
14.06579584418955
 20
0.3881230612574149
 30
0.0
 11
14.86427628093921
 21
1.186603498007082
 31
0.0
  0
LINE
  5
2083C
  8
0
  6
CONTINUOUS
 10
14.26537659496467
 20
-0.0858153970476412
 30
0.0
 11
14.45839043274005
 21
0.1071984407277329
 31
0.0
  0
LINE
  5
2083D
  8
0
  6
CONTINUOUS
 10
17.18480263566856
 20
3.507129852736426
 30
0.0
 11
18.15958664855496
 21
4.481913865622833
 31
0.0
  0
LINE
  5
2083E
  8
0
  6
CONTINUOUS
 10
17.3687926667615
 20
3.017600674749186
 30
0.0
 11
18.34361581961842
 21
3.9924238276061
 31
0.0
  0
LINE
  5
2083F
  8
0
  6
CONTINUOUS
 10
19.76440170834832
 20
6.086728925416191
 30
0.0
 11
22.33924590259489
 21
8.661573119662755
 31
0.0
  0
LINE
  5
20840
  8
0
  6
CONTINUOUS
 10
19.27479084494887
 20
4.923598852936555
 30
0.0
 11
21.84929622842713
 21
7.498104236414807
 31
0.0
  0
LINE
  5
20841
  8
0
  6
CONTINUOUS
 10
17.55278269785445
 20
2.528071496761945
 30
0.0
 11
18.52764499068187
 21
3.502933789589366
 31
0.0
  0
LINE
  5
20842
  8
0
  6
CONTINUOUS
 10
18.78517998154942
 20
3.760468780456919
 30
0.0
 11
21.35934655425936
 21
6.33463535316686
 31
0.0
  0
LINE
  5
20843
  8
0
  6
CONTINUOUS
 10
17.73677272894739
 20
2.038542318774704
 30
0.0
 11
20.8693968800916
 21
5.171166469918914
 31
0.0
  0
LINE
  5
20844
  8
0
  6
CONTINUOUS
 10
17.92076276004034
 20
1.549013140787464
 30
0.0
 11
20.37944720592384
 21
4.007697586670968
 31
0.0
  0
LINE
  5
20845
  8
0
  6
CONTINUOUS
 10
18.10475279113329
 20
1.059483962800223
 30
0.0
 11
19.88949753175608
 21
2.84422870342302
 31
0.0
  0
LINE
  5
20846
  8
0
  6
CONTINUOUS
 10
18.28874282222623
 20
0.5699547848129822
 30
0.0
 11
19.39954785758832
 21
1.680759820175074
 31
0.0
  0
LINE
  5
20847
  8
0
  6
CONTINUOUS
 10
18.47273285331918
 20
0.0804256068257416
 30
0.0
 11
18.90959818342056
 21
0.517290936927127
 31
0.0
  0
LINE
  5
20848
  8
0
  6
CONTINUOUS
 10
14.3590401358224
 20
-0.1570118376323384
 30
0.0
 11
14.24903296539946
 21
-0.0470046672093929
 31
0.0
  0
LINE
  5
20849
  8
0
  6
CONTINUOUS
 10
14.54309291258661
 20
0.332454594683643
 30
0.0
 11
13.75908329123172
 21
1.116464216038529
 31
0.0
  0
LINE
  5
2084A
  8
0
  6
CONTINUOUS
 10
14.72714568935081
 20
0.8219210269996244
 30
0.0
 11
13.26913361706399
 21
2.27993309928645
 31
0.0
  0
LINE
  5
2084B
  8
0
  6
CONTINUOUS
 10
14.91119846611502
 20
1.311387459315606
 30
0.0
 11
12.77918394289625
 21
3.443401982534371
 31
0.0
  0
LINE
  5
2084C
  8
0
  6
CONTINUOUS
 10
15.09525124287922
 20
1.800853891631587
 30
0.0
 11
12.28923426872852
 21
4.606870865782293
 31
0.0
  0
LINE
  5
2084D
  8
0
  6
CONTINUOUS
 10
15.27930401964343
 20
2.290320323947569
 30
0.0
 11
11.79928459456078
 21
5.770339749030213
 31
0.0
  0
LINE
  5
2084E
  8
0
  6
CONTINUOUS
 10
15.46335679640763
 20
2.77978675626355
 30
0.0
 11
14.48885470994921
 21
3.754288842721972
 31
0.0
  0
LINE
  5
2084F
  8
0
  6
CONTINUOUS
 10
13.88507249233704
 20
4.358071060334137
 30
0.0
 11
11.30933492039305
 21
6.933808632278135
 31
0.0
  0
LINE
  5
20850
  8
0
  6
CONTINUOUS
 10
18.75840522805855
 20
0.1582575336928151
 30
0.0
 11
18.25383727664818
 21
0.6628254851031863
 31
0.0
  0
LINE
  5
20851
  8
0
  6
CONTINUOUS
 10
15.64740957317184
 20
3.269253188579531
 30
0.0
 11
14.67288388101266
 21
4.243778880738705
 31
0.0
  0
LINE
  5
20852
  8
0
  6
CONTINUOUS
 10
13.39509276772158
 20
5.521569994029786
 30
0.0
 11
10.81938524622531
 21
8.097277515526056
 31
0.0
  0
LINE
  5
20853
  8
0
  6
CONTINUOUS
 10
18.95798597883369
 20
0.6321959919978686
 30
0.0
 11
17.84825644852853
 21
1.741925522303024
 31
0.0
  0
LINE
  5
20854
  8
0
  6
CONTINUOUS
 10
19.15756672960882
 20
1.106134450302922
 30
0.0
 11
17.44267562040888
 21
2.821025559502861
 31
0.0
  0
LINE
  5
20855
  8
0
  6
CONTINUOUS
 10
15.83146234993604
 20
3.758719620895513
 30
0.0
 11
14.85691305207612
 21
4.733268918755439
 31
0.0
  0
LINE
  5
20856
  8
0
  6
CONTINUOUS
 10
16.01551512670025
 20
4.248186053211494
 30
0.0
 11
15.04094222313957
 21
5.222758956772172
 31
0.0
  0
LINE
  5
20857
  8
0
  6
CONTINUOUS
 10
12.90511304310612
 20
6.685068927725435
 30
0.0
 11
10.8270819708403
 21
8.763099999991255
 31
0.0
  0
LINE
  5
20858
  8
0
  6
CONTINUOUS
 10
12.41513331849066
 20
7.848567861421083
 30
0.0
 11
11.50060117992049
 21
8.763099999991255
 31
0.0
  0
LINE
  5
20859
  8
0
  6
CONTINUOUS
 10
19.35714748038395
 20
1.580072908607975
 30
0.0
 11
17.03709479228923
 21
3.900125596702697
 31
0.0
  0
LINE
  5
2085A
  8
0
  6
CONTINUOUS
 10
19.55672823115909
 20
2.054011366913028
 30
0.0
 11
16.63151396416958
 21
4.979225633902534
 31
0.0
  0
LINE
  5
2085B
  8
0
  6
CONTINUOUS
 10
16.19956790346445
 20
4.737652485527476
 30
0.0
 11
15.22497139420302
 21
5.712248994788904
 31
0.0
  0
LINE
  5
2085C
  8
0
  6
CONTINUOUS
 10
16.38362068022866
 20
5.227118917843457
 30
0.0
 11
15.40900056526648
 21
6.201739032805637
 31
0.0
  0
LINE
  5
2085D
  8
0
  6
CONTINUOUS
 10
19.75630898193422
 20
2.527949825218081
 30
0.0
 11
18.70774536448286
 21
3.576513442669441
 31
0.0
  0
LINE
  5
2085E
  8
0
  6
CONTINUOUS
 10
19.95588973270936
 20
3.001888283523134
 30
0.0
 11
18.90726987211446
 21
4.050508144118028
 31
0.0
  0
LINE
  5
2085F
  8
0
  6
CONTINUOUS
 10
20.15547048348449
 20
3.475826741828186
 30
0.0
 11
19.10679437974606
 21
4.524502845566614
 31
0.0
  0
LINE
  5
20860
  8
0
  6
CONTINUOUS
 10
20.35505123425962
 20
3.94976520013324
 30
0.0
 11
19.30631888737766
 21
4.998497547015201
 31
0.0
  0
LINE
  5
20861
  8
0
  6
CONTINUOUS
 10
20.55463198503475
 20
4.423703658438292
 30
0.0
 11
19.50584339500926
 21
5.472492248463787
 31
0.0
  0
LINE
  5
20862
  8
0
  6
CONTINUOUS
 10
18.37481191085755
 20
3.909446896294752
 30
0.0
 11
15.59302973632993
 21
6.691229070822371
 31
0.0
  0
LINE
  5
20863
  8
0
  6
CONTINUOUS
 10
17.96904084440766
 20
4.988737171824825
 30
0.0
 11
15.77705890739338
 21
7.180719108839104
 31
0.0
  0
LINE
  5
20864
  8
0
  6
CONTINUOUS
 10
17.56326977795777
 20
6.068027447354899
 30
0.0
 11
15.96108807845684
 21
7.670209146855838
 31
0.0
  0
LINE
  5
20865
  8
0
  6
CONTINUOUS
 10
17.15749871150789
 20
7.147317722884972
 30
0.0
 11
16.14511724952029
 21
8.15969918487257
 31
0.0
  0
LINE
  5
20866
  8
0
  6
CONTINUOUS
 10
16.751727645058
 20
8.226607998415046
 30
0.0
 11
16.32914642058374
 21
8.649189222889303
 31
0.0
  0
LINE
  5
20867
  8
0
  6
CONTINUOUS
 10
20.75421273580989
 20
4.897642116743345
 30
0.0
 11
19.70536790264086
 21
5.946486949912374
 31
0.0
  0
LINE
  5
20868
  8
0
  6
CONTINUOUS
 10
20.95379348658502
 20
5.371580575048398
 30
0.0
 11
19.90489241027246
 21
6.42048165136096
 31
0.0
  0
LINE
  5
20869
  8
0
  6
CONTINUOUS
 10
21.15337423736015
 20
5.845519033353452
 30
0.0
 11
20.10441691790406
 21
6.894476352809547
 31
0.0
  0
LINE
  5
2086A
  8
0
  6
CONTINUOUS
 10
21.35295498813529
 20
6.319457491658505
 30
0.0
 11
20.30394142553566
 21
7.368471054258134
 31
0.0
  0
LINE
  5
2086B
  8
0
  6
CONTINUOUS
 10
21.55253573891042
 20
6.793395949963558
 30
0.0
 11
20.50346593316726
 21
7.842465755706721
 31
0.0
  0
LINE
  5
2086C
  8
0
  6
CONTINUOUS
 10
21.75211648968556
 20
7.267334408268612
 30
0.0
 11
20.70299044079886
 21
8.316460457155308
 31
0.0
  0
LINE
  5
2086D
  8
0
  6
CONTINUOUS
 10
21.95169724046069
 20
7.741272866573663
 30
0.0
 11
20.9298701070431
 21
8.763099999991256
 31
0.0
  0
LINE
  5
2086E
  8
0
  6
CONTINUOUS
 10
22.15127799123582
 20
8.215211324878716
 30
0.0
 11
21.60338931612328
 21
8.763099999991256
 31
0.0
  0
LINE
  5
2086F
  8
0
  6
CONTINUOUS
 10
22.35085874201096
 20
8.689149783183769
 30
0.0
 11
22.27690852520347
 21
8.763099999991255
 31
0.0
  0
ENDBLK
  5
20961
  8
0
  0
BLOCK
  8
0
  2
*X84
 70
     1
 10
0.0
 20
0.0
 30
0.0
  3
*X84
  1

  0
LINE
  5
20871
  8
0
  6
CONTINUOUS
 10
23.19462913593892
 20
8.169917934846424
 30
0.0
 11
23.70775465517246
 21
8.683043454079957
 31
0.0
  0
LINE
  5
20872
  8
0
  6
CONTINUOUS
 10
22.64923161835078
 20
6.951001208178088
 30
0.0
 11
23.9159364069932
 21
8.217705996820516
 31
0.0
  0
LINE
  5
20873
  8
0
  6
CONTINUOUS
 10
22.10383410076263
 20
5.732084481509751
 30
0.0
 11
24.12411815881395
 21
7.752368539561078
 31
0.0
  0
LINE
  5
20874
  8
0
  6
CONTINUOUS
 10
21.55843658317447
 20
4.513167754841414
 30
0.0
 11
24.3322999106347
 21
7.287031082301639
 31
0.0
  0
LINE
  5
20875
  8
0
  6
CONTINUOUS
 10
21.01303906558632
 20
3.294251028173077
 30
0.0
 11
24.54048166245544
 21
6.821693625042199
 31
0.0
  0
LINE
  5
20876
  8
0
  6
CONTINUOUS
 10
20.46764154799817
 20
2.075334301504738
 30
0.0
 11
23.28571549467848
 21
4.89340824818505
 31
0.0
  0
LINE
  5
20877
  8
0
  6
CONTINUOUS
 10
19.92224403041002
 20
0.8564175748364002
 30
0.0
 11
22.74075865492779
 21
3.674932199354171
 31
0.0
  0
LINE
  5
20878
  8
0
  6
CONTINUOUS
 10
23.67305085490148
 20
5.280743608408048
 30
0.0
 11
24.74866341427619
 21
6.356356167782759
 31
0.0
  0
LINE
  5
20879
  8
0
  6
CONTINUOUS
 10
23.88118970842314
 20
4.815363252849522
 30
0.0
 11
24.95684516609694
 21
5.89101871052332
 31
0.0
  0
LINE
  5
2087A
  8
0
  6
CONTINUOUS
 10
19.73925852647308
 20
-0.0000871381807288
 30
0.0
 11
23.4103456646501
 21
3.670999999996297
 31
0.0
  0
LINE
  5
2087B
  8
0
  6
CONTINUOUS
 10
24.0893285619448
 20
4.349982897290997
 30
0.0
 11
25.16502691791769
 21
5.42568125326388
 31
0.0
  0
LINE
  5
2087C
  8
0
  6
CONTINUOUS
 10
20.41282099582748
 20
-0.0000438779065108
 30
0.0
 11
21.64944178675636
 21
1.236576913022366
 31
0.0
  0
LINE
  5
2087D
  8
0
  6
CONTINUOUS
 10
22.78126487373161
 20
2.36839999999762
 30
0.0
 11
24.08386487373029
 21
3.670999999996297
 31
0.0
  0
LINE
  5
2087E
  8
0
  6
CONTINUOUS
 10
24.29746741546646
 20
3.884602541732471
 30
0.0
 11
25.37320866973843
 21
4.960343796004441
 31
0.0
  0
LINE
  5
2087F
  8
0
  6
CONTINUOUS
 10
21.08638346518189
 20
-0.0000006176322938
 30
0.0
 11
21.10379033335899
 21
0.0174062505448083
 31
0.0
  0
LINE
  5
20880
  8
0
  6
CONTINUOUS
 10
23.4547840828118
 20
2.36839999999762
 30
0.0
 11
25.58139042155918
 21
4.495006338745002
 31
0.0
  0
LINE
  5
20881
  8
0
  6
CONTINUOUS
 10
29.30199999996933
 20
8.215615917155148
 30
0.0
 11
29.84948408280543
 21
8.763099999991255
 31
0.0
  0
LINE
  5
20882
  8
0
  6
CONTINUOUS
 10
24.12830329189199
 20
2.36839999999762
 30
0.0
 11
25.78957217337993
 21
4.029668881485562
 31
0.0
  0
LINE
  5
20883
  8
0
  6
CONTINUOUS
 10
29.30199999996933
 20
7.54209670807496
 30
0.0
 11
30.52300329188562
 21
8.763099999991255
 31
0.0
  0
LINE
  5
20884
  8
0
  6
CONTINUOUS
 10
24.80182250097217
 20
2.36839999999762
 30
0.0
 11
25.99775392520067
 21
3.564331424226122
 31
0.0
  0
LINE
  5
20885
  8
0
  6
CONTINUOUS
 10
29.30199999996933
 20
6.868577498994774
 30
0.0
 11
30.74199999996926
 21
8.308577498994712
 31
0.0
  0
LINE
  5
20886
  8
0
  6
CONTINUOUS
 10
25.13028238392013
 20
2.023340673865392
 30
0.0
 11
26.20593567702142
 21
3.098993966966683
 31
0.0
  0
LINE
  5
20887
  8
0
  6
CONTINUOUS
 10
25.33838066033617
 20
1.557919741201244
 30
0.0
 11
26.41411742884217
 21
2.633656509707244
 31
0.0
  0
LINE
  5
20888
  8
0
  6
CONTINUOUS
 10
25.54647893675221
 20
1.092498808537098
 30
0.0
 11
26.62229918066291
 21
2.168319052447804
 31
0.0
  0
LINE
  5
20889
  8
0
  6
CONTINUOUS
 10
25.75457721316825
 20
0.62707787587295
 30
0.0
 11
26.83048093248366
 21
1.702981595188365
 31
0.0
  0
LINE
  5
2088A
  8
0
  6
CONTINUOUS
 10
29.30199999996933
 20
6.195058289914587
 30
0.0
 11
30.74199999996926
 21
7.635058289914522
 31
0.0
  0
LINE
  5
2088B
  8
0
  6
CONTINUOUS
 10
29.30199999996933
 20
5.521539080834401
 30
0.0
 11
30.74199999996926
 21
6.961539080834331
 31
0.0
  0
LINE
  5
2088C
  8
0
  6
CONTINUOUS
 10
29.30199999996933
 20
4.848019871754214
 30
0.0
 11
30.74199999996925
 21
6.288019871754143
 31
0.0
  0
LINE
  5
2088D
  8
0
  6
CONTINUOUS
 10
29.30199999996933
 20
4.174500662674028
 30
0.0
 11
30.74199999996925
 21
5.614500662673953
 31
0.0
  0
LINE
  5
2088E
  8
0
  6
CONTINUOUS
 10
25.96267548958429
 20
0.1616569432088024
 30
0.0
 11
27.18411854636669
 21
1.383099999991207
 31
0.0
  0
LINE
  5
2088F
  8
0
  6
CONTINUOUS
 10
29.30199999996933
 20
3.500981453593841
 30
0.0
 11
30.74199999996925
 21
4.940981453593762
 31
0.0
  0
LINE
  5
20890
  8
0
  6
CONTINUOUS
 10
26.50763775544691
 20
0.0330999999912356
 30
0.0
 11
27.85763775544689
 21
1.383099999991223
 31
0.0
  0
LINE
  5
20891
  8
0
  6
CONTINUOUS
 10
29.30199999996933
 20
2.827462244513656
 30
0.0
 11
30.74199999996925
 21
4.267462244513574
 31
0.0
  0
LINE
  5
20892
  8
0
  6
CONTINUOUS
 10
27.18115696452709
 20
0.0330999999912356
 30
0.0
 11
28.6224847300034
 21
1.474427765467545
 31
0.0
  0
LINE
  5
20893
  8
0
  6
CONTINUOUS
 10
29.21067223449293
 20
2.062615269957069
 30
0.0
 11
30.74199999996924
 21
3.593943035433383
 31
0.0
  0
LINE
  5
20894
  8
0
  6
CONTINUOUS
 10
27.85467617360728
 20
0.0330999999912356
 30
0.0
 11
30.74199999996924
 21
2.920423826353195
 31
0.0
  0
LINE
  5
20895
  8
0
  6
CONTINUOUS
 10
28.57438609860264
 20
0.0792907159064073
 30
0.0
 11
30.69580928405405
 21
2.200713901357819
 31
0.0
  0
LINE
  5
20896
  8
0
  6
CONTINUOUS
 10
29.49443044814297
 20
0.3258158563665496
 30
0.0
 11
30.44928414359389
 21
1.280669551817477
 31
0.0
  0
LINE
  5
20897
  8
0
  6
CONTINUOUS
 10
19.59027867740337
 20
-0.0000967065718083
 30
0.0
 11
19.55485265190471
 21
0.035329318926844
 31
0.0
  0
LINE
  5
20898
  8
0
  6
CONTINUOUS
 10
20.26375463176586
 20
-0.0000534518541091
 30
0.0
 11
19.76305575737534
 21
0.5006454225364014
 31
0.0
  0
LINE
  5
20899
  8
0
  6
CONTINUOUS
 10
20.93723058612834
 20
-0.0000101971364099
 30
0.0
 11
19.97125886284597
 21
0.965961526145958
 31
0.0
  0
LINE
  5
2089A
  8
0
  6
CONTINUOUS
 10
21.25514828313686
 20
0.355591314935257
 30
0.0
 11
20.1794619683166
 21
1.431277629755512
 31
0.0
  0
LINE
  5
2089B
  8
0
  6
CONTINUOUS
 10
21.46338838394921
 20
0.8208704232030986
 30
0.0
 11
20.38766507378723
 21
1.896593733365069
 31
0.0
  0
LINE
  5
2089C
  8
0
  6
CONTINUOUS
 10
21.67162848476155
 20
1.28614953147094
 30
0.0
 11
20.59586817925786
 21
2.361909836974626
 31
0.0
  0
LINE
  5
2089D
  8
0
  6
CONTINUOUS
 10
21.8798685855739
 20
1.751428639738782
 30
0.0
 11
20.80407128472849
 21
2.827225940584183
 31
0.0
  0
LINE
  5
2089E
  8
0
  6
CONTINUOUS
 10
22.08810868638624
 20
2.216707748006623
 30
0.0
 11
21.01227439019912
 21
3.292542044193739
 31
0.0
  0
LINE
  5
2089F
  8
0
  6
CONTINUOUS
 10
22.60993564347543
 20
2.36839999999762
 30
0.0
 11
21.22047749566975
 21
3.757858147803296
 31
0.0
  0
LINE
  5
208A0
  8
0
  6
CONTINUOUS
 10
23.28345485255561
 20
2.36839999999762
 30
0.0
 11
21.42868060114038
 21
4.223174251412853
 31
0.0
  0
LINE
  5
208A1
  8
0
  6
CONTINUOUS
 10
26.29227406164219
 20
0.0330999999912356
 30
0.0
 11
25.80009199592872
 21
0.5252820657046957
 31
0.0
  0
LINE
  5
208A2
  8
0
  6
CONTINUOUS
 10
23.9569740616358
 20
2.36839999999762
 30
0.0
 11
21.63688370661101
 21
4.688490355022409
 31
0.0
  0
LINE
  5
208A3
  8
0
  6
CONTINUOUS
 10
26.96579327072237
 20
0.0330999999912356
 30
0.0
 11
25.2554132311971
 21
1.743480039516508
 31
0.0
  0
LINE
  5
208A4
  8
0
  6
CONTINUOUS
 10
24.63049327071599
 20
2.36839999999762
 30
0.0
 11
23.32789327071731
 21
3.670999999996297
 31
0.0
  0
LINE
  5
208A5
  8
0
  6
CONTINUOUS
 10
22.92098674744635
 20
4.077906523267254
 30
0.0
 11
21.84508681208164
 21
5.153806458631966
 31
0.0
  0
LINE
  5
208A6
  8
0
  6
CONTINUOUS
 10
27.63931247980256
 20
0.0330999999912356
 30
0.0
 11
24.0014124797975
 21
3.670999999996297
 31
0.0
  0
LINE
  5
208A7
  8
0
  6
CONTINUOUS
 10
23.129125600968
 20
4.5432868788258
 30
0.0
 11
22.05328991755227
 21
5.619122562241522
 31
0.0
  0
LINE
  5
208A8
  8
0
  6
CONTINUOUS
 10
28.31283168888275
 20
0.0330999999912356
 30
0.0
 11
24.16488385994816
 21
4.181047828925828
 31
0.0
  0
LINE
  5
208A9
  8
0
  6
CONTINUOUS
 10
23.33726445448964
 20
5.008667234384345
 30
0.0
 11
22.2614930230229
 21
6.084438665851079
 31
0.0
  0
LINE
  5
208AA
  8
0
  6
CONTINUOUS
 10
28.86286302309502
 20
0.1565878748591523
 30
0.0
 11
27.63635089796295
 21
1.383099999991217
 31
0.0
  0
LINE
  5
208AB
  8
0
  6
CONTINUOUS
 10
26.43704649509776
 20
2.582404402856405
 30
0.0
 11
23.61992702019732
 21
5.399523877756844
 31
0.0
  0
LINE
  5
208AC
  8
0
  6
CONTINUOUS
 10
23.54540330801128
 20
5.47404758994289
 30
0.0
 11
22.46969612849353
 21
6.549754769460635
 31
0.0
  0
LINE
  5
208AD
  8
0
  6
CONTINUOUS
 10
29.39405087596853
 20
0.2989192310658284
 30
0.0
 11
28.30987010704312
 21
1.383099999991234
 31
0.0
  0
LINE
  5
208AE
  8
0
  6
CONTINUOUS
 10
25.89179548232307
 20
3.801174624711282
 30
0.0
 11
22.67789923396416
 21
7.015070873070191
 31
0.0
  0
LINE
  5
208AF
  8
0
  6
CONTINUOUS
 10
29.79594438047407
 20
0.570544935640473
 30
0.0
 11
28.81310432793121
 21
1.553384988183336
 31
0.0
  0
LINE
  5
208B0
  8
0
  6
CONTINUOUS
 10
25.34654446954838
 20
5.01994484656616
 30
0.0
 11
22.88610233943479
 21
7.480386976679748
 31
0.0
  0
LINE
  5
208B1
  8
0
  6
CONTINUOUS
 10
30.13270398501416
 20
0.9073045401805646
 30
0.0
 11
29.14234640337737
 21
1.897662121817355
 31
0.0
  0
LINE
  5
208B2
  8
0
  6
CONTINUOUS
 10
24.80129345677369
 20
6.238715068421037
 30
0.0
 11
23.09430544490542
 21
7.945703080289305
 31
0.0
  0
LINE
  5
208B3
  8
0
  6
CONTINUOUS
 10
30.44581292956759
 20
1.26771480470732
 30
0.0
 11
29.30199999996933
 21
2.411527734305588
 31
0.0
  0
LINE
  5
208B4
  8
0
  6
CONTINUOUS
 10
30.58814428577427
 20
1.798902657580827
 30
0.0
 11
29.30199999996933
 21
3.085046943385775
 31
0.0
  0
LINE
  5
208B5
  8
0
  6
CONTINUOUS
 10
24.256042443999
 20
7.457485290275915
 30
0.0
 11
23.30250855037605
 21
8.411019183898862
 31
0.0
  0
LINE
  5
208B6
  8
0
  6
CONTINUOUS
 10
23.71079143122431
 20
8.676255512130794
 30
0.0
 11
23.51071165584668
 21
8.876335287508418
 31
0.0
  0
LINE
  5
208B7
  8
0
  6
CONTINUOUS
 10
30.73047564198095
 20
2.330090510454333
 30
0.0
 11
29.30199999996933
 21
3.758566152465961
 31
0.0
  0
LINE
  5
208B8
  8
0
  6
CONTINUOUS
 10
30.74199999996924
 20
2.992085361546236
 30
0.0
 11
29.30199999996933
 21
4.432085361546148
 31
0.0
  0
LINE
  5
208B9
  8
0
  6
CONTINUOUS
 10
30.74199999996924
 20
3.665604570626419
 30
0.0
 11
29.30199999996933
 21
5.105604570626333
 31
0.0
  0
LINE
  5
208BA
  8
0
  6
CONTINUOUS
 10
30.74199999996925
 20
4.339123779706602
 30
0.0
 11
29.30199999996933
 21
5.77912377970652
 31
0.0
  0
LINE
  5
208BB
  8
0
  6
CONTINUOUS
 10
30.74199999996925
 20
5.012642988786785
 30
0.0
 11
29.30199999996933
 21
6.452642988786707
 31
0.0
  0
LINE
  5
208BC
  8
0
  6
CONTINUOUS
 10
30.74199999996925
 20
5.68616219786697
 30
0.0
 11
29.30199999996933
 21
7.126162197866894
 31
0.0
  0
LINE
  5
208BD
  8
0
  6
CONTINUOUS
 10
30.74199999996925
 20
6.359681406947153
 30
0.0
 11
29.30199999996933
 21
7.799681406947081
 31
0.0
  0
LINE
  5
208BE
  8
0
  6
CONTINUOUS
 10
30.74199999996926
 20
7.033200616027337
 30
0.0
 11
29.30199999996933
 21
8.473200616027269
 31
0.0
  0
LINE
  5
208BF
  8
0
  6
CONTINUOUS
 10
30.74199999996926
 20
7.706719825107518
 30
0.0
 11
29.68561982508552
 21
8.763099999991255
 31
0.0
  0
LINE
  5
208C0
  8
0
  6
CONTINUOUS
 10
30.74199999996926
 20
8.380239034187703
 30
0.0
 11
30.35913903416571
 21
8.763099999991255
 31
0.0
  0
ENDBLK
  5
20963
  8
0
  0
BLOCK
  8
0
  2
*X85
 70
     1
 10
0.0
 20
0.0
 30
0.0
  3
*X85
  1

  0
LINE
  5
208C2
  8
0
  6
CONTINUOUS
 10
31.64199999996833
 20
8.5350582899136
 30
0.0
 11
31.87004171004599
 21
8.763099999991255
 31
0.0
  0
LINE
  5
208C3
  8
0
  6
CONTINUOUS
 10
31.64199999996833
 20
7.861539080833413
 30
0.0
 11
32.54356091912618
 21
8.763099999991255
 31
0.0
  0
LINE
  5
208C4
  8
0
  6
CONTINUOUS
 10
31.64199999996833
 20
7.188019871753227
 30
0.0
 11
33.08199999996839
 21
8.628019871753281
 31
0.0
  0
LINE
  5
208C5
  8
0
  6
CONTINUOUS
 10
31.64199999996833
 20
6.514500662673041
 30
0.0
 11
33.08199999996839
 21
7.954500662673095
 31
0.0
  0
LINE
  5
208C6
  8
0
  6
CONTINUOUS
 10
31.64199999996833
 20
5.840981453592855
 30
0.0
 11
33.08199999996839
 21
7.28098145359291
 31
0.0
  0
LINE
  5
208C7
  8
0
  6
CONTINUOUS
 10
31.64199999996833
 20
5.167462244512668
 30
0.0
 11
33.08199999996839
 21
6.607462244512723
 31
0.0
  0
LINE
  5
208C8
  8
0
  6
CONTINUOUS
 10
31.64199999996833
 20
4.493943035432482
 30
0.0
 11
33.08199999996839
 21
5.933943035432536
 31
0.0
  0
LINE
  5
208C9
  8
0
  6
CONTINUOUS
 10
31.64199999996833
 20
3.820423826352294
 30
0.0
 11
33.08199999996839
 21
5.260423826352349
 31
0.0
  0
LINE
  5
208CA
  8
0
  6
CONTINUOUS
 10
31.64199999996833
 20
3.146904617272108
 30
0.0
 11
33.08199999996839
 21
4.586904617272163
 31
0.0
  0
LINE
  5
208CB
  8
0
  6
CONTINUOUS
 10
36.23199999996837
 20
8.410423826352327
 30
0.0
 11
36.58467617360729
 21
8.763099999991255
 31
0.0
  0
LINE
  5
208CC
  8
0
  6
CONTINUOUS
 10
36.23199999996837
 20
7.73690461727214
 30
0.0
 11
37.25819538268748
 21
8.763099999991255
 31
0.0
  0
LINE
  5
208CD
  8
0
  6
CONTINUOUS
 10
31.64323424774199
 20
2.474619655965573
 30
0.0
 11
33.08199999996839
 21
3.913385408191976
 31
0.0
  0
LINE
  5
208CE
  8
0
  6
CONTINUOUS
 10
31.74419223861915
 20
1.902058437762552
 30
0.0
 11
33.08199999996839
 21
3.239866199111789
 31
0.0
  0
LINE
  5
208CF
  8
0
  6
CONTINUOUS
 10
36.23199999996837
 20
7.063385408191953
 30
0.0
 11
37.67199999996831
 21
8.503385408191894
 31
0.0
  0
LINE
  5
208D0
  8
0
  6
CONTINUOUS
 10
36.23199999996837
 20
6.389866199111767
 30
0.0
 11
37.67199999996831
 21
7.829866199111708
 31
0.0
  0
LINE
  5
208D1
  8
0
  6
CONTINUOUS
 10
31.91111233414976
 20
1.39545932421297
 30
0.0
 11
33.08199999996839
 21
2.566346990031603
 31
0.0
  0
LINE
  5
208D2
  8
0
  6
CONTINUOUS
 10
36.23199999996837
 20
5.71634699003158
 30
0.0
 11
37.67199999996831
 21
7.156346990031522
 31
0.0
  0
LINE
  5
208D3
  8
0
  6
CONTINUOUS
 10
32.1576374746103
 20
0.9684652555933289
 30
0.0
 11
33.20642631446081
 21
2.017254095443838
 31
0.0
  0
LINE
  5
208D4
  8
0
  6
CONTINUOUS
 10
36.23199999996837
 20
5.042827780951393
 30
0.0
 11
37.67199999996831
 21
6.482827780951334
 31
0.0
  0
LINE
  5
208D5
  8
0
  6
CONTINUOUS
 10
32.47774023927325
 20
0.6150488111760914
 30
0.0
 11
33.49903056428258
 21
1.636339136185419
 31
0.0
  0
LINE
  5
208D6
  8
0
  6
CONTINUOUS
 10
36.23199999996837
 20
4.369308571871207
 30
0.0
 11
37.67199999996831
 21
5.809308571871148
 31
0.0
  0
LINE
  5
208D7
  8
0
  6
CONTINUOUS
 10
32.84396249154443
 20
0.3077518543670883
 30
0.0
 11
33.93324121824649
 21
1.397030581069146
 31
0.0
  0
LINE
  5
208D8
  8
0
  6
CONTINUOUS
 10
36.23199999996837
 20
3.695789362791021
 30
0.0
 11
37.67199999996831
 21
5.135789362790963
 31
0.0
  0
LINE
  5
208D9
  8
0
  6
CONTINUOUS
 10
33.30186329036846
 20
0.0921334441109263
 30
0.0
 11
34.46442907112041
 21
1.254699224862875
 31
0.0
  0
LINE
  5
208DA
  8
0
  6
CONTINUOUS
 10
36.23199999996837
 20
3.022270153710834
 30
0.0
 11
37.67199999996831
 21
4.462270153710776
 31
0.0
  0
LINE
  5
208DB
  8
0
  6
CONTINUOUS
 10
33.79565647746294
 20
-0.0875925778747773
 30
0.0
 11
35.24350171668284
 21
1.360252661345124
 31
0.0
  0
LINE
  5
208DC
  8
0
  6
CONTINUOUS
 10
36.18336676155003
 20
2.300117706212308
 30
0.0
 11
37.67199999996831
 21
3.788750944630589
 31
0.0
  0
LINE
  5
208DD
  8
0
  6
CONTINUOUS
 10
34.37182574910968
 20
-0.184942515308224
 30
0.0
 11
37.67199999996831
 21
3.115231735550402
 31
0.0
  0
LINE
  5
208DE
  8
0
  6
CONTINUOUS
 10
35.0453449581892
 20
-0.1849425153088955
 30
0.0
 11
37.66345697088136
 21
2.433169497383271
 31
0.0
  0
LINE
  5
208DF
  8
0
  6
CONTINUOUS
 10
35.98667157609191
 20
0.0828648935136398
 30
0.0
 11
37.51927401744566
 21
1.615467334867382
 31
0.0
  0
LINE
  5
208E0
  8
0
  6
CONTINUOUS
 10
32.27747408544484
 20
0.7830920669904482
 30
0.0
 11
32.24716210471949
 21
0.8134040477157893
 31
0.0
  0
LINE
  5
208E1
  8
0
  6
CONTINUOUS
 10
33.83656881101902
 20
-0.1024834495035494
 30
0.0
 11
31.72538911593758
 21
2.008696245577891
 31
0.0
  0
LINE
  5
208E2
  8
0
  6
CONTINUOUS
 10
34.5925470859041
 20
-0.1849425153084434
 30
0.0
 11
31.64199999996833
 21
2.765604570627322
 31
0.0
  0
LINE
  5
208E3
  8
0
  6
CONTINUOUS
 10
35.26201302775981
 20
-0.1808892480839752
 30
0.0
 11
31.64199999996833
 21
3.439123779707508
 31
0.0
  0
LINE
  5
208E4
  8
0
  6
CONTINUOUS
 10
35.75580621485512
 20
-0.0011632260990879
 30
0.0
 11
34.51294304365551
 21
1.241699945100514
 31
0.0
  0
LINE
  5
208E5
  8
0
  6
CONTINUOUS
 10
33.08199999996839
 20
2.672642988787641
 30
0.0
 11
31.64199999996833
 21
4.112642988787695
 31
0.0
  0
LINE
  5
208E6
  8
0
  6
CONTINUOUS
 10
36.24959940195042
 20
0.1785627958857976
 30
0.0
 11
35.10501653033629
 21
1.323145667499924
 31
0.0
  0
LINE
  5
208E7
  8
0
  6
CONTINUOUS
 10
33.08199999996839
 20
3.346162197867827
 30
0.0
 11
31.64199999996833
 21
4.786162197867881
 31
0.0
  0
LINE
  5
208E8
  8
0
  6
CONTINUOUS
 10
36.64615197150552
 20
0.4555294354108876
 30
0.0
 11
35.6362043832099
 21
1.465477023706505
 31
0.0
  0
LINE
  5
208E9
  8
0
  6
CONTINUOUS
 10
33.08199999996839
 20
4.019681406948013
 30
0.0
 11
31.64199999996833
 21
5.459681406948068
 31
0.0
  0
LINE
  5
208EA
  8
0
  6
CONTINUOUS
 10
37.0123742237774
 20
0.7628263922191891
 30
0.0
 11
35.97691545773309
 21
1.798285158263504
 31
0.0
  0
LINE
  5
208EB
  8
0
  6
CONTINUOUS
 10
33.08199999996839
 20
4.6932006160282
 30
0.0
 11
31.64199999996833
 21
6.133200616028255
 31
0.0
  0
LINE
  5
208EC
  8
0
  6
CONTINUOUS
 10
37.27491524157143
 20
1.173804583505349
 30
0.0
 11
36.17602012811361
 21
2.272699696963169
 31
0.0
  0
LINE
  5
208ED
  8
0
  6
CONTINUOUS
 10
33.08199999996839
 20
5.366719825108387
 30
0.0
 11
31.64199999996833
 21
6.806719825108441
 31
0.0
  0
LINE
  5
208EE
  8
0
  6
CONTINUOUS
 10
37.51739996707661
 20
1.604839067080355
 30
0.0
 11
36.23199999996837
 21
2.890239034188595
 31
0.0
  0
LINE
  5
208EF
  8
0
  6
CONTINUOUS
 10
37.6183579579535
 20
2.177400285283649
 30
0.0
 11
36.23199999996837
 21
3.563758243268782
 31
0.0
  0
LINE
  5
208F0
  8
0
  6
CONTINUOUS
 10
33.08199999996839
 20
6.040239034188573
 30
0.0
 11
31.64199999996833
 21
7.480239034188628
 31
0.0
  0
LINE
  5
208F1
  8
0
  6
CONTINUOUS
 10
33.08199999996839
 20
6.713758243268759
 30
0.0
 11
31.64199999996833
 21
8.153758243268815
 31
0.0
  0
LINE
  5
208F2
  8
0
  6
CONTINUOUS
 10
37.67199999996831
 20
2.797277452349027
 30
0.0
 11
36.23199999996837
 21
4.237277452348969
 31
0.0
  0
LINE
  5
208F3
  8
0
  6
CONTINUOUS
 10
37.67199999996831
 20
3.470796661429214
 30
0.0
 11
36.23199999996837
 21
4.910796661429155
 31
0.0
  0
LINE
  5
208F4
  8
0
  6
CONTINUOUS
 10
37.67199999996831
 20
4.1443158705094
 30
0.0
 11
36.23199999996837
 21
5.584315870509341
 31
0.0
  0
LINE
  5
208F5
  8
0
  6
CONTINUOUS
 10
33.08199999996839
 20
7.387277452348946
 30
0.0
 11
31.70617745232608
 21
8.763099999991255
 31
0.0
  0
LINE
  5
208F6
  8
0
  6
CONTINUOUS
 10
33.08199999996839
 20
8.060796661429134
 30
0.0
 11
32.37969666140626
 21
8.763099999991255
 31
0.0
  0
LINE
  5
208F7
  8
0
  6
CONTINUOUS
 10
33.08199999996839
 20
8.734315870509318
 30
0.0
 11
33.05321587048645
 21
8.763099999991255
 31
0.0
  0
LINE
  5
208F8
  8
0
  6
CONTINUOUS
 10
37.67199999996831
 20
4.817835079589586
 30
0.0
 11
36.23199999996837
 21
6.257835079589528
 31
0.0
  0
LINE
  5
208F9
  8
0
  6
CONTINUOUS
 10
37.67199999996831
 20
5.491354288669772
 30
0.0
 11
36.23199999996837
 21
6.931354288669715
 31
0.0
  0
LINE
  5
208FA
  8
0
  6
CONTINUOUS
 10
37.67199999996831
 20
6.164873497749959
 30
0.0
 11
36.23199999996837
 21
7.6048734977499
 31
0.0
  0
LINE
  5
208FB
  8
0
  6
CONTINUOUS
 10
37.67199999996831
 20
6.838392706830145
 30
0.0
 11
36.23199999996837
 21
8.278392706830086
 31
0.0
  0
LINE
  5
208FC
  8
0
  6
CONTINUOUS
 10
37.67199999996831
 20
7.511911915910333
 30
0.0
 11
36.42081191588738
 21
8.763099999991255
 31
0.0
  0
LINE
  5
208FD
  8
0
  6
CONTINUOUS
 10
37.67199999996831
 20
8.185431124990519
 30
0.0
 11
37.09433112496757
 21
8.763099999991255
 31
0.0
  0
ENDBLK
  5
20965
  8
0
  0
BLOCK
  8
0
  2
*X86
 70
     1
 10
0.0
 20
0.0
 30
0.0
  3
*X86
  1

  0
LINE
  5
208FF
  8
0
  6
CONTINUOUS
 10
38.60499999996136
 20
8.762866199104765
 30
0.0
 11
38.71672554182345
 21
8.874591740966855
 31
0.0
  0
LINE
  5
20900
  8
0
  6
CONTINUOUS
 10
38.60499999996136
 20
8.089346990024577
 30
0.0
 11
39.03418785440363
 21
8.518534844466847
 31
0.0
  0
LINE
  5
20901
  8
0
  6
CONTINUOUS
 10
38.60499999996136
 20
7.41582778094439
 30
0.0
 11
39.35165016698382
 21
8.16247794796684
 31
0.0
  0
LINE
  5
20902
  8
0
  6
CONTINUOUS
 10
38.60499999996136
 20
6.742308571864204
 30
0.0
 11
39.66911247956399
 21
7.806421051466834
 31
0.0
  0
LINE
  5
20903
  8
0
  6
CONTINUOUS
 10
38.60499999996136
 20
6.068789362784018
 30
0.0
 11
39.98657479214418
 21
7.450364154966827
 31
0.0
  0
LINE
  5
20904
  8
0
  6
CONTINUOUS
 10
38.60499999996136
 20
5.395270153703832
 30
0.0
 11
40.30403710472435
 21
7.09430725846682
 31
0.0
  0
LINE
  5
20905
  8
0
  6
CONTINUOUS
 10
38.60499999996136
 20
4.721750944623645
 30
0.0
 11
40.62149941730453
 21
6.738250361966813
 31
0.0
  0
LINE
  5
20906
  8
0
  6
CONTINUOUS
 10
38.60499999996136
 20
4.048231735543458
 30
0.0
 11
40.93896172988471
 21
6.382193465466806
 31
0.0
  0
LINE
  5
20907
  8
0
  6
CONTINUOUS
 10
38.60499999996136
 20
3.374712526463272
 30
0.0
 11
40.02599999995994
 21
4.795712526461843
 31
0.0
  0
LINE
  5
20908
  8
0
  6
CONTINUOUS
 10
38.60499999996136
 20
2.701193317383085
 30
0.0
 11
40.02599999995994
 21
4.122193317381657
 31
0.0
  0
LINE
  5
20909
  8
0
  6
CONTINUOUS
 10
40.28339754687704
 20
5.053110073378947
 30
0.0
 11
41.25642404246489
 21
6.026136568966799
 31
0.0
  0
LINE
  5
2090A
  8
0
  6
CONTINUOUS
 10
40.60085985945722
 20
4.697053176878939
 30
0.0
 11
41.57388635504507
 21
5.670079672466793
 31
0.0
  0
LINE
  5
2090B
  8
0
  6
CONTINUOUS
 10
43.57899999995641
 20
8.348712526458318
 30
0.0
 11
43.99338747348935
 21
8.763099999991255
 31
0.0
  0
LINE
  5
2090C
  8
0
  6
CONTINUOUS
 10
43.57899999995641
 20
7.675193317378131
 30
0.0
 11
44.66690668256953
 21
8.763099999991255
 31
0.0
  0
LINE
  5
2090D
  8
0
  6
CONTINUOUS
 10
38.60499999996136
 20
2.027674108302898
 30
0.0
 11
40.02599999995994
 21
3.44867410830147
 31
0.0
  0
LINE
  5
2090E
  8
0
  6
CONTINUOUS
 10
38.60499999996136
 20
1.354154899222712
 30
0.0
 11
40.02599999995994
 21
2.775154899221284
 31
0.0
  0
LINE
  5
2090F
  8
0
  6
CONTINUOUS
 10
38.60499999996136
 20
0.6806356901425255
 30
0.0
 11
40.02599999995994
 21
2.101635690141098
 31
0.0
  0
LINE
  5
20910
  8
0
  6
CONTINUOUS
 10
38.60499999996136
 20
0.0071164810623383
 30
0.0
 11
40.02599999995994
 21
1.428116481060911
 31
0.0
  0
LINE
  5
20911
  8
0
  6
CONTINUOUS
 10
40.9183221720374
 20
4.340996280378933
 30
0.0
 11
41.89134866762525
 21
5.314022775966786
 31
0.0
  0
LINE
  5
20912
  8
0
  6
CONTINUOUS
 10
41.23578448461758
 20
3.984939383878926
 30
0.0
 11
42.20881098020543
 21
4.957965879466778
 31
0.0
  0
LINE
  5
20913
  8
0
  6
CONTINUOUS
 10
41.55324679719776
 20
3.628882487378919
 30
0.0
 11
42.52627329278561
 21
4.601908982966772
 31
0.0
  0
LINE
  5
20914
  8
0
  6
CONTINUOUS
 10
41.87070910977793
 20
3.272825590878912
 30
0.0
 11
42.84373560536579
 21
4.245852086466765
 31
0.0
  0
LINE
  5
20915
  8
0
  6
CONTINUOUS
 10
43.57899999995641
 20
7.001674108297943
 30
0.0
 11
44.99999999995498
 21
8.422674108296516
 31
0.0
  0
LINE
  5
20916
  8
0
  6
CONTINUOUS
 10
43.57899999995641
 20
6.328154899217758
 30
0.0
 11
44.99999999995498
 21
7.749154899216329
 31
0.0
  0
LINE
  5
20917
  8
0
  6
CONTINUOUS
 10
43.57899999995641
 20
5.654635690137571
 30
0.0
 11
44.99999999995498
 21
7.075635690136142
 31
0.0
  0
LINE
  5
20918
  8
0
  6
CONTINUOUS
 10
43.57899999995641
 20
4.981116481057384
 30
0.0
 11
44.99999999995498
 21
6.402116481055955
 31
0.0
  0
LINE
  5
20919
  8
0
  6
CONTINUOUS
 10
39.27140272797921
 20
-0.0000000000000009
 30
0.0
 11
40.02599999995994
 21
0.7545972719807246
 31
0.0
  0
LINE
  5
2091A
  8
0
  6
CONTINUOUS
 10
39.9449219370594
 20
-0.0000000000000009
 30
0.0
 11
40.02599999995994
 21
0.0810780629005379
 31
0.0
  0
LINE
  5
2091B
  8
0
  6
CONTINUOUS
 10
42.18817142235812
 20
2.916768694378905
 30
0.0
 11
43.16119791794597
 21
3.889795189966758
 31
0.0
  0
LINE
  5
2091C
  8
0
  6
CONTINUOUS
 10
42.50563373493829
 20
2.560711797878898
 30
0.0
 11
43.47866023052615
 21
3.533738293466751
 31
0.0
  0
LINE
  5
2091D
  8
0
  6
CONTINUOUS
 10
43.57899999995641
 20
4.307597271977198
 30
0.0
 11
44.99999999995498
 21
5.728597271975769
 31
0.0
  0
LINE
  5
2091E
  8
0
  6
CONTINUOUS
 10
43.57899999995641
 20
3.634078062897011
 30
0.0
 11
44.99999999995498
 21
5.055078062895582
 31
0.0
  0
LINE
  5
2091F
  8
0
  6
CONTINUOUS
 10
42.82309604751848
 20
2.204654901378891
 30
0.0
 11
44.99999999995498
 21
4.381558853815395
 31
0.0
  0
LINE
  5
20920
  8
0
  6
CONTINUOUS
 10
43.14055836009865
 20
1.848598004878885
 30
0.0
 11
44.99999999995498
 21
3.70803964473521
 31
0.0
  0
LINE
  5
20921
  8
0
  6
CONTINUOUS
 10
43.45802067267883
 20
1.492541108378878
 30
0.0
 11
44.99999999995498
 21
3.034520435655023
 31
0.0
  0
LINE
  5
20922
  8
0
  6
CONTINUOUS
 10
43.77548298525902
 20
1.136484211878871
 30
0.0
 11
44.99999999995498
 21
2.361001226574837
 31
0.0
  0
LINE
  5
20923
  8
0
  6
CONTINUOUS
 10
44.09294529783919
 20
0.7804273153788639
 30
0.0
 11
44.99999999995498
 21
1.687482017494649
 31
0.0
  0
LINE
  5
20924
  8
0
  6
CONTINUOUS
 10
44.41040761041938
 20
0.4243704188788566
 30
0.0
 11
44.99999999995498
 21
1.013962808414463
 31
0.0
  0
LINE
  5
20925
  8
0
  6
CONTINUOUS
 10
44.72786992299955
 20
0.0683135223788494
 30
0.0
 11
44.99999999995498
 21
0.340443599334276
 31
0.0
  0
LINE
  5
20926
  8
0
  6
CONTINUOUS
 10
39.12223903415696
 20
-0.0000000000000009
 30
0.0
 11
38.60499999996136
 21
0.5172390341955961
 31
0.0
  0
LINE
  5
20927
  8
0
  6
CONTINUOUS
 10
39.79575824323715
 20
-0.0000000000000009
 30
0.0
 11
38.60499999996136
 21
1.190758243275783
 31
0.0
  0
LINE
  5
20928
  8
0
  6
CONTINUOUS
 10
40.02599999995994
 20
0.443277452357397
 30
0.0
 11
38.60499999996136
 21
1.864277452355969
 31
0.0
  0
LINE
  5
20929
  8
0
  6
CONTINUOUS
 10
40.02599999995994
 20
1.116796661437583
 30
0.0
 11
38.60499999996136
 21
2.537796661436155
 31
0.0
  0
LINE
  5
2092A
  8
0
  6
CONTINUOUS
 10
40.02599999995994
 20
1.79031587051777
 30
0.0
 11
38.60499999996136
 21
3.211315870516341
 31
0.0
  0
LINE
  5
2092B
  8
0
  6
CONTINUOUS
 10
40.02599999995994
 20
2.463835079597956
 30
0.0
 11
38.60499999996136
 21
3.884835079596527
 31
0.0
  0
LINE
  5
2092C
  8
0
  6
CONTINUOUS
 10
40.02599999995994
 20
3.137354288678143
 30
0.0
 11
38.60499999996136
 21
4.558354288676714
 31
0.0
  0
LINE
  5
2092D
  8
0
  6
CONTINUOUS
 10
40.02599999995994
 20
3.810873497758329
 30
0.0
 11
38.60499999996136
 21
5.2318734977569
 31
0.0
  0
LINE
  5
2092E
  8
0
  6
CONTINUOUS
 10
40.02599999995994
 20
4.484392706838515
 30
0.0
 11
38.60499999996136
 21
5.905392706837086
 31
0.0
  0
LINE
  5
2092F
  8
0
  6
CONTINUOUS
 10
44.99999999995498
 20
0.183911915923658
 30
0.0
 11
41.53858364506288
 21
3.64532827081576
 31
0.0
  0
LINE
  5
20930
  8
0
  6
CONTINUOUS
 10
40.02599999995994
 20
5.157911915918703
 30
0.0
 11
38.60499999996136
 21
6.578911915917274
 31
0.0
  0
LINE
  5
20931
  8
0
  6
CONTINUOUS
 10
44.99999999995498
 20
0.8574311250038447
 30
0.0
 11
38.60499999996136
 21
7.25243112499746
 31
0.0
  0
LINE
  5
20932
  8
0
  6
CONTINUOUS
 10
44.99999999995498
 20
1.530950334084031
 30
0.0
 11
38.60499999996136
 21
7.925950334077647
 31
0.0
  0
LINE
  5
20933
  8
0
  6
CONTINUOUS
 10
44.99999999995498
 20
2.204469543164218
 30
0.0
 11
43.57899999995641
 21
3.625469543162789
 31
0.0
  0
LINE
  5
20934
  8
0
  6
CONTINUOUS
 10
41.89876730984767
 20
5.305702233271528
 30
0.0
 11
38.60499999996136
 21
8.599469543157834
 31
0.0
  0
LINE
  5
20935
  8
0
  6
CONTINUOUS
 10
44.99999999995498
 20
2.877988752244405
 30
0.0
 11
43.57899999995641
 21
4.298988752242975
 31
0.0
  0
LINE
  5
20936
  8
0
  6
CONTINUOUS
 10
44.99999999995498
 20
3.551507961324591
 30
0.0
 11
43.57899999995641
 21
4.972507961323163
 31
0.0
  0
LINE
  5
20937
  8
0
  6
CONTINUOUS
 10
44.99999999995498
 20
4.225027170404777
 30
0.0
 11
43.57899999995641
 21
5.646027170403348
 31
0.0
  0
LINE
  5
20938
  8
0
  6
CONTINUOUS
 10
44.99999999995498
 20
4.898546379484964
 30
0.0
 11
43.57899999995641
 21
6.319546379483535
 31
0.0
  0
LINE
  5
20939
  8
0
  6
CONTINUOUS
 10
44.99999999995498
 20
5.572065588565151
 30
0.0
 11
43.57899999995641
 21
6.993065588563722
 31
0.0
  0
LINE
  5
2093A
  8
0
  6
CONTINUOUS
 10
44.99999999995498
 20
6.245584797645336
 30
0.0
 11
43.57899999995641
 21
7.666584797643908
 31
0.0
  0
LINE
  5
2093B
  8
0
  6
CONTINUOUS
 10
44.99999999995498
 20
6.919104006725522
 30
0.0
 11
43.57899999995641
 21
8.340104006724093
 31
0.0
  0
LINE
  5
2093C
  8
0
  6
CONTINUOUS
 10
44.99999999995498
 20
7.592623215805709
 30
0.0
 11
43.82952321576943
 21
8.763099999991255
 31
0.0
  0
LINE
  5
2093D
  8
0
  6
CONTINUOUS
 10
44.99999999995498
 20
8.266142424885896
 30
0.0
 11
44.50304242484962
 21
8.763099999991255
 31
0.0
  0
ENDBLK
  5
20967
  8
0
  0
BLOCK
  8
0
  2
*X87
 70
     1
 10
0.0
 20
0.0
 30
0.0
  3
*X87
  1

  0
LINE
  5
2093F
  8
0
  6
CONTINUOUS
 10
0.0
 20
8.548461116714023
 30
0.0
 11
0.2146388832772324
 21
8.763099999991255
 31
0.0
  0
LINE
  5
20940
  8
0
  6
CONTINUOUS
 10
-0.0000000000000002
 20
7.874941907633837
 30
0.0
 11
0.8881580923574184
 21
8.763099999991255
 31
0.0
  0
LINE
  5
20941
  8
0
  6
CONTINUOUS
 10
0.0
 20
7.20142269855365
 30
0.0
 11
1.420999999998572
 21
8.622422698552223
 31
0.0
  0
LINE
  5
20942
  8
0
  6
CONTINUOUS
 10
-0.0000000000000001
 20
6.527903489473465
 30
0.0
 11
1.420999999998571
 21
7.948903489472036
 31
0.0
  0
LINE
  5
20943
  8
0
  6
CONTINUOUS
 10
-0.0000000000000002
 20
5.854384280393278
 30
0.0
 11
1.420999999998571
 21
7.275384280391849
 31
0.0
  0
LINE
  5
20944
  8
0
  6
CONTINUOUS
 10
-0.0000000000000002
 20
5.180865071313091
 30
0.0
 11
1.420999999998571
 21
6.601865071311663
 31
0.0
  0
LINE
  5
20945
  8
0
  6
CONTINUOUS
 10
0.0
 20
4.507345862232905
 30
0.0
 11
1.420999999998571
 21
5.928345862231477
 31
0.0
  0
LINE
  5
20946
  8
0
  6
CONTINUOUS
 10
-0.0000000000000003
 20
3.833826653152718
 30
0.0
 11
1.420999999998571
 21
5.25482665315129
 31
0.0
  0
LINE
  5
20947
  8
0
  6
CONTINUOUS
 10
-0.0000000000000002
 20
3.160307444072532
 30
0.0
 11
1.420999999998571
 21
4.581307444071103
 31
0.0
  0
LINE
  5
20948
  8
0
  6
CONTINUOUS
 10
-0.0000000000000001
 20
2.486788234992345
 30
0.0
 11
1.420999999998571
 21
3.907788234990917
 31
0.0
  0
LINE
  5
20949
  8
0
  6
CONTINUOUS
 10
-0.0000000000000006
 20
1.813269025912159
 30
0.0
 11
1.420999999998571
 21
3.234269025910731
 31
0.0
  0
LINE
  5
2094A
  8
0
  6
CONTINUOUS
 10
0.0
 20
1.139749816831973
 30
0.0
 11
1.420999999998571
 21
2.560749816830544
 31
0.0
  0
LINE
  5
2094B
  8
0
  6
CONTINUOUS
 10
0.0000000000000002
 20
0.466230607751787
 30
0.0
 11
1.420999999998571
 21
1.887230607750358
 31
0.0
  0
LINE
  5
2094C
  8
0
  6
CONTINUOUS
 10
0.2072886013284003
 20
-0.0000000000000009
 30
0.0
 11
1.420999999998571
 21
1.213711398670171
 31
0.0
  0
LINE
  5
2094D
  8
0
  6
CONTINUOUS
 10
0.8808078104085864
 20
-0.0000000000000009
 30
0.0
 11
1.420999999998571
 21
0.5401921895899839
 31
0.0
  0
LINE
  5
2094E
  8
0
  6
CONTINUOUS
 10
0.0581249075061505
 20
-0.0000000000000009
 30
0.0
 11
-0.0000000000000002
 21
0.0581249075061496
 31
0.0
  0
LINE
  5
2094F
  8
0
  6
CONTINUOUS
 10
0.7316441165863372
 20
-0.0000000000000009
 30
0.0
 11
-0.0000000000000002
 21
0.7316441165863363
 31
0.0
  0
LINE
  5
20950
  8
0
  6
CONTINUOUS
 10
1.405163325666523
 20
-0.0000000000000009
 30
0.0
 11
-0.0000000000000002
 21
1.405163325666523
 31
0.0
  0
LINE
  5
20951
  8
0
  6
CONTINUOUS
 10
1.420999999998572
 20
0.6576825347481381
 30
0.0
 11
-0.0000000000000001
 21
2.07868253474671
 31
0.0
  0
LINE
  5
20952
  8
0
  6
CONTINUOUS
 10
1.420999999998571
 20
1.331201743828324
 30
0.0
 11
-0.0000000000000001
 21
2.752201743826896
 31
0.0
  0
LINE
  5
20953
  8
0
  6
CONTINUOUS
 10
1.420999999998571
 20
2.004720952908511
 30
0.0
 11
-0.0000000000000002
 21
3.425720952907082
 31
0.0
  0
LINE
  5
20954
  8
0
  6
CONTINUOUS
 10
1.420999999998571
 20
2.678240161988697
 30
0.0
 11
-0.0000000000000001
 21
4.099240161987269
 31
0.0
  0
LINE
  5
20955
  8
0
  6
CONTINUOUS
 10
1.420999999998572
 20
3.351759371068884
 30
0.0
 11
0.0
 21
4.772759371067455
 31
0.0
  0
LINE
  5
20956
  8
0
  6
CONTINUOUS
 10
1.420999999998571
 20
4.02527858014907
 30
0.0
 11
-0.0000000000000003
 21
5.446278580147642
 31
0.0
  0
LINE
  5
20957
  8
0
  6
CONTINUOUS
 10
1.420999999998571
 20
4.698797789229257
 30
0.0
 11
0.0
 21
6.119797789227828
 31
0.0
  0
LINE
  5
20958
  8
0
  6
CONTINUOUS
 10
1.420999999998571
 20
5.372316998309444
 30
0.0
 11
-0.0000000000000001
 21
6.793316998308015
 31
0.0
  0
LINE
  5
20959
  8
0
  6
CONTINUOUS
 10
1.420999999998572
 20
6.045836207389629
 30
0.0
 11
-0.0000000000000004
 21
7.466836207388202
 31
0.0
  0
LINE
  5
2095A
  8
0
  6
CONTINUOUS
 10
1.420999999998571
 20
6.719355416469816
 30
0.0
 11
0.0
 21
8.140355416468388
 31
0.0
  0
LINE
  5
2095B
  8
0
  6
CONTINUOUS
 10
1.420999999998571
 20
7.392874625550003
 30
0.0
 11
0.0507746255573185
 21
8.763099999991255
 31
0.0
  0
LINE
  5
2095C
  8
0
  6
CONTINUOUS
 10
1.420999999998571
 20
8.06639383463019
 30
0.0
 11
0.7242938346375052
 21
8.763099999991255
 31
0.0
  0
LINE
  5
2095D
  8
0
  6
CONTINUOUS
 10
1.420999999998571
 20
8.739913043710375
 30
0.0
 11
1.397813043717691
 21
8.763099999991255
 31
0.0
  0
ENDBLK
  5
20969
  8
0
  0
ENDSEC
  0
SECTION
  2
ENTITIES
  0
TEXT
  5
200BA
  8
1TEXT
 10
717.456928514421
 20
-509.0739580676226
 30
0.0
 40
4.0
  1
表面処理
 72
     1
 11
726.7235951810876
 21
-509.0739580676226
 31
0.0
  0
LINE
  5
200BB
  8
1DIM
 10
709.3235951810875
 20
-503.5739580676226
 30
0.0
 11
779.3235951810875
 21
-503.5739580676226
 31
0.0
  0
LINE
  5
200BC
  8
1DIM
 10
709.3235951810875
 20
-517.5739580676226
 30
0.0
 11
779.3235951810875
 21
-517.5739580676226
 31
0.0
  0
LINE
  5
200BD
  8
1DIM
 10
709.3235951810875
 20
-510.5739580676226
 30
0.0
 11
779.3235951810875
 21
-510.5739580676226
 31
0.0
  0
LINE
  5
200BE
  8
1DIM
 10
744.3235951810875
 20
-503.5739580676226
 30
0.0
 11
744.3235951810871
 21
-517.5739580676226
 31
0.0
  0
TEXT
  5
200BF
  8
1TEXT
 10
754.8569285144209
 20
-509.0739580676226
 30
0.0
 40
4.0
  1
コード
 72
     1
 11
761.7235951810876
 21
-509.0739580676226
 31
0.0
  0
LINE
  5
200C0
  8
1DIM
 10
709.3235951810875
 20
-517.5739580676226
 30
0.0
 11
709.3235951810875
 21
-503.5739580676226
 31
0.0
  0
LINE
  5
200C1
  8
1DIM
 10
779.3235951810873
 20
-517.5739580676226
 30
0.0
 11
779.3235951810875
 21
-503.5739580676226
 31
0.0
  0
TEXT
  5
200C2
  8
1TEXT
 10
709.3235951810875
 20
-498.5739580676226
 30
0.0
 40
8.0
  1
SE-411-XXS
  0
TEXT
  5
200C3
  8
1TEXT
 10
722.3902618477542
 20
-515.9092467271469
 30
0.0
 40
4.0
  1
鏡面
 72
     1
 11
726.7235951810876
 21
-515.9092467271469
 31
0.0
  0
TEXT
  5
200C4
  8
1TEXT
 10
746.4235951810879
 20
-516.2883150512719
 30
0.0
 40
4.0
  1
SE-411-XPS
 41
0.85
 72
     1
 11
761.7235951810878
 21
-516.2883150512719
 31
0.0
  0
LINE
  5
200C6
  8
01
 10
779.4632207284608
 20
-568.8314397155365
 30
0.0
 11
779.4632207284608
 21
-643.2877868861002
 31
0.0
  0
LINE
  5
200D1
  8
01
  6
CONTINUOUS
 10
652.6527200380912
 20
-588.0596128495307
 30
0.0
 11
662.2527200380912
 21
-588.0596128495307
 31
0.0
  0
ARC
  5
200D2
  8
01
  6
CONTINUOUS
 10
662.2527200380912
 20
-589.2596128495305
 30
0.0
 40
1.200000000000045
 50
0.0
 51
90.0
  0
LINE
  5
200D3
  8
01
  6
CONTINUOUS
 10
663.4527211417185
 20
-611.0596128495307
 30
0.0
 11
663.4527145273843
 21
-622.8596128495307
 31
0.0
  0
LINE
  5
200D4
  8
01
  6
CONTINUOUS
 10
662.2527211417184
 20
-611.2596128495305
 30
0.0
 11
663.4527211417185
 21
-611.2596128495305
 31
0.0
  0
LINE
  5
200D5
  8
01
  6
CONTINUOUS
 10
663.4527200380912
 20
-589.2596127412215
 30
0.0
 11
663.4527211031301
 21
-601.0596128495307
 31
0.0
  0
LINE
  5
200D6
  8
01
  6
CONTINUOUS
 10
663.4527211417185
 20
-600.8596128495307
 30
0.0
 11
662.2527211417184
 21
-600.8596128495307
 31
0.0
  0
LINE
  5
200D7
  8
01
  6
CONTINUOUS
 10
651.4527211417185
 20
-601.0596128495307
 30
0.0
 11
651.4527200380912
 21
-589.2596128495305
 31
0.0
  0
LINE
  5
200D8
  8
01
  6
CONTINUOUS
 10
652.6527211417184
 20
-600.8596128495307
 30
0.0
 11
651.4527211417185
 21
-600.8596128495307
 31
0.0
  0
LINE
  5
200D9
  8
01
  6
CONTINUOUS
 10
662.2527211417184
 20
-600.8596128495307
 30
0.0
 11
652.6527211417184
 21
-600.8596128495307
 31
0.0
  0
ARC
  5
200DA
  8
01
  6
CONTINUOUS
 10
652.6527200380912
 20
-589.2596128495305
 30
0.0
 40
1.199999999999989
 50
90.0
 51
180.0
  0
LINE
  5
200DB
  8
01
  6
CONTINUOUS
 10
662.2527211417184
 20
-611.2596128495305
 30
0.0
 11
652.6527211417184
 21
-611.2596128495305
 31
0.0
  0
ARC
  5
200DC
  8
01
  6
CONTINUOUS
 10
652.6527145273842
 20
-622.8596128495307
 30
0.0
 40
1.200000000000003
 50
180.0
 51
270.0
  0
LINE
  5
200DD
  8
01
  6
CONTINUOUS
 10
662.2527145273842
 20
-624.0596128495307
 30
0.0
 11
652.6527145273842
 21
-624.0596128495307
 31
0.0
  0
LINE
  5
200DE
  8
01
  6
CONTINUOUS
 10
651.4527145273843
 20
-622.8596128495307
 30
0.0
 11
651.4527211417185
 21
-611.0596128495307
 31
0.0
  0
LINE
  5
200DF
  8
01
  6
CONTINUOUS
 10
651.4527211417185
 20
-611.2596128495305
 30
0.0
 11
652.6527211417184
 21
-611.2596128495305
 31
0.0
  0
ARC
  5
200E0
  8
01
  6
CONTINUOUS
 10
662.2527145273842
 20
-622.8596128495307
 30
0.0
 40
1.200000000000045
 50
270.0
 51
0.0
  0
LINE
  5
200F8
  8
01
  6
CONTINUOUS
 10
671.4527211417183
 20
-526.9793620017659
 30
0.0
 11
671.4527211417185
 21
-544.5793620017661
 31
0.0
  0
ARC
  5
200F9
  8
01
  6
CONTINUOUS
 10
670.2527211417184
 20
-544.5793620017661
 30
0.0
 40
1.2
 50
270.0
 51
0.0
  0
ARC
  5
200FA
  8
01
  6
CONTINUOUS
 10
670.2527211417184
 20
-526.9793620017659
 30
0.0
 40
1.2
 50
0.0
 51
90.0
  0
LINE
  5
200FB
  8
01
  6
CONTINUOUS
 10
462.6527211417184
 20
-601.0596133008183
 30
0.0
 11
670.2527211417183
 21
-601.0596133008183
 31
0.0
  0
ARC
  5
200FC
  8
01
  6
CONTINUOUS
 10
670.2527211417183
 20
-602.2596133008184
 30
0.0
 40
1.2
 50
0.0
 51
90.0
  0
ARC
  5
200FD
  8
01
  6
CONTINUOUS
 10
670.2527211417183
 20
-609.8596133008183
 30
0.0
 40
1.2
 50
270.0
 51
0.0
  0
LINE
  5
20105
  8
01
  6
CONTINUOUS
 10
651.4527211417186
 20
-543.5793615504784
 30
0.0
 11
651.4527211417185
 21
-490.7793615504785
 31
0.0
  0
ARC
  5
20108
  8
01
  6
CONTINUOUS
 10
652.6527211417185
 20
-543.5793615504784
 30
0.0
 40
1.200000000000017
 50
180.0
 51
270.0
  0
LINE
  5
20109
  8
01
  6
CONTINUOUS
 10
662.2527211417184
 20
-544.7793615504785
 30
0.0
 11
652.6527211417185
 21
-544.7793615504785
 31
0.0
  0
LINE
  5
2010A
  8
01
  6
CONTINUOUS
 10
663.4527211417185
 20
-490.7793615504785
 30
0.0
 11
663.4527211417185
 21
-543.5793615504784
 31
0.0
  0
LINE
  5
2010B
  8
01
  6
CONTINUOUS
 10
651.4527211417185
 20
-490.7793615504785
 30
0.0
 11
663.4527211417185
 21
-490.7793615504785
 31
0.0
  0
ARC
  5
2010C
  8
01
  6
CONTINUOUS
 10
662.2527211417184
 20
-543.5793615504784
 30
0.0
 40
1.200000000000017
 50
270.0
 51
0.0
  0
LINE
  5
2010D
  8
01
  6
CONTINUOUS
 10
663.4527211417185
 20
-525.7793620017661
 30
0.0
 11
670.2527211417184
 21
-525.7793620017661
 31
0.0
  0
LINE
  5
2010E
  8
01
  6
CONTINUOUS
 10
480.2527200380911
 20
-588.0596137521087
 30
0.0
 11
470.6527200380911
 21
-588.0596137521087
 31
0.0
  0
ARC
  5
2010F
  8
01
  6
CONTINUOUS
 10
470.6527200380911
 20
-589.2596137521085
 30
0.0
 40
1.200000000000045
 50
90.0
 51
180.0
  0
LINE
  5
20110
  8
01
  6
CONTINUOUS
 10
469.4527209104479
 20
-611.0596137521087
 30
0.0
 11
469.4527145273841
 21
-622.8596137521087
 31
0.0
  0
LINE
  5
20111
  8
01
  6
CONTINUOUS
 10
470.6527211417184
 20
-611.2596137521085
 30
0.0
 11
469.4527211417183
 21
-611.2596137521085
 31
0.0
  0
LINE
  5
20112
  8
01
  6
CONTINUOUS
 10
469.4527200380911
 20
-589.2596137521085
 30
0.0
 11
469.4527211031299
 21
-601.0596137521087
 31
0.0
  0
LINE
  5
20113
  8
01
  6
CONTINUOUS
 10
469.4527211417183
 20
-600.8596137521087
 30
0.0
 11
470.6527211417184
 21
-600.8596137521087
 31
0.0
  0
LINE
  5
20114
  8
01
  6
CONTINUOUS
 10
481.4527211182369
 20
-601.0596137521087
 30
0.0
 11
481.4527200380911
 21
-589.2596136422633
 31
0.0
  0
LINE
  5
20115
  8
01
  6
CONTINUOUS
 10
480.2527211417184
 20
-600.8596137521087
 30
0.0
 11
481.4527211417183
 21
-600.8596137521087
 31
0.0
  0
LINE
  5
20116
  8
01
  6
CONTINUOUS
 10
469.4527210850785
 20
-600.8596137521087
 30
0.0
 11
480.2527211417184
 21
-600.8596137521087
 31
0.0
  0
ARC
  5
20117
  8
01
  6
CONTINUOUS
 10
480.2527200380911
 20
-589.2596137521085
 30
0.0
 40
1.199999999999989
 50
0.0
 51
90.0
  0
LINE
  5
20118
  8
01
  6
CONTINUOUS
 10
470.6527211417184
 20
-611.2596137521085
 30
0.0
 11
480.2527211417184
 21
-611.2596137521085
 31
0.0
  0
ARC
  5
20119
  8
01
  6
CONTINUOUS
 10
480.2527145273842
 20
-622.8596137521087
 30
0.0
 40
1.200000000000003
 50
270.0
 51
0.0
  0
LINE
  5
2011A
  8
01
  6
CONTINUOUS
 10
470.6527145273841
 20
-624.0596137521087
 30
0.0
 11
480.2527145273842
 21
-624.0596137521087
 31
0.0
  0
LINE
  5
2011B
  8
01
  6
CONTINUOUS
 10
481.4527145273842
 20
-622.8596137521087
 30
0.0
 11
481.4527210009878
 21
-611.0596137521087
 31
0.0
  0
LINE
  5
2011C
  8
01
  6
CONTINUOUS
 10
481.4527211417183
 20
-611.2596137521085
 30
0.0
 11
480.2527211417184
 21
-611.2596137521085
 31
0.0
  0
ARC
  5
2011D
  8
01
  6
CONTINUOUS
 10
470.6527145273841
 20
-622.8596137521087
 30
0.0
 40
1.200000000000045
 50
180.0
 51
270.0
  0
LINE
  5
2011E
  8
1CENTER
 10
475.4527294564339
 20
-609.4345641718413
 30
0.0
 11
475.4527294564339
 21
-602.6845641718413
 31
0.0
  0
LINE
  5
2011F
  8
01
  6
CONTINUOUS
 10
462.6527211417182
 20
-545.7793620017661
 30
0.0
 11
670.2527211417183
 21
-545.7793620017661
 31
0.0
  0
LINE
  5
20120
  8
01
  6
CONTINUOUS
 10
461.4527211417184
 20
-526.9793620017687
 30
0.0
 11
461.4527211417183
 21
-544.5793620017688
 31
0.0
  0
LINE
  5
20121
  8
01
  6
CONTINUOUS
 10
461.4527211417184
 20
-602.2596133008211
 30
0.0
 11
461.4527211417184
 21
-609.859613300821
 31
0.0
  0
ARC
  5
20122
  8
01
  6
CONTINUOUS
 10
462.6527211417182
 20
-544.5793620017688
 30
0.0
 40
1.2
 50
180.0
 51
270.0
  0
ARC
  5
20123
  8
01
  6
CONTINUOUS
 10
462.6527211417182
 20
-526.9793620017687
 30
0.0
 40
1.2
 50
90.0
 51
180.0
  0
ARC
  5
20124
  8
01
  6
CONTINUOUS
 10
462.6527211417184
 20
-602.2596133008211
 30
0.0
 40
1.2
 50
90.0
 51
180.0
  0
ARC
  5
20125
  8
01
  6
CONTINUOUS
 10
462.6527211417184
 20
-609.859613300821
 30
0.0
 40
1.2
 50
180.0
 51
270.0
  0
LINE
  5
20126
  8
01
  6
CONTINUOUS
 10
481.4527211417183
 20
-543.5793624530564
 30
0.0
 11
481.4527211417183
 21
-490.7793624530565
 31
0.0
  0
LINE
  5
20127
  8
01
  6
CONTINUOUS
 10
481.4527211417183
 20
-490.7793624530565
 30
0.0
 11
469.4527211417183
 21
-490.7793624530565
 31
0.0
  0
ARC
  5
20129
  8
01
  6
CONTINUOUS
 10
480.2527211417183
 20
-543.5793624530564
 30
0.0
 40
1.200000000000017
 50
270.0
 51
0.0
  0
LINE
  5
2012A
  8
01
  6
CONTINUOUS
 10
470.6527211417184
 20
-544.7793624530565
 30
0.0
 11
480.2527211417183
 21
-544.7793624530565
 31
0.0
  0
LINE
  5
2012B
  8
01
  6
CONTINUOUS
 10
469.4527211417183
 20
-490.7793624530565
 30
0.0
 11
469.4527211417183
 21
-543.5793624530564
 31
0.0
  0
ARC
  5
2012D
  8
01
  6
CONTINUOUS
 10
470.6527211417184
 20
-543.5793624530564
 30
0.0
 40
1.200000000000017
 50
180.0
 51
270.0
  0
LINE
  5
2012E
  8
01
  6
CONTINUOUS
 10
469.4527211417183
 20
-525.7793620017688
 30
0.0
 11
462.6527211417182
 21
-525.7793620017688
 31
0.0
  0
LINE
  5
2012F
  8
01
  6
CONTINUOUS
 10
671.4527211417184
 20
-602.2596133008184
 30
0.0
 11
671.4527211417184
 21
-609.8596133008183
 31
0.0
  0
LINE
  5
20133
  8
01
  6
CONTINUOUS
 10
462.6527211417183
 20
-611.0596133008064
 30
0.0
 11
670.2527211417183
 21
-611.0596133008183
 31
0.0
  0
LINE
  5
20134
  8
01
  6
CONTINUOUS
 10
651.4527211417186
 20
-525.7793620017661
 30
0.0
 11
481.4527211417183
 21
-525.7793620017661
 31
0.0
  0
LINE
  5
20137
  8
1PHANTOM
 10
660.9527211417186
 20
-515.7793615504785
 30
0.0
 11
653.9527211417186
 21
-515.7793615504785
 31
0.0
  0
LINE
  5
2013A
  8
1PHANTOM
 10
661.9527211417186
 20
-490.7793615504785
 30
0.0
 11
661.9527211417186
 21
-515.7793615504785
 31
0.0
  0
LINE
  5
2013B
  8
1PHANTOM
 10
661.9527211417186
 20
-515.7793615504785
 30
0.0
 11
660.9527211417186
 21
-515.7793615504785
 31
0.0
  0
LINE
  5
2013C
  8
1PHANTOM
 10
652.9527211417186
 20
-515.7793615504785
 30
0.0
 11
652.9527211417186
 21
-490.7793615504785
 31
0.0
  0
LINE
  5
2013D
  8
1PHANTOM
 10
653.9527211417186
 20
-515.7793615504785
 30
0.0
 11
652.9527211417186
 21
-515.7793615504785
 31
0.0
  0
CIRCLE
  5
2014A
  8
1PHANTOM
 10
657.4527128270029
 20
-606.0595632692633
 30
0.0
 40
2.25
  0
LINE
  5
2014F
  8
1PHANTOM
 10
657.9527209917186
 20
-516.7793615504785
 30
0.0
 11
656.9527212917186
 21
-515.7793615504785
 31
0.0
  0
LINE
  5
20150
  8
1CENTER
 10
654.0776937686185
 20
-606.0595939258823
 30
0.0
 11
660.8276937686185
 21
-606.0595939258823
 31
0.0
  0
LINE
  5
20151
  8
1CENTER
 10
657.4526937686185
 20
-609.4345939258823
 30
0.0
 11
657.4526937686185
 21
-602.6845939258823
 31
0.0
  0
LINE
  5
20152
  8
1PHANTOM
 10
471.9527211417181
 20
-515.7793624530565
 30
0.0
 11
478.9527211417181
 21
-515.7793624530565
 31
0.0
  0
LINE
  5
20153
  8
1PHANTOM
 10
470.9527211417181
 20
-490.7793624530565
 30
0.0
 11
470.9527211417181
 21
-515.7793624530565
 31
0.0
  0
LINE
  5
20154
  8
1PHANTOM
 10
470.9527211417181
 20
-515.7793624530565
 30
0.0
 11
471.9527211417181
 21
-515.7793624530565
 31
0.0
  0
LINE
  5
20155
  8
1PHANTOM
 10
479.9527211417181
 20
-515.7793624530565
 30
0.0
 11
479.9527211417181
 21
-490.7793624530565
 31
0.0
  0
LINE
  5
20156
  8
1PHANTOM
 10
478.9527211417181
 20
-515.7793624530565
 30
0.0
 11
479.9527211417181
 21
-515.7793624530565
 31
0.0
  0
CIRCLE
  5
20157
  8
1PHANTOM
 10
475.4527294564338
 20
-606.0595641718413
 30
0.0
 40
2.25
  0
LINE
  5
2015A
  8
1PHANTOM
 10
474.9527212917181
 20
-516.7793624530565
 30
0.0
 11
475.9527209917181
 21
-515.7793624530565
 31
0.0
  0
LINE
  5
2015B
  8
1CENTER
 10
478.8277485148182
 20
-606.0595948284603
 30
0.0
 11
472.0777485148182
 21
-606.0595948284603
 31
0.0
  0
LINE
  5
2015C
  8
1CENTER
 10
475.4527485148182
 20
-609.4345948284603
 30
0.0
 11
475.4527485148182
 21
-602.6845948284603
 31
0.0
  0
LINE
  5
201D0
  8
01
  6
CONTINUOUS
 10
461.4527211417183
 20
-526.9793620017687
 30
0.0
 11
461.4527211417185
 21
-544.5793620017688
 31
0.0
  0
LINE
  5
20201
  8
01
  6
CONTINUOUS
 10
469.4527200380911
 20
-589.2596137521085
 30
0.0
 11
469.4527211031299
 21
-601.0596137521087
 31
0.0
  0
LINE
  5
2043C
  8
01
 10
757.9632207284608
 20
-600.9096133008178
 30
0.0
 11
757.9632207284608
 21
-623.0596133008193
 31
0.0
  0
LINE
  5
2043D
  8
01
 10
757.9632207284608
 20
-603.4096133008185
 30
0.0
 11
757.9632207284608
 21
-621.0596133008179
 31
0.0
  0
LINE
  5
2043F
  8
01
 10
770.4632207284608
 20
-568.8314397155365
 30
0.0
 11
770.4632207284608
 21
-643.2877868861002
 31
0.0
  0
LINE
  5
20441
  8
01
 10
757.9632207284608
 20
-568.8314397155365
 30
0.0
 11
757.9632207284608
 21
-643.2877868861002
 31
0.0
  0
LINE
  5
20449
  8
01
  6
CONTINUOUS
 10
703.9632196248335
 20
-589.2596322244673
 30
0.0
 11
703.963220719108
 21
-600.9596322244672
 31
0.0
  0
LINE
  5
2044A
  8
01
  6
CONTINUOUS
 10
757.9632207284608
 20
-622.8596322244672
 30
0.0
 11
757.9632262391677
 21
-588.0596322244672
 31
0.0
  0
LINE
  5
2044B
  8
01
  6
CONTINUOUS
 10
703.9632207284608
 20
-611.3596322244671
 30
0.0
 11
721.763227342795
 21
-611.3596322244671
 31
0.0
  0
LINE
  5
2044C
  8
01
  6
CONTINUOUS
 10
703.9632207284608
 20
-600.9596322244672
 30
0.0
 11
721.763227342795
 21
-600.9596322244672
 31
0.0
  0
ARC
  5
2044D
  8
01
  6
CONTINUOUS
 10
721.763227342795
 20
-602.1596322244673
 30
0.0
 40
1.200000000000017
 50
0.0
 51
90.0
  0
ARC
  5
2044E
  8
01
  6
CONTINUOUS
 10
721.763227342795
 20
-602.1596322244673
 30
0.0
 40
1.200000000000017
 50
0.0
 51
90.0
  0
ARC
  5
2044F
  8
01
  6
CONTINUOUS
 10
721.763227342795
 20
-610.159632224467
 30
0.0
 40
1.200000000000017
 50
270.0
 51
0.0
  0
ARC
  5
20450
  8
01
  6
CONTINUOUS
 10
721.763227342795
 20
-610.159632224467
 30
0.0
 40
1.200000000000017
 50
270.0
 51
0.0
  0
ARC
  5
20451
  8
01
  6
CONTINUOUS
 10
721.763227342795
 20
-602.1596322244673
 30
0.0
 40
1.200000000000017
 50
0.0
 51
90.0
  0
ARC
  5
20452
  8
01
  6
CONTINUOUS
 10
721.763227342795
 20
-602.1596322244673
 30
0.0
 40
1.200000000000017
 50
0.0
 51
90.0
  0
ARC
  5
20453
  8
01
  6
CONTINUOUS
 10
721.763227342795
 20
-610.159632224467
 30
0.0
 40
1.200000000000017
 50
270.0
 51
0.0
  0
ARC
  5
20454
  8
01
  6
CONTINUOUS
 10
721.763227342795
 20
-610.159632224467
 30
0.0
 40
1.200000000000017
 50
270.0
 51
0.0
  0
LINE
  5
20455
  8
01
  6
CONTINUOUS
 10
757.9632262391677
 20
-588.0596322244672
 30
0.0
 11
705.1632196248336
 21
-588.0596322244672
 31
0.0
  0
LINE
  5
20456
  8
01
  6
CONTINUOUS
 10
703.9632141141266
 20
-622.8596322244672
 30
0.0
 11
703.9632206714407
 21
-611.3596322244671
 31
0.0
  0
LINE
  5
20457
  8
01
  6
CONTINUOUS
 10
757.9632207284608
 20
-622.8596322244672
 30
0.0
 11
757.9632207284608
 21
-624.0596322244672
 31
0.0
  0
LINE
  5
20458
  8
01
  6
CONTINUOUS
 10
757.9632207284608
 20
-624.0596322244672
 30
0.0
 11
757.9632207284608
 21
-622.8596322244672
 31
0.0
  0
ARC
  5
20459
  8
01
  6
CONTINUOUS
 10
705.1632141141266
 20
-622.8596322244672
 30
0.0
 40
1.200000000000017
 50
180.0
 51
270.0
  0
ARC
  5
2045A
  8
01
  6
CONTINUOUS
 10
705.1632141141266
 20
-622.8596322244672
 30
0.0
 40
1.200000000000017
 50
180.0
 51
270.0
  0
ARC
  5
2045B
  8
01
  6
CONTINUOUS
 10
705.1632196248336
 20
-589.2596322244673
 30
0.0
 40
1.200000000000017
 50
90.0
 51
180.0
  0
LINE
  5
2045C
  8
01
  6
CONTINUOUS
 10
702.9632207284608
 20
-602.4596322244671
 30
0.0
 11
702.9632207284608
 21
-609.8596322244672
 31
0.0
  0
LINE
  5
2045D
  8
01
  6
CONTINUOUS
 10
704.1632207284608
 20
-611.1596322244673
 30
0.0
 11
721.763227342795
 21
-611.1596322244671
 31
0.0
  0
LINE
  5
2045E
  8
01
  6
CONTINUOUS
 10
704.1632207284608
 20
-601.1596322244673
 30
0.0
 11
721.763227342795
 21
-601.1596322244673
 31
0.0
  0
ARC
  5
2045F
  8
01
  6
CONTINUOUS
 10
704.1632207284608
 20
-609.9596322244672
 30
0.0
 40
1.2
 50
180.0
 51
270.0
  0
ARC
  5
20460
  8
01
  6
CONTINUOUS
 10
704.1632207284608
 20
-602.3596322244673
 30
0.0
 40
1.2
 50
90.0
 51
180.0
  0
ARC
  5
20461
  8
01
  6
CONTINUOUS
 10
721.763227342795
 20
-602.3596322244671
 30
0.0
 40
1.2
 50
0.0
 51
90.0
  0
ARC
  5
20462
  8
01
  6
CONTINUOUS
 10
721.763227342795
 20
-609.9596322244672
 30
0.0
 40
1.2
 50
270.0
 51
0.0
  0
LINE
  5
20463
  8
01
  6
CONTINUOUS
 10
705.1632141141266
 20
-624.0596322244672
 30
0.0
 11
757.9632207284608
 21
-624.0596322244672
 31
0.0
  0
LINE
  5
20464
  8
01
  6
CONTINUOUS
 10
757.9632207284608
 20
-622.8596322244672
 30
0.0
 11
757.9632207284608
 21
-624.0596322244672
 31
0.0
  0
LINE
  5
20465
  8
01
  6
CONTINUOUS
 10
757.9632207284608
 20
-624.0596322244672
 30
0.0
 11
757.9632207284608
 21
-622.8596322244672
 31
0.0
  0
LINE
  5
20466
  8
01
 10
722.963227342795
 20
-602.4596322244671
 30
0.0
 11
722.963227342795
 21
-609.8596322244672
 31
0.0
  0
LINE
  5
20468
  8
1PHANTOM
 10
732.9632209184851
 20
-621.6596322244671
 30
0.0
 11
757.9632209184851
 21
-621.6596322244671
 31
0.0
  0
LINE
  5
20469
  8
1PHANTOM
 10
757.9632209184851
 20
-621.6596322244671
 30
0.0
 11
757.9632209184851
 21
-620.6596322244671
 31
0.0
  0
LINE
  5
2046B
  8
1PHANTOM
 10
757.9632209184851
 20
-620.6596322244671
 30
0.0
 11
757.9632209184851
 21
-608.4890816962376
 31
0.0
  0
LINE
  5
2046C
  8
1PHANTOM
 10
732.9632209184851
 20
-590.9596322244671
 30
0.0
 11
732.9632209184851
 21
-621.6596322244671
 31
0.0
  0
LINE
  5
2046D
  8
1PHANTOM
 10
732.9632209184851
 20
-590.9596322244671
 30
0.0
 11
757.9632209184851
 21
-590.9596322244671
 31
0.0
  0
LINE
  5
2046E
  8
1PHANTOM
 10
757.9632209184851
 20
-604.1301827526969
 30
0.0
 11
757.4632209184851
 21
-604.1301827526969
 31
0.0
  0
LINE
  5
2046F
  8
1PHANTOM
 10
757.9632209184851
 20
-608.4890816962376
 30
0.0
 11
757.4632209184851
 21
-608.4890816962376
 31
0.0
  0
LINE
  5
20470
  8
1PHANTOM
 10
757.9632209184851
 20
-604.1301827526969
 30
0.0
 11
757.9632209184851
 21
-590.9596322244671
 31
0.0
  0
LINE
  5
20471
  8
1PHANTOM
 10
757.4632209184851
 20
-608.4890816962376
 30
0.0
 11
757.4632209184851
 21
-604.1301827526969
 31
0.0
  0
LINE
  5
20474
  8
1PHANTOM
 10
731.9632209184851
 20
-606.8129093708277
 30
0.0
 11
732.9632209184851
 21
-605.8129096708277
 31
0.0
  0
LINE
  5
20475
  8
01
  6
CONTINUOUS
 10
703.963220719108
 20
-600.9596322244672
 30
0.0
 11
721.763227342795
 21
-600.9596322244672
 31
0.0
  0
LINE
  5
20476
  8
01
  6
CONTINUOUS
 10
703.9632206714407
 20
-611.3596322244671
 30
0.0
 11
721.763227342795
 21
-611.3596322244671
 31
0.0
  0
LINE
  5
205C7
  8
1PHANTOM
 10
732.9632209184851
 20
-604.1301827526969
 30
0.0
 11
732.9632209184851
 21
-590.9596322244671
 31
0.0
  0
LINE
  5
205CB
  8
1CENTER
 10
657.4527211417186
 20
-458.8184469593324
 30
0.0
 11
657.4527211417186
 21
-521.048379103023
 31
0.0
  0
LINE
  5
205CD
  8
01
 10
655.4527676776165
 20
-478.2793568971043
 30
0.0
 11
659.4527676776165
 21
-477.479366204286
 31
0.0
  0
LINE
  5
205CE
  8
01
 10
655.4527676776165
 20
-476.6793568971042
 30
0.0
 11
659.4527676776165
 21
-475.8793662042817
 31
0.0
  0
LINE
  5
205CF
  8
01
 10
655.9527676776165
 20
-476.779358060502
 30
0.0
 11
655.4527676776165
 21
-476.6793568971042
 31
0.0
  0
LINE
  5
205D0
  8
01
 10
655.9527676776165
 20
-475.1793580605014
 30
0.0
 11
655.4527676776165
 21
-475.0793568971043
 31
0.0
  0
LINE
  5
205D1
  8
01
 10
659.4527676776165
 20
-475.8793662042817
 30
0.0
 11
658.9527676776165
 21
-475.7793650408846
 31
0.0
  0
LINE
  5
205D2
  8
01
 10
659.4527676776165
 20
-477.479366204286
 30
0.0
 11
658.9527676776165
 21
-477.3793650408883
 31
0.0
  0
LINE
  5
205D3
  8
01
 10
655.4527676776165
 20
-470.2793568971043
 30
0.0
 11
659.4527676776165
 21
-469.4793662042817
 31
0.0
  0
LINE
  5
205D4
  8
01
 10
655.4527676776165
 20
-467.0793568971043
 30
0.0
 11
659.2263606254126
 21
-466.279365677479
 31
0.0
  0
LINE
  5
205D5
  8
01
 10
655.4527676776165
 20
-468.6793568971042
 30
0.0
 11
659.4527676776165
 21
-467.8793662042817
 31
0.0
  0
LINE
  5
205D6
  8
01
 10
655.9055838196753
 20
-465.4793579507145
 30
0.0
 11
658.7735465210058
 21
-464.6793646238734
 31
0.0
  0
LINE
  5
205D7
  8
01
 10
656.8155691683546
 20
-464.0307948007591
 30
0.0
 11
656.3583973277235
 21
-463.8793590043187
 31
0.0
  0
LINE
  5
205D8
  8
01
 10
655.9527676776165
 20
-467.1793580605014
 30
0.0
 11
655.4527676776165
 21
-467.0793568971043
 31
0.0
  0
LINE
  5
205D9
  8
01
 10
655.9527676776165
 20
-468.7793580605014
 30
0.0
 11
655.4527676776165
 21
-468.6793568971042
 31
0.0
  0
LINE
  5
205DA
  8
01
 10
656.3736822748252
 20
-465.5921274630645
 30
0.0
 11
655.9055838196753
 21
-465.4793579507145
 31
0.0
  0
LINE
  5
205DB
  8
01
 10
659.2263606254126
 20
-466.279365677479
 30
0.0
 11
658.6897668901414
 21
-466.1500949798491
 31
0.0
  0
LINE
  5
205DC
  8
01
 10
659.4527676776165
 20
-469.4793662042817
 30
0.0
 11
658.9527676776165
 21
-469.3793650408847
 31
0.0
  0
LINE
  5
205DD
  8
01
 10
659.4527676776165
 20
-467.8793662042817
 30
0.0
 11
658.9527676776165
 21
-467.7793650408846
 31
0.0
  0
LINE
  5
205DE
  8
01
 10
658.7735465210058
 20
-464.6793646238734
 30
0.0
 11
658.2217970572025
 21
-464.4966004812454
 31
0.0
  0
LINE
  5
205DF
  8
01
 10
655.4527676776165
 20
-473.4793568971042
 30
0.0
 11
659.4527676776165
 21
-472.6793662042816
 31
0.0
  0
LINE
  5
205E0
  8
01
 10
655.9527676776165
 20
-473.5793580605013
 30
0.0
 11
655.4527676776165
 21
-473.4793568971042
 31
0.0
  0
LINE
  5
205E1
  8
01
 10
655.9527676776165
 20
-471.9793580605014
 30
0.0
 11
655.4527676776165
 21
-471.8793568971043
 31
0.0
  0
LINE
  5
205E2
  8
01
 10
659.4527676776165
 20
-472.6793662042816
 30
0.0
 11
658.9527676776165
 21
-472.5793650408845
 31
0.0
  0
LINE
  5
205E3
  8
01
 10
659.4527676776165
 20
-474.2793662042818
 30
0.0
 11
658.9527676776165
 21
-474.1793650408845
 31
0.0
  0
LINE
  5
205E4
  8
01
 10
655.9527676776165
 20
-470.3793580605015
 30
0.0
 11
655.4527676776165
 21
-470.2793568971043
 31
0.0
  0
LINE
  5
205E5
  8
01
 10
659.4527676776165
 20
-471.0793662042817
 30
0.0
 11
658.9527676776165
 21
-470.9793650408845
 31
0.0
  0
LINE
  5
205E6
  8
01
 10
655.4527676776165
 20
-471.8793568971043
 30
0.0
 11
659.4527676776165
 21
-471.0793662042817
 31
0.0
  0
LINE
  5
205E7
  8
01
 10
655.4527676776165
 20
-475.0793568971043
 30
0.0
 11
659.4527676776165
 21
-474.2793662042818
 31
0.0
  0
LINE
  5
205E8
  8
01
 10
658.320732416599
 20
-463.0793635702677
 30
0.0
 11
657.7324558415565
 21
-462.7675937140156
 31
0.0
  0
LINE
  5
205E9
  8
01
 10
656.3583973277235
 20
-463.8793590043187
 30
0.0
 11
658.320732416599
 21
-463.0793635702677
 31
0.0
  0
LINE
  5
205EA
  8
01
 10
655.9527676776165
 20
-516.7793580605268
 30
0.0
 11
655.4527676776165
 21
-516.6793568971291
 31
0.0
  0
LINE
  5
205EB
  8
01
 10
655.4527676776165
 20
-516.6793568971291
 30
0.0
 11
659.4527676776165
 21
-515.8793662043109
 31
0.0
  0
LINE
  5
205EC
  8
01
 10
659.4527676776165
 20
-515.8793662043109
 30
0.0
 11
658.9527676776165
 21
-515.7793650409133
 31
0.0
  0
LINE
  5
205ED
  8
01
 10
655.9527676776165
 20
-515.1793580605269
 30
0.0
 11
655.4527676776165
 21
-515.0793568971292
 31
0.0
  0
LINE
  5
205EE
  8
01
 10
655.4527676776165
 20
-515.0793568971292
 30
0.0
 11
659.4527676776165
 21
-514.279366204311
 31
0.0
  0
LINE
  5
205EF
  8
01
 10
659.4527676776165
 20
-514.279366204311
 30
0.0
 11
658.9527676776165
 21
-514.1793650409134
 31
0.0
  0
LINE
  5
205F0
  8
01
 10
655.9527676776165
 20
-513.5793580605269
 30
0.0
 11
655.4527676776165
 21
-513.4793568971293
 31
0.0
  0
LINE
  5
205F1
  8
01
 10
655.4527676776165
 20
-513.4793568971293
 30
0.0
 11
659.4527676776165
 21
-512.679366204311
 31
0.0
  0
LINE
  5
205F2
  8
01
 10
659.4527676776165
 20
-512.679366204311
 30
0.0
 11
658.9527676776165
 21
-512.5793650409134
 31
0.0
  0
LINE
  5
205F3
  8
01
 10
655.9527676776165
 20
-511.9793580605227
 30
0.0
 11
655.4527676776165
 21
-511.879356897125
 31
0.0
  0
LINE
  5
205F4
  8
01
 10
655.4527676776165
 20
-511.879356897125
 30
0.0
 11
659.4527676776165
 21
-511.0793662043067
 31
0.0
  0
LINE
  5
205F5
  8
01
 10
659.4527676776165
 20
-511.0793662043067
 30
0.0
 11
658.9527676776165
 21
-510.979365040909
 31
0.0
  0
LINE
  5
205F6
  8
01
 10
655.9527676776165
 20
-510.3793580605227
 30
0.0
 11
655.4527676776165
 21
-510.2793568971251
 31
0.0
  0
LINE
  5
205F7
  8
01
 10
655.4527676776165
 20
-510.2793568971251
 30
0.0
 11
659.4527676776165
 21
-509.4793662043068
 31
0.0
  0
LINE
  5
205F8
  8
01
 10
659.4527676776165
 20
-509.4793662043068
 30
0.0
 11
658.9527676776165
 21
-509.3793650409091
 31
0.0
  0
LINE
  5
205F9
  8
01
 10
655.9527676776165
 20
-508.7793580605228
 30
0.0
 11
655.4527676776165
 21
-508.6793568971252
 31
0.0
  0
LINE
  5
205FA
  8
01
 10
655.4527676776165
 20
-508.6793568971252
 30
0.0
 11
659.4527676776165
 21
-507.8793662043069
 31
0.0
  0
LINE
  5
205FB
  8
01
 10
659.4527676776165
 20
-507.8793662043069
 30
0.0
 11
658.9527676776165
 21
-507.7793650409092
 31
0.0
  0
LINE
  5
205FC
  8
01
 10
655.9527676776165
 20
-507.1793580605229
 30
0.0
 11
655.4527676776165
 21
-507.0793568971253
 31
0.0
  0
LINE
  5
205FD
  8
01
 10
655.4527676776165
 20
-507.0793568971253
 30
0.0
 11
659.4527676776165
 21
-506.279366204307
 31
0.0
  0
LINE
  5
205FE
  8
01
 10
659.4527676776165
 20
-506.279366204307
 30
0.0
 11
658.9527676776165
 21
-506.1793650409093
 31
0.0
  0
LINE
  5
205FF
  8
01
 10
655.9527676776165
 20
-505.5793580605186
 30
0.0
 11
655.4527676776165
 21
-505.4793568971209
 31
0.0
  0
LINE
  5
20600
  8
01
 10
655.4527676776165
 20
-505.4793568971209
 30
0.0
 11
659.4527676776165
 21
-504.6793662043027
 31
0.0
  0
LINE
  5
20601
  8
01
 10
659.4527676776165
 20
-504.6793662043027
 30
0.0
 11
658.9527676776165
 21
-504.579365040905
 31
0.0
  0
LINE
  5
20602
  8
01
 10
655.9527676776165
 20
-503.9793580605187
 30
0.0
 11
655.4527676776165
 21
-503.879356897121
 31
0.0
  0
LINE
  5
20603
  8
01
 10
655.4527676776165
 20
-503.879356897121
 30
0.0
 11
659.4527676776165
 21
-503.0793662043027
 31
0.0
  0
LINE
  5
20604
  8
01
 10
659.4527676776165
 20
-503.0793662043027
 30
0.0
 11
658.9527676776165
 21
-502.9793650409051
 31
0.0
  0
LINE
  5
20605
  8
01
 10
655.9527676776165
 20
-502.3793580605188
 30
0.0
 11
655.4527676776165
 21
-502.2793568971211
 31
0.0
  0
LINE
  5
20606
  8
01
 10
655.4527676776165
 20
-502.2793568971211
 30
0.0
 11
659.4527676776165
 21
-501.4793662043028
 31
0.0
  0
LINE
  5
20607
  8
01
 10
659.4527676776165
 20
-501.4793662043028
 30
0.0
 11
658.9527676776165
 21
-501.3793650409052
 31
0.0
  0
LINE
  5
20608
  8
01
 10
655.9527676776165
 20
-500.7793580605189
 30
0.0
 11
655.4527676776165
 21
-500.6793568971212
 31
0.0
  0
LINE
  5
20609
  8
01
 10
655.4527676776165
 20
-500.6793568971212
 30
0.0
 11
659.4527676776165
 21
-499.8793662043029
 31
0.0
  0
LINE
  5
2060A
  8
01
 10
659.4527676776165
 20
-499.8793662043029
 30
0.0
 11
658.9527676776165
 21
-499.7793650409052
 31
0.0
  0
LINE
  5
2060B
  8
01
 10
655.9527676776165
 20
-499.1793580605145
 30
0.0
 11
655.4527676776165
 21
-499.0793568971168
 31
0.0
  0
LINE
  5
2060C
  8
01
 10
655.4527676776165
 20
-499.0793568971168
 30
0.0
 11
659.4527676776165
 21
-498.2793662042986
 31
0.0
  0
LINE
  5
2060D
  8
01
 10
659.4527676776165
 20
-498.2793662042986
 30
0.0
 11
658.9527676776165
 21
-498.1793650409009
 31
0.0
  0
LINE
  5
2060E
  8
01
 10
655.9527676776165
 20
-497.5793580605146
 30
0.0
 11
655.4527676776165
 21
-497.4793568971169
 31
0.0
  0
LINE
  5
2060F
  8
01
 10
655.4527676776165
 20
-497.4793568971169
 30
0.0
 11
659.4527676776165
 21
-496.6793662042987
 31
0.0
  0
LINE
  5
20610
  8
01
 10
659.4527676776165
 20
-496.6793662042987
 30
0.0
 11
658.9527676776165
 21
-496.579365040901
 31
0.0
  0
LINE
  5
20611
  8
01
 10
655.9527676776165
 20
-495.9793580605147
 30
0.0
 11
655.4527676776165
 21
-495.879356897117
 31
0.0
  0
LINE
  5
20612
  8
01
 10
655.4527676776165
 20
-495.879356897117
 30
0.0
 11
659.4527676776165
 21
-495.0793662042988
 31
0.0
  0
LINE
  5
20613
  8
01
 10
659.4527676776165
 20
-495.0793662042988
 30
0.0
 11
658.9527676776165
 21
-494.9793650409011
 31
0.0
  0
LINE
  5
20614
  8
01
 10
655.9527676776165
 20
-494.3793580605148
 30
0.0
 11
655.4527676776165
 21
-494.2793568971171
 31
0.0
  0
LINE
  5
20615
  8
01
 10
655.4527676776165
 20
-494.2793568971171
 30
0.0
 11
659.4527676776165
 21
-493.4793662042989
 31
0.0
  0
LINE
  5
20616
  8
01
 10
659.4527676776165
 20
-493.4793662042989
 30
0.0
 11
658.9527676776165
 21
-493.3793650409012
 31
0.0
  0
LINE
  5
20617
  8
01
 10
655.9527676776165
 20
-492.7793580605104
 30
0.0
 11
655.4527676776165
 21
-492.6793568971128
 31
0.0
  0
LINE
  5
20618
  8
01
 10
655.4527676776165
 20
-492.6793568971128
 30
0.0
 11
659.4527676776165
 21
-491.8793662042945
 31
0.0
  0
LINE
  5
20619
  8
01
 10
659.4527676776165
 20
-491.8793662042945
 30
0.0
 11
658.9527676776165
 21
-491.7793650408968
 31
0.0
  0
LINE
  5
2061A
  8
01
 10
658.9527676776165
 20
-516.7793650407791
 30
0.0
 11
655.9527676776167
 21
-516.7793580603944
 31
0.0
  0
LINE
  5
2061B
  8
01
 10
655.9527676776165
 20
-486.3793580605064
 30
0.0
 11
655.4527676776165
 21
-486.2793568971087
 31
0.0
  0
LINE
  5
2061C
  8
01
 10
655.4527676776165
 20
-489.479356897113
 30
0.0
 11
659.4527676776165
 21
-488.6793662042947
 31
0.0
  0
LINE
  5
2061D
  8
01
 10
659.4527676776165
 20
-487.0793662042948
 30
0.0
 11
658.9527676776165
 21
-486.9793650408971
 31
0.0
  0
LINE
  5
2061E
  8
01
 10
659.4527676776165
 20
-488.6793662042947
 30
0.0
 11
658.9527676776165
 21
-488.579365040897
 31
0.0
  0
LINE
  5
2061F
  8
01
 10
655.4527676776165
 20
-487.879356897113
 30
0.0
 11
659.4527676776165
 21
-487.0793662042948
 31
0.0
  0
LINE
  5
20620
  8
01
 10
655.9527676776165
 20
-487.9793580605107
 30
0.0
 11
655.4527676776165
 21
-487.879356897113
 31
0.0
  0
LINE
  5
20621
  8
01
 10
655.9527676776165
 20
-489.5793580605106
 30
0.0
 11
655.4527676776165
 21
-489.479356897113
 31
0.0
  0
LINE
  5
20622
  8
01
 10
659.4527676776165
 20
-490.2793662042946
 30
0.0
 11
658.9527676776165
 21
-490.1793650408969
 31
0.0
  0
LINE
  5
20623
  8
01
 10
655.4527676776165
 20
-491.0793568971129
 30
0.0
 11
659.4527676776165
 21
-490.2793662042946
 31
0.0
  0
LINE
  5
20624
  8
01
 10
655.9527676776165
 20
-491.1793580605105
 30
0.0
 11
655.4527676776165
 21
-491.0793568971129
 31
0.0
  0
LINE
  5
20625
  8
01
 10
655.4527676776165
 20
-481.4793568971043
 30
0.0
 11
659.4527676776165
 21
-480.6793662042861
 31
0.0
  0
LINE
  5
20626
  8
01
 10
655.4527676776165
 20
-479.8793568971044
 30
0.0
 11
659.4527676776165
 21
-479.0793662042861
 31
0.0
  0
LINE
  5
20627
  8
01
 10
655.9527676776165
 20
-478.3793580605019
 30
0.0
 11
655.4527676776165
 21
-478.2793568971043
 31
0.0
  0
LINE
  5
20628
  8
01
 10
655.9527676776165
 20
-479.9793580605021
 30
0.0
 11
655.4527676776165
 21
-479.8793568971044
 31
0.0
  0
LINE
  5
20629
  8
01
 10
659.4527676776165
 20
-479.0793662042861
 30
0.0
 11
658.9527676776165
 21
-478.9793650408885
 31
0.0
  0
LINE
  5
2062A
  8
01
 10
659.4527676776165
 20
-480.6793662042861
 30
0.0
 11
658.9527676776165
 21
-480.5793650408884
 31
0.0
  0
LINE
  5
2062B
  8
01
 10
655.4527676776165
 20
-484.6793568971088
 30
0.0
 11
659.4527676776165
 21
-483.8793662042905
 31
0.0
  0
LINE
  5
2062C
  8
01
 10
655.9527676776165
 20
-484.7793580605065
 30
0.0
 11
655.4527676776165
 21
-484.6793568971088
 31
0.0
  0
LINE
  5
2062D
  8
01
 10
655.9527676776165
 20
-483.1793580605063
 30
0.0
 11
655.4527676776165
 21
-483.0793568971087
 31
0.0
  0
LINE
  5
2062E
  8
01
 10
659.4527676776165
 20
-485.4793662042904
 30
0.0
 11
658.9527676776165
 21
-485.3793650408928
 31
0.0
  0
LINE
  5
2062F
  8
01
 10
659.4527676776165
 20
-483.8793662042905
 30
0.0
 11
658.9527676776165
 21
-483.7793650408929
 31
0.0
  0
LINE
  5
20630
  8
01
 10
655.9527676776165
 20
-481.579358060502
 30
0.0
 11
655.4527676776165
 21
-481.4793568971043
 31
0.0
  0
LINE
  5
20631
  8
01
 10
659.4527676776165
 20
-482.2793662042904
 30
0.0
 11
658.9527676776165
 21
-482.1793650408927
 31
0.0
  0
LINE
  5
20632
  8
01
 10
655.4527676776165
 20
-483.0793568971087
 30
0.0
 11
659.4527676776165
 21
-482.2793662042904
 31
0.0
  0
LINE
  5
20633
  8
01
 10
655.4527676776165
 20
-486.2793568971087
 30
0.0
 11
659.4527676776165
 21
-485.4793662042904
 31
0.0
  0
LINE
  5
20634
  8
1CENTER
 10
475.4527211417181
 20
-458.8184478619104
 30
0.0
 11
475.4527211417181
 21
-521.048380005601
 31
0.0
  0
LINE
  5
20636
  8
01
 10
477.4526746058202
 20
-478.2793577996823
 30
0.0
 11
473.4526746058202
 21
-477.479367106864
 31
0.0
  0
LINE
  5
20637
  8
01
 10
477.4526746058202
 20
-476.6793577996822
 30
0.0
 11
473.4526746058202
 21
-475.8793671068597
 31
0.0
  0
LINE
  5
20638
  8
01
 10
476.9526746058202
 20
-476.77935896308
 30
0.0
 11
477.4526746058202
 21
-476.6793577996822
 31
0.0
  0
LINE
  5
20639
  8
01
 10
476.9526746058202
 20
-475.1793589630794
 30
0.0
 11
477.4526746058202
 21
-475.0793577996823
 31
0.0
  0
LINE
  5
2063A
  8
01
 10
473.4526746058202
 20
-475.8793671068597
 30
0.0
 11
473.9526746058202
 21
-475.7793659434626
 31
0.0
  0
LINE
  5
2063B
  8
01
 10
473.4526746058202
 20
-477.479367106864
 30
0.0
 11
473.9526746058202
 21
-477.3793659434663
 31
0.0
  0
LINE
  5
2063C
  8
01
 10
477.4526746058202
 20
-470.2793577996823
 30
0.0
 11
473.4526746058202
 21
-469.4793671068597
 31
0.0
  0
LINE
  5
2063D
  8
01
 10
477.4526746058202
 20
-467.0793577996823
 30
0.0
 11
473.6790816580242
 21
-466.279366580057
 31
0.0
  0
LINE
  5
2063E
  8
01
 10
477.4526746058202
 20
-468.6793577996822
 30
0.0
 11
473.4526746058202
 21
-467.8793671068597
 31
0.0
  0
LINE
  5
2063F
  8
01
 10
476.9998584637615
 20
-465.4793588532925
 30
0.0
 11
474.131895762431
 21
-464.6793655264514
 31
0.0
  0
LINE
  5
20640
  8
01
 10
476.0898731150821
 20
-464.0307957033371
 30
0.0
 11
476.5470449557132
 21
-463.8793599068967
 31
0.0
  0
LINE
  5
20641
  8
01
 10
476.9526746058202
 20
-467.1793589630794
 30
0.0
 11
477.4526746058202
 21
-467.0793577996823
 31
0.0
  0
LINE
  5
20642
  8
01
 10
476.9526746058202
 20
-468.7793589630793
 30
0.0
 11
477.4526746058202
 21
-468.6793577996822
 31
0.0
  0
LINE
  5
20643
  8
01
 10
476.5317600086115
 20
-465.5921283656425
 30
0.0
 11
476.9998584637615
 21
-465.4793588532925
 31
0.0
  0
LINE
  5
20644
  8
01
 10
473.6790816580242
 20
-466.279366580057
 30
0.0
 11
474.2156753932953
 21
-466.1500958824271
 31
0.0
  0
LINE
  5
20645
  8
01
 10
473.4526746058202
 20
-469.4793671068597
 30
0.0
 11
473.9526746058202
 21
-469.3793659434627
 31
0.0
  0
LINE
  5
20646
  8
01
 10
473.4526746058202
 20
-467.8793671068597
 30
0.0
 11
473.9526746058202
 21
-467.7793659434626
 31
0.0
  0
LINE
  5
20647
  8
01
 10
474.131895762431
 20
-464.6793655264514
 30
0.0
 11
474.6836452262343
 21
-464.4966013838234
 31
0.0
  0
LINE
  5
20648
  8
01
 10
477.4526746058202
 20
-473.4793577996822
 30
0.0
 11
473.4526746058202
 21
-472.6793671068596
 31
0.0
  0
LINE
  5
20649
  8
01
 10
476.9526746058202
 20
-473.5793589630793
 30
0.0
 11
477.4526746058202
 21
-473.4793577996822
 31
0.0
  0
LINE
  5
2064A
  8
01
 10
476.9526746058202
 20
-471.9793589630794
 30
0.0
 11
477.4526746058202
 21
-471.8793577996823
 31
0.0
  0
LINE
  5
2064B
  8
01
 10
473.4526746058202
 20
-472.6793671068596
 30
0.0
 11
473.9526746058202
 21
-472.5793659434625
 31
0.0
  0
LINE
  5
2064C
  8
01
 10
473.4526746058202
 20
-474.2793671068598
 30
0.0
 11
473.9526746058202
 21
-474.1793659434625
 31
0.0
  0
LINE
  5
2064D
  8
01
 10
476.9526746058202
 20
-470.3793589630795
 30
0.0
 11
477.4526746058202
 21
-470.2793577996823
 31
0.0
  0
LINE
  5
2064E
  8
01
 10
473.4526746058202
 20
-471.0793671068597
 30
0.0
 11
473.9526746058202
 21
-470.9793659434625
 31
0.0
  0
LINE
  5
2064F
  8
01
 10
477.4526746058202
 20
-471.8793577996823
 30
0.0
 11
473.4526746058202
 21
-471.0793671068597
 31
0.0
  0
LINE
  5
20650
  8
01
 10
477.4526746058202
 20
-475.0793577996823
 30
0.0
 11
473.4526746058202
 21
-474.2793671068598
 31
0.0
  0
LINE
  5
20651
  8
01
 10
474.5847098668378
 20
-463.0793644728457
 30
0.0
 11
475.1729864418802
 21
-462.7675946165936
 31
0.0
  0
LINE
  5
20652
  8
01
 10
476.5470449557132
 20
-463.8793599068967
 30
0.0
 11
474.5847098668378
 21
-463.0793644728457
 31
0.0
  0
LINE
  5
20653
  8
01
 10
476.9526746058202
 20
-516.7793589631049
 30
0.0
 11
477.4526746058202
 21
-516.6793577997072
 31
0.0
  0
LINE
  5
20654
  8
01
 10
477.4526746058202
 20
-516.6793577997072
 30
0.0
 11
473.4526746058202
 21
-515.8793671068888
 31
0.0
  0
LINE
  5
20655
  8
01
 10
473.4526746058202
 20
-515.8793671068888
 30
0.0
 11
473.9526746058202
 21
-515.7793659434911
 31
0.0
  0
LINE
  5
20656
  8
01
 10
476.9526746058202
 20
-515.179358963105
 30
0.0
 11
477.4526746058202
 21
-515.0793577997073
 31
0.0
  0
LINE
  5
20657
  8
01
 10
477.4526746058202
 20
-515.0793577997073
 30
0.0
 11
473.4526746058202
 21
-514.2793671068889
 31
0.0
  0
LINE
  5
20658
  8
01
 10
473.4526746058202
 20
-514.2793671068889
 30
0.0
 11
473.9526746058202
 21
-514.1793659434912
 31
0.0
  0
LINE
  5
20659
  8
01
 10
476.9526746058202
 20
-513.579358963105
 30
0.0
 11
477.4526746058202
 21
-513.4793577997074
 31
0.0
  0
LINE
  5
2065A
  8
01
 10
477.4526746058202
 20
-513.4793577997074
 30
0.0
 11
473.4526746058202
 21
-512.679367106889
 31
0.0
  0
LINE
  5
2065B
  8
01
 10
473.4526746058202
 20
-512.679367106889
 30
0.0
 11
473.9526746058202
 21
-512.5793659434913
 31
0.0
  0
LINE
  5
2065C
  8
01
 10
476.9526746058202
 20
-511.9793589631007
 30
0.0
 11
477.4526746058202
 21
-511.879357799703
 31
0.0
  0
LINE
  5
2065D
  8
01
 10
477.4526746058202
 20
-511.879357799703
 30
0.0
 11
473.4526746058202
 21
-511.0793671068847
 31
0.0
  0
LINE
  5
2065E
  8
01
 10
473.4526746058202
 20
-511.0793671068847
 30
0.0
 11
473.9526746058202
 21
-510.979365943487
 31
0.0
  0
LINE
  5
2065F
  8
01
 10
476.9526746058202
 20
-510.3793589631007
 30
0.0
 11
477.4526746058202
 21
-510.2793577997031
 31
0.0
  0
LINE
  5
20660
  8
01
 10
477.4526746058202
 20
-510.2793577997031
 30
0.0
 11
473.4526746058202
 21
-509.4793671068848
 31
0.0
  0
LINE
  5
20661
  8
01
 10
473.4526746058202
 20
-509.4793671068848
 30
0.0
 11
473.9526746058202
 21
-509.3793659434871
 31
0.0
  0
LINE
  5
20662
  8
01
 10
476.9526746058202
 20
-508.7793589631008
 30
0.0
 11
477.4526746058202
 21
-508.6793577997032
 31
0.0
  0
LINE
  5
20663
  8
01
 10
477.4526746058202
 20
-508.6793577997032
 30
0.0
 11
473.4526746058202
 21
-507.8793671068849
 31
0.0
  0
LINE
  5
20664
  8
01
 10
473.4526746058202
 20
-507.8793671068849
 30
0.0
 11
473.9526746058202
 21
-507.7793659434872
 31
0.0
  0
LINE
  5
20665
  8
01
 10
476.9526746058202
 20
-507.1793589631009
 30
0.0
 11
477.4526746058202
 21
-507.0793577997032
 31
0.0
  0
LINE
  5
20666
  8
01
 10
477.4526746058202
 20
-507.0793577997032
 30
0.0
 11
473.4526746058202
 21
-506.279367106885
 31
0.0
  0
LINE
  5
20667
  8
01
 10
473.4526746058202
 20
-506.279367106885
 30
0.0
 11
473.9526746058202
 21
-506.1793659434873
 31
0.0
  0
LINE
  5
20668
  8
01
 10
476.9526746058202
 20
-505.5793589630966
 30
0.0
 11
477.4526746058202
 21
-505.4793577996989
 31
0.0
  0
LINE
  5
20669
  8
01
 10
477.4526746058202
 20
-505.4793577996989
 30
0.0
 11
473.4526746058202
 21
-504.6793671068806
 31
0.0
  0
LINE
  5
2066A
  8
01
 10
473.4526746058202
 20
-504.6793671068806
 30
0.0
 11
473.9526746058202
 21
-504.579365943483
 31
0.0
  0
LINE
  5
2066B
  8
01
 10
476.9526746058202
 20
-503.9793589630967
 30
0.0
 11
477.4526746058202
 21
-503.879357799699
 31
0.0
  0
LINE
  5
2066C
  8
01
 10
477.4526746058202
 20
-503.879357799699
 30
0.0
 11
473.4526746058202
 21
-503.0793671068807
 31
0.0
  0
LINE
  5
2066D
  8
01
 10
473.4526746058202
 20
-503.0793671068807
 30
0.0
 11
473.9526746058202
 21
-502.9793659434831
 31
0.0
  0
LINE
  5
2066E
  8
01
 10
476.9526746058202
 20
-502.3793589630968
 30
0.0
 11
477.4526746058202
 21
-502.2793577996991
 31
0.0
  0
LINE
  5
2066F
  8
01
 10
477.4526746058202
 20
-502.2793577996991
 30
0.0
 11
473.4526746058202
 21
-501.4793671068808
 31
0.0
  0
LINE
  5
20670
  8
01
 10
473.4526746058202
 20
-501.4793671068808
 30
0.0
 11
473.9526746058202
 21
-501.3793659434832
 31
0.0
  0
LINE
  5
20671
  8
01
 10
476.9526746058202
 20
-500.7793589630969
 30
0.0
 11
477.4526746058202
 21
-500.6793577996992
 31
0.0
  0
LINE
  5
20672
  8
01
 10
477.4526746058202
 20
-500.6793577996992
 30
0.0
 11
473.4526746058202
 21
-499.8793671068809
 31
0.0
  0
LINE
  5
20673
  8
01
 10
473.4526746058202
 20
-499.8793671068809
 30
0.0
 11
473.9526746058202
 21
-499.7793659434832
 31
0.0
  0
LINE
  5
20674
  8
01
 10
476.9526746058202
 20
-499.1793589630925
 30
0.0
 11
477.4526746058202
 21
-499.0793577996948
 31
0.0
  0
LINE
  5
20675
  8
01
 10
477.4526746058202
 20
-499.0793577996948
 30
0.0
 11
473.4526746058202
 21
-498.2793671068766
 31
0.0
  0
LINE
  5
20676
  8
01
 10
473.4526746058202
 20
-498.2793671068766
 30
0.0
 11
473.9526746058202
 21
-498.1793659434789
 31
0.0
  0
LINE
  5
20677
  8
01
 10
476.9526746058202
 20
-497.5793589630926
 30
0.0
 11
477.4526746058202
 21
-497.4793577996949
 31
0.0
  0
LINE
  5
20678
  8
01
 10
477.4526746058202
 20
-497.4793577996949
 30
0.0
 11
473.4526746058202
 21
-496.6793671068767
 31
0.0
  0
LINE
  5
20679
  8
01
 10
473.4526746058202
 20
-496.6793671068767
 30
0.0
 11
473.9526746058202
 21
-496.579365943479
 31
0.0
  0
LINE
  5
2067A
  8
01
 10
476.9526746058202
 20
-495.9793589630927
 30
0.0
 11
477.4526746058202
 21
-495.879357799695
 31
0.0
  0
LINE
  5
2067B
  8
01
 10
477.4526746058202
 20
-495.879357799695
 30
0.0
 11
473.4526746058202
 21
-495.0793671068768
 31
0.0
  0
LINE
  5
2067C
  8
01
 10
473.4526746058202
 20
-495.0793671068768
 30
0.0
 11
473.9526746058202
 21
-494.9793659434791
 31
0.0
  0
LINE
  5
2067D
  8
01
 10
476.9526746058202
 20
-494.3793589630928
 30
0.0
 11
477.4526746058202
 21
-494.2793577996951
 31
0.0
  0
LINE
  5
2067E
  8
01
 10
477.4526746058202
 20
-494.2793577996951
 30
0.0
 11
473.4526746058202
 21
-493.4793671068769
 31
0.0
  0
LINE
  5
2067F
  8
01
 10
473.4526746058202
 20
-493.4793671068769
 30
0.0
 11
473.9526746058202
 21
-493.3793659434792
 31
0.0
  0
LINE
  5
20680
  8
01
 10
476.9526746058202
 20
-492.7793589630884
 30
0.0
 11
477.4526746058202
 21
-492.6793577996908
 31
0.0
  0
LINE
  5
20681
  8
01
 10
477.4526746058202
 20
-492.6793577996908
 30
0.0
 11
473.4526746058202
 21
-491.8793671068725
 31
0.0
  0
LINE
  5
20682
  8
01
 10
473.4526746058202
 20
-491.8793671068725
 30
0.0
 11
473.9526746058202
 21
-491.7793659434748
 31
0.0
  0
LINE
  5
20683
  8
01
 10
473.9526746058202
 20
-516.7793659433571
 30
0.0
 11
476.9526746058199
 21
-516.7793589629724
 31
0.0
  0
LINE
  5
20684
  8
01
 10
476.9526746058202
 20
-486.3793589630844
 30
0.0
 11
477.4526746058202
 21
-486.2793577996867
 31
0.0
  0
LINE
  5
20685
  8
01
 10
477.4526746058202
 20
-489.4793577996909
 30
0.0
 11
473.4526746058202
 21
-488.6793671068727
 31
0.0
  0
LINE
  5
20686
  8
01
 10
473.4526746058202
 20
-487.0793671068728
 30
0.0
 11
473.9526746058202
 21
-486.9793659434751
 31
0.0
  0
LINE
  5
20687
  8
01
 10
473.4526746058202
 20
-488.6793671068727
 30
0.0
 11
473.9526746058202
 21
-488.579365943475
 31
0.0
  0
LINE
  5
20688
  8
01
 10
477.4526746058202
 20
-487.879357799691
 30
0.0
 11
473.4526746058202
 21
-487.0793671068728
 31
0.0
  0
LINE
  5
20689
  8
01
 10
476.9526746058202
 20
-487.9793589630887
 30
0.0
 11
477.4526746058202
 21
-487.879357799691
 31
0.0
  0
LINE
  5
2068A
  8
01
 10
476.9526746058202
 20
-489.5793589630886
 30
0.0
 11
477.4526746058202
 21
-489.4793577996909
 31
0.0
  0
LINE
  5
2068B
  8
01
 10
473.4526746058202
 20
-490.2793671068726
 30
0.0
 11
473.9526746058202
 21
-490.1793659434749
 31
0.0
  0
LINE
  5
2068C
  8
01
 10
477.4526746058202
 20
-491.0793577996909
 30
0.0
 11
473.4526746058202
 21
-490.2793671068726
 31
0.0
  0
LINE
  5
2068D
  8
01
 10
476.9526746058202
 20
-491.1793589630885
 30
0.0
 11
477.4526746058202
 21
-491.0793577996909
 31
0.0
  0
LINE
  5
2068E
  8
01
 10
477.4526746058202
 20
-481.4793577996823
 30
0.0
 11
473.4526746058202
 21
-480.679367106864
 31
0.0
  0
LINE
  5
2068F
  8
01
 10
477.4526746058202
 20
-479.8793577996824
 30
0.0
 11
473.4526746058202
 21
-479.0793671068641
 31
0.0
  0
LINE
  5
20690
  8
01
 10
476.9526746058202
 20
-478.3793589630799
 30
0.0
 11
477.4526746058202
 21
-478.2793577996823
 31
0.0
  0
LINE
  5
20691
  8
01
 10
476.9526746058202
 20
-479.9793589630801
 30
0.0
 11
477.4526746058202
 21
-479.8793577996824
 31
0.0
  0
LINE
  5
20692
  8
01
 10
473.4526746058202
 20
-479.0793671068641
 30
0.0
 11
473.9526746058202
 21
-478.9793659434665
 31
0.0
  0
LINE
  5
20693
  8
01
 10
473.4526746058202
 20
-480.679367106864
 30
0.0
 11
473.9526746058202
 21
-480.5793659434664
 31
0.0
  0
LINE
  5
20694
  8
01
 10
477.4526746058202
 20
-484.6793577996868
 30
0.0
 11
473.4526746058202
 21
-483.8793671068685
 31
0.0
  0
LINE
  5
20695
  8
01
 10
476.9526746058202
 20
-484.7793589630845
 30
0.0
 11
477.4526746058202
 21
-484.6793577996868
 31
0.0
  0
LINE
  5
20696
  8
01
 10
476.9526746058202
 20
-483.1793589630843
 30
0.0
 11
477.4526746058202
 21
-483.0793577996866
 31
0.0
  0
LINE
  5
20697
  8
01
 10
473.4526746058202
 20
-485.4793671068684
 30
0.0
 11
473.9526746058202
 21
-485.3793659434708
 31
0.0
  0
LINE
  5
20698
  8
01
 10
473.4526746058202
 20
-483.8793671068685
 30
0.0
 11
473.9526746058202
 21
-483.7793659434709
 31
0.0
  0
LINE
  5
20699
  8
01
 10
476.9526746058202
 20
-481.57935896308
 30
0.0
 11
477.4526746058202
 21
-481.4793577996823
 31
0.0
  0
LINE
  5
2069A
  8
01
 10
473.4526746058202
 20
-482.2793671068684
 30
0.0
 11
473.9526746058202
 21
-482.1793659434707
 31
0.0
  0
LINE
  5
2069B
  8
01
 10
477.4526746058202
 20
-483.0793577996866
 30
0.0
 11
473.4526746058202
 21
-482.2793671068684
 31
0.0
  0
LINE
  5
2069C
  8
01
 10
477.4526746058202
 20
-486.2793577996867
 30
0.0
 11
473.4526746058202
 21
-485.4793671068684
 31
0.0
  0
TEXT
  5
2069D
  8
01
  6
CONTINUOUS
 10
764.7007362392833
 20
-561.6285442536991
 30
0.0
 40
3.5
  1
PB
  0
TEXT
  5
2069E
  8
01
  6
CONTINUOUS
 10
777.8361543844485
 20
-561.6285442536991
 30
0.0
 40
3.5
  1
合板9mm以上
  0
LINE
  5
2069F
  8
1CENTER
 10
789.9241355096312
 20
-606.3129095208277
 30
0.0
 11
727.6942033659407
 21
-606.3129095208277
 31
0.0
  0
LINE
  5
206A1
  8
01
 10
770.4632255718593
 20
-604.3129560567256
 30
0.0
 11
771.2632162646776
 21
-608.3129560567256
 31
0.0
  0
LINE
  5
206A2
  8
01
 10
772.0632255718594
 20
-604.3129560567256
 30
0.0
 11
772.863216264682
 21
-608.3129560567256
 31
0.0
  0
LINE
  5
206A3
  8
01
 10
771.9632244084617
 20
-604.8129560567256
 30
0.0
 11
772.0632255718594
 21
-604.3129560567256
 31
0.0
  0
LINE
  5
206A4
  8
01
 10
773.5632244084622
 20
-604.8129560567256
 30
0.0
 11
773.6632255718594
 21
-604.3129560567256
 31
0.0
  0
LINE
  5
206A5
  8
01
 10
772.863216264682
 20
-608.3129560567256
 30
0.0
 11
772.9632174280791
 21
-607.8129560567256
 31
0.0
  0
LINE
  5
206A6
  8
01
 10
771.2632162646776
 20
-608.3129560567256
 30
0.0
 11
771.3632174280754
 21
-607.8129560567256
 31
0.0
  0
LINE
  5
206A7
  8
01
 10
778.4632255718593
 20
-604.3129560567256
 30
0.0
 11
779.2632162646819
 21
-608.3129560567256
 31
0.0
  0
LINE
  5
206A8
  8
01
 10
781.6632255718594
 20
-604.3129560567256
 30
0.0
 11
782.4632167914847
 21
-608.0865490045217
 31
0.0
  0
LINE
  5
206A9
  8
01
 10
780.0632255718594
 20
-604.3129560567256
 30
0.0
 11
780.863216264682
 21
-608.3129560567256
 31
0.0
  0
LINE
  5
206AA
  8
01
 10
783.2632245182492
 20
-604.7657721987844
 30
0.0
 11
784.0632178450903
 21
-607.6337349001149
 31
0.0
  0
LINE
  5
206AB
  8
01
 10
784.7117876682046
 20
-605.6757575474637
 30
0.0
 11
784.863223464645
 21
-605.2185857068326
 31
0.0
  0
LINE
  5
206AC
  8
01
 10
781.5632244084622
 20
-604.8129560567256
 30
0.0
 11
781.6632255718594
 21
-604.3129560567256
 31
0.0
  0
LINE
  5
206AD
  8
01
 10
779.9632244084623
 20
-604.8129560567256
 30
0.0
 11
780.0632255718594
 21
-604.3129560567256
 31
0.0
  0
LINE
  5
206AE
  8
01
 10
783.1504550058992
 20
-605.2338706539343
 30
0.0
 11
783.2632245182492
 21
-604.7657721987844
 31
0.0
  0
LINE
  5
206AF
  8
01
 10
782.4632167914847
 20
-608.0865490045217
 30
0.0
 11
782.5924874891145
 21
-607.5499552692505
 31
0.0
  0
LINE
  5
206B0
  8
01
 10
779.2632162646819
 20
-608.3129560567256
 30
0.0
 11
779.363217428079
 21
-607.8129560567256
 31
0.0
  0
LINE
  5
206B1
  8
01
 10
780.863216264682
 20
-608.3129560567256
 30
0.0
 11
780.9632174280791
 21
-607.8129560567256
 31
0.0
  0
LINE
  5
206B2
  8
01
 10
784.0632178450903
 20
-607.6337349001149
 30
0.0
 11
784.2459819877183
 21
-607.0819854363116
 31
0.0
  0
LINE
  5
206B3
  8
01
 10
775.2632255718595
 20
-604.3129560567256
 30
0.0
 11
776.0632162646821
 21
-608.3129560567256
 31
0.0
  0
LINE
  5
206B4
  8
01
 10
775.1632244084624
 20
-604.8129560567256
 30
0.0
 11
775.2632255718595
 21
-604.3129560567256
 31
0.0
  0
LINE
  5
206B5
  8
01
 10
776.7632244084623
 20
-604.8129560567256
 30
0.0
 11
776.8632255718594
 21
-604.3129560567256
 31
0.0
  0
LINE
  5
206B6
  8
01
 10
776.0632162646821
 20
-608.3129560567256
 30
0.0
 11
776.1632174280792
 21
-607.8129560567256
 31
0.0
  0
LINE
  5
206B7
  8
01
 10
774.4632162646819
 20
-608.3129560567256
 30
0.0
 11
774.563217428079
 21
-607.8129560567256
 31
0.0
  0
LINE
  5
206B8
  8
01
 10
778.3632244084622
 20
-604.8129560567256
 30
0.0
 11
778.4632255718593
 21
-604.3129560567256
 31
0.0
  0
LINE
  5
206B9
  8
01
 10
777.663216264682
 20
-608.3129560567256
 30
0.0
 11
777.7632174280791
 21
-607.8129560567256
 31
0.0
  0
LINE
  5
206BA
  8
01
 10
776.8632255718594
 20
-604.3129560567256
 30
0.0
 11
777.663216264682
 21
-608.3129560567256
 31
0.0
  0
LINE
  5
206BB
  8
01
 10
773.6632255718594
 20
-604.3129560567256
 30
0.0
 11
774.4632162646819
 21
-608.3129560567256
 31
0.0
  0
LINE
  5
206BC
  8
01
 10
785.663218898696
 20
-607.1809207957081
 30
0.0
 11
785.9749887549481
 21
-606.5926442206656
 31
0.0
  0
LINE
  5
206BD
  8
01
 10
784.863223464645
 20
-605.2185857068326
 30
0.0
 11
785.663218898696
 21
-607.1809207957081
 31
0.0
  0
LINE
  5
206BE
  8
01
 10
731.9632244084369
 20
-604.8129560567256
 30
0.0
 11
732.0632255718346
 21
-604.3129560567256
 31
0.0
  0
LINE
  5
206BF
  8
01
 10
732.0632255718346
 20
-604.3129560567256
 30
0.0
 11
732.8632162646527
 21
-608.3129560567256
 31
0.0
  0
LINE
  5
206C0
  8
01
 10
732.8632162646527
 20
-608.3129560567256
 30
0.0
 11
732.9632174280504
 21
-607.8129560567256
 31
0.0
  0
LINE
  5
206C1
  8
01
 10
733.5632244084368
 20
-604.8129560567256
 30
0.0
 11
733.6632255718345
 21
-604.3129560567256
 31
0.0
  0
LINE
  5
206C2
  8
01
 10
733.6632255718345
 20
-604.3129560567256
 30
0.0
 11
734.4632162646526
 21
-608.3129560567256
 31
0.0
  0
LINE
  5
206C3
  8
01
 10
734.4632162646526
 20
-608.3129560567256
 30
0.0
 11
734.5632174280504
 21
-607.8129560567256
 31
0.0
  0
LINE
  5
206C4
  8
01
 10
735.1632244084367
 20
-604.8129560567256
 30
0.0
 11
735.2632255718344
 21
-604.3129560567256
 31
0.0
  0
LINE
  5
206C5
  8
01
 10
735.2632255718344
 20
-604.3129560567256
 30
0.0
 11
736.0632162646525
 21
-608.3129560567256
 31
0.0
  0
LINE
  5
206C6
  8
01
 10
736.0632162646525
 20
-608.3129560567256
 30
0.0
 11
736.1632174280503
 21
-607.8129560567256
 31
0.0
  0
LINE
  5
206C7
  8
01
 10
736.7632244084409
 20
-604.8129560567256
 30
0.0
 11
736.8632255718387
 21
-604.3129560567256
 31
0.0
  0
LINE
  5
206C8
  8
01
 10
736.8632255718387
 20
-604.3129560567256
 30
0.0
 11
737.663216264657
 21
-608.3129560567256
 31
0.0
  0
LINE
  5
206C9
  8
01
 10
737.663216264657
 20
-608.3129560567256
 30
0.0
 11
737.7632174280545
 21
-607.8129560567256
 31
0.0
  0
LINE
  5
206CA
  8
01
 10
738.3632244084408
 20
-604.8129560567256
 30
0.0
 11
738.4632255718386
 21
-604.3129560567256
 31
0.0
  0
LINE
  5
206CB
  8
01
 10
738.4632255718386
 20
-604.3129560567256
 30
0.0
 11
739.2632162646569
 21
-608.3129560567256
 31
0.0
  0
LINE
  5
206CC
  8
01
 10
739.2632162646569
 20
-608.3129560567256
 30
0.0
 11
739.3632174280544
 21
-607.8129560567256
 31
0.0
  0
LINE
  5
206CD
  8
01
 10
739.9632244084407
 20
-604.8129560567256
 30
0.0
 11
740.0632255718385
 21
-604.3129560567256
 31
0.0
  0
LINE
  5
206CE
  8
01
 10
740.0632255718385
 20
-604.3129560567256
 30
0.0
 11
740.8632162646568
 21
-608.3129560567256
 31
0.0
  0
LINE
  5
206CF
  8
01
 10
740.8632162646568
 20
-608.3129560567256
 30
0.0
 11
740.9632174280543
 21
-607.8129560567256
 31
0.0
  0
LINE
  5
206D0
  8
01
 10
741.5632244084406
 20
-604.8129560567256
 30
0.0
 11
741.6632255718384
 21
-604.3129560567256
 31
0.0
  0
LINE
  5
206D1
  8
01
 10
741.6632255718384
 20
-604.3129560567256
 30
0.0
 11
742.4632162646567
 21
-608.3129560567256
 31
0.0
  0
LINE
  5
206D2
  8
01
 10
742.4632162646567
 20
-608.3129560567256
 30
0.0
 11
742.5632174280543
 21
-607.8129560567256
 31
0.0
  0
LINE
  5
206D3
  8
01
 10
743.1632244084451
 20
-604.8129560567256
 30
0.0
 11
743.2632255718427
 21
-604.3129560567256
 31
0.0
  0
LINE
  5
206D4
  8
01
 10
743.2632255718427
 20
-604.3129560567256
 30
0.0
 11
744.0632162646609
 21
-608.3129560567256
 31
0.0
  0
LINE
  5
206D5
  8
01
 10
744.0632162646609
 20
-608.3129560567256
 30
0.0
 11
744.1632174280587
 21
-607.8129560567256
 31
0.0
  0
LINE
  5
206D6
  8
01
 10
744.763224408445
 20
-604.8129560567256
 30
0.0
 11
744.8632255718426
 21
-604.3129560567256
 31
0.0
  0
LINE
  5
206D7
  8
01
 10
744.8632255718426
 20
-604.3129560567256
 30
0.0
 11
745.6632162646608
 21
-608.3129560567256
 31
0.0
  0
LINE
  5
206D8
  8
01
 10
745.6632162646608
 20
-608.3129560567256
 30
0.0
 11
745.7632174280586
 21
-607.8129560567256
 31
0.0
  0
LINE
  5
206D9
  8
01
 10
746.3632244084449
 20
-604.8129560567256
 30
0.0
 11
746.4632255718425
 21
-604.3129560567256
 31
0.0
  0
LINE
  5
206DA
  8
01
 10
746.4632255718425
 20
-604.3129560567256
 30
0.0
 11
747.2632162646607
 21
-608.3129560567256
 31
0.0
  0
LINE
  5
206DB
  8
01
 10
747.2632162646607
 20
-608.3129560567256
 30
0.0
 11
747.3632174280585
 21
-607.8129560567256
 31
0.0
  0
LINE
  5
206DC
  8
01
 10
747.9632244084448
 20
-604.8129560567256
 30
0.0
 11
748.0632255718424
 21
-604.3129560567256
 31
0.0
  0
LINE
  5
206DD
  8
01
 10
748.0632255718424
 20
-604.3129560567256
 30
0.0
 11
748.8632162646607
 21
-608.3129560567256
 31
0.0
  0
LINE
  5
206DE
  8
01
 10
748.8632162646607
 20
-608.3129560567256
 30
0.0
 11
748.9632174280584
 21
-607.8129560567256
 31
0.0
  0
LINE
  5
206DF
  8
01
 10
749.5632244084491
 20
-604.8129560567256
 30
0.0
 11
749.6632255718469
 21
-604.3129560567256
 31
0.0
  0
LINE
  5
206E0
  8
01
 10
749.6632255718469
 20
-604.3129560567256
 30
0.0
 11
750.4632162646651
 21
-608.3129560567256
 31
0.0
  0
LINE
  5
206E1
  8
01
 10
750.4632162646651
 20
-608.3129560567256
 30
0.0
 11
750.5632174280627
 21
-607.8129560567256
 31
0.0
  0
LINE
  5
206E2
  8
01
 10
751.163224408449
 20
-604.8129560567256
 30
0.0
 11
751.2632255718468
 21
-604.3129560567256
 31
0.0
  0
LINE
  5
206E3
  8
01
 10
751.2632255718468
 20
-604.3129560567256
 30
0.0
 11
752.063216264665
 21
-608.3129560567256
 31
0.0
  0
LINE
  5
206E4
  8
01
 10
752.063216264665
 20
-608.3129560567256
 30
0.0
 11
752.1632174280626
 21
-607.8129560567256
 31
0.0
  0
LINE
  5
206E5
  8
01
 10
752.7632244084489
 20
-604.8129560567256
 30
0.0
 11
752.8632255718467
 21
-604.3129560567256
 31
0.0
  0
LINE
  5
206E6
  8
01
 10
752.8632255718467
 20
-604.3129560567256
 30
0.0
 11
753.6632162646649
 21
-608.3129560567256
 31
0.0
  0
LINE
  5
206E7
  8
01
 10
753.6632162646649
 20
-608.3129560567256
 30
0.0
 11
753.7632174280625
 21
-607.8129560567256
 31
0.0
  0
LINE
  5
206E8
  8
01
 10
754.3632244084488
 20
-604.8129560567256
 30
0.0
 11
754.4632255718466
 21
-604.3129560567256
 31
0.0
  0
LINE
  5
206E9
  8
01
 10
754.4632255718466
 20
-604.3129560567256
 30
0.0
 11
755.2632162646648
 21
-608.3129560567256
 31
0.0
  0
LINE
  5
206EA
  8
01
 10
755.2632162646648
 20
-608.3129560567256
 30
0.0
 11
755.3632174280624
 21
-607.8129560567256
 31
0.0
  0
LINE
  5
206EB
  8
01
 10
755.9632244084532
 20
-604.8129560567256
 30
0.0
 11
756.0632255718508
 21
-604.3129560567256
 31
0.0
  0
LINE
  5
206EC
  8
01
 10
756.0632255718508
 20
-604.3129560567256
 30
0.0
 11
756.8632162646691
 21
-608.3129560567256
 31
0.0
  0
LINE
  5
206ED
  8
01
 10
756.8632162646691
 20
-608.3129560567256
 30
0.0
 11
756.9632174280669
 21
-607.8129560567256
 31
0.0
  0
LINE
  5
206EE
  8
01
 10
731.9632174281845
 20
-607.8129560567256
 30
0.0
 11
731.9632244085692
 21
-604.8129560567259
 31
0.0
  0
LINE
  5
206EF
  8
01
 10
762.3632244084572
 20
-604.8129560567256
 30
0.0
 11
762.463225571855
 21
-604.3129560567256
 31
0.0
  0
LINE
  5
206F0
  8
01
 10
759.2632255718506
 20
-604.3129560567256
 30
0.0
 11
760.0632162646689
 21
-608.3129560567256
 31
0.0
  0
LINE
  5
206F1
  8
01
 10
761.6632162646688
 20
-608.3129560567256
 30
0.0
 11
761.7632174280666
 21
-607.8129560567256
 31
0.0
  0
LINE
  5
206F2
  8
01
 10
760.0632162646689
 20
-608.3129560567256
 30
0.0
 11
760.1632174280667
 21
-607.8129560567256
 31
0.0
  0
LINE
  5
206F3
  8
01
 10
760.8632255718505
 20
-604.3129560567256
 30
0.0
 11
761.6632162646688
 21
-608.3129560567256
 31
0.0
  0
LINE
  5
206F4
  8
01
 10
760.763224408453
 20
-604.8129560567256
 30
0.0
 11
760.8632255718505
 21
-604.3129560567256
 31
0.0
  0
LINE
  5
206F5
  8
01
 10
759.1632244084531
 20
-604.8129560567256
 30
0.0
 11
759.2632255718506
 21
-604.3129560567256
 31
0.0
  0
LINE
  5
206F6
  8
01
 10
758.463216264669
 20
-608.3129560567256
 30
0.0
 11
758.5632174280668
 21
-607.8129560567256
 31
0.0
  0
LINE
  5
206F7
  8
01
 10
757.6632255718507
 20
-604.3129560567256
 30
0.0
 11
758.463216264669
 21
-608.3129560567256
 31
0.0
  0
LINE
  5
206F8
  8
01
 10
757.5632244084532
 20
-604.8129560567256
 30
0.0
 11
757.6632255718507
 21
-604.3129560567256
 31
0.0
  0
LINE
  5
206F9
  8
01
 10
767.2632255718593
 20
-604.3129560567256
 30
0.0
 11
768.0632162646775
 21
-608.3129560567256
 31
0.0
  0
LINE
  5
206FA
  8
01
 10
768.8632255718592
 20
-604.3129560567256
 30
0.0
 11
769.6632162646774
 21
-608.3129560567256
 31
0.0
  0
LINE
  5
206FB
  8
01
 10
770.3632244084617
 20
-604.8129560567256
 30
0.0
 11
770.4632255718593
 21
-604.3129560567256
 31
0.0
  0
LINE
  5
206FC
  8
01
 10
768.7632244084616
 20
-604.8129560567256
 30
0.0
 11
768.8632255718592
 21
-604.3129560567256
 31
0.0
  0
LINE
  5
206FD
  8
01
 10
769.6632162646774
 20
-608.3129560567256
 30
0.0
 11
769.7632174280752
 21
-607.8129560567256
 31
0.0
  0
LINE
  5
206FE
  8
01
 10
768.0632162646775
 20
-608.3129560567256
 30
0.0
 11
768.1632174280753
 21
-607.8129560567256
 31
0.0
  0
LINE
  5
206FF
  8
01
 10
764.0632255718549
 20
-604.3129560567256
 30
0.0
 11
764.8632162646732
 21
-608.3129560567256
 31
0.0
  0
LINE
  5
20700
  8
01
 10
763.9632244084571
 20
-604.8129560567256
 30
0.0
 11
764.0632255718549
 21
-604.3129560567256
 31
0.0
  0
LINE
  5
20701
  8
01
 10
765.5632244084572
 20
-604.8129560567256
 30
0.0
 11
765.663225571855
 21
-604.3129560567256
 31
0.0
  0
LINE
  5
20702
  8
01
 10
763.2632162646732
 20
-608.3129560567256
 30
0.0
 11
763.3632174280708
 21
-607.8129560567256
 31
0.0
  0
LINE
  5
20703
  8
01
 10
764.8632162646732
 20
-608.3129560567256
 30
0.0
 11
764.9632174280707
 21
-607.8129560567256
 31
0.0
  0
LINE
  5
20704
  8
01
 10
767.1632244084617
 20
-604.8129560567256
 30
0.0
 11
767.2632255718593
 21
-604.3129560567256
 31
0.0
  0
LINE
  5
20705
  8
01
 10
766.4632162646733
 20
-608.3129560567256
 30
0.0
 11
766.5632174280709
 21
-607.8129560567256
 31
0.0
  0
LINE
  5
20706
  8
01
 10
765.663225571855
 20
-604.3129560567256
 30
0.0
 11
766.4632162646733
 21
-608.3129560567256
 31
0.0
  0
LINE
  5
20707
  8
01
 10
762.463225571855
 20
-604.3129560567256
 30
0.0
 11
763.2632162646732
 21
-608.3129560567256
 31
0.0
  0
LINE
  5
20709
  8
1HATCH
 10
741.613438579929
 20
-615.8094257709138
 30
0.0
 11
741.613230564356
 21
-621.1594375203645
 31
0.0
  0
LINE
  5
2070A
  8
1HATCH
 10
738.3134385799854
 20
-615.8094043644007
 30
0.0
 11
738.3132305647326
 21
-621.1593816771851
 31
0.0
  0
LINE
  5
2070B
  8
1HATCH
 10
741.9634359103997
 20
-616.1594290284164
 30
0.0
 11
737.9634359104869
 21
-616.1594011068777
 31
0.0
  0
LINE
  5
2070C
  8
01
 10
743.9632086925349
 20
-623.5094429882879
 30
0.0
 11
735.963208692708
 21
-623.5093871452104
 31
0.0
  0
LINE
  5
2070D
  8
1HATCH
 10
741.613230564356
 20
-621.1594375203645
 30
0.0
 11
741.9632273068506
 21
-621.5094383347362
 31
0.0
  0
LINE
  5
2070E
  8
1HATCH
 10
738.3132305647326
 20
-621.1593816771851
 30
0.0
 11
737.9632273071971
 21
-621.5093824915718
 31
0.0
  0
LINE
  5
2070F
  8
1CENTER
 10
739.9634568358518
 20
-613.8479299082948
 30
0.0
 11
739.9631878468543
 21
-625.7491663101737
 31
0.0
  0
LINE
  5
20710
  8
01
 10
657.4527676776165
 20
-461.7793615506409
 30
0.0
 11
655.9527676776165
 21
-467.0793580605026
 31
0.0
  0
LINE
  5
20711
  8
01
 10
655.9527676776165
 20
-467.0793580605026
 30
0.0
 11
655.952767677617
 21
-516.7793580603944
 31
0.0
  0
LINE
  5
20712
  8
01
 10
655.952767677617
 20
-516.7793580603944
 30
0.0
 11
653.9527211417187
 21
-516.7793534066964
 31
0.0
  0
LINE
  5
20713
  8
01
 10
653.9527211417187
 20
-516.7793534066964
 30
0.0
 11
653.9527211417186
 21
-517.8793568968916
 31
0.0
  0
ARC
  5
20714
  8
01
 10
655.4527211417186
 20
-517.8793568968916
 30
0.0
 40
1.5
 50
180.0
 51
269.9998666844705
  0
LINE
  5
20715
  8
01
 10
655.4527176515262
 20
-519.3793568968875
 30
0.0
 11
659.4527176515262
 21
-519.3793662040672
 31
0.0
  0
ARC
  5
20716
  8
01
 10
659.4527211417186
 20
-517.8793662040713
 30
0.0
 40
1.5
 50
269.9998666844705
 51
0.0
  0
LINE
  5
20717
  8
01
 10
660.9527211417186
 20
-517.8793662040713
 30
0.0
 11
660.9527211417186
 21
-516.7793696942606
 31
0.0
  0
LINE
  5
20718
  8
01
 10
660.9527211417186
 20
-516.7793696942606
 30
0.0
 11
658.9527676776165
 21
-516.7793650407791
 31
0.0
  0
LINE
  5
20719
  8
01
 10
658.9527676776165
 20
-516.7793650407791
 30
0.0
 11
658.9527676776166
 21
-467.0793650408862
 31
0.0
  0
LINE
  5
2071A
  8
01
 10
658.9527676776166
 20
-467.0793650408862
 30
0.0
 11
657.4527676776165
 21
-461.7793615506409
 31
0.0
  0
LINE
  5
2071B
  8
01
 10
476.9526746058202
 20
-467.0793589630806
 30
0.0
 11
475.4526746058202
 21
-461.7793624532189
 31
0.0
  0
LINE
  5
2071C
  8
01
 10
475.4526746058202
 20
-461.7793624532189
 30
0.0
 11
473.9526746058201
 21
-467.0793659434642
 31
0.0
  0
LINE
  5
2071D
  8
01
 10
473.9526746058201
 20
-467.0793659434642
 30
0.0
 11
473.9526746058202
 21
-516.7793659433571
 31
0.0
  0
LINE
  5
2071E
  8
01
 10
473.9526746058202
 20
-516.7793659433571
 30
0.0
 11
471.9527211417181
 21
-516.7793705968386
 31
0.0
  0
LINE
  5
2071F
  8
01
 10
471.9527211417181
 20
-516.7793705968386
 30
0.0
 11
471.9527211417181
 21
-517.8793671066493
 31
0.0
  0
ARC
  5
20720
  8
01
 10
473.4527211417181
 20
-517.8793671066493
 30
0.0
 40
1.5
 50
179.9999999999999
 51
270.0001333155294
  0
LINE
  5
20721
  8
01
 10
473.4527246319105
 20
-519.3793671066452
 30
0.0
 11
477.4527246319105
 21
-519.3793577994657
 31
0.0
  0
ARC
  5
20722
  8
01
 10
477.4527211417181
 20
-517.8793577994696
 30
0.0
 40
1.5
 50
270.0001333155293
 51
359.9999999999999
  0
LINE
  5
20723
  8
01
 10
478.9527211417181
 20
-517.8793577994696
 30
0.0
 11
478.952721141718
 21
-516.7793543092744
 31
0.0
  0
LINE
  5
20724
  8
01
 10
478.952721141718
 20
-516.7793543092744
 30
0.0
 11
476.9526746058197
 21
-516.7793589629724
 31
0.0
  0
LINE
  5
20725
  8
01
 10
476.9526746058197
 20
-516.7793589629724
 30
0.0
 11
476.9526746058202
 21
-467.0793589630806
 31
0.0
  0
LINE
  5
20726
  8
01
 10
786.9632209183228
 20
-606.3129560567256
 30
0.0
 11
781.663224408461
 21
-604.8129560567256
 31
0.0
  0
LINE
  5
20727
  8
01
 10
781.663224408461
 20
-604.8129560567256
 30
0.0
 11
731.9632244085692
 21
-604.8129560567261
 31
0.0
  0
LINE
  5
20728
  8
01
 10
731.9632244085692
 20
-604.8129560567261
 30
0.0
 11
731.9632290622673
 21
-602.8129095208278
 31
0.0
  0
LINE
  5
20729
  8
01
 10
731.9632290622673
 20
-602.8129095208278
 30
0.0
 11
730.863225572072
 21
-602.8129095208277
 31
0.0
  0
ARC
  5
2072A
  8
01
 10
730.863225572072
 20
-604.3129095208277
 30
0.0
 40
1.5
 50
90.0
 51
179.9998666844706
  0
LINE
  5
2072B
  8
01
 10
729.3632255720761
 20
-604.3129060306353
 30
0.0
 11
729.3632162648964
 21
-608.3129060306353
 31
0.0
  0
ARC
  5
2072C
  8
01
 10
730.8632162648923
 20
-608.3129095208277
 30
0.0
 40
1.5
 50
179.9998666844706
 51
270.0
  0
LINE
  5
2072D
  8
01
 10
730.8632162648923
 20
-609.8129095208277
 30
0.0
 11
731.963212774703
 21
-609.8129095208277
 31
0.0
  0
LINE
  5
2072E
  8
01
 10
731.963212774703
 20
-609.8129095208277
 30
0.0
 11
731.9632174281845
 21
-607.8129560567256
 31
0.0
  0
LINE
  5
2072F
  8
01
 10
731.9632174281845
 20
-607.8129560567256
 30
0.0
 11
781.6632174280775
 21
-607.8129560567257
 31
0.0
  0
LINE
  5
20730
  8
01
 10
781.6632174280775
 20
-607.8129560567257
 30
0.0
 11
786.9632209183228
 21
-606.3129560567256
 31
0.0
  0
LINE
  5
20731
  8
01
 10
741.9632273068506
 20
-621.5094383347362
 30
0.0
 11
741.9634359103997
 21
-616.1594290284164
 31
0.0
  0
LINE
  5
20732
  8
01
 10
741.9634359103997
 20
-616.1594290284164
 30
0.0
 11
741.6134385799224
 21
-615.8094265852919
 31
0.0
  0
LINE
  5
20733
  8
01
 10
741.6134385799224
 20
-615.8094265852919
 30
0.0
 11
738.3134385799921
 21
-615.8094035500226
 31
0.0
  0
LINE
  5
20734
  8
01
 10
738.3134385799921
 20
-615.8094035500226
 30
0.0
 11
737.9634359104869
 21
-616.1594011068777
 31
0.0
  0
LINE
  5
20735
  8
01
 10
737.9634359104869
 20
-616.1594011068777
 30
0.0
 11
737.9632273071971
 21
-621.5093824915718
 31
0.0
  0
LINE
  5
20736
  8
01
 10
737.9632273071971
 20
-621.5093824915718
 30
0.0
 11
735.963208692708
 21
-623.5093871452104
 31
0.0
  0
LINE
  5
20737
  8
01
 10
735.963208692708
 20
-623.5093871452104
 30
0.0
 11
735.9632059005542
 21
-623.8093871451982
 31
0.0
  0
LINE
  5
20738
  8
01
 10
735.9632059005542
 20
-623.8093871451982
 30
0.0
 11
743.963205900381
 21
-623.8094429882758
 31
0.0
  0
LINE
  5
20739
  8
01
 10
743.963205900381
 20
-623.8094429882758
 30
0.0
 11
743.9632086925349
 21
-623.5094429882879
 31
0.0
  0
LINE
  5
2073A
  8
01
 10
743.9632086925349
 20
-623.5094429882879
 30
0.0
 11
741.9632273068506
 21
-621.5094383347362
 31
0.0
  0
LINE
  5
2073B
  8
1DIM
 10
573.8671349190979
 20
-611.0595943771694
 30
0.0
 11
583.6822829395785
 21
-611.0595943771694
 31
0.0
1001
ACAD
1000
DSTYLE
1002
{
1070
    45
1040
0.5
1002
}
  0
LINE
  5
2073C
  8
1DIM
 10
573.8671349190979
 20
-601.0595943771694
 30
0.0
 11
583.6822829395785
 21
-601.0595943771694
 31
0.0
1001
ACAD
1000
DSTYLE
1002
{
1070
    45
1040
0.5
1002
}
  0
LINE
  5
2073D
  8
1DIM
 10
582.6822829395785
 20
-601.0595943771694
 30
0.0
 11
582.6822829395785
 21
-592.4929277105025
 31
0.0
1001
ACAD
1000
DSTYLE
1002
{
1070
    45
1040
0.5
1002
}
  0
LINE
  5
2073E
  8
1DIM
 10
582.6822829395785
 20
-609.0595943771694
 30
0.0
 11
582.6822829395785
 21
-603.0595943771694
 31
0.0
1001
ACAD
1000
DSTYLE
1002
{
1070
    45
1040
0.5
1002
}
  0
TEXT
  5
20742
  8
1DIM
  6
CONTINUOUS
 10
583.8771247671255
 20
-575.4621654876881
 30
0.0
 40
3.5
  1
材質：ステンレス
  0
TEXT
  5
20743
  8
1DIM
  6
CONTINUOUS
 10
579.3271247671254
 20
-581.2954988210215
 30
0.0
 40
3.5
  1
仕上げ：各種仕上げ
  0
SOLID
  5
20744
  8
1DIM
 10
634.3995388417333
 20
-604.2602557440159
 30
0.0
 11
635.1091021557652
 21
-606.1596322244671
 31
0.0
 12
633.8218796218049
 22
-604.593053385348
 32
0.0
 13
633.8218796218049
 23
-604.593053385348
 33
0.0
1001
ACAD
1000
DSTYLE
1002
{
1070
    45
1040
0.5
1002
}
  0
LINE
  5
20745
  8
1DIM
 10
634.1107092317691
 20
-604.4266545646819
 30
0.0
 11
621.95944138792
 21
-583.3348827729003
 31
0.0
1001
ACAD
1000
DSTYLE
1002
{
1070
    45
1040
0.5
1002
}
  0
LINE
  5
20746
  8
1DIM
 10
621.95944138792
 20
-583.3348827729003
 30
0.0
 11
619.95944138792
 21
-583.3348827729003
 31
0.0
1001
ACAD
1000
DSTYLE
1002
{
1070
    45
1040
0.5
1002
}
  0
LINE
  5
20747
  8
1DIM
 10
573.9852212959279
 20
-545.7793620017661
 30
0.0
 11
584.5121535674407
 21
-545.7793620017661
 31
0.0
1001
ACAD
1000
DSTYLE
1002
{
1070
    45
1040
0.5
1002
}
  0
LINE
  5
20748
  8
1DIM
 10
573.9852212959279
 20
-525.7793620017661
 30
0.0
 11
584.5121535674407
 21
-525.7793620017661
 31
0.0
1001
ACAD
1000
DSTYLE
1002
{
1070
    45
1040
0.5
1002
}
  0
LINE
  5
20749
  8
1DIM
 10
583.5121535674407
 20
-525.7793620017661
 30
0.0
 11
583.5121535674407
 21
-516.7126953350993
 31
0.0
1001
ACAD
1000
DSTYLE
1002
{
1070
    45
1040
0.5
1002
}
  0
LINE
  5
2074A
  8
1DIM
 10
583.5121535674407
 20
-543.7793620017661
 30
0.0
 11
583.5121535674407
 21
-527.7793620017661
 31
0.0
1001
ACAD
1000
DSTYLE
1002
{
1070
    45
1040
0.5
1002
}
  0
LINE
  5
2074E
  8
1DIM
 10
663.4527211417185
 20
-490.7793615504785
 30
0.0
 11
663.4527211417185
 21
-483.88265893115
 31
0.0
1001
ACAD
1000
DSTYLE
1002
{
1070
    45
1040
0.5
1002
}
  0
LINE
  5
2074F
  8
1DIM
 10
651.4527211417185
 20
-490.7793615504785
 30
0.0
 11
651.4527211417185
 21
-483.88265893115
 31
0.0
1001
ACAD
1000
DSTYLE
1002
{
1070
    45
1040
0.5
1002
}
  0
LINE
  5
20750
  8
1DIM
 10
663.4527211417185
 20
-484.88265893115
 30
0.0
 11
672.0193878083853
 21
-484.88265893115
 31
0.0
1001
ACAD
1000
DSTYLE
1002
{
1070
    45
1040
0.5
1002
}
  0
LINE
  5
20751
  8
1DIM
 10
661.4527211417185
 20
-484.88265893115
 30
0.0
 11
653.4527211417185
 21
-484.88265893115
 31
0.0
1001
ACAD
1000
DSTYLE
1002
{
1070
    45
1040
0.5
1002
}
  0
LINE
  5
20755
  8
1PHANTOM
 10
653.6527211417186
 20
-516.7793615504785
 30
0.0
 11
653.6527211417186
 21
-515.7793615504785
 31
0.0
  0
LINE
  5
20756
  8
1PHANTOM
 10
653.6527211417186
 20
-515.7793615504785
 30
0.0
 11
661.2527211417186
 21
-515.7793615504785
 31
0.0
  0
LINE
  5
20757
  8
1PHANTOM
 10
661.2527211417186
 20
-515.7793615504785
 30
0.0
 11
661.2527211417186
 21
-516.7793615504785
 31
0.0
  0
LINE
  5
20758
  8
1PHANTOM
 10
661.2527211417186
 20
-516.7793615504785
 30
0.0
 11
653.6527211417186
 21
-516.7793615504785
 31
0.0
  0
LINE
  5
20759
  8
1PHANTOM
 10
479.252721141718
 20
-516.7793624530565
 30
0.0
 11
479.252721141718
 21
-515.7793624530565
 31
0.0
  0
LINE
  5
2075A
  8
1PHANTOM
 10
479.252721141718
 20
-515.7793624530565
 30
0.0
 11
471.6527211417181
 21
-515.7793624530565
 31
0.0
  0
LINE
  5
2075B
  8
1PHANTOM
 10
471.6527211417181
 20
-515.7793624530565
 30
0.0
 11
471.6527211417181
 21
-516.7793624530565
 31
0.0
  0
LINE
  5
2075C
  8
1PHANTOM
 10
471.6527211417181
 20
-516.7793624530565
 30
0.0
 11
479.252721141718
 21
-516.7793624530565
 31
0.0
  0
TEXT
  5
2075D
  8
1DIM
  6
CONTINUOUS
 10
673.9241259513311
 20
-572.2269089065695
 30
0.0
 40
3.5
  1
材質：ステンレス
  0
TEXT
  5
2075E
  8
1DIM
  6
CONTINUOUS
 10
674.0407926179978
 20
-578.0602422399029
 30
0.0
 40
3.5
  1
仕上げ：各種仕上げ
  0
SOLID
  5
2075F
  8
1DIM
 10
659.7947392968666
 20
-591.5993621555708
 30
0.0
 11
658.179391752833
 21
-592.8248267299651
 31
0.0
 12
659.3099752433316
 22
-591.1417069831488
 32
0.0
 13
659.3099752433316
 23
-591.1417069831488
 33
0.0
1001
ACAD
1000
DSTYLE
1002
{
1070
    45
1040
0.5
1002
}
  0
LINE
  5
20760
  8
1DIM
 10
659.5523572700992
 20
-591.3705345693597
 30
0.0
 11
671.4574592846644
 21
-578.7602422399029
 31
0.0
1001
ACAD
1000
DSTYLE
1002
{
1070
    45
1040
0.5
1002
}
  0
LINE
  5
20761
  8
1DIM
 10
671.4574592846644
 20
-578.7602422399029
 30
0.0
 11
673.4574592846644
 21
-578.7602422399029
 31
0.0
1001
ACAD
1000
DSTYLE
1002
{
1070
    45
1040
0.5
1002
}
  0
LINE
  5
20762
  8
1DIM
 10
461.4527211417184
 20
-609.859613300821
 30
0.0
 11
461.4527211417184
 21
-647.0417205643523
 31
0.0
  0
LINE
  5
20763
  8
1DIM
 10
671.4527211417184
 20
-609.8596133008183
 30
0.0
 11
671.4527211417184
 21
-647.0417205643523
 31
0.0
  0
LINE
  5
20764
  8
1DIM
 10
463.4527211417184
 20
-646.0417205643523
 30
0.0
 11
669.4527211417184
 21
-646.0417205643523
 31
0.0
  0
LINE
  5
20768
  8
1DIM
 10
475.4527294564339
 20
-609.4345641718413
 30
0.0
 11
475.4527294564339
 21
-637.8262359529197
 31
0.0
  0
LINE
  5
20769
  8
1DIM
 10
657.4526937686185
 20
-609.4345939258823
 30
0.0
 11
657.4526937686185
 21
-637.8262359529197
 31
0.0
  0
LINE
  5
2076A
  8
1DIM
 10
477.4527294564339
 20
-636.8262359529197
 30
0.0
 11
655.4526937686185
 21
-636.8262359529197
 31
0.0
  0
LINE
  5
2076E
  8
1DIM
 10
702.9632207284608
 20
-606.1596322244671
 30
0.0
 11
702.9632207284608
 21
-644.4661271935192
 31
0.0
1001
ACAD
1000
DSTYLE
1002
{
1070
    45
1040
0.5
1002
}
  0
LINE
  5
2076F
  8
1DIM
 10
757.9632207284608
 20
-643.2877868861002
 30
0.0
 11
757.9632207284608
 21
-644.4661271935192
 31
0.0
1001
ACAD
1000
DSTYLE
1002
{
1070
    45
1040
0.5
1002
}
  0
LINE
  5
20770
  8
1DIM
 10
704.9632207284608
 20
-643.4661271935192
 30
0.0
 11
755.9632207284608
 21
-643.4661271935192
 31
0.0
1001
ACAD
1000
DSTYLE
1002
{
1070
    45
1040
0.5
1002
}
  0
LINE
  5
20774
  8
1DIM
 10
757.9632207284608
 20
-643.2877868861002
 30
0.0
 11
757.9632207284608
 21
-634.1162042115135
 31
0.0
1001
ACAD
1000
DSTYLE
1002
{
1070
    45
1040
0.5
1002
}
  0
LINE
  5
20775
  8
1DIM
 10
739.9632207284608
 20
-620.39940950808
 30
0.0
 11
739.9632207284608
 21
-636.1162042115135
 31
0.0
1001
ACAD
1000
DSTYLE
1002
{
1070
    45
1040
0.5
1002
}
  0
LINE
  5
20776
  8
1DIM
 10
755.9632207284608
 20
-635.1162042115135
 30
0.0
 11
741.9632207284608
 21
-635.1162042115135
 31
0.0
1001
ACAD
1000
DSTYLE
1002
{
1070
    45
1040
0.5
1002
}
  0
LINE
  5
2077A
  8
1DIM
 10
792.9241355096311
 20
-606.3129095208277
 30
0.0
 11
800.4632207284608
 21
-606.3129095208277
 31
0.0
1001
ACAD
1000
DSTYLE
1002
{
1070
    45
1040
0.5
1070
   271
1070
     0
1002
}
  0
LINE
  5
2077B
  8
1DIM
 10
757.9632262391677
 20
-588.0596322244672
 30
0.0
 11
800.4632207284608
 21
-588.0596322244672
 31
0.0
1001
ACAD
1000
DSTYLE
1002
{
1070
    45
1040
0.5
1070
   271
1070
     0
1002
}
  0
LINE
  5
2077C
  8
1DIM
 10
799.4632207284608
 20
-604.3129095208277
 30
0.0
 11
799.4632207284608
 21
-590.0596322244672
 31
0.0
1001
ACAD
1000
DSTYLE
1002
{
1070
    45
1040
0.5
1070
   271
1070
     0
1002
}
  0
LINE
  5
20780
  8
1DIM
 10
757.9632207284608
 20
-624.0596322244672
 30
0.0
 11
810.4632207284608
 21
-624.0596322244672
 31
0.0
1001
ACAD
1000
DSTYLE
1002
{
1070
    45
1040
0.5
1002
}
  0
LINE
  5
20781
  8
1DIM
 10
757.9632262391677
 20
-588.0596322244672
 30
0.0
 11
810.4632207284608
 21
-588.0596322244672
 31
0.0
1001
ACAD
1000
DSTYLE
1002
{
1070
    45
1040
0.5
1002
}
  0
LINE
  5
20782
  8
1DIM
 10
809.4632207284608
 20
-622.0596322244672
 30
0.0
 11
809.4632207284608
 21
-590.0596322244672
 31
0.0
1001
ACAD
1000
DSTYLE
1002
{
1070
    45
1040
0.5
1002
}
  0
SOLID
  5
20786
  8
1DIM
 10
761.6178270328611
 20
-575.1737121633835
 30
0.0
 11
760.8768923061682
 21
-577.0610719176146
 31
0.0
 12
760.965659830046
 22
-575.035428454955
 32
0.0
 13
760.965659830046
 23
-575.035428454955
 33
0.0
1001
ACAD
1000
DSTYLE
1002
{
1070
    45
1040
0.5
1002
}
  0
LINE
  5
20787
  8
1DIM
 10
761.2917434314535
 20
-575.1045703091692
 30
0.0
 11
764.0007362392832
 21
-562.3285442536992
 31
0.0
1001
ACAD
1000
DSTYLE
1002
{
1070
    45
1040
0.5
1002
}
  0
SOLID
  5
20788
  8
1DIM
 10
774.7532451780263
 20
-575.1737121633835
 30
0.0
 11
774.0123104513334
 21
-577.0610719176146
 31
0.0
 12
774.1010779752112
 22
-575.035428454955
 32
0.0
 13
774.1010779752112
 23
-575.035428454955
 33
0.0
1001
ACAD
1000
DSTYLE
1002
{
1070
    45
1040
0.5
1002
}
  0
LINE
  5
20789
  8
1DIM
 10
774.4271615766187
 20
-575.1045703091692
 30
0.0
 11
777.1361543844484
 21
-562.3285442536992
 31
0.0
1001
ACAD
1000
DSTYLE
1002
{
1070
    45
1040
0.5
1002
}
  0
LINE
  5
2078A
  8
1PHANTOM
 10
731.9632209184851
 20
-602.5129095208277
 30
0.0
 11
732.9632209184851
 21
-602.5129095208277
 31
0.0
  0
LINE
  5
2078B
  8
1PHANTOM
 10
732.9632209184851
 20
-602.5129095208277
 30
0.0
 11
732.9632209184851
 21
-610.1129095208277
 31
0.0
  0
LINE
  5
2078C
  8
1PHANTOM
 10
732.9632209184851
 20
-610.1129095208277
 30
0.0
 11
731.9632209184851
 21
-610.1129095208277
 31
0.0
  0
LINE
  5
2078D
  8
1PHANTOM
 10
731.9632209184851
 20
-610.1129095208277
 30
0.0
 11
731.9632209184851
 21
-602.5129095208277
 31
0.0
  0
LINE
  5
2078E
  8
0
  6
BYBLOCK
 10
583.2181813195785
 20
-609.0595943771694
 30
0.0
 11
582.6822829395785
 21
-611.0595943771694
 31
0.0
  0
LINE
  5
2078F
  8
0
  6
BYBLOCK
 10
582.6822829395785
 20
-611.0595943771694
 30
0.0
 11
582.1463845595785
 21
-609.0595943771694
 31
0.0
  0
LINE
  5
20790
  8
0
  6
BYBLOCK
 10
582.6822829395785
 20
-611.0595943771694
 30
0.0
 11
582.6822829395785
 21
-609.0595943771694
 31
0.0
  0
LINE
  5
20791
  8
0
  6
BYBLOCK
 10
582.1463845595785
 20
-603.0595943771694
 30
0.0
 11
582.6822829395785
 21
-601.0595943771694
 31
0.0
  0
LINE
  5
20792
  8
0
  6
BYBLOCK
 10
582.6822829395785
 20
-601.0595943771694
 30
0.0
 11
583.2181813195785
 21
-603.0595943771694
 31
0.0
  0
LINE
  5
20793
  8
0
  6
BYBLOCK
 10
582.6822829395785
 20
-601.0595943771694
 30
0.0
 11
582.6822829395785
 21
-603.0595943771694
 31
0.0
  0
TEXT
  5
20794
  8
1DIM
  6
CONTINUOUS
 10
581.9822829395785
 20
-597.8908443771692
 30
0.0
 40
3.5
  1
10
 50
90.0
1001
ACAD
1000
DSTYLE
1002
{
1070
    45
1040
0.5
1002
}
  0
LINE
  5
20795
  8
0
  6
BYBLOCK
 10
584.0480519474407
 20
-543.7793620017661
 30
0.0
 11
583.5121535674407
 21
-545.7793620017661
 31
0.0
  0
LINE
  5
20796
  8
0
  6
BYBLOCK
 10
583.5121535674407
 20
-545.7793620017661
 30
0.0
 11
582.9762551874406
 21
-543.7793620017661
 31
0.0
  0
LINE
  5
20797
  8
0
  6
BYBLOCK
 10
583.5121535674407
 20
-545.7793620017661
 30
0.0
 11
583.5121535674407
 21
-543.7793620017661
 31
0.0
  0
LINE
  5
20798
  8
0
  6
BYBLOCK
 10
582.9762551874406
 20
-527.7793620017661
 30
0.0
 11
583.5121535674407
 21
-525.7793620017661
 31
0.0
  0
LINE
  5
20799
  8
0
  6
BYBLOCK
 10
583.5121535674407
 20
-525.7793620017661
 30
0.0
 11
584.0480519474407
 21
-527.7793620017661
 31
0.0
  0
LINE
  5
2079A
  8
0
  6
BYBLOCK
 10
583.5121535674407
 20
-525.7793620017661
 30
0.0
 11
583.5121535674407
 21
-527.7793620017661
 31
0.0
  0
TEXT
  5
2079B
  8
1DIM
  6
CONTINUOUS
 10
582.8121535674406
 20
-522.9439453350993
 30
0.0
 40
3.5
  1
20
 50
90.0
1001
ACAD
1000
DSTYLE
1002
{
1070
    45
1040
0.5
1002
}
  0
LINE
  5
2079C
  8
0
  6
BYBLOCK
 10
661.4527211417185
 20
-484.34676055115
 30
0.0
 11
663.4527211417185
 21
-484.88265893115
 31
0.0
  0
LINE
  5
2079D
  8
0
  6
BYBLOCK
 10
663.4527211417185
 20
-484.88265893115
 30
0.0
 11
661.4527211417185
 21
-485.41855731115
 31
0.0
  0
LINE
  5
2079E
  8
0
  6
BYBLOCK
 10
663.4527211417185
 20
-484.88265893115
 30
0.0
 11
661.4527211417185
 21
-484.88265893115
 31
0.0
  0
LINE
  5
2079F
  8
0
  6
BYBLOCK
 10
653.4527211417185
 20
-485.41855731115
 30
0.0
 11
651.4527211417185
 21
-484.88265893115
 31
0.0
  0
LINE
  5
207A0
  8
0
  6
BYBLOCK
 10
651.4527211417185
 20
-484.88265893115
 30
0.0
 11
653.4527211417185
 21
-484.34676055115
 31
0.0
  0
LINE
  5
207A1
  8
0
  6
BYBLOCK
 10
651.4527211417185
 20
-484.88265893115
 30
0.0
 11
653.4527211417185
 21
-484.88265893115
 31
0.0
  0
TEXT
  5
207A2
  8
1DIM
  6
CONTINUOUS
 10
666.4027211417185
 20
-484.18265893115
 30
0.0
 40
3.5
  1
12
1001
ACAD
1000
DSTYLE
1002
{
1070
    45
1040
0.5
1002
}
  0
LINE
  5
207A3
  8
0
  6
BYBLOCK
 10
463.4527211417184
 20
-646.5776189443524
 30
0.0
 11
461.4527211417184
 21
-646.0417205643523
 31
0.0
  0
LINE
  5
207A4
  8
0
  6
BYBLOCK
 10
461.4527211417184
 20
-646.0417205643523
 30
0.0
 11
463.4527211417184
 21
-645.5058221843523
 31
0.0
  0
LINE
  5
207A5
  8
0
  6
BYBLOCK
 10
461.4527211417184
 20
-646.0417205643523
 30
0.0
 11
463.4527211417184
 21
-646.0417205643523
 31
0.0
  0
LINE
  5
207A6
  8
0
  6
BYBLOCK
 10
669.4527211417184
 20
-645.5058221843523
 30
0.0
 11
671.4527211417184
 21
-646.0417205643523
 31
0.0
  0
LINE
  5
207A7
  8
0
  6
BYBLOCK
 10
671.4527211417184
 20
-646.0417205643523
 30
0.0
 11
669.4527211417184
 21
-646.5776189443524
 31
0.0
  0
LINE
  5
207A8
  8
0
  6
BYBLOCK
 10
671.4527211417184
 20
-646.0417205643523
 30
0.0
 11
669.4527211417184
 21
-646.0417205643523
 31
0.0
  0
TEXT
  5
207A9
  8
1DIM
  6
CONTINUOUS
 10
562.588137808385
 20
-645.3417205643523
 30
0.0
 40
3.5
  1
210
  0
LINE
  5
207AA
  8
0
  6
BYBLOCK
 10
477.4527294564339
 20
-637.3621343329197
 30
0.0
 11
475.4527294564339
 21
-636.8262359529197
 31
0.0
  0
LINE
  5
207AB
  8
0
  6
BYBLOCK
 10
475.4527294564339
 20
-636.8262359529197
 30
0.0
 11
477.4527294564339
 21
-636.2903375729196
 31
0.0
  0
LINE
  5
207AC
  8
0
  6
BYBLOCK
 10
475.4527294564339
 20
-636.8262359529197
 30
0.0
 11
477.4527294564339
 21
-636.8262359529197
 31
0.0
  0
LINE
  5
207AD
  8
0
  6
BYBLOCK
 10
655.4526937686185
 20
-636.2903375729196
 30
0.0
 11
657.4526937686185
 21
-636.8262359529197
 31
0.0
  0
LINE
  5
207AE
  8
0
  6
BYBLOCK
 10
657.4526937686185
 20
-636.8262359529197
 30
0.0
 11
655.4526937686185
 21
-637.3621343329197
 31
0.0
  0
LINE
  5
207AF
  8
0
  6
BYBLOCK
 10
657.4526937686185
 20
-636.8262359529197
 30
0.0
 11
655.4526937686185
 21
-636.8262359529197
 31
0.0
  0
TEXT
  5
207B0
  8
1DIM
  6
CONTINUOUS
 10
560.6193782791928
 20
-636.1262359529196
 30
0.0
 40
3.5
  1
P182
  0
LINE
  5
207B1
  8
0
  6
BYBLOCK
 10
704.9632207284608
 20
-644.0020255735193
 30
0.0
 11
702.9632207284608
 21
-643.4661271935192
 31
0.0
  0
LINE
  5
207B2
  8
0
  6
BYBLOCK
 10
702.9632207284608
 20
-643.4661271935192
 30
0.0
 11
704.9632207284608
 21
-642.9302288135192
 31
0.0
  0
LINE
  5
207B3
  8
0
  6
BYBLOCK
 10
702.9632207284608
 20
-643.4661271935192
 30
0.0
 11
704.9632207284608
 21
-643.4661271935192
 31
0.0
  0
LINE
  5
207B4
  8
0
  6
BYBLOCK
 10
755.9632207284608
 20
-642.9302288135192
 30
0.0
 11
757.9632207284608
 21
-643.4661271935192
 31
0.0
  0
LINE
  5
207B5
  8
0
  6
BYBLOCK
 10
757.9632207284608
 20
-643.4661271935192
 30
0.0
 11
755.9632207284608
 21
-644.0020255735193
 31
0.0
  0
LINE
  5
207B6
  8
0
  6
BYBLOCK
 10
757.9632207284608
 20
-643.4661271935192
 30
0.0
 11
755.9632207284608
 21
-643.4661271935192
 31
0.0
  0
TEXT
  5
207B7
  8
1DIM
  6
CONTINUOUS
 10
727.5344012840163
 20
-642.7661271935191
 30
0.0
 40
3.5
  1
55
1001
ACAD
1000
DSTYLE
1002
{
1070
    45
1040
0.5
1002
}
  0
LINE
  5
207B8
  8
0
  6
BYBLOCK
 10
755.9632207284608
 20
-634.5803058315134
 30
0.0
 11
757.9632207284608
 21
-635.1162042115135
 31
0.0
  0
LINE
  5
207B9
  8
0
  6
BYBLOCK
 10
757.9632207284608
 20
-635.1162042115135
 30
0.0
 11
755.9632207284608
 21
-635.6521025915135
 31
0.0
  0
LINE
  5
207BA
  8
0
  6
BYBLOCK
 10
757.9632207284608
 20
-635.1162042115135
 30
0.0
 11
755.9632207284608
 21
-635.1162042115135
 31
0.0
  0
LINE
  5
207BB
  8
0
  6
BYBLOCK
 10
741.9632207284608
 20
-635.6521025915135
 30
0.0
 11
739.9632207284608
 21
-635.1162042115135
 31
0.0
  0
LINE
  5
207BC
  8
0
  6
BYBLOCK
 10
739.9632207284608
 20
-635.1162042115135
 30
0.0
 11
741.9632207284608
 21
-634.5803058315134
 31
0.0
  0
LINE
  5
207BD
  8
0
  6
BYBLOCK
 10
739.9632207284608
 20
-635.1162042115135
 30
0.0
 11
741.9632207284608
 21
-635.1162042115135
 31
0.0
  0
TEXT
  5
207BE
  8
1DIM
  6
CONTINUOUS
 10
746.6298873951274
 20
-634.4162042115134
 30
0.0
 40
3.5
  1
18
1001
ACAD
1000
DSTYLE
1002
{
1070
    45
1040
0.5
1002
}
  0
LINE
  5
207BF
  8
0
  6
BYBLOCK
 10
799.9991191084608
 20
-604.3129095208277
 30
0.0
 11
799.4632207284608
 21
-606.3129095208277
 31
0.0
  0
LINE
  5
207C0
  8
0
  6
BYBLOCK
 10
799.4632207284608
 20
-606.3129095208277
 30
0.0
 11
798.9273223484607
 21
-604.3129095208277
 31
0.0
  0
LINE
  5
207C1
  8
0
  6
BYBLOCK
 10
799.4632207284608
 20
-606.3129095208277
 30
0.0
 11
799.4632207284608
 21
-604.3129095208277
 31
0.0
  0
LINE
  5
207C2
  8
0
  6
BYBLOCK
 10
798.9273223484607
 20
-590.0596322244672
 30
0.0
 11
799.4632207284608
 21
-588.0596322244672
 31
0.0
  0
LINE
  5
207C3
  8
0
  6
BYBLOCK
 10
799.4632207284608
 20
-588.0596322244672
 30
0.0
 11
799.9991191084608
 21
-590.0596322244672
 31
0.0
  0
LINE
  5
207C4
  8
0
  6
BYBLOCK
 10
799.4632207284608
 20
-588.0596322244672
 30
0.0
 11
799.4632207284608
 21
-590.0596322244672
 31
0.0
  0
TEXT
  5
207C5
  8
1DIM
  6
CONTINUOUS
 10
798.7632207284607
 20
-599.5204143911659
 30
0.0
 40
3.5
  1
19
 50
90.0
1001
ACAD
1000
DSTYLE
1002
{
1070
    45
1040
0.5
1070
   271
1070
     0
1002
}
  0
LINE
  5
207C6
  8
0
  6
BYBLOCK
 10
809.9991191084608
 20
-622.0596322244672
 30
0.0
 11
809.4632207284608
 21
-624.0596322244672
 31
0.0
  0
LINE
  5
207C7
  8
0
  6
BYBLOCK
 10
809.4632207284608
 20
-624.0596322244672
 30
0.0
 11
808.9273223484607
 21
-622.0596322244672
 31
0.0
  0
LINE
  5
207C8
  8
0
  6
BYBLOCK
 10
809.4632207284608
 20
-624.0596322244672
 30
0.0
 11
809.4632207284608
 21
-622.0596322244672
 31
0.0
  0
LINE
  5
207C9
  8
0
  6
BYBLOCK
 10
808.9273223484607
 20
-590.0596322244672
 30
0.0
 11
809.4632207284608
 21
-588.0596322244672
 31
0.0
  0
LINE
  5
207CA
  8
0
  6
BYBLOCK
 10
809.4632207284608
 20
-588.0596322244672
 30
0.0
 11
809.9991191084608
 21
-590.0596322244672
 31
0.0
  0
LINE
  5
207CB
  8
0
  6
BYBLOCK
 10
809.4632207284608
 20
-588.0596322244672
 30
0.0
 11
809.4632207284608
 21
-590.0596322244672
 31
0.0
  0
TEXT
  5
207CC
  8
1DIM
  6
CONTINUOUS
 10
808.7632207284607
 20
-608.9762988911338
 30
0.0
 40
3.5
  1
36
 50
90.0
1001
ACAD
1000
DSTYLE
1002
{
1070
    45
1040
0.5
1002
}
  0
VIEWPORT
  5
57
 67
     1
  8
0
 10
0.0
 20
0.0
 30
0.0
 40
554.37576499388
 41
297.0
 68
     1
 69
     1
1001
ACAD
1000
MVIEW
1002
{
1070
    16
1010
0.0
1020
0.0
1030
0.0
1010
0.0
1020
0.0
1030
1.0
1040
0.0
1040
297.0
1040
-4.171999999925333
1040
12.83903210976956
1040
50.0
1040
0.0
1040
0.0
1070
    16
1070
   100
1070
     0
1070
     1
1070
     0
1070
     0
1070
     0
1070
     0
1040
0.0
1040
0.0
1040
0.0
1040
10.0
1040
10.0
1040
10.0
1040
10.0
1070
     0
1002
{
1002
}
1002
}
  0
ENDSEC
  0
EOF
