  0
SECTION
  2
HEADER
  9
$ACADVER
  1
AC1009
  9
$DWGCODEPAGE
  3
ansi_932
  9
$INSBASE
 10
0.0
 20
0.0
 30
0.0
  9
$EXTMIN
 10
-270.9573349973163
 20
-192.5700243829804
 30
-0.0000000000000568
  9
$EXTMAX
 10
96.04266883228195
 20
78.60036848046755
 30
0.0
  9
$LIMMIN
 10
0.0
 20
0.0
  9
$LIMMAX
 10
420.0
 20
297.0
  9
$ORTHOMODE
 70
     0
  9
$REGENMODE
 70
     1
  9
$FILLMODE
 70
     1
  9
$QTEXTMODE
 70
     0
  9
$MIRRTEXT
 70
     0
  9
$DRAGMODE
 70
     2
  9
$LTSCALE
 40
0.5
  9
$OSMODE
 70
 14591
  9
$ATTMODE
 70
     1
  9
$TEXTSIZE
 40
4.0
  9
$TRACEWID
 40
1.0
  9
$TEXTSTYLE
  7
STANDARD
  9
$CLAYER
  8
1TEXT
  9
$CELTYPE
  6
BYLAYER
  9
$CECOLOR
 62
   256
  9
$DIMSCALE
 40
1.0
  9
$DIMASZ
 40
2.0
  9
$DIMEXO
 40
0.0
  9
$DIMDLI
 40
7.0
  9
$DIMRND
 40
0.0
  9
$DIMDLE
 40
0.0
  9
$DIMEXE
 40
1.0
  9
$DIMTP
 40
0.0
  9
$DIMTM
 40
0.0
  9
$DIMTXT
 40
3.5
  9
$DIMCEN
 40
0.0
  9
$DIMTSZ
 40
0.0
  9
$DIMTOL
 70
     0
  9
$DIMLIM
 70
     0
  9
$DIMTIH
 70
     0
  9
$DIMTOH
 70
     0
  9
$DIMSE1
 70
     0
  9
$DIMSE2
 70
     0
  9
$DIMTAD
 70
     1
  9
$DIMZIN
 70
     8
  9
$DIMBLK
  1

  9
$DIMASO
 70
     1
  9
$DIMSHO
 70
     1
  9
$DIMPOST
  1
 
  9
$DIMAPOST
  1

  9
$DIMALT
 70
     0
  9
$DIMALTD
 70
     2
  9
$DIMALTF
 40
25.4
  9
$DIMLFAC
 40
1.0
  9
$DIMTOFL
 70
     1
  9
$DIMTVP
 40
0.0
  9
$DIMTIX
 70
     0
  9
$DIMSOXD
 70
     0
  9
$DIMSAH
 70
     1
  9
$DIMBLK1
  1
OPEN30
  9
$DIMBLK2
  1
OPEN30
  9
$DIMSTYLE
  2
NEWX10
  9
$DIMCLRD
 70
   256
  9
$DIMCLRE
 70
   256
  9
$DIMCLRT
 70
   201
  9
$DIMTFAC
 40
0.7
  9
$DIMGAP
 40
0.7
  9
$LUNITS
 70
     2
  9
$LUPREC
 70
     4
  9
$SKETCHINC
 40
1.0
  9
$FILLETRAD
 40
0.0
  9
$AUNITS
 70
     0
  9
$AUPREC
 70
     2
  9
$MENU
  1
acad
  9
$ELEVATION
 40
0.0
  9
$PELEVATION
 40
0.0
  9
$THICKNESS
 40
0.0
  9
$LIMCHECK
 70
     0
  9
$CHAMFERA
 40
10.0
  9
$CHAMFERB
 40
10.0
  9
$SKPOLY
 70
     0
  9
$TDCREATE
 40
2451318.621352917
  9
$TDUPDATE
 40
2459898.455087153
  9
$TDINDWG
 40
1.1357877315
  9
$TDUSRTIMER
 40
1.1357877315
  9
$USRTIMER
 70
     1
  9
$ANGBASE
 50
0.0
  9
$ANGDIR
 70
     0
  9
$PDMODE
 70
     0
  9
$PDSIZE
 40
0.0
  9
$PLINEWID
 40
0.0
  9
$COORDS
 70
     2
  9
$SPLFRAME
 70
     0
  9
$SPLINETYPE
 70
     6
  9
$SPLINESEGS
 70
     8
  9
$ATTDIA
 70
     0
  9
$ATTREQ
 70
     1
  9
$HANDLING
 70
     1
  9
$HANDSEED
  5
1213D
  9
$SURFTAB1
 70
     6
  9
$SURFTAB2
 70
     6
  9
$SURFTYPE
 70
     6
  9
$SURFU
 70
     6
  9
$SURFV
 70
     6
  9
$UCSNAME
  2

  9
$UCSORG
 10
0.0
 20
0.0
 30
0.0
  9
$UCSXDIR
 10
1.0
 20
0.0
 30
0.0
  9
$UCSYDIR
 10
0.0
 20
1.0
 30
0.0
  9
$PUCSNAME
  2

  9
$PUCSORG
 10
0.0
 20
0.0
 30
0.0
  9
$PUCSXDIR
 10
1.0
 20
0.0
 30
0.0
  9
$PUCSYDIR
 10
0.0
 20
1.0
 30
0.0
  9
$USERI1
 70
     0
  9
$USERI2
 70
     0
  9
$USERI3
 70
     0
  9
$USERI4
 70
     0
  9
$USERI5
 70
     0
  9
$USERR1
 40
0.0
  9
$USERR2
 40
0.0
  9
$USERR3
 40
0.0
  9
$USERR4
 40
0.0
  9
$USERR5
 40
0.0
  9
$WORLDVIEW
 70
     1
  9
$SHADEDGE
 70
     3
  9
$SHADEDIF
 70
    70
  9
$TILEMODE
 70
     1
  9
$MAXACTVP
 70
    48
  9
$PLIMCHECK
 70
     0
  9
$PEXTMIN
 10
1.000000000000000E+20
 20
1.000000000000000E+20
 30
1.000000000000000E+20
  9
$PEXTMAX
 10
-1.000000000000000E+20
 20
-1.000000000000000E+20
 30
-1.000000000000000E+20
  9
$PLIMMIN
 10
0.0
 20
0.0
  9
$PLIMMAX
 10
420.0
 20
297.0
  9
$UNITMODE
 70
     0
  9
$VISRETAIN
 70
     1
  9
$PLINEGEN
 70
     0
  9
$PSLTSCALE
 70
     1
  0
ENDSEC
  0
SECTION
  2
TABLES
  0
TABLE
  2
VPORT
 70
     1
  0
VPORT
  2
*ACTIVE
 70
     0
 10
0.0
 20
0.0
 11
1.0
 21
1.0
 12
-87.45733308251715
 22
-56.98482795125641
 13
0.0
 23
0.0
 14
10.0
 24
10.0
 15
10.0
 25
10.0
 16
0.0
 26
0.0
 36
1.0
 17
0.0
 27
0.0
 37
0.0
 40
291.1513691797019
 41
1.866585067319461
 42
50.0
 43
0.0
 44
0.0
 50
0.0
 51
0.0
 71
    16
 72
   100
 73
     1
 74
     1
 75
     0
 76
     0
 77
     0
 78
     0
  0
ENDTAB
  0
TABLE
  2
LTYPE
 70
    14
  0
LTYPE
  2
CONTINUOUS
 70
     0
  3
Solid line
 72
    65
 73
     0
 40
0.0
  0
LTYPE
  2
CENTER2
 70
     0
  3
Center (.5x) ___ _ ___ _ ___ _ ___ _ ___ _ ___
 72
    65
 73
     4
 40
28.575
 49
19.05
 49
-3.175
 49
3.175
 49
-3.175
  0
LTYPE
  2
PHANTOM2
 70
     0
  3
Phantom (0.5x) ___ _ _ ___ _ _ ___ _ _ ___ _ _
 72
    65
 73
     6
 40
31.75
 49
15.875
 49
-3.175
 49
3.175
 49
-3.175
 49
3.175
 49
-3.175
  0
LTYPE
  2
PHANTOM
 70
     0
  3
Phantom ______  __  __  ______  __  __  ______
 72
    65
 73
     6
 40
12.7
 49
6.35
 49
-1.27
 49
1.27
 49
-1.27
 49
1.27
 49
-1.27
  0
ENDTAB
  0
TABLE
  2
LAYER
 70
    42
  0
LAYER
  2
0
 70
     0
 62
     7
  6
CONTINUOUS
  0
LAYER
  2
1CENTER
 70
     0
 62
     7
  6
CENTER2
  0
LAYER
  2
1TEXT
 70
     0
 62
     7
  6
CONTINUOUS
  0
LAYER
  2
01
 70
     0
 62
     1
  6
CONTINUOUS
  0
LAYER
  2
1DIM
 70
     0
 62
     7
  6
CONTINUOUS
  0
LAYER
  2
1PHANTOM
 70
     0
 62
     7
  6
PHANTOM2
  0
ENDTAB
  0
TABLE
  2
STYLE
 70
    18
  0
STYLE
  2
STANDARD
 70
     0
 40
0.0
 41
1.0
 50
0.0
 71
     0
 42
4.0
  3
txt.shx
  4
extfont.shx
  0
ENDTAB
  0
TABLE
  2
VIEW
 70
     0
  0
ENDTAB
  0
TABLE
  2
UCS
 70
     0
  0
ENDTAB
  0
TABLE
  2
APPID
 70
    17
  0
APPID
  2
ACAD
 70
     0
  0
APPID
  2
DRAWINGVARIABLESXDATA
 70
     0
  0
APPID
  2
CONTENTTABDATA
 70
     0
  0
APPID
  2
CONTENTCURRENTTAB
 70
     0
  0
APPID
  2
CONTENTBLOCKDESCRIPTION
 70
     0
  0
APPID
  2
CONTENTBLOCKICON
 70
     0
  0
APPID
  2
CONTENTLONGBLOCKNAME
 70
     0
  0
APPID
  2
ACAD_PSEXT
 70
     0
  0
APPID
  2
ACAD_MLEADERVER
 70
     0
  0
APPID
  2
ACAD_EXEMPT_FROM_CAD_STAND
 70
     0
  0
APPID
  2
ACAECLAYERSTANDARD
 70
     0
  0
APPID
  2
ACADANNOTATIVE
 70
     0
  0
APPID
  2
ACDBBLOCKREPETAG
 70
     0
  0
APPID
  2
ACAD_OBJECT_CHANGE_GUID
 70
     0
  0
APPID
  2
ACLAYERTOOLS
 70
     0
  0
APPID
  2
ACAD_NAV_VCDISPLAY
 70
     0
  0
APPID
  2
ACAD_DSTYLE_DIMRADIAL_EXTE
 70
     0
  0
ENDTAB
  0
TABLE
  2
DIMSTYLE
 70
     4
  0
DIMSTYLE
  2
NEWX10
 70
     0
  3
 
  4

  5

  6
OPEN30
  7
OPEN30
 40
1.0
 41
2.0
 42
0.0
 43
7.0
 44
1.0
 45
0.0
 46
0.0
 47
0.0
 48
0.0
140
3.5
141
0.0
142
0.0
143
25.4
144
1.0
145
0.0
146
0.7
147
0.7
 71
     0
 72
     0
 73
     0
 74
     0
 75
     0
 76
     0
 77
     1
 78
     8
170
     0
171
     2
172
     1
173
     1
174
     0
175
     0
176
   256
177
   256
178
   201
  0
DIMSTYLE
  2
ISO-25
 70
     0
  3

  4

  5

  6

  7

 40
1.0
 41
2.5
 42
0.625
 43
3.75
 44
1.25
 45
0.0
 46
0.0
 47
0.0
 48
0.0
140
2.5
141
2.5
142
0.0
143
0.03937007874016
144
1.0
145
0.0
146
1.0
147
0.625
 71
     0
 72
     0
 73
     0
 74
     0
 75
     0
 76
     0
 77
     1
 78
     8
170
     0
171
     3
172
     1
173
     0
174
     0
175
     0
176
     0
177
     0
178
     0
  0
ENDTAB
  0
ENDSEC
  0
SECTION
  2
BLOCKS
  0
BLOCK
  8
0
  2
$MODEL_SPACE
 70
     0
 10
0.0
 20
0.0
 30
0.0
  3
$MODEL_SPACE
  1

  0
ENDBLK
  5
1A
  8
0
  0
BLOCK
 67
     1
  8
0
  2
$PAPER_SPACE
 70
     0
 10
0.0
 20
0.0
 30
0.0
  3
$PAPER_SPACE
  1

  0
ENDBLK
  5
17
 67
     1
  8
0
  0
BLOCK
  8
0
  2
_OPEN30
 70
     0
 10
0.0
 20
0.0
 30
0.0
  3
_OPEN30
  1

  0
LINE
  5
44
  8
0
  6
BYBLOCK
 62
     0
 10
-1.0
 20
0.26794919
 30
0.0
 11
0.0
 21
0.0
 31
0.0
  0
LINE
  5
45
  8
0
  6
BYBLOCK
 62
     0
 10
0.0
 20
0.0
 30
0.0
 11
-1.0
 21
-0.26794919
 31
0.0
  0
LINE
  5
46
  8
0
  6
BYBLOCK
 62
     0
 10
0.0
 20
0.0
 30
0.0
 11
-1.0
 21
0.0
 31
0.0
  0
ENDBLK
  5
47
  8
0
  0
BLOCK
  8
0
  2
A3WAKUKAWAJUN2017_HYOUDAI_
 70
     0
 10
0.0
 20
0.0
 30
0.0
  3
A3WAKUKAWAJUN2017_HYOUDAI_
  1

  0
LINE
  5
1057F
  8
0
 10
13.26299999998673
 20
-0.0001000000000317
 30
0.0
 11
9.236999999990758
 21
8.999899999990987
 31
0.0
1001
ACAD
1000
ASC_BOUNDS
1002
{
1070
    19
1005
105C0
1002
}
  0
LINE
  5
10580
  8
0
 10
5.657999999994331
 20
0.9999999999989768
 30
0.0
 11
9.236999999990758
 21
8.999999999991019
 31
0.0
1001
ACAD
1000
ASC_BOUNDS
1002
{
1070
    19
1005
105C0
1002
}
  0
LINE
  5
10581
  8
0
 10
18.59199999998134
 20
-0.2368999999997641
 30
0.0
 11
16.46099999998353
 21
5.432899999994561
 31
0.0
1001
ACAD
1000
ASC_BOUNDS
1002
{
1070
    19
1005
105C1
1002
}
  0
LINE
  5
10582
  8
0
 10
18.59199999998134
 20
-0.2368999999997641
 30
0.0
 11
22.38199999997767
 21
8.763099999991255
 31
0.0
1001
ACAD
1000
ASC_BOUNDS
1002
{
1070
    19
1005
105C1
1002
}
  0
LINE
  5
10583
  8
0
 10
14.32899999998563
 20
-0.2368999999997641
 30
0.0
 11
16.46099999998353
 21
5.432899999994561
 31
0.0
1001
ACAD
1000
ASC_BOUNDS
1002
{
1070
    19
1005
105C1
1002
}
  0
LINE
  5
10584
  8
0
 10
14.32899999998563
 20
-0.2368999999997641
 30
0.0
 11
10.53899999998941
 21
8.763099999991255
 31
0.0
1001
ACAD
1000
ASC_BOUNDS
1002
{
1070
    19
1005
105C1
1002
}
  0
LINE
  5
10585
  8
0
 10
19.53899999998043
 20
-0.0001000000000317
 30
0.0
 11
23.56599999997638
 21
8.999899999990987
 31
0.0
1001
ACAD
1000
ASC_BOUNDS
1002
{
1070
    19
1005
105C2
1002
}
  0
LINE
  5
10586
  8
0
 10
26.97358892824991
 20
1.383099999991202
 30
0.0
 11
23.56599999997638
 21
8.999899999990987
 31
0.0
1001
ACAD
1000
ASC_BOUNDS
1002
{
1070
    19
1005
105C2
1002
}
  0
LINE
  5
10587
  8
0
 10
5.657999999994331
 20
0.9999999999989768
 30
0.0
 11
3.181999999996833
 21
4.668599999995308
 31
0.0
1001
ACAD
1000
ASC_BOUNDS
1002
{
1070
    19
1005
105C0
1002
}
  0
LINE
  5
10588
  8
0
 10
4.617999999995391
 20
-0.0001000000000317
 30
0.0
 11
1.420999999998571
 21
4.736799999995242
 31
0.0
1001
ACAD
1000
ASC_BOUNDS
1002
{
1070
    19
1005
105C0
1002
}
  0
LINE
  5
10589
  8
0
 10
1.420999999998571
 20
8.763099999991255
 30
0.0
 11
1.420999999998571
 21
0.0
 31
0.0
1001
ACAD
1000
ASC_BOUNDS
1002
{
1070
    19
1005
105C5
1002
}
  0
LINE
  5
1058A
  8
0
 10
0.0
 20
8.763099999991255
 30
0.0
 11
0.0
 21
0.0
 31
0.0
1001
ACAD
1000
ASC_BOUNDS
1002
{
1070
    19
1005
105C5
1002
}
  0
LINE
  5
1058B
  8
0
 10
6.766999999993232
 20
-0.0001000000000317
 30
0.0
 11
7.826999999992154
 21
2.368399999997621
 31
0.0
1001
ACAD
1000
ASC_BOUNDS
1002
{
1070
    19
1005
105C0
1002
}
  0
LINE
  5
1058C
  8
0
 10
0.0
 20
0.0
 30
0.0
 11
1.420999999998571
 21
0.0
 31
0.0
1001
ACAD
1000
ASC_BOUNDS
1002
{
1070
    19
1005
105C5
1002
}
  0
LINE
  5
1058D
  8
0
 10
4.617999999995391
 20
0.0
 30
0.0
 11
6.766999999993232
 21
0.0
 31
0.0
1001
ACAD
1000
ASC_BOUNDS
1002
{
1070
    19
1005
105C0
1002
}
  0
LINE
  5
1058E
  8
0
 10
11.70599999998831
 20
-0.0001000000000317
 30
0.0
 11
10.64699999998936
 21
2.368399999997621
 31
0.0
1001
ACAD
1000
ASC_BOUNDS
1002
{
1070
    19
1005
105C0
1002
}
  0
LINE
  5
1058F
  8
0
 10
7.826999999992154
 20
2.368399999997621
 30
0.0
 11
10.64699999998936
 21
2.368399999997621
 31
0.0
1001
ACAD
1000
ASC_BOUNDS
1002
{
1070
    19
1005
105C0
1002
}
  0
LINE
  5
10590
  8
0
 10
11.70599999998831
 20
0.0
 30
0.0
 11
13.26299999998673
 21
0.0
 31
0.0
1001
ACAD
1000
ASC_BOUNDS
1002
{
1070
    19
1005
105C0
1002
}
  0
LINE
  5
10591
  8
0
 10
22.15599999997789
 20
2.368399999997621
 30
0.0
 11
24.97599999997499
 21
2.368399999997621
 31
0.0
1001
ACAD
1000
ASC_BOUNDS
1002
{
1070
    19
1005
105C2
1002
}
  0
LINE
  5
10592
  8
0
 10
19.53899999998043
 20
0.0
 30
0.0
 11
21.09599999997886
 21
0.0
 31
0.0
1001
ACAD
1000
ASC_BOUNDS
1002
{
1070
    19
1005
105C2
1002
}
  0
LINE
  5
10593
  8
0
 10
21.09599999997886
 20
-0.0001000000000317
 30
0.0
 11
22.15599999997789
 21
2.368399999997621
 31
0.0
1001
ACAD
1000
ASC_BOUNDS
1002
{
1070
    19
1005
105C2
1002
}
  0
LINE
  5
10594
  8
0
 10
26.02015566812236
 20
0.0330999999912365
 30
0.0
 11
24.97599999997499
 21
2.368399999997621
 31
0.0
1001
ACAD
1000
ASC_BOUNDS
1002
{
1070
    19
1005
105C2
1002
}
  0
LINE
  5
10595
  8
0
 10
14.32399999998563
 20
3.315799999996671
 30
0.0
 11
16.46099999998353
 21
8.999899999990987
 31
0.0
1001
ACAD
1000
ASC_BOUNDS
1002
{
1070
    19
1005
105C1
1002
}
  0
LINE
  5
10596
  8
0
 10
6.432999999993513
 20
8.763099999991255
 30
0.0
 11
3.181999999996833
 21
4.668599999995308
 31
0.0
1001
ACAD
1000
ASC_BOUNDS
1002
{
1070
    19
1005
105C0
1002
}
  0
LINE
  5
10597
  8
0
 10
4.617999999995391
 20
8.763099999991255
 30
0.0
 11
1.420999999998571
 21
4.736799999995242
 31
0.0
1001
ACAD
1000
ASC_BOUNDS
1002
{
1070
    19
1005
105C0
1002
}
  0
LINE
  5
10598
  8
0
 10
0.0
 20
8.763099999991255
 30
0.0
 11
1.420999999998571
 21
8.763099999991255
 31
0.0
1001
ACAD
1000
ASC_BOUNDS
1002
{
1070
    19
1005
105C5
1002
}
  0
LINE
  5
10599
  8
0
 10
4.617999999995391
 20
8.763099999991255
 30
0.0
 11
6.432999999993513
 21
8.763099999991255
 31
0.0
1001
ACAD
1000
ASC_BOUNDS
1002
{
1070
    19
1005
105C0
1002
}
  0
LINE
  5
1059A
  8
0
 10
14.32399999998563
 20
3.315799999996671
 30
0.0
 11
12.02999999998792
 21
8.763099999991255
 31
0.0
1001
ACAD
1000
ASC_BOUNDS
1002
{
1070
    19
1005
105C1
1002
}
  0
LINE
  5
1059B
  8
0
 10
10.06399999998996
 20
3.670999999996297
 30
0.0
 11
9.236999999990758
 21
5.5200999999945
 31
0.0
1001
ACAD
1000
ASC_BOUNDS
1002
{
1070
    19
1005
105C0
1002
}
  0
LINE
  5
1059C
  8
0
 10
8.409999999991555
 20
3.670999999996297
 30
0.0
 11
9.236999999990758
 21
5.5200999999945
 31
0.0
1001
ACAD
1000
ASC_BOUNDS
1002
{
1070
    19
1005
105C0
1002
}
  0
LINE
  5
1059D
  8
0
 10
8.409999999991555
 20
3.670999999996297
 30
0.0
 11
10.06399999998996
 21
3.670999999996297
 31
0.0
1001
ACAD
1000
ASC_BOUNDS
1002
{
1070
    19
1005
105C0
1002
}
  0
LINE
  5
1059E
  8
0
 10
10.53899999998941
 20
8.763099999991255
 30
0.0
 11
12.02999999998792
 21
8.763099999991255
 31
0.0
1001
ACAD
1000
ASC_BOUNDS
1002
{
1070
    19
1005
105C1
1002
}
  0
LINE
  5
1059F
  8
0
 10
22.7389999999773
 20
3.670999999996297
 30
0.0
 11
23.56599999997638
 21
5.5200999999945
 31
0.0
1001
ACAD
1000
ASC_BOUNDS
1002
{
1070
    19
1005
105C2
1002
}
  0
LINE
  5
105A0
  8
0
 10
22.7389999999773
 20
3.670999999996297
 30
0.0
 11
24.39299999997559
 21
3.670999999996297
 31
0.0
1001
ACAD
1000
ASC_BOUNDS
1002
{
1070
    19
1005
105C2
1002
}
  0
LINE
  5
105A1
  8
0
 10
18.59799999998143
 20
3.315799999996671
 30
0.0
 11
20.89099999997916
 21
8.763099999991255
 31
0.0
1001
ACAD
1000
ASC_BOUNDS
1002
{
1070
    19
1005
105C1
1002
}
  0
LINE
  5
105A2
  8
0
 10
18.59799999998143
 20
3.315799999996671
 30
0.0
 11
16.46099999998353
 21
8.999899999990987
 31
0.0
1001
ACAD
1000
ASC_BOUNDS
1002
{
1070
    19
1005
105C1
1002
}
  0
LINE
  5
105A3
  8
0
 10
20.89099999997916
 20
8.763099999991255
 30
0.0
 11
22.38199999997767
 21
8.763099999991255
 31
0.0
1001
ACAD
1000
ASC_BOUNDS
1002
{
1070
    19
1005
105C1
1002
}
  0
LINE
  5
105A4
  8
0
 10
24.39299999997559
 20
3.670999999996297
 30
0.0
 11
23.56599999997638
 21
5.5200999999945
 31
0.0
1001
ACAD
1000
ASC_BOUNDS
1002
{
1070
    19
1005
105C2
1002
}
  0
LINE
  5
105A5
  8
0
 10
44.99999999995498
 20
-0.2368999999997641
 30
0.0
 11
40.02599999995994
 21
5.341799999994635
 31
0.0
1001
ACAD
1000
ASC_BOUNDS
1002
{
1070
    19
1005
105C4
1002
}
  0
LINE
  5
105A6
  8
0
 10
40.02599999995994
 20
5.341799999994635
 30
0.0
 11
40.02599999995994
 21
0.0
 31
0.0
1001
ACAD
1000
ASC_BOUNDS
1002
{
1070
    19
1005
105C4
1002
}
  0
LINE
  5
105A7
  8
0
 10
38.60499999996136
 20
8.999999999991019
 30
0.0
 11
38.60499999996136
 21
0.0
 31
0.0
1001
ACAD
1000
ASC_BOUNDS
1002
{
1070
    19
1005
105C4
1002
}
  0
LINE
  5
105A8
  8
0
 10
44.99999999995498
 20
8.763099999991255
 30
0.0
 11
44.99999999995498
 21
-0.2368999999997641
 31
0.0
1001
ACAD
1000
ASC_BOUNDS
1002
{
1070
    19
1005
105C4
1002
}
  0
LINE
  5
105A9
  8
0
 10
38.60499999996136
 20
0.0
 30
0.0
 11
40.02599999995994
 21
0.0
 31
0.0
1001
ACAD
1000
ASC_BOUNDS
1002
{
1070
    19
1005
105C4
1002
}
  0
LINE
  5
105AA
  8
0
 10
43.57899999995641
 20
3.421199999996588
 30
0.0
 11
38.60499999996136
 21
8.999899999990987
 31
0.0
1001
ACAD
1000
ASC_BOUNDS
1002
{
1070
    19
1005
105C4
1002
}
  0
LINE
  5
105AB
  8
0
 10
43.57899999995641
 20
8.763099999991255
 30
0.0
 11
43.57899999995641
 21
3.421199999996588
 31
0.0
1001
ACAD
1000
ASC_BOUNDS
1002
{
1070
    19
1005
105C4
1002
}
  0
LINE
  5
105AC
  8
0
 10
43.57899999995641
 20
8.763099999991255
 30
0.0
 11
44.99999999995498
 21
8.763099999991255
 31
0.0
1001
ACAD
1000
ASC_BOUNDS
1002
{
1070
    19
1005
105C4
1002
}
  0
LINE
  5
105AD
  8
0
 10
37.67199999996831
 20
8.763099999991255
 30
0.0
 11
36.23199999996837
 21
8.763099999991255
 31
0.0
  0
LINE
  5
105AE
  8
0
 10
31.64199999996833
 20
8.763099999991255
 30
0.0
 11
31.64199999996833
 21
2.481619422925121
 31
0.0
  0
LINE
  5
105AF
  8
0
 10
37.67199999996831
 20
8.763099999991255
 30
0.0
 11
37.67199999996831
 21
2.481619422925121
 31
0.0
  0
LINE
  5
105B0
  8
0
 10
36.23199999996837
 20
8.763099999991255
 30
0.0
 11
36.23199999996837
 21
2.481619422925064
 31
0.0
  0
LINE
  5
105B1
  8
0
 10
33.08199999996839
 20
8.763099999991255
 30
0.0
 11
33.08199999996839
 21
2.481619422925121
 31
0.0
  0
ARC
  5
105B2
  8
0
 10
34.65699999996832
 20
3.183099999991214
 30
0.0
 40
3.420000000000007
 50
240.0000000000255
 51
299.9999999999766
  0
ARC
  5
105B3
  8
0
 10
34.65699999996832
 20
3.183099999991214
 30
0.0
 40
1.97999999999999
 50
240.000000000026
 51
299.9999999999703
  0
LINE
  5
105B4
  8
0
 10
33.08199999996828
 20
8.763099999991255
 30
0.0
 11
31.64199999996833
 21
8.763099999991255
 31
0.0
  0
ARC
  5
105B5
  8
0
 10
35.06199999996829
 20
2.481619422925064
 30
0.0
 40
1.17
 50
299.9999999999699
 51
0.0
  0
ARC
  5
105B6
  8
0
 10
34.25199999996835
 20
2.481619422925121
 30
0.0
 40
1.17
 50
180.0
 51
240.0000000000238
  0
ARC
  5
105B7
  8
0
 10
35.06199999996841
 20
2.481619422925121
 30
0.0
 40
2.61
 50
299.9999999999756
 51
0.0
  0
ARC
  5
105B8
  8
0
 10
34.25199999996835
 20
2.481619422925121
 30
0.0
 40
2.61
 50
180.0
 51
240.0000000000244
  0
LINE
  5
105B9
  8
0
 10
29.30199999996933
 20
8.763099999991255
 30
0.0
 11
30.74199999996927
 21
8.763099999991255
 31
0.0
1001
ACAD
1000
ASC_BOUNDS
1002
{
1070
    19
1005
105C2
1002
}
  0
LINE
  5
105BA
  8
0
 10
30.74199999996927
 20
8.763099999991255
 30
0.0
 11
30.74199999996927
 21
2.373099999991211
 31
0.0
1001
ACAD
1000
ASC_BOUNDS
1002
{
1070
    19
1005
105C2
1002
}
  0
LINE
  5
105BB
  8
0
 10
26.02015566812236
 20
0.0330999999912365
 30
0.0
 11
28.40199999996923
 21
0.0330999999912365
 31
0.0
1001
ACAD
1000
ASC_BOUNDS
1002
{
1070
    19
1005
105C2
1002
}
  0
LINE
  5
105BC
  8
0
 10
29.30199999996933
 20
8.763099999991255
 30
0.0
 11
29.30199999996933
 21
2.283099999991236
 31
0.0
1001
ACAD
1000
ASC_BOUNDS
1002
{
1070
    19
1005
105C2
1002
}
  0
LINE
  5
105BD
  8
0
 10
26.97358892824991
 20
1.383099999991202
 30
0.0
 11
28.40199999996923
 21
1.383099999991202
 31
0.0
1001
ACAD
1000
ASC_BOUNDS
1002
{
1070
    19
1005
105C2
1002
}
  0
ARC
  5
105BE
  8
0
 10
28.40199999996923
 20
2.283099999991236
 30
0.0
 40
0.9
 50
270.0
 51
0.0
1001
ACAD
1000
ASC_BOUNDS
1002
{
1070
    19
1005
105C2
1002
}
  0
ARC
  5
105BF
  8
0
 10
28.40199999996923
 20
2.373099999991211
 30
0.0
 40
2.34
 50
270.0
 51
0.0
1001
ACAD
1000
ASC_BOUNDS
1002
{
1070
    19
1005
105C2
1002
}
  0
INSERT
  5
105C0
  8
0
  2
*X49
 10
0.0
 20
0.0
 30
0.0
1001
ACAD
1000
HATCH
1002
{
1070
    19
1000
ANSI37
1040
0.15
1040
0.0
1000
ASC_BOUNDS
1070
     2
1070
     2
1070
    12
1005
1057F
1005
10580
1005
10587
1005
10596
1005
10599
1005
10597
1005
10588
1005
1058D
1005
1058B
1005
1058F
1005
1058E
1005
10590
1070
     2
1070
     3
1005
1059B
1005
1059D
1005
1059C
1000
ASC_SEEDPOINT
1011
3.614004224891801
1021
2.996669441146025
1031
0.0
1021
2.996669441146025
1031
0.0
1000
R14_HATCH_DATA
1000
105C0
1011
1.0
1021
0.0
1031
0.0
1021
0.0
1031
0.0
1011
0.0
1021
1.0
1031
0.0
1021
1.0
1031
0.0
1011
0.0
1021
0.0
1031
1.0
1021
0.0
1031
1.0
1040
0.0
1010
0.0
1020
0.0
1030
1.0
1000
ANSI37
1070
     0
1070
     1
1071
        2
1071
        7
1070
     0
1070
     1
1071
       17
1040
13.26299999998673
1040
-0.0001000000000317
1040
9.236999999990758
1040
8.999899999990987
1040
9.236999999990758
1040
8.999999999991019
1040
5.657999999994331
1040
0.9999999999989768
1040
3.181999999996833
1040
4.668599999995308
1040
6.432999999993513
1040
8.763099999991255
1040
4.617999999995391
1040
8.763099999991255
1040
1.420999999998571
1040
4.736799999995242
1040
4.617999999995391
1040
-0.0001000000000317
1040
4.617999999995391
1040
0.0
1040
6.766999999993232
1040
0.0
1040
6.766999999993232
1040
-0.0001000000000317
1040
7.826999999992154
1040
2.368399999997621
1040
10.64699999998936
1040
2.368399999997621
1040
11.70599999998831
1040
-0.0001000000000317
1040
11.70599999998831
1040
0.0
1040
13.26299999998673
1040
0.0
1071
       12
1005
1057F
1005
10580
1005
10587
1005
10596
1005
10599
1005
10597
1005
10588
1005
1058D
1005
1058B
1005
1058F
1005
1058E
1005
10590
1071
       22
1070
     0
1070
     1
1071
        3
1040
9.236999999990758
1040
5.5200999999945
1040
10.06399999998996
1040
3.670999999996297
1040
8.409999999991555
1040
3.670999999996297
1071
        3
1005
1059B
1005
1059D
1005
1059C
1070
     0
1070
     1
1040
0.0
1040
0.15
1070
     0
1070
     2
1040
0.7853981633974483
1040
49.29960901727088
1040
-10.17736998311392
1040
-0.3367596045400932
1040
0.3367596045400932
1070
     0
1040
2.356194490192345
1040
49.29960901727088
1040
-10.17736998311392
1040
-0.3367596045400932
1040
-0.3367596045400932
1070
     0
1040
0.0110235143455945
1071
        2
1040
3.614004224891801
1040
2.996669441146025
1040
0.0
1040
3.614004224891801
1040
2.996669441146025
1040
0.0
1002
}
  0
INSERT
  5
105C1
  8
0
  2
*X50
 10
0.0
 20
0.0
 30
0.0
1001
ACAD
1000
HATCH
1002
{
1070
    19
1000
ANSI37
1040
0.15
1040
0.0
1000
ASC_BOUNDS
1070
     1
1070
     2
1070
    10
1005
10581
1005
10582
1005
105A3
1005
105A1
1005
105A2
1005
10595
1005
1059A
1005
1059E
1005
10584
1005
10583
1000
ASC_SEEDPOINT
1011
14.73245321214324
1021
2.798246178283421
1031
0.0
1021
2.798246178283421
1031
0.0
1000
R14_HATCH_DATA
1000
105C1
1011
1.0
1021
0.0
1031
0.0
1021
0.0
1031
0.0
1011
0.0
1021
1.0
1031
0.0
1021
1.0
1031
0.0
1011
0.0
1021
0.0
1031
1.0
1021
0.0
1031
1.0
1040
0.0
1010
0.0
1020
0.0
1030
1.0
1000
ANSI37
1070
     0
1070
     1
1071
        1
1071
        7
1070
     0
1070
     1
1071
       10
1040
16.46099999998353
1040
5.432899999994561
1040
18.59199999998134
1040
-0.2368999999997641
1040
22.38199999997767
1040
8.763099999991255
1040
20.89099999997916
1040
8.763099999991255
1040
18.59799999998143
1040
3.315799999996671
1040
16.46099999998353
1040
8.999899999990987
1040
14.32399999998563
1040
3.315799999996671
1040
12.02999999998792
1040
8.763099999991255
1040
10.53899999998941
1040
8.763099999991255
1040
14.32899999998563
1040
-0.2368999999997641
1071
       10
1005
10581
1005
10582
1005
105A3
1005
105A1
1005
105A2
1005
10595
1005
1059A
1005
1059E
1005
10584
1005
10583
1070
     0
1070
     1
1040
0.0
1040
0.15
1070
     0
1070
     2
1040
0.7853981633974483
1040
49.29960901727088
1040
-10.17736998311392
1040
-0.3367596045400932
1040
0.3367596045400932
1070
     0
1040
2.356194490192345
1040
49.29960901727088
1040
-10.17736998311392
1040
-0.3367596045400932
1040
-0.3367596045400932
1070
     0
1040
0.0110235143455945
1071
        1
1040
14.73245321214324
1040
2.798246178283421
1040
0.0
1002
}
  0
INSERT
  5
105C2
  8
0
  2
*X51
 10
0.0
 20
0.0
 30
0.0
1001
ACAD
1000
HATCH
1002
{
1070
    19
1000
ANSI37
1040
0.15
1040
0.0
1000
ASC_BOUNDS
1070
     2
1070
     2
1070
    13
1005
10585
1005
10592
1005
10593
1005
10591
1005
10594
1005
105BB
1005
105BF
1005
105BA
1005
105B9
1005
105BC
1005
105BE
1005
105BD
1005
10586
1070
     2
1070
     3
1005
1059F
1005
105A4
1005
105A0
1000
ASC_SEEDPOINT
1011
21.97929957367762
1021
3.294304244259308
1031
0.0
1021
3.294304244259308
1031
0.0
1000
R14_HATCH_DATA
1000
105C2
1011
1.0
1021
0.0
1031
0.0
1021
0.0
1031
0.0
1011
0.0
1021
1.0
1031
0.0
1021
1.0
1031
0.0
1011
0.0
1021
0.0
1031
1.0
1021
0.0
1031
1.0
1040
0.0
1010
0.0
1020
0.0
1030
1.0
1000
ANSI37
1070
     0
1070
     1
1071
        2
1071
        7
1070
     1
1070
     1
1071
       15
1040
23.56599999997638
1040
8.999899999990987
1040
0.0
1040
19.53899999998043
1040
-0.0001000000000317
1040
0.0
1040
19.53899999998043
1040
0.0
1040
0.0
1040
21.09599999997886
1040
0.0
1040
0.0
1040
21.09599999997886
1040
-0.0001000000000317
1040
0.0
1040
22.15599999997789
1040
2.368399999997621
1040
0.0
1040
24.97599999997499
1040
2.368399999997621
1040
0.0
1040
26.02015566812236
1040
0.0330999999912365
1040
0.0
1040
28.40199999996923
1040
0.0330999999912365
1040
0.414213562373095
1040
30.74199999996923
1040
2.373099999991211
1040
0.0
1040
30.74199999996927
1040
8.763099999991255
1040
0.0
1040
29.30199999996933
1040
8.763099999991255
1040
0.0
1040
29.30199999996933
1040
2.283099999991236
1040
-0.414213562373095
1040
28.40199999996923
1040
1.383099999991237
1040
0.0
1040
26.97358892824991
1040
1.383099999991202
1040
0.0
1071
       13
1005
10585
1005
10592
1005
10593
1005
10591
1005
10594
1005
105BB
1005
105BF
1005
105BA
1005
105B9
1005
105BC
1005
105BE
1005
105BD
1005
10586
1071
       22
1070
     0
1070
     1
1071
        3
1040
22.7389999999773
1040
3.670999999996297
1040
23.56599999997638
1040
5.5200999999945
1040
24.39299999997559
1040
3.670999999996297
1071
        3
1005
1059F
1005
105A4
1005
105A0
1070
     0
1070
     1
1040
0.0
1040
0.15
1070
     0
1070
     2
1040
0.7853981633974483
1040
49.29960901727088
1040
-10.17736998311392
1040
-0.3367596045400932
1040
0.3367596045400932
1070
     0
1040
2.356194490192345
1040
49.29960901727088
1040
-10.17736998311392
1040
-0.3367596045400932
1040
-0.3367596045400932
1070
     0
1040
0.0110235143455945
1071
        2
1040
21.97929957367762
1040
3.294304244259308
1040
0.0
1040
21.97929957367762
1040
3.294304244259308
1040
0.0
1002
}
  0
INSERT
  5
105C3
  8
0
  2
*X52
 10
0.0
 20
0.0
 30
0.0
1001
ACAD
1000
HATCH
1002
{
1070
    19
1000
ANSI37
1040
0.15
1040
0.0
1000
R14_HATCH_DATA
1000
105C3
1011
1.0
1021
0.0
1031
0.0
1021
0.0
1031
0.0
1011
0.0
1021
1.0
1031
0.0
1021
1.0
1031
0.0
1011
0.0
1021
0.0
1031
1.0
1021
0.0
1031
1.0
1040
0.0
1010
0.0
1020
0.0
1030
1.0
1000
ANSI37
1070
     0
1070
     1
1071
        1
1071
        7
1070
     1
1070
     1
1071
       12
1040
31.64199999996833
1040
2.481619422925121
1040
0.2679491924310942
1040
32.94699999997067
1040
0.2212931190493919
1040
0.2679491924301353
1040
36.36699999995983
1040
0.2212931190459813
1040
0.2679491924321411
1040
37.67199999996831
1040
2.481619422928361
1040
0.0
1040
37.67199999996831
1040
8.763099999991255
1040
0.0
1040
36.23199999996837
1040
8.763099999991255
1040
0.0
1040
36.23199999996837
1040
2.481619422925064
1040
-0.2679491924310291
1040
35.64699999996708
1040
1.468369700498386
1040
-0.267949192430519
1040
33.66699999997093
1040
1.468369700497703
1040
-0.267949192431809
1040
33.08199999996839
1040
2.481619422926997
1040
0.0
1040
33.08199999996839
1040
8.763099999991255
1040
0.0
1040
31.64199999996833
1040
8.763099999991255
1040
0.0
1071
        0
1070
     0
1070
     1
1040
0.0
1040
0.15
1070
     0
1070
     2
1040
0.7853981633974483
1040
49.29960901727088
1040
-10.17736998311392
1040
-0.3367596045400932
1040
0.3367596045400932
1070
     0
1040
2.356194490192345
1040
49.29960901727088
1040
-10.17736998311392
1040
-0.3367596045400932
1040
-0.3367596045400932
1070
     0
1040
0.0110235143455945
1071
        1
1040
32.30357378967278
1040
3.988785755459219
1040
0.0
1002
}
  0
INSERT
  5
105C4
  8
0
  2
*X53
 10
0.0
 20
0.0
 30
0.0
1001
ACAD
1000
HATCH
1002
{
1070
    19
1000
ANSI37
1040
0.15
1040
0.0
1000
ASC_BOUNDS
1070
     1
1070
     2
1070
     8
1005
105A5
1005
105A8
1005
105AC
1005
105AB
1005
105AA
1005
105A7
1005
105A9
1005
105A6
1000
ASC_SEEDPOINT
1011
39.74896370716704
1021
4.484843821435049
1031
0.0
1021
4.484843821435049
1031
0.0
1000
R14_HATCH_DATA
1000
105C4
1011
1.0
1021
0.0
1031
0.0
1021
0.0
1031
0.0
1011
0.0
1021
1.0
1031
0.0
1021
1.0
1031
0.0
1011
0.0
1021
0.0
1031
1.0
1021
0.0
1031
1.0
1040
0.0
1010
0.0
1020
0.0
1030
1.0
1000
ANSI37
1070
     0
1070
     1
1071
        1
1071
        7
1070
     0
1070
     1
1071
        9
1040
40.02599999995994
1040
5.341799999994635
1040
44.99999999995498
1040
-0.2368999999997641
1040
44.99999999995498
1040
8.763099999991255
1040
43.57899999995641
1040
8.763099999991255
1040
43.57899999995641
1040
3.421199999996588
1040
38.60499999996136
1040
8.999899999990987
1040
38.60499999996136
1040
8.999999999991019
1040
38.60499999996136
1040
0.0
1040
40.02599999995994
1040
0.0
1071
        8
1005
105A5
1005
105A8
1005
105AC
1005
105AB
1005
105AA
1005
105A7
1005
105A9
1005
105A6
1070
     0
1070
     1
1040
0.0
1040
0.15
1070
     0
1070
     2
1040
0.7853981633974483
1040
49.29960901727088
1040
-10.17736998311392
1040
-0.3367596045400932
1040
0.3367596045400932
1070
     0
1040
2.356194490192345
1040
49.29960901727088
1040
-10.17736998311392
1040
-0.3367596045400932
1040
-0.3367596045400932
1070
     0
1040
0.0110235143455945
1071
        1
1040
39.74896370716704
1040
4.484843821435049
1040
0.0
1002
}
  0
INSERT
  5
105C5
  8
0
  2
*X54
 10
0.0
 20
0.0
 30
0.0
1001
ACAD
1000
HATCH
1002
{
1070
    19
1000
ANSI37
1040
0.15
1040
0.0
1000
ASC_BOUNDS
1070
     1
1070
     2
1070
     4
1005
10589
1005
10598
1005
1058A
1005
1058C
1000
ASC_SEEDPOINT
1011
1.079051535452663
1021
4.148538732891836
1031
0.0
1021
4.148538732891836
1031
0.0
1000
R14_HATCH_DATA
1000
105C5
1011
1.0
1021
0.0
1031
0.0
1021
0.0
1031
0.0
1011
0.0
1021
1.0
1031
0.0
1021
1.0
1031
0.0
1011
0.0
1021
0.0
1031
1.0
1021
0.0
1031
1.0
1040
0.0
1010
0.0
1020
0.0
1030
1.0
1000
ANSI37
1070
     0
1070
     1
1071
        1
1071
        7
1070
     0
1070
     1
1071
        4
1040
1.420999999998571
1040
0.0
1040
1.420999999998571
1040
8.763099999991255
1040
0.0
1040
8.763099999991255
1040
0.0
1040
0.0
1071
        4
1005
10589
1005
10598
1005
1058A
1005
1058C
1070
     0
1070
     1
1040
0.0
1040
0.15
1070
     0
1070
     2
1040
0.7853981633974483
1040
49.29960901727088
1040
-10.17736998311392
1040
-0.3367596045400932
1040
0.3367596045400932
1070
     0
1040
2.356194490192345
1040
49.29960901727088
1040
-10.17736998311392
1040
-0.3367596045400932
1040
-0.3367596045400932
1070
     0
1040
0.0053004257112761
1071
        1
1040
1.079051535452663
1040
4.148538732891836
1040
0.0
1002
}
  0
ENDBLK
  5
10C7D
  8
0
  0
BLOCK
  8
0
  2
*X49
 70
     1
 10
0.0
 20
0.0
 30
0.0
  3
*X49
  1

  0
LINE
  5
11F9E
  8
0
  6
CONTINUOUS
 10
3.418023043697893
 20
7.251849696850613
 30
0.0
 11
4.929273346838536
 21
8.763099999991255
 31
0.0
  0
LINE
  5
11F9F
  8
0
  6
CONTINUOUS
 10
1.483656411257782
 20
4.643963855330318
 30
0.0
 11
5.60279255591872
 21
8.763099999991255
 31
0.0
  0
LINE
  5
11FA0
  8
0
  6
CONTINUOUS
 10
1.755053947328235
 20
4.241842182320584
 30
0.0
 11
6.276311764998907
 21
8.763099999991255
 31
0.0
  0
LINE
  5
11FA1
  8
0
  6
CONTINUOUS
 10
2.026451483398688
 20
3.839720509310849
 30
0.0
 11
4.441040904851878
 21
6.254309930764039
 31
0.0
  0
LINE
  5
11FA2
  8
0
  6
CONTINUOUS
 10
2.297849019469139
 20
3.437598836301114
 30
0.0
 11
3.321765168359338
 21
4.461514985191313
 31
0.0
  0
LINE
  5
11FA3
  8
0
  6
CONTINUOUS
 10
2.569246555539591
 20
3.03547716329138
 30
0.0
 11
3.593163397972743
 21
4.059394005724531
 31
0.0
  0
LINE
  5
11FA4
  8
0
  6
CONTINUOUS
 10
2.840644091610043
 20
2.633355490281646
 30
0.0
 11
3.864561627586149
 21
3.657273026257751
 31
0.0
  0
LINE
  5
11FA5
  8
0
  6
CONTINUOUS
 10
3.112041627680496
 20
2.231233817271911
 30
0.0
 11
4.135959857199554
 21
3.25515204679097
 31
0.0
  0
LINE
  5
11FA6
  8
0
  6
CONTINUOUS
 10
3.383439163750948
 20
1.829112144262177
 30
0.0
 11
4.40735808681296
 21
2.853031067324189
 31
0.0
  0
LINE
  5
11FA7
  8
0
  6
CONTINUOUS
 10
3.654836699821399
 20
1.426990471252442
 30
0.0
 11
4.678756316426365
 21
2.450910087857407
 31
0.0
  0
LINE
  5
11FA8
  8
0
  6
CONTINUOUS
 10
3.926234235891853
 20
1.024868798242709
 30
0.0
 11
4.95015454603977
 21
2.048789108390626
 31
0.0
  0
LINE
  5
11FA9
  8
0
  6
CONTINUOUS
 10
4.197631771962304
 20
0.6227471252329737
 30
0.0
 11
5.221552775653176
 21
1.646668128923846
 31
0.0
  0
LINE
  5
11FAA
  8
0
  6
CONTINUOUS
 10
8.715877546767851
 20
7.835069736359266
 30
0.0
 11
9.435953450375058
 21
8.555145639966472
 31
0.0
  0
LINE
  5
11FAB
  8
0
  6
CONTINUOUS
 10
8.170620868422267
 20
6.616293848933497
 30
0.0
 11
9.644120833743461
 21
8.08979381425469
 31
0.0
  0
LINE
  5
11FAC
  8
0
  6
CONTINUOUS
 10
7.625364190076684
 20
5.397517961507727
 30
0.0
 11
9.852288217111864
 21
7.624441988542907
 31
0.0
  0
LINE
  5
11FAD
  8
0
  6
CONTINUOUS
 10
7.080107511731101
 20
4.178742074081957
 30
0.0
 11
10.06045560048027
 21
7.159090162831124
 31
0.0
  0
LINE
  5
11FAE
  8
0
  6
CONTINUOUS
 10
6.534850833385518
 20
2.959966186656187
 30
0.0
 11
10.26862298384867
 21
6.693738337119342
 31
0.0
  0
LINE
  5
11FAF
  8
0
  6
CONTINUOUS
 10
4.469029308032756
 20
0.2206254522232385
 30
0.0
 11
5.492951005266582
 21
1.244547149457064
 31
0.0
  0
LINE
  5
11FB0
  8
0
  6
CONTINUOUS
 10
5.989594155039935
 20
1.741190299230417
 30
0.0
 11
8.806950407233131
 21
4.558546551423613
 31
0.0
  0
LINE
  5
11FB1
  8
0
  6
CONTINUOUS
 10
9.401251593263643
 20
5.152847737454126
 30
0.0
 11
10.47679036721708
 21
6.228386511407559
 31
0.0
  0
LINE
  5
11FB2
  8
0
  6
CONTINUOUS
 10
4.921837203428691
 20
-0.0000858614610131
 30
0.0
 11
8.592923064886001
 21
3.670999999996297
 31
0.0
  0
LINE
  5
11FB3
  8
0
  6
CONTINUOUS
 10
9.609390446785305
 20
4.6874673818956
 30
0.0
 11
10.68495775058548
 21
5.763034685695775
 31
0.0
  0
LINE
  5
11FB4
  8
0
  6
CONTINUOUS
 10
5.595387755019432
 20
-0.0000545189504582
 30
0.0
 11
7.716137258923768
 21
2.120694984953879
 31
0.0
  0
LINE
  5
11FB5
  8
0
  6
CONTINUOUS
 10
6.268938306610172
 20
-0.000023176439905
 30
0.0
 11
7.170485805526503
 21
0.9015243224764267
 31
0.0
  0
LINE
  5
11FB6
  8
0
  6
CONTINUOUS
 10
7.963842273967511
 20
2.368399999997621
 30
0.0
 11
9.266442273966188
 21
3.670999999996297
 31
0.0
  0
LINE
  5
11FB7
  8
0
  6
CONTINUOUS
 10
8.637361483047696
 20
2.368399999997621
 30
0.0
 11
9.939961483046375
 21
3.670999999996297
 31
0.0
  0
LINE
  5
11FB8
  8
0
  6
CONTINUOUS
 10
9.817529300306965
 20
4.222087026337075
 30
0.0
 11
10.89312513395388
 21
5.297682859983993
 31
0.0
  0
LINE
  5
11FB9
  8
0
  6
CONTINUOUS
 10
10.02566815382863
 20
3.756706670778549
 30
0.0
 11
11.10129251732229
 21
4.832331034272211
 31
0.0
  0
LINE
  5
11FBA
  8
0
  6
CONTINUOUS
 10
9.310880692127883
 20
2.368399999997621
 30
0.0
 11
11.30945990069069
 21
4.366979208560428
 31
0.0
  0
LINE
  5
11FBB
  8
0
  6
CONTINUOUS
 10
9.98439990120807
 20
2.36839999999762
 30
0.0
 11
11.5176272840591
 21
3.901627382848645
 31
0.0
  0
LINE
  5
11FBC
  8
0
  6
CONTINUOUS
 10
10.65037369446246
 20
2.36085458417182
 30
0.0
 11
11.7257946674275
 21
3.436275557136862
 31
0.0
  0
LINE
  5
11FBD
  8
0
  6
CONTINUOUS
 10
10.85847197087848
 20
1.895433651507656
 30
0.0
 11
11.9339620507959
 21
2.97092373142508
 31
0.0
  0
LINE
  5
11FBE
  8
0
  6
CONTINUOUS
 10
11.0665702472945
 20
1.430012718843491
 30
0.0
 11
12.14212943416431
 21
2.505571905713296
 31
0.0
  0
LINE
  5
11FBF
  8
0
  6
CONTINUOUS
 10
11.27466852371052
 20
0.9645917861793256
 30
0.0
 11
12.35029681753271
 21
2.040220080001513
 31
0.0
  0
LINE
  5
11FC0
  8
0
  6
CONTINUOUS
 10
11.48276680012654
 20
0.4991708535151611
 30
0.0
 11
12.55846420090111
 21
1.57486825428973
 31
0.0
  0
LINE
  5
11FC1
  8
0
  6
CONTINUOUS
 10
11.69086507654257
 20
0.0337499208509957
 30
0.0
 11
12.76663158426952
 21
1.109516428577947
 31
0.0
  0
LINE
  5
11FC2
  8
0
  6
CONTINUOUS
 10
12.33057447873954
 20
-0.0000598860322123
 30
0.0
 11
12.97479896763792
 21
0.6441646028661663
 31
0.0
  0
LINE
  5
11FC3
  8
0
  6
CONTINUOUS
 10
13.00413694809395
 20
-0.0000166257579952
 30
0.0
 11
13.18296635100632
 21
0.1788127771543824
 31
0.0
  0
LINE
  5
11FC4
  8
0
  6
CONTINUOUS
 10
4.772852165289667
 20
-0.000092794222212
 30
0.0
 11
4.296495091028902
 21
0.4762642800385528
 31
0.0
  0
LINE
  5
11FC5
  8
0
  6
CONTINUOUS
 10
5.446340034776103
 20
-0.0000614546284616
 30
0.0
 11
2.898195908335625
 21
2.548082671812017
 31
0.0
  0
LINE
  5
11FC6
  8
0
  6
CONTINUOUS
 10
6.119827904262539
 20
-0.0000301150347113
 30
0.0
 11
1.499896725642348
 21
4.61990106358548
 31
0.0
  0
LINE
  5
11FC7
  8
0
  6
CONTINUOUS
 10
6.775136745476159
 20
0.0181802528318542
 30
0.0
 11
5.699826040202669
 21
1.093490958105344
 31
0.0
  0
LINE
  5
11FC8
  8
0
  6
CONTINUOUS
 10
6.983376846288489
 20
0.4834593610997118
 30
0.0
 11
5.908008617934405
 21
1.558827589453796
 31
0.0
  0
LINE
  5
11FC9
  8
0
  6
CONTINUOUS
 10
5.377063484962296
 20
1.416253513345719
 30
0.0
 11
1.702276957014131
 21
5.091040041293883
 31
0.0
  0
LINE
  5
11FCA
  8
0
  6
CONTINUOUS
 10
3.978745891735324
 20
3.488090315652877
 30
0.0
 11
2.000373521109399
 21
5.466462686278803
 31
0.0
  0
LINE
  5
11FCB
  8
0
  6
CONTINUOUS
 10
7.191616947100819
 20
0.948738469367568
 30
0.0
 11
6.11619119566614
 21
2.024164220802247
 31
0.0
  0
LINE
  5
11FCC
  8
0
  6
CONTINUOUS
 10
7.399857047913149
 20
1.414017577635424
 30
0.0
 11
6.324373773397875
 21
2.489500852150698
 31
0.0
  0
LINE
  5
11FCD
  8
0
  6
CONTINUOUS
 10
7.608097148725479
 20
1.879296685903281
 30
0.0
 11
6.53255635112961
 21
2.95483748349915
 31
0.0
  0
LINE
  5
11FCE
  8
0
  6
CONTINUOUS
 10
7.816337249537808
 20
2.344575794171138
 30
0.0
 11
6.740738928861345
 21
3.420174114847601
 31
0.0
  0
LINE
  5
11FCF
  8
0
  6
CONTINUOUS
 10
3.310241080789734
 20
4.830114335678653
 30
0.0
 11
2.298470085204666
 21
5.84188533126372
 31
0.0
  0
LINE
  5
11FD0
  8
0
  6
CONTINUOUS
 10
3.60832983563551
 20
5.205544789913063
 30
0.0
 11
2.596566649299935
 21
6.217307976248638
 31
0.0
  0
LINE
  5
11FD1
  8
0
  6
CONTINUOUS
 10
3.906418590481286
 20
5.580975244147473
 30
0.0
 11
2.894663213395203
 21
6.592730621233557
 31
0.0
  0
LINE
  5
11FD2
  8
0
  6
CONTINUOUS
 10
4.204507345327062
 20
5.956405698381884
 30
0.0
 11
3.192759777490472
 21
6.968153266218474
 31
0.0
  0
LINE
  5
11FD3
  8
0
  6
CONTINUOUS
 10
8.466032252791512
 20
2.368399999997621
 30
0.0
 11
6.948921506593081
 21
3.885510746196053
 31
0.0
  0
LINE
  5
11FD4
  8
0
  6
CONTINUOUS
 10
9.139551461871699
 20
2.36839999999762
 30
0.0
 11
7.157104084324816
 21
4.350847377544504
 31
0.0
  0
LINE
  5
11FD5
  8
0
  6
CONTINUOUS
 10
4.502596100172839
 20
6.331836152616295
 30
0.0
 11
3.49085634158574
 21
7.343575911203393
 31
0.0
  0
LINE
  5
11FD6
  8
0
  6
CONTINUOUS
 10
4.800684855018615
 20
6.707266606850705
 30
0.0
 11
3.788952905681008
 21
7.718998556188312
 31
0.0
  0
LINE
  5
11FD7
  8
0
  6
CONTINUOUS
 10
12.18154012887317
 20
-0.0000694579236642
 30
0.0
 11
11.32140332908496
 21
0.8600673418645499
 31
0.0
  0
LINE
  5
11FD8
  8
0
  6
CONTINUOUS
 10
12.85501608323566
 20
-0.0000262032059659
 30
0.0
 11
10.77672456435345
 21
2.078265315676246
 31
0.0
  0
LINE
  5
11FD9
  8
0
  6
CONTINUOUS
 10
9.813070670951886
 20
2.36839999999762
 30
0.0
 11
8.51047067095321
 21
3.670999999996297
 31
0.0
  0
LINE
  5
11FDA
  8
0
  6
CONTINUOUS
 10
10.48658988003207
 20
2.36839999999762
 30
0.0
 11
9.183989880033396
 21
3.670999999996297
 31
0.0
  0
LINE
  5
11FDB
  8
0
  6
CONTINUOUS
 10
8.441048632286794
 20
3.740422038662712
 30
0.0
 11
7.365286662056551
 21
4.816184008892956
 31
0.0
  0
LINE
  5
11FDC
  8
0
  6
CONTINUOUS
 10
8.649187485808454
 20
4.205802394221237
 30
0.0
 11
7.573469239788285
 21
5.281520640241407
 31
0.0
  0
LINE
  5
11FDD
  8
0
  6
CONTINUOUS
 10
5.098773609864391
 20
7.082697061085115
 30
0.0
 11
4.087049469776277
 21
8.09442120117323
 31
0.0
  0
LINE
  5
11FDE
  8
0
  6
CONTINUOUS
 10
5.396862364710167
 20
7.458127515319526
 30
0.0
 11
4.385146033871544
 21
8.469843846158149
 31
0.0
  0
LINE
  5
11FDF
  8
0
  6
CONTINUOUS
 10
13.04801363231285
 20
0.4804954567970334
 30
0.0
 11
9.85750908911358
 21
3.670999999996297
 31
0.0
  0
LINE
  5
11FE0
  8
0
  6
CONTINUOUS
 10
8.857326339330116
 20
4.671182749779763
 30
0.0
 11
7.781651817520021
 21
5.746857271589858
 31
0.0
  0
LINE
  5
11FE1
  8
0
  6
CONTINUOUS
 10
5.694951119555943
 20
7.833557969553937
 30
0.0
 11
4.765409089118624
 21
8.763099999991255
 31
0.0
  0
LINE
  5
11FE2
  8
0
  6
CONTINUOUS
 10
12.50286117236978
 20
1.699167125820288
 30
0.0
 11
9.68611877250287
 21
4.515909525687196
 31
0.0
  0
LINE
  5
11FE3
  8
0
  6
CONTINUOUS
 10
9.065465192851777
 20
5.136563105338288
 30
0.0
 11
7.989834395251757
 21
6.21219390293831
 31
0.0
  0
LINE
  5
11FE4
  8
0
  6
CONTINUOUS
 10
5.993039874401719
 20
8.208988423788346
 30
0.0
 11
5.43892829819881
 21
8.763099999991255
 31
0.0
  0
LINE
  5
11FE5
  8
0
  6
CONTINUOUS
 10
11.95770871242671
 20
2.917838794843543
 30
0.0
 11
8.19801697298349
 21
6.677530534286761
 31
0.0
  0
LINE
  5
11FE6
  8
0
  6
CONTINUOUS
 10
6.291128629247495
 20
8.584418878022756
 30
0.0
 11
6.112447507278997
 21
8.763099999991255
 31
0.0
  0
LINE
  5
11FE7
  8
0
  6
CONTINUOUS
 10
11.41255625248364
 20
4.136510463866797
 30
0.0
 11
8.406199550715227
 21
7.142867165635211
 31
0.0
  0
LINE
  5
11FE8
  8
0
  6
CONTINUOUS
 10
10.86740379254057
 20
5.355182132890051
 30
0.0
 11
8.614382128446962
 21
7.608203796983664
 31
0.0
  0
LINE
  5
11FE9
  8
0
  6
CONTINUOUS
 10
10.3222513325975
 20
6.573853801913305
 30
0.0
 11
8.822564706178696
 21
8.073540428332114
 31
0.0
  0
LINE
  5
11FEA
  8
0
  6
CONTINUOUS
 10
9.777098872654436
 20
7.792525470936562
 30
0.0
 11
9.030747283910433
 21
8.538877059680566
 31
0.0
  0
ENDBLK
  5
1212C
  8
0
  0
BLOCK
  8
0
  2
*X50
 70
     1
 10
0.0
 20
0.0
 30
0.0
  3
*X50
  1

  0
LINE
  5
11FEC
  8
0
  6
CONTINUOUS
 10
10.67292308101235
 20
8.445076852443387
 30
0.0
 11
10.99094622856022
 21
8.763099999991255
 31
0.0
  0
LINE
  5
11FED
  8
0
  6
CONTINUOUS
 10
10.87250383178748
 20
7.971138394138331
 30
0.0
 11
11.6644654376404
 21
8.763099999991255
 31
0.0
  0
LINE
  5
11FEE
  8
0
  6
CONTINUOUS
 10
11.07208458256261
 20
7.497199935833273
 30
0.0
 11
12.12126590876355
 21
8.546381262034211
 31
0.0
  0
LINE
  5
11FEF
  8
0
  6
CONTINUOUS
 10
11.27166533333774
 20
7.023261477528216
 30
0.0
 11
12.32085164573666
 21
8.072447789927136
 31
0.0
  0
LINE
  5
11FF0
  8
0
  6
CONTINUOUS
 10
11.47124608411287
 20
6.549323019223158
 30
0.0
 11
12.52043738270977
 21
7.59851431782006
 31
0.0
  0
LINE
  5
11FF1
  8
0
  6
CONTINUOUS
 10
11.670826834888
 20
6.075384560918101
 30
0.0
 11
12.72002311968288
 21
7.124580845712984
 31
0.0
  0
LINE
  5
11FF2
  8
0
  6
CONTINUOUS
 10
11.87040758566313
 20
5.601446102613043
 30
0.0
 11
12.91960885665599
 21
6.650647373605907
 31
0.0
  0
LINE
  5
11FF3
  8
0
  6
CONTINUOUS
 10
12.06998833643825
 20
5.127507644307986
 30
0.0
 11
13.1191945936291
 21
6.176713901498832
 31
0.0
  0
LINE
  5
11FF4
  8
0
  6
CONTINUOUS
 10
12.26956908721338
 20
4.65356918600293
 30
0.0
 11
13.31878033060221
 21
5.702780429391757
 31
0.0
  0
LINE
  5
11FF5
  8
0
  6
CONTINUOUS
 10
12.46914983798851
 20
4.179630727697873
 30
0.0
 11
13.51836606757532
 21
5.228846957284683
 31
0.0
  0
LINE
  5
11FF6
  8
0
  6
CONTINUOUS
 10
12.66873058876364
 20
3.705692269392816
 30
0.0
 11
13.71795180454843
 21
4.754913485177607
 31
0.0
  0
LINE
  5
11FF7
  8
0
  6
CONTINUOUS
 10
12.86831133953877
 20
3.231753811087759
 30
0.0
 11
13.91753754152154
 21
4.280980013070531
 31
0.0
  0
LINE
  5
11FF8
  8
0
  6
CONTINUOUS
 10
13.0678920903139
 20
2.757815352782702
 30
0.0
 11
14.11712327849465
 21
3.807046540963456
 31
0.0
  0
LINE
  5
11FF9
  8
0
  6
CONTINUOUS
 10
13.26747284108903
 20
2.283876894477644
 30
0.0
 11
14.31670901546777
 21
3.333113068856379
 31
0.0
  0
LINE
  5
11FFA
  8
0
  6
CONTINUOUS
 10
16.36767838827179
 20
8.751678487061342
 30
0.0
 11
16.50332410898388
 21
8.887324207773432
 31
0.0
  0
LINE
  5
11FFB
  8
0
  6
CONTINUOUS
 10
15.96190732182191
 20
7.67238821153127
 30
0.0
 11
16.68735328004734
 21
8.397834169756699
 31
0.0
  0
LINE
  5
11FFC
  8
0
  6
CONTINUOUS
 10
15.55613625537202
 20
6.593097936001196
 30
0.0
 11
16.87138245111079
 21
7.908344131739965
 31
0.0
  0
LINE
  5
11FFD
  8
0
  6
CONTINUOUS
 10
15.15036518892213
 20
5.513807660471122
 30
0.0
 11
17.05541162217424
 21
7.418854093723231
 31
0.0
  0
LINE
  5
11FFE
  8
0
  6
CONTINUOUS
 10
14.74459412247225
 20
4.434517384941048
 30
0.0
 11
17.2394407932377
 21
6.929364055706499
 31
0.0
  0
LINE
  5
11FFF
  8
0
  6
CONTINUOUS
 10
14.33882305602236
 20
3.355227109410975
 30
0.0
 11
17.42346996430115
 21
6.439874017689766
 31
0.0
  0
LINE
  5
12000
  8
0
  6
CONTINUOUS
 10
13.46705359186416
 20
1.809938436172586
 30
0.0
 11
16.0819338255367
 21
4.424818669845129
 31
0.0
  0
LINE
  5
12001
  8
0
  6
CONTINUOUS
 10
16.63283254238972
 20
4.975717386698149
 30
0.0
 11
17.60749913536461
 21
5.950383979673033
 31
0.0
  0
LINE
  5
12002
  8
0
  6
CONTINUOUS
 10
13.66663434263929
 20
1.335999977867529
 30
0.0
 11
15.67604797733754
 21
3.345413612565779
 31
0.0
  0
LINE
  5
12003
  8
0
  6
CONTINUOUS
 10
13.86621509341442
 20
0.8620615195624723
 30
0.0
 11
15.27016212913838
 21
2.26600855528643
 31
0.0
  0
LINE
  5
12004
  8
0
  6
CONTINUOUS
 10
16.81682257348267
 20
4.486188208710908
 30
0.0
 11
17.79152830642806
 21
5.460893941656299
 31
0.0
  0
LINE
  5
12005
  8
0
  6
CONTINUOUS
 10
17.00081260457561
 20
3.996659030723667
 30
0.0
 11
17.97555747749151
 21
4.971403903639565
 31
0.0
  0
LINE
  5
12006
  8
0
  6
CONTINUOUS
 10
20.74362343514722
 20
8.412989070375462
 30
0.0
 11
21.09373436476302
 21
8.763099999991256
 31
0.0
  0
LINE
  5
12007
  8
0
  6
CONTINUOUS
 10
20.25401257174777
 20
7.249858997895826
 30
0.0
 11
21.7672535738432
 21
8.763099999991255
 31
0.0
  0
LINE
  5
12008
  8
0
  6
CONTINUOUS
 10
14.06579584418955
 20
0.3881230612574149
 30
0.0
 11
14.86427628093921
 21
1.186603498007082
 31
0.0
  0
LINE
  5
12009
  8
0
  6
CONTINUOUS
 10
14.26537659496467
 20
-0.0858153970476412
 30
0.0
 11
14.45839043274005
 21
0.1071984407277329
 31
0.0
  0
LINE
  5
1200A
  8
0
  6
CONTINUOUS
 10
17.18480263566856
 20
3.507129852736426
 30
0.0
 11
18.15958664855496
 21
4.481913865622833
 31
0.0
  0
LINE
  5
1200B
  8
0
  6
CONTINUOUS
 10
17.3687926667615
 20
3.017600674749186
 30
0.0
 11
18.34361581961842
 21
3.9924238276061
 31
0.0
  0
LINE
  5
1200C
  8
0
  6
CONTINUOUS
 10
19.76440170834832
 20
6.086728925416191
 30
0.0
 11
22.33924590259489
 21
8.661573119662755
 31
0.0
  0
LINE
  5
1200D
  8
0
  6
CONTINUOUS
 10
19.27479084494887
 20
4.923598852936555
 30
0.0
 11
21.84929622842713
 21
7.498104236414807
 31
0.0
  0
LINE
  5
1200E
  8
0
  6
CONTINUOUS
 10
17.55278269785445
 20
2.528071496761945
 30
0.0
 11
18.52764499068187
 21
3.502933789589366
 31
0.0
  0
LINE
  5
1200F
  8
0
  6
CONTINUOUS
 10
18.78517998154942
 20
3.760468780456919
 30
0.0
 11
21.35934655425936
 21
6.33463535316686
 31
0.0
  0
LINE
  5
12010
  8
0
  6
CONTINUOUS
 10
17.73677272894739
 20
2.038542318774704
 30
0.0
 11
20.8693968800916
 21
5.171166469918914
 31
0.0
  0
LINE
  5
12011
  8
0
  6
CONTINUOUS
 10
17.92076276004034
 20
1.549013140787464
 30
0.0
 11
20.37944720592384
 21
4.007697586670968
 31
0.0
  0
LINE
  5
12012
  8
0
  6
CONTINUOUS
 10
18.10475279113329
 20
1.059483962800223
 30
0.0
 11
19.88949753175608
 21
2.84422870342302
 31
0.0
  0
LINE
  5
12013
  8
0
  6
CONTINUOUS
 10
18.28874282222623
 20
0.5699547848129822
 30
0.0
 11
19.39954785758832
 21
1.680759820175074
 31
0.0
  0
LINE
  5
12014
  8
0
  6
CONTINUOUS
 10
18.47273285331918
 20
0.0804256068257416
 30
0.0
 11
18.90959818342056
 21
0.517290936927127
 31
0.0
  0
LINE
  5
12015
  8
0
  6
CONTINUOUS
 10
14.3590401358224
 20
-0.1570118376323384
 30
0.0
 11
14.24903296539946
 21
-0.0470046672093929
 31
0.0
  0
LINE
  5
12016
  8
0
  6
CONTINUOUS
 10
14.54309291258661
 20
0.332454594683643
 30
0.0
 11
13.75908329123172
 21
1.116464216038529
 31
0.0
  0
LINE
  5
12017
  8
0
  6
CONTINUOUS
 10
14.72714568935081
 20
0.8219210269996244
 30
0.0
 11
13.26913361706399
 21
2.27993309928645
 31
0.0
  0
LINE
  5
12018
  8
0
  6
CONTINUOUS
 10
14.91119846611502
 20
1.311387459315606
 30
0.0
 11
12.77918394289625
 21
3.443401982534371
 31
0.0
  0
LINE
  5
12019
  8
0
  6
CONTINUOUS
 10
15.09525124287922
 20
1.800853891631587
 30
0.0
 11
12.28923426872852
 21
4.606870865782293
 31
0.0
  0
LINE
  5
1201A
  8
0
  6
CONTINUOUS
 10
15.27930401964343
 20
2.290320323947569
 30
0.0
 11
11.79928459456078
 21
5.770339749030213
 31
0.0
  0
LINE
  5
1201B
  8
0
  6
CONTINUOUS
 10
15.46335679640763
 20
2.77978675626355
 30
0.0
 11
14.48885470994921
 21
3.754288842721972
 31
0.0
  0
LINE
  5
1201C
  8
0
  6
CONTINUOUS
 10
13.88507249233704
 20
4.358071060334137
 30
0.0
 11
11.30933492039305
 21
6.933808632278135
 31
0.0
  0
LINE
  5
1201D
  8
0
  6
CONTINUOUS
 10
18.75840522805855
 20
0.1582575336928151
 30
0.0
 11
18.25383727664818
 21
0.6628254851031863
 31
0.0
  0
LINE
  5
1201E
  8
0
  6
CONTINUOUS
 10
15.64740957317184
 20
3.269253188579531
 30
0.0
 11
14.67288388101266
 21
4.243778880738705
 31
0.0
  0
LINE
  5
1201F
  8
0
  6
CONTINUOUS
 10
13.39509276772158
 20
5.521569994029786
 30
0.0
 11
10.81938524622531
 21
8.097277515526056
 31
0.0
  0
LINE
  5
12020
  8
0
  6
CONTINUOUS
 10
18.95798597883369
 20
0.6321959919978686
 30
0.0
 11
17.84825644852853
 21
1.741925522303024
 31
0.0
  0
LINE
  5
12021
  8
0
  6
CONTINUOUS
 10
19.15756672960882
 20
1.106134450302922
 30
0.0
 11
17.44267562040888
 21
2.821025559502861
 31
0.0
  0
LINE
  5
12022
  8
0
  6
CONTINUOUS
 10
15.83146234993604
 20
3.758719620895513
 30
0.0
 11
14.85691305207612
 21
4.733268918755439
 31
0.0
  0
LINE
  5
12023
  8
0
  6
CONTINUOUS
 10
16.01551512670025
 20
4.248186053211494
 30
0.0
 11
15.04094222313957
 21
5.222758956772172
 31
0.0
  0
LINE
  5
12024
  8
0
  6
CONTINUOUS
 10
12.90511304310612
 20
6.685068927725435
 30
0.0
 11
10.8270819708403
 21
8.763099999991255
 31
0.0
  0
LINE
  5
12025
  8
0
  6
CONTINUOUS
 10
12.41513331849066
 20
7.848567861421083
 30
0.0
 11
11.50060117992049
 21
8.763099999991255
 31
0.0
  0
LINE
  5
12026
  8
0
  6
CONTINUOUS
 10
19.35714748038395
 20
1.580072908607975
 30
0.0
 11
17.03709479228923
 21
3.900125596702697
 31
0.0
  0
LINE
  5
12027
  8
0
  6
CONTINUOUS
 10
19.55672823115909
 20
2.054011366913028
 30
0.0
 11
16.63151396416958
 21
4.979225633902534
 31
0.0
  0
LINE
  5
12028
  8
0
  6
CONTINUOUS
 10
16.19956790346445
 20
4.737652485527476
 30
0.0
 11
15.22497139420302
 21
5.712248994788904
 31
0.0
  0
LINE
  5
12029
  8
0
  6
CONTINUOUS
 10
16.38362068022866
 20
5.227118917843457
 30
0.0
 11
15.40900056526648
 21
6.201739032805637
 31
0.0
  0
LINE
  5
1202A
  8
0
  6
CONTINUOUS
 10
19.75630898193422
 20
2.527949825218081
 30
0.0
 11
18.70774536448286
 21
3.576513442669441
 31
0.0
  0
LINE
  5
1202B
  8
0
  6
CONTINUOUS
 10
19.95588973270936
 20
3.001888283523134
 30
0.0
 11
18.90726987211446
 21
4.050508144118028
 31
0.0
  0
LINE
  5
1202C
  8
0
  6
CONTINUOUS
 10
20.15547048348449
 20
3.475826741828186
 30
0.0
 11
19.10679437974606
 21
4.524502845566614
 31
0.0
  0
LINE
  5
1202D
  8
0
  6
CONTINUOUS
 10
20.35505123425962
 20
3.94976520013324
 30
0.0
 11
19.30631888737766
 21
4.998497547015201
 31
0.0
  0
LINE
  5
1202E
  8
0
  6
CONTINUOUS
 10
20.55463198503475
 20
4.423703658438292
 30
0.0
 11
19.50584339500926
 21
5.472492248463787
 31
0.0
  0
LINE
  5
1202F
  8
0
  6
CONTINUOUS
 10
18.37481191085755
 20
3.909446896294752
 30
0.0
 11
15.59302973632993
 21
6.691229070822371
 31
0.0
  0
LINE
  5
12030
  8
0
  6
CONTINUOUS
 10
17.96904084440766
 20
4.988737171824825
 30
0.0
 11
15.77705890739338
 21
7.180719108839104
 31
0.0
  0
LINE
  5
12031
  8
0
  6
CONTINUOUS
 10
17.56326977795777
 20
6.068027447354899
 30
0.0
 11
15.96108807845684
 21
7.670209146855838
 31
0.0
  0
LINE
  5
12032
  8
0
  6
CONTINUOUS
 10
17.15749871150789
 20
7.147317722884972
 30
0.0
 11
16.14511724952029
 21
8.15969918487257
 31
0.0
  0
LINE
  5
12033
  8
0
  6
CONTINUOUS
 10
16.751727645058
 20
8.226607998415046
 30
0.0
 11
16.32914642058374
 21
8.649189222889303
 31
0.0
  0
LINE
  5
12034
  8
0
  6
CONTINUOUS
 10
20.75421273580989
 20
4.897642116743345
 30
0.0
 11
19.70536790264086
 21
5.946486949912374
 31
0.0
  0
LINE
  5
12035
  8
0
  6
CONTINUOUS
 10
20.95379348658502
 20
5.371580575048398
 30
0.0
 11
19.90489241027246
 21
6.42048165136096
 31
0.0
  0
LINE
  5
12036
  8
0
  6
CONTINUOUS
 10
21.15337423736015
 20
5.845519033353452
 30
0.0
 11
20.10441691790406
 21
6.894476352809547
 31
0.0
  0
LINE
  5
12037
  8
0
  6
CONTINUOUS
 10
21.35295498813529
 20
6.319457491658505
 30
0.0
 11
20.30394142553566
 21
7.368471054258134
 31
0.0
  0
LINE
  5
12038
  8
0
  6
CONTINUOUS
 10
21.55253573891042
 20
6.793395949963558
 30
0.0
 11
20.50346593316726
 21
7.842465755706721
 31
0.0
  0
LINE
  5
12039
  8
0
  6
CONTINUOUS
 10
21.75211648968556
 20
7.267334408268612
 30
0.0
 11
20.70299044079886
 21
8.316460457155308
 31
0.0
  0
LINE
  5
1203A
  8
0
  6
CONTINUOUS
 10
21.95169724046069
 20
7.741272866573663
 30
0.0
 11
20.9298701070431
 21
8.763099999991256
 31
0.0
  0
LINE
  5
1203B
  8
0
  6
CONTINUOUS
 10
22.15127799123582
 20
8.215211324878716
 30
0.0
 11
21.60338931612328
 21
8.763099999991256
 31
0.0
  0
LINE
  5
1203C
  8
0
  6
CONTINUOUS
 10
22.35085874201096
 20
8.689149783183769
 30
0.0
 11
22.27690852520347
 21
8.763099999991255
 31
0.0
  0
ENDBLK
  5
1212E
  8
0
  0
BLOCK
  8
0
  2
*X51
 70
     1
 10
0.0
 20
0.0
 30
0.0
  3
*X51
  1

  0
LINE
  5
1203E
  8
0
  6
CONTINUOUS
 10
23.19462913593892
 20
8.169917934846424
 30
0.0
 11
23.70775465517246
 21
8.683043454079957
 31
0.0
  0
LINE
  5
1203F
  8
0
  6
CONTINUOUS
 10
22.64923161835078
 20
6.951001208178088
 30
0.0
 11
23.9159364069932
 21
8.217705996820516
 31
0.0
  0
LINE
  5
12040
  8
0
  6
CONTINUOUS
 10
22.10383410076263
 20
5.732084481509751
 30
0.0
 11
24.12411815881395
 21
7.752368539561078
 31
0.0
  0
LINE
  5
12041
  8
0
  6
CONTINUOUS
 10
21.55843658317447
 20
4.513167754841414
 30
0.0
 11
24.3322999106347
 21
7.287031082301639
 31
0.0
  0
LINE
  5
12042
  8
0
  6
CONTINUOUS
 10
21.01303906558632
 20
3.294251028173077
 30
0.0
 11
24.54048166245544
 21
6.821693625042199
 31
0.0
  0
LINE
  5
12043
  8
0
  6
CONTINUOUS
 10
20.46764154799817
 20
2.075334301504738
 30
0.0
 11
23.28571549467848
 21
4.89340824818505
 31
0.0
  0
LINE
  5
12044
  8
0
  6
CONTINUOUS
 10
19.92224403041002
 20
0.8564175748364002
 30
0.0
 11
22.74075865492779
 21
3.674932199354171
 31
0.0
  0
LINE
  5
12045
  8
0
  6
CONTINUOUS
 10
23.67305085490148
 20
5.280743608408048
 30
0.0
 11
24.74866341427619
 21
6.356356167782759
 31
0.0
  0
LINE
  5
12046
  8
0
  6
CONTINUOUS
 10
23.88118970842314
 20
4.815363252849522
 30
0.0
 11
24.95684516609694
 21
5.89101871052332
 31
0.0
  0
LINE
  5
12047
  8
0
  6
CONTINUOUS
 10
19.73925852647308
 20
-0.0000871381807288
 30
0.0
 11
23.4103456646501
 21
3.670999999996297
 31
0.0
  0
LINE
  5
12048
  8
0
  6
CONTINUOUS
 10
24.0893285619448
 20
4.349982897290997
 30
0.0
 11
25.16502691791769
 21
5.42568125326388
 31
0.0
  0
LINE
  5
12049
  8
0
  6
CONTINUOUS
 10
20.41282099582748
 20
-0.0000438779065108
 30
0.0
 11
21.64944178675636
 21
1.236576913022366
 31
0.0
  0
LINE
  5
1204A
  8
0
  6
CONTINUOUS
 10
22.78126487373161
 20
2.36839999999762
 30
0.0
 11
24.08386487373029
 21
3.670999999996297
 31
0.0
  0
LINE
  5
1204B
  8
0
  6
CONTINUOUS
 10
24.29746741546646
 20
3.884602541732471
 30
0.0
 11
25.37320866973843
 21
4.960343796004441
 31
0.0
  0
LINE
  5
1204C
  8
0
  6
CONTINUOUS
 10
21.08638346518189
 20
-0.0000006176322938
 30
0.0
 11
21.10379033335899
 21
0.0174062505448083
 31
0.0
  0
LINE
  5
1204D
  8
0
  6
CONTINUOUS
 10
23.4547840828118
 20
2.36839999999762
 30
0.0
 11
25.58139042155918
 21
4.495006338745002
 31
0.0
  0
LINE
  5
1204E
  8
0
  6
CONTINUOUS
 10
29.30199999996933
 20
8.215615917155148
 30
0.0
 11
29.84948408280543
 21
8.763099999991255
 31
0.0
  0
LINE
  5
1204F
  8
0
  6
CONTINUOUS
 10
24.12830329189199
 20
2.36839999999762
 30
0.0
 11
25.78957217337993
 21
4.029668881485562
 31
0.0
  0
LINE
  5
12050
  8
0
  6
CONTINUOUS
 10
29.30199999996933
 20
7.54209670807496
 30
0.0
 11
30.52300329188562
 21
8.763099999991255
 31
0.0
  0
LINE
  5
12051
  8
0
  6
CONTINUOUS
 10
24.80182250097217
 20
2.36839999999762
 30
0.0
 11
25.99775392520067
 21
3.564331424226122
 31
0.0
  0
LINE
  5
12052
  8
0
  6
CONTINUOUS
 10
29.30199999996933
 20
6.868577498994774
 30
0.0
 11
30.74199999996926
 21
8.308577498994712
 31
0.0
  0
LINE
  5
12053
  8
0
  6
CONTINUOUS
 10
25.13028238392013
 20
2.023340673865392
 30
0.0
 11
26.20593567702142
 21
3.098993966966683
 31
0.0
  0
LINE
  5
12054
  8
0
  6
CONTINUOUS
 10
25.33838066033617
 20
1.557919741201244
 30
0.0
 11
26.41411742884217
 21
2.633656509707244
 31
0.0
  0
LINE
  5
12055
  8
0
  6
CONTINUOUS
 10
25.54647893675221
 20
1.092498808537098
 30
0.0
 11
26.62229918066291
 21
2.168319052447804
 31
0.0
  0
LINE
  5
12056
  8
0
  6
CONTINUOUS
 10
25.75457721316825
 20
0.62707787587295
 30
0.0
 11
26.83048093248366
 21
1.702981595188365
 31
0.0
  0
LINE
  5
12057
  8
0
  6
CONTINUOUS
 10
29.30199999996933
 20
6.195058289914587
 30
0.0
 11
30.74199999996926
 21
7.635058289914522
 31
0.0
  0
LINE
  5
12058
  8
0
  6
CONTINUOUS
 10
29.30199999996933
 20
5.521539080834401
 30
0.0
 11
30.74199999996926
 21
6.961539080834331
 31
0.0
  0
LINE
  5
12059
  8
0
  6
CONTINUOUS
 10
29.30199999996933
 20
4.848019871754214
 30
0.0
 11
30.74199999996925
 21
6.288019871754143
 31
0.0
  0
LINE
  5
1205A
  8
0
  6
CONTINUOUS
 10
29.30199999996933
 20
4.174500662674028
 30
0.0
 11
30.74199999996925
 21
5.614500662673953
 31
0.0
  0
LINE
  5
1205B
  8
0
  6
CONTINUOUS
 10
25.96267548958429
 20
0.1616569432088024
 30
0.0
 11
27.18411854636669
 21
1.383099999991207
 31
0.0
  0
LINE
  5
1205C
  8
0
  6
CONTINUOUS
 10
29.30199999996933
 20
3.500981453593841
 30
0.0
 11
30.74199999996925
 21
4.940981453593762
 31
0.0
  0
LINE
  5
1205D
  8
0
  6
CONTINUOUS
 10
26.50763775544691
 20
0.0330999999912356
 30
0.0
 11
27.85763775544689
 21
1.383099999991223
 31
0.0
  0
LINE
  5
1205E
  8
0
  6
CONTINUOUS
 10
29.30199999996933
 20
2.827462244513656
 30
0.0
 11
30.74199999996925
 21
4.267462244513574
 31
0.0
  0
LINE
  5
1205F
  8
0
  6
CONTINUOUS
 10
27.18115696452709
 20
0.0330999999912356
 30
0.0
 11
28.6224847300034
 21
1.474427765467545
 31
0.0
  0
LINE
  5
12060
  8
0
  6
CONTINUOUS
 10
29.21067223449293
 20
2.062615269957069
 30
0.0
 11
30.74199999996924
 21
3.593943035433383
 31
0.0
  0
LINE
  5
12061
  8
0
  6
CONTINUOUS
 10
27.85467617360728
 20
0.0330999999912356
 30
0.0
 11
30.74199999996924
 21
2.920423826353195
 31
0.0
  0
LINE
  5
12062
  8
0
  6
CONTINUOUS
 10
28.57438609860264
 20
0.0792907159064073
 30
0.0
 11
30.69580928405405
 21
2.200713901357819
 31
0.0
  0
LINE
  5
12063
  8
0
  6
CONTINUOUS
 10
29.49443044814297
 20
0.3258158563665496
 30
0.0
 11
30.44928414359389
 21
1.280669551817477
 31
0.0
  0
LINE
  5
12064
  8
0
  6
CONTINUOUS
 10
19.59027867740337
 20
-0.0000967065718083
 30
0.0
 11
19.55485265190471
 21
0.035329318926844
 31
0.0
  0
LINE
  5
12065
  8
0
  6
CONTINUOUS
 10
20.26375463176586
 20
-0.0000534518541091
 30
0.0
 11
19.76305575737534
 21
0.5006454225364014
 31
0.0
  0
LINE
  5
12066
  8
0
  6
CONTINUOUS
 10
20.93723058612834
 20
-0.0000101971364099
 30
0.0
 11
19.97125886284597
 21
0.965961526145958
 31
0.0
  0
LINE
  5
12067
  8
0
  6
CONTINUOUS
 10
21.25514828313686
 20
0.355591314935257
 30
0.0
 11
20.1794619683166
 21
1.431277629755512
 31
0.0
  0
LINE
  5
12068
  8
0
  6
CONTINUOUS
 10
21.46338838394921
 20
0.8208704232030986
 30
0.0
 11
20.38766507378723
 21
1.896593733365069
 31
0.0
  0
LINE
  5
12069
  8
0
  6
CONTINUOUS
 10
21.67162848476155
 20
1.28614953147094
 30
0.0
 11
20.59586817925786
 21
2.361909836974626
 31
0.0
  0
LINE
  5
1206A
  8
0
  6
CONTINUOUS
 10
21.8798685855739
 20
1.751428639738782
 30
0.0
 11
20.80407128472849
 21
2.827225940584183
 31
0.0
  0
LINE
  5
1206B
  8
0
  6
CONTINUOUS
 10
22.08810868638624
 20
2.216707748006623
 30
0.0
 11
21.01227439019912
 21
3.292542044193739
 31
0.0
  0
LINE
  5
1206C
  8
0
  6
CONTINUOUS
 10
22.60993564347543
 20
2.36839999999762
 30
0.0
 11
21.22047749566975
 21
3.757858147803296
 31
0.0
  0
LINE
  5
1206D
  8
0
  6
CONTINUOUS
 10
23.28345485255561
 20
2.36839999999762
 30
0.0
 11
21.42868060114038
 21
4.223174251412853
 31
0.0
  0
LINE
  5
1206E
  8
0
  6
CONTINUOUS
 10
26.29227406164219
 20
0.0330999999912356
 30
0.0
 11
25.80009199592872
 21
0.5252820657046957
 31
0.0
  0
LINE
  5
1206F
  8
0
  6
CONTINUOUS
 10
23.9569740616358
 20
2.36839999999762
 30
0.0
 11
21.63688370661101
 21
4.688490355022409
 31
0.0
  0
LINE
  5
12070
  8
0
  6
CONTINUOUS
 10
26.96579327072237
 20
0.0330999999912356
 30
0.0
 11
25.2554132311971
 21
1.743480039516508
 31
0.0
  0
LINE
  5
12071
  8
0
  6
CONTINUOUS
 10
24.63049327071599
 20
2.36839999999762
 30
0.0
 11
23.32789327071731
 21
3.670999999996297
 31
0.0
  0
LINE
  5
12072
  8
0
  6
CONTINUOUS
 10
22.92098674744635
 20
4.077906523267254
 30
0.0
 11
21.84508681208164
 21
5.153806458631966
 31
0.0
  0
LINE
  5
12073
  8
0
  6
CONTINUOUS
 10
27.63931247980256
 20
0.0330999999912356
 30
0.0
 11
24.0014124797975
 21
3.670999999996297
 31
0.0
  0
LINE
  5
12074
  8
0
  6
CONTINUOUS
 10
23.129125600968
 20
4.5432868788258
 30
0.0
 11
22.05328991755227
 21
5.619122562241522
 31
0.0
  0
LINE
  5
12075
  8
0
  6
CONTINUOUS
 10
28.31283168888275
 20
0.0330999999912356
 30
0.0
 11
24.16488385994816
 21
4.181047828925828
 31
0.0
  0
LINE
  5
12076
  8
0
  6
CONTINUOUS
 10
23.33726445448964
 20
5.008667234384345
 30
0.0
 11
22.2614930230229
 21
6.084438665851079
 31
0.0
  0
LINE
  5
12077
  8
0
  6
CONTINUOUS
 10
28.86286302309502
 20
0.1565878748591523
 30
0.0
 11
27.63635089796295
 21
1.383099999991217
 31
0.0
  0
LINE
  5
12078
  8
0
  6
CONTINUOUS
 10
26.43704649509776
 20
2.582404402856405
 30
0.0
 11
23.61992702019732
 21
5.399523877756844
 31
0.0
  0
LINE
  5
12079
  8
0
  6
CONTINUOUS
 10
23.54540330801128
 20
5.47404758994289
 30
0.0
 11
22.46969612849353
 21
6.549754769460635
 31
0.0
  0
LINE
  5
1207A
  8
0
  6
CONTINUOUS
 10
29.39405087596853
 20
0.2989192310658284
 30
0.0
 11
28.30987010704312
 21
1.383099999991234
 31
0.0
  0
LINE
  5
1207B
  8
0
  6
CONTINUOUS
 10
25.89179548232307
 20
3.801174624711282
 30
0.0
 11
22.67789923396416
 21
7.015070873070191
 31
0.0
  0
LINE
  5
1207C
  8
0
  6
CONTINUOUS
 10
29.79594438047407
 20
0.570544935640473
 30
0.0
 11
28.81310432793121
 21
1.553384988183336
 31
0.0
  0
LINE
  5
1207D
  8
0
  6
CONTINUOUS
 10
25.34654446954838
 20
5.01994484656616
 30
0.0
 11
22.88610233943479
 21
7.480386976679748
 31
0.0
  0
LINE
  5
1207E
  8
0
  6
CONTINUOUS
 10
30.13270398501416
 20
0.9073045401805646
 30
0.0
 11
29.14234640337737
 21
1.897662121817355
 31
0.0
  0
LINE
  5
1207F
  8
0
  6
CONTINUOUS
 10
24.80129345677369
 20
6.238715068421037
 30
0.0
 11
23.09430544490542
 21
7.945703080289305
 31
0.0
  0
LINE
  5
12080
  8
0
  6
CONTINUOUS
 10
30.44581292956759
 20
1.26771480470732
 30
0.0
 11
29.30199999996933
 21
2.411527734305588
 31
0.0
  0
LINE
  5
12081
  8
0
  6
CONTINUOUS
 10
30.58814428577427
 20
1.798902657580827
 30
0.0
 11
29.30199999996933
 21
3.085046943385775
 31
0.0
  0
LINE
  5
12082
  8
0
  6
CONTINUOUS
 10
24.256042443999
 20
7.457485290275915
 30
0.0
 11
23.30250855037605
 21
8.411019183898862
 31
0.0
  0
LINE
  5
12083
  8
0
  6
CONTINUOUS
 10
23.71079143122431
 20
8.676255512130794
 30
0.0
 11
23.51071165584668
 21
8.876335287508418
 31
0.0
  0
LINE
  5
12084
  8
0
  6
CONTINUOUS
 10
30.73047564198095
 20
2.330090510454333
 30
0.0
 11
29.30199999996933
 21
3.758566152465961
 31
0.0
  0
LINE
  5
12085
  8
0
  6
CONTINUOUS
 10
30.74199999996924
 20
2.992085361546236
 30
0.0
 11
29.30199999996933
 21
4.432085361546148
 31
0.0
  0
LINE
  5
12086
  8
0
  6
CONTINUOUS
 10
30.74199999996924
 20
3.665604570626419
 30
0.0
 11
29.30199999996933
 21
5.105604570626333
 31
0.0
  0
LINE
  5
12087
  8
0
  6
CONTINUOUS
 10
30.74199999996925
 20
4.339123779706602
 30
0.0
 11
29.30199999996933
 21
5.77912377970652
 31
0.0
  0
LINE
  5
12088
  8
0
  6
CONTINUOUS
 10
30.74199999996925
 20
5.012642988786785
 30
0.0
 11
29.30199999996933
 21
6.452642988786707
 31
0.0
  0
LINE
  5
12089
  8
0
  6
CONTINUOUS
 10
30.74199999996925
 20
5.68616219786697
 30
0.0
 11
29.30199999996933
 21
7.126162197866894
 31
0.0
  0
LINE
  5
1208A
  8
0
  6
CONTINUOUS
 10
30.74199999996925
 20
6.359681406947153
 30
0.0
 11
29.30199999996933
 21
7.799681406947081
 31
0.0
  0
LINE
  5
1208B
  8
0
  6
CONTINUOUS
 10
30.74199999996926
 20
7.033200616027337
 30
0.0
 11
29.30199999996933
 21
8.473200616027269
 31
0.0
  0
LINE
  5
1208C
  8
0
  6
CONTINUOUS
 10
30.74199999996926
 20
7.706719825107518
 30
0.0
 11
29.68561982508552
 21
8.763099999991255
 31
0.0
  0
LINE
  5
1208D
  8
0
  6
CONTINUOUS
 10
30.74199999996926
 20
8.380239034187703
 30
0.0
 11
30.35913903416571
 21
8.763099999991255
 31
0.0
  0
ENDBLK
  5
12130
  8
0
  0
BLOCK
  8
0
  2
*X52
 70
     1
 10
0.0
 20
0.0
 30
0.0
  3
*X52
  1

  0
LINE
  5
1208F
  8
0
  6
CONTINUOUS
 10
31.64199999996833
 20
8.5350582899136
 30
0.0
 11
31.87004171004599
 21
8.763099999991255
 31
0.0
  0
LINE
  5
12090
  8
0
  6
CONTINUOUS
 10
31.64199999996833
 20
7.861539080833413
 30
0.0
 11
32.54356091912618
 21
8.763099999991255
 31
0.0
  0
LINE
  5
12091
  8
0
  6
CONTINUOUS
 10
31.64199999996833
 20
7.188019871753227
 30
0.0
 11
33.08199999996839
 21
8.628019871753281
 31
0.0
  0
LINE
  5
12092
  8
0
  6
CONTINUOUS
 10
31.64199999996833
 20
6.514500662673041
 30
0.0
 11
33.08199999996839
 21
7.954500662673095
 31
0.0
  0
LINE
  5
12093
  8
0
  6
CONTINUOUS
 10
31.64199999996833
 20
5.840981453592855
 30
0.0
 11
33.08199999996839
 21
7.28098145359291
 31
0.0
  0
LINE
  5
12094
  8
0
  6
CONTINUOUS
 10
31.64199999996833
 20
5.167462244512668
 30
0.0
 11
33.08199999996839
 21
6.607462244512723
 31
0.0
  0
LINE
  5
12095
  8
0
  6
CONTINUOUS
 10
31.64199999996833
 20
4.493943035432482
 30
0.0
 11
33.08199999996839
 21
5.933943035432536
 31
0.0
  0
LINE
  5
12096
  8
0
  6
CONTINUOUS
 10
31.64199999996833
 20
3.820423826352294
 30
0.0
 11
33.08199999996839
 21
5.260423826352349
 31
0.0
  0
LINE
  5
12097
  8
0
  6
CONTINUOUS
 10
31.64199999996833
 20
3.146904617272108
 30
0.0
 11
33.08199999996839
 21
4.586904617272163
 31
0.0
  0
LINE
  5
12098
  8
0
  6
CONTINUOUS
 10
36.23199999996837
 20
8.410423826352327
 30
0.0
 11
36.58467617360729
 21
8.763099999991255
 31
0.0
  0
LINE
  5
12099
  8
0
  6
CONTINUOUS
 10
36.23199999996837
 20
7.73690461727214
 30
0.0
 11
37.25819538268748
 21
8.763099999991255
 31
0.0
  0
LINE
  5
1209A
  8
0
  6
CONTINUOUS
 10
31.64323424774199
 20
2.474619655965573
 30
0.0
 11
33.08199999996839
 21
3.913385408191976
 31
0.0
  0
LINE
  5
1209B
  8
0
  6
CONTINUOUS
 10
31.74419223861915
 20
1.902058437762552
 30
0.0
 11
33.08199999996839
 21
3.239866199111789
 31
0.0
  0
LINE
  5
1209C
  8
0
  6
CONTINUOUS
 10
36.23199999996837
 20
7.063385408191953
 30
0.0
 11
37.67199999996831
 21
8.503385408191894
 31
0.0
  0
LINE
  5
1209D
  8
0
  6
CONTINUOUS
 10
36.23199999996837
 20
6.389866199111767
 30
0.0
 11
37.67199999996831
 21
7.829866199111708
 31
0.0
  0
LINE
  5
1209E
  8
0
  6
CONTINUOUS
 10
31.91111233414976
 20
1.39545932421297
 30
0.0
 11
33.08199999996839
 21
2.566346990031603
 31
0.0
  0
LINE
  5
1209F
  8
0
  6
CONTINUOUS
 10
36.23199999996837
 20
5.71634699003158
 30
0.0
 11
37.67199999996831
 21
7.156346990031522
 31
0.0
  0
LINE
  5
120A0
  8
0
  6
CONTINUOUS
 10
32.1576374746103
 20
0.9684652555933289
 30
0.0
 11
33.20642631446081
 21
2.017254095443838
 31
0.0
  0
LINE
  5
120A1
  8
0
  6
CONTINUOUS
 10
36.23199999996837
 20
5.042827780951393
 30
0.0
 11
37.67199999996831
 21
6.482827780951334
 31
0.0
  0
LINE
  5
120A2
  8
0
  6
CONTINUOUS
 10
32.47774023927325
 20
0.6150488111760914
 30
0.0
 11
33.49903056428258
 21
1.636339136185419
 31
0.0
  0
LINE
  5
120A3
  8
0
  6
CONTINUOUS
 10
36.23199999996837
 20
4.369308571871207
 30
0.0
 11
37.67199999996831
 21
5.809308571871148
 31
0.0
  0
LINE
  5
120A4
  8
0
  6
CONTINUOUS
 10
32.84396249154443
 20
0.3077518543670883
 30
0.0
 11
33.93324121824649
 21
1.397030581069146
 31
0.0
  0
LINE
  5
120A5
  8
0
  6
CONTINUOUS
 10
36.23199999996837
 20
3.695789362791021
 30
0.0
 11
37.67199999996831
 21
5.135789362790963
 31
0.0
  0
LINE
  5
120A6
  8
0
  6
CONTINUOUS
 10
33.30186329036846
 20
0.0921334441109263
 30
0.0
 11
34.46442907112041
 21
1.254699224862875
 31
0.0
  0
LINE
  5
120A7
  8
0
  6
CONTINUOUS
 10
36.23199999996837
 20
3.022270153710834
 30
0.0
 11
37.67199999996831
 21
4.462270153710776
 31
0.0
  0
LINE
  5
120A8
  8
0
  6
CONTINUOUS
 10
33.79565647746294
 20
-0.0875925778747773
 30
0.0
 11
35.24350171668284
 21
1.360252661345124
 31
0.0
  0
LINE
  5
120A9
  8
0
  6
CONTINUOUS
 10
36.18336676155003
 20
2.300117706212308
 30
0.0
 11
37.67199999996831
 21
3.788750944630589
 31
0.0
  0
LINE
  5
120AA
  8
0
  6
CONTINUOUS
 10
34.37182574910968
 20
-0.184942515308224
 30
0.0
 11
37.67199999996831
 21
3.115231735550402
 31
0.0
  0
LINE
  5
120AB
  8
0
  6
CONTINUOUS
 10
35.0453449581892
 20
-0.1849425153088955
 30
0.0
 11
37.66345697088136
 21
2.433169497383271
 31
0.0
  0
LINE
  5
120AC
  8
0
  6
CONTINUOUS
 10
35.98667157609191
 20
0.0828648935136398
 30
0.0
 11
37.51927401744566
 21
1.615467334867382
 31
0.0
  0
LINE
  5
120AD
  8
0
  6
CONTINUOUS
 10
32.27747408544484
 20
0.7830920669904482
 30
0.0
 11
32.24716210471949
 21
0.8134040477157893
 31
0.0
  0
LINE
  5
120AE
  8
0
  6
CONTINUOUS
 10
33.83656881101902
 20
-0.1024834495035494
 30
0.0
 11
31.72538911593758
 21
2.008696245577891
 31
0.0
  0
LINE
  5
120AF
  8
0
  6
CONTINUOUS
 10
34.5925470859041
 20
-0.1849425153084434
 30
0.0
 11
31.64199999996833
 21
2.765604570627322
 31
0.0
  0
LINE
  5
120B0
  8
0
  6
CONTINUOUS
 10
35.26201302775981
 20
-0.1808892480839752
 30
0.0
 11
31.64199999996833
 21
3.439123779707508
 31
0.0
  0
LINE
  5
120B1
  8
0
  6
CONTINUOUS
 10
35.75580621485512
 20
-0.0011632260990879
 30
0.0
 11
34.51294304365551
 21
1.241699945100514
 31
0.0
  0
LINE
  5
120B2
  8
0
  6
CONTINUOUS
 10
33.08199999996839
 20
2.672642988787641
 30
0.0
 11
31.64199999996833
 21
4.112642988787695
 31
0.0
  0
LINE
  5
120B3
  8
0
  6
CONTINUOUS
 10
36.24959940195042
 20
0.1785627958857976
 30
0.0
 11
35.10501653033629
 21
1.323145667499924
 31
0.0
  0
LINE
  5
120B4
  8
0
  6
CONTINUOUS
 10
33.08199999996839
 20
3.346162197867827
 30
0.0
 11
31.64199999996833
 21
4.786162197867881
 31
0.0
  0
LINE
  5
120B5
  8
0
  6
CONTINUOUS
 10
36.64615197150552
 20
0.4555294354108876
 30
0.0
 11
35.6362043832099
 21
1.465477023706505
 31
0.0
  0
LINE
  5
120B6
  8
0
  6
CONTINUOUS
 10
33.08199999996839
 20
4.019681406948013
 30
0.0
 11
31.64199999996833
 21
5.459681406948068
 31
0.0
  0
LINE
  5
120B7
  8
0
  6
CONTINUOUS
 10
37.0123742237774
 20
0.7628263922191891
 30
0.0
 11
35.97691545773309
 21
1.798285158263504
 31
0.0
  0
LINE
  5
120B8
  8
0
  6
CONTINUOUS
 10
33.08199999996839
 20
4.6932006160282
 30
0.0
 11
31.64199999996833
 21
6.133200616028255
 31
0.0
  0
LINE
  5
120B9
  8
0
  6
CONTINUOUS
 10
37.27491524157143
 20
1.173804583505349
 30
0.0
 11
36.17602012811361
 21
2.272699696963169
 31
0.0
  0
LINE
  5
120BA
  8
0
  6
CONTINUOUS
 10
33.08199999996839
 20
5.366719825108387
 30
0.0
 11
31.64199999996833
 21
6.806719825108441
 31
0.0
  0
LINE
  5
120BB
  8
0
  6
CONTINUOUS
 10
37.51739996707661
 20
1.604839067080355
 30
0.0
 11
36.23199999996837
 21
2.890239034188595
 31
0.0
  0
LINE
  5
120BC
  8
0
  6
CONTINUOUS
 10
37.6183579579535
 20
2.177400285283649
 30
0.0
 11
36.23199999996837
 21
3.563758243268782
 31
0.0
  0
LINE
  5
120BD
  8
0
  6
CONTINUOUS
 10
33.08199999996839
 20
6.040239034188573
 30
0.0
 11
31.64199999996833
 21
7.480239034188628
 31
0.0
  0
LINE
  5
120BE
  8
0
  6
CONTINUOUS
 10
33.08199999996839
 20
6.713758243268759
 30
0.0
 11
31.64199999996833
 21
8.153758243268815
 31
0.0
  0
LINE
  5
120BF
  8
0
  6
CONTINUOUS
 10
37.67199999996831
 20
2.797277452349027
 30
0.0
 11
36.23199999996837
 21
4.237277452348969
 31
0.0
  0
LINE
  5
120C0
  8
0
  6
CONTINUOUS
 10
37.67199999996831
 20
3.470796661429214
 30
0.0
 11
36.23199999996837
 21
4.910796661429155
 31
0.0
  0
LINE
  5
120C1
  8
0
  6
CONTINUOUS
 10
37.67199999996831
 20
4.1443158705094
 30
0.0
 11
36.23199999996837
 21
5.584315870509341
 31
0.0
  0
LINE
  5
120C2
  8
0
  6
CONTINUOUS
 10
33.08199999996839
 20
7.387277452348946
 30
0.0
 11
31.70617745232608
 21
8.763099999991255
 31
0.0
  0
LINE
  5
120C3
  8
0
  6
CONTINUOUS
 10
33.08199999996839
 20
8.060796661429134
 30
0.0
 11
32.37969666140626
 21
8.763099999991255
 31
0.0
  0
LINE
  5
120C4
  8
0
  6
CONTINUOUS
 10
33.08199999996839
 20
8.734315870509318
 30
0.0
 11
33.05321587048645
 21
8.763099999991255
 31
0.0
  0
LINE
  5
120C5
  8
0
  6
CONTINUOUS
 10
37.67199999996831
 20
4.817835079589586
 30
0.0
 11
36.23199999996837
 21
6.257835079589528
 31
0.0
  0
LINE
  5
120C6
  8
0
  6
CONTINUOUS
 10
37.67199999996831
 20
5.491354288669772
 30
0.0
 11
36.23199999996837
 21
6.931354288669715
 31
0.0
  0
LINE
  5
120C7
  8
0
  6
CONTINUOUS
 10
37.67199999996831
 20
6.164873497749959
 30
0.0
 11
36.23199999996837
 21
7.6048734977499
 31
0.0
  0
LINE
  5
120C8
  8
0
  6
CONTINUOUS
 10
37.67199999996831
 20
6.838392706830145
 30
0.0
 11
36.23199999996837
 21
8.278392706830086
 31
0.0
  0
LINE
  5
120C9
  8
0
  6
CONTINUOUS
 10
37.67199999996831
 20
7.511911915910333
 30
0.0
 11
36.42081191588738
 21
8.763099999991255
 31
0.0
  0
LINE
  5
120CA
  8
0
  6
CONTINUOUS
 10
37.67199999996831
 20
8.185431124990519
 30
0.0
 11
37.09433112496757
 21
8.763099999991255
 31
0.0
  0
ENDBLK
  5
12132
  8
0
  0
BLOCK
  8
0
  2
*X53
 70
     1
 10
0.0
 20
0.0
 30
0.0
  3
*X53
  1

  0
LINE
  5
120CC
  8
0
  6
CONTINUOUS
 10
38.60499999996136
 20
8.762866199104765
 30
0.0
 11
38.71672554182345
 21
8.874591740966855
 31
0.0
  0
LINE
  5
120CD
  8
0
  6
CONTINUOUS
 10
38.60499999996136
 20
8.089346990024577
 30
0.0
 11
39.03418785440363
 21
8.518534844466847
 31
0.0
  0
LINE
  5
120CE
  8
0
  6
CONTINUOUS
 10
38.60499999996136
 20
7.41582778094439
 30
0.0
 11
39.35165016698382
 21
8.16247794796684
 31
0.0
  0
LINE
  5
120CF
  8
0
  6
CONTINUOUS
 10
38.60499999996136
 20
6.742308571864204
 30
0.0
 11
39.66911247956399
 21
7.806421051466834
 31
0.0
  0
LINE
  5
120D0
  8
0
  6
CONTINUOUS
 10
38.60499999996136
 20
6.068789362784018
 30
0.0
 11
39.98657479214418
 21
7.450364154966827
 31
0.0
  0
LINE
  5
120D1
  8
0
  6
CONTINUOUS
 10
38.60499999996136
 20
5.395270153703832
 30
0.0
 11
40.30403710472435
 21
7.09430725846682
 31
0.0
  0
LINE
  5
120D2
  8
0
  6
CONTINUOUS
 10
38.60499999996136
 20
4.721750944623645
 30
0.0
 11
40.62149941730453
 21
6.738250361966813
 31
0.0
  0
LINE
  5
120D3
  8
0
  6
CONTINUOUS
 10
38.60499999996136
 20
4.048231735543458
 30
0.0
 11
40.93896172988471
 21
6.382193465466806
 31
0.0
  0
LINE
  5
120D4
  8
0
  6
CONTINUOUS
 10
38.60499999996136
 20
3.374712526463272
 30
0.0
 11
40.02599999995994
 21
4.795712526461843
 31
0.0
  0
LINE
  5
120D5
  8
0
  6
CONTINUOUS
 10
38.60499999996136
 20
2.701193317383085
 30
0.0
 11
40.02599999995994
 21
4.122193317381657
 31
0.0
  0
LINE
  5
120D6
  8
0
  6
CONTINUOUS
 10
40.28339754687704
 20
5.053110073378947
 30
0.0
 11
41.25642404246489
 21
6.026136568966799
 31
0.0
  0
LINE
  5
120D7
  8
0
  6
CONTINUOUS
 10
40.60085985945722
 20
4.697053176878939
 30
0.0
 11
41.57388635504507
 21
5.670079672466793
 31
0.0
  0
LINE
  5
120D8
  8
0
  6
CONTINUOUS
 10
43.57899999995641
 20
8.348712526458318
 30
0.0
 11
43.99338747348935
 21
8.763099999991255
 31
0.0
  0
LINE
  5
120D9
  8
0
  6
CONTINUOUS
 10
43.57899999995641
 20
7.675193317378131
 30
0.0
 11
44.66690668256953
 21
8.763099999991255
 31
0.0
  0
LINE
  5
120DA
  8
0
  6
CONTINUOUS
 10
38.60499999996136
 20
2.027674108302898
 30
0.0
 11
40.02599999995994
 21
3.44867410830147
 31
0.0
  0
LINE
  5
120DB
  8
0
  6
CONTINUOUS
 10
38.60499999996136
 20
1.354154899222712
 30
0.0
 11
40.02599999995994
 21
2.775154899221284
 31
0.0
  0
LINE
  5
120DC
  8
0
  6
CONTINUOUS
 10
38.60499999996136
 20
0.6806356901425255
 30
0.0
 11
40.02599999995994
 21
2.101635690141098
 31
0.0
  0
LINE
  5
120DD
  8
0
  6
CONTINUOUS
 10
38.60499999996136
 20
0.0071164810623383
 30
0.0
 11
40.02599999995994
 21
1.428116481060911
 31
0.0
  0
LINE
  5
120DE
  8
0
  6
CONTINUOUS
 10
40.9183221720374
 20
4.340996280378933
 30
0.0
 11
41.89134866762525
 21
5.314022775966786
 31
0.0
  0
LINE
  5
120DF
  8
0
  6
CONTINUOUS
 10
41.23578448461758
 20
3.984939383878926
 30
0.0
 11
42.20881098020543
 21
4.957965879466778
 31
0.0
  0
LINE
  5
120E0
  8
0
  6
CONTINUOUS
 10
41.55324679719776
 20
3.628882487378919
 30
0.0
 11
42.52627329278561
 21
4.601908982966772
 31
0.0
  0
LINE
  5
120E1
  8
0
  6
CONTINUOUS
 10
41.87070910977793
 20
3.272825590878912
 30
0.0
 11
42.84373560536579
 21
4.245852086466765
 31
0.0
  0
LINE
  5
120E2
  8
0
  6
CONTINUOUS
 10
43.57899999995641
 20
7.001674108297943
 30
0.0
 11
44.99999999995498
 21
8.422674108296516
 31
0.0
  0
LINE
  5
120E3
  8
0
  6
CONTINUOUS
 10
43.57899999995641
 20
6.328154899217758
 30
0.0
 11
44.99999999995498
 21
7.749154899216329
 31
0.0
  0
LINE
  5
120E4
  8
0
  6
CONTINUOUS
 10
43.57899999995641
 20
5.654635690137571
 30
0.0
 11
44.99999999995498
 21
7.075635690136142
 31
0.0
  0
LINE
  5
120E5
  8
0
  6
CONTINUOUS
 10
43.57899999995641
 20
4.981116481057384
 30
0.0
 11
44.99999999995498
 21
6.402116481055955
 31
0.0
  0
LINE
  5
120E6
  8
0
  6
CONTINUOUS
 10
39.27140272797921
 20
-0.0000000000000009
 30
0.0
 11
40.02599999995994
 21
0.7545972719807246
 31
0.0
  0
LINE
  5
120E7
  8
0
  6
CONTINUOUS
 10
39.9449219370594
 20
-0.0000000000000009
 30
0.0
 11
40.02599999995994
 21
0.0810780629005379
 31
0.0
  0
LINE
  5
120E8
  8
0
  6
CONTINUOUS
 10
42.18817142235812
 20
2.916768694378905
 30
0.0
 11
43.16119791794597
 21
3.889795189966758
 31
0.0
  0
LINE
  5
120E9
  8
0
  6
CONTINUOUS
 10
42.50563373493829
 20
2.560711797878898
 30
0.0
 11
43.47866023052615
 21
3.533738293466751
 31
0.0
  0
LINE
  5
120EA
  8
0
  6
CONTINUOUS
 10
43.57899999995641
 20
4.307597271977198
 30
0.0
 11
44.99999999995498
 21
5.728597271975769
 31
0.0
  0
LINE
  5
120EB
  8
0
  6
CONTINUOUS
 10
43.57899999995641
 20
3.634078062897011
 30
0.0
 11
44.99999999995498
 21
5.055078062895582
 31
0.0
  0
LINE
  5
120EC
  8
0
  6
CONTINUOUS
 10
42.82309604751848
 20
2.204654901378891
 30
0.0
 11
44.99999999995498
 21
4.381558853815395
 31
0.0
  0
LINE
  5
120ED
  8
0
  6
CONTINUOUS
 10
43.14055836009865
 20
1.848598004878885
 30
0.0
 11
44.99999999995498
 21
3.70803964473521
 31
0.0
  0
LINE
  5
120EE
  8
0
  6
CONTINUOUS
 10
43.45802067267883
 20
1.492541108378878
 30
0.0
 11
44.99999999995498
 21
3.034520435655023
 31
0.0
  0
LINE
  5
120EF
  8
0
  6
CONTINUOUS
 10
43.77548298525902
 20
1.136484211878871
 30
0.0
 11
44.99999999995498
 21
2.361001226574837
 31
0.0
  0
LINE
  5
120F0
  8
0
  6
CONTINUOUS
 10
44.09294529783919
 20
0.7804273153788639
 30
0.0
 11
44.99999999995498
 21
1.687482017494649
 31
0.0
  0
LINE
  5
120F1
  8
0
  6
CONTINUOUS
 10
44.41040761041938
 20
0.4243704188788566
 30
0.0
 11
44.99999999995498
 21
1.013962808414463
 31
0.0
  0
LINE
  5
120F2
  8
0
  6
CONTINUOUS
 10
44.72786992299955
 20
0.0683135223788494
 30
0.0
 11
44.99999999995498
 21
0.340443599334276
 31
0.0
  0
LINE
  5
120F3
  8
0
  6
CONTINUOUS
 10
39.12223903415696
 20
-0.0000000000000009
 30
0.0
 11
38.60499999996136
 21
0.5172390341955961
 31
0.0
  0
LINE
  5
120F4
  8
0
  6
CONTINUOUS
 10
39.79575824323715
 20
-0.0000000000000009
 30
0.0
 11
38.60499999996136
 21
1.190758243275783
 31
0.0
  0
LINE
  5
120F5
  8
0
  6
CONTINUOUS
 10
40.02599999995994
 20
0.443277452357397
 30
0.0
 11
38.60499999996136
 21
1.864277452355969
 31
0.0
  0
LINE
  5
120F6
  8
0
  6
CONTINUOUS
 10
40.02599999995994
 20
1.116796661437583
 30
0.0
 11
38.60499999996136
 21
2.537796661436155
 31
0.0
  0
LINE
  5
120F7
  8
0
  6
CONTINUOUS
 10
40.02599999995994
 20
1.79031587051777
 30
0.0
 11
38.60499999996136
 21
3.211315870516341
 31
0.0
  0
LINE
  5
120F8
  8
0
  6
CONTINUOUS
 10
40.02599999995994
 20
2.463835079597956
 30
0.0
 11
38.60499999996136
 21
3.884835079596527
 31
0.0
  0
LINE
  5
120F9
  8
0
  6
CONTINUOUS
 10
40.02599999995994
 20
3.137354288678143
 30
0.0
 11
38.60499999996136
 21
4.558354288676714
 31
0.0
  0
LINE
  5
120FA
  8
0
  6
CONTINUOUS
 10
40.02599999995994
 20
3.810873497758329
 30
0.0
 11
38.60499999996136
 21
5.2318734977569
 31
0.0
  0
LINE
  5
120FB
  8
0
  6
CONTINUOUS
 10
40.02599999995994
 20
4.484392706838515
 30
0.0
 11
38.60499999996136
 21
5.905392706837086
 31
0.0
  0
LINE
  5
120FC
  8
0
  6
CONTINUOUS
 10
44.99999999995498
 20
0.183911915923658
 30
0.0
 11
41.53858364506288
 21
3.64532827081576
 31
0.0
  0
LINE
  5
120FD
  8
0
  6
CONTINUOUS
 10
40.02599999995994
 20
5.157911915918703
 30
0.0
 11
38.60499999996136
 21
6.578911915917274
 31
0.0
  0
LINE
  5
120FE
  8
0
  6
CONTINUOUS
 10
44.99999999995498
 20
0.8574311250038447
 30
0.0
 11
38.60499999996136
 21
7.25243112499746
 31
0.0
  0
LINE
  5
120FF
  8
0
  6
CONTINUOUS
 10
44.99999999995498
 20
1.530950334084031
 30
0.0
 11
38.60499999996136
 21
7.925950334077647
 31
0.0
  0
LINE
  5
12100
  8
0
  6
CONTINUOUS
 10
44.99999999995498
 20
2.204469543164218
 30
0.0
 11
43.57899999995641
 21
3.625469543162789
 31
0.0
  0
LINE
  5
12101
  8
0
  6
CONTINUOUS
 10
41.89876730984767
 20
5.305702233271528
 30
0.0
 11
38.60499999996136
 21
8.599469543157834
 31
0.0
  0
LINE
  5
12102
  8
0
  6
CONTINUOUS
 10
44.99999999995498
 20
2.877988752244405
 30
0.0
 11
43.57899999995641
 21
4.298988752242975
 31
0.0
  0
LINE
  5
12103
  8
0
  6
CONTINUOUS
 10
44.99999999995498
 20
3.551507961324591
 30
0.0
 11
43.57899999995641
 21
4.972507961323163
 31
0.0
  0
LINE
  5
12104
  8
0
  6
CONTINUOUS
 10
44.99999999995498
 20
4.225027170404777
 30
0.0
 11
43.57899999995641
 21
5.646027170403348
 31
0.0
  0
LINE
  5
12105
  8
0
  6
CONTINUOUS
 10
44.99999999995498
 20
4.898546379484964
 30
0.0
 11
43.57899999995641
 21
6.319546379483535
 31
0.0
  0
LINE
  5
12106
  8
0
  6
CONTINUOUS
 10
44.99999999995498
 20
5.572065588565151
 30
0.0
 11
43.57899999995641
 21
6.993065588563722
 31
0.0
  0
LINE
  5
12107
  8
0
  6
CONTINUOUS
 10
44.99999999995498
 20
6.245584797645336
 30
0.0
 11
43.57899999995641
 21
7.666584797643908
 31
0.0
  0
LINE
  5
12108
  8
0
  6
CONTINUOUS
 10
44.99999999995498
 20
6.919104006725522
 30
0.0
 11
43.57899999995641
 21
8.340104006724093
 31
0.0
  0
LINE
  5
12109
  8
0
  6
CONTINUOUS
 10
44.99999999995498
 20
7.592623215805709
 30
0.0
 11
43.82952321576943
 21
8.763099999991255
 31
0.0
  0
LINE
  5
1210A
  8
0
  6
CONTINUOUS
 10
44.99999999995498
 20
8.266142424885896
 30
0.0
 11
44.50304242484962
 21
8.763099999991255
 31
0.0
  0
ENDBLK
  5
12134
  8
0
  0
BLOCK
  8
0
  2
*X54
 70
     1
 10
0.0
 20
0.0
 30
0.0
  3
*X54
  1

  0
LINE
  5
1210C
  8
0
  6
CONTINUOUS
 10
0.0
 20
8.548461116714023
 30
0.0
 11
0.2146388832772324
 21
8.763099999991255
 31
0.0
  0
LINE
  5
1210D
  8
0
  6
CONTINUOUS
 10
-0.0000000000000002
 20
7.874941907633837
 30
0.0
 11
0.8881580923574184
 21
8.763099999991255
 31
0.0
  0
LINE
  5
1210E
  8
0
  6
CONTINUOUS
 10
0.0
 20
7.20142269855365
 30
0.0
 11
1.420999999998572
 21
8.622422698552223
 31
0.0
  0
LINE
  5
1210F
  8
0
  6
CONTINUOUS
 10
-0.0000000000000001
 20
6.527903489473465
 30
0.0
 11
1.420999999998571
 21
7.948903489472036
 31
0.0
  0
LINE
  5
12110
  8
0
  6
CONTINUOUS
 10
-0.0000000000000002
 20
5.854384280393278
 30
0.0
 11
1.420999999998571
 21
7.275384280391849
 31
0.0
  0
LINE
  5
12111
  8
0
  6
CONTINUOUS
 10
-0.0000000000000002
 20
5.180865071313091
 30
0.0
 11
1.420999999998571
 21
6.601865071311663
 31
0.0
  0
LINE
  5
12112
  8
0
  6
CONTINUOUS
 10
0.0
 20
4.507345862232905
 30
0.0
 11
1.420999999998571
 21
5.928345862231477
 31
0.0
  0
LINE
  5
12113
  8
0
  6
CONTINUOUS
 10
-0.0000000000000003
 20
3.833826653152718
 30
0.0
 11
1.420999999998571
 21
5.25482665315129
 31
0.0
  0
LINE
  5
12114
  8
0
  6
CONTINUOUS
 10
-0.0000000000000002
 20
3.160307444072532
 30
0.0
 11
1.420999999998571
 21
4.581307444071103
 31
0.0
  0
LINE
  5
12115
  8
0
  6
CONTINUOUS
 10
-0.0000000000000001
 20
2.486788234992345
 30
0.0
 11
1.420999999998571
 21
3.907788234990917
 31
0.0
  0
LINE
  5
12116
  8
0
  6
CONTINUOUS
 10
-0.0000000000000006
 20
1.813269025912159
 30
0.0
 11
1.420999999998571
 21
3.234269025910731
 31
0.0
  0
LINE
  5
12117
  8
0
  6
CONTINUOUS
 10
0.0
 20
1.139749816831973
 30
0.0
 11
1.420999999998571
 21
2.560749816830544
 31
0.0
  0
LINE
  5
12118
  8
0
  6
CONTINUOUS
 10
0.0000000000000002
 20
0.466230607751787
 30
0.0
 11
1.420999999998571
 21
1.887230607750358
 31
0.0
  0
LINE
  5
12119
  8
0
  6
CONTINUOUS
 10
0.2072886013284003
 20
-0.0000000000000009
 30
0.0
 11
1.420999999998571
 21
1.213711398670171
 31
0.0
  0
LINE
  5
1211A
  8
0
  6
CONTINUOUS
 10
0.8808078104085864
 20
-0.0000000000000009
 30
0.0
 11
1.420999999998571
 21
0.5401921895899839
 31
0.0
  0
LINE
  5
1211B
  8
0
  6
CONTINUOUS
 10
0.0581249075061505
 20
-0.0000000000000009
 30
0.0
 11
-0.0000000000000002
 21
0.0581249075061496
 31
0.0
  0
LINE
  5
1211C
  8
0
  6
CONTINUOUS
 10
0.7316441165863372
 20
-0.0000000000000009
 30
0.0
 11
-0.0000000000000002
 21
0.7316441165863363
 31
0.0
  0
LINE
  5
1211D
  8
0
  6
CONTINUOUS
 10
1.405163325666523
 20
-0.0000000000000009
 30
0.0
 11
-0.0000000000000002
 21
1.405163325666523
 31
0.0
  0
LINE
  5
1211E
  8
0
  6
CONTINUOUS
 10
1.420999999998572
 20
0.6576825347481381
 30
0.0
 11
-0.0000000000000001
 21
2.07868253474671
 31
0.0
  0
LINE
  5
1211F
  8
0
  6
CONTINUOUS
 10
1.420999999998571
 20
1.331201743828324
 30
0.0
 11
-0.0000000000000001
 21
2.752201743826896
 31
0.0
  0
LINE
  5
12120
  8
0
  6
CONTINUOUS
 10
1.420999999998571
 20
2.004720952908511
 30
0.0
 11
-0.0000000000000002
 21
3.425720952907082
 31
0.0
  0
LINE
  5
12121
  8
0
  6
CONTINUOUS
 10
1.420999999998571
 20
2.678240161988697
 30
0.0
 11
-0.0000000000000001
 21
4.099240161987269
 31
0.0
  0
LINE
  5
12122
  8
0
  6
CONTINUOUS
 10
1.420999999998572
 20
3.351759371068884
 30
0.0
 11
0.0
 21
4.772759371067455
 31
0.0
  0
LINE
  5
12123
  8
0
  6
CONTINUOUS
 10
1.420999999998571
 20
4.02527858014907
 30
0.0
 11
-0.0000000000000003
 21
5.446278580147642
 31
0.0
  0
LINE
  5
12124
  8
0
  6
CONTINUOUS
 10
1.420999999998571
 20
4.698797789229257
 30
0.0
 11
0.0
 21
6.119797789227828
 31
0.0
  0
LINE
  5
12125
  8
0
  6
CONTINUOUS
 10
1.420999999998571
 20
5.372316998309444
 30
0.0
 11
-0.0000000000000001
 21
6.793316998308015
 31
0.0
  0
LINE
  5
12126
  8
0
  6
CONTINUOUS
 10
1.420999999998572
 20
6.045836207389629
 30
0.0
 11
-0.0000000000000004
 21
7.466836207388202
 31
0.0
  0
LINE
  5
12127
  8
0
  6
CONTINUOUS
 10
1.420999999998571
 20
6.719355416469816
 30
0.0
 11
0.0
 21
8.140355416468388
 31
0.0
  0
LINE
  5
12128
  8
0
  6
CONTINUOUS
 10
1.420999999998571
 20
7.392874625550003
 30
0.0
 11
0.0507746255573185
 21
8.763099999991255
 31
0.0
  0
LINE
  5
12129
  8
0
  6
CONTINUOUS
 10
1.420999999998571
 20
8.06639383463019
 30
0.0
 11
0.7242938346375052
 21
8.763099999991255
 31
0.0
  0
LINE
  5
1212A
  8
0
  6
CONTINUOUS
 10
1.420999999998571
 20
8.739913043710375
 30
0.0
 11
1.397813043717691
 21
8.763099999991255
 31
0.0
  0
ENDBLK
  5
12136
  8
0
  0
ENDSEC
  0
SECTION
  2
ENTITIES
  0
LINE
  5
FF2E
  8
01
 10
43.54266883228195
 20
-108.680426436835
 30
0.0
 11
43.54266883228195
 21
-130.8304264368364
 31
0.0
  0
LINE
  5
FF2F
  8
01
 10
43.54266883228195
 20
-111.1804264368357
 30
0.0
 11
43.54266883228195
 21
-128.8304264368351
 31
0.0
  0
TEXT
  5
FF31
  8
1TEXT
 10
-20.87429970294171
 20
1.66957356316448
 30
0.0
 40
4.0
  1
表面処理
 72
     1
 11
-11.60763303627505
 21
1.66957356316448
 31
0.0
  0
LINE
  5
FF32
  8
1DIM
 10
-29.00763303627514
 20
7.16957356316448
 30
0.0
 11
40.99236696372486
 21
7.16957356316448
 31
0.0
  0
LINE
  5
FF33
  8
1DIM
 10
-29.00763303627514
 20
-6.830426436835523
 30
0.0
 11
40.99236696372486
 21
-6.830426436835523
 31
0.0
  0
LINE
  5
FF34
  8
1DIM
 10
-29.00763303627514
 20
0.1695735631644801
 30
0.0
 11
40.99236696372486
 21
0.1695735631644801
 31
0.0
  0
LINE
  5
FF35
  8
1DIM
 10
5.992366963724862
 20
7.16957356316448
 30
0.0
 11
5.992366963724407
 21
-6.830426436835522
 31
0.0
  0
TEXT
  5
FF36
  8
1TEXT
 10
16.52570029705829
 20
1.66957356316448
 30
0.0
 40
4.0
  1
コード
 72
     1
 11
23.39236696372495
 21
1.66957356316448
 31
0.0
  0
LINE
  5
FF37
  8
1DIM
 10
-29.00763303627514
 20
-6.830426436835523
 30
0.0
 11
-29.00763303627514
 21
7.16957356316448
 31
0.0
  0
LINE
  5
FF38
  8
1DIM
 10
40.99236696372463
 20
-6.830426436835523
 30
0.0
 11
40.99236696372486
 21
7.16957356316448
 31
0.0
  0
TEXT
  5
FF39
  8
1TEXT
 10
-29.00763303627514
 20
12.16957356316448
 30
0.0
 40
8.0
  1
SE-413-X
  0
TEXT
  5
FF3A
  8
1TEXT
 10
-15.94096636960838
 20
-5.165715096359804
 30
0.0
 40
4.0
  1
鏡面
 72
     1
 11
-11.60763303627505
 21
-5.165715096359804
 31
0.0
  0
TEXT
  5
FF3B
  8
1TEXT
 10
9.225700297058516
 20
-5.544783420484805
 30
0.0
 40
4.0
  1
SE-413-XP
 41
0.85
 72
     1
 11
23.39236696372518
 21
-5.544783420484805
 31
0.0
  0
LINE
  5
FF3E
  8
01
 10
56.04266883228195
 20
-76.60225285155366
 30
0.0
 11
56.04266883228195
 21
-151.0586000221174
 31
0.0
  0
LINE
  5
FF3F
  8
01
 10
65.04266883228195
 20
-76.60225285155366
 30
0.0
 11
65.04266883228195
 21
-151.0586000221174
 31
0.0
  0
LINE
  5
FF40
  8
01
 10
43.54266883228195
 20
-76.60225285155366
 30
0.0
 11
43.54266883228195
 21
-151.0586000221174
 31
0.0
  0
LINE
  5
FF4C
  8
01
 10
-178.9573313177181
 20
42.16957356316448
 30
0.0
 11
-179.957331017718
 21
43.16957356316448
 31
0.0
  0
LINE
  5
FF4D
  8
01
 10
-175.6573311677181
 20
42.16957356316448
 30
0.0
 11
-175.6573311677181
 21
43.16957356316448
 31
0.0
  0
LINE
  5
FF4E
  8
01
 10
-175.6573311677181
 20
43.16957356316448
 30
0.0
 11
-183.257331167718
 21
43.16957356316448
 31
0.0
  0
LINE
  5
FF4F
  8
01
 10
-175.6573311677181
 20
42.16957356316448
 30
0.0
 11
-183.257331167718
 21
42.16957356316448
 31
0.0
  0
LINE
  5
FF50
  8
01
 10
-183.257331167718
 20
42.16957356316448
 30
0.0
 11
-183.257331167718
 21
43.16957356316448
 31
0.0
  0
LINE
  5
FF52
  8
01
 10
39.54266883228195
 20
-105.3304262899401
 30
0.0
 11
40.54266883228195
 21
-104.3304265899401
 31
0.0
  0
LINE
  5
FF53
  8
01
 10
39.54266883228195
 20
-108.63042643994
 30
0.0
 11
40.54266883228195
 21
-108.63042643994
 31
0.0
  0
LINE
  5
FF54
  8
01
 10
40.54266883228195
 20
-108.63042643994
 30
0.0
 11
40.54266883228195
 21
-101.0304264399401
 31
0.0
  0
LINE
  5
FF55
  8
01
 10
39.54266883228195
 20
-108.63042643994
 30
0.0
 11
39.54266883228195
 21
-101.0304264399401
 31
0.0
  0
LINE
  5
FF56
  8
01
 10
39.54266883228195
 20
-101.0304264399401
 30
0.0
 11
40.54266883228195
 21
-101.0304264399401
 31
0.0
  0
LINE
  5
FF58
  8
01
 10
-212.9573313177181
 20
42.16957356316448
 30
0.0
 11
-213.957331017718
 21
43.16957356316448
 31
0.0
  0
LINE
  5
FF59
  8
01
 10
-209.6573311677181
 20
42.16957356316448
 30
0.0
 11
-209.6573311677181
 21
43.16957356316448
 31
0.0
  0
LINE
  5
FF5A
  8
01
 10
-209.6573311677181
 20
43.16957356316448
 30
0.0
 11
-217.257331167718
 21
43.16957356316448
 31
0.0
  0
LINE
  5
FF5B
  8
01
 10
-209.6573311677181
 20
42.16957356316448
 30
0.0
 11
-217.257331167718
 21
42.16957356316448
 31
0.0
  0
LINE
  5
FF5C
  8
01
 10
-217.257331167718
 20
42.16957356316448
 30
0.0
 11
-217.257331167718
 21
43.16957356316448
 31
0.0
  0
CIRCLE
  5
10261
  8
1PHANTOM
 10
-30.16175160035997
 20
-135.0700243829804
 30
0.0
 40
18.5
  0
CIRCLE
  5
10262
  8
1PHANTOM
 10
-30.16175160035997
 20
-135.0700243829804
 30
0.0
 40
57.5
  0
LINE
  5
10263
  8
1PHANTOM
 10
-139.4573311677181
 20
-77.57002438298036
 30
0.0
 11
-139.4573311677185
 21
-192.5700243829804
 31
0.0
  0
LINE
  5
10264
  8
1PHANTOM
 10
-253.4573311677181
 20
-77.57002438298036
 30
0.0
 11
-253.4573311677176
 21
-192.5700243829804
 31
0.0
  0
LINE
  5
10265
  8
1PHANTOM
 10
-139.4573311677181
 20
-77.57002438298036
 30
0.0
 11
-253.4573311677181
 21
-77.57002438298036
 31
0.0
  0
LINE
  5
10266
  8
1PHANTOM
 10
-139.4573311677185
 20
-192.5700243829804
 30
0.0
 11
-253.4573311677176
 21
-192.5700243829804
 31
0.0
  0
ARC
  5
1100C
  8
01
  6
CONTINUOUS
 10
-28.30525424269652
 20
-120.7007410460354
 30
0.0
 40
1.200000000000047
 50
305.0000000000021
 51
34.99999999999535
  0
LINE
  5
1100D
  8
01
  6
CONTINUOUS
 10
-29.38714702259531
 20
-117.0635011913123
 30
0.0
 11
-27.32227169554463
 21
-120.0124484421553
 31
0.0
  0
LINE
  5
1100E
  8
01
  6
CONTINUOUS
 10
-27.61696241441896
 20
-121.6837235661092
 30
0.0
 11
-42.03403866495719
 21
-131.7786679537835
 31
0.0
  0
ARC
  5
1100F
  8
01
  6
CONTINUOUS
 10
-30.37012941356036
 20
-117.751793686595
 30
0.0
 40
1.200000000000015
 50
34.9999999999969
 51
124.9999999999961
  0
LINE
  5
11010
  8
01
  6
CONTINUOUS
 10
-45.47549723293415
 20
-126.8637564899268
 30
0.0
 11
-31.05842121522656
 21
-116.7688121022525
 31
0.0
  0
LINE
  5
11011
  8
01
  6
CONTINUOUS
 10
-43.70531192626586
 20
-131.4839788647237
 30
0.0
 11
-45.77018818463912
 21
-128.5350316138806
 31
0.0
  0
ARC
  5
11012
  8
01
  6
CONTINUOUS
 10
-42.72233022218282
 20
-130.7956863258138
 30
0.0
 40
1.200000000000007
 50
215.0000000000029
 51
305.0000000000037
  0
ARC
  5
11013
  8
01
  6
CONTINUOUS
 10
-44.78720539304666
 20
-127.8467389663733
 30
0.0
 40
1.19999999999998
 50
124.9999999999977
 51
215.0000000000014
  0
ARC
  5
11014
  8
01
  6
CONTINUOUS
 10
-28.21921777724393
 20
-120.8236138526788
 30
0.0
 40
1.200000000000038
 50
305.0000000000029
 51
34.99999999999724
  0
LINE
  5
11015
  8
01
  6
CONTINUOUS
 10
-27.32227169554463
 20
-120.0124484421553
 30
0.0
 11
-27.23623541760972
 21
-120.1353234173598
 31
0.0
  0
LINE
  5
11016
  8
01
  6
CONTINUOUS
 10
-29.47318353336087
 20
-116.9406299413981
 30
0.0
 11
-29.38714702259531
 21
-117.0635011913123
 31
0.0
  0
ARC
  5
11017
  8
01
  6
CONTINUOUS
 10
-30.45616587901296
 20
-117.6289208799517
 30
0.0
 40
1.200000000000047
 50
34.99999999999912
 51
125.0000000000021
  0
LINE
  5
11018
  8
01
  6
CONTINUOUS
 10
-44.90621140803924
 20
-126.2820226074996
 30
0.0
 11
-31.14445772599211
 21
-116.645937127048
 31
0.0
  0
LINE
  5
11019
  8
01
  6
CONTINUOUS
 10
-27.53092613648406
 20
-121.8065966786685
 30
0.0
 11
-41.29267981853118
 21
-131.4426802964749
 31
0.0
  0
ARC
  5
1101A
  8
01
  6
CONTINUOUS
 10
-36.50331715414646
 20
-138.2826000063362
 30
0.0
 40
1.000000000000017
 50
214.9999999999987
 51
304.9999999999964
  0
LINE
  5
1101B
  8
01
  6
CONTINUOUS
 10
-37.32246937807432
 20
-138.8561765598001
 30
0.0
 11
-42.11183203961482
 21
-132.0162576557937
 31
0.0
  0
LINE
  5
1101D
  8
01
  6
CONTINUOUS
 10
-45.72536362912288
 20
-126.8555981041732
 30
0.0
 11
-50.51472722198596
 21
-120.0156782688441
 31
0.0
  0
ARC
  5
1101F
  8
01
  6
CONTINUOUS
 10
-49.69557519022047
 20
-119.4421029876893
 30
0.0
 40
1.000000000000009
 50
124.9999999999964
 51
214.9999999999974
  0
ARC
  5
11020
  8
01
  6
CONTINUOUS
 10
39.6778229647299
 20
-84.93999142568913
 30
0.0
 40
1.000000000000009
 50
304.9999999999974
 51
34.9999999999987
  0
LINE
  5
11021
  8
01
  6
CONTINUOUS
 10
27.30471701715359
 20
-65.52591667788647
 30
0.0
 11
28.42251943544667
 21
-67.12230509324466
 31
0.0
  0
LINE
  5
11023
  8
01
  6
CONTINUOUS
 10
35.18586907926652
 20
-76.78137109353491
 30
0.0
 11
40.49697579238784
 21
-84.36641590016507
 31
0.0
  0
LINE
  5
11024
  8
01
  6
CONTINUOUS
 10
40.25139720533264
 20
-85.75914548056744
 30
0.0
 11
33.00885544512639
 21
-90.83042786734723
 31
0.0
  0
LINE
  5
11025
  8
01
  6
CONTINUOUS
 10
28.72441397402653
 20
-93.8304264964404
 30
0.0
 11
-35.92974071779545
 21
-139.1017520506252
 31
0.0
  0
ARC
  5
11026
  8
01
  6
CONTINUOUS
 10
26.48556492865586
 20
-66.09949440704227
 30
0.0
 40
1.000000000000026
 50
35.00000000000003
 51
124.999999999996
  0
LINE
  5
11027
  8
01
  6
CONTINUOUS
 10
-50.26989016729343
 20
-118.6234685716587
 30
0.0
 11
18.69629659405844
 21
-70.33282764863614
 31
0.0
  0
LINE
  5
11029
  8
01
  6
CONTINUOUS
 10
22.46717269652338
 20
-67.69242680231582
 30
0.0
 11
25.91198743675122
 21
-65.28034554141186
 31
0.0
  0
LINE
  5
1102E
  8
01
  6
CONTINUOUS
 10
34.51310695576368
 20
-69.7538686242794
 30
0.0
 11
34.70370074553568
 21
-71.74476300054674
 31
0.0
  0
ARC
  5
1102F
  8
01
  6
CONTINUOUS
 10
33.12797369070732
 20
-67.87732534035169
 30
0.0
 40
1.199999999999989
 50
5.468417482331592
 51
95.46841748233166
  0
LINE
  5
11031
  8
01
  6
CONTINUOUS
 10
34.32251245597329
 20
-67.76296683133997
 30
0.0
 11
34.51310695576368
 21
-69.7538686242794
 31
0.0
  0
LINE
  5
11032
  8
01
  6
CONTINUOUS
 10
34.82758688639208
 20
-73.03884619928853
 30
0.0
 11
34.70370074553568
 21
-71.74476300054674
 31
0.0
  0
LINE
  5
11035
  8
01
  6
CONTINUOUS
 10
33.23911771014676
 20
-72.1863482393245
 30
0.0
 11
33.73683945004557
 21
-72.13869996938611
 31
0.0
  0
ARC
  5
11036
  8
01
  6
CONTINUOUS
 10
33.8321378674164
 20
-73.13414498841283
 30
0.0
 40
1.0
 50
5.468417482331715
 51
95.46841748233206
  0
LINE
  5
1103C
  8
01
  6
CONTINUOUS
 10
19.00419881565098
 20
-73.5490961437541
 30
0.0
 11
33.23911771014676
 21
-72.1863482393245
 31
0.0
  0
LINE
  5
1103E
  8
01
  6
CONTINUOUS
 10
18.90890156575578
 20
-72.55364524728438
 30
0.0
 11
19.00419881565098
 21
-73.5490961437541
 31
0.0
  0
ARC
  5
1103F
  8
01
  6
CONTINUOUS
 10
18.93117354178606
 20
-69.63825280381955
 30
0.0
 40
0.2999999999999829
 50
95.46841748233112
 51
185.4684174823326
  0
LINE
  5
11040
  8
01
  6
CONTINUOUS
 10
32.73932512131692
 20
-68.01499199996776
 30
0.0
 11
18.90258341700662
 21
-69.33962130775915
 31
0.0
  0
ARC
  5
11041
  8
01
  6
CONTINUOUS
 10
32.76791296176136
 20
-68.31362371471384
 30
0.0
 40
0.3000000000000682
 50
5.468417482331168
 51
95.46841748233227
  0
LINE
  5
11042
  8
01
  6
CONTINUOUS
 10
18.90890156575578
 20
-72.55364524728438
 30
0.0
 11
18.63246368263352
 21
-69.6660452496468
 31
0.0
  0
LINE
  5
11043
  8
01
  6
CONTINUOUS
 10
33.06654890208841
 20
-68.28503754667719
 30
0.0
 11
33.43820748597379
 21
-72.16728882797047
 31
0.0
  0
LINE
  5
11048
  8
01
  6
CONTINUOUS
 10
28.54266823623547
 20
-90.83042786734723
 30
0.0
 11
40.54267020318878
 21
-90.83042786734723
 31
0.0
  0
ARC
  5
11049
  8
01
  6
CONTINUOUS
 10
40.54266742990569
 20
-93.83042618913032
 30
0.0
 40
3.0
 50
0.0
 51
90.0
  0
LINE
  5
1104A
  8
01
  6
CONTINUOUS
 10
43.54266883228195
 20
-93.8304264964404
 30
0.0
 11
43.54266883228195
 21
-115.8304263772311
 31
0.0
  0
LINE
  5
1104B
  8
01
  6
CONTINUOUS
 10
40.54267020318878
 20
-118.8304250063243
 30
0.0
 11
40.54267020318878
 21
-93.8304264964404
 31
0.0
  0
LINE
  5
1104C
  8
01
  6
CONTINUOUS
 10
40.54267020318878
 20
-93.8304264964404
 30
0.0
 11
28.54266823623547
 21
-93.8304264964404
 31
0.0
  0
ARC
  5
1104D
  8
01
  6
CONTINUOUS
 10
28.54266742990566
 20
-90.83042618913032
 30
0.0
 40
3.0
 50
215.0000000000017
 51
270.0000000000043
  0
LINE
  5
1104F
  8
01
  6
CONTINUOUS
 10
19.63805468175778
 20
-83.34365980046414
 30
0.0
 11
19.52447430584797
 21
-83.18145321028851
 31
0.0
  0
LINE
  5
11050
  8
01
  6
CONTINUOUS
 10
26.43584148381123
 20
-87.82156304734372
 30
0.0
 11
28.54266823623547
 21
-90.83042786734723
 31
0.0
  0
LINE
  5
11051
  8
01
  6
CONTINUOUS
 10
43.54266883228195
 20
-118.8304250063243
 30
0.0
 11
40.54267020318878
 21
-118.8304250063243
 31
0.0
  0
LINE
  5
11053
  8
01
  6
CONTINUOUS
 10
43.54266883228195
 20
-115.8304263772311
 30
0.0
 11
43.54266883228195
 21
-118.8304250063243
 31
0.0
  0
LINE
  5
11056
  8
01
  6
CONTINUOUS
 10
22.39099578354725
 20
-77.51196370738171
 30
0.0
 11
22.57165746186146
 21
-77.38546029942654
 31
0.0
  0
LINE
  5
11070
  8
01
  6
CONTINUOUS
 10
26.08521209094201
 20
-92.55115297677918
 30
0.0
 11
23.05914220956732
 21
-88.22947730743155
 31
0.0
  0
LINE
  5
11072
  8
01
  6
CONTINUOUS
 10
19.57250409941816
 20
-79.48549186759966
 30
0.0
 11
17.80374409053692
 21
-80.72399095910214
 31
0.0
  0
LINE
  5
11075
  8
01
  6
CONTINUOUS
 10
17.80374409053692
 20
-80.72399095910214
 30
0.0
 11
19.98997163611179
 21
-83.84624747059941
 31
0.0
  0
POLYLINE
  5
11078
  8
01
  6
CONTINUOUS
 66
     1
 10
0.0
 20
0.0
 30
0.0
  0
VERTEX
  5
11C4F
  8
01
  6
CONTINUOUS
 10
22.67129288342889
 20
-77.2148902916642
 30
0.0
  0
VERTEX
  5
11C50
  8
01
  6
CONTINUOUS
 10
22.67096263521993
 20
-77.21540912314583
 30
0.0
  0
VERTEX
  5
11C51
  8
01
  6
CONTINUOUS
 10
22.67062296545933
 20
-77.21594351215107
 30
0.0
  0
VERTEX
  5
11C52
  8
01
  6
CONTINUOUS
 10
22.67026445259545
 20
-77.21650901620356
 30
0.0
  0
VERTEX
  5
11C53
  8
01
  6
CONTINUOUS
 10
22.66987767507667
 20
-77.21712119282694
 30
0.0
  0
VERTEX
  5
11C54
  8
01
  6
CONTINUOUS
 10
22.66945321135135
 20
-77.21779559954479
 30
0.0
  0
VERTEX
  5
11C55
  8
01
  6
CONTINUOUS
 10
22.66898163986786
 20
-77.21854779388073
 30
0.0
  0
VERTEX
  5
11C56
  8
01
  6
CONTINUOUS
 10
22.66845353907457
 20
-77.2193933333584
 30
0.0
  0
VERTEX
  5
11C57
  8
01
  6
CONTINUOUS
 10
22.66785948741984
 20
-77.22034777550142
 30
0.0
  0
VERTEX
  5
11C58
  8
01
  6
CONTINUOUS
 10
22.66719006335204
 20
-77.2214266778334
 30
0.0
  0
VERTEX
  5
11C59
  8
01
  6
CONTINUOUS
 10
22.66643584531954
 20
-77.222645597878
 30
0.0
  0
VERTEX
  5
11C5A
  8
01
  6
CONTINUOUS
 10
22.66558741177072
 20
-77.22402009315881
 30
0.0
  0
VERTEX
  5
11C5B
  8
01
  6
CONTINUOUS
 10
22.66463534115392
 20
-77.22556572119944
 30
0.0
  0
VERTEX
  5
11C5C
  8
01
  6
CONTINUOUS
 10
22.66357222980409
 20
-77.22729487216142
 30
0.0
  0
VERTEX
  5
11C5D
  8
01
  6
CONTINUOUS
 10
22.66239904150155
 20
-77.22920680230152
 30
0.0
  0
VERTEX
  5
11C5E
  8
01
  6
CONTINUOUS
 10
22.66111890855464
 20
-77.23129736406116
 30
0.0
  0
VERTEX
  5
11C5F
  8
01
  6
CONTINUOUS
 10
22.6597349632753
 20
-77.23356240987604
 30
0.0
  0
VERTEX
  5
11C60
  8
01
  6
CONTINUOUS
 10
22.65825033797547
 20
-77.23599779218188
 30
0.0
  0
VERTEX
  5
11C61
  8
01
  6
CONTINUOUS
 10
22.65666816496707
 20
-77.23859936341434
 30
0.0
  0
VERTEX
  5
11C62
  8
01
  6
CONTINUOUS
 10
22.65499157656206
 20
-77.24136297600919
 30
0.0
  0
VERTEX
  5
11C63
  8
01
  6
CONTINUOUS
 10
22.65322370507237
 20
-77.2442844824021
 30
0.0
  0
VERTEX
  5
11C64
  8
01
  6
CONTINUOUS
 10
22.65136768280995
 20
-77.24735973502878
 30
0.0
  0
VERTEX
  5
11C65
  8
01
  6
CONTINUOUS
 10
22.64942664208673
 20
-77.25058458632493
 30
0.0
  0
VERTEX
  5
11C66
  8
01
  6
CONTINUOUS
 10
22.64740371521465
 20
-77.2539548887263
 30
0.0
  0
VERTEX
  5
11C67
  8
01
  6
CONTINUOUS
 10
22.64530203450565
 20
-77.25746649466856
 30
0.0
  0
VERTEX
  5
11C68
  8
01
  6
CONTINUOUS
 10
22.64312425839868
 20
-77.26111599506264
 30
0.0
  0
VERTEX
  5
11C69
  8
01
  6
CONTINUOUS
 10
22.6408707363613
 20
-77.26490357907907
 30
0.0
  0
VERTEX
  5
11C6A
  8
01
  6
CONTINUOUS
 10
22.63854111564564
 20
-77.26883053020838
 30
0.0
  0
VERTEX
  5
11C6B
  8
01
  6
CONTINUOUS
 10
22.63613504333978
 20
-77.27289813219677
 30
0.0
  0
VERTEX
  5
11C6C
  8
01
  6
CONTINUOUS
 10
22.63365216653176
 20
-77.27710766879044
 30
0.0
  0
VERTEX
  5
11C6D
  8
01
  6
CONTINUOUS
 10
22.63109213230966
 20
-77.28146042373557
 30
0.0
  0
VERTEX
  5
11C6E
  8
01
  6
CONTINUOUS
 10
22.62845458776155
 20
-77.28595768077838
 30
0.0
  0
VERTEX
  5
11C6F
  8
01
  6
CONTINUOUS
 10
22.62573917997548
 20
-77.29060072366505
 30
0.0
  0
VERTEX
  5
11C70
  8
01
  6
CONTINUOUS
 10
22.62294555603953
 20
-77.29539083614179
 30
0.0
  0
VERTEX
  5
11C71
  8
01
  6
CONTINUOUS
 10
22.62007336304175
 20
-77.30032930195479
 30
0.0
  0
VERTEX
  5
11C72
  8
01
  6
CONTINUOUS
 10
22.61712224807021
 20
-77.30541740485023
 30
0.0
  0
VERTEX
  5
11C73
  8
01
  6
CONTINUOUS
 10
22.61409185821298
 20
-77.31065642857433
 30
0.0
  0
VERTEX
  5
11C74
  8
01
  6
CONTINUOUS
 10
22.6109819402598
 20
-77.31604753303014
 30
0.0
  0
VERTEX
  5
11C75
  8
01
  6
CONTINUOUS
 10
22.60779281128636
 20
-77.32159116974724
 30
0.0
  0
VERTEX
  5
11C76
  8
01
  6
CONTINUOUS
 10
22.60452499079532
 20
-77.32728753881322
 30
0.0
  0
VERTEX
  5
11C77
  8
01
  6
CONTINUOUS
 10
22.60117899852991
 20
-77.33313684001679
 30
0.0
  0
VERTEX
  5
11C78
  8
01
  6
CONTINUOUS
 10
22.59775535423336
 20
-77.33913927314669
 30
0.0
  0
VERTEX
  5
11C79
  8
01
  6
CONTINUOUS
 10
22.5942545776489
 20
-77.34529503799162
 30
0.0
  0
VERTEX
  5
11C7A
  8
01
  6
CONTINUOUS
 10
22.59067718851979
 20
-77.35160433434034
 30
0.0
  0
VERTEX
  5
11C7B
  8
01
  6
CONTINUOUS
 10
22.58702370658925
 20
-77.35806736198153
 30
0.0
  0
VERTEX
  5
11C7C
  8
01
  6
CONTINUOUS
 10
22.58329465160052
 20
-77.36468432070393
 30
0.0
  0
VERTEX
  5
11C7D
  8
01
  6
CONTINUOUS
 10
22.57949054329683
 20
-77.37145541029629
 30
0.0
  0
VERTEX
  5
11C7E
  8
01
  6
CONTINUOUS
 10
22.57561190142142
 20
-77.3783808305473
 30
0.0
  0
VERTEX
  5
11C7F
  8
01
  6
CONTINUOUS
 10
22.57165924571754
 20
-77.38546078124568
 30
0.0
  0
SEQEND
  5
12137
  8
01
  6
CONTINUOUS
  0
POLYLINE
  5
1107E
  8
01
  6
CONTINUOUS
 10
0.0
 20
0.0
 30
0.0
 66
     1
 70
     8
  0
VERTEX
  5
11C80
  8
01
  6
CONTINUOUS
 10
27.92820775627237
 20
-84.72254278892848
 30
0.0
 70
    32
  0
VERTEX
  5
11C81
  8
01
  6
CONTINUOUS
 10
27.9282026807673
 20
-84.72254391265646
 30
0.0
 70
    32
  0
VERTEX
  5
11C82
  8
01
  6
CONTINUOUS
 10
27.92819760525129
 20
-84.72254503638662
 30
0.0
 70
    32
  0
VERTEX
  5
11C83
  8
01
  6
CONTINUOUS
 10
27.92819252971341
 20
-84.72254616012111
 30
0.0
 70
    32
  0
VERTEX
  5
11C84
  8
01
  6
CONTINUOUS
 10
27.92818745414273
 20
-84.72254728386208
 30
0.0
 70
    32
  0
VERTEX
  5
11C85
  8
01
  6
CONTINUOUS
 10
27.92818237852831
 20
-84.72254840761173
 30
0.0
 70
    32
  0
VERTEX
  5
11C86
  8
01
  6
CONTINUOUS
 10
27.92817730285921
 20
-84.72254953137218
 30
0.0
 70
    32
  0
VERTEX
  5
11C87
  8
01
  6
CONTINUOUS
 10
27.92817222712451
 20
-84.72255065514564
 30
0.0
 70
    32
  0
VERTEX
  5
11C88
  8
01
  6
CONTINUOUS
 10
27.92816715131326
 20
-84.72255177893426
 30
0.0
 70
    32
  0
VERTEX
  5
11C89
  8
01
  6
CONTINUOUS
 10
27.92816207541454
 20
-84.72255290274018
 30
0.0
 70
    32
  0
VERTEX
  5
11C8A
  8
01
  6
CONTINUOUS
 10
27.9281569994174
 20
-84.72255402656559
 30
0.0
 70
    32
  0
VERTEX
  5
11C8B
  8
01
  6
CONTINUOUS
 10
27.92815192331091
 20
-84.72255515041266
 30
0.0
 70
    32
  0
VERTEX
  5
11C8C
  8
01
  6
CONTINUOUS
 10
27.92814684708414
 20
-84.72255627428353
 30
0.0
 70
    32
  0
VERTEX
  5
11C8D
  8
01
  6
CONTINUOUS
 10
27.92814177072615
 20
-84.7225573981804
 30
0.0
 70
    32
  0
VERTEX
  5
11C8E
  8
01
  6
CONTINUOUS
 10
27.928136694226
 20
-84.7225585221054
 30
0.0
 70
    32
  0
VERTEX
  5
11C8F
  8
01
  6
CONTINUOUS
 10
27.92813161757277
 20
-84.7225596460607
 30
0.0
 70
    32
  0
VERTEX
  5
11C90
  8
01
  6
CONTINUOUS
 10
27.92812654075551
 20
-84.72256077004849
 30
0.0
 70
    32
  0
VERTEX
  5
11C91
  8
01
  6
CONTINUOUS
 10
27.92812146376329
 20
-84.7225618940709
 30
0.0
 70
    32
  0
VERTEX
  5
11C92
  8
01
  6
CONTINUOUS
 10
27.92811638658518
 20
-84.72256301813013
 30
0.0
 70
    32
  0
VERTEX
  5
11C93
  8
01
  6
CONTINUOUS
 10
27.92811130921024
 20
-84.72256414222835
 30
0.0
 70
    32
  0
VERTEX
  5
11C94
  8
01
  6
CONTINUOUS
 10
27.92810623162753
 20
-84.72256526636768
 30
0.0
 70
    32
  0
VERTEX
  5
11C95
  8
01
  6
CONTINUOUS
 10
27.92810115382613
 20
-84.7225663905503
 30
0.0
 70
    32
  0
VERTEX
  5
11C96
  8
01
  6
CONTINUOUS
 10
27.9280960757951
 20
-84.72256751477839
 30
0.0
 70
    32
  0
VERTEX
  5
11C97
  8
01
  6
CONTINUOUS
 10
27.92809099752349
 20
-84.7225686390541
 30
0.0
 70
    32
  0
VERTEX
  5
11C98
  8
01
  6
CONTINUOUS
 10
27.92808591900038
 20
-84.72256976337962
 30
0.0
 70
    32
  0
SEQEND
  5
12138
  8
01
  6
CONTINUOUS
  0
LINE
  5
110A3
  8
01
  6
CONTINUOUS
 10
33.7368408106462
 20
-72.13869610927792
 30
0.0
 11
33.30800261660099
 21
-67.65917630836073
 31
0.0
  0
ARC
  5
110A4
  8
01
  6
CONTINUOUS
 10
33.12797369070733
 20
-67.87732534035175
 30
0.0
 40
1.200000000000045
 50
5.468417482331334
 51
95.46841748233173
  0
LINE
  5
110A5
  8
01
  6
CONTINUOUS
 10
34.32251234566926
 20
-67.76296887222752
 30
0.0
 11
34.51310645920967
 21
-69.75386663049755
 31
0.0
  0
LINE
  5
110A6
  8
01
  6
CONTINUOUS
 10
34.51310645920967
 20
-69.75386663049755
 30
0.0
 11
34.70370057275006
 21
-71.74476438876736
 31
0.0
  0
LINE
  5
110A7
  8
01
  6
CONTINUOUS
 10
-59.49850249282166
 20
-84.3645351077135
 30
0.0
 11
-58.0690830916138
 21
-81.84129112913152
 31
0.0
  0
ARC
  5
110A8
  8
01
  6
CONTINUOUS
 10
-53.47607879402943
 20
-76.16816927935865
 30
0.0
 40
1.200000000000003
 50
95.4684174823264
 51
150.4684174823296
  0
LINE
  5
110A9
  8
01
  6
CONTINUOUS
 10
33.01361722258309
 20
-66.68278668538983
 30
0.0
 11
-53.59043526215366
 21
-74.97363062439672
 31
0.0
  0
LINE
  5
110AA
  8
01
  6
CONTINUOUS
 10
-54.52017975068402
 20
-75.57668538920372
 30
0.0
 11
-58.0690830916138
 21
-81.84129112913152
 31
0.0
  0
LINE
  5
110AB
  8
01
  6
CONTINUOUS
 10
-58.62841836227611
 20
-84.85743834950927
 30
0.0
 11
-53.59877778278062
 21
-75.97900120508542
 31
0.0
  0
LINE
  5
110AC
  8
01
  6
CONTINUOUS
 10
-53.59877778278062
 20
-75.97900120508542
 30
0.0
 11
33.30800405518031
 21
-67.65917615317068
 31
0.0
  0
LINE
  5
110AD
  8
01
  6
CONTINUOUS
 10
34.68464116139602
 20
-71.54567461294033
 30
0.0
 11
33.68919228226111
 21
-71.64097166971052
 31
0.0
  0
LINE
  5
110AE
  8
01
  6
CONTINUOUS
 10
-58.62841836227611
 20
-84.85743834950927
 30
0.0
 11
-59.49850249282166
 21
-84.3645351077135
 31
0.0
  0
LINE
  5
1125F
  8
01
  6
CONTINUOUS
 10
-255.4573333879908
 20
24.56495736820102
 30
0.0
 11
-254.4573313614329
 21
24.56495736820102
 31
0.0
  0
LINE
  5
11260
  8
01
  6
CONTINUOUS
 10
-216.5907352289161
 20
34.56495900732875
 30
0.0
 11
-221.707328321596
 21
34.56495900732875
 31
0.0
  0
LINE
  5
11261
  8
01
  6
CONTINUOUS
 10
-249.0073285123309
 20
34.56495900732875
 30
0.0
 11
-255.4573333879908
 21
34.56495900732875
 31
0.0
  0
LINE
  5
11262
  8
01
  6
CONTINUOUS
 10
-182.5920987000665
 20
34.56495900732875
 30
0.0
 11
-210.3225654980143
 21
34.56495900732875
 31
0.0
  0
LINE
  5
11263
  8
01
  6
CONTINUOUS
 10
-171.2073321511945
 20
34.56495900732875
 30
0.0
 11
-176.3239271065196
 21
34.56495900732875
 31
0.0
  0
LINE
  5
11264
  8
01
  6
CONTINUOUS
 10
-256.657331349512
 20
43.22618444544673
 30
0.0
 11
-263.2573313137492
 21
43.22618444544673
 31
0.0
  0
ARC
  5
11265
  8
01
  6
CONTINUOUS
 10
-256.6573314280607
 20
42.02618199948444
 30
0.0
 40
1.200000000000003
 50
0.0
 51
90.0
  0
ARC
  5
11266
  8
01
  6
CONTINUOUS
 10
-263.2573314280607
 20
42.02618199948444
 30
0.0
 40
1.200000000000003
 50
90.0
 51
180.0
  0
ARC
  5
11267
  8
01
  6
CONTINUOUS
 10
-256.6573314280607
 20
-46.79012476321
 30
0.0
 40
1.200000000000003
 50
270.0
 51
0.000000000001357
  0
ARC
  5
11268
  8
01
  6
CONTINUOUS
 10
-129.6573314280607
 20
-46.79012476321
 30
0.0
 40
1.200000000000017
 50
270.0
 51
0.0
  0
ARC
  5
11269
  8
01
  6
CONTINUOUS
 10
-136.2573314280607
 20
-46.79012476321
 30
0.0
 40
1.200000000000017
 50
180.0
 51
270.0000000000027
  0
ARC
  5
1126A
  8
01
  6
CONTINUOUS
 10
-263.2573314280607
 20
-46.79012476321
 30
0.0
 40
1.200000000000003
 50
180.0
 51
270.0000000000027
  0
LINE
  5
1126B
  8
01
  6
CONTINUOUS
 10
-136.2573309859237
 20
-47.99012455063462
 30
0.0
 11
-129.6573310216864
 21
-47.99012455063462
 31
0.0
  0
LINE
  5
1126C
  8
01
  6
CONTINUOUS
 10
-263.2573313137492
 20
-47.99012455063462
 30
0.0
 11
-256.657331349512
 21
-47.99012455063462
 31
0.0
  0
LINE
  5
1126D
  8
01
  6
CONTINUOUS
 10
-123.1573327502211
 20
-24.47834947983324
 30
0.0
 11
-128.4573311975201
 21
-24.47834947983324
 31
0.0
  0
LINE
  5
1126E
  8
01
  6
CONTINUOUS
 10
-137.45733081009
 20
-24.47834947983324
 30
0.0
 11
-138.4573309740027
 21
-24.47834947983324
 31
0.0
  0
LINE
  5
1126F
  8
01
  6
CONTINUOUS
 10
-254.4573313614329
 20
-24.47834947983324
 30
0.0
 11
-255.4573333879908
 21
-24.47834947983324
 31
0.0
  0
LINE
  5
11270
  8
01
  6
CONTINUOUS
 10
-264.4573292752704
 20
-24.47834947983324
 30
0.0
 11
-269.7573295852145
 21
-24.47834947983324
 31
0.0
  0
ARC
  5
11271
  8
01
  6
CONTINUOUS
 10
-269.7573314280607
 20
-25.67834951181402
 30
0.0
 40
1.200000000000017
 50
90.0
 51
180.0
  0
ARC
  5
11272
  8
01
  6
CONTINUOUS
 10
-123.1573314280607
 20
-25.67834951181402
 30
0.0
 40
1.200000000000017
 50
0.0
 51
90.0
  0
ARC
  5
11273
  8
01
  6
CONTINUOUS
 10
-129.6573314280607
 20
-14.90488507860067
 30
0.0
 40
1.200000000000017
 50
0.0
 51
90.0
  0
ARC
  5
11274
  8
01
  6
CONTINUOUS
 10
-136.2573314280607
 20
-14.90488507860067
 30
0.0
 40
1.200000000000017
 50
90.0
 51
179.9999999999973
  0
LINE
  5
11275
  8
01
  6
CONTINUOUS
 10
-129.6573310216864
 20
-13.704884675318
 30
0.0
 11
-136.2573309859237
 21
-13.704884675318
 31
0.0
  0
ARC
  5
11276
  8
01
  6
CONTINUOUS
 10
-269.7573314280607
 20
-42.16030066216416
 30
0.0
 40
1.200000000000003
 50
180.0
 51
270.0000000000027
  0
ARC
  5
11277
  8
01
  6
CONTINUOUS
 10
-123.1573314280607
 20
-42.16030066216416
 30
0.0
 40
1.200000000000017
 50
270.0
 51
0.000000000001357
  0
LINE
  5
11278
  8
01
  6
CONTINUOUS
 10
-269.7573295852145
 20
-43.36030024009347
 30
0.0
 11
-264.4573292752704
 21
-43.36030024009347
 31
0.0
  0
LINE
  5
11279
  8
01
  6
CONTINUOUS
 10
-255.4573333879908
 20
-43.36030024009347
 30
0.0
 11
-254.4573313614329
 21
-43.36030024009347
 31
0.0
  0
LINE
  5
1127A
  8
01
  6
CONTINUOUS
 10
-138.4573309740027
 20
-43.36030024009347
 30
0.0
 11
-137.45733081009
 21
-43.36030024009347
 31
0.0
  0
LINE
  5
1127B
  8
01
  6
CONTINUOUS
 10
-128.4573311975201
 20
-43.36030024009347
 30
0.0
 11
-123.1573327502211
 21
-43.36030024009347
 31
0.0
  0
LINE
  5
1127C
  8
01
  6
CONTINUOUS
 10
-145.0573318695625
 20
40.21619086248279
 30
0.0
 11
-170.057331310769
 21
40.21619086248279
 31
0.0
  0
LINE
  5
1127D
  8
01
  6
CONTINUOUS
 10
-222.8573328873118
 20
40.21619086248279
 30
0.0
 11
-247.8573313971957
 21
40.21619086248279
 31
0.0
  0
LINE
  5
1127E
  8
01
  6
CONTINUOUS
 10
-221.707328321596
 20
40.53037067038417
 30
0.0
 11
-222.707330348154
 21
40.53037067038417
 31
0.0
  0
LINE
  5
1127F
  8
01
  6
CONTINUOUS
 10
-248.0073339363536
 20
40.53037067038417
 30
0.0
 11
-249.0073285123309
 21
40.53037067038417
 31
0.0
  0
LINE
  5
11280
  8
01
  6
CONTINUOUS
 10
-222.707330348154
 20
39.16681011301876
 30
0.0
 11
-222.8573328873118
 21
39.16681011301876
 31
0.0
  0
LINE
  5
11281
  8
01
  6
CONTINUOUS
 10
-247.8573313971957
 20
39.16681011301876
 30
0.0
 11
-248.0073339363536
 21
39.16681011301876
 31
0.0
  0
LINE
  5
11282
  8
01
  6
CONTINUOUS
 10
-143.907331029137
 20
40.53037067038417
 30
0.0
 11
-144.9073311930498
 21
40.53037067038417
 31
0.0
  0
LINE
  5
11283
  8
01
  6
CONTINUOUS
 10
-170.2073310559591
 20
40.53037067038417
 30
0.0
 11
-171.2073321511945
 21
40.53037067038417
 31
0.0
  0
LINE
  5
11284
  8
01
  6
CONTINUOUS
 10
-144.9073311930498
 20
39.16681011301876
 30
0.0
 11
-145.0573318695625
 21
39.16681011301876
 31
0.0
  0
LINE
  5
11285
  8
01
  6
CONTINUOUS
 10
-170.057331310769
 20
39.16681011301876
 30
0.0
 11
-170.2073310559591
 21
39.16681011301876
 31
0.0
  0
LINE
  5
11287
  8
01
  6
CONTINUOUS
 10
-179.857331426998
 20
32.27721725685001
 30
0.0
 11
-181.4573305716714
 21
32.27721725685001
 31
0.0
  0
LINE
  5
11288
  8
01
  6
CONTINUOUS
 10
-179.857331426998
 20
32.22592746002078
 30
0.0
 11
-179.857331426998
 21
32.27721725685001
 31
0.0
  0
LINE
  5
11289
  8
01
  6
CONTINUOUS
 10
-179.0573309233388
 20
32.27721725685001
 30
0.0
 11
-179.0573309233388
 21
32.22592746002078
 31
0.0
  0
LINE
  5
1128A
  8
01
  6
CONTINUOUS
 10
-177.4573317786654
 20
32.27721725685001
 30
0.0
 11
-179.0573309233388
 21
32.27721725685001
 31
0.0
  0
LINE
  5
1128B
  8
01
  6
CONTINUOUS
 10
-177.4573317786654
 20
32.73607616407276
 30
0.0
 11
-177.4573317786654
 21
32.27721725685001
 31
0.0
  0
LINE
  5
1128C
  8
01
  6
CONTINUOUS
 10
-179.0573309233388
 20
32.73607616407276
 30
0.0
 11
-177.4573317786654
 21
32.73607616407276
 31
0.0
  0
LINE
  5
1128D
  8
01
  6
CONTINUOUS
 10
-179.0573309233388
 20
33.65380142909885
 30
0.0
 11
-179.0573309233388
 21
32.73607616407276
 31
0.0
  0
LINE
  5
1128E
  8
01
  6
CONTINUOUS
 10
-179.857331426998
 20
33.65380142909885
 30
0.0
 11
-179.0573309233388
 21
33.65380142909885
 31
0.0
  0
LINE
  5
1128F
  8
01
  6
CONTINUOUS
 10
-179.857331426998
 20
32.73607616407276
 30
0.0
 11
-179.857331426998
 21
33.65380142909885
 31
0.0
  0
LINE
  5
11290
  8
01
  6
CONTINUOUS
 10
-181.4573305716714
 20
32.73607616407276
 30
0.0
 11
-179.857331426998
 21
32.73607616407276
 31
0.0
  0
LINE
  5
11291
  8
01
  6
CONTINUOUS
 10
-181.4573305716714
 20
32.27721725685001
 30
0.0
 11
-181.4573305716714
 21
32.73607616407276
 31
0.0
  0
LINE
  5
11292
  8
01
  6
CONTINUOUS
 10
-179.857331426998
 20
32.73607616407276
 30
0.0
 11
-179.857331426998
 21
32.27721725685001
 31
0.0
  0
LINE
  5
11293
  8
01
  6
CONTINUOUS
 10
-179.0573309233388
 20
32.73607616407276
 30
0.0
 11
-179.0573309233388
 21
32.27721725685001
 31
0.0
  0
LINE
  5
11295
  8
01
  6
CONTINUOUS
 10
-213.857333274742
 20
32.27721725685001
 30
0.0
 11
-215.4573305567702
 21
32.27721725685001
 31
0.0
  0
LINE
  5
11296
  8
01
  6
CONTINUOUS
 10
-213.857333274742
 20
32.22592746002078
 30
0.0
 11
-213.857333274742
 21
32.27721725685001
 31
0.0
  0
LINE
  5
11297
  8
01
  6
CONTINUOUS
 10
-213.0573309084376
 20
32.27721725685001
 30
0.0
 11
-213.0573309084376
 21
32.22592746002078
 31
0.0
  0
LINE
  5
11298
  8
01
  6
CONTINUOUS
 10
-211.4573299011191
 20
32.27721725685001
 30
0.0
 11
-213.0573309084376
 21
32.27721725685001
 31
0.0
  0
LINE
  5
11299
  8
01
  6
CONTINUOUS
 10
-211.4573299011191
 20
32.73607616407276
 30
0.0
 11
-211.4573299011191
 21
32.27721725685001
 31
0.0
  0
LINE
  5
1129A
  8
01
  6
CONTINUOUS
 10
-213.0573309084376
 20
32.73607616407276
 30
0.0
 11
-211.4573299011191
 21
32.73607616407276
 31
0.0
  0
LINE
  5
1129B
  8
01
  6
CONTINUOUS
 10
-213.0573309084376
 20
33.65380142909885
 30
0.0
 11
-213.0573309084376
 21
32.73607616407276
 31
0.0
  0
LINE
  5
1129C
  8
01
  6
CONTINUOUS
 10
-213.857333274742
 20
33.65380142909885
 30
0.0
 11
-213.0573309084376
 21
33.65380142909885
 31
0.0
  0
LINE
  5
1129D
  8
01
  6
CONTINUOUS
 10
-213.857333274742
 20
32.73607616407276
 30
0.0
 11
-213.857333274742
 21
33.65380142909885
 31
0.0
  0
LINE
  5
1129E
  8
01
  6
CONTINUOUS
 10
-215.4573305567702
 20
32.73607616407276
 30
0.0
 11
-213.857333274742
 21
32.73607616407276
 31
0.0
  0
LINE
  5
1129F
  8
01
  6
CONTINUOUS
 10
-215.4573305567702
 20
32.27721725685001
 30
0.0
 11
-215.4573305567702
 21
32.73607616407276
 31
0.0
  0
LINE
  5
112A0
  8
01
  6
CONTINUOUS
 10
-213.857333274742
 20
32.73607616407276
 30
0.0
 11
-213.857333274742
 21
32.27721725685001
 31
0.0
  0
LINE
  5
112A1
  8
01
  6
CONTINUOUS
 10
-213.0573309084376
 20
32.73607616407276
 30
0.0
 11
-213.0573309084376
 21
32.27721725685001
 31
0.0
  0
LINE
  5
112A2
  8
01
  6
CONTINUOUS
 10
-255.4573333879908
 20
29.06335343701244
 30
0.0
 11
-255.4573333879908
 21
-46.79012472646832
 31
0.0
  0
LINE
  5
112A3
  8
01
  6
CONTINUOUS
 10
-264.4573292752704
 20
-46.79012472646832
 30
0.0
 11
-264.4573292752704
 21
29.06335343701244
 31
0.0
  0
LINE
  5
112A4
  8
01
  6
CONTINUOUS
 10
-264.4573292752704
 20
29.06335343701244
 30
0.0
 11
-264.4573292752704
 21
42.02617903334499
 31
0.0
  0
LINE
  5
112A5
  8
01
  6
CONTINUOUS
 10
-255.4573333879908
 20
42.02617903334499
 30
0.0
 11
-255.4573333879908
 21
29.06335343701244
 31
0.0
  0
LINE
  5
112A6
  8
01
  6
CONTINUOUS
 10
-215.7622157653769
 20
34.4800670920074
 30
0.0
 11
-215.5391044041118
 21
34.46316172463298
 31
0.0
  0
LINE
  5
112A7
  8
01
  6
CONTINUOUS
 10
-211.3739951571425
 20
34.46323995572925
 30
0.0
 11
-211.1524446925124
 21
34.4800670920074
 31
0.0
  0
POLYLINE
  5
112A8
  8
01
  6
CONTINUOUS
 66
     1
 10
0.0
 20
0.0
 30
0.0
  0
VERTEX
  5
11C99
  8
01
  6
CONTINUOUS
 10
-217.2363503893813
 20
32.22592746002078
 30
0.0
  0
VERTEX
  5
11C9A
  8
01
  6
CONTINUOUS
 10
-217.2509660776542
 20
32.25228966632926
 30
0.0
  0
VERTEX
  5
11C9B
  8
01
  6
CONTINUOUS
 10
-217.2655414517758
 20
32.27864419963566
 30
0.0
  0
VERTEX
  5
11C9C
  8
01
  6
CONTINUOUS
 10
-217.2800361975946
 20
32.3049833869379
 30
0.0
  0
VERTEX
  5
11C9D
  8
01
  6
CONTINUOUS
 10
-217.2944100009594
 20
32.3312995552339
 30
0.0
  0
VERTEX
  5
11C9E
  8
01
  6
CONTINUOUS
 10
-217.3086225477188
 20
32.35758503152158
 30
0.0
  0
VERTEX
  5
11C9F
  8
01
  6
CONTINUOUS
 10
-217.3226335237214
 20
32.38383214279886
 30
0.0
  0
VERTEX
  5
11CA0
  8
01
  6
CONTINUOUS
 10
-217.3364026148159
 20
32.41003321606365
 30
0.0
  0
VERTEX
  5
11CA1
  8
01
  6
CONTINUOUS
 10
-217.3498911924777
 20
32.43618079554609
 30
0.0
  0
VERTEX
  5
11CA2
  8
01
  6
CONTINUOUS
 10
-217.3630872085377
 20
32.46227085097353
 30
0.0
  0
VERTEX
  5
11CA3
  8
01
  6
CONTINUOUS
 10
-217.3759997942233
 20
32.48830208153124
 30
0.0
  0
VERTEX
  5
11CA4
  8
01
  6
CONTINUOUS
 10
-217.3886386686965
 20
32.51427326217357
 30
0.0
  0
VERTEX
  5
11CA5
  8
01
  6
CONTINUOUS
 10
-217.4010135511191
 20
32.54018316785484
 30
0.0
  0
VERTEX
  5
11CA6
  8
01
  6
CONTINUOUS
 10
-217.413134160653
 20
32.56603057352938
 30
0.0
  0
VERTEX
  5
11CA7
  8
01
  6
CONTINUOUS
 10
-217.4250102164602
 20
32.59181425415152
 30
0.0
  0
VERTEX
  5
11CA8
  8
01
  6
CONTINUOUS
 10
-217.4366514377025
 20
32.61753298467561
 30
0.0
  0
VERTEX
  5
11CA9
  8
01
  6
CONTINUOUS
 10
-217.4480675435418
 20
32.64318554005595
 30
0.0
  0
VERTEX
  5
11CAA
  8
01
  6
CONTINUOUS
 10
-217.4592682531401
 20
32.6687706952469
 30
0.0
  0
VERTEX
  5
11CAB
  8
01
  6
CONTINUOUS
 10
-217.4702626674166
 20
32.69428713913676
 30
0.0
  0
VERTEX
  5
11CAC
  8
01
  6
CONTINUOUS
 10
-217.4810513976311
 20
32.71973237876212
 30
0.0
  0
VERTEX
  5
11CAD
  8
01
  6
CONTINUOUS
 10
-217.4916288883029
 20
32.74510306268302
 30
0.0
  0
VERTEX
  5
11CAE
  8
01
  6
CONTINUOUS
 10
-217.5019894452263
 20
32.77039582014753
 30
0.0
  0
VERTEX
  5
11CAF
  8
01
  6
CONTINUOUS
 10
-217.5121273741955
 20
32.79560728040374
 30
0.0
  0
VERTEX
  5
11CB0
  8
01
  6
CONTINUOUS
 10
-217.5220369810052
 20
32.82073407269973
 30
0.0
  0
VERTEX
  5
11CB1
  8
01
  6
CONTINUOUS
 10
-217.5317125714496
 20
32.84577282628357
 30
0.0
  0
VERTEX
  5
11CB2
  8
01
  6
CONTINUOUS
 10
-217.5411484513233
 20
32.87072017040335
 30
0.0
  0
VERTEX
  5
11CB3
  8
01
  6
CONTINUOUS
 10
-217.5503389815883
 20
32.89557273733941
 30
0.0
  0
VERTEX
  5
11CB4
  8
01
  6
CONTINUOUS
 10
-217.5592804942265
 20
32.9203272677082
 30
0.0
  0
VERTEX
  5
11CB5
  8
01
  6
CONTINUOUS
 10
-217.5679717854981
 20
32.94498063757398
 30
0.0
  0
VERTEX
  5
11CB6
  8
01
  6
CONTINUOUS
 10
-217.5764118070277
 20
32.96952973154054
 30
0.0
  0
VERTEX
  5
11CB7
  8
01
  6
CONTINUOUS
 10
-217.5845995104399
 20
32.99397143421165
 30
0.0
  0
VERTEX
  5
11CB8
  8
01
  6
CONTINUOUS
 10
-217.5925338473593
 20
33.01830263019111
 30
0.0
  0
VERTEX
  5
11CB9
  8
01
  6
CONTINUOUS
 10
-217.6002137694106
 20
33.0425202040827
 30
0.0
  0
VERTEX
  5
11CBA
  8
01
  6
CONTINUOUS
 10
-217.6076382282183
 20
33.06662104049022
 30
0.0
  0
VERTEX
  5
11CBB
  8
01
  6
CONTINUOUS
 10
-217.61480617519
 20
33.09060202441729
 30
0.0
  0
VERTEX
  5
11CBC
  8
01
  6
CONTINUOUS
 10
-217.621716519901
 20
33.11446011788342
 30
0.0
  0
VERTEX
  5
11CBD
  8
01
  6
CONTINUOUS
 10
-217.6283680805824
 20
33.13819245108002
 30
0.0
  0
VERTEX
  5
11CBE
  8
01
  6
CONTINUOUS
 10
-217.6347596634081
 20
33.16179617639653
 30
0.0
  0
VERTEX
  5
11CBF
  8
01
  6
CONTINUOUS
 10
-217.6408900745519
 20
33.18526844622244
 30
0.0
  0
VERTEX
  5
11CC0
  8
01
  6
CONTINUOUS
 10
-217.6467581201878
 20
33.2086064129472
 30
0.0
  0
VERTEX
  5
11CC1
  8
01
  6
CONTINUOUS
 10
-217.6523626064897
 20
33.23180722896026
 30
0.0
  0
VERTEX
  5
11CC2
  8
01
  6
CONTINUOUS
 10
-217.6577023396314
 20
33.2548680466511
 30
0.0
  0
VERTEX
  5
11CC3
  8
01
  6
CONTINUOUS
 10
-217.662776125787
 20
33.27778601840916
 30
0.0
  0
VERTEX
  5
11CC4
  8
01
  6
CONTINUOUS
 10
-217.6675827570772
 20
33.30055827024886
 30
0.0
  0
VERTEX
  5
11CC5
  8
01
  6
CONTINUOUS
 10
-217.6721209111167
 20
33.32318171327529
 30
0.0
  0
VERTEX
  5
11CC6
  8
01
  6
CONTINUOUS
 10
-217.6763892097142
 20
33.34565315385549
 30
0.0
  0
VERTEX
  5
11CC7
  8
01
  6
CONTINUOUS
 10
-217.6803862743035
 20
33.36796939765279
 30
0.0
  0
VERTEX
  5
11CC8
  8
01
  6
CONTINUOUS
 10
-217.6841107263185
 20
33.39012725033054
 30
0.0
  0
VERTEX
  5
11CC9
  8
01
  6
CONTINUOUS
 10
-217.6875611871929
 20
33.41212351755208
 30
0.0
  0
VERTEX
  5
11CCA
  8
01
  6
CONTINUOUS
 10
-217.6907362783606
 20
33.43395500498072
 30
0.0
  0
VERTEX
  5
11CCB
  8
01
  6
CONTINUOUS
 10
-217.6936346212553
 20
33.45561851827981
 30
0.0
  0
VERTEX
  5
11CCC
  8
01
  6
CONTINUOUS
 10
-217.6962548468435
 20
33.47711086959129
 30
0.0
  0
VERTEX
  5
11CCD
  8
01
  6
CONTINUOUS
 10
-217.6985961608837
 20
33.49842926170231
 30
0.0
  0
VERTEX
  5
11CCE
  8
01
  6
CONTINUOUS
 10
-217.700658661698
 20
33.51957150401187
 30
0.0
  0
VERTEX
  5
11CCF
  8
01
  6
CONTINUOUS
 10
-217.70244252458
 20
33.54053545823084
 30
0.0
  0
VERTEX
  5
11CD0
  8
01
  6
CONTINUOUS
 10
-217.703947924823
 20
33.56131898607006
 30
0.0
  0
VERTEX
  5
11CD1
  8
01
  6
CONTINUOUS
 10
-217.7051750377205
 20
33.58191994924039
 30
0.0
  0
VERTEX
  5
11CD2
  8
01
  6
CONTINUOUS
 10
-217.7061240385658
 20
33.60233620945267
 30
0.0
  0
VERTEX
  5
11CD3
  8
01
  6
CONTINUOUS
 10
-217.7067951026525
 20
33.62256562841777
 30
0.0
  0
VERTEX
  5
11CD4
  8
01
  6
CONTINUOUS
 10
-217.7071884051407
 20
33.64260606774901
 30
0.0
  0
VERTEX
  5
11CD5
  8
01
  6
CONTINUOUS
 10
-217.7073040096031
 20
33.66245530741889
 30
0.0
  0
VERTEX
  5
11CD6
  8
01
  6
CONTINUOUS
 10
-217.70714166545
 20
33.68211089754811
 30
0.0
  0
VERTEX
  5
11CD7
  8
01
  6
CONTINUOUS
 10
-217.7067010672049
 20
33.70157034810075
 30
0.0
  0
VERTEX
  5
11CD8
  8
01
  6
CONTINUOUS
 10
-217.7059819093914
 20
33.72083116904088
 30
0.0
  0
VERTEX
  5
11CD9
  8
01
  6
CONTINUOUS
 10
-217.7049838865331
 20
33.73989087033258
 30
0.0
  0
VERTEX
  5
11CDA
  8
01
  6
CONTINUOUS
 10
-217.7037066931539
 20
33.75874696193991
 30
0.0
  0
VERTEX
  5
11CDB
  8
01
  6
CONTINUOUS
 10
-217.7021500237771
 20
33.77739695382692
 30
0.0
  0
VERTEX
  5
11CDC
  8
01
  6
CONTINUOUS
 10
-217.7003135729266
 20
33.79583835595772
 30
0.0
  0
VERTEX
  5
11CDD
  8
01
  6
CONTINUOUS
 10
-217.698197228351
 20
33.81406885934495
 30
0.0
  0
VERTEX
  5
11CDE
  8
01
  6
CONTINUOUS
 10
-217.695801909594
 20
33.83208712177535
 30
0.0
  0
VERTEX
  5
11CDF
  8
01
  6
CONTINUOUS
 10
-217.6931288791948
 20
33.84989212241652
 30
0.0
  0
VERTEX
  5
11CE0
  8
01
  6
CONTINUOUS
 10
-217.6901793999222
 20
33.86748284065134
 30
0.0
  0
VERTEX
  5
11CE1
  8
01
  6
CONTINUOUS
 10
-217.6869547345452
 20
33.88485825586272
 30
0.0
  0
VERTEX
  5
11CE2
  8
01
  6
CONTINUOUS
 10
-217.6834561458326
 20
33.90201734743355
 30
0.0
  0
VERTEX
  5
11CE3
  8
01
  6
CONTINUOUS
 10
-217.6796848965535
 20
33.91895909474672
 30
0.0
  0
VERTEX
  5
11CE4
  8
01
  6
CONTINUOUS
 10
-217.6756422494767
 20
33.93568247718513
 30
0.0
  0
VERTEX
  5
11CE5
  8
01
  6
CONTINUOUS
 10
-217.671329462289
 20
33.9521864710691
 30
0.0
  0
VERTEX
  5
11CE6
  8
01
  6
CONTINUOUS
 10
-217.6667476249198
 20
33.96846995162583
 30
0.0
  0
VERTEX
  5
11CE7
  8
01
  6
CONTINUOUS
 10
-217.6618976252047
 20
33.98453167229782
 30
0.0
  0
VERTEX
  5
11CE8
  8
01
  6
CONTINUOUS
 10
-217.6567803389555
 20
34.0003703792817
 30
0.0
  0
VERTEX
  5
11CE9
  8
01
  6
CONTINUOUS
 10
-217.6513966419836
 20
34.01598481877411
 30
0.0
  0
VERTEX
  5
11CEA
  8
01
  6
CONTINUOUS
 10
-217.6457474101009
 20
34.03137373697168
 30
0.0
  0
VERTEX
  5
11CEB
  8
01
  6
CONTINUOUS
 10
-217.6398335191189
 20
34.04653588007103
 30
0.0
  0
VERTEX
  5
11CEC
  8
01
  6
CONTINUOUS
 10
-217.6336558448492
 20
34.0614699942688
 30
0.0
  0
VERTEX
  5
11CED
  8
01
  6
CONTINUOUS
 10
-217.6272152631035
 20
34.07617482576163
 30
0.0
  0
VERTEX
  5
11CEE
  8
01
  6
CONTINUOUS
 10
-217.6205128147286
 20
34.09064933123801
 30
0.0
  0
VERTEX
  5
11CEF
  8
01
  6
CONTINUOUS
 10
-217.6135503008114
 20
34.10489343702459
 30
0.0
  0
VERTEX
  5
11CF0
  8
01
  6
CONTINUOUS
 10
-217.6063297412061
 20
34.1189073484714
 30
0.0
  0
VERTEX
  5
11CF1
  8
01
  6
CONTINUOUS
 10
-217.5988531557863
 20
34.13269127095373
 30
0.0
  0
VERTEX
  5
11CF2
  8
01
  6
CONTINUOUS
 10
-217.5911225644258
 20
34.14624540984684
 30
0.0
  0
VERTEX
  5
11CF3
  8
01
  6
CONTINUOUS
 10
-217.5831399869984
 20
34.15956997052603
 30
0.0
  0
VERTEX
  5
11CF4
  8
01
  6
CONTINUOUS
 10
-217.574907443378
 20
34.17266515836658
 30
0.0
  0
VERTEX
  5
11CF5
  8
01
  6
CONTINUOUS
 10
-217.5664269534263
 20
34.18553117873618
 30
0.0
  0
VERTEX
  5
11CF6
  8
01
  6
CONTINUOUS
 10
-217.5577004485517
 20
34.19816818095892
 30
0.0
  0
VERTEX
  5
11CF7
  8
01
  6
CONTINUOUS
 10
-217.5487295591643
 20
34.21057612364821
 30
0.0
  0
VERTEX
  5
11CF8
  8
01
  6
CONTINUOUS
 10
-217.5395158517074
 20
34.2227549248882
 30
0.0
  0
VERTEX
  5
11CF9
  8
01
  6
CONTINUOUS
 10
-217.5300608926238
 20
34.23470450276304
 30
0.0
  0
VERTEX
  5
11CFA
  8
01
  6
CONTINUOUS
 10
-217.5203662483567
 20
34.24642477535692
 30
0.0
  0
VERTEX
  5
11CFB
  8
01
  6
CONTINUOUS
 10
-217.5104334853492
 20
34.25791566075398
 30
0.0
  0
VERTEX
  5
11CFC
  8
01
  6
CONTINUOUS
 10
-217.5002641700443
 20
34.26917707703838
 30
0.0
  0
VERTEX
  5
11CFD
  8
01
  6
CONTINUOUS
 10
-217.4898598693156
 20
34.28020894297033
 30
0.0
  0
VERTEX
  5
11CFE
  8
01
  6
CONTINUOUS
 10
-217.4792223274752
 20
34.29101145590603
 30
0.0
  0
VERTEX
  5
11CFF
  8
01
  6
CONTINUOUS
 10
-217.4683537389396
 20
34.3015855199108
 30
0.0
  0
VERTEX
  5
11D00
  8
01
  6
CONTINUOUS
 10
-217.4572563684267
 20
34.31193214942964
 30
0.0
  0
VERTEX
  5
11D01
  8
01
  6
CONTINUOUS
 10
-217.4459324806541
 20
34.32205235890758
 30
0.0
  0
VERTEX
  5
11D02
  8
01
  6
CONTINUOUS
 10
-217.4343843403395
 20
34.33194716278963
 30
0.0
  0
VERTEX
  5
11D03
  8
01
  6
CONTINUOUS
 10
-217.4226142122006
 20
34.34161757552079
 30
0.0
  0
VERTEX
  5
11D04
  8
01
  6
CONTINUOUS
 10
-217.4106243609552
 20
34.35106461154609
 30
0.0
  0
VERTEX
  5
11D05
  8
01
  6
CONTINUOUS
 10
-217.3984170512876
 20
34.36028928529966
 30
0.0
  0
VERTEX
  5
11D06
  8
01
  6
CONTINUOUS
 10
-217.3859944247926
 20
34.36929257108952
 30
0.0
  0
VERTEX
  5
11D07
  8
01
  6
CONTINUOUS
 10
-217.3733582225877
 20
34.37807531267137
 30
0.0
  0
VERTEX
  5
11D08
  8
01
  6
CONTINUOUS
 10
-217.3605101044817
 20
34.38663832729504
 30
0.0
  0
VERTEX
  5
11D09
  8
01
  6
CONTINUOUS
 10
-217.3474517302836
 20
34.39498243221037
 30
0.0
  0
VERTEX
  5
11D0A
  8
01
  6
CONTINUOUS
 10
-217.3341847598023
 20
34.40310844466718
 30
0.0
  0
VERTEX
  5
11D0B
  8
01
  6
CONTINUOUS
 10
-217.3207108528466
 20
34.41101718191529
 30
0.0
  0
VERTEX
  5
11D0C
  8
01
  6
CONTINUOUS
 10
-217.3070316692255
 20
34.41870946120455
 30
0.0
  0
VERTEX
  5
11D0D
  8
01
  6
CONTINUOUS
 10
-217.2931488687478
 20
34.42618609978479
 30
0.0
  0
VERTEX
  5
11D0E
  8
01
  6
CONTINUOUS
 10
-217.2790641751096
 20
34.43344802177404
 30
0.0
  0
VERTEX
  5
11D0F
  8
01
  6
CONTINUOUS
 10
-217.2647795809071
 20
34.44049660109879
 30
0.0
  0
VERTEX
  5
11D10
  8
01
  6
CONTINUOUS
 10
-217.2502971494725
 20
34.44733333001024
 30
0.0
  0
VERTEX
  5
11D11
  8
01
  6
CONTINUOUS
 10
-217.2356189441383
 20
34.45395970076011
 30
0.0
  0
VERTEX
  5
11D12
  8
01
  6
CONTINUOUS
 10
-217.2207470282371
 20
34.46037720560015
 30
0.0
  0
VERTEX
  5
11D13
  8
01
  6
CONTINUOUS
 10
-217.2056834651013
 20
34.4665873367821
 30
0.0
  0
VERTEX
  5
11D14
  8
01
  6
CONTINUOUS
 10
-217.1904303180634
 20
34.47259158655771
 30
0.0
  0
VERTEX
  5
11D15
  8
01
  6
CONTINUOUS
 10
-217.174989650456
 20
34.47839144717869
 30
0.0
  0
VERTEX
  5
11D16
  8
01
  6
CONTINUOUS
 10
-217.1593635256114
 20
34.48398841089682
 30
0.0
  0
VERTEX
  5
11D17
  8
01
  6
CONTINUOUS
 10
-217.1435540068623
 20
34.48938396996381
 30
0.0
  0
VERTEX
  5
11D18
  8
01
  6
CONTINUOUS
 10
-217.1275631570898
 20
34.49457961654242
 30
0.0
  0
VERTEX
  5
11D19
  8
01
  6
CONTINUOUS
 10
-217.1113928959597
 20
34.49957681456306
 30
0.0
  0
VERTEX
  5
11D1A
  8
01
  6
CONTINUOUS
 10
-217.0950447963455
 20
34.50437695959215
 30
0.0
  0
VERTEX
  5
11D1B
  8
01
  6
CONTINUOUS
 10
-217.0785203796593
 20
34.50898143705134
 30
0.0
  0
VERTEX
  5
11D1C
  8
01
  6
CONTINUOUS
 10
-217.0618211673129
 20
34.51339163236231
 30
0.0
  0
VERTEX
  5
11D1D
  8
01
  6
CONTINUOUS
 10
-217.0449486807182
 20
34.51760893094674
 30
0.0
  0
VERTEX
  5
11D1E
  8
01
  6
CONTINUOUS
 10
-217.0279044412872
 20
34.5216347182263
 30
0.0
  0
VERTEX
  5
11D1F
  8
01
  6
CONTINUOUS
 10
-217.0106899704319
 20
34.52547037962265
 30
0.0
  0
VERTEX
  5
11D20
  8
01
  6
CONTINUOUS
 10
-216.9933067895641
 20
34.52911730055745
 30
0.0
  0
VERTEX
  5
11D21
  8
01
  6
CONTINUOUS
 10
-216.9757564200957
 20
34.53257686645239
 30
0.0
  0
VERTEX
  5
11D22
  8
01
  6
CONTINUOUS
 10
-216.9580403834388
 20
34.53585046272913
 30
0.0
  0
VERTEX
  5
11D23
  8
01
  6
CONTINUOUS
 10
-216.9401601999576
 20
34.53893947774071
 30
0.0
  0
VERTEX
  5
11D24
  8
01
  6
CONTINUOUS
 10
-216.9221173366977
 20
34.54184544901786
 30
0.0
  0
VERTEX
  5
11D25
  8
01
  6
CONTINUOUS
 10
-216.9039131831272
 20
34.54457013114368
 30
0.0
  0
VERTEX
  5
11D26
  8
01
  6
CONTINUOUS
 10
-216.8855491225993
 20
34.54711529580885
 30
0.0
  0
VERTEX
  5
11D27
  8
01
  6
CONTINUOUS
 10
-216.8670265384675
 20
34.54948271470408
 30
0.0
  0
VERTEX
  5
11D28
  8
01
  6
CONTINUOUS
 10
-216.8483468140851
 20
34.55167415952006
 30
0.0
  0
VERTEX
  5
11D29
  8
01
  6
CONTINUOUS
 10
-216.8295113328054
 20
34.5536914019475
 30
0.0
  0
VERTEX
  5
11D2A
  8
01
  6
CONTINUOUS
 10
-216.8105214779818
 20
34.55553621367709
 30
0.0
  0
VERTEX
  5
11D2B
  8
01
  6
CONTINUOUS
 10
-216.7913786329677
 20
34.55721036639951
 30
0.0
  0
VERTEX
  5
11D2C
  8
01
  6
CONTINUOUS
 10
-216.7720841811164
 20
34.55871563180549
 30
0.0
  0
VERTEX
  5
11D2D
  8
01
  6
CONTINUOUS
 10
-216.7526395057814
 20
34.56005378158569
 30
0.0
  0
VERTEX
  5
11D2E
  8
01
  6
CONTINUOUS
 10
-216.7330459897345
 20
34.56122658723213
 30
0.0
  0
VERTEX
  5
11D2F
  8
01
  6
CONTINUOUS
 10
-216.7133049338941
 20
34.56223579225368
 30
0.0
  0
VERTEX
  5
11D30
  8
01
  6
CONTINUOUS
 10
-216.693417473601
 20
34.56308308355413
 30
0.0
  0
VERTEX
  5
11D31
  8
01
  6
CONTINUOUS
 10
-216.6733847242172
 20
34.56377014120709
 30
0.0
  0
VERTEX
  5
11D32
  8
01
  6
CONTINUOUS
 10
-216.6532078011045
 20
34.56429864528615
 30
0.0
  0
VERTEX
  5
11D33
  8
01
  6
CONTINUOUS
 10
-216.6328878196249
 20
34.56467027586494
 30
0.0
  0
VERTEX
  5
11D34
  8
01
  6
CONTINUOUS
 10
-216.6124258951403
 20
34.56488671301706
 30
0.0
  0
VERTEX
  5
11D35
  8
01
  6
CONTINUOUS
 10
-216.5918231430126
 20
34.56494963681612
 30
0.0
  0
VERTEX
  5
11D36
  8
01
  6
CONTINUOUS
 10
-216.5710806786036
 20
34.56486072733573
 30
0.0
  0
VERTEX
  5
11D37
  8
01
  6
CONTINUOUS
 10
-216.5501996172754
 20
34.56462166464949
 30
0.0
  0
VERTEX
  5
11D38
  8
01
  6
CONTINUOUS
 10
-216.5291810743897
 20
34.56423412883101
 30
0.0
  0
VERTEX
  5
11D39
  8
01
  6
CONTINUOUS
 10
-216.5080261651043
 20
34.56369979994926
 30
0.0
  0
VERTEX
  5
11D3A
  8
01
  6
CONTINUOUS
 10
-216.4867358056934
 20
34.56302035355566
 30
0.0
  0
VERTEX
  5
11D3B
  8
01
  6
CONTINUOUS
 10
-216.4653103418844
 20
34.56219745224189
 30
0.0
  0
VERTEX
  5
11D3C
  8
01
  6
CONTINUOUS
 10
-216.4437500177324
 20
34.56123275629018
 30
0.0
  0
VERTEX
  5
11D3D
  8
01
  6
CONTINUOUS
 10
-216.4220550772926
 20
34.56012792598278
 30
0.0
  0
VERTEX
  5
11D3E
  8
01
  6
CONTINUOUS
 10
-216.4002257646198
 20
34.55888462160191
 30
0.0
  0
VERTEX
  5
11D3F
  8
01
  6
CONTINUOUS
 10
-216.3782623237694
 20
34.55750450342983
 30
0.0
  0
VERTEX
  5
11D40
  8
01
  6
CONTINUOUS
 10
-216.3561649987962
 20
34.55598923174876
 30
0.0
  0
VERTEX
  5
11D41
  8
01
  6
CONTINUOUS
 10
-216.3339340343368
 20
34.55434046718645
 30
0.0
  0
VERTEX
  5
11D42
  8
01
  6
CONTINUOUS
 10
-216.3115700940419
 20
34.55256011939491
 30
0.0
  0
VERTEX
  5
11D43
  8
01
  6
CONTINUOUS
 10
-216.289074998279
 20
34.55065078547432
 30
0.0
  0
VERTEX
  5
11D44
  8
01
  6
CONTINUOUS
 10
-216.2664507653286
 20
34.54861518014631
 30
0.0
  0
VERTEX
  5
11D45
  8
01
  6
CONTINUOUS
 10
-216.2436994134709
 20
34.54645601813245
 30
0.0
  0
VERTEX
  5
11D46
  8
01
  6
CONTINUOUS
 10
-216.2208229609862
 20
34.54417601415437
 30
0.0
  0
VERTEX
  5
11D47
  8
01
  6
CONTINUOUS
 10
-216.1978234261549
 20
34.54177788293366
 30
0.0
  0
VERTEX
  5
11D48
  8
01
  6
CONTINUOUS
 10
-216.1747028272572
 20
34.53926433919193
 30
0.0
  0
VERTEX
  5
11D49
  8
01
  6
CONTINUOUS
 10
-216.1514631793877
 20
34.5366380958335
 30
0.0
  0
VERTEX
  5
11D4A
  8
01
  6
CONTINUOUS
 10
-216.128104737046
 20
34.53390086143143
 30
0.0
  0
VERTEX
  5
11D4B
  8
01
  6
CONTINUOUS
 10
-216.1046230751088
 20
34.53105167506824
 30
0.0
  0
VERTEX
  5
11D4C
  8
01
  6
CONTINUOUS
 10
-216.0810129995736
 20
34.52808913721954
 30
0.0
  0
VERTEX
  5
11D4D
  8
01
  6
CONTINUOUS
 10
-216.0572693164382
 20
34.52501184836091
 30
0.0
  0
VERTEX
  5
11D4E
  8
01
  6
CONTINUOUS
 10
-216.0333868317
 20
34.52181840896797
 30
0.0
  0
VERTEX
  5
11D4F
  8
01
  6
CONTINUOUS
 10
-216.0093603513569
 20
34.51850741951633
 30
0.0
  0
VERTEX
  5
11D50
  8
01
  6
CONTINUOUS
 10
-215.9851846814064
 20
34.51507748048157
 30
0.0
  0
VERTEX
  5
11D51
  8
01
  6
CONTINUOUS
 10
-215.9608546292227
 20
34.51152719324909
 30
0.0
  0
VERTEX
  5
11D52
  8
01
  6
CONTINUOUS
 10
-215.9363700743688
 20
34.50785851187448
 30
0.0
  0
VERTEX
  5
11D53
  8
01
  6
CONTINUOUS
 10
-215.9117473982642
 20
34.50408429798761
 30
0.0
  0
VERTEX
  5
11D54
  8
01
  6
CONTINUOUS
 10
-215.8870063325161
 20
34.50021962766169
 30
0.0
  0
VERTEX
  5
11D55
  8
01
  6
CONTINUOUS
 10
-215.8621666087318
 20
34.49627957696989
 30
0.0
  0
VERTEX
  5
11D56
  8
01
  6
CONTINUOUS
 10
-215.8372479585184
 20
34.49227922198538
 30
0.0
  0
VERTEX
  5
11D57
  8
01
  6
CONTINUOUS
 10
-215.8122701134834
 20
34.48823363878135
 30
0.0
  0
VERTEX
  5
11D58
  8
01
  6
CONTINUOUS
 10
-215.7872528052337
 20
34.48415790343095
 30
0.0
  0
VERTEX
  5
11D59
  8
01
  6
CONTINUOUS
 10
-215.7622157653769
 20
34.4800670920074
 30
0.0
  0
SEQEND
  5
12139
  8
01
  6
CONTINUOUS
  0
POLYLINE
  5
112A9
  8
01
  6
CONTINUOUS
 66
     1
 10
0.0
 20
0.0
 30
0.0
  0
VERTEX
  5
11D5A
  8
01
  6
CONTINUOUS
 10
-211.1524446925124
 20
34.4800670920074
 30
0.0
  0
VERTEX
  5
11D5B
  8
01
  6
CONTINUOUS
 10
-211.1275571098444
 20
34.48405360804082
 30
0.0
  0
VERTEX
  5
11D5C
  8
01
  6
CONTINUOUS
 10
-211.1026824405594
 20
34.48802959281974
 30
0.0
  0
VERTEX
  5
11D5D
  8
01
  6
CONTINUOUS
 10
-211.0778335980401
 20
34.49198451508962
 30
0.0
  0
VERTEX
  5
11D5E
  8
01
  6
CONTINUOUS
 10
-211.0530234956696
 20
34.49590784359596
 30
0.0
  0
VERTEX
  5
11D5F
  8
01
  6
CONTINUOUS
 10
-211.0282650468306
 20
34.49978904708424
 30
0.0
  0
VERTEX
  5
11D60
  8
01
  6
CONTINUOUS
 10
-211.0035711649061
 20
34.50361759429996
 30
0.0
  0
VERTEX
  5
11D61
  8
01
  6
CONTINUOUS
 10
-210.978954763279
 20
34.50738295398859
 30
0.0
  0
VERTEX
  5
11D62
  8
01
  6
CONTINUOUS
 10
-210.9544287553322
 20
34.51107459489563
 30
0.0
  0
VERTEX
  5
11D63
  8
01
  6
CONTINUOUS
 10
-210.9300060544486
 20
34.51468198576655
 30
0.0
  0
VERTEX
  5
11D64
  8
01
  6
CONTINUOUS
 10
-210.9056995740111
 20
34.51819459534684
 30
0.0
  0
VERTEX
  5
11D65
  8
01
  6
CONTINUOUS
 10
-210.8815222274025
 20
34.52160189238199
 30
0.0
  0
VERTEX
  5
11D66
  8
01
  6
CONTINUOUS
 10
-210.8574869280059
 20
34.52489334561749
 30
0.0
  0
VERTEX
  5
11D67
  8
01
  6
CONTINUOUS
 10
-210.833605966959
 20
34.52805884407795
 30
0.0
  0
VERTEX
  5
11D68
  8
01
  6
CONTINUOUS
 10
-210.809882825428
 20
34.531094227253
 30
0.0
  0
VERTEX
  5
11D69
  8
01
  6
CONTINUOUS
 10
-210.7863144499189
 20
34.5339997482977
 30
0.0
  0
VERTEX
  5
11D6A
  8
01
  6
CONTINUOUS
 10
-210.7628976325259
 20
34.53677576466036
 30
0.0
  0
VERTEX
  5
11D6B
  8
01
  6
CONTINUOUS
 10
-210.7396291653433
 20
34.5394226337893
 30
0.0
  0
VERTEX
  5
11D6C
  8
01
  6
CONTINUOUS
 10
-210.7165058404655
 20
34.54194071313283
 30
0.0
  0
VERTEX
  5
11D6D
  8
01
  6
CONTINUOUS
 10
-210.6935244499868
 20
34.54433036013926
 30
0.0
  0
VERTEX
  5
11D6E
  8
01
  6
CONTINUOUS
 10
-210.6706817860014
 20
34.54659193225691
 30
0.0
  0
VERTEX
  5
11D6F
  8
01
  6
CONTINUOUS
 10
-210.6479746406038
 20
34.54872578693408
 30
0.0
  0
VERTEX
  5
11D70
  8
01
  6
CONTINUOUS
 10
-210.6253998058882
 20
34.5507322816191
 30
0.0
  0
VERTEX
  5
11D71
  8
01
  6
CONTINUOUS
 10
-210.6029540739489
 20
34.55261177376026
 30
0.0
  0
VERTEX
  5
11D72
  8
01
  6
CONTINUOUS
 10
-210.5806342368802
 20
34.55436462080588
 30
0.0
  0
VERTEX
  5
11D73
  8
01
  6
CONTINUOUS
 10
-210.5584370978627
 20
34.55599117421145
 30
0.0
  0
VERTEX
  5
11D74
  8
01
  6
CONTINUOUS
 10
-210.5363611415483
 20
34.55749087647775
 30
0.0
  0
VERTEX
  5
11D75
  8
01
  6
CONTINUOUS
 10
-210.5144083193121
 20
34.55886129609608
 30
0.0
  0
VERTEX
  5
11D76
  8
01
  6
CONTINUOUS
 10
-210.4925810104062
 20
34.56009977025974
 30
0.0
  0
VERTEX
  5
11D77
  8
01
  6
CONTINUOUS
 10
-210.4708815940827
 20
34.56120363616208
 30
0.0
  0
VERTEX
  5
11D78
  8
01
  6
CONTINUOUS
 10
-210.4493124495938
 20
34.56217023099639
 30
0.0
  0
VERTEX
  5
11D79
  8
01
  6
CONTINUOUS
 10
-210.4278759561916
 20
34.562996891956
 30
0.0
  0
VERTEX
  5
11D7A
  8
01
  6
CONTINUOUS
 10
-210.4065744931282
 20
34.56368095623424
 30
0.0
  0
VERTEX
  5
11D7B
  8
01
  6
CONTINUOUS
 10
-210.3854104396559
 20
34.56421976102442
 30
0.0
  0
VERTEX
  5
11D7C
  8
01
  6
CONTINUOUS
 10
-210.3643860457827
 20
34.56461073083784
 30
0.0
  0
VERTEX
  5
11D7D
  8
01
  6
CONTINUOUS
 10
-210.3435024541324
 20
34.56485203834166
 30
0.0
  0
VERTEX
  5
11D7E
  8
01
  6
CONTINUOUS
 10
-210.322760244484
 20
34.56494223646439
 30
0.0
  0
VERTEX
  5
11D7F
  8
01
  6
CONTINUOUS
 10
-210.3021599921794
 20
34.56487988113217
 30
0.0
  0
VERTEX
  5
11D80
  8
01
  6
CONTINUOUS
 10
-210.2817022725605
 20
34.56466352827114
 30
0.0
  0
VERTEX
  5
11D81
  8
01
  6
CONTINUOUS
 10
-210.2613876609695
 20
34.56429173380743
 30
0.0
  0
VERTEX
  5
11D82
  8
01
  6
CONTINUOUS
 10
-210.2412167327484
 20
34.56376305366719
 30
0.0
  0
VERTEX
  5
11D83
  8
01
  6
CONTINUOUS
 10
-210.221190063239
 20
34.56307604377656
 30
0.0
  0
VERTEX
  5
11D84
  8
01
  6
CONTINUOUS
 10
-210.2013082306285
 20
34.56222925834657
 30
0.0
  0
VERTEX
  5
11D85
  8
01
  6
CONTINUOUS
 10
-210.1815720857377
 20
34.56122108723155
 30
0.0
  0
VERTEX
  5
11D86
  8
01
  6
CONTINUOUS
 10
-210.1619829741687
 20
34.56004962200833
 30
0.0
  0
VERTEX
  5
11D87
  8
01
  6
CONTINUOUS
 10
-210.1425422938076
 20
34.55871292273424
 30
0.0
  0
VERTEX
  5
11D88
  8
01
  6
CONTINUOUS
 10
-210.1232514425407
 20
34.55720904946665
 30
0.0
  0
VERTEX
  5
11D89
  8
01
  6
CONTINUOUS
 10
-210.1041118182542
 20
34.55553606226287
 30
0.0
  0
VERTEX
  5
11D8A
  8
01
  6
CONTINUOUS
 10
-210.0851248188344
 20
34.55369202118024
 30
0.0
  0
VERTEX
  5
11D8B
  8
01
  6
CONTINUOUS
 10
-210.0662918421676
 20
34.5516749862761
 30
0.0
  0
VERTEX
  5
11D8C
  8
01
  6
CONTINUOUS
 10
-210.0476142861401
 20
34.54948301760779
 30
0.0
  0
VERTEX
  5
11D8D
  8
01
  6
CONTINUOUS
 10
-210.0290935517077
 20
34.54711422427382
 30
0.0
  0
VERTEX
  5
11D8E
  8
01
  6
CONTINUOUS
 10
-210.0107310623198
 20
34.54456707471485
 30
0.0
  0
VERTEX
  5
11D8F
  8
01
  6
CONTINUOUS
 10
-209.9925282514315
 20
34.54184019722359
 30
0.0
  0
VERTEX
  5
11D90
  8
01
  6
CONTINUOUS
 10
-209.9744865525437
 20
34.53893222082132
 30
0.0
  0
VERTEX
  5
11D91
  8
01
  6
CONTINUOUS
 10
-209.9566073991573
 20
34.53584177452929
 30
0.0
  0
VERTEX
  5
11D92
  8
01
  6
CONTINUOUS
 10
-209.9388922247729
 20
34.53256748736873
 30
0.0
  0
VERTEX
  5
11D93
  8
01
  6
CONTINUOUS
 10
-209.9213424628915
 20
34.52910798836093
 30
0.0
  0
VERTEX
  5
11D94
  8
01
  6
CONTINUOUS
 10
-209.903959547014
 20
34.52546190652713
 30
0.0
  0
VERTEX
  5
11D95
  8
01
  6
CONTINUOUS
 10
-209.8867449106409
 20
34.52162787088859
 30
0.0
  0
VERTEX
  5
11D96
  8
01
  6
CONTINUOUS
 10
-209.8696999873264
 20
34.51760451042809
 30
0.0
  0
VERTEX
  5
11D97
  8
01
  6
CONTINUOUS
 10
-209.8528263064377
 20
34.5133903846475
 30
0.0
  0
VERTEX
  5
11D98
  8
01
  6
CONTINUOUS
 10
-209.8361256910325
 20
34.50898384007398
 30
0.0
  0
VERTEX
  5
11D99
  8
01
  6
CONTINUOUS
 10
-209.8196000202497
 20
34.504383182566
 30
0.0
  0
VERTEX
  5
11D9A
  8
01
  6
CONTINUOUS
 10
-209.8032511732287
 20
34.49958671798204
 30
0.0
  0
VERTEX
  5
11D9B
  8
01
  6
CONTINUOUS
 10
-209.7870810291087
 20
34.49459275218058
 30
0.0
  0
VERTEX
  5
11D9C
  8
01
  6
CONTINUOUS
 10
-209.7710914670288
 20
34.4893995910201
 30
0.0
  0
VERTEX
  5
11D9D
  8
01
  6
CONTINUOUS
 10
-209.7552843661283
 20
34.48400554035907
 30
0.0
  0
VERTEX
  5
11D9E
  8
01
  6
CONTINUOUS
 10
-209.7396616055463
 20
34.47840890605598
 30
0.0
  0
VERTEX
  5
11D9F
  8
01
  6
CONTINUOUS
 10
-209.7242250644221
 20
34.47260799396931
 30
0.0
  0
VERTEX
  5
11DA0
  8
01
  6
CONTINUOUS
 10
-209.7089766205814
 20
34.46660111630518
 30
0.0
  0
VERTEX
  5
11DA1
  8
01
  6
CONTINUOUS
 10
-209.6939180931808
 20
34.46038686882558
 30
0.0
  0
VERTEX
  5
11DA2
  8
01
  6
CONTINUOUS
 10
-209.6790512204414
 20
34.45396423846293
 30
0.0
  0
VERTEX
  5
11DA3
  8
01
  6
CONTINUOUS
 10
-209.6643777346729
 20
34.44733224072102
 30
0.0
  0
VERTEX
  5
11DA4
  8
01
  6
CONTINUOUS
 10
-209.6498993681846
 20
34.44048989110362
 30
0.0
  0
VERTEX
  5
11DA5
  8
01
  6
CONTINUOUS
 10
-209.6356178532862
 20
34.43343620511455
 30
0.0
  0
VERTEX
  5
11DA6
  8
01
  6
CONTINUOUS
 10
-209.6215349222874
 20
34.42617019825758
 30
0.0
  0
VERTEX
  5
11DA7
  8
01
  6
CONTINUOUS
 10
-209.6076523074974
 20
34.4186908860365
 30
0.0
  0
VERTEX
  5
11DA8
  8
01
  6
CONTINUOUS
 10
-209.5939717412261
 20
34.4109972839551
 30
0.0
  0
VERTEX
  5
11DA9
  8
01
  6
CONTINUOUS
 10
-209.5804949557828
 20
34.40308840751717
 30
0.0
  0
VERTEX
  5
11DAA
  8
01
  6
CONTINUOUS
 10
-209.5672236894836
 20
34.39496327042775
 30
0.0
  0
VERTEX
  5
11DAB
  8
01
  6
CONTINUOUS
 10
-209.5541598999905
 20
34.38662082070456
 30
0.0
  0
VERTEX
  5
11DAC
  8
01
  6
CONTINUOUS
 10
-209.5413058219756
 20
34.37805992340926
 30
0.0
  0
VERTEX
  5
11DAD
  8
01
  6
CONTINUOUS
 10
-209.5286637078479
 20
34.36927943829195
 30
0.0
  0
VERTEX
  5
11DAE
  8
01
  6
CONTINUOUS
 10
-209.516235810016
 20
34.36027822510274
 30
0.0
  0
VERTEX
  5
11DAF
  8
01
  6
CONTINUOUS
 10
-209.5040243808889
 20
34.35105514359176
 30
0.0
  0
VERTEX
  5
11DB0
  8
01
  6
CONTINUOUS
 10
-209.4920316728753
 20
34.3416090535091
 30
0.0
  0
VERTEX
  5
11DB1
  8
01
  6
CONTINUOUS
 10
-209.4802599383841
 20
34.33193881460488
 30
0.0
  0
VERTEX
  5
11DB2
  8
01
  6
CONTINUOUS
 10
-209.468711429824
 20
34.3220432866292
 30
0.0
  0
VERTEX
  5
11DB3
  8
01
  6
CONTINUOUS
 10
-209.457388399604
 20
34.31192132933219
 30
0.0
  0
VERTEX
  5
11DB4
  8
01
  6
CONTINUOUS
 10
-209.4462930895411
 20
34.30157181851988
 30
0.0
  0
VERTEX
  5
11DB5
  8
01
  6
CONTINUOUS
 10
-209.4354274227552
 20
34.29099411311782
 30
0.0
  0
VERTEX
  5
11DB6
  8
01
  6
CONTINUOUS
 10
-209.4247929553552
 20
34.2801881284097
 30
0.0
  0
VERTEX
  5
11DB7
  8
01
  6
CONTINUOUS
 10
-209.4143912231354
 20
34.26915381047446
 30
0.0
  0
VERTEX
  5
11DB8
  8
01
  6
CONTINUOUS
 10
-209.4042237618902
 20
34.25789110539104
 30
0.0
  0
VERTEX
  5
11DB9
  8
01
  6
CONTINUOUS
 10
-209.3942921074141
 20
34.24639995923837
 30
0.0
  0
VERTEX
  5
11DBA
  8
01
  6
CONTINUOUS
 10
-209.3845977955015
 20
34.23468031809537
 30
0.0
  0
VERTEX
  5
11DBB
  8
01
  6
CONTINUOUS
 10
-209.3751423619467
 20
34.22273212804099
 30
0.0
  0
VERTEX
  5
11DBC
  8
01
  6
CONTINUOUS
 10
-209.3659273439041
 20
34.21055533448835
 30
0.0
  0
VERTEX
  5
11DBD
  8
01
  6
CONTINUOUS
 10
-209.3569544639033
 20
34.19814979209549
 30
0.0
  0
VERTEX
  5
11DBE
  8
01
  6
CONTINUOUS
 10
-209.3482258162801
 20
34.18551517349344
 30
0.0
  0
VERTEX
  5
11DBF
  8
01
  6
CONTINUOUS
 10
-209.3397435397798
 20
34.17265112957157
 30
0.0
  0
VERTEX
  5
11DC0
  8
01
  6
CONTINUOUS
 10
-209.3315097731473
 20
34.15955731121915
 30
0.0
  0
VERTEX
  5
11DC1
  8
01
  6
CONTINUOUS
 10
-209.323526655128
 20
34.14623336932553
 30
0.0
  0
VERTEX
  5
11DC2
  8
01
  6
CONTINUOUS
 10
-209.315796324467
 20
34.13267895478
 30
0.0
  0
VERTEX
  5
11DC3
  8
01
  6
CONTINUOUS
 10
-209.3083209199096
 20
34.11889371847189
 30
0.0
  0
VERTEX
  5
11DC4
  8
01
  6
CONTINUOUS
 10
-209.3011025801945
 20
34.10487731129806
 30
0.0
  0
VERTEX
  5
11DC5
  8
01
  6
CONTINUOUS
 10
-209.2941432226447
 20
34.09062965064412
 30
0.0
  0
VERTEX
  5
11DC6
  8
01
  6
CONTINUOUS
 10
-209.2874439585513
 20
34.07615162400683
 30
0.0
  0
VERTEX
  5
11DC7
  8
01
  6
CONTINUOUS
 10
-209.2810057158453
 20
34.0614443395691
 30
0.0
  0
VERTEX
  5
11DC8
  8
01
  6
CONTINUOUS
 10
-209.2748294224577
 20
34.04650890551378
 30
0.0
  0
VERTEX
  5
11DC9
  8
01
  6
CONTINUOUS
 10
-209.2689160063195
 20
34.03134643002378
 30
0.0
  0
VERTEX
  5
11DCA
  8
01
  6
CONTINUOUS
 10
-209.2632663953614
 20
34.01595802128198
 30
0.0
  0
VERTEX
  5
11DCB
  8
01
  6
CONTINUOUS
 10
-209.2578815175146
 20
34.00034478747125
 30
0.0
  0
VERTEX
  5
11DCC
  8
01
  6
CONTINUOUS
 10
-209.2527623007099
 20
33.98450783677448
 30
0.0
  0
VERTEX
  5
11DCD
  8
01
  6
CONTINUOUS
 10
-209.2479096905716
 20
33.96844826930391
 30
0.0
  0
VERTEX
  5
11DCE
  8
01
  6
CONTINUOUS
 10
-209.2433249041822
 20
33.95216706134854
 30
0.0
  0
VERTEX
  5
11DCF
  8
01
  6
CONTINUOUS
 10
-209.2390093710808
 20
33.93566509228712
 30
0.0
  0
VERTEX
  5
11DD0
  8
01
  6
CONTINUOUS
 10
-209.2349645264769
 20
33.91894323891187
 30
0.0
  0
VERTEX
  5
11DD1
  8
01
  6
CONTINUOUS
 10
-209.2311918055804
 20
33.902002378015
 30
0.0
  0
VERTEX
  5
11DD2
  8
01
  6
CONTINUOUS
 10
-209.2276926436008
 20
33.88484338638875
 30
0.0
  0
VERTEX
  5
11DD3
  8
01
  6
CONTINUOUS
 10
-209.2244684757478
 20
33.86746714082532
 30
0.0
  0
VERTEX
  5
11DD4
  8
01
  6
CONTINUOUS
 10
-209.2215207372309
 20
33.84987451811693
 30
0.0
  0
VERTEX
  5
11DD5
  8
01
  6
CONTINUOUS
 10
-209.2188508622315
 20
33.83206639600176
 30
0.0
  0
VERTEX
  5
11DD6
  8
01
  6
CONTINUOUS
 10
-209.2164598732576
 20
33.81404403091325
 30
0.0
  0
VERTEX
  5
11DD7
  8
01
  6
CONTINUOUS
 10
-209.2143477536454
 20
33.79580963521143
 30
0.0
  0
VERTEX
  5
11DD8
  8
01
  6
CONTINUOUS
 10
-209.2125143252934
 20
33.77736556976166
 30
0.0
  0
VERTEX
  5
11DD9
  8
01
  6
CONTINUOUS
 10
-209.2109594101003
 20
33.7587141954293
 30
0.0
  0
VERTEX
  5
11DDA
  8
01
  6
CONTINUOUS
 10
-209.2096828299645
 20
33.73985787307969
 30
0.0
  0
VERTEX
  5
11DDB
  8
01
  6
CONTINUOUS
 10
-209.2086844067846
 20
33.72079896357818
 30
0.0
  0
VERTEX
  5
11DDC
  8
01
  6
CONTINUOUS
 10
-209.2079639624591
 20
33.70153982779016
 30
0.0
  0
VERTEX
  5
11DDD
  8
01
  6
CONTINUOUS
 10
-209.2075213188866
 20
33.68208282658096
 30
0.0
  0
VERTEX
  5
11DDE
  8
01
  6
CONTINUOUS
 10
-209.2073563685955
 20
33.66243026871675
 30
0.0
  0
VERTEX
  5
11DDF
  8
01
  6
CONTINUOUS
 10
-209.2074693404768
 20
33.64258421485005
 30
0.0
  0
VERTEX
  5
11DE0
  8
01
  6
CONTINUOUS
 10
-209.2078605634439
 20
33.62254665185332
 30
0.0
  0
VERTEX
  5
11DE1
  8
01
  6
CONTINUOUS
 10
-209.2085303664266
 20
33.60231956658676
 30
0.0
  0
VERTEX
  5
11DE2
  8
01
  6
CONTINUOUS
 10
-209.2094790783548
 20
33.58190494591064
 30
0.0
  0
VERTEX
  5
11DE3
  8
01
  6
CONTINUOUS
 10
-209.2107070281582
 20
33.56130477668517
 30
0.0
  0
VERTEX
  5
11DE4
  8
01
  6
CONTINUOUS
 10
-209.2122145447668
 20
33.54052104577061
 30
0.0
  0
VERTEX
  5
11DE5
  8
01
  6
CONTINUOUS
 10
-209.2140019571103
 20
33.51955574002718
 30
0.0
  0
VERTEX
  5
11DE6
  8
01
  6
CONTINUOUS
 10
-209.2160694872046
 20
33.49841092198452
 30
0.0
  0
VERTEX
  5
11DE7
  8
01
  6
CONTINUOUS
 10
-209.2184163533891
 20
33.47708936453422
 30
0.0
  0
VERTEX
  5
11DE8
  8
01
  6
CONTINUOUS
 10
-209.2210412244885
 20
33.45559422949231
 30
0.0
  0
VERTEX
  5
11DE9
  8
01
  6
CONTINUOUS
 10
-209.2239427637129
 20
33.43392868264861
 30
0.0
  0
VERTEX
  5
11DEA
  8
01
  6
CONTINUOUS
 10
-209.2271196342722
 20
33.41209588979295
 30
0.0
  0
VERTEX
  5
11DEB
  8
01
  6
CONTINUOUS
 10
-209.2305704993765
 20
33.39009901671515
 30
0.0
  0
VERTEX
  5
11DEC
  8
01
  6
CONTINUOUS
 10
-209.2342940222359
 20
33.36794122920507
 30
0.0
  0
VERTEX
  5
11DED
  8
01
  6
CONTINUOUS
 10
-209.2382888660605
 20
33.3456256930525
 30
0.0
  0
VERTEX
  5
11DEE
  8
01
  6
CONTINUOUS
 10
-209.2425536957832
 20
33.32315557297788
 30
0.0
  0
VERTEX
  5
11DEF
  8
01
  6
CONTINUOUS
 10
-209.2470873803358
 20
33.30053390707943
 30
0.0
  0
VERTEX
  5
11DF0
  8
01
  6
CONTINUOUS
 10
-209.2518891824627
 20
33.27776348901602
 30
0.0
  0
VERTEX
  5
11DF1
  8
01
  6
CONTINUOUS
 10
-209.2569584098236
 20
33.25484708456739
 30
0.0
  0
VERTEX
  5
11DF2
  8
01
  6
CONTINUOUS
 10
-209.2622943700782
 20
33.2317874595133
 30
0.0
  0
VERTEX
  5
11DF3
  8
01
  6
CONTINUOUS
 10
-209.2678963708864
 20
33.20858737963351
 30
0.0
  0
VERTEX
  5
11DF4
  8
01
  6
CONTINUOUS
 10
-209.2737637199079
 20
33.18524961070777
 30
0.0
  0
VERTEX
  5
11DF5
  8
01
  6
CONTINUOUS
 10
-209.2798957248025
 20
33.16177691851583
 30
0.0
  0
VERTEX
  5
11DF6
  8
01
  6
CONTINUOUS
 10
-209.28629169323
 20
33.13817206883745
 30
0.0
  0
VERTEX
  5
11DF7
  8
01
  6
CONTINUOUS
 10
-209.2929507759097
 20
33.11443787486351
 30
0.0
  0
VERTEX
  5
11DF8
  8
01
  6
CONTINUOUS
 10
-209.2998708714393
 20
33.09057752804643
 30
0.0
  0
VERTEX
  5
11DF9
  8
01
  6
CONTINUOUS
 10
-209.3070492789717
 20
33.06659440092862
 30
0.0
  0
VERTEX
  5
11DFA
  8
01
  6
CONTINUOUS
 10
-209.3144832939093
 20
33.04249186718561
 30
0.0
  0
VERTEX
  5
11DFB
  8
01
  6
CONTINUOUS
 10
-209.3221702116543
 20
33.01827330049297
 30
0.0
  0
VERTEX
  5
11DFC
  8
01
  6
CONTINUOUS
 10
-209.330107327609
 20
32.99394207452624
 30
0.0
  0
VERTEX
  5
11DFD
  8
01
  6
CONTINUOUS
 10
-209.3382919371755
 20
32.96950156296096
 30
0.0
  0
VERTEX
  5
11DFE
  8
01
  6
CONTINUOUS
 10
-209.3467213357562
 20
32.94495513947267
 30
0.0
  0
VERTEX
  5
11DFF
  8
01
  6
CONTINUOUS
 10
-209.355393234636
 20
32.9203060794865
 30
0.0
  0
VERTEX
  5
11E00
  8
01
  6
CONTINUOUS
 10
-209.364307756707
 20
32.89555708869641
 30
0.0
  0
VERTEX
  5
11E01
  8
01
  6
CONTINUOUS
 10
-209.373465892007
 20
32.87071066793703
 30
0.0
  0
VERTEX
  5
11E02
  8
01
  6
CONTINUOUS
 10
-209.3828686317127
 20
32.84576931777401
 30
0.0
  0
VERTEX
  5
11E03
  8
01
  6
CONTINUOUS
 10
-209.3925169670003
 20
32.82073553877306
 30
0.0
  0
VERTEX
  5
11E04
  8
01
  6
CONTINUOUS
 10
-209.4024118890463
 20
32.79561183149986
 30
0.0
  0
VERTEX
  5
11E05
  8
01
  6
CONTINUOUS
 10
-209.4125543890272
 20
32.77040069652009
 30
0.0
  0
VERTEX
  5
11E06
  8
01
  6
CONTINUOUS
 10
-209.4229454581193
 20
32.74510463439943
 30
0.0
  0
VERTEX
  5
11E07
  8
01
  6
CONTINUOUS
 10
-209.4335841380581
 20
32.71972641021532
 30
0.0
  0
VERTEX
  5
11E08
  8
01
  6
CONTINUOUS
 10
-209.4444611335729
 20
32.69426992025978
 30
0.0
  0
VERTEX
  5
11E09
  8
01
  6
CONTINUOUS
 10
-209.4555649211371
 20
32.66873936316782
 30
0.0
  0
VERTEX
  5
11E0A
  8
01
  6
CONTINUOUS
 10
-209.4668839772011
 20
32.64313893757763
 30
0.0
  0
VERTEX
  5
11E0B
  8
01
  6
CONTINUOUS
 10
-209.4784067782153
 20
32.61747284212734
 30
0.0
  0
VERTEX
  5
11E0C
  8
01
  6
CONTINUOUS
 10
-209.4901218006299
 20
32.5917452754551
 30
0.0
  0
VERTEX
  5
11E0D
  8
01
  6
CONTINUOUS
 10
-209.5020175208956
 20
32.5659604361991
 30
0.0
  0
VERTEX
  5
11E0E
  8
01
  6
CONTINUOUS
 10
-209.5140824154624
 20
32.54012252299747
 30
0.0
  0
VERTEX
  5
11E0F
  8
01
  6
CONTINUOUS
 10
-209.5263102198556
 20
32.51423501689633
 30
0.0
  0
VERTEX
  5
11E10
  8
01
  6
CONTINUOUS
 10
-209.5387237959627
 20
32.48829742469777
 30
0.0
  0
VERTEX
  5
11E11
  8
01
  6
CONTINUOUS
 10
-209.551356032363
 20
32.46230788507832
 30
0.0
  0
VERTEX
  5
11E12
  8
01
  6
CONTINUOUS
 10
-209.5642398268963
 20
32.43626453545101
 30
0.0
  0
VERTEX
  5
11E13
  8
01
  6
CONTINUOUS
 10
-209.5774080774022
 20
32.41016551322883
 30
0.0
  0
VERTEX
  5
11E14
  8
01
  6
CONTINUOUS
 10
-209.5908936817204
 20
32.3840089558248
 30
0.0
  0
VERTEX
  5
11E15
  8
01
  6
CONTINUOUS
 10
-209.6047295376905
 20
32.3577930006519
 30
0.0
  0
VERTEX
  5
11E16
  8
01
  6
CONTINUOUS
 10
-209.6189485431522
 20
32.33151578512317
 30
0.0
  0
VERTEX
  5
11E17
  8
01
  6
CONTINUOUS
 10
-209.6335710347016
 20
32.30517706539824
 30
0.0
  0
VERTEX
  5
11E18
  8
01
  6
CONTINUOUS
 10
-209.6485263110916
 20
32.27878832953283
 30
0.0
  0
VERTEX
  5
11E19
  8
01
  6
CONTINUOUS
 10
-209.663703560586
 20
32.25236623455493
 30
0.0
  0
VERTEX
  5
11E1A
  8
01
  6
CONTINUOUS
 10
-209.6789917966327
 20
32.22592746002078
 30
0.0
  0
SEQEND
  5
1213A
  8
01
  6
CONTINUOUS
  0
LINE
  5
112AA
  8
01
  6
CONTINUOUS
 10
-177.1524447074136
 20
34.4800670920074
 30
0.0
 11
-177.3740920295915
 21
34.46327348334194
 31
0.0
  0
LINE
  5
112AB
  8
01
  6
CONTINUOUS
 10
-181.5392031392058
 20
34.4631281970203
 30
0.0
 11
-181.7622176429232
 21
34.4800670920074
 31
0.0
  0
POLYLINE
  5
112AC
  8
01
  6
CONTINUOUS
 66
     1
 10
0.0
 20
0.0
 30
0.0
  0
VERTEX
  5
11E1B
  8
01
  6
CONTINUOUS
 10
-181.7622176429232
 20
34.4800670920074
 30
0.0
  0
VERTEX
  5
11E1C
  8
01
  6
CONTINUOUS
 10
-181.7871053490547
 20
34.48405359158981
 30
0.0
  0
VERTEX
  5
11E1D
  8
01
  6
CONTINUOUS
 10
-181.811980139912
 20
34.48802956017263
 30
0.0
  0
VERTEX
  5
11E1E
  8
01
  6
CONTINUOUS
 10
-181.8368291002211
 20
34.49198446675625
 30
0.0
  0
VERTEX
  5
11E1F
  8
01
  6
CONTINUOUS
 10
-181.861639314708
 20
34.49590778034108
 30
0.0
  0
VERTEX
  5
11E20
  8
01
  6
CONTINUOUS
 10
-181.8863978680983
 20
34.49978896992751
 30
0.0
  0
VERTEX
  5
11E21
  8
01
  6
CONTINUOUS
 10
-181.9110918451182
 20
34.50361750451598
 30
0.0
  0
VERTEX
  5
11E22
  8
01
  6
CONTINUOUS
 10
-181.9357083304935
 20
34.50738285310685
 30
0.0
  0
VERTEX
  5
11E23
  8
01
  6
CONTINUOUS
 10
-181.9602344089501
 20
34.51107448470057
 30
0.0
  0
VERTEX
  5
11E24
  8
01
  6
CONTINUOUS
 10
-181.9846571652138
 20
34.5146818682975
 30
0.0
  0
VERTEX
  5
11E25
  8
01
  6
CONTINUOUS
 10
-182.0089636840106
 20
34.51819447289806
 30
0.0
  0
VERTEX
  5
11E26
  8
01
  6
CONTINUOUS
 10
-182.0331410500665
 20
34.52160176750265
 30
0.0
  0
VERTEX
  5
11E27
  8
01
  6
CONTINUOUS
 10
-182.0571763481071
 20
34.52489322111168
 30
0.0
  0
VERTEX
  5
11E28
  8
01
  6
CONTINUOUS
 10
-182.0810572851933
 20
34.52805872289937
 30
0.0
  0
VERTEX
  5
11E29
  8
01
  6
CONTINUOUS
 10
-182.1047803809554
 20
34.53109411191105
 30
0.0
  0
VERTEX
  5
11E2A
  8
01
  6
CONTINUOUS
 10
-182.1283486922815
 20
34.5339996408693
 30
0.0
  0
VERTEX
  5
11E2B
  8
01
  6
CONTINUOUS
 10
-182.1517654305695
 20
34.5367756668151
 30
0.0
  0
VERTEX
  5
11E2C
  8
01
  6
CONTINUOUS
 10
-182.1750338072171
 20
34.53942254678945
 30
0.0
  0
VERTEX
  5
11E2D
  8
01
  6
CONTINUOUS
 10
-182.1981570336222
 20
34.54194063783331
 30
0.0
  0
VERTEX
  5
11E2E
  8
01
  6
CONTINUOUS
 10
-182.2211383211825
 20
34.54433029698768
 30
0.0
  0
VERTEX
  5
11E2F
  8
01
  6
CONTINUOUS
 10
-182.2439808812957
 20
34.54659188129354
 30
0.0
  0
VERTEX
  5
11E30
  8
01
  6
CONTINUOUS
 10
-182.2666879253598
 20
34.54872574779186
 30
0.0
  0
VERTEX
  5
11E31
  8
01
  6
CONTINUOUS
 10
-182.2892626647725
 20
34.55073225352362
 30
0.0
  0
VERTEX
  5
11E32
  8
01
  6
CONTINUOUS
 10
-182.3117083109316
 20
34.55261175552982
 30
0.0
  0
VERTEX
  5
11E33
  8
01
  6
CONTINUOUS
 10
-182.3340280752348
 20
34.55436461085142
 30
0.0
  0
VERTEX
  5
11E34
  8
01
  6
CONTINUOUS
 10
-182.3562251579825
 20
34.55599117053838
 30
0.0
  0
VERTEX
  5
11E35
  8
01
  6
CONTINUOUS
 10
-182.3783010762029
 20
34.55749087692723
 30
0.0
  0
VERTEX
  5
11E36
  8
01
  6
CONTINUOUS
 10
-182.4002538764602
 20
34.5588612988265
 30
0.0
  0
VERTEX
  5
11E37
  8
01
  6
CONTINUOUS
 10
-182.4220811769758
 20
34.56009977380382
 30
0.0
  0
VERTEX
  5
11E38
  8
01
  6
CONTINUOUS
 10
-182.4437805959704
 20
34.56120363942682
 30
0.0
  0
VERTEX
  5
11E39
  8
01
  6
CONTINUOUS
 10
-182.4653497516653
 20
34.56217023326313
 30
0.0
  0
VERTEX
  5
11E3A
  8
01
  6
CONTINUOUS
 10
-182.4867862622816
 20
34.56299689288038
 30
0.0
  0
VERTEX
  5
11E3B
  8
01
  6
CONTINUOUS
 10
-182.5080877460401
 20
34.56368095584621
 30
0.0
  0
VERTEX
  5
11E3C
  8
01
  6
CONTINUOUS
 10
-182.5292518211622
 20
34.56421975972823
 30
0.0
  0
VERTEX
  5
11E3D
  8
01
  6
CONTINUOUS
 10
-182.5502762352231
 20
34.56461072936761
 30
0.0
  0
VERTEX
  5
11E3E
  8
01
  6
CONTINUOUS
 10
-182.5711598441409
 20
34.56485203738846
 30
0.0
  0
VERTEX
  5
11E3F
  8
01
  6
CONTINUOUS
 10
-182.5919020671705
 20
34.56494223649019
 30
0.0
  0
VERTEX
  5
11E40
  8
01
  6
CONTINUOUS
 10
-182.6125023280077
 20
34.56487988236849
 30
0.0
  0
VERTEX
  5
11E41
  8
01
  6
CONTINUOUS
 10
-182.6329600503484
 20
34.56466353071905
 30
0.0
  0
VERTEX
  5
11E42
  8
01
  6
CONTINUOUS
 10
-182.6532746578885
 20
34.56429173723753
 30
0.0
  0
VERTEX
  5
11E43
  8
01
  6
CONTINUOUS
 10
-182.6734455743237
 20
34.56376305761961
 30
0.0
  0
VERTEX
  5
11E44
  8
01
  6
CONTINUOUS
 10
-182.6934722233499
 20
34.56307604756098
 30
0.0
  0
VERTEX
  5
11E45
  8
01
  6
CONTINUOUS
 10
-182.7133540258435
 20
34.56222926104497
 30
0.0
  0
VERTEX
  5
11E46
  8
01
  6
CONTINUOUS
 10
-182.7330901324826
 20
34.5612210879578
 30
0.0
  0
VERTEX
  5
11E47
  8
01
  6
CONTINUOUS
 10
-182.7526792035805
 20
34.56004962037652
 30
0.0
  0
VERTEX
  5
11E48
  8
01
  6
CONTINUOUS
 10
-182.7721198476318
 20
34.55871291890774
 30
0.0
  0
VERTEX
  5
11E49
  8
01
  6
CONTINUOUS
 10
-182.7914106731315
 20
34.5572090441581
 30
0.0
  0
VERTEX
  5
11E4A
  8
01
  6
CONTINUOUS
 10
-182.8105502885741
 20
34.5555360567342
 30
0.0
  0
VERTEX
  5
11E4B
  8
01
  6
CONTINUOUS
 10
-182.8295373024546
 20
34.55369201724272
 30
0.0
  0
VERTEX
  5
11E4C
  8
01
  6
CONTINUOUS
 10
-182.8483703232677
 20
34.55167498629027
 30
0.0
  0
VERTEX
  5
11E4D
  8
01
  6
CONTINUOUS
 10
-182.8670479595081
 20
34.54948302448346
 30
0.0
  0
VERTEX
  5
11E4E
  8
01
  6
CONTINUOUS
 10
-182.8855688150756
 20
34.5471142413457
 30
0.0
  0
VERTEX
  5
11E4F
  8
01
  6
CONTINUOUS
 10
-182.9039314601987
 20
34.54456710483502
 30
0.0
  0
VERTEX
  5
11E50
  8
01
  6
CONTINUOUS
 10
-182.9221344501278
 20
34.5418402423596
 30
0.0
  0
VERTEX
  5
11E51
  8
01
  6
CONTINUOUS
 10
-182.9401763400445
 20
34.5389322820543
 30
0.0
  0
VERTEX
  5
11E52
  8
01
  6
CONTINUOUS
 10
-182.958055685131
 20
34.53584185205398
 30
0.0
  0
VERTEX
  5
11E53
  8
01
  6
CONTINUOUS
 10
-182.9757710405689
 20
34.53256758049351
 30
0.0
  0
VERTEX
  5
11E54
  8
01
  6
CONTINUOUS
 10
-182.9933209615403
 20
34.52910809550775
 30
0.0
  0
VERTEX
  5
11E55
  8
01
  6
CONTINUOUS
 10
-183.0107040032271
 20
34.5254620252316
 30
0.0
  0
VERTEX
  5
11E56
  8
01
  6
CONTINUOUS
 10
-183.0279187208111
 20
34.5216279977999
 30
0.0
  0
VERTEX
  5
11E57
  8
01
  6
CONTINUOUS
 10
-183.0449636694239
 20
34.51760464130931
 30
0.0
  0
VERTEX
  5
11E58
  8
01
  6
CONTINUOUS
 10
-183.0618373132205
 20
34.51339051475281
 30
0.0
  0
VERTEX
  5
11E59
  8
01
  6
CONTINUOUS
 10
-183.0785378374664
 20
34.50898396528527
 30
0.0
  0
VERTEX
  5
11E5A
  8
01
  6
CONTINUOUS
 10
-183.0950633741662
 20
34.50438329960596
 30
0.0
  0
VERTEX
  5
11E5B
  8
01
  6
CONTINUOUS
 10
-183.1114120553246
 20
34.49958682441418
 30
0.0
  0
VERTEX
  5
11E5C
  8
01
  6
CONTINUOUS
 10
-183.1275820129464
 20
34.49459284640922
 30
0.0
  0
VERTEX
  5
11E5D
  8
01
  6
CONTINUOUS
 10
-183.143571379036
 20
34.48939967229035
 30
0.0
  0
VERTEX
  5
11E5E
  8
01
  6
CONTINUOUS
 10
-183.1593782855985
 20
34.48400560875689
 30
0.0
  0
VERTEX
  5
11E5F
  8
01
  6
CONTINUOUS
 10
-183.1750008646382
 20
34.47840896250809
 30
0.0
  0
VERTEX
  5
11E60
  8
01
  6
CONTINUOUS
 10
-183.1904372481601
 20
34.47260804024327
 30
0.0
  0
VERTEX
  5
11E61
  8
01
  6
CONTINUOUS
 10
-183.2056855693334
 20
34.46660115499785
 30
0.0
  0
VERTEX
  5
11E62
  8
01
  6
CONTINUOUS
 10
-183.2207440133596
 20
34.46038690286218
 30
0.0
  0
VERTEX
  5
11E63
  8
01
  6
CONTINUOUS
 10
-183.2356108372203
 20
34.45396427041288
 30
0.0
  0
VERTEX
  5
11E64
  8
01
  6
CONTINUOUS
 10
-183.2502843031401
 20
34.44733227274875
 30
0.0
  0
VERTEX
  5
11E65
  8
01
  6
CONTINUOUS
 10
-183.2647626733437
 20
34.44048992496857
 30
0.0
  0
VERTEX
  5
11E66
  8
01
  6
CONTINUOUS
 10
-183.2790442100558
 20
34.43343624217117
 30
0.0
  0
VERTEX
  5
11E67
  8
01
  6
CONTINUOUS
 10
-183.293127175501
 20
34.42617023945532
 30
0.0
  0
VERTEX
  5
11E68
  8
01
  6
CONTINUOUS
 10
-183.3070098319041
 20
34.41869093191983
 30
0.0
  0
VERTEX
  5
11E69
  8
01
  6
CONTINUOUS
 10
-183.3206904414895
 20
34.41099733466349
 30
0.0
  0
VERTEX
  5
11E6A
  8
01
  6
CONTINUOUS
 10
-183.3341672664821
 20
34.40308846278511
 30
0.0
  0
VERTEX
  5
11E6B
  8
01
  6
CONTINUOUS
 10
-183.347438563187
 20
34.39496332959128
 30
0.0
  0
VERTEX
  5
11E6C
  8
01
  6
CONTINUOUS
 10
-183.3605023717331
 20
34.38662088293735
 30
0.0
  0
VERTEX
  5
11E6D
  8
01
  6
CONTINUOUS
 10
-183.3733564592366
 20
34.37805998801925
 30
0.0
  0
VERTEX
  5
11E6E
  8
01
  6
CONTINUOUS
 10
-183.3859985753327
 20
34.36927950474021
 30
0.0
  0
VERTEX
  5
11E6F
  8
01
  6
CONTINUOUS
 10
-183.3984264696564
 20
34.36027829300345
 30
0.0
  0
VERTEX
  5
11E70
  8
01
  6
CONTINUOUS
 10
-183.4106378918429
 20
34.35105521271221
 30
0.0
  0
VERTEX
  5
11E71
  8
01
  6
CONTINUOUS
 10
-183.4226305915273
 20
34.34160912376971
 30
0.0
  0
VERTEX
  5
11E72
  8
01
  6
CONTINUOUS
 10
-183.4344023183446
 20
34.33193888607917
 30
0.0
  0
VERTEX
  5
11E73
  8
01
  6
CONTINUOUS
 10
-183.44595082193
 20
34.32204335954383
 30
0.0
  0
VERTEX
  5
11E74
  8
01
  6
CONTINUOUS
 10
-183.4572738519187
 20
34.3119214040669
 30
0.0
  0
VERTEX
  5
11E75
  8
01
  6
CONTINUOUS
 10
-183.4683691684567
 20
34.30157189560068
 30
0.0
  0
VERTEX
  5
11E76
  8
01
  6
CONTINUOUS
 10
-183.4792348479748
 20
34.29099419302884
 30
0.0
  0
VERTEX
  5
11E77
  8
01
  6
CONTINUOUS
 10
-183.4898693311431
 20
34.28018821138724
 30
0.0
  0
VERTEX
  5
11E78
  8
01
  6
CONTINUOUS
 10
-183.5002710787933
 20
34.26915389649655
 30
0.0
  0
VERTEX
  5
11E79
  8
01
  6
CONTINUOUS
 10
-183.5104385517571
 20
34.2578911941774
 30
0.0
  0
VERTEX
  5
11E7A
  8
01
  6
CONTINUOUS
 10
-183.5203702108662
 20
34.24640005025046
 30
0.0
  0
VERTEX
  5
11E7B
  8
01
  6
CONTINUOUS
 10
-183.5300645169525
 20
34.2346804105364
 30
0.0
  0
VERTEX
  5
11E7C
  8
01
  6
CONTINUOUS
 10
-183.5395199308476
 20
34.22273222085584
 30
0.0
  0
VERTEX
  5
11E7D
  8
01
  6
CONTINUOUS
 10
-183.5487349120561
 20
34.21055542636623
 30
0.0
  0
VERTEX
  5
11E7E
  8
01
  6
CONTINUOUS
 10
-183.5577077391609
 20
34.19814988181346
 30
0.0
  0
VERTEX
  5
11E7F
  8
01
  6
CONTINUOUS
 10
-183.5664363278638
 20
34.18551526060174
 30
0.0
  0
VERTEX
  5
11E80
  8
01
  6
CONTINUOUS
 10
-183.5749185505221
 20
34.17265121447488
 30
0.0
  0
VERTEX
  5
11E81
  8
01
  6
CONTINUOUS
 10
-183.583152279493
 20
34.15955739517665
 30
0.0
  0
VERTEX
  5
11E82
  8
01
  6
CONTINUOUS
 10
-183.5911353871339
 20
34.14623345445087
 30
0.0
  0
VERTEX
  5
11E83
  8
01
  6
CONTINUOUS
 10
-183.5988657458021
 20
34.13267904404133
 30
0.0
  0
VERTEX
  5
11E84
  8
01
  6
CONTINUOUS
 10
-183.6063412278548
 20
34.11889381569182
 30
0.0
  0
VERTEX
  5
11E85
  8
01
  6
CONTINUOUS
 10
-183.6135597056555
 20
34.10487742115367
 30
0.0
  0
VERTEX
  5
11E86
  8
01
  6
CONTINUOUS
 10
-183.6205192670411
 20
34.09062977822382
 30
0.0
  0
VERTEX
  5
11E87
  8
01
  6
CONTINUOUS
 10
-183.6272187842648
 20
34.07615177321975
 30
0.0
  0
VERTEX
  5
11E88
  8
01
  6
CONTINUOUS
 10
-183.6336573080272
 20
34.06144451278831
 30
0.0
  0
VERTEX
  5
11E89
  8
01
  6
CONTINUOUS
 10
-183.6398338890289
 20
34.04650910357633
 30
0.0
  0
VERTEX
  5
11E8A
  8
01
  6
CONTINUOUS
 10
-183.6457475779706
 20
34.03134665223068
 30
0.0
  0
VERTEX
  5
11E8B
  8
01
  6
CONTINUOUS
 10
-183.6513974255529
 20
34.0159582653982
 30
0.0
  0
VERTEX
  5
11E8C
  8
01
  6
CONTINUOUS
 10
-183.6567824824764
 20
34.00034504972574
 30
0.0
  0
VERTEX
  5
11E8D
  8
01
  6
CONTINUOUS
 10
-183.6619017994418
 20
33.98450811186016
 30
0.0
  0
VERTEX
  5
11E8E
  8
01
  6
CONTINUOUS
 10
-183.6667544108917
 20
33.96844855048057
 30
0.0
  0
VERTEX
  5
11E8F
  8
01
  6
CONTINUOUS
 10
-183.6713391018171
 20
33.95216734201351
 30
0.0
  0
VERTEX
  5
11E90
  8
01
  6
CONTINUOUS
 10
-183.6756544619664
 20
33.93566536720012
 30
0.0
  0
VERTEX
  5
11E91
  8
01
  6
CONTINUOUS
 10
-183.6796990758765
 20
33.91894350422749
 30
0.0
  0
VERTEX
  5
11E92
  8
01
  6
CONTINUOUS
 10
-183.6834715280842
 20
33.90200263128266
 30
0.0
  0
VERTEX
  5
11E93
  8
01
  6
CONTINUOUS
 10
-183.6869704031263
 20
33.88484362655271
 30
0.0
  0
VERTEX
  5
11E94
  8
01
  6
CONTINUOUS
 10
-183.6901942855399
 20
33.86746736822468
 30
0.0
  0
VERTEX
  5
11E95
  8
01
  6
CONTINUOUS
 10
-183.6931417598617
 20
33.84987473448566
 30
0.0
  0
VERTEX
  5
11E96
  8
01
  6
CONTINUOUS
 10
-183.6958114116426
 20
33.83206660446707
 30
0.0
  0
VERTEX
  5
11E97
  8
01
  6
CONTINUOUS
 10
-183.6982022324194
 20
33.81404423544393
 30
0.0
  0
VERTEX
  5
11E98
  8
01
  6
CONTINUOUS
 10
-183.7003142385795
 20
33.79580983925702
 30
0.0
  0
VERTEX
  5
11E99
  8
01
  6
CONTINUOUS
 10
-183.7021476057286
 20
33.77736577604647
 30
0.0
  0
VERTEX
  5
11E9A
  8
01
  6
CONTINUOUS
 10
-183.7037025094725
 20
33.75871440595244
 30
0.0
  0
VERTEX
  5
11E9B
  8
01
  6
CONTINUOUS
 10
-183.7049791254171
 20
33.73985808911507
 30
0.0
  0
VERTEX
  5
11E9C
  8
01
  6
CONTINUOUS
 10
-183.705977629168
 20
33.72079918567452
 30
0.0
  0
VERTEX
  5
11E9D
  8
01
  6
CONTINUOUS
 10
-183.7066981963312
 20
33.70154005577091
 30
0.0
  0
VERTEX
  5
11E9E
  8
01
  6
CONTINUOUS
 10
-183.7071410025125
 20
33.68208305954441
 30
0.0
  0
VERTEX
  5
11E9F
  8
01
  6
CONTINUOUS
 10
-183.7073061517184
 20
33.66243050516314
 30
0.0
  0
VERTEX
  5
11EA0
  8
01
  6
CONTINUOUS
 10
-183.7071934069638
 20
33.64258445327843
 30
0.0
  0
VERTEX
  5
11EA1
  8
01
  6
CONTINUOUS
 10
-183.7068024298614
 20
33.62254689093631
 30
0.0
  0
VERTEX
  5
11EA2
  8
01
  6
CONTINUOUS
 10
-183.7061328820071
 20
33.60231980517066
 30
0.0
  0
VERTEX
  5
11EA3
  8
01
  6
CONTINUOUS
 10
-183.7051844249967
 20
33.58190518301539
 30
0.0
  0
VERTEX
  5
11EA4
  8
01
  6
CONTINUOUS
 10
-183.7039567204262
 20
33.56130501150436
 30
0.0
  0
VERTEX
  5
11EA5
  8
01
  6
CONTINUOUS
 10
-183.7024494298914
 20
33.54052127767148
 30
0.0
  0
VERTEX
  5
11EA6
  8
01
  6
CONTINUOUS
 10
-183.7006622149882
 20
33.51955596855063
 30
0.0
  0
VERTEX
  5
11EA7
  8
01
  6
CONTINUOUS
 10
-183.6985948448637
 20
33.49841114686828
 30
0.0
  0
VERTEX
  5
11EA8
  8
01
  6
CONTINUOUS
 10
-183.6962480983618
 20
33.47708958595685
 30
0.0
  0
VERTEX
  5
11EA9
  8
01
  6
CONTINUOUS
 10
-183.6936233071532
 20
33.45559444821812
 30
0.0
  0
VERTEX
  5
11EAA
  8
01
  6
CONTINUOUS
 10
-183.6907218085577
 20
33.43392890002954
 30
0.0
  0
VERTEX
  5
11EAB
  8
01
  6
CONTINUOUS
 10
-183.6875449398949
 20
33.41209610776862
 30
0.0
  0
VERTEX
  5
11EAC
  8
01
  6
CONTINUOUS
 10
-183.6840940384846
 20
33.39009923781279
 30
0.0
  0
VERTEX
  5
11EAD
  8
01
  6
CONTINUOUS
 10
-183.6803704416467
 20
33.36794145653957
 30
0.0
  0
VERTEX
  5
11EAE
  8
01
  6
CONTINUOUS
 10
-183.6763754867007
 20
33.34562593032639
 30
0.0
  0
VERTEX
  5
11EAF
  8
01
  6
CONTINUOUS
 10
-183.6721105092648
 20
33.32315582447784
 30
0.0
  0
VERTEX
  5
11EB0
  8
01
  6
CONTINUOUS
 10
-183.6675766434439
 20
33.30053417724696
 30
0.0
  0
VERTEX
  5
11EB1
  8
01
  6
CONTINUOUS
 10
-183.6627746343175
 20
33.27776378161136
 30
0.0
  0
VERTEX
  5
11EB2
  8
01
  6
CONTINUOUS
 10
-183.6577051825942
 20
33.25484740257314
 30
0.0
  0
VERTEX
  5
11EB3
  8
01
  6
CONTINUOUS
 10
-183.6523689889824
 20
33.2317878051344
 30
0.0
  0
VERTEX
  5
11EB4
  8
01
  6
CONTINUOUS
 10
-183.6467667541904
 20
33.20858775429723
 30
0.0
  0
VERTEX
  5
11EB5
  8
01
  6
CONTINUOUS
 10
-183.6408991789267
 20
33.18525001506374
 30
0.0
  0
VERTEX
  5
11EB6
  8
01
  6
CONTINUOUS
 10
-183.6347669638998
 20
33.16177735243601
 30
0.0
  0
VERTEX
  5
11EB7
  8
01
  6
CONTINUOUS
 10
-183.628370809818
 20
33.13817253141615
 30
0.0
  0
VERTEX
  5
11EB8
  8
01
  6
CONTINUOUS
 10
-183.6217115739005
 20
33.11443836434494
 30
0.0
  0
VERTEX
  5
11EB9
  8
01
  6
CONTINUOUS
 10
-183.6147913621402
 20
33.09057804127102
 30
0.0
  0
VERTEX
  5
11EBA
  8
01
  6
CONTINUOUS
 10
-183.6076128784044
 20
33.06659493307793
 30
0.0
  0
VERTEX
  5
11EBB
  8
01
  6
CONTINUOUS
 10
-183.6001788303024
 20
33.04249241178096
 30
0.0
  0
VERTEX
  5
11EBC
  8
01
  6
CONTINUOUS
 10
-183.5924919254434
 20
33.01827384939541
 30
0.0
  0
VERTEX
  5
11EBD
  8
01
  6
CONTINUOUS
 10
-183.5845548714367
 20
32.99394261793662
 30
0.0
  0
VERTEX
  5
11EBE
  8
01
  6
CONTINUOUS
 10
-183.5763703758916
 20
32.96950208941989
 30
0.0
  0
VERTEX
  5
11EBF
  8
01
  6
CONTINUOUS
 10
-183.5679411464172
 20
32.94495563586052
 30
0.0
  0
VERTEX
  5
11EC0
  8
01
  6
CONTINUOUS
 10
-183.5592694721034
 20
32.92030653178553
 30
0.0
  0
VERTEX
  5
11EC1
  8
01
  6
CONTINUOUS
 10
-183.5503552149947
 20
32.89555748637549
 30
0.0
  0
VERTEX
  5
11EC2
  8
01
  6
CONTINUOUS
 10
-183.541197364388
 20
32.87071100551643
 30
0.0
  0
VERTEX
  5
11EC3
  8
01
  6
CONTINUOUS
 10
-183.5317949084335
 20
32.84576959482741
 30
0.0
  0
VERTEX
  5
11EC4
  8
01
  6
CONTINUOUS
 10
-183.5221468352817
 20
32.82073575992747
 30
0.0
  0
VERTEX
  5
11EC5
  8
01
  6
CONTINUOUS
 10
-183.5122521330831
 20
32.79561200643566
 30
0.0
  0
VERTEX
  5
11EC6
  8
01
  6
CONTINUOUS
 10
-183.5021097899882
 20
32.77040083997102
 30
0.0
  0
VERTEX
  5
11EC7
  8
01
  6
CONTINUOUS
 10
-183.4917187941472
 20
32.74510476615262
 30
0.0
  0
VERTEX
  5
11EC8
  8
01
  6
CONTINUOUS
 10
-183.4810800891932
 20
32.71972655370465
 30
0.0
  0
VERTEX
  5
11EC9
  8
01
  6
CONTINUOUS
 10
-183.4702029817326
 20
32.69427009656802
 30
0.0
  0
VERTEX
  5
11ECA
  8
01
  6
CONTINUOUS
 10
-183.459099013603
 20
32.66873958942824
 30
0.0
  0
VERTEX
  5
11ECB
  8
01
  6
CONTINUOUS
 10
-183.4477797266648
 20
32.64313922697396
 30
0.0
  0
VERTEX
  5
11ECC
  8
01
  6
CONTINUOUS
 10
-183.436256662779
 20
32.61747320389382
 30
0.0
  0
VERTEX
  5
11ECD
  8
01
  6
CONTINUOUS
 10
-183.424541363806
 20
32.59174571487643
 30
0.0
  0
VERTEX
  5
11ECE
  8
01
  6
CONTINUOUS
 10
-183.4126453716065
 20
32.56596095461045
 30
0.0
  0
VERTEX
  5
11ECF
  8
01
  6
CONTINUOUS
 10
-183.4005802280413
 20
32.5401231177845
 30
0.0
  0
VERTEX
  5
11ED0
  8
01
  6
CONTINUOUS
 10
-183.3883522147387
 20
32.51423568154785
 30
0.0
  0
VERTEX
  5
11ED1
  8
01
  6
CONTINUOUS
 10
-183.3759384784761
 20
32.48829814881393
 30
0.0
  0
VERTEX
  5
11ED2
  8
01
  6
CONTINUOUS
 10
-183.363306135735
 20
32.46230865428056
 30
0.0
  0
VERTEX
  5
11ED3
  8
01
  6
CONTINUOUS
 10
-183.350422293728
 20
32.43626533138112
 30
0.0
  0
VERTEX
  5
11ED4
  8
01
  6
CONTINUOUS
 10
-183.3372540596677
 20
32.41016631354902
 30
0.0
  0
VERTEX
  5
11ED5
  8
01
  6
CONTINUOUS
 10
-183.3237685407668
 20
32.38400973421768
 30
0.0
  0
VERTEX
  5
11ED6
  8
01
  6
CONTINUOUS
 10
-183.3099328442376
 20
32.35779372682052
 30
0.0
  0
VERTEX
  5
11ED7
  8
01
  6
CONTINUOUS
 10
-183.295714077293
 20
32.33151642479092
 30
0.0
  0
VERTEX
  5
11ED8
  8
01
  6
CONTINUOUS
 10
-183.2810919049748
 20
32.30517758141989
 30
0.0
  0
VERTEX
  5
11ED9
  8
01
  6
CONTINUOUS
 10
-183.2661370122653
 20
32.27878869082824
 30
0.0
  0
VERTEX
  5
11EDA
  8
01
  6
CONTINUOUS
 10
-183.2509601893965
 20
32.25236642038692
 30
0.0
  0
VERTEX
  5
11EDB
  8
01
  6
CONTINUOUS
 10
-183.2356724014481
 20
32.22592746002078
 30
0.0
  0
SEQEND
  5
1213B
  8
01
  6
CONTINUOUS
  0
POLYLINE
  5
112AD
  8
01
  6
CONTINUOUS
 66
     1
 10
0.0
 20
0.0
 30
0.0
  0
VERTEX
  5
11EDC
  8
01
  6
CONTINUOUS
 10
-175.6783138086995
 20
32.22592746002078
 30
0.0
  0
VERTEX
  5
11EDD
  8
01
  6
CONTINUOUS
 10
-175.6636975980062
 20
32.25228946601033
 30
0.0
  0
VERTEX
  5
11EDE
  8
01
  6
CONTINUOUS
 10
-175.6491217129599
 20
32.27864380331003
 30
0.0
  0
VERTEX
  5
11EDF
  8
01
  6
CONTINUOUS
 10
-175.6346264792078
 20
32.30498280322997
 30
0.0
  0
VERTEX
  5
11EE0
  8
01
  6
CONTINUOUS
 10
-175.6202522223968
 20
32.33129879708031
 30
0.0
  0
VERTEX
  5
11EE1
  8
01
  6
CONTINUOUS
 10
-175.606039268174
 20
32.35758411617117
 30
0.0
  0
VERTEX
  5
11EE2
  8
01
  6
CONTINUOUS
 10
-175.5920279421865
 20
32.38383109181269
 30
0.0
  0
VERTEX
  5
11EE3
  8
01
  6
CONTINUOUS
 10
-175.5782585700812
 20
32.41003205531499
 30
0.0
  0
VERTEX
  5
11EE4
  8
01
  6
CONTINUOUS
 10
-175.5647697914027
 20
32.43617955486963
 30
0.0
  0
VERTEX
  5
11EE5
  8
01
  6
CONTINUOUS
 10
-175.5515736529177
 20
32.4622695592661
 30
0.0
  0
VERTEX
  5
11EE6
  8
01
  6
CONTINUOUS
 10
-175.5386610095507
 20
32.48830076317582
 30
0.0
  0
VERTEX
  5
11EE7
  8
01
  6
CONTINUOUS
 10
-175.5260221277927
 20
32.51427193695979
 30
0.0
  0
VERTEX
  5
11EE8
  8
01
  6
CONTINUOUS
 10
-175.5136472741345
 20
32.54018185097897
 30
0.0
  0
VERTEX
  5
11EE9
  8
01
  6
CONTINUOUS
 10
-175.5015267150668
 20
32.56602927559435
 30
0.0
  0
VERTEX
  5
11EEA
  8
01
  6
CONTINUOUS
 10
-175.4896507170805
 20
32.5918129811669
 30
0.0
  0
VERTEX
  5
11EEB
  8
01
  6
CONTINUOUS
 10
-175.4780095466664
 20
32.61753173805761
 30
0.0
  0
VERTEX
  5
11EEC
  8
01
  6
CONTINUOUS
 10
-175.4665934703154
 20
32.64318431662745
 30
0.0
  0
VERTEX
  5
11EED
  8
01
  6
CONTINUOUS
 10
-175.4553927545181
 20
32.66876948723741
 30
0.0
  0
VERTEX
  5
11EEE
  8
01
  6
CONTINUOUS
 10
-175.4443982854073
 20
32.69428593457488
 30
0.0
  0
VERTEX
  5
11EEF
  8
01
  6
CONTINUOUS
 10
-175.4336094595282
 20
32.71973116665107
 30
0.0
  0
VERTEX
  5
11EF0
  8
01
  6
CONTINUOUS
 10
-175.4230318560139
 20
32.74510183665343
 30
0.0
  0
VERTEX
  5
11EF1
  8
01
  6
CONTINUOUS
 10
-175.4126711931195
 20
32.77039457853393
 30
0.0
  0
VERTEX
  5
11EF2
  8
01
  6
CONTINUOUS
 10
-175.4025331891001
 20
32.79560602624455
 30
0.0
  0
VERTEX
  5
11EF3
  8
01
  6
CONTINUOUS
 10
-175.3926235622111
 20
32.82073281373724
 30
0.0
  0
VERTEX
  5
11EF4
  8
01
  6
CONTINUOUS
 10
-175.3829480307076
 20
32.84577157496399
 30
0.0
  0
VERTEX
  5
11EF5
  8
01
  6
CONTINUOUS
 10
-175.3735123128446
 20
32.87071894387675
 30
0.0
  0
VERTEX
  5
11EF6
  8
01
  6
CONTINUOUS
 10
-175.3643220709575
 20
32.89557155732557
 30
0.0
  0
VERTEX
  5
11EF7
  8
01
  6
CONTINUOUS
 10
-175.3553809689296
 20
32.92032615573117
 30
0.0
  0
VERTEX
  5
11EF8
  8
01
  6
CONTINUOUS
 10
-175.3466901717522
 20
32.94497960902042
 30
0.0
  0
VERTEX
  5
11EF9
  8
01
  6
CONTINUOUS
 10
-175.338250686839
 20
32.96952879528676
 30
0.0
  0
VERTEX
  5
11EFA
  8
01
  6
CONTINUOUS
 10
-175.3300635216036
 20
32.99397059262362
 30
0.0
  0
VERTEX
  5
11EFB
  8
01
  6
CONTINUOUS
 10
-175.3221296834597
 20
33.01830187912443
 30
0.0
  0
VERTEX
  5
11EFC
  8
01
  6
CONTINUOUS
 10
-175.3144501798209
 20
33.04251953288261
 30
0.0
  0
VERTEX
  5
11EFD
  8
01
  6
CONTINUOUS
 10
-175.3070260181009
 20
33.06662043199161
 30
0.0
  0
VERTEX
  5
11EFE
  8
01
  6
CONTINUOUS
 10
-175.2998582060567
 20
33.09060145496246
 30
0.0
  0
VERTEX
  5
11EFF
  8
01
  6
CONTINUOUS
 10
-175.2929478176429
 20
33.11445956076729
 30
0.0
  0
VERTEX
  5
11F00
  8
01
  6
CONTINUOUS
 10
-175.2862960713715
 20
33.13819188408487
 30
0.0
  0
VERTEX
  5
11F01
  8
01
  6
CONTINUOUS
 10
-175.2799042048374
 20
33.16179558278842
 30
0.0
  0
VERTEX
  5
11F02
  8
01
  6
CONTINUOUS
 10
-175.2737734556354
 20
33.18526781475115
 30
0.0
  0
VERTEX
  5
11F03
  8
01
  6
CONTINUOUS
 10
-175.2679050613601
 20
33.20860573784626
 30
0.0
  0
VERTEX
  5
11F04
  8
01
  6
CONTINUOUS
 10
-175.2623002596064
 20
33.23180650994693
 30
0.0
  0
VERTEX
  5
11F05
  8
01
  6
CONTINUOUS
 10
-175.2569602879691
 20
33.25486728892639
 30
0.0
  0
VERTEX
  5
11F06
  8
01
  6
CONTINUOUS
 10
-175.2518863840428
 20
33.27778523265783
 30
0.0
  0
VERTEX
  5
11F07
  8
01
  6
CONTINUOUS
 10
-175.2470797927937
 20
33.30055747197447
 30
0.0
  0
VERTEX
  5
11F08
  8
01
  6
CONTINUOUS
 10
-175.2425418192569
 20
33.32318091735709
 30
0.0
  0
VERTEX
  5
11F09
  8
01
  6
CONTINUOUS
 10
-175.2382737977458
 20
33.3456523718854
 30
0.0
  0
VERTEX
  5
11F0A
  8
01
  6
CONTINUOUS
 10
-175.2342770627703
 20
33.36796863791724
 30
0.0
  0
VERTEX
  5
11F0B
  8
01
  6
CONTINUOUS
 10
-175.2305529488405
 20
33.39012651781043
 30
0.0
  0
VERTEX
  5
11F0C
  8
01
  6
CONTINUOUS
 10
-175.2271027904666
 20
33.41212281392281
 30
0.0
  0
VERTEX
  5
11F0D
  8
01
  6
CONTINUOUS
 10
-175.2239279221587
 20
33.43395432861219
 30
0.0
  0
VERTEX
  5
11F0E
  8
01
  6
CONTINUOUS
 10
-175.2210296784267
 20
33.45561786423643
 30
0.0
  0
VERTEX
  5
11F0F
  8
01
  6
CONTINUOUS
 10
-175.2184093847648
 20
33.47711022966257
 30
0.0
  0
VERTEX
  5
11F10
  8
01
  6
CONTINUOUS
 10
-175.2160678229055
 20
33.49842862633521
 30
0.0
  0
VERTEX
  5
11F11
  8
01
  6
CONTINUOUS
 10
-175.2140049301356
 20
33.51957086536024
 30
0.0
  0
VERTEX
  5
11F12
  8
01
  6
CONTINUOUS
 10
-175.2122205709123
 20
33.54053481042403
 30
0.0
  0
VERTEX
  5
11F13
  8
01
  6
CONTINUOUS
 10
-175.2107146096929
 20
33.56131832521299
 30
0.0
  0
VERTEX
  5
11F14
  8
01
  6
CONTINUOUS
 10
-175.2094869109345
 20
33.58191927341351
 30
0.0
  0
VERTEX
  5
11F15
  8
01
  6
CONTINUOUS
 10
-175.2085373390945
 20
33.60233551871198
 30
0.0
  0
VERTEX
  5
11F16
  8
01
  6
CONTINUOUS
 10
-175.20786575863
 20
33.62256492479481
 30
0.0
  0
VERTEX
  5
11F17
  8
01
  6
CONTINUOUS
 10
-175.2074720341164
 20
33.64260535525008
 30
0.0
  0
VERTEX
  5
11F18
  8
01
  6
CONTINUOUS
 10
-175.2073561290863
 20
33.66245459132223
 30
0.0
  0
VERTEX
  5
11F19
  8
01
  6
CONTINUOUS
 10
-175.2075182857063
 20
33.68211018240106
 30
0.0
  0
VERTEX
  5
11F1A
  8
01
  6
CONTINUOUS
 10
-175.2079587948272
 20
33.70156963736537
 30
0.0
  0
VERTEX
  5
11F1B
  8
01
  6
CONTINUOUS
 10
-175.2086779473
 20
33.72083046509397
 30
0.0
  0
VERTEX
  5
11F1C
  8
01
  6
CONTINUOUS
 10
-175.2096760339755
 20
33.73989017446566
 30
0.0
  0
VERTEX
  5
11F1D
  8
01
  6
CONTINUOUS
 10
-175.2109533457048
 20
33.75874627435928
 30
0.0
  0
VERTEX
  5
11F1E
  8
01
  6
CONTINUOUS
 10
-175.2125101733387
 20
33.7773962736536
 30
0.0
  0
VERTEX
  5
11F1F
  8
01
  6
CONTINUOUS
 10
-175.2143468077282
 20
33.79583768122745
 30
0.0
  0
VERTEX
  5
11F20
  8
01
  6
CONTINUOUS
 10
-175.2164633480647
 20
33.81406818717827
 30
0.0
  0
VERTEX
  5
11F21
  8
01
  6
CONTINUOUS
 10
-175.2188588699908
 20
33.83208644939413
 30
0.0
  0
VERTEX
  5
11F22
  8
01
  6
CONTINUOUS
 10
-175.221532108858
 20
33.84989144751663
 30
0.0
  0
VERTEX
  5
11F23
  8
01
  6
CONTINUOUS
 10
-175.2244817997893
 20
33.86748216140314
 30
0.0
  0
VERTEX
  5
11F24
  8
01
  6
CONTINUOUS
 10
-175.2277066779079
 20
33.88485757091103
 30
0.0
  0
VERTEX
  5
11F25
  8
01
  6
CONTINUOUS
 10
-175.2312054783372
 20
33.90201665589766
 30
0.0
  0
VERTEX
  5
11F26
  8
01
  6
CONTINUOUS
 10
-175.2349769362002
 20
33.9189583962204
 30
0.0
  0
VERTEX
  5
11F27
  8
01
  6
CONTINUOUS
 10
-175.2390197866202
 20
33.93568177173663
 30
0.0
  0
VERTEX
  5
11F28
  8
01
  6
CONTINUOUS
 10
-175.2433327698742
 20
33.95218575923116
 30
0.0
  0
VERTEX
  5
11F29
  8
01
  6
CONTINUOUS
 10
-175.2479147964049
 20
33.96846923404118
 30
0.0
  0
VERTEX
  5
11F2A
  8
01
  6
CONTINUOUS
 10
-175.2527649816724
 20
33.98453094927851
 30
0.0
  0
VERTEX
  5
11F2B
  8
01
  6
CONTINUOUS
 10
-175.2578824533373
 20
34.00036965078158
 30
0.0
  0
VERTEX
  5
11F2C
  8
01
  6
CONTINUOUS
 10
-175.2632663390601
 20
34.01598408438877
 30
0.0
  0
VERTEX
  5
11F2D
  8
01
  6
CONTINUOUS
 10
-175.2689157665013
 20
34.03137299593851
 30
0.0
  0
VERTEX
  5
11F2E
  8
01
  6
CONTINUOUS
 10
-175.2748298633215
 20
34.04653513126922
 30
0.0
  0
VERTEX
  5
11F2F
  8
01
  6
CONTINUOUS
 10
-175.281007757181
 20
34.06146923621929
 30
0.0
  0
VERTEX
  5
11F30
  8
01
  6
CONTINUOUS
 10
-175.2874485757403
 20
34.07617405662714
 30
0.0
  0
VERTEX
  5
11F31
  8
01
  6
CONTINUOUS
 10
-175.2941512794598
 20
34.0906485490105
 30
0.0
  0
VERTEX
  5
11F32
  8
01
  6
CONTINUOUS
 10
-175.301114058463
 20
34.10489264054296
 30
0.0
  0
VERTEX
  5
11F33
  8
01
  6
CONTINUOUS
 10
-175.3083348811662
 20
34.11890653775831
 30
0.0
  0
VERTEX
  5
11F34
  8
01
  6
CONTINUOUS
 10
-175.3158117159658
 20
34.1326904472157
 30
0.0
  0
VERTEX
  5
11F35
  8
01
  6
CONTINUOUS
 10
-175.3235425312582
 20
34.14624457547428
 30
0.0
  0
VERTEX
  5
11F36
  8
01
  6
CONTINUOUS
 10
-175.3315252954395
 20
34.15956912909322
 30
0.0
  0
VERTEX
  5
11F37
  8
01
  6
CONTINUOUS
 10
-175.3397579769062
 20
34.17266431463165
 30
0.0
  0
VERTEX
  5
11F38
  8
01
  6
CONTINUOUS
 10
-175.3482385440667
 20
34.18553033864117
 30
0.0
  0
VERTEX
  5
11F39
  8
01
  6
CONTINUOUS
 10
-175.3569650561176
 20
34.19816735140378
 30
0.0
  0
VERTEX
  5
11F3A
  8
01
  6
CONTINUOUS
 10
-175.3659358812586
 20
34.21057531168454
 30
0.0
  0
VERTEX
  5
11F3B
  8
01
  6
CONTINUOUS
 10
-175.3751494533704
 20
34.22275413753979
 30
0.0
  0
VERTEX
  5
11F3C
  8
01
  6
CONTINUOUS
 10
-175.3846042063341
 20
34.23470374702589
 30
0.0
  0
VERTEX
  5
11F3D
  8
01
  6
CONTINUOUS
 10
-175.3942985740305
 20
34.24642405819923
 30
0.0
  0
VERTEX
  5
11F3E
  8
01
  6
CONTINUOUS
 10
-175.4042309903407
 20
34.25791498911617
 30
0.0
  0
VERTEX
  5
11F3F
  8
01
  6
CONTINUOUS
 10
-175.4143998891455
 20
34.26917645783305
 30
0.0
  0
VERTEX
  5
11F40
  8
01
  6
CONTINUOUS
 10
-175.4248037039165
 20
34.28020838307948
 30
0.0
  0
VERTEX
  5
11F41
  8
01
  6
CONTINUOUS
 10
-175.4354406992506
 20
34.29101096125816
 30
0.0
  0
VERTEX
  5
11F42
  8
01
  6
CONTINUOUS
 10
-175.4463087113009
 20
34.30158509324468
 30
0.0
  0
VERTEX
  5
11F43
  8
01
  6
CONTINUOUS
 10
-175.4574055092914
 20
34.31193178996296
 30
0.0
  0
VERTEX
  5
11F44
  8
01
  6
CONTINUOUS
 10
-175.4687288624459
 20
34.32205206233692
 30
0.0
  0
VERTEX
  5
11F45
  8
01
  6
CONTINUOUS
 10
-175.4802765399887
 20
34.33194692129043
 30
0.0
  0
VERTEX
  5
11F46
  8
01
  6
CONTINUOUS
 10
-175.4920463111437
 20
34.34161737774743
 30
0.0
  0
VERTEX
  5
11F47
  8
01
  6
CONTINUOUS
 10
-175.5040359451349
 20
34.35106444263182
 30
0.0
  0
VERTEX
  5
11F48
  8
01
  6
CONTINUOUS
 10
-175.5162432112155
 20
34.36028912685707
 30
0.0
  0
VERTEX
  5
11F49
  8
01
  6
CONTINUOUS
 10
-175.5286659857323
 20
34.36929240288318
 30
0.0
  0
VERTEX
  5
11F4A
  8
01
  6
CONTINUOUS
 10
-175.5413024934862
 20
34.37807511805328
 30
0.0
  0
VERTEX
  5
11F4B
  8
01
  6
CONTINUOUS
 10
-175.5541510300277
 20
34.38663809430686
 30
0.0
  0
VERTEX
  5
11F4C
  8
01
  6
CONTINUOUS
 10
-175.5672098909073
 20
34.3949821535834
 30
0.0
  0
VERTEX
  5
11F4D
  8
01
  6
CONTINUOUS
 10
-175.5804773716757
 20
34.40310811782239
 30
0.0
  0
VERTEX
  5
11F4E
  8
01
  6
CONTINUOUS
 10
-175.5939517678832
 20
34.41101680896332
 30
0.0
  0
VERTEX
  5
11F4F
  8
01
  6
CONTINUOUS
 10
-175.6076313750805
 20
34.41870904894569
 30
0.0
  0
VERTEX
  5
11F50
  8
01
  6
CONTINUOUS
 10
-175.6215144888181
 20
34.42618565970897
 30
0.0
  0
VERTEX
  5
11F51
  8
01
  6
CONTINUOUS
 10
-175.6355993514948
 20
34.43344756893649
 30
0.0
  0
VERTEX
  5
11F52
  8
01
  6
CONTINUOUS
 10
-175.649883981754
 20
34.44049614946734
 30
0.0
  0
VERTEX
  5
11F53
  8
01
  6
CONTINUOUS
 10
-175.6643663393679
 20
34.44733289126243
 30
0.0
  0
VERTEX
  5
11F54
  8
01
  6
CONTINUOUS
 10
-175.6790443841089
 20
34.45395928428319
 30
0.0
  0
VERTEX
  5
11F55
  8
01
  6
CONTINUOUS
 10
-175.693916075749
 20
34.46037681849106
 30
0.0
  0
VERTEX
  5
11F56
  8
01
  6
CONTINUOUS
 10
-175.7089793740605
 20
34.4665869838475
 30
0.0
  0
VERTEX
  5
11F57
  8
01
  6
CONTINUOUS
 10
-175.7242322388156
 20
34.47259127031394
 30
0.0
  0
VERTEX
  5
11F58
  8
01
  6
CONTINUOUS
 10
-175.7396726297865
 20
34.47839116785183
 30
0.0
  0
VERTEX
  5
11F59
  8
01
  6
CONTINUOUS
 10
-175.7552985067452
 20
34.48398816642261
 30
0.0
  0
VERTEX
  5
11F5A
  8
01
  6
CONTINUOUS
 10
-175.7711078294641
 20
34.48938375598772
 30
0.0
  0
VERTEX
  5
11F5B
  8
01
  6
CONTINUOUS
 10
-175.7870985581345
 20
34.4945794264226
 30
0.0
  0
VERTEX
  5
11F5C
  8
01
  6
CONTINUOUS
 10
-175.8032687860128
 20
34.49957664030541
 30
0.0
  0
VERTEX
  5
11F5D
  8
01
  6
CONTINUOUS
 10
-175.819616928604
 20
34.50437679410729
 30
0.0
  0
VERTEX
  5
11F5E
  8
01
  6
CONTINUOUS
 10
-175.8361414492382
 20
34.50898127448844
 30
0.0
  0
VERTEX
  5
11F5F
  8
01
  6
CONTINUOUS
 10
-175.8528408112457
 20
34.51339146810906
 30
0.0
  0
VERTEX
  5
11F60
  8
01
  6
CONTINUOUS
 10
-175.8697134779566
 20
34.51760876162934
 30
0.0
  0
VERTEX
  5
11F61
  8
01
  6
CONTINUOUS
 10
-175.886757912701
 20
34.52163454170947
 30
0.0
  0
VERTEX
  5
11F62
  8
01
  6
CONTINUOUS
 10
-175.9039725788091
 20
34.52547019500964
 30
0.0
  0
VERTEX
  5
11F63
  8
01
  6
CONTINUOUS
 10
-175.9213559396112
 20
34.52911710819005
 30
0.0
  0
VERTEX
  5
11F64
  8
01
  6
CONTINUOUS
 10
-175.9389064584373
 20
34.53257666791088
 30
0.0
  0
VERTEX
  5
11F65
  8
01
  6
CONTINUOUS
 10
-175.9566225986175
 20
34.53585026083234
 30
0.0
  0
VERTEX
  5
11F66
  8
01
  6
CONTINUOUS
 10
-175.9745028247307
 20
34.53893927652986
 30
0.0
  0
VERTEX
  5
11F67
  8
01
  6
CONTINUOUS
 10
-175.9925456649191
 20
34.54184525300125
 30
0.0
  0
VERTEX
  5
11F68
  8
01
  6
CONTINUOUS
 10
-176.0107497398261
 20
34.54456994423553
 30
0.0
  0
VERTEX
  5
11F69
  8
01
  6
CONTINUOUS
 10
-176.0291136773877
 20
34.54711512124992
 30
0.0
  0
VERTEX
  5
11F6A
  8
01
  6
CONTINUOUS
 10
-176.0476361055396
 20
34.54948255506158
 30
0.0
  0
VERTEX
  5
11F6B
  8
01
  6
CONTINUOUS
 10
-176.0663156522178
 20
34.55167401668772
 30
0.0
  0
VERTEX
  5
11F6C
  8
01
  6
CONTINUOUS
 10
-176.085150945358
 20
34.55369127714554
 30
0.0
  0
VERTEX
  5
11F6D
  8
01
  6
CONTINUOUS
 10
-176.1041406128964
 20
34.55553610745221
 30
0.0
  0
VERTEX
  5
11F6E
  8
01
  6
CONTINUOUS
 10
-176.1232832827686
 20
34.55721027862494
 30
0.0
  0
VERTEX
  5
11F6F
  8
01
  6
CONTINUOUS
 10
-176.1425775829105
 20
34.5587155616809
 30
0.0
  0
VERTEX
  5
11F70
  8
01
  6
CONTINUOUS
 10
-176.1620221412582
 20
34.5600537276373
 30
0.0
  0
VERTEX
  5
11F71
  8
01
  6
CONTINUOUS
 10
-176.1816155862883
 20
34.5612265473151
 30
0.0
  0
VERTEX
  5
11F72
  8
01
  6
CONTINUOUS
 10
-176.2013566226766
 20
34.56223576389479
 30
0.0
  0
VERTEX
  5
11F73
  8
01
  6
CONTINUOUS
 10
-176.2212441092528
 20
34.56308306463878
 30
0.0
  0
VERTEX
  5
11F74
  8
01
  6
CONTINUOUS
 10
-176.24127692345
 20
34.56377013006134
 30
0.0
  0
VERTEX
  5
11F75
  8
01
  6
CONTINUOUS
 10
-176.2614539427008
 20
34.56429864067678
 30
0.0
  0
VERTEX
  5
11F76
  8
01
  6
CONTINUOUS
 10
-176.2817740444384
 20
34.56467027699939
 30
0.0
  0
VERTEX
  5
11F77
  8
01
  6
CONTINUOUS
 10
-176.3022361060955
 20
34.56488671954345
 30
0.0
  0
VERTEX
  5
11F78
  8
01
  6
CONTINUOUS
 10
-176.322839005105
 20
34.56494964882327
 30
0.0
  0
VERTEX
  5
11F79
  8
01
  6
CONTINUOUS
 10
-176.3435816188999
 20
34.56486074535312
 30
0.0
  0
VERTEX
  5
11F7A
  8
01
  6
CONTINUOUS
 10
-176.3644628249131
 20
34.5646216896473
 30
0.0
  0
VERTEX
  5
11F7B
  8
01
  6
CONTINUOUS
 10
-176.3854815005774
 20
34.56423416222012
 30
0.0
  0
VERTEX
  5
11F7C
  8
01
  6
CONTINUOUS
 10
-176.4066365235309
 20
34.56369984358091
 30
0.0
  0
VERTEX
  5
11F7D
  8
01
  6
CONTINUOUS
 10
-176.4279269715737
 20
34.56302040941059
 30
0.0
  0
VERTEX
  5
11F7E
  8
01
  6
CONTINUOUS
 10
-176.4493524968403
 20
34.56219752153565
 30
0.0
  0
VERTEX
  5
11F7F
  8
01
  6
CONTINUOUS
 10
-176.4709128538351
 20
34.56123283931318
 30
0.0
  0
VERTEX
  5
11F80
  8
01
  6
CONTINUOUS
 10
-176.4926077970626
 20
34.56012802210023
 30
0.0
  0
VERTEX
  5
11F81
  8
01
  6
CONTINUOUS
 10
-176.5144370810269
 20
34.5588847292539
 30
0.0
  0
VERTEX
  5
11F82
  8
01
  6
CONTINUOUS
 10
-176.5364004602327
 20
34.55750462013124
 30
0.0
  0
VERTEX
  5
11F83
  8
01
  6
CONTINUOUS
 10
-176.5584976891842
 20
34.55598935408934
 30
0.0
  0
VERTEX
  5
11F84
  8
01
  6
CONTINUOUS
 10
-176.5807285218106
 20
34.55434059083104
 30
0.0
  0
VERTEX
  5
11F85
  8
01
  6
CONTINUOUS
 10
-176.6030922968141
 20
34.55256023966979
 30
0.0
  0
VERTEX
  5
11F86
  8
01
  6
CONTINUOUS
 10
-176.6255872063926
 20
34.55065089913122
 30
0.0
  0
VERTEX
  5
11F87
  8
01
  6
CONTINUOUS
 10
-176.6482112465347
 20
34.54861528569067
 30
0.0
  0
VERTEX
  5
11F88
  8
01
  6
CONTINUOUS
 10
-176.6709624132292
 20
34.54645611582347
 30
0.0
  0
VERTEX
  5
11F89
  8
01
  6
CONTINUOUS
 10
-176.6938387024648
 20
34.54417610600498
 30
0.0
  0
VERTEX
  5
11F8A
  8
01
  6
CONTINUOUS
 10
-176.7168381102302
 20
34.54177797271055
 30
0.0
  0
VERTEX
  5
11F8B
  8
01
  6
CONTINUOUS
 10
-176.739958632514
 20
34.53926443241549
 30
0.0
  0
VERTEX
  5
11F8C
  8
01
  6
CONTINUOUS
 10
-176.763198268473
 20
34.53663819977747
 30
0.0
  0
VERTEX
  5
11F8D
  8
01
  6
CONTINUOUS
 10
-176.7865567693727
 20
34.5339009841574
 30
0.0
  0
VERTEX
  5
11F8E
  8
01
  6
CONTINUOUS
 10
-176.8100385440593
 20
34.53105182256507
 30
0.0
  0
VERTEX
  5
11F8F
  8
01
  6
CONTINUOUS
 10
-176.8336487667265
 20
34.52808931288139
 30
0.0
  0
VERTEX
  5
11F90
  8
01
  6
CONTINUOUS
 10
-176.8573926115682
 20
34.52501205298722
 30
0.0
  0
VERTEX
  5
11F91
  8
01
  6
CONTINUOUS
 10
-176.8812752527782
 20
34.52181864076346
 30
0.0
  0
VERTEX
  5
11F92
  8
01
  6
CONTINUOUS
 10
-176.9053018645504
 20
34.51850767409098
 30
0.0
  0
VERTEX
  5
11F93
  8
01
  6
CONTINUOUS
 10
-176.9294776210787
 20
34.51507775085065
 30
0.0
  0
VERTEX
  5
11F94
  8
01
  6
CONTINUOUS
 10
-176.9538076951868
 20
34.51152746983034
 30
0.0
  0
VERTEX
  5
11F95
  8
01
  6
CONTINUOUS
 10
-176.9782921946612
 20
34.50785878263967
 30
0.0
  0
VERTEX
  5
11F96
  8
01
  6
CONTINUOUS
 10
-177.0029147449572
 20
34.50408455143411
 30
0.0
  0
VERTEX
  5
11F97
  8
01
  6
CONTINUOUS
 10
-177.0276556245288
 20
34.50021985393009
 30
0.0
  0
VERTEX
  5
11F98
  8
01
  6
CONTINUOUS
 10
-177.0524951118302
 20
34.49627976784402
 30
0.0
  0
VERTEX
  5
11F99
  8
01
  6
CONTINUOUS
 10
-177.0774134853152
 20
34.49227937089231
 30
0.0
  0
VERTEX
  5
11F9A
  8
01
  6
CONTINUOUS
 10
-177.1023910234381
 20
34.48823374079136
 30
0.0
  0
VERTEX
  5
11F9B
  8
01
  6
CONTINUOUS
 10
-177.1274080046529
 20
34.48415795525759
 30
0.0
  0
VERTEX
  5
11F9C
  8
01
  6
CONTINUOUS
 10
-177.1524447074136
 20
34.4800670920074
 30
0.0
  0
SEQEND
  5
1213C
  8
01
  6
CONTINUOUS
  0
ARC
  5
112AE
  8
01
  6
CONTINUOUS
 10
-211.9920324275594
 20
31.5735725890068
 30
0.0
 40
3.025329380549175
 50
28.17302678050657
 51
73.88778684510797
  0
ARC
  5
112AF
  8
01
  6
CONTINUOUS
 10
-214.9390388446256
 20
31.59357505517949
 30
0.0
 40
3.001575673130454
 50
105.9172206860993
 51
151.9860825083798
  0
ARC
  5
112B0
  8
01
  6
CONTINUOUS
 10
-177.9756418066345
 20
31.59355009380619
 30
0.0
 40
3.001605211394515
 50
28.01415722624586
 51
74.08253957927299
  0
ARC
  5
112B1
  8
01
  6
CONTINUOUS
 10
-180.9226355524398
 20
31.57357956703095
 30
0.0
 40
3.025321110147527
 50
106.1121471286029
 51
151.8270392457816
  0
LINE
  5
112B2
  8
01
  6
CONTINUOUS
 10
-137.45733081009
 20
-46.79012472646832
 30
0.0
 11
-137.45733081009
 21
-27.86771242412328
 31
0.0
  0
LINE
  5
112B3
  8
01
  6
CONTINUOUS
 10
-128.4573311975201
 20
-27.86771242412328
 30
0.0
 11
-128.4573311975201
 21
-46.79012472646832
 31
0.0
  0
LINE
  5
112B4
  8
01
  6
CONTINUOUS
 10
-137.45733081009
 20
-27.86771242412328
 30
0.0
 11
-137.45733081009
 21
-14.90488496514558
 31
0.0
  0
LINE
  5
112B5
  8
01
  6
CONTINUOUS
 10
-128.4573311975201
 20
-14.90488496514558
 30
0.0
 11
-128.4573311975201
 21
-27.86771242412328
 31
0.0
  0
LINE
  5
112B6
  8
01
  6
CONTINUOUS
 10
-121.9573310634097
 20
-27.74322486388087
 30
0.0
 11
-121.9573310634097
 21
-42.16030041592717
 31
0.0
  0
LINE
  5
112B7
  8
01
  6
CONTINUOUS
 10
-270.9573349973163
 20
-42.16030041592717
 30
0.0
 11
-270.9573349973163
 21
-27.74322486388087
 31
0.0
  0
LINE
  5
112B8
  8
01
  6
CONTINUOUS
 10
-270.9573349973163
 20
-27.74322486388087
 30
0.0
 11
-270.9573349973163
 21
-25.67834953683018
 31
0.0
  0
LINE
  5
112B9
  8
01
  6
CONTINUOUS
 10
-121.9573310634097
 20
-25.67834953683018
 30
0.0
 11
-121.9573310634097
 21
-27.74322486388087
 31
0.0
  0
LINE
  5
112BA
  8
01
  6
CONTINUOUS
 10
-138.4573309740027
 20
30.50519724470973
 30
0.0
 11
-138.4573309740027
 21
27.71974180919528
 31
0.0
  0
LINE
  5
112BB
  8
01
  6
CONTINUOUS
 10
-254.4573313614329
 20
27.71974180919528
 30
0.0
 11
-254.4573313614329
 21
30.50519724470973
 31
0.0
  0
LINE
  5
112BC
  8
01
  6
CONTINUOUS
 10
-138.4573309740027
 20
27.71974180919528
 30
0.0
 11
-138.4573309740027
 21
-42.5466558607161
 31
0.0
  0
LINE
  5
112BD
  8
01
  6
CONTINUOUS
 10
-254.4573313614329
 20
27.71974180919528
 30
0.0
 11
-254.4573313614329
 21
-42.5466558607161
 31
0.0
  0
LINE
  5
112BE
  8
01
  6
CONTINUOUS
 10
-247.8573313971957
 20
32.22592746002078
 30
0.0
 11
-247.8573313971957
 21
39.85449497682453
 31
0.0
  0
LINE
  5
112BF
  8
01
  6
CONTINUOUS
 10
-222.8573328873118
 20
39.85449497682453
 30
0.0
 11
-222.8573328873118
 21
32.22592746002078
 31
0.0
  0
LINE
  5
112C0
  8
01
  6
CONTINUOUS
 10
-222.8573328873118
 20
32.22592746002078
 30
0.0
 11
-170.057331310769
 21
32.22592746002078
 31
0.0
  0
LINE
  5
112C1
  8
01
  6
CONTINUOUS
 10
-170.057331310769
 20
32.22592746002078
 30
0.0
 11
-170.057331310769
 21
39.85449497682453
 31
0.0
  0
LINE
  5
112C2
  8
01
  6
CONTINUOUS
 10
-145.0573318695625
 20
39.85449497682453
 30
0.0
 11
-145.0573318695625
 21
32.22592746002078
 31
0.0
  0
LINE
  5
112C3
  8
01
  6
CONTINUOUS
 10
-145.0573318695625
 20
32.22592746002078
 30
0.0
 11
-140.4573313018283
 21
32.22592746002078
 31
0.0
  0
LINE
  5
112C6
  8
01
  6
CONTINUOUS
 10
-252.4573347588977
 20
32.22592746002078
 30
0.0
 11
-247.8573313971957
 21
32.22592746002078
 31
0.0
  0
LINE
  5
112C7
  8
01
  6
CONTINUOUS
 10
-138.4573309740027
 20
30.50519724470973
 30
0.0
 11
-138.4573309740027
 21
31.07877274138332
 31
0.0
  0
LINE
  5
112C8
  8
01
  6
CONTINUOUS
 10
-254.4573313614329
 20
30.50519724470973
 30
0.0
 11
-254.4573313614329
 21
31.07877274138332
 31
0.0
  0
LINE
  5
112C9
  8
01
  6
CONTINUOUS
 10
-145.0573318695625
 20
40.21619086248279
 30
0.0
 11
-145.0573318695625
 21
39.85449497682453
 31
0.0
  0
LINE
  5
112CA
  8
01
  6
CONTINUOUS
 10
-170.057331310769
 20
39.85449497682453
 30
0.0
 11
-170.057331310769
 21
40.21619086248279
 31
0.0
  0
LINE
  5
112CB
  8
01
  6
CONTINUOUS
 10
-222.8573328873118
 20
40.21619086248279
 30
0.0
 11
-222.8573328873118
 21
39.85449497682453
 31
0.0
  0
LINE
  5
112CC
  8
01
  6
CONTINUOUS
 10
-247.8573313971957
 20
39.85449497682453
 30
0.0
 11
-247.8573313971957
 21
40.21619086248279
 31
0.0
  0
LINE
  5
112CD
  8
01
  6
CONTINUOUS
 10
-138.4573309740027
 20
-43.39950333254933
 30
0.0
 11
-254.4573313614329
 21
-43.39950333254933
 31
0.0
  0
LINE
  5
112CE
  8
01
  6
CONTINUOUS
 10
-138.4573309740027
 20
-42.5466558607161
 30
0.0
 11
-138.4573309740027
 21
-43.39950333254933
 31
0.0
  0
LINE
  5
112CF
  8
01
  6
CONTINUOUS
 10
-254.4573313614329
 20
-43.39950333254933
 30
0.0
 11
-254.4573313614329
 21
-42.5466558607161
 31
0.0
  0
LINE
  5
112D0
  8
01
  6
CONTINUOUS
 10
-221.707328321596
 20
32.22592746002078
 30
0.0
 11
-221.707328321596
 21
33.08629070503116
 31
0.0
  0
LINE
  5
112D1
  8
01
  6
CONTINUOUS
 10
-222.707330348154
 20
32.22592746002078
 30
0.0
 11
-222.707330348154
 21
33.08629070503116
 31
0.0
  0
LINE
  5
112D2
  8
01
  6
CONTINUOUS
 10
-249.0073285123309
 20
32.22592746002078
 30
0.0
 11
-249.0073285123309
 21
33.08629070503116
 31
0.0
  0
LINE
  5
112D3
  8
01
  6
CONTINUOUS
 10
-248.0073339363536
 20
32.22592746002078
 30
0.0
 11
-248.0073339363536
 21
33.08629070503116
 31
0.0
  0
LINE
  5
112D4
  8
01
  6
CONTINUOUS
 10
-249.0073285123309
 20
33.08629070503116
 30
0.0
 11
-249.0073285123309
 21
40.31335760933757
 31
0.0
  0
LINE
  5
112D5
  8
01
  6
CONTINUOUS
 10
-248.0073339363536
 20
33.08629070503116
 30
0.0
 11
-248.0073339363536
 21
40.31335760933757
 31
0.0
  0
LINE
  5
112D6
  8
01
  6
CONTINUOUS
 10
-221.707328321596
 20
33.08629070503116
 30
0.0
 11
-221.707328321596
 21
40.31335760933757
 31
0.0
  0
LINE
  5
112D7
  8
01
  6
CONTINUOUS
 10
-222.707330348154
 20
33.08629070503116
 30
0.0
 11
-222.707330348154
 21
40.31335760933757
 31
0.0
  0
LINE
  5
112D8
  8
01
  6
CONTINUOUS
 10
-221.707328321596
 20
40.31335760933757
 30
0.0
 11
-221.707328321596
 21
40.53037067038417
 31
0.0
  0
LINE
  5
112D9
  8
01
  6
CONTINUOUS
 10
-222.707330348154
 20
40.31335760933757
 30
0.0
 11
-222.707330348154
 21
40.53037067038417
 31
0.0
  0
LINE
  5
112DA
  8
01
  6
CONTINUOUS
 10
-249.0073285123309
 20
40.31335760933757
 30
0.0
 11
-249.0073285123309
 21
40.53037067038417
 31
0.0
  0
LINE
  5
112DB
  8
01
  6
CONTINUOUS
 10
-248.0073339363536
 20
40.31335760933757
 30
0.0
 11
-248.0073339363536
 21
40.53037067038417
 31
0.0
  0
LINE
  5
112DC
  8
01
  6
CONTINUOUS
 10
-143.907331029137
 20
32.22592746002078
 30
0.0
 11
-143.907331029137
 21
33.08629070503116
 31
0.0
  0
LINE
  5
112DD
  8
01
  6
CONTINUOUS
 10
-144.9073311930498
 20
32.22592746002078
 30
0.0
 11
-144.9073311930498
 21
33.08629070503116
 31
0.0
  0
LINE
  5
112DE
  8
01
  6
CONTINUOUS
 10
-170.2073310559591
 20
32.22592746002078
 30
0.0
 11
-170.2073310559591
 21
33.08629070503116
 31
0.0
  0
LINE
  5
112DF
  8
01
  6
CONTINUOUS
 10
-171.2073321511945
 20
32.22592746002078
 30
0.0
 11
-171.2073321511945
 21
33.08629070503116
 31
0.0
  0
LINE
  5
112E0
  8
01
  6
CONTINUOUS
 10
-143.907331029137
 20
33.08629070503116
 30
0.0
 11
-143.907331029137
 21
40.31335760933757
 31
0.0
  0
LINE
  5
112E1
  8
01
  6
CONTINUOUS
 10
-144.9073311930498
 20
33.08629070503116
 30
0.0
 11
-144.9073311930498
 21
40.31335760933757
 31
0.0
  0
LINE
  5
112E2
  8
01
  6
CONTINUOUS
 10
-170.2073310559591
 20
33.08629070503116
 30
0.0
 11
-170.2073310559591
 21
40.31335760933757
 31
0.0
  0
LINE
  5
112E3
  8
01
  6
CONTINUOUS
 10
-171.2073321511945
 20
33.08629070503116
 30
0.0
 11
-171.2073321511945
 21
40.31335760933757
 31
0.0
  0
LINE
  5
112E4
  8
01
  6
CONTINUOUS
 10
-143.907331029137
 20
40.31335760933757
 30
0.0
 11
-143.907331029137
 21
40.53037067038417
 31
0.0
  0
LINE
  5
112E5
  8
01
  6
CONTINUOUS
 10
-144.9073311930498
 20
40.31335760933757
 30
0.0
 11
-144.9073311930498
 21
40.53037067038417
 31
0.0
  0
LINE
  5
112E6
  8
01
  6
CONTINUOUS
 10
-170.2073310559591
 20
40.31335760933757
 30
0.0
 11
-170.2073310559591
 21
40.53037067038417
 31
0.0
  0
LINE
  5
112E7
  8
01
  6
CONTINUOUS
 10
-171.2073321511945
 20
40.31335760933757
 30
0.0
 11
-171.2073321511945
 21
40.53037067038417
 31
0.0
  0
LINE
  5
112E8
  8
01
  6
CONTINUOUS
 10
-221.4573315402469
 20
46.16957356316448
 30
0.0
 11
-171.4573307951888
 21
46.16957356316448
 31
0.0
  0
LINE
  5
112E9
  8
01
  6
CONTINUOUS
 10
-221.4573315402469
 20
41.16957088095546
 30
0.0
 11
-221.4573315402469
 21
46.16957356316448
 31
0.0
  0
LINE
  5
112EA
  8
01
  6
CONTINUOUS
 10
-171.4573307951888
 20
46.16957356316448
 30
0.0
 11
-171.4573307951888
 21
41.16957088095546
 31
0.0
  0
LINE
  5
112EB
  8
01
  6
CONTINUOUS
 10
-221.4573315402469
 20
34.56495900732875
 30
0.0
 11
-221.4573315402469
 21
41.16957088095546
 31
0.0
  0
LINE
  5
112EC
  8
01
  6
CONTINUOUS
 10
-171.4573307951888
 20
34.56495900732875
 30
0.0
 11
-171.4573307951888
 21
41.16957088095546
 31
0.0
  0
LINE
  5
11326
  8
01
  6
PHANTOM
 10
-137.45733081009
 20
-42.84859250205159
 30
0.0
 11
-138.4573309740027
 21
-42.84859250205159
 31
0.0
  0
LINE
  5
1132E
  8
01
  6
PHANTOM
 10
-254.4573313614329
 20
-24.69536696466207
 30
0.0
 11
-255.4573333879908
 21
-24.69536696466207
 31
0.0
  0
LINE
  5
11341
  8
01
  6
PHANTOM
 10
-247.8573313971957
 20
39.07638614160419
 30
0.0
 11
-248.0073339363536
 21
39.07638614160419
 31
0.0
  0
LINE
  5
11347
  8
01
  6
PHANTOM
 10
-170.057331310769
 20
39.07638614160419
 30
0.0
 11
-170.2073310559591
 21
39.07638614160419
 31
0.0
  0
ARC
  5
1135F
  8
01
  6
CONTINUOUS
 10
-17.53178980948323
 20
-124.754438630499
 30
0.0
 40
1.199999999999982
 50
304.9999999999977
 51
35.00000000000146
  0
LINE
  5
11360
  8
01
  6
CONTINUOUS
 10
-29.51163504849902
 20
-105.5533115686717
 30
0.0
 11
-16.54880712386003
 21
-124.0661472948136
 31
0.0
  0
ARC
  5
11368
  8
01
  6
CONTINUOUS
 10
-30.49461727101684
 20
-106.2416024295678
 30
0.0
 40
1.200000000000015
 50
34.99999999999989
 51
124.9999999999999
  0
CIRCLE
  5
11370
  8
01
  6
CONTINUOUS
 10
26.93805361452556
 20
-79.82156618899856
 30
0.0
 40
4.499999999999943
  0
LINE
  5
11372
  8
01
  6
CONTINUOUS
 10
34.32251395331952
 20
-67.76296876591502
 30
0.0
 11
34.39874884393338
 21
-68.55932818379117
 31
0.0
  0
LINE
  5
11379
  8
01
  6
CONTINUOUS
 10
34.68464145944045
 20
-71.54567410871402
 30
0.0
 11
33.68919451030732
 21
-71.64097117884694
 31
0.0
  0
LINE
  5
11383
  8
01
  6
CONTINUOUS
 10
33.68919451030732
 20
-71.64097117884694
 30
0.0
 11
33.7193799019354
 21
-71.95631395935092
 31
0.0
  0
LINE
  5
11384
  8
01
  6
CONTINUOUS
 10
34.82758614653597
 20
-73.03884615307163
 30
0.0
 11
34.68464145944045
 21
-71.54567410871402
 31
0.0
  0
LINE
  5
1138B
  8
01
  6
CONTINUOUS
 10
34.82758614653597
 20
-73.03884615307163
 30
0.0
 11
36.02833072476727
 21
-85.58150681690593
 31
0.0
  0
ARC
  5
1138C
  8
01
  6
CONTINUOUS
 10
34.83379100689384
 20
-85.69586027686663
 30
0.0
 40
1.200000000000015
 50
275.468417482329
 51
5.468417482331462
  0
LINE
  5
1138D
  8
01
  6
CONTINUOUS
 10
34.94814901139741
 20
-86.8903968745326
 30
0.0
 11
21.60913033479522
 21
-88.16738142090136
 31
0.0
  0
ARC
  5
1138E
  8
01
  6
CONTINUOUS
 10
21.49477602648602
 20
-86.97284083758719
 30
0.0
 40
1.200000000000015
 50
185.4684174823315
 51
275.4684174823319
  0
LINE
  5
1138F
  8
01
  6
CONTINUOUS
 10
20.41459444929698
 20
-88.28173559302974
 30
0.0
 11
18.98513644928521
 21
-73.35000456330721
 31
0.0
  0
LINE
  5
11391
  8
01
  6
CONTINUOUS
 10
33.32385039117399
 20
-70.9727458260167
 30
0.0
 11
18.88984121535999
 21
-72.35455437285816
 31
0.0
  0
LINE
  5
11392
  8
01
  6
CONTINUOUS
 10
18.88984121535999
 20
-72.35455437285816
 30
0.0
 11
18.98513644928521
 21
-73.35000456330721
 31
0.0
  0
LINE
  5
11393
  8
01
  6
CONTINUOUS
 10
33.4191456250992
 20
-71.96819601646575
 30
0.0
 11
33.32385039117399
 21
-70.9727458260167
 31
0.0
  0
LINE
  5
11395
  8
01
  6
CONTINUOUS
 10
32.73932345301527
 20
-68.01498717474507
 30
0.0
 11
18.9025829225046
 21
-69.33962117428413
 31
0.0
  0
ARC
  5
11396
  8
01
  6
CONTINUOUS
 10
32.7679129617615
 20
-68.31362371471388
 30
0.0
 40
0.3000000000000235
 50
5.468417482331814
 51
95.46841748234249
  0
LINE
  5
11398
  8
01
  6
CONTINUOUS
 10
33.06655012684172
 20
-68.28503281863718
 30
0.0
 11
33.32385039117399
 21
-70.9727458260167
 31
0.0
  0
LINE
  5
113A8
  8
01
  6
CONTINUOUS
 10
22.57165746186158
 20
-77.38546029942657
 30
0.0
 11
22.39099578354737
 21
-77.51196370738174
 31
0.0
  0
LINE
  5
113D1
  8
01
 10
-121.9573310634096
 20
-27.74322486388087
 30
0.0
 11
-138.4573309740027
 21
-27.74322486388087
 31
0.0
  0
LINE
  5
113D2
  8
01
 10
-254.4573313614329
 20
-27.74322486388087
 30
0.0
 11
-270.9573349973163
 21
-27.74322486388087
 31
0.0
  0
LINE
  5
113D3
  8
01
 10
-264.4550456723174
 20
29.03335926217437
 30
0.0
 11
-255.4573333879908
 21
29.03335926217437
 31
0.0
  0
LINE
  5
113D4
  8
01
 10
-254.4573313614329
 20
29.03335926217437
 30
0.0
 11
-138.4573309740027
 21
29.03335926217437
 31
0.0
  0
CIRCLE
  5
113E6
  8
01
 10
26.93805361452556
 20
-79.82156618899856
 30
0.0
 40
5.000002344276198
  0
CIRCLE
  5
113E7
  8
01
 10
26.93805440842888
 20
-79.82156366759446
 30
0.0
 40
5.100000000000007
  0
ARC
  5
11638
  8
01
 10
-269.9573311677178
 20
-130.9956865735192
 30
0.0
 40
1.0
 50
180.0
 51
270.0
  0
LINE
  5
11639
  8
01
 10
-269.9573327104155
 20
-131.995686850471
 30
0.0
 11
-122.9573328296247
 21
-131.995686850471
 31
0.0
  0
ARC
  5
1163A
  8
01
 10
-122.9573311677178
 20
-130.9956865735192
 30
0.0
 40
1.0
 50
270.0
 51
0.0
  0
LINE
  5
1163B
  8
01
 10
-263.4573334256712
 20
-139.2826005434222
 30
0.0
 11
-256.4573341409269
 21
-139.2826005434222
 31
0.0
  0
ARC
  5
1163C
  8
01
 10
-256.4573311677178
 20
-138.2826002540416
 30
0.0
 40
1.0
 50
270.0
 51
0.0
  0
LINE
  5
1163D
  8
01
 10
-136.4573313991132
 20
-139.2826005434222
 30
0.0
 11
-129.4573302517238
 21
-139.2826005434222
 31
0.0
  0
ARC
  5
1163E
  8
01
 10
-129.4573311677178
 20
-138.2826002540416
 30
0.0
 40
1.0
 50
270.0
 51
0.0
  0
ARC
  5
1163F
  8
01
 10
-136.4573311677178
 20
-138.2826002540416
 30
0.0
 40
1.0
 50
180.0
 51
270.0
  0
ARC
  5
11640
  8
01
 10
-263.4573311677178
 20
-138.2826002540416
 30
0.0
 40
1.0
 50
180.0
 51
270.0
  0
ARC
  5
11641
  8
01
 10
-269.9573311677178
 20
-117.5517939343004
 30
0.0
 40
1.0
 50
90.0
 51
180.0
  0
LINE
  5
11642
  8
01
 10
-122.9573328296247
 20
-116.551795563621
 30
0.0
 11
-128.4573319504562
 21
-116.551795563621
 31
0.0
  0
LINE
  5
11643
  8
01
 10
-137.457331563026
 20
-116.551795563621
 30
0.0
 11
-255.457332114369
 21
-116.551795563621
 31
0.0
  0
LINE
  5
11644
  8
01
 10
-264.4573280016485
 20
-116.551795563621
 30
0.0
 11
-269.9573327104155
 21
-116.551795563621
 31
0.0
  0
ARC
  5
11645
  8
01
 10
-122.9573311677178
 20
-117.5517939343004
 30
0.0
 40
1.0
 50
0.0
 51
90.0
  0
LINE
  5
11646
  8
01
 10
-129.4573302517238
 20
-104.9630581950373
 30
0.0
 11
-136.4573313991132
 21
-104.9630581950373
 31
0.0
  0
ARC
  5
11647
  8
01
 10
-136.4573311677178
 20
-105.9630569811452
 30
0.0
 40
1.0
 50
90.0
 51
180.0
  0
ARC
  5
11648
  8
01
 10
-129.4573311677178
 20
-105.9630569811452
 30
0.0
 40
1.0
 50
0.0
 51
90.0
  0
LINE
  5
1164A
  8
01
 10
-255.457332114369
 20
-84.82156466595595
 30
0.0
 11
-249.007328251988
 21
-84.82156466595595
 31
0.0
  0
LINE
  5
1164C
  8
01
 10
-254.4573310007468
 20
-74.82156675211851
 30
0.0
 11
-255.457332114369
 21
-74.82156675211851
 31
0.0
  0
LINE
  5
1164D
  8
01
 10
-256.4573341409269
 20
-65.09949784628813
 30
0.0
 11
-263.4573334256712
 21
-65.09949784628813
 31
0.0
  0
ARC
  5
1164E
  8
01
 10
-263.4573311677178
 20
-66.09949465474767
 30
0.0
 40
1.0
 50
90.0
 51
180.0
  0
ARC
  5
1164F
  8
01
 10
-256.4573311677178
 20
-66.09949465474767
 30
0.0
 40
1.0
 50
0.0
 51
90.0
  0
LINE
  5
11650
  8
01
 10
-129.4573302517238
 20
-126.8555983518786
 30
0.0
 11
-136.4573313991132
 21
-126.8555983518786
 31
0.0
  0
LINE
  5
11651
  8
01
 10
-128.4573319504562
 20
-119.442103019876
 30
0.0
 11
-128.4573319504562
 21
-126.282022855205
 31
0.0
  0
LINE
  5
11653
  8
01
 10
-137.457331563026
 20
-126.282022855205
 30
0.0
 11
-137.457331563026
 21
-119.442103019876
 31
0.0
  0
LINE
  5
11655
  8
01
 10
-255.457332114369
 20
-119.442103019876
 30
0.0
 11
-255.457332114369
 21
-126.282022855205
 31
0.0
  0
LINE
  5
11657
  8
01
 10
-264.4573280016485
 20
-126.282022855205
 30
0.0
 11
-264.4573280016485
 21
-119.442103019876
 31
0.0
  0
LINE
  5
11659
  8
01
 10
-263.4573334256712
 20
-126.8555983518786
 30
0.0
 11
-256.4573341409269
 21
-126.8555983518786
 31
0.0
  0
LINE
  5
1165A
  8
01
 10
-264.4573280016485
 20
-119.442103019876
 30
0.0
 11
-264.4573280016485
 21
-66.09949242226546
 31
0.0
  0
LINE
  5
1165B
  8
01
 10
-137.457331563026
 20
-119.442103019876
 30
0.0
 11
-137.457331563026
 21
-105.9630564963049
 31
0.0
  0
LINE
  5
1165C
  8
01
 10
-255.457332114369
 20
-66.09949242226546
 30
0.0
 11
-255.457332114369
 21
-119.442103019876
 31
0.0
  0
LINE
  5
1165D
  8
01
 10
-128.4573319504562
 20
-105.9630564963049
 30
0.0
 11
-128.4573319504562
 21
-119.442103019876
 31
0.0
  0
LINE
  5
1165E
  8
01
 10
-270.9573347369734
 20
-127.9614545022673
 30
0.0
 11
-270.9573347369734
 21
-127.6829089587159
 31
0.0
  0
LINE
  5
1165F
  8
01
 10
-121.9573308030668
 20
-127.6829089587159
 30
0.0
 11
-121.9573308030668
 21
-127.9614545022673
 31
0.0
  0
LINE
  5
11660
  8
01
 10
-270.9573347369734
 20
-130.9104017531104
 30
0.0
 11
-270.9573347369734
 21
-127.9614545022673
 31
0.0
  0
LINE
  5
11661
  8
01
 10
-121.9573308030668
 20
-127.9614545022673
 30
0.0
 11
-121.9573308030668
 21
-130.9104017531104
 31
0.0
  0
LINE
  5
11662
  8
01
 10
-121.9573308030668
 20
-117.5879627083964
 30
0.0
 11
-121.9573308030668
 21
-127.6829089587159
 31
0.0
  0
LINE
  5
11663
  8
01
 10
-270.9573347369734
 20
-127.6829089587159
 30
0.0
 11
-270.9573347369734
 21
-117.5879627083964
 31
0.0
  0
LINE
  5
11664
  8
01
 10
-270.9573347369734
 20
-130.9956866865582
 30
0.0
 11
-270.9573347369734
 21
-130.9104017531104
 31
0.0
  0
LINE
  5
11665
  8
01
 10
-121.9573308030668
 20
-130.9104017531104
 30
0.0
 11
-121.9573308030668
 21
-130.9956866865582
 31
0.0
  0
ARC
  5
11666
  8
01
 10
-129.4558078976534
 20
-130.3134849867228
 30
0.0
 40
1.702773597301937
 50
269.9487750603387
 51
278.9152357236361
  0
LINE
  5
11667
  8
01
 10
-129.4573302517238
 20
-132.0162579034991
 30
0.0
 11
-136.4573313991132
 21
-132.0162579034991
 31
0.0
  0
ARC
  5
11668
  8
01
 10
-136.4588579024431
 20
-130.3135385202085
 30
0.0
 40
1.702720067552463
 50
261.084623045164
 51
270.051366170867
  0
LINE
  5
11669
  8
01
 10
-128.4573319504562
 20
-131.995686850471
 30
0.0
 11
-128.4573319504562
 21
-138.2826003795094
 31
0.0
  0
ARC
  5
1166A
  8
01
 10
-263.4588524361303
 20
-130.3134657417633
 30
0.0
 40
1.702792839267788
 50
261.0848154005371
 51
270.0511118545247
  0
LINE
  5
1166B
  8
01
 10
-264.4573280016485
 20
-138.2826003795094
 30
0.0
 11
-264.4573280016485
 21
-131.995686850471
 31
0.0
  0
LINE
  5
1166C
  8
01
 10
-263.4573334256712
 20
-132.0162579034991
 30
0.0
 11
-256.4573341409269
 21
-132.0162579034991
 31
0.0
  0
LINE
  5
1166D
  8
01
 10
-137.457331563026
 20
-138.2826003795094
 30
0.0
 11
-137.457331563026
 21
-131.995686850471
 31
0.0
  0
ARC
  5
1166E
  8
01
 10
-256.4558077913319
 20
-130.3134648553967
 30
0.0
 40
1.702793732196836
 50
269.9486412241761
 51
278.9151836820856
  0
LINE
  5
1166F
  8
01
 10
-255.457332114369
 20
-131.995686850471
 30
0.0
 11
-255.457332114369
 21
-138.2826003795094
 31
0.0
  0
LINE
  5
11670
  8
01
 10
-270.9573347369734
 20
-117.5879627083964
 30
0.0
 11
-270.9573347369734
 21
-117.5517938648886
 31
0.0
  0
LINE
  5
11671
  8
01
 10
-121.9573308030668
 20
-117.5517938648886
 30
0.0
 11
-121.9573308030668
 21
-117.5879627083964
 31
0.0
  0
LINE
  5
11675
  8
01
 10
-254.4573311010901
 20
-66.6773253403517
 30
0.0
 11
-138.4573307136598
 21
-66.6773253403517
 31
0.0
  0
LINE
  5
116B4
  8
01
 10
-171.4573305348459
 20
-92.55115460507338
 30
0.0
 11
-171.4573305348459
 21
-84.85743834950927
 31
0.0
  0
LINE
  5
116B5
  8
01
 10
-221.457331279904
 20
-92.55115460507338
 30
0.0
 11
-221.457331279904
 21
-84.85743834950927
 31
0.0
  0
LINE
  5
116B8
  8
01
 10
-171.4573305348459
 20
-93.8304267441458
 30
0.0
 11
-221.457331279904
 21
-93.8304267441458
 31
0.0
  0
LINE
  5
116B9
  8
01
 10
-221.457331279904
 20
-93.8304267441458
 30
0.0
 11
-221.457331279904
 21
-92.55115460507338
 31
0.0
  0
LINE
  5
116BA
  8
01
 10
-171.4573305348459
 20
-92.55115460507338
 30
0.0
 11
-171.4573305348459
 21
-93.8304267441458
 31
0.0
  0
ARC
  5
116BB
  8
01
 10
-218.4573311677178
 20
-115.8304264368358
 30
0.0
 40
3.000000000000003
 50
180.0
 51
193.9134455174079
  0
CIRCLE
  5
116BC
  8
01
 10
-179.4573311677179
 20
-104.8304264368357
 30
0.0
 40
2.250000000000028
  0
CIRCLE
  5
116BD
  8
01
 10
-213.4573311677178
 20
-104.8304264368358
 30
0.0
 40
2.249999999999986
  0
ARC
  5
116BE
  8
01
 10
-174.4573311677178
 20
-115.8304264368358
 30
0.0
 40
3.0
 50
346.0865544825926
 51
0.0
  0
LINE
  5
116BF
  8
01
 10
-221.457331279904
 20
-115.8304266249365
 30
0.0
 11
-221.457331279904
 21
-93.8304267441458
 31
0.0
  0
LINE
  5
116C0
  8
01
 10
-171.4573305348459
 20
-115.8304266249365
 30
0.0
 11
-171.4573305348459
 21
-93.8304267441458
 31
0.0
  0
LINE
  5
116C1
  8
01
 10
-256.4573341409269
 20
-120.0156785165495
 30
0.0
 11
-263.4573334256712
 21
-120.0156785165495
 31
0.0
  0
LINE
  5
116C2
  8
01
 10
-129.4573302517238
 20
-120.0156785165495
 30
0.0
 11
-136.4573313991132
 21
-120.0156785165495
 31
0.0
  0
LINE
  5
116C8
  8
01
 10
-122.9573328296247
 20
-128.535031861586
 30
0.0
 11
-269.9573327104155
 21
-128.535031861586
 31
0.0
  0
LINE
  5
116CF
  8
01
  6
CONTINUOUS
 10
-251.457330907375
 20
-84.85743834950927
 30
0.0
 11
-141.4573309073749
 21
-84.85743834950927
 31
0.0
  0
LINE
  5
116D0
  8
01
  6
CONTINUOUS
 10
-251.457330907375
 20
-84.3645351077135
 30
0.0
 11
-141.4573309073749
 21
-84.3645351077135
 31
0.0
  0
LINE
  5
116D1
  8
01
  6
CONTINUOUS
 10
-254.4573311010901
 20
-66.6773253403517
 30
0.0
 11
-254.4573309073749
 21
-82.3999822166423
 31
0.0
  0
ARC
  5
116D2
  8
01
  6
CONTINUOUS
 10
-251.7124355201848
 20
-81.616070386932
 30
0.0
 40
2.760278370899841
 50
186.0517834380558
 51
275.3028367426634
  0
ARC
  5
116D3
  8
01
  6
CONTINUOUS
 10
-141.2189506276791
 20
-81.59565374605234
 30
0.0
 40
2.779123810250703
 50
265.0793887882794
 51
353.5659910310018
  0
ARC
  5
116D6
  8
01
  6
CONTINUOUS
 10
-251.6957111870707
 20
-82.08855698784811
 30
0.0
 40
2.779123810250715
 50
186.4340089689985
 51
274.9206112117205
  0
ARC
  5
116D7
  8
01
  6
CONTINUOUS
 10
-141.2022262945648
 20
-82.10897362872782
 30
0.0
 40
2.760278370899758
 50
264.6971632573317
 51
353.9482165619448
  0
LINE
  5
116D9
  8
01
  6
CONTINUOUS
 10
-138.4573309073748
 20
-82.39998221664231
 30
0.0
 11
-138.4573309073749
 21
-66.6773253403517
 31
0.0
  0
LINE
  5
116DB
  8
01
 10
-255.457332114369
 20
-66.09949242226546
 30
0.0
 11
-255.457332114369
 21
-119.442103019876
 31
0.0
  0
LINE
  5
116FC
  8
1CENTER
 10
-216.832322831484
 20
-104.8304637091309
 30
-0.0000000000000568
 11
-210.082322831484
 21
-104.8304637091309
 31
-0.0000000000000568
  0
LINE
  5
116FD
  8
1CENTER
 10
-213.457322831484
 20
-108.2054637091309
 30
-0.0000000000000568
 11
-213.457322831484
 21
-101.4554637091309
 31
-0.0000000000000568
  0
LINE
  5
116FE
  8
1CENTER
 10
-182.832322831484
 20
-104.8304637091309
 30
-0.0000000000000568
 11
-176.082322831484
 21
-104.8304637091309
 31
-0.0000000000000568
  0
LINE
  5
116FF
  8
1CENTER
 10
-179.457322831484
 20
-108.2054637091309
 30
-0.0000000000000568
 11
-179.457322831484
 21
-101.4554637091309
 31
-0.0000000000000568
  0
LINE
  5
1172C
  8
01
 10
-254.4573309965597
 20
-75.16140449232809
 30
0.0
 11
-138.4573309073749
 21
-75.16140449232809
 31
0.0
  0
TEXT
  5
1194C
  8
01
  6
CONTINUOUS
 10
50.28018434310445
 20
-69.39935738971633
 30
0.0
 40
3.5
  1
PB
  0
TEXT
  5
1194D
  8
01
  6
CONTINUOUS
 10
63.41560248826966
 20
-69.39935738971633
 30
0.0
 40
3.5
  1
合板9mm以上
  0
LINE
  5
1194E
  8
01
  6
CONTINUOUS
 10
-42.11183203961482
 20
-132.0162576557937
 30
0.0
 11
-42.10734492745033
 21
-132.0131153734269
 31
0.0
  0
LINE
  5
1194F
  8
01
  6
CONTINUOUS
 10
-42.10734492745033
 20
-132.0131153734269
 30
0.0
 11
-42.09393201973072
 21
-132.0037220539393
 31
0.0
  0
LINE
  5
11950
  8
01
  6
CONTINUOUS
 10
-42.09393201973072
 20
-132.0037220539393
 30
0.0
 11
-42.07174046542278
 21
-131.9881838681044
 31
0.0
  0
LINE
  5
11951
  8
01
  6
CONTINUOUS
 10
-42.07174046542278
 20
-131.9881838681044
 30
0.0
 11
-42.04101240839591
 21
-131.9666684539857
 31
0.0
  0
LINE
  5
11952
  8
01
  6
CONTINUOUS
 10
-42.04101240839591
 20
-131.9666684539857
 30
0.0
 11
-42.00208685006729
 21
-131.939412367517
 31
0.0
  0
LINE
  5
11953
  8
01
  6
CONTINUOUS
 10
-42.00208685006729
 20
-131.939412367517
 30
0.0
 11
-41.95538847353092
 21
-131.9067136319222
 31
0.0
  0
LINE
  5
11954
  8
01
  6
CONTINUOUS
 10
-41.95538847353092
 20
-131.9067136319222
 30
0.0
 11
-41.90142950620285
 21
-131.8689298750701
 31
0.0
  0
LINE
  5
11955
  8
01
  6
CONTINUOUS
 10
-41.90142950620285
 20
-131.8689298750701
 30
0.0
 11
-41.84080040659538
 21
-131.826478329474
 31
0.0
  0
LINE
  5
11956
  8
01
  6
CONTINUOUS
 10
-41.84080040659538
 20
-131.826478329474
 30
0.0
 11
-41.77416613902679
 21
-131.7798209311309
 31
0.0
  0
LINE
  5
11957
  8
01
  6
CONTINUOUS
 10
-41.77416613902679
 20
-131.7798209311309
 30
0.0
 11
-41.70225686039558
 21
-131.7294680448117
 31
0.0
  0
LINE
  5
11958
  8
01
  6
CONTINUOUS
 10
-41.70225686039558
 20
-131.7294680448117
 30
0.0
 11
-41.62586046959987
 21
-131.6759747387709
 31
0.0
  0
LINE
  5
11959
  8
01
  6
CONTINUOUS
 10
-41.62586046959987
 20
-131.6759747387709
 30
0.0
 11
-41.54581143166652
 21
-131.6199258835854
 31
0.0
  0
LINE
  5
1195A
  8
01
  6
CONTINUOUS
 10
-41.54581143166652
 20
-131.6199258835854
 30
0.0
 11
-41.46299077775112
 21
-131.5619342895093
 31
0.0
  0
LINE
  5
1195B
  8
01
  6
CONTINUOUS
 10
-41.46299077775112
 20
-131.5619342895093
 30
0.0
 11
-41.37830561604133
 21
-131.5026351185384
 31
0.0
  0
LINE
  5
1195C
  8
01
  6
CONTINUOUS
 10
-41.37830561604133
 20
-131.5026351185384
 30
0.0
 11
-41.29267981853118
 21
-131.4426802964749
 31
0.0
  0
LINE
  5
1195D
  8
01
  6
CONTINUOUS
 10
-44.90621140803924
 20
-126.2820226074996
 30
0.0
 11
-44.99183720554939
 21
-126.341977429563
 31
0.0
  0
LINE
  5
1195E
  8
01
  6
CONTINUOUS
 10
-44.99183720554939
 20
-126.341977429563
 30
0.0
 11
-45.07652236725917
 21
-126.4012766005339
 31
0.0
  0
LINE
  5
1195F
  8
01
  6
CONTINUOUS
 10
-45.07652236725917
 20
-126.4012766005339
 30
0.0
 11
-45.15934302117458
 21
-126.4592681946101
 31
0.0
  0
LINE
  5
11960
  8
01
  6
CONTINUOUS
 10
-45.15934302117458
 20
-126.4592681946101
 30
0.0
 11
-45.23939019646278
 21
-126.5153170497956
 31
0.0
  0
LINE
  5
11961
  8
01
  6
CONTINUOUS
 10
-45.23939019646278
 20
-126.5153170497956
 30
0.0
 11
-45.31578844990364
 21
-126.5688103558364
 31
0.0
  0
LINE
  5
11962
  8
01
  6
CONTINUOUS
 10
-45.31578844990364
 20
-126.5688103558364
 30
0.0
 11
-45.38769772853485
 21
-126.6191632421555
 31
0.0
  0
LINE
  5
11963
  8
01
  6
CONTINUOUS
 10
-45.38769772853485
 20
-126.6191632421555
 30
0.0
 11
-45.45433199610343
 21
-126.6658206404986
 31
0.0
  0
LINE
  5
11964
  8
01
  6
CONTINUOUS
 10
-45.45433199610343
 20
-126.6658206404986
 30
0.0
 11
-45.5149610957109
 21
-126.7082721860947
 31
0.0
  0
LINE
  5
11965
  8
01
  6
CONTINUOUS
 10
-45.5149610957109
 20
-126.7082721860947
 30
0.0
 11
-45.56892006303897
 21
-126.7460559429469
 31
0.0
  0
LINE
  5
11966
  8
01
  6
CONTINUOUS
 10
-45.56892006303897
 20
-126.7460559429469
 30
0.0
 11
-45.61561843957534
 21
-126.7787546785416
 31
0.0
  0
LINE
  5
11967
  8
01
  6
CONTINUOUS
 10
-45.61561843957534
 20
-126.7787546785416
 30
0.0
 11
-45.65454399790397
 21
-126.8060107650103
 31
0.0
  0
LINE
  5
11968
  8
01
  6
CONTINUOUS
 10
-45.65454399790397
 20
-126.8060107650103
 30
0.0
 11
-45.68527205493083
 21
-126.8275261791291
 31
0.0
  0
LINE
  5
11969
  8
01
  6
CONTINUOUS
 10
-45.68527205493083
 20
-126.8275261791291
 30
0.0
 11
-45.70746360923877
 21
-126.843064364964
 31
0.0
  0
LINE
  5
1196A
  8
01
  6
CONTINUOUS
 10
-45.70746360923877
 20
-126.843064364964
 30
0.0
 11
-45.72087651695838
 21
-126.8524576844516
 31
0.0
  0
LINE
  5
1196B
  8
01
  6
CONTINUOUS
 10
-45.72087651695838
 20
-126.8524576844516
 30
0.0
 11
-45.72536362912288
 21
-126.8555981041732
 31
0.0
  0
LINE
  5
1196C
  8
01
  6
CONTINUOUS
 10
-183.4503236284455
 20
32.64229570609928
 30
0.0
 11
-183.4469727298221
 21
32.67156903726459
 31
0.0
  0
LINE
  5
1196D
  8
01
  6
CONTINUOUS
 10
-183.4469727298221
 20
32.67156903726459
 30
0.0
 11
-183.42859959807
 21
32.78109257203937
 31
0.0
  0
LINE
  5
1196E
  8
01
  6
CONTINUOUS
 10
-183.42859959807
 20
32.78109257203937
 30
0.0
 11
-183.4010920545062
 21
32.88998653275371
 31
0.0
  0
LINE
  5
1196F
  8
01
  6
CONTINUOUS
 10
-183.4010920545062
 20
32.88998653275371
 30
0.0
 11
-183.3645134290656
 21
32.99800132495761
 31
0.0
  0
LINE
  5
11970
  8
01
  6
CONTINUOUS
 10
-183.3645134290656
 20
32.99800132495761
 30
0.0
 11
-183.31894754078
 21
33.10488362891078
 31
0.0
  0
LINE
  5
11971
  8
01
  6
CONTINUOUS
 10
-183.31894754078
 20
33.10488362891078
 30
0.0
 11
-183.2645005604228
 21
33.21039130074382
 31
0.0
  0
LINE
  5
11972
  8
01
  6
CONTINUOUS
 10
-183.2645005604228
 20
33.21039130074382
 30
0.0
 11
-183.2012972852191
 21
33.31427847129703
 31
0.0
  0
LINE
  5
11973
  8
01
  6
CONTINUOUS
 10
-183.2012972852191
 20
33.31427847129703
 30
0.0
 11
-183.1294811388453
 21
33.4163067219913
 31
0.0
  0
LINE
  5
11974
  8
01
  6
CONTINUOUS
 10
-183.1294811388453
 20
33.4163067219913
 30
0.0
 11
-183.0492216220101
 21
33.51624508482814
 31
0.0
  0
LINE
  5
11975
  8
01
  6
CONTINUOUS
 10
-183.0492216220101
 20
33.51624508482814
 30
0.0
 11
-182.9606975486478
 21
33.61386259180904
 31
0.0
  0
LINE
  5
11976
  8
01
  6
CONTINUOUS
 10
-182.9606975486478
 20
33.61386259180904
 30
0.0
 11
-182.864117535015
 21
33.70893200022579
 31
0.0
  0
LINE
  5
11977
  8
01
  6
CONTINUOUS
 10
-182.864117535015
 20
33.70893200022579
 30
0.0
 11
-182.7597013732394
 21
33.80123724324108
 31
0.0
  0
LINE
  5
11978
  8
01
  6
CONTINUOUS
 10
-182.7597013732394
 20
33.80123724324108
 30
0.0
 11
-182.6476912071904
 21
33.8905622540176
 31
0.0
  0
LINE
  5
11979
  8
01
  6
CONTINUOUS
 10
-182.6476912071904
 20
33.8905622540176
 30
0.0
 11
-182.5283403566083
 21
33.97670586687923
 31
0.0
  0
LINE
  5
1197A
  8
01
  6
CONTINUOUS
 10
-182.5283403566083
 20
33.97670586687923
 30
0.0
 11
-182.4019282182654
 21
34.05946691614986
 31
0.0
  0
LINE
  5
1197B
  8
01
  6
CONTINUOUS
 10
-182.4019282182654
 20
34.05946691614986
 30
0.0
 11
-182.2687416395148
 21
34.13865913731456
 31
0.0
  0
LINE
  5
1197C
  8
01
  6
CONTINUOUS
 10
-182.2687416395148
 20
34.13865913731456
 30
0.0
 11
-182.1290898194512
 21
34.21409626585842
 31
0.0
  0
LINE
  5
1197D
  8
01
  6
CONTINUOUS
 10
-182.1290898194512
 20
34.21409626585842
 30
0.0
 11
-181.9832931330403
 21
34.28560693842769
 31
0.0
  0
LINE
  5
1197E
  8
01
  6
CONTINUOUS
 10
-181.9832931330403
 20
34.28560693842769
 30
0.0
 11
-181.831686856409
 21
34.35302351695896
 31
0.0
  0
LINE
  5
1197F
  8
01
  6
CONTINUOUS
 10
-181.831686856409
 20
34.35302351695896
 30
0.0
 11
-181.6746193042001
 21
34.41619698984027
 31
0.0
  0
LINE
  5
11980
  8
01
  6
CONTINUOUS
 10
-181.6746193042001
 20
34.41619698984027
 30
0.0
 11
-181.5124518295726
 21
34.47497462016941
 31
0.0
  0
LINE
  5
11981
  8
01
  6
CONTINUOUS
 10
-181.5124518295726
 20
34.47497462016941
 30
0.0
 11
-181.3455569615563
 21
34.52922602278591
 31
0.0
  0
LINE
  5
11982
  8
01
  6
CONTINUOUS
 10
-181.3455569615563
 20
34.52922602278591
 30
0.0
 11
-181.1743184050521
 21
34.57882826310993
 31
0.0
  0
LINE
  5
11983
  8
01
  6
CONTINUOUS
 10
-181.1743184050521
 20
34.57882826310993
 30
0.0
 11
-180.9991329034766
 21
34.62366213185192
 31
0.0
  0
LINE
  5
11984
  8
01
  6
CONTINUOUS
 10
-180.9991329034766
 20
34.62366213185192
 30
0.0
 11
-180.8203990628919
 21
34.66362704617381
 31
0.0
  0
LINE
  5
11985
  8
01
  6
CONTINUOUS
 10
-180.8203990628919
 20
34.66362704617381
 30
0.0
 11
-180.6385303905209
 21
34.69862987381816
 31
0.0
  0
LINE
  5
11986
  8
01
  6
CONTINUOUS
 10
-180.6385303905209
 20
34.69862987381816
 30
0.0
 11
-180.4539459815225
 21
34.72859238368869
 31
0.0
  0
LINE
  5
11987
  8
01
  6
CONTINUOUS
 10
-180.4539459815225
 20
34.72859238368869
 30
0.0
 11
-180.2670686563453
 21
34.75344379526973
 31
0.0
  0
LINE
  5
11988
  8
01
  6
CONTINUOUS
 10
-180.2670686563453
 20
34.75344379526973
 30
0.0
 11
-180.078330548664
 21
34.7731282292068
 31
0.0
  0
LINE
  5
11989
  8
01
  6
CONTINUOUS
 10
-180.078330548664
 20
34.7731282292068
 30
0.0
 11
-179.8881619295081
 21
34.78760098201633
 31
0.0
  0
LINE
  5
1198A
  8
01
  6
CONTINUOUS
 10
-179.8881619295081
 20
34.78760098201633
 30
0.0
 11
-179.697004245778
 21
34.79682480079532
 31
0.0
  0
LINE
  5
1198B
  8
01
  6
CONTINUOUS
 10
-179.697004245778
 20
34.79682480079532
 30
0.0
 11
-179.5052933564385
 21
34.80078105909229
 31
0.0
  0
LINE
  5
1198C
  8
01
  6
CONTINUOUS
 10
-179.5052933564385
 20
34.80078105909229
 30
0.0
 11
-179.3134725710353
 21
34.79946230632663
 31
0.0
  0
LINE
  5
1198D
  8
01
  6
CONTINUOUS
 10
-179.3134725710353
 20
34.79946230632663
 30
0.0
 11
-179.1219833364686
 21
34.79286854249835
 31
0.0
  0
LINE
  5
1198E
  8
01
  6
CONTINUOUS
 10
-179.1219833364686
 20
34.79286854249835
 30
0.0
 11
-178.9312652369937
 21
34.78101839405895
 31
0.0
  0
LINE
  5
1198F
  8
01
  6
CONTINUOUS
 10
-178.9312652369937
 20
34.78101839405895
 30
0.0
 11
-178.7417578568658
 21
34.7639342127502
 31
0.0
  0
LINE
  5
11990
  8
01
  6
CONTINUOUS
 10
-178.7417578568658
 20
34.7639342127502
 30
0.0
 11
-178.5538951924046
 21
34.7416607020557
 31
0.0
  0
LINE
  5
11991
  8
01
  6
CONTINUOUS
 10
-178.5538951924046
 20
34.7416607020557
 30
0.0
 11
-178.36811123993
 21
34.71424629074932
 31
0.0
  0
LINE
  5
11992
  8
01
  6
CONTINUOUS
 10
-178.36811123993
 20
34.71424629074932
 30
0.0
 11
-178.1848325451812
 21
34.68175430876613
 31
0.0
  0
LINE
  5
11993
  8
01
  6
CONTINUOUS
 10
-178.1848325451812
 20
34.68175430876613
 30
0.0
 11
-178.0044800659617
 21
34.64425926191211
 31
0.0
  0
LINE
  5
11994
  8
01
  6
CONTINUOUS
 10
-178.0044800659617
 20
34.64425926191211
 30
0.0
 11
-177.82746917214
 21
34.60184683186412
 31
0.0
  0
LINE
  5
11995
  8
01
  6
CONTINUOUS
 10
-177.82746917214
 20
34.60184683186412
 30
0.0
 11
-177.6542059203585
 21
34.55461760146022
 31
0.0
  0
LINE
  5
11996
  8
01
  6
CONTINUOUS
 10
-177.6542059203585
 20
34.55461760146022
 30
0.0
 11
-177.4850926419696
 21
34.50267587882877
 31
0.0
  0
LINE
  5
11997
  8
01
  6
CONTINUOUS
 10
-177.4850926419696
 20
34.50267587882877
 30
0.0
 11
-177.3205130418738
 21
34.44614459854961
 31
0.0
  0
LINE
  5
11998
  8
01
  6
CONTINUOUS
 10
-177.3205130418738
 20
34.44614459854961
 30
0.0
 11
-177.1608489623269
 21
34.38515042049289
 31
0.0
  0
LINE
  5
11999
  8
01
  6
CONTINUOUS
 10
-177.1608489623269
 20
34.38515042049289
 30
0.0
 11
-177.0064673444232
 21
34.31983490568996
 31
0.0
  0
LINE
  5
1199A
  8
01
  6
CONTINUOUS
 10
-177.0064673444232
 20
34.31983490568996
 30
0.0
 11
-176.8577239533862
 21
34.25035079104305
 31
0.0
  0
LINE
  5
1199B
  8
01
  6
CONTINUOUS
 10
-176.8577239533862
 20
34.25035079104305
 30
0.0
 11
-176.7149577906331
 21
34.17685826403499
 31
0.0
  0
LINE
  5
1199C
  8
01
  6
CONTINUOUS
 10
-176.7149577906331
 20
34.17685826403499
 30
0.0
 11
-176.5785004070004
 21
34.09952123743892
 31
0.0
  0
LINE
  5
1199D
  8
01
  6
CONTINUOUS
 10
-176.5785004070004
 20
34.09952123743892
 30
0.0
 11
-176.4486628642281
 21
34.01852225047946
 31
0.0
  0
LINE
  5
1199E
  8
01
  6
CONTINUOUS
 10
-176.4486628642281
 20
34.01852225047946
 30
0.0
 11
-176.3257469108304
 21
33.93404384238124
 31
0.0
  0
LINE
  5
1199F
  8
01
  6
CONTINUOUS
 10
-176.3257469108304
 20
33.93404384238124
 30
0.0
 11
-176.2100319435796
 21
33.84628345353008
 31
0.0
  0
LINE
  5
119A0
  8
01
  6
CONTINUOUS
 10
-176.2100319435796
 20
33.84628345353008
 30
0.0
 11
-176.1017880460223
 21
33.75544224960208
 31
0.0
  0
LINE
  5
119A1
  8
01
  6
CONTINUOUS
 10
-176.1017880460223
 20
33.75544224960208
 30
0.0
 11
-176.0012610873183
 21
33.66172884685398
 31
0.0
  0
LINE
  5
119A2
  8
01
  6
CONTINUOUS
 10
-176.0012610873183
 20
33.66172884685398
 30
0.0
 11
-175.9086820354661
 21
33.56535931212306
 31
0.0
  0
LINE
  5
119A3
  8
01
  6
CONTINUOUS
 10
-175.9086820354661
 20
33.56535931212306
 30
0.0
 11
-175.8242669573029
 21
33.46655343753696
 31
0.0
  0
LINE
  5
119A4
  8
01
  6
CONTINUOUS
 10
-175.8242669573029
 20
33.46655343753696
 30
0.0
 11
-175.7482077052792
 21
33.36553846580387
 31
0.0
  0
LINE
  5
119A5
  8
01
  6
CONTINUOUS
 10
-175.7482077052792
 20
33.36553846580387
 30
0.0
 11
-175.6806775053939
 21
33.26255281550289
 31
0.0
  0
LINE
  5
119A6
  8
01
  6
CONTINUOUS
 10
-175.6806775053939
 20
33.26255281550289
 30
0.0
 11
-175.6218365451297
 21
33.15782372934223
 31
0.0
  0
LINE
  5
119A7
  8
01
  6
CONTINUOUS
 10
-175.6218365451297
 20
33.15782372934223
 30
0.0
 11
-175.5718152096471
 21
33.05159707648158
 31
0.0
  0
LINE
  5
119A8
  8
01
  6
CONTINUOUS
 10
-175.5718152096471
 20
33.05159707648158
 30
0.0
 11
-175.5307327082356
 21
32.94411872608066
 31
0.0
  0
LINE
  5
119A9
  8
01
  6
CONTINUOUS
 10
-175.5307327082356
 20
32.94411872608066
 30
0.0
 11
-175.4986803105077
 21
32.83563454729915
 31
0.0
  0
LINE
  5
119AA
  8
01
  6
CONTINUOUS
 10
-175.4986803105077
 20
32.83563454729915
 30
0.0
 11
-175.4757325222691
 21
32.72639413458705
 31
0.0
  0
LINE
  5
119AB
  8
01
  6
CONTINUOUS
 10
-175.4757325222691
 20
32.72639413458705
 30
0.0
 11
-175.4644299915036
 21
32.64316369873882
 31
0.0
  0
LINE
  5
119AC
  8
01
  6
CONTINUOUS
 10
-217.4504018446406
 20
32.64152457100749
 30
0.0
 11
-217.446974577566
 21
32.67156903726459
 31
0.0
  0
LINE
  5
119AD
  8
01
  6
CONTINUOUS
 10
-217.446974577566
 20
32.67156903726459
 30
0.0
 11
-217.428601445814
 21
32.78109257203937
 31
0.0
  0
LINE
  5
119AE
  8
01
  6
CONTINUOUS
 10
-217.428601445814
 20
32.78109257203937
 30
0.0
 11
-217.4010939022502
 21
32.88998653275371
 31
0.0
  0
LINE
  5
119AF
  8
01
  6
CONTINUOUS
 10
-217.4010939022502
 20
32.88998653275371
 30
0.0
 11
-217.3645115515193
 21
32.99800132495761
 31
0.0
  0
LINE
  5
119B0
  8
01
  6
CONTINUOUS
 10
-217.3645115515193
 20
32.99800132495761
 30
0.0
 11
-217.3189438005885
 21
33.10488362891078
 31
0.0
  0
LINE
  5
119B1
  8
01
  6
CONTINUOUS
 10
-217.3189438005885
 20
33.10488362891078
 30
0.0
 11
-217.2645024081668
 21
33.21039130074382
 31
0.0
  0
LINE
  5
119B2
  8
01
  6
CONTINUOUS
 10
-217.2645024081668
 20
33.21039130074382
 30
0.0
 11
-217.2012954076728
 21
33.31427847129703
 31
0.0
  0
LINE
  5
119B3
  8
01
  6
CONTINUOUS
 10
-217.2012954076728
 20
33.31427847129703
 30
0.0
 11
-217.1294829865893
 21
33.4163067219913
 31
0.0
  0
LINE
  5
119B4
  8
01
  6
CONTINUOUS
 10
-217.1294829865893
 20
33.4163067219913
 30
0.0
 11
-217.049221607109
 21
33.51624508482814
 31
0.0
  0
LINE
  5
119B5
  8
01
  6
CONTINUOUS
 10
-217.049221607109
 20
33.51624508482814
 30
0.0
 11
-216.9606975337466
 21
33.61386259180904
 31
0.0
  0
LINE
  5
119B6
  8
01
  6
CONTINUOUS
 10
-216.9606975337466
 20
33.61386259180904
 30
0.0
 11
-216.864119382759
 21
33.70893200022579
 31
0.0
  0
LINE
  5
119B7
  8
01
  6
CONTINUOUS
 10
-216.864119382759
 20
33.70893200022579
 30
0.0
 11
-216.7597032209834
 21
33.80123724324108
 31
0.0
  0
LINE
  5
119B8
  8
01
  6
CONTINUOUS
 10
-216.7597032209834
 20
33.80123724324108
 30
0.0
 11
-216.6476911922892
 21
33.8905622540176
 31
0.0
  0
LINE
  5
119B9
  8
01
  6
CONTINUOUS
 10
-216.6476911922892
 20
33.8905622540176
 30
0.0
 11
-216.5283403417071
 21
33.97670586687923
 31
0.0
  0
LINE
  5
119BA
  8
01
  6
CONTINUOUS
 10
-216.5283403417071
 20
33.97670586687923
 30
0.0
 11
-216.4019263407191
 21
34.05946691614986
 31
0.0
  0
LINE
  5
119BB
  8
01
  6
CONTINUOUS
 10
-216.4019263407191
 20
34.05946691614986
 30
0.0
 11
-216.2687434872588
 21
34.13865913731456
 31
0.0
  0
LINE
  5
119BC
  8
01
  6
CONTINUOUS
 10
-216.2687434872588
 20
34.13865913731456
 30
0.0
 11
-216.1290898045501
 21
34.21409626585842
 31
0.0
  0
LINE
  5
119BD
  8
01
  6
CONTINUOUS
 10
-216.1290898045501
 20
34.21409626585842
 30
0.0
 11
-215.9832931181392
 21
34.28560693842769
 31
0.0
  0
LINE
  5
119BE
  8
01
  6
CONTINUOUS
 10
-215.9832931181392
 20
34.28560693842769
 30
0.0
 11
-215.8316849788627
 21
34.35302351695896
 31
0.0
  0
LINE
  5
119BF
  8
01
  6
CONTINUOUS
 10
-215.8316849788627
 20
34.35302351695896
 30
0.0
 11
-215.6746192892989
 21
34.41619698984027
 31
0.0
  0
LINE
  5
119C0
  8
01
  6
CONTINUOUS
 10
-215.6746192892989
 20
34.41619698984027
 30
0.0
 11
-215.5124499520263
 21
34.47497462016941
 31
0.0
  0
LINE
  5
119C1
  8
01
  6
CONTINUOUS
 10
-215.5124499520263
 20
34.47497462016941
 30
0.0
 11
-215.3455569466552
 21
34.52922602278591
 31
0.0
  0
LINE
  5
119C2
  8
01
  6
CONTINUOUS
 10
-215.3455569466552
 20
34.52922602278591
 30
0.0
 11
-215.1743202527961
 21
34.57882826310993
 31
0.0
  0
LINE
  5
119C3
  8
01
  6
CONTINUOUS
 10
-215.1743202527961
 20
34.57882826310993
 30
0.0
 11
-214.9991310259303
 21
34.62366213185192
 31
0.0
  0
LINE
  5
119C4
  8
01
  6
CONTINUOUS
 10
-214.9991310259303
 20
34.62366213185192
 30
0.0
 11
-214.8203990479907
 21
34.66362704617381
 31
0.0
  0
LINE
  5
119C5
  8
01
  6
CONTINUOUS
 10
-214.8203990479907
 20
34.66362704617381
 30
0.0
 11
-214.6385303756198
 21
34.69862987381816
 31
0.0
  0
LINE
  5
119C6
  8
01
  6
CONTINUOUS
 10
-214.6385303756198
 20
34.69862987381816
 30
0.0
 11
-214.4539459666213
 21
34.72859238368869
 31
0.0
  0
LINE
  5
119C7
  8
01
  6
CONTINUOUS
 10
-214.4539459666213
 20
34.72859238368869
 30
0.0
 11
-214.2670705040892
 21
34.75344379526973
 31
0.0
  0
LINE
  5
119C8
  8
01
  6
CONTINUOUS
 10
-214.2670705040892
 20
34.75344379526973
 30
0.0
 11
-214.0783286711177
 21
34.7731282292068
 31
0.0
  0
LINE
  5
119C9
  8
01
  6
CONTINUOUS
 10
-214.0783286711177
 20
34.7731282292068
 30
0.0
 11
-213.8881637772521
 21
34.78760098201633
 31
0.0
  0
LINE
  5
119CA
  8
01
  6
CONTINUOUS
 10
-213.8881637772521
 20
34.78760098201633
 30
0.0
 11
-213.6970042308768
 21
34.79682480079532
 31
0.0
  0
LINE
  5
119CB
  8
01
  6
CONTINUOUS
 10
-213.6970042308768
 20
34.79682480079532
 30
0.0
 11
-213.5052933415374
 21
34.80078105909229
 31
0.0
  0
LINE
  5
119CC
  8
01
  6
CONTINUOUS
 10
-213.5052933415374
 20
34.80078105909229
 30
0.0
 11
-213.3134744187793
 21
34.79946230632663
 31
0.0
  0
LINE
  5
119CD
  8
01
  6
CONTINUOUS
 10
-213.3134744187793
 20
34.79946230632663
 30
0.0
 11
-213.1219833215674
 21
34.79286854249835
 31
0.0
  0
LINE
  5
119CE
  8
01
  6
CONTINUOUS
 10
-213.1219833215674
 20
34.79286854249835
 30
0.0
 11
-212.9312670847377
 21
34.78101839405895
 31
0.0
  0
LINE
  5
119CF
  8
01
  6
CONTINUOUS
 10
-212.9312670847377
 20
34.78101839405895
 30
0.0
 11
-212.7417578419646
 21
34.7639342127502
 31
0.0
  0
LINE
  5
119D0
  8
01
  6
CONTINUOUS
 10
-212.7417578419646
 20
34.7639342127502
 30
0.0
 11
-212.5538951775035
 21
34.7416607020557
 31
0.0
  0
LINE
  5
119D1
  8
01
  6
CONTINUOUS
 10
-212.5538951775035
 20
34.7416607020557
 30
0.0
 11
-212.3681112250289
 21
34.71424629074932
 31
0.0
  0
LINE
  5
119D2
  8
01
  6
CONTINUOUS
 10
-212.3681112250289
 20
34.71424629074932
 30
0.0
 11
-212.1848306676349
 21
34.68175430876613
 31
0.0
  0
LINE
  5
119D3
  8
01
  6
CONTINUOUS
 10
-212.1848306676349
 20
34.68175430876613
 30
0.0
 11
-212.0044781884154
 21
34.64425926191211
 31
0.0
  0
LINE
  5
119D4
  8
01
  6
CONTINUOUS
 10
-212.0044781884154
 20
34.64425926191211
 30
0.0
 11
-211.8274672945937
 21
34.60184683186412
 31
0.0
  0
LINE
  5
119D5
  8
01
  6
CONTINUOUS
 10
-211.8274672945937
 20
34.60184683186412
 30
0.0
 11
-211.6542077681025
 21
34.55461760146022
 31
0.0
  0
LINE
  5
119D6
  8
01
  6
CONTINUOUS
 10
-211.6542077681025
 20
34.55461760146022
 30
0.0
 11
-211.4850907644233
 21
34.50267587882877
 31
0.0
  0
LINE
  5
119D7
  8
01
  6
CONTINUOUS
 10
-211.4850907644233
 20
34.50267587882877
 30
0.0
 11
-211.3205148896178
 21
34.44614459854961
 31
0.0
  0
LINE
  5
119D8
  8
01
  6
CONTINUOUS
 10
-211.3205148896178
 20
34.44614459854961
 30
0.0
 11
-211.1608489474257
 21
34.38515042049289
 31
0.0
  0
LINE
  5
119D9
  8
01
  6
CONTINUOUS
 10
-211.1608489474257
 20
34.38515042049289
 30
0.0
 11
-211.0064691921672
 21
34.31983490568996
 31
0.0
  0
LINE
  5
119DA
  8
01
  6
CONTINUOUS
 10
-211.0064691921672
 20
34.31983490568996
 30
0.0
 11
-210.8577220758399
 21
34.25035079104305
 31
0.0
  0
LINE
  5
119DB
  8
01
  6
CONTINUOUS
 10
-210.8577220758399
 20
34.25035079104305
 30
0.0
 11
-210.7149577757319
 21
34.17685826403499
 31
0.0
  0
LINE
  5
119DC
  8
01
  6
CONTINUOUS
 10
-210.7149577757319
 20
34.17685826403499
 30
0.0
 11
-210.5785003920993
 21
34.09952123743892
 31
0.0
  0
LINE
  5
119DD
  8
01
  6
CONTINUOUS
 10
-210.5785003920993
 20
34.09952123743892
 30
0.0
 11
-210.448662849327
 21
34.01852225047946
 31
0.0
  0
LINE
  5
119DE
  8
01
  6
CONTINUOUS
 10
-210.448662849327
 20
34.01852225047946
 30
0.0
 11
-210.3257468959292
 21
33.93404384238124
 31
0.0
  0
LINE
  5
119DF
  8
01
  6
CONTINUOUS
 10
-210.3257468959292
 20
33.93404384238124
 30
0.0
 11
-210.2100319286784
 21
33.84628345353008
 31
0.0
  0
LINE
  5
119E0
  8
01
  6
CONTINUOUS
 10
-210.2100319286784
 20
33.84628345353008
 30
0.0
 11
-210.101786168476
 21
33.75544224960208
 31
0.0
  0
LINE
  5
119E1
  8
01
  6
CONTINUOUS
 10
-210.101786168476
 20
33.75544224960208
 30
0.0
 11
-210.001259209772
 21
33.66172884685398
 31
0.0
  0
LINE
  5
119E2
  8
01
  6
CONTINUOUS
 10
-210.001259209772
 20
33.66172884685398
 30
0.0
 11
-209.9086820205649
 21
33.56535931212306
 31
0.0
  0
LINE
  5
119E3
  8
01
  6
CONTINUOUS
 10
-209.9086820205649
 20
33.56535931212306
 30
0.0
 11
-209.8242669424018
 21
33.46655343753696
 31
0.0
  0
LINE
  5
119E4
  8
01
  6
CONTINUOUS
 10
-209.8242669424018
 20
33.46655343753696
 30
0.0
 11
-209.7482076903781
 21
33.36553846580387
 31
0.0
  0
LINE
  5
119E5
  8
01
  6
CONTINUOUS
 10
-209.7482076903781
 20
33.36553846580387
 30
0.0
 11
-209.6806793531379
 21
33.26255281550289
 31
0.0
  0
LINE
  5
119E6
  8
01
  6
CONTINUOUS
 10
-209.6806793531379
 20
33.26255281550289
 30
0.0
 11
-209.6218346675834
 21
33.15782372934223
 31
0.0
  0
LINE
  5
119E7
  8
01
  6
CONTINUOUS
 10
-209.6218346675834
 20
33.15782372934223
 30
0.0
 11
-209.5718151947459
 21
33.05159707648158
 31
0.0
  0
LINE
  5
119E8
  8
01
  6
CONTINUOUS
 10
-209.5718151947459
 20
33.05159707648158
 30
0.0
 11
-209.5307326933345
 21
32.94411872608066
 31
0.0
  0
LINE
  5
119E9
  8
01
  6
CONTINUOUS
 10
-209.5307326933345
 20
32.94411872608066
 30
0.0
 11
-209.4986802956065
 21
32.83563454729915
 31
0.0
  0
LINE
  5
119EA
  8
01
  6
CONTINUOUS
 10
-209.4986802956065
 20
32.83563454729915
 30
0.0
 11
-209.475732507368
 21
32.72639413458705
 31
0.0
  0
LINE
  5
119EB
  8
01
  6
CONTINUOUS
 10
-209.475732507368
 20
32.72639413458705
 30
0.0
 11
-209.4645193835696
 21
32.64403914195896
 31
0.0
  0
LINE
  5
119EC
  8
01
  6
CONTINUOUS
 10
-138.4573309740027
 20
31.07877274138332
 30
0.0
 11
-138.4619931748113
 21
31.1570597170055
 31
0.0
  0
LINE
  5
119ED
  8
01
  6
CONTINUOUS
 10
-138.4619931748113
 20
31.1570597170055
 30
0.0
 11
-138.4759592881402
 21
31.23497788888812
 31
0.0
  0
LINE
  5
119EE
  8
01
  6
CONTINUOUS
 10
-138.4759592881402
 20
31.23497788888812
 30
0.0
 11
-138.4991641214093
 21
31.31216962916255
 31
0.0
  0
LINE
  5
119EF
  8
01
  6
CONTINUOUS
 10
-138.4991641214093
 20
31.31216962916255
 30
0.0
 11
-138.5314977785548
 21
31.38827358466983
 31
0.0
  0
LINE
  5
119F0
  8
01
  6
CONTINUOUS
 10
-138.5314977785548
 20
31.38827358466983
 30
0.0
 11
-138.5728093853196
 21
31.46293212754131
 31
0.0
  0
LINE
  5
119F1
  8
01
  6
CONTINUOUS
 10
-138.5728093853196
 20
31.46293212754131
 30
0.0
 11
-138.6229089518985
 21
31.53580253106952
 31
0.0
  0
LINE
  5
119F2
  8
01
  6
CONTINUOUS
 10
-138.6229089518985
 20
31.53580253106952
 30
0.0
 11
-138.6815617850026
 21
31.60653834325672
 31
0.0
  0
LINE
  5
119F3
  8
01
  6
CONTINUOUS
 10
-138.6815617850026
 20
31.60653834325672
 30
0.0
 11
-138.7484922131499
 21
31.67481546384693
 31
0.0
  0
LINE
  5
119F4
  8
01
  6
CONTINUOUS
 10
-138.7484922131499
 20
31.67481546384693
 30
0.0
 11
-138.8233910372456
 21
31.74031351787448
 31
0.0
  0
LINE
  5
119F5
  8
01
  6
CONTINUOUS
 10
-138.8233910372456
 20
31.74031351787448
 30
0.0
 11
-138.9059080800017
 21
31.80273075682521
 31
0.0
  0
LINE
  5
119F6
  8
01
  6
CONTINUOUS
 10
-138.9059080800017
 20
31.80273075682521
 30
0.0
 11
-138.9956596365174
 21
31.86176915747524
 31
0.0
  0
LINE
  5
119F7
  8
01
  6
CONTINUOUS
 10
-138.9956596365174
 20
31.86176915747524
 30
0.0
 11
-139.092224748989
 21
31.91715677363277
 31
0.0
  0
LINE
  5
119F8
  8
01
  6
CONTINUOUS
 10
-139.092224748989
 20
31.91715677363277
 30
0.0
 11
-139.1951554512581
 21
31.96863283497692
 31
0.0
  0
LINE
  5
119F9
  8
01
  6
CONTINUOUS
 10
-139.1951554512581
 20
31.96863283497692
 30
0.0
 11
-139.3039711808761
 21
32.01596264821887
 31
0.0
  0
LINE
  5
119FA
  8
01
  6
CONTINUOUS
 10
-139.3039711808761
 20
32.01596264821887
 30
0.0
 11
-139.4181634357175
 21
32.05892269594074
 31
0.0
  0
LINE
  5
119FB
  8
01
  6
CONTINUOUS
 10
-139.4181634357175
 20
32.05892269594074
 30
0.0
 11
-139.5372013619145
 21
32.09731553775669
 31
0.0
  0
LINE
  5
119FC
  8
01
  6
CONTINUOUS
 10
-139.5372013619145
 20
32.09731553775669
 30
0.0
 11
-139.6605289598903
 21
32.1309549091518
 31
0.0
  0
LINE
  5
119FD
  8
01
  6
CONTINUOUS
 10
-139.6605289598903
 20
32.1309549091518
 30
0.0
 11
-139.7875725349387
 21
32.15969179851413
 31
0.0
  0
LINE
  5
119FE
  8
01
  6
CONTINUOUS
 10
-139.7875725349387
 20
32.15969179851413
 30
0.0
 11
-139.9177379032573
 21
32.18338837010265
 31
0.0
  0
LINE
  5
119FF
  8
01
  6
CONTINUOUS
 10
-139.9177379032573
 20
32.18338837010265
 30
0.0
 11
-140.0504197051724
 21
32.20193286520839
 31
0.0
  0
LINE
  5
11A00
  8
01
  6
CONTINUOUS
 10
-140.0504197051724
 20
32.20193286520839
 30
0.0
 11
-140.1849976798495
 21
32.2152433274448
 31
0.0
  0
LINE
  5
11A01
  8
01
  6
CONTINUOUS
 10
-140.1849976798495
 20
32.2152433274448
 30
0.0
 11
-140.320846909841
 21
32.22325270158649
 31
0.0
  0
LINE
  5
11A02
  8
01
  6
CONTINUOUS
 10
-140.320846909841
 20
32.22325270158649
 30
0.0
 11
-140.4573313018283
 21
32.22592746002078
 31
0.0
  0
LINE
  5
11A03
  8
01
  6
CONTINUOUS
 10
-252.4573347588977
 20
32.22592746002078
 30
0.0
 11
-252.5938144942721
 21
32.22325270158649
 31
0.0
  0
LINE
  5
11A04
  8
01
  6
CONTINUOUS
 10
-252.5938144942721
 20
32.22325270158649
 30
0.0
 11
-252.7296683808764
 21
32.2152433274448
 31
0.0
  0
LINE
  5
11A05
  8
01
  6
CONTINUOUS
 10
-252.7296683808764
 20
32.2152433274448
 30
0.0
 11
-252.8642407676181
 21
32.20193286520839
 31
0.0
  0
LINE
  5
11A06
  8
01
  6
CONTINUOUS
 10
-252.8642407676181
 20
32.20193286520839
 30
0.0
 11
-252.9969281574687
 21
32.18338837010265
 31
0.0
  0
LINE
  5
11A07
  8
01
  6
CONTINUOUS
 10
-252.9969281574687
 20
32.18338837010265
 30
0.0
 11
-253.1270898004969
 21
32.15969179851413
 31
0.0
  0
LINE
  5
11A08
  8
01
  6
CONTINUOUS
 10
-253.1270898004969
 20
32.15969179851413
 30
0.0
 11
-253.2541371008357
 21
32.1309549091518
 31
0.0
  0
LINE
  5
11A09
  8
01
  6
CONTINUOUS
 10
-253.2541371008357
 20
32.1309549091518
 30
0.0
 11
-253.377459110876
 21
32.09731553775669
 31
0.0
  0
LINE
  5
11A0A
  8
01
  6
CONTINUOUS
 10
-253.377459110876
 20
32.09731553775669
 30
0.0
 11
-253.496497037073
 21
32.05892269594074
 31
0.0
  0
LINE
  5
11A0B
  8
01
  6
CONTINUOUS
 10
-253.496497037073
 20
32.05892269594074
 30
0.0
 11
-253.6106920858821
 21
32.01596264821887
 31
0.0
  0
LINE
  5
11A0C
  8
01
  6
CONTINUOUS
 10
-253.6106920858821
 20
32.01596264821887
 30
0.0
 11
-253.7195078155002
 21
31.96863283497692
 31
0.0
  0
LINE
  5
11A0D
  8
01
  6
CONTINUOUS
 10
-253.7195078155002
 20
31.96863283497692
 30
0.0
 11
-253.8224375864467
 21
31.91715677363277
 31
0.0
  0
LINE
  5
11A0E
  8
01
  6
CONTINUOUS
 10
-253.8224375864467
 20
31.91715677363277
 30
0.0
 11
-253.9190045615634
 21
31.86176915747524
 31
0.0
  0
LINE
  5
11A0F
  8
01
  6
CONTINUOUS
 10
-253.9190045615634
 20
31.86176915747524
 30
0.0
 11
-254.0087542554339
 21
31.80273075682521
 31
0.0
  0
LINE
  5
11A10
  8
01
  6
CONTINUOUS
 10
-254.0087542554339
 20
31.80273075682521
 30
0.0
 11
-254.0912694355449
 21
31.74031351787448
 31
0.0
  0
LINE
  5
11A11
  8
01
  6
CONTINUOUS
 10
-254.0912694355449
 20
31.74031351787448
 30
0.0
 11
-254.1661701222857
 21
31.67481546384693
 31
0.0
  0
LINE
  5
11A12
  8
01
  6
CONTINUOUS
 10
-254.1661701222857
 20
31.67481546384693
 30
0.0
 11
-254.2330986877879
 21
31.60653834325672
 31
0.0
  0
LINE
  5
11A13
  8
01
  6
CONTINUOUS
 10
-254.2330986877879
 20
31.60653834325672
 30
0.0
 11
-254.2917571088275
 21
31.53580253106952
 31
0.0
  0
LINE
  5
11A14
  8
01
  6
CONTINUOUS
 10
-254.2917571088275
 20
31.53580253106952
 30
0.0
 11
-254.3418548127612
 21
31.46293212754131
 31
0.0
  0
LINE
  5
11A15
  8
01
  6
CONTINUOUS
 10
-254.3418548127612
 20
31.46293212754131
 30
0.0
 11
-254.3831682821711
 21
31.38827358466983
 31
0.0
  0
LINE
  5
11A16
  8
01
  6
CONTINUOUS
 10
-254.3831682821711
 20
31.38827358466983
 30
0.0
 11
-254.4154963513812
 21
31.31216962916255
 31
0.0
  0
LINE
  5
11A17
  8
01
  6
CONTINUOUS
 10
-254.4154963513812
 20
31.31216962916255
 30
0.0
 11
-254.4387049099406
 21
31.23497788888812
 31
0.0
  0
LINE
  5
11A18
  8
01
  6
CONTINUOUS
 10
-254.4387049099406
 20
31.23497788888812
 30
0.0
 11
-254.4526672979792
 21
31.1570597170055
 31
0.0
  0
LINE
  5
11A19
  8
01
  6
CONTINUOUS
 10
-254.4526672979792
 20
31.1570597170055
 30
0.0
 11
-254.4573313614329
 21
31.07877274138332
 31
0.0
  0
LINE
  5
11A1A
  8
01
  6
CONTINUOUS
 10
21.60913033479522
 20
-88.16738142090136
 30
0.0
 11
21.48954847647094
 21
-88.1788293756251
 31
0.0
  0
LINE
  5
11A1B
  8
01
  6
CONTINUOUS
 10
21.48954847647094
 20
-88.1788293756251
 30
0.0
 11
21.37105301686719
 21
-88.19017347910537
 31
0.0
  0
LINE
  5
11A1C
  8
01
  6
CONTINUOUS
 10
21.37105301686719
 20
-88.19017347910537
 30
0.0
 11
21.25737936968982
 21
-88.20105512203465
 31
0.0
  0
LINE
  5
11A1D
  8
01
  6
CONTINUOUS
 10
21.25737936968982
 20
-88.20105512203465
 30
0.0
 11
21.14906057925171
 21
-88.21142518900788
 31
0.0
  0
LINE
  5
11A1E
  8
01
  6
CONTINUOUS
 10
21.14906057925171
 20
-88.21142518900788
 30
0.0
 11
21.04659641450763
 21
-88.22123284022251
 31
0.0
  0
LINE
  5
11A1F
  8
01
  6
CONTINUOUS
 10
21.04659641450763
 20
-88.22123284022251
 30
0.0
 11
20.95047281694937
 21
-88.23043652872444
 31
0.0
  0
LINE
  5
11A20
  8
01
  6
CONTINUOUS
 10
20.95047281694937
 20
-88.23043652872444
 30
0.0
 11
20.86112948744685
 21
-88.23898563833161
 31
0.0
  0
LINE
  5
11A21
  8
01
  6
CONTINUOUS
 10
20.86112948744685
 20
-88.23898563833161
 30
0.0
 11
20.77898819589227
 21
-88.24685364718201
 31
0.0
  0
LINE
  5
11A22
  8
01
  6
CONTINUOUS
 10
20.77898819589227
 20
-88.24685364718201
 30
0.0
 11
20.70442857507053
 21
-88.25399016271395
 31
0.0
  0
LINE
  5
11A23
  8
01
  6
CONTINUOUS
 10
20.70442857507053
 20
-88.25399016271395
 30
0.0
 11
20.63780400794943
 21
-88.26036845558659
 31
0.0
  0
LINE
  5
11A24
  8
01
  6
CONTINUOUS
 10
20.63780400794943
 20
-88.26036845558659
 30
0.0
 11
20.57941796445937
 21
-88.2659592098628
 31
0.0
  0
LINE
  5
11A25
  8
01
  6
CONTINUOUS
 10
20.57941796445937
 20
-88.2659592098628
 30
0.0
 11
20.52954571669564
 21
-88.27072998009974
 31
0.0
  0
LINE
  5
11A26
  8
01
  6
CONTINUOUS
 10
20.52954571669564
 20
-88.27072998009974
 30
0.0
 11
20.48842148546542
 21
-88.27466788056076
 31
0.0
  0
LINE
  5
11A27
  8
01
  6
CONTINUOUS
 10
20.48842148546542
 20
-88.27466788056076
 30
0.0
 11
20.45623508716103
 21
-88.27774771496493
 31
0.0
  0
LINE
  5
11A28
  8
01
  6
CONTINUOUS
 10
20.45623508716103
 20
-88.27774771496493
 30
0.0
 11
20.43313712309407
 21
-88.27996060542152
 31
0.0
  0
LINE
  5
11A29
  8
01
  6
CONTINUOUS
 10
20.43313712309407
 20
-88.27996060542152
 30
0.0
 11
20.4192351952699
 21
-88.28129044101937
 31
0.0
  0
LINE
  5
11A2A
  8
01
  6
CONTINUOUS
 10
20.4192351952699
 20
-88.28129044101937
 30
0.0
 11
20.41459444929698
 21
-88.28173559302974
 31
0.0
  0
LINE
  5
11A2B
  8
01
  6
CONTINUOUS
 10
20.31929737916406
 20
-87.28628864389667
 30
0.0
 11
20.32393812513698
 21
-87.2858434918863
 31
0.0
  0
LINE
  5
11A2C
  8
01
  6
CONTINUOUS
 10
20.32393812513698
 20
-87.2858434918863
 30
0.0
 11
20.33600259570036
 21
-87.28468868971214
 31
0.0
  0
LINE
  5
11A2D
  8
01
 10
-128.4573319504562
 20
-126.282022855205
 30
0.0
 11
-128.4628099898401
 21
-126.3419776772685
 31
0.0
  0
LINE
  5
11A2E
  8
01
 10
-128.4628099898401
 20
-126.3419776772685
 30
0.0
 11
-128.4791826407018
 21
-126.4012768482394
 31
0.0
  0
LINE
  5
11A2F
  8
01
 10
-128.4791826407018
 20
-126.4012768482394
 30
0.0
 11
-128.5062748143974
 21
-126.4592684423155
 31
0.0
  0
LINE
  5
11A30
  8
01
 10
-128.5062748143974
 20
-126.4592684423155
 30
0.0
 11
-128.5437866250577
 21
-126.515317297501
 31
0.0
  0
LINE
  5
11A31
  8
01
 10
-128.5437866250577
 20
-126.515317297501
 30
0.0
 11
-128.5913064281049
 21
-126.5688106035418
 31
0.0
  0
LINE
  5
11A32
  8
01
 10
-128.5913064281049
 20
-126.5688106035418
 30
0.0
 11
-128.6483145455423
 21
-126.619163489861
 31
0.0
  0
LINE
  5
11A33
  8
01
 10
-128.6483145455423
 20
-126.619163489861
 30
0.0
 11
-128.7141869912448
 21
-126.6658208882041
 31
0.0
  0
LINE
  5
11A34
  8
01
 10
-128.7141869912448
 20
-126.6658208882041
 30
0.0
 11
-128.7882010588947
 21
-126.7082724338002
 31
0.0
  0
LINE
  5
11A35
  8
01
 10
-128.7882010588947
 20
-126.7082724338002
 30
0.0
 11
-128.8695464978519
 21
-126.7460561906523
 31
0.0
  0
LINE
  5
11A36
  8
01
 10
-128.8695464978519
 20
-126.7460561906523
 30
0.0
 11
-128.95733110109
 21
-126.7787549262471
 31
0.0
  0
LINE
  5
11A37
  8
01
 10
-128.95733110109
 20
-126.7787549262471
 30
0.0
 11
-129.050593743712
 21
-126.8060110127158
 31
0.0
  0
LINE
  5
11A38
  8
01
 10
-129.050593743712
 20
-126.8060110127158
 30
0.0
 11
-129.1483136961761
 21
-126.8275264268345
 31
0.0
  0
LINE
  5
11A39
  8
01
 10
-129.1483136961761
 20
-126.8275264268345
 30
0.0
 11
-129.2494199375215
 21
-126.8430646126694
 31
0.0
  0
LINE
  5
11A3A
  8
01
 10
-129.2494199375215
 20
-126.8430646126694
 30
0.0
 11
-129.3528023312393
 21
-126.852457932157
 31
0.0
  0
LINE
  5
11A3B
  8
01
 10
-129.3528023312393
 20
-126.852457932157
 30
0.0
 11
-129.4573302517238
 21
-126.8555983518786
 31
0.0
  0
LINE
  5
11A3C
  8
01
 10
-136.4573313991132
 20
-126.8555983518786
 30
0.0
 11
-136.5618593195978
 21
-126.852457932157
 31
0.0
  0
LINE
  5
11A3D
  8
01
 10
-136.5618593195978
 20
-126.852457932157
 30
0.0
 11
-136.6652435759607
 21
-126.8430646126694
 31
0.0
  0
LINE
  5
11A3E
  8
01
 10
-136.6652435759607
 20
-126.8430646126694
 30
0.0
 11
-136.7663479546609
 21
-126.8275264268345
 31
0.0
  0
LINE
  5
11A3F
  8
01
 10
-136.7663479546609
 20
-126.8275264268345
 30
0.0
 11
-136.864067907125
 21
-126.8060110127158
 31
0.0
  0
LINE
  5
11A40
  8
01
 10
-136.864067907125
 20
-126.8060110127158
 30
0.0
 11
-136.957330549747
 21
-126.7787549262471
 31
0.0
  0
LINE
  5
11A41
  8
01
 10
-136.957330549747
 20
-126.7787549262471
 30
0.0
 11
-137.0451170156303
 21
-126.7460561906523
 31
0.0
  0
LINE
  5
11A42
  8
01
 10
-137.0451170156303
 20
-126.7460561906523
 30
0.0
 11
-137.1264624545875
 21
-126.7082724338002
 31
0.0
  0
LINE
  5
11A43
  8
01
 10
-137.1264624545875
 20
-126.7082724338002
 30
0.0
 11
-137.2004765222374
 21
-126.6658208882041
 31
0.0
  0
LINE
  5
11A44
  8
01
 10
-137.2004765222374
 20
-126.6658208882041
 30
0.0
 11
-137.2663489679399
 21
-126.619163489861
 31
0.0
  0
LINE
  5
11A45
  8
01
 10
-137.2663489679399
 20
-126.619163489861
 30
0.0
 11
-137.3233570853773
 21
-126.5688106035418
 31
0.0
  0
LINE
  5
11A46
  8
01
 10
-137.3233570853773
 20
-126.5688106035418
 30
0.0
 11
-137.3708768884244
 21
-126.515317297501
 31
0.0
  0
LINE
  5
11A47
  8
01
 10
-137.3708768884244
 20
-126.515317297501
 30
0.0
 11
-137.4083868364397
 21
-126.4592684423155
 31
0.0
  0
LINE
  5
11A48
  8
01
 10
-137.4083868364397
 20
-126.4592684423155
 30
0.0
 11
-137.4354790101352
 21
-126.4012768482394
 31
0.0
  0
LINE
  5
11A49
  8
01
 10
-137.4354790101352
 20
-126.4012768482394
 30
0.0
 11
-137.4518535236421
 21
-126.3419776772685
 31
0.0
  0
LINE
  5
11A4A
  8
01
 10
-137.4518535236421
 20
-126.3419776772685
 30
0.0
 11
-137.457331563026
 21
-126.282022855205
 31
0.0
  0
LINE
  5
11A4B
  8
01
 10
-255.457332114369
 20
-126.282022855205
 30
0.0
 11
-255.4628082911078
 21
-126.3419776772685
 31
0.0
  0
LINE
  5
11A4C
  8
01
 10
-255.4628082911078
 20
-126.3419776772685
 30
0.0
 11
-255.4791846672598
 21
-126.4012768482394
 31
0.0
  0
LINE
  5
11A4D
  8
01
 10
-255.4791846672598
 20
-126.4012768482394
 30
0.0
 11
-255.5062749783102
 21
-126.4592684423155
 31
0.0
  0
LINE
  5
11A4E
  8
01
 10
-255.5062749783102
 20
-126.4592684423155
 30
0.0
 11
-255.5437886516157
 21
-126.515317297501
 31
0.0
  0
LINE
  5
11A4F
  8
01
 10
-255.5437886516157
 20
-126.515317297501
 30
0.0
 11
-255.5913084546629
 21
-126.5688106035418
 31
0.0
  0
LINE
  5
11A50
  8
01
 10
-255.5913084546629
 20
-126.5688106035418
 30
0.0
 11
-255.64831284681
 21
-126.619163489861
 31
0.0
  0
LINE
  5
11A51
  8
01
 10
-255.64831284681
 20
-126.619163489861
 30
0.0
 11
-255.7141834298674
 21
-126.6658208882041
 31
0.0
  0
LINE
  5
11A52
  8
01
 10
-255.7141834298674
 20
-126.6658208882041
 30
0.0
 11
-255.7881974975172
 21
-126.7082724338002
 31
0.0
  0
LINE
  5
11A53
  8
01
 10
-255.7881974975172
 20
-126.7082724338002
 30
0.0
 11
-255.8695429364744
 21
-126.7460561906523
 31
0.0
  0
LINE
  5
11A54
  8
01
 10
-255.8695429364744
 20
-126.7460561906523
 30
0.0
 11
-255.957333127648
 21
-126.7787549262471
 31
0.0
  0
LINE
  5
11A55
  8
01
 10
-255.957333127648
 20
-126.7787549262471
 30
0.0
 11
-256.0505920449797
 21
-126.8060110127158
 31
0.0
  0
LINE
  5
11A56
  8
01
 10
-256.0505920449797
 20
-126.8060110127158
 30
0.0
 11
-256.1483138600889
 21
-126.8275264268345
 31
0.0
  0
LINE
  5
11A57
  8
01
 10
-256.1483138600889
 20
-126.8275264268345
 30
0.0
 11
-256.2494182387892
 21
-126.8430646126694
 31
0.0
  0
LINE
  5
11A58
  8
01
 10
-256.2494182387892
 20
-126.8430646126694
 30
0.0
 11
-256.3528024951521
 21
-126.852457932157
 31
0.0
  0
LINE
  5
11A59
  8
01
 10
-256.3528024951521
 20
-126.852457932157
 30
0.0
 11
-256.4573341409269
 21
-126.8555983518786
 31
0.0
  0
LINE
  5
11A5A
  8
01
 10
-263.4573334256712
 20
-126.8555983518786
 30
0.0
 11
-263.5618576208655
 21
-126.852457932157
 31
0.0
  0
LINE
  5
11A5B
  8
01
 10
-263.5618576208655
 20
-126.852457932157
 30
0.0
 11
-263.6652418772284
 21
-126.8430646126694
 31
0.0
  0
LINE
  5
11A5C
  8
01
 10
-263.6652418772284
 20
-126.8430646126694
 30
0.0
 11
-263.7663462559286
 21
-126.8275264268345
 31
0.0
  0
LINE
  5
11A5D
  8
01
 10
-263.7663462559286
 20
-126.8275264268345
 30
0.0
 11
-263.8640680710379
 21
-126.8060110127158
 31
0.0
  0
LINE
  5
11A5E
  8
01
 10
-263.8640680710379
 20
-126.8060110127158
 30
0.0
 11
-263.9573344389502
 21
-126.7787549262471
 31
0.0
  0
LINE
  5
11A5F
  8
01
 10
-263.9573344389502
 20
-126.7787549262471
 30
0.0
 11
-264.0451171795431
 21
-126.7460561906523
 31
0.0
  0
LINE
  5
11A60
  8
01
 10
-264.0451171795431
 20
-126.7460561906523
 30
0.0
 11
-264.1264626185003
 21
-126.7082724338002
 31
0.0
  0
LINE
  5
11A61
  8
01
 10
-264.1264626185003
 20
-126.7082724338002
 30
0.0
 11
-264.2004766861502
 21
-126.6658208882041
 31
0.0
  0
LINE
  5
11A62
  8
01
 10
-264.2004766861502
 20
-126.6658208882041
 30
0.0
 11
-264.2663472692076
 21
-126.619163489861
 31
0.0
  0
LINE
  5
11A63
  8
01
 10
-264.2663472692076
 20
-126.619163489861
 30
0.0
 11
-264.3233591119352
 21
-126.5688106035418
 31
0.0
  0
LINE
  5
11A64
  8
01
 10
-264.3233591119352
 20
-126.5688106035418
 30
0.0
 11
-264.3708789149824
 21
-126.515317297501
 31
0.0
  0
LINE
  5
11A65
  8
01
 10
-264.3708789149824
 20
-126.515317297501
 30
0.0
 11
-264.4083851377073
 21
-126.4592684423155
 31
0.0
  0
LINE
  5
11A66
  8
01
 10
-264.4083851377073
 20
-126.4592684423155
 30
0.0
 11
-264.4354754487578
 21
-126.4012768482394
 31
0.0
  0
LINE
  5
11A67
  8
01
 10
-264.4354754487578
 20
-126.4012768482394
 30
0.0
 11
-264.4518518249098
 21
-126.3419776772685
 31
0.0
  0
LINE
  5
11A68
  8
01
 10
-264.4518518249098
 20
-126.3419776772685
 30
0.0
 11
-264.4573280016485
 21
-126.282022855205
 31
0.0
  0
LINE
  5
11A69
  8
01
 10
-264.4573280016485
 20
-119.442103019876
 30
0.0
 11
-264.4518518249098
 21
-119.5020578419394
 31
0.0
  0
LINE
  5
11A6A
  8
01
 10
-264.4518518249098
 20
-119.5020578419394
 30
0.0
 11
-264.4354754487578
 21
-119.5613570129103
 31
0.0
  0
LINE
  5
11A6B
  8
01
 10
-264.4354754487578
 20
-119.5613570129103
 30
0.0
 11
-264.4083851377073
 21
-119.6193486069865
 31
0.0
  0
LINE
  5
11A6C
  8
01
 10
-264.4083851377073
 20
-119.6193486069865
 30
0.0
 11
-264.3708789149824
 21
-119.6753993248171
 31
0.0
  0
LINE
  5
11A6D
  8
01
 10
-264.3708789149824
 20
-119.6753993248171
 30
0.0
 11
-264.3233591119352
 21
-119.7288907682128
 31
0.0
  0
LINE
  5
11A6E
  8
01
 10
-264.3233591119352
 20
-119.7288907682128
 30
0.0
 11
-264.2663472692076
 21
-119.7792417918868
 31
0.0
  0
LINE
  5
11A6F
  8
01
 10
-264.2663472692076
 20
-119.7792417918868
 30
0.0
 11
-264.2004766861502
 21
-119.825901052875
 31
0.0
  0
LINE
  5
11A70
  8
01
 10
-264.2004766861502
 20
-119.825901052875
 30
0.0
 11
-264.1264626185003
 21
-119.8683544611163
 31
0.0
  0
LINE
  5
11A71
  8
01
 10
-264.1264626185003
 20
-119.8683544611163
 30
0.0
 11
-264.0451171795431
 21
-119.9061363553233
 31
0.0
  0
LINE
  5
11A72
  8
01
 10
-264.0451171795431
 20
-119.9061363553233
 30
0.0
 11
-263.9573344389502
 21
-119.9388332282729
 31
0.0
  0
LINE
  5
11A73
  8
01
 10
-263.9573344389502
 20
-119.9388332282729
 30
0.0
 11
-263.8640680710379
 21
-119.9660911773867
 31
0.0
  0
LINE
  5
11A74
  8
01
 10
-263.8640680710379
 20
-119.9660911773867
 30
0.0
 11
-263.7663462559286
 21
-119.9876084541506
 31
0.0
  0
LINE
  5
11A75
  8
01
 10
-263.7663462559286
 20
-119.9876084541506
 30
0.0
 11
-263.6652418772284
 21
-120.0031466399855
 31
0.0
  0
LINE
  5
11A76
  8
01
 10
-263.6652418772284
 20
-120.0031466399855
 30
0.0
 11
-263.5618576208655
 21
-120.0125380968279
 31
0.0
  0
LINE
  5
11A77
  8
01
 10
-263.5618576208655
 20
-120.0125380968279
 30
0.0
 11
-263.4573334256712
 21
-120.0156785165495
 31
0.0
  0
LINE
  5
11A78
  8
01
 10
-137.457331563026
 20
-119.442103019876
 30
0.0
 11
-137.4518535236421
 21
-119.5020578419394
 31
0.0
  0
LINE
  5
11A79
  8
01
 10
-137.4518535236421
 20
-119.5020578419394
 30
0.0
 11
-137.4354790101352
 21
-119.5613570129103
 31
0.0
  0
LINE
  5
11A7A
  8
01
 10
-137.4354790101352
 20
-119.5613570129103
 30
0.0
 11
-137.4083868364397
 21
-119.6193486069865
 31
0.0
  0
LINE
  5
11A7B
  8
01
 10
-137.4083868364397
 20
-119.6193486069865
 30
0.0
 11
-137.3708768884244
 21
-119.6753993248171
 31
0.0
  0
LINE
  5
11A7C
  8
01
 10
-137.3708768884244
 20
-119.6753993248171
 30
0.0
 11
-137.3233570853773
 21
-119.7288907682128
 31
0.0
  0
LINE
  5
11A7D
  8
01
 10
-137.3233570853773
 20
-119.7288907682128
 30
0.0
 11
-137.2663489679399
 21
-119.7792417918868
 31
0.0
  0
LINE
  5
11A7E
  8
01
 10
-137.2663489679399
 20
-119.7792417918868
 30
0.0
 11
-137.2004765222374
 21
-119.825901052875
 31
0.0
  0
LINE
  5
11A7F
  8
01
 10
-137.2004765222374
 20
-119.825901052875
 30
0.0
 11
-137.1264624545875
 21
-119.8683544611163
 31
0.0
  0
LINE
  5
11A80
  8
01
 10
-137.1264624545875
 20
-119.8683544611163
 30
0.0
 11
-137.0451170156303
 21
-119.9061363553233
 31
0.0
  0
LINE
  5
11A81
  8
01
 10
-137.0451170156303
 20
-119.9061363553233
 30
0.0
 11
-136.957330549747
 21
-119.9388332282729
 31
0.0
  0
LINE
  5
11A82
  8
01
 10
-136.957330549747
 20
-119.9388332282729
 30
0.0
 11
-136.864067907125
 21
-119.9660911773867
 31
0.0
  0
LINE
  5
11A83
  8
01
 10
-136.864067907125
 20
-119.9660911773867
 30
0.0
 11
-136.7663479546609
 21
-119.9876084541506
 31
0.0
  0
LINE
  5
11A84
  8
01
 10
-136.7663479546609
 20
-119.9876084541506
 30
0.0
 11
-136.6652435759607
 21
-120.0031466399855
 31
0.0
  0
LINE
  5
11A85
  8
01
 10
-136.6652435759607
 20
-120.0031466399855
 30
0.0
 11
-136.5618593195978
 21
-120.0125380968279
 31
0.0
  0
LINE
  5
11A86
  8
01
 10
-136.5618593195978
 20
-120.0125380968279
 30
0.0
 11
-136.4573313991132
 21
-120.0156785165495
 31
0.0
  0
LINE
  5
11A87
  8
01
 10
-129.4573302517238
 20
-120.0156785165495
 30
0.0
 11
-129.3528023312393
 21
-120.0125380968279
 31
0.0
  0
LINE
  5
11A88
  8
01
 10
-129.3528023312393
 20
-120.0125380968279
 30
0.0
 11
-129.2494199375215
 21
-120.0031466399855
 31
0.0
  0
LINE
  5
11A89
  8
01
 10
-129.2494199375215
 20
-120.0031466399855
 30
0.0
 11
-129.1483136961761
 21
-119.9876084541506
 31
0.0
  0
LINE
  5
11A8A
  8
01
 10
-129.1483136961761
 20
-119.9876084541506
 30
0.0
 11
-129.050593743712
 21
-119.9660911773867
 31
0.0
  0
LINE
  5
11A8B
  8
01
 10
-129.050593743712
 20
-119.9660911773867
 30
0.0
 11
-128.95733110109
 21
-119.9388332282729
 31
0.0
  0
LINE
  5
11A8C
  8
01
 10
-128.95733110109
 20
-119.9388332282729
 30
0.0
 11
-128.8695464978519
 21
-119.9061363553233
 31
0.0
  0
LINE
  5
11A8D
  8
01
 10
-128.8695464978519
 20
-119.9061363553233
 30
0.0
 11
-128.7882010588947
 21
-119.8683544611163
 31
0.0
  0
LINE
  5
11A8E
  8
01
 10
-128.7882010588947
 20
-119.8683544611163
 30
0.0
 11
-128.7141869912448
 21
-119.825901052875
 31
0.0
  0
LINE
  5
11A8F
  8
01
 10
-128.7141869912448
 20
-119.825901052875
 30
0.0
 11
-128.6483145455423
 21
-119.7792417918868
 31
0.0
  0
LINE
  5
11A90
  8
01
 10
-128.6483145455423
 20
-119.7792417918868
 30
0.0
 11
-128.5913064281049
 21
-119.7288907682128
 31
0.0
  0
LINE
  5
11A91
  8
01
 10
-128.5913064281049
 20
-119.7288907682128
 30
0.0
 11
-128.5437866250577
 21
-119.6753993248171
 31
0.0
  0
LINE
  5
11A92
  8
01
 10
-128.5437866250577
 20
-119.6753993248171
 30
0.0
 11
-128.5062748143974
 21
-119.6193486069865
 31
0.0
  0
LINE
  5
11A93
  8
01
 10
-128.5062748143974
 20
-119.6193486069865
 30
0.0
 11
-128.4791826407018
 21
-119.5613570129103
 31
0.0
  0
LINE
  5
11A94
  8
01
 10
-128.4791826407018
 20
-119.5613570129103
 30
0.0
 11
-128.4628099898401
 21
-119.5020578419394
 31
0.0
  0
LINE
  5
11A95
  8
01
 10
-128.4628099898401
 20
-119.5020578419394
 30
0.0
 11
-128.4573319504562
 21
-119.442103019876
 31
0.0
  0
LINE
  5
11A96
  8
01
 10
-256.4573341409269
 20
-120.0156785165495
 30
0.0
 11
-256.3528024951521
 21
-120.0125380968279
 31
0.0
  0
LINE
  5
11A97
  8
01
 10
-256.3528024951521
 20
-120.0125380968279
 30
0.0
 11
-256.2494182387892
 21
-120.0031466399855
 31
0.0
  0
LINE
  5
11A98
  8
01
 10
-256.2494182387892
 20
-120.0031466399855
 30
0.0
 11
-256.1483138600889
 21
-119.9876084541506
 31
0.0
  0
LINE
  5
11A99
  8
01
 10
-256.1483138600889
 20
-119.9876084541506
 30
0.0
 11
-256.0505920449797
 21
-119.9660911773867
 31
0.0
  0
LINE
  5
11A9A
  8
01
 10
-256.0505920449797
 20
-119.9660911773867
 30
0.0
 11
-255.957333127648
 21
-119.9388332282729
 31
0.0
  0
LINE
  5
11A9B
  8
01
 10
-255.957333127648
 20
-119.9388332282729
 30
0.0
 11
-255.8695429364744
 21
-119.9061363553233
 31
0.0
  0
LINE
  5
11A9C
  8
01
 10
-255.8695429364744
 20
-119.9061363553233
 30
0.0
 11
-255.7881974975172
 21
-119.8683544611163
 31
0.0
  0
LINE
  5
11A9D
  8
01
 10
-255.7881974975172
 20
-119.8683544611163
 30
0.0
 11
-255.7141834298674
 21
-119.825901052875
 31
0.0
  0
LINE
  5
11A9E
  8
01
 10
-255.7141834298674
 20
-119.825901052875
 30
0.0
 11
-255.64831284681
 21
-119.7792417918868
 31
0.0
  0
LINE
  5
11A9F
  8
01
 10
-255.64831284681
 20
-119.7792417918868
 30
0.0
 11
-255.5913084546629
 21
-119.7288907682128
 31
0.0
  0
LINE
  5
11AA0
  8
01
 10
-255.5913084546629
 20
-119.7288907682128
 30
0.0
 11
-255.5437886516157
 21
-119.6753993248171
 31
0.0
  0
LINE
  5
11AA1
  8
01
 10
-255.5437886516157
 20
-119.6753993248171
 30
0.0
 11
-255.5062749783102
 21
-119.6193486069865
 31
0.0
  0
LINE
  5
11AA2
  8
01
 10
-255.5062749783102
 20
-119.6193486069865
 30
0.0
 11
-255.4791846672598
 21
-119.5613570129103
 31
0.0
  0
LINE
  5
11AA3
  8
01
 10
-255.4791846672598
 20
-119.5613570129103
 30
0.0
 11
-255.4628082911078
 21
-119.5020578419394
 31
0.0
  0
LINE
  5
11AA4
  8
01
 10
-255.4628082911078
 20
-119.5020578419394
 30
0.0
 11
-255.457332114369
 21
-119.442103019876
 31
0.0
  0
LINE
  5
11AA5
  8
01
 10
-270.9573347369734
 20
-127.9614545022673
 30
0.0
 11
-270.9518511096541
 21
-128.0214093243308
 31
0.0
  0
LINE
  5
11AA6
  8
01
 10
-270.9518511096541
 20
-128.0214093243308
 30
0.0
 11
-270.9354821840826
 21
-128.0807084953017
 31
0.0
  0
LINE
  5
11AA7
  8
01
 10
-270.9354821840826
 20
-128.0807084953017
 30
0.0
 11
-270.9083844224516
 21
-128.1387000893778
 31
0.0
  0
LINE
  5
11AA8
  8
01
 10
-270.9083844224516
 20
-128.1387000893778
 30
0.0
 11
-270.8708781997267
 21
-128.1947489445633
 31
0.0
  0
LINE
  5
11AA9
  8
01
 10
-270.8708781997267
 20
-128.1947489445633
 30
0.0
 11
-270.8233583966795
 21
-128.2482422506041
 31
0.0
  0
LINE
  5
11AAA
  8
01
 10
-270.8233583966795
 20
-128.2482422506041
 30
0.0
 11
-270.7663465539518
 21
-128.2985951369233
 31
0.0
  0
LINE
  5
11AAB
  8
01
 10
-270.7663465539518
 20
-128.2985951369233
 30
0.0
 11
-270.7004759708944
 21
-128.3452525352664
 31
0.0
  0
LINE
  5
11AAC
  8
01
 10
-270.7004759708944
 20
-128.3452525352664
 30
0.0
 11
-270.6264619032446
 21
-128.3877040808625
 31
0.0
  0
LINE
  5
11AAD
  8
01
 10
-270.6264619032446
 20
-128.3877040808625
 30
0.0
 11
-270.5451164642874
 21
-128.4254878377146
 31
0.0
  0
LINE
  5
11AAE
  8
01
 10
-270.5451164642874
 20
-128.4254878377146
 30
0.0
 11
-270.4573337236944
 21
-128.4581865733094
 31
0.0
  0
LINE
  5
11AAF
  8
01
 10
-270.4573337236944
 20
-128.4581865733094
 30
0.0
 11
-270.3640673557821
 21
-128.4854426597781
 31
0.0
  0
LINE
  5
11AB0
  8
01
 10
-270.3640673557821
 20
-128.4854426597781
 30
0.0
 11
-270.2663455406729
 21
-128.5069580738968
 31
0.0
  0
LINE
  5
11AB1
  8
01
 10
-270.2663455406729
 20
-128.5069580738968
 30
0.0
 11
-270.1652411619726
 21
-128.5224962597317
 31
0.0
  0
LINE
  5
11AB2
  8
01
 10
-270.1652411619726
 20
-128.5224962597317
 30
0.0
 11
-270.0618569056097
 21
-128.5318895792193
 31
0.0
  0
LINE
  5
11AB3
  8
01
 10
-270.0618569056097
 20
-128.5318895792193
 30
0.0
 11
-269.9573327104155
 21
-128.535031861586
 31
0.0
  0
LINE
  5
11AB4
  8
01
 10
-122.9573328296247
 20
-128.535031861586
 30
0.0
 11
-122.8528011838499
 21
-128.5318895792193
 31
0.0
  0
LINE
  5
11AB5
  8
01
 10
-122.8528011838499
 20
-128.5318895792193
 30
0.0
 11
-122.7494206527772
 21
-128.5224962597317
 31
0.0
  0
LINE
  5
11AB6
  8
01
 10
-122.7494206527772
 20
-128.5224962597317
 30
0.0
 11
-122.6483125487867
 21
-128.5069580738968
 31
0.0
  0
LINE
  5
11AB7
  8
01
 10
-122.6483125487867
 20
-128.5069580738968
 30
0.0
 11
-122.5505944589677
 21
-128.4854426597781
 31
0.0
  0
LINE
  5
11AB8
  8
01
 10
-122.5505944589677
 20
-128.4854426597781
 30
0.0
 11
-122.4573318163457
 21
-128.4581865733094
 31
0.0
  0
LINE
  5
11AB9
  8
01
 10
-122.4573318163457
 20
-128.4581865733094
 30
0.0
 11
-122.3695453504625
 21
-128.4254878377146
 31
0.0
  0
LINE
  5
11ABA
  8
01
 10
-122.3695453504625
 20
-128.4254878377146
 30
0.0
 11
-122.2881999115053
 21
-128.3877040808625
 31
0.0
  0
LINE
  5
11ABB
  8
01
 10
-122.2881999115053
 20
-128.3877040808625
 30
0.0
 11
-122.2141858438554
 21
-128.3452525352664
 31
0.0
  0
LINE
  5
11ABC
  8
01
 10
-122.2141858438554
 20
-128.3452525352664
 30
0.0
 11
-122.148315260798
 21
-128.2985951369233
 31
0.0
  0
LINE
  5
11ABD
  8
01
 10
-122.148315260798
 20
-128.2985951369233
 30
0.0
 11
-122.0913071433607
 21
-128.2482422506041
 31
0.0
  0
LINE
  5
11ABE
  8
01
 10
-122.0913071433607
 20
-128.2482422506041
 30
0.0
 11
-122.0437873403135
 21
-128.1947489445633
 31
0.0
  0
LINE
  5
11ABF
  8
01
 10
-122.0437873403135
 20
-128.1947489445633
 30
0.0
 11
-122.006273667008
 21
-128.1387000893778
 31
0.0
  0
LINE
  5
11AC0
  8
01
 10
-122.006273667008
 20
-128.1387000893778
 30
0.0
 11
-121.9791833559576
 21
-128.0807084953017
 31
0.0
  0
LINE
  5
11AC1
  8
01
 10
-121.9791833559576
 20
-128.0807084953017
 30
0.0
 11
-121.9628107050958
 21
-128.0214093243308
 31
0.0
  0
LINE
  5
11AC2
  8
01
 10
-121.9628107050958
 20
-128.0214093243308
 30
0.0
 11
-121.9573308030668
 21
-127.9614545022673
 31
0.0
  0
LINE
  5
11AC3
  8
01
 10
-181.0143212778394
 20
-84.85743834950927
 30
0.0
 11
-181.0139630238119
 21
-84.85839288584654
 31
0.0
  0
LINE
  5
11AC4
  8
01
 10
-181.0139630238119
 20
-84.85839288584654
 30
0.0
 11
-180.9655696401897
 21
-84.9582828199095
 31
0.0
  0
LINE
  5
11AC5
  8
01
 10
-180.9655696401897
 20
-84.9582828199095
 30
0.0
 11
-180.9076395134035
 21
-85.05471568457548
 31
0.0
  0
LINE
  5
11AC6
  8
01
 10
-180.9076395134035
 20
-85.05471568457548
 30
0.0
 11
-180.8405414471927
 21
-85.14706563107435
 31
0.0
  0
LINE
  5
11AC7
  8
01
 10
-180.8405414471927
 20
-85.14706563107435
 30
0.0
 11
-180.7646982620063
 21
-85.23475896470015
 31
0.0
  0
LINE
  5
11AC8
  8
01
 10
-180.7646982620063
 20
-85.23475896470015
 30
0.0
 11
-180.6805886576477
 21
-85.3172368919081
 31
0.0
  0
LINE
  5
11AC9
  8
01
 10
-180.6805886576477
 20
-85.3172368919081
 30
0.0
 11
-180.5887453506294
 21
-85.39397787205641
 31
0.0
  0
LINE
  5
11ACA
  8
01
 10
-180.5887453506294
 20
-85.39397787205641
 30
0.0
 11
-180.4897494862381
 21
-85.46450506798689
 31
0.0
  0
LINE
  5
11ACB
  8
01
 10
-180.4897494862381
 20
-85.46450506798689
 30
0.0
 11
-180.3842250505987
 21
-85.52836399428313
 31
0.0
  0
LINE
  5
11ACC
  8
01
 10
-180.3842250505987
 20
-85.52836399428313
 30
0.0
 11
-180.272842595965
 21
-85.58515231959288
 31
0.0
  0
LINE
  5
11ACD
  8
01
 10
-180.272842595965
 20
-85.58515231959288
 30
0.0
 11
-180.156302476913
 21
-85.6345124160475
 31
0.0
  0
LINE
  5
11ACE
  8
01
 10
-180.156302476913
 20
-85.6345124160475
 30
0.0
 11
-180.0353441635671
 21
-85.67613135926192
 31
0.0
  0
LINE
  5
11ACF
  8
01
 10
-180.0353441635671
 20
-85.67613135926192
 30
0.0
 11
-179.9107313404384
 21
-85.70974837891524
 31
0.0
  0
LINE
  5
11AD0
  8
01
 10
-179.9107313404384
 20
-85.70974837891524
 30
0.0
 11
-179.7832519064251
 21
-85.73514740817015
 31
0.0
  0
LINE
  5
11AD1
  8
01
 10
-179.7832519064251
 20
-85.73514740817015
 30
0.0
 11
-179.6537105242315
 21
-85.75217198483412
 31
0.0
  0
LINE
  5
11AD2
  8
01
 10
-179.6537105242315
 20
-85.75217198483412
 30
0.0
 11
-179.5229286203685
 21
-85.7607103501982
 31
0.0
  0
LINE
  5
11AD3
  8
01
 10
-179.5229286203685
 20
-85.7607103501982
 30
0.0
 11
-179.3917332092824
 21
-85.7607103501982
 31
0.0
  0
LINE
  5
11AD4
  8
01
 10
-179.3917332092824
 20
-85.7607103501982
 30
0.0
 11
-179.2609513054195
 21
-85.75217198483412
 31
0.0
  0
LINE
  5
11AD5
  8
01
 10
-179.2609513054195
 20
-85.75217198483412
 30
0.0
 11
-179.1314117858711
 21
-85.73514740817015
 31
0.0
  0
LINE
  5
11AD6
  8
01
 10
-179.1314117858711
 20
-85.73514740817015
 30
0.0
 11
-179.0039304892126
 21
-85.70974837891524
 31
0.0
  0
LINE
  5
11AD7
  8
01
 10
-179.0039304892126
 20
-85.70974837891524
 30
0.0
 11
-178.8793176660839
 21
-85.67613135926192
 31
0.0
  0
LINE
  5
11AD8
  8
01
 10
-178.8793176660839
 20
-85.67613135926192
 30
0.0
 11
-178.758359352738
 21
-85.6345124160475
 31
0.0
  0
LINE
  5
11AD9
  8
01
 10
-178.758359352738
 20
-85.6345124160475
 30
0.0
 11
-178.641819233686
 21
-85.58515231959288
 31
0.0
  0
LINE
  5
11ADA
  8
01
 10
-178.641819233686
 20
-85.58515231959288
 30
0.0
 11
-178.5304367790523
 21
-85.52836399428313
 31
0.0
  0
LINE
  5
11ADB
  8
01
 10
-178.5304367790523
 20
-85.52836399428313
 30
0.0
 11
-178.4249123434129
 21
-85.46450506798689
 31
0.0
  0
LINE
  5
11ADC
  8
01
 10
-178.4249123434129
 20
-85.46450506798689
 30
0.0
 11
-178.3259164790216
 21
-85.39397787205641
 31
0.0
  0
LINE
  5
11ADD
  8
01
 10
-178.3259164790216
 20
-85.39397787205641
 30
0.0
 11
-178.2340731720033
 21
-85.3172368919081
 31
0.0
  0
LINE
  5
11ADE
  8
01
 10
-178.2340731720033
 20
-85.3172368919081
 30
0.0
 11
-178.1499635676446
 21
-85.23475896470015
 31
0.0
  0
LINE
  5
11ADF
  8
01
 10
-178.1499635676446
 20
-85.23475896470015
 30
0.0
 11
-178.0741203824583
 21
-85.14706563107435
 31
0.0
  0
LINE
  5
11AE0
  8
01
 10
-178.0741203824583
 20
-85.14706563107435
 30
0.0
 11
-178.0070223162475
 21
-85.05471568457548
 31
0.0
  0
LINE
  5
11AE1
  8
01
 10
-178.0070223162475
 20
-85.05471568457548
 30
0.0
 11
-177.9490921894613
 21
-84.9582828199095
 31
0.0
  0
LINE
  5
11AE2
  8
01
 10
-177.9490921894613
 20
-84.9582828199095
 30
0.0
 11
-177.9006988058391
 21
-84.85839288584654
 31
0.0
  0
LINE
  5
11AE3
  8
01
 10
-177.9006988058391
 20
-84.85839288584654
 30
0.0
 11
-177.9003405691202
 21
-84.85743834950927
 31
0.0
  0
LINE
  5
11AE4
  8
01
 10
-211.9003405369105
 20
-84.85743834950927
 30
0.0
 11
-211.900698790938
 21
-84.85839288584654
 31
0.0
  0
LINE
  5
11AE5
  8
01
 10
-211.900698790938
 20
-84.85839288584654
 30
0.0
 11
-211.9490940372053
 21
-84.9582828199095
 31
0.0
  0
LINE
  5
11AE6
  8
01
 10
-211.9490940372053
 20
-84.9582828199095
 30
0.0
 11
-212.0070223013464
 21
-85.05471568457548
 31
0.0
  0
LINE
  5
11AE7
  8
01
 10
-212.0070223013464
 20
-85.05471568457548
 30
0.0
 11
-212.0741222302023
 21
-85.14706563107435
 31
0.0
  0
LINE
  5
11AE8
  8
01
 10
-212.0741222302023
 20
-85.14706563107435
 30
0.0
 11
-212.1499654153887
 21
-85.23475896470015
 31
0.0
  0
LINE
  5
11AE9
  8
01
 10
-212.1499654153887
 20
-85.23475896470015
 30
0.0
 11
-212.2340750197474
 21
-85.3172368919081
 31
0.0
  0
LINE
  5
11AEA
  8
01
 10
-212.2340750197474
 20
-85.3172368919081
 30
0.0
 11
-212.3259183267656
 21
-85.39397787205641
 31
0.0
  0
LINE
  5
11AEB
  8
01
 10
-212.3259183267656
 20
-85.39397787205641
 30
0.0
 11
-212.424914191157
 21
-85.46450506798689
 31
0.0
  0
LINE
  5
11AEC
  8
01
 10
-212.424914191157
 20
-85.46450506798689
 30
0.0
 11
-212.5304367641512
 21
-85.52836399428313
 31
0.0
  0
LINE
  5
11AED
  8
01
 10
-212.5304367641512
 20
-85.52836399428313
 30
0.0
 11
-212.6418192187849
 21
-85.58515231959288
 31
0.0
  0
LINE
  5
11AEE
  8
01
 10
-212.6418192187849
 20
-85.58515231959288
 30
0.0
 11
-212.758361200482
 21
-85.6345124160475
 31
0.0
  0
LINE
  5
11AEF
  8
01
 10
-212.758361200482
 20
-85.6345124160475
 30
0.0
 11
-212.8793176511828
 21
-85.67613135926192
 31
0.0
  0
LINE
  5
11AF0
  8
01
 10
-212.8793176511828
 20
-85.67613135926192
 30
0.0
 11
-213.0039323369566
 21
-85.70974837891524
 31
0.0
  0
LINE
  5
11AF1
  8
01
 10
-213.0039323369566
 20
-85.70974837891524
 30
0.0
 11
-213.13141177097
 21
-85.73514740817015
 31
0.0
  0
LINE
  5
11AF2
  8
01
 10
-213.13141177097
 20
-85.73514740817015
 30
0.0
 11
-213.2609512905184
 21
-85.75217198483412
 31
0.0
  0
LINE
  5
11AF3
  8
01
 10
-213.2609512905184
 20
-85.75217198483412
 30
0.0
 11
-213.3917313317362
 21
-85.7607103501982
 31
0.0
  0
LINE
  5
11AF4
  8
01
 10
-213.3917313317362
 20
-85.7607103501982
 30
0.0
 11
-213.5229286054674
 21
-85.7607103501982
 31
0.0
  0
LINE
  5
11AF5
  8
01
 10
-213.5229286054674
 20
-85.7607103501982
 30
0.0
 11
-213.6537123719755
 21
-85.75217198483412
 31
0.0
  0
LINE
  5
11AF6
  8
01
 10
-213.6537123719755
 20
-85.75217198483412
 30
0.0
 11
-213.7832518915239
 21
-85.73514740817015
 31
0.0
  0
LINE
  5
11AF7
  8
01
 10
-213.7832518915239
 20
-85.73514740817015
 30
0.0
 11
-213.9107313255373
 21
-85.70974837891524
 31
0.0
  0
LINE
  5
11AF8
  8
01
 10
-213.9107313255373
 20
-85.70974837891524
 30
0.0
 11
-214.0353422860209
 21
-85.67613135926192
 31
0.0
  0
LINE
  5
11AF9
  8
01
 10
-214.0353422860209
 20
-85.67613135926192
 30
0.0
 11
-214.1563024620119
 21
-85.6345124160475
 31
0.0
  0
LINE
  5
11AFA
  8
01
 10
-214.1563024620119
 20
-85.6345124160475
 30
0.0
 11
-214.2728407184187
 21
-85.58515231959288
 31
0.0
  0
LINE
  5
11AFB
  8
01
 10
-214.2728407184187
 20
-85.58515231959288
 30
0.0
 11
-214.3842268983427
 21
-85.52836399428313
 31
0.0
  0
LINE
  5
11AFC
  8
01
 10
-214.3842268983427
 20
-85.52836399428313
 30
0.0
 11
-214.4897494713369
 21
-85.46450506798689
 31
0.0
  0
LINE
  5
11AFD
  8
01
 10
-214.4897494713369
 20
-85.46450506798689
 30
0.0
 11
-214.5887453357283
 21
-85.39397787205641
 31
0.0
  0
LINE
  5
11AFE
  8
01
 10
-214.5887453357283
 20
-85.39397787205641
 30
0.0
 11
-214.6805886427466
 21
-85.3172368919081
 31
0.0
  0
LINE
  5
11AFF
  8
01
 10
-214.6805886427466
 20
-85.3172368919081
 30
0.0
 11
-214.7646982471052
 21
-85.23475896470015
 31
0.0
  0
LINE
  5
11B00
  8
01
 10
-214.7646982471052
 20
-85.23475896470015
 30
0.0
 11
-214.8405414322916
 21
-85.14706563107435
 31
0.0
  0
LINE
  5
11B01
  8
01
 10
-214.8405414322916
 20
-85.14706563107435
 30
0.0
 11
-214.9076413611475
 21
-85.05471568457548
 31
0.0
  0
LINE
  5
11B02
  8
01
 10
-214.9076413611475
 20
-85.05471568457548
 30
0.0
 11
-214.9655696252886
 21
-84.9582828199095
 31
0.0
  0
LINE
  5
11B03
  8
01
 10
-214.9655696252886
 20
-84.9582828199095
 30
0.0
 11
-215.0139648715559
 21
-84.85839288584654
 31
0.0
  0
LINE
  5
11B04
  8
01
 10
-215.0139648715559
 20
-84.85839288584654
 30
0.0
 11
-215.0143230909662
 21
-84.85743834950927
 31
0.0
  0
LINE
  5
11B05
  8
1DIM
 10
-171.4573307951888
 20
46.16957356316448
 30
0.0
 11
-105.4573311677181
 21
46.16957356316447
 31
0.0
1001
ACAD
1000
DSTYLE
1002
{
1070
    45
1040
0.5
1070
   271
1070
     0
1002
}
  0
LINE
  5
11B06
  8
1DIM
 10
-132.9573310038051
 20
-47.99012455063462
 30
0.0
 11
-105.4573311677181
 21
-47.99012455063462
 31
0.0
1001
ACAD
1000
DSTYLE
1002
{
1070
    45
1040
0.5
1070
   271
1070
     0
1002
}
  0
LINE
  5
11B07
  8
1DIM
 10
-106.4573311677181
 20
44.16957356316447
 30
0.0
 11
-106.4573311677181
 21
-45.99012455063462
 31
0.0
1001
ACAD
1000
DSTYLE
1002
{
1070
    45
1040
0.5
1070
   271
1070
     0
1002
}
  0
SOLID
  5
11B0B
  8
1DIM
 10
-48.78125071176085
 20
-115.106711176025
 30
0.0
 11
-47.66157693897782
 21
-116.7971080979498
 31
0.0
 12
-49.26896464466711
 22
-115.5612214224371
 32
0.0
 13
-49.26896464466711
 23
-115.5612214224371
 33
0.0
1001
ACAD
1000
DSTYLE
1002
{
1070
    45
1040
0.5
1002
}
  0
LINE
  5
11B0C
  8
1DIM
 10
-49.02510767821398
 20
-115.333966299231
 30
0.0
 11
-72.03526930665234
 21
-90.64282564133602
 31
0.0
1001
ACAD
1000
DSTYLE
1002
{
1070
    45
1040
0.5
1002
}
  0
LINE
  5
11B0D
  8
1DIM
 10
-72.03526930665234
 20
-90.64282564133602
 30
0.0
 11
-111.7186026399857
 21
-90.64282564133602
 31
0.0
1001
ACAD
1000
DSTYLE
1002
{
1070
    45
1040
0.5
1002
}
  0
TEXT
  5
11B0E
  8
1DIM
  6
CONTINUOUS
 10
-107.2852693066523
 20
-84.10949230800269
 30
0.0
 40
3.5
  1
材質：ステンレス
  0
TEXT
  5
11B0F
  8
1DIM
  6
CONTINUOUS
 10
-111.8352693066523
 20
-89.94282564133601
 30
0.0
 40
3.5
  1
仕上げ：各種仕上げ
  0
SOLID
  5
11B10
  8
1DIM
 10
-36.56373482628977
 20
-71.49330863254588
 30
0.0
 11
-35.54438758735736
 21
-73.24603288855194
 31
0.0
 12
-37.07708608559269
 22
-71.91864958874051
 32
0.0
 13
-37.07708608559269
 23
-71.91864958874051
 33
0.0
1001
ACAD
1000
DSTYLE
1002
{
1070
    45
1040
0.5
1002
}
  0
LINE
  5
11B11
  8
1DIM
 10
-36.82041045594123
 20
-71.7059791106432
 30
0.0
 11
-55.56406161358039
 21
-49.08394663158462
 31
0.0
1001
ACAD
1000
DSTYLE
1002
{
1070
    45
1040
0.5
1002
}
  0
LINE
  5
11B12
  8
1DIM
 10
-55.56406161358039
 20
-49.08394663158462
 30
0.0
 11
-95.24739494691372
 21
-49.08394663158462
 31
0.0
1001
ACAD
1000
DSTYLE
1002
{
1070
    45
1040
0.5
1002
}
  0
TEXT
  5
11B13
  8
1DIM
  6
CONTINUOUS
 10
-90.81406161358039
 20
-42.55061329825129
 30
0.0
 40
3.5
  1
材質：ステンレス
  0
TEXT
  5
11B14
  8
1DIM
  6
CONTINUOUS
 10
-95.36406161358038
 20
-48.38394663158462
 30
0.0
 40
3.5
  1
仕上げ：各種仕上げ
  0
LINE
  5
11B15
  8
1DIM
 10
73.50358342342804
 20
-104.8304264368358
 30
0.0
 11
86.04266883228195
 21
-104.8304264368358
 31
0.0
1001
ACAD
1000
DSTYLE
1002
{
1070
    45
1040
0.5
1070
   271
1070
     0
1002
}
  0
LINE
  5
11B16
  8
1DIM
 10
40.54267020318878
 20
-90.83042786734723
 30
0.0
 11
86.04266883228195
 21
-90.83042786734723
 31
0.0
1001
ACAD
1000
DSTYLE
1002
{
1070
    45
1040
0.5
1070
   271
1070
     0
1002
}
  0
LINE
  5
11B17
  8
1DIM
 10
85.04266883228195
 20
-102.8304264368358
 30
0.0
 11
85.04266883228195
 21
-92.83042786734723
 31
0.0
1001
ACAD
1000
DSTYLE
1002
{
1070
    45
1040
0.5
1070
   271
1070
     0
1002
}
  0
LINE
  5
11B1B
  8
1DIM
 10
43.54266883228195
 20
-118.8304250063243
 30
0.0
 11
96.04266883228195
 21
-118.8304250063243
 31
0.0
1001
ACAD
1000
DSTYLE
1002
{
1070
    45
1040
0.5
1002
}
  0
LINE
  5
11B1C
  8
1DIM
 10
40.54267020318878
 20
-90.83042786734723
 30
0.0
 11
96.04266883228195
 21
-90.83042786734723
 31
0.0
1001
ACAD
1000
DSTYLE
1002
{
1070
    45
1040
0.5
1002
}
  0
LINE
  5
11B1D
  8
1DIM
 10
95.04266883228195
 20
-116.8304250063243
 30
0.0
 11
95.04266883228195
 21
-92.83042786734723
 31
0.0
1001
ACAD
1000
DSTYLE
1002
{
1070
    45
1040
0.5
1002
}
  0
LINE
  5
11B21
  8
1DIM
 10
-171.4573307951888
 20
46.16957356316448
 30
0.0
 11
-171.4573307951888
 21
57.25822453889656
 31
0.0
1001
ACAD
1000
DSTYLE
1002
{
1070
    45
1040
0.5
1002
}
  0
LINE
  5
11B22
  8
1DIM
 10
-221.4573315402469
 20
46.16957356316448
 30
0.0
 11
-221.4573315402469
 21
57.25822453889656
 31
0.0
1001
ACAD
1000
DSTYLE
1002
{
1070
    45
1040
0.5
1002
}
  0
LINE
  5
11B23
  8
1DIM
 10
-173.4573307951888
 20
56.25822453889656
 30
0.0
 11
-219.4573315402469
 21
56.25822453889656
 31
0.0
1001
ACAD
1000
DSTYLE
1002
{
1070
    45
1040
0.5
1002
}
  0
SOLID
  5
11B27
  8
1DIM
 10
47.19727513668224
 20
-82.94452529940062
 30
0.0
 11
46.45634040998937
 21
-84.83188505363182
 31
0.0
 12
46.54510793386709
 22
-82.80624159097218
 32
0.0
 13
46.54510793386709
 23
-82.80624159097218
 33
0.0
1001
ACAD
1000
DSTYLE
1002
{
1070
    45
1040
0.5
1002
}
  0
LINE
  5
11B28
  8
1DIM
 10
46.87119153527466
 20
-82.8753834451864
 30
0.0
 11
49.58018434310445
 21
-70.09935738971633
 31
0.0
1001
ACAD
1000
DSTYLE
1002
{
1070
    45
1040
0.5
1002
}
  0
SOLID
  5
11B29
  8
1DIM
 10
60.33269328184744
 20
-82.94452529940062
 30
0.0
 11
59.59175855515457
 21
-84.83188505363182
 31
0.0
 12
59.6805260790323
 22
-82.80624159097218
 32
0.0
 13
59.6805260790323
 23
-82.80624159097218
 33
0.0
1001
ACAD
1000
DSTYLE
1002
{
1070
    45
1040
0.5
1002
}
  0
LINE
  5
11B2A
  8
1DIM
 10
60.00660968043987
 20
-82.8753834451864
 30
0.0
 11
62.71560248826965
 21
-70.09935738971633
 31
0.0
1001
ACAD
1000
DSTYLE
1002
{
1070
    45
1040
0.5
1002
}
  0
LINE
  5
11B2B
  8
0
 10
-179.4572846349245
 20
77.1695735630021
 30
0.0
 11
-180.9572846349245
 21
71.86957705314043
 31
0.0
  0
LINE
  5
11B2C
  8
0
 10
-180.9572846349245
 20
71.86957705314043
 30
0.0
 11
-180.9572846349242
 21
42.16957705324856
 31
0.0
  0
LINE
  5
11B2D
  8
0
 10
-179.4572846349245
 20
77.1695735630021
 30
0.0
 11
-177.9572846349243
 21
71.8695700727568
 31
0.0
  0
LINE
  5
11B2E
  8
0
 10
-182.9573311708223
 20
42.16958170694664
 30
0.0
 11
-175.9573311708224
 21
42.16956541938231
 31
0.0
  0
LINE
  5
11B2F
  8
0
 10
-177.9572846349243
 20
71.8695700727568
 30
0.0
 11
-177.9572846349242
 21
42.16957007286385
 31
0.0
  0
LINE
  5
11B30
  8
0
 10
-182.9573311708223
 20
42.16958170694664
 30
0.0
 11
-182.9573311708224
 21
41.06957821675132
 31
0.0
  0
ARC
  5
11B31
  8
0
 10
-181.4573311708224
 20
41.06957821675132
 30
0.0
 40
1.5
 50
180.0
 51
269.9998666844684
  0
LINE
  5
11B32
  8
0
 10
-175.9573311708224
 20
42.16956541938231
 30
0.0
 11
-175.9573311708224
 21
41.06956890957173
 31
0.0
  0
LINE
  5
11B33
  8
0
 10
-181.4573346610148
 20
39.56957821675539
 30
0.0
 11
-177.4573346610148
 21
39.56956890957579
 31
0.0
  0
ARC
  5
11B34
  8
0
 10
-177.4573311708224
 20
41.06956890957173
 30
0.0
 40
1.5
 50
269.9998666844684
 51
0.0
  0
LINE
  5
11B35
  8
1CENTER
 10
-179.4573311708224
 20
78.60036848046755
 30
0.0
 11
-179.4573311708224
 21
38.49929715385565
 31
0.0
  0
LINE
  5
11B36
  8
0
 10
-180.5516549848174
 20
75.06957610932429
 30
0.0
 11
-178.589319895942
 21
75.86957154337526
 31
0.0
  0
LINE
  5
11B37
  8
0
 10
-178.589319895942
 20
75.86957154337526
 30
0.0
 11
-179.1775964709844
 21
76.18134139962737
 31
0.0
  0
LINE
  5
11B38
  8
0
 10
-181.4572846349245
 20
52.66957821653429
 30
0.0
 11
-177.4572846349245
 21
53.46956890935255
 31
0.0
  0
LINE
  5
11B39
  8
0
 10
-181.4572846349245
 20
63.86957821653866
 30
0.0
 11
-177.4572846349245
 21
64.66956890936123
 31
0.0
  0
LINE
  5
11B3A
  8
0
 10
-181.4572846349245
 20
67.0695782165387
 30
0.0
 11
-177.4572846349245
 21
67.86956890936128
 31
0.0
  0
LINE
  5
11B3B
  8
0
 10
-177.4572846349245
 20
67.86956890936128
 30
0.0
 11
-177.9572846349245
 21
67.9695700727585
 31
0.0
  0
LINE
  5
11B3C
  8
0
 10
-180.9572846349245
 20
68.5695770531415
 30
0.0
 11
-181.4572846349245
 21
68.66957821653872
 31
0.0
  0
LINE
  5
11B3D
  8
0
 10
-177.4572846349245
 20
64.66956890936123
 30
0.0
 11
-177.9572846349245
 21
64.76957007275846
 31
0.0
  0
LINE
  5
11B3E
  8
0
 10
-177.4572846349245
 20
66.26956890936137
 30
0.0
 11
-177.9572846349245
 21
66.36957007275848
 31
0.0
  0
LINE
  5
11B3F
  8
0
 10
-180.9572846349245
 20
66.96957705314159
 30
0.0
 11
-181.4572846349245
 21
67.0695782165387
 31
0.0
  0
LINE
  5
11B40
  8
0
 10
-180.9572846349245
 20
65.36957705314168
 30
0.0
 11
-181.4572846349245
 21
65.46957821653879
 31
0.0
  0
LINE
  5
11B41
  8
0
 10
-181.4572846349245
 20
65.46957821653879
 30
0.0
 11
-177.4572846349245
 21
66.26956890936137
 31
0.0
  0
LINE
  5
11B42
  8
0
 10
-178.1365057915352
 20
74.26957048976962
 30
0.0
 11
-178.6882552553385
 21
74.45233463239762
 31
0.0
  0
LINE
  5
11B43
  8
0
 10
-177.4572846349245
 20
71.06956890936132
 30
0.0
 11
-177.9572846349245
 21
71.16957007275843
 31
0.0
  0
LINE
  5
11B44
  8
0
 10
-177.4572846349245
 20
69.4695689093613
 30
0.0
 11
-177.9572846349245
 21
69.5695700727583
 31
0.0
  0
LINE
  5
11B45
  8
0
 10
-177.6836916871284
 20
72.66956943616398
 30
0.0
 11
-178.2202854223996
 21
72.79884013379385
 31
0.0
  0
LINE
  5
11B46
  8
0
 10
-180.5363700377158
 20
73.35680765057847
 30
0.0
 11
-181.0044684928657
 21
73.46957716292852
 31
0.0
  0
LINE
  5
11B47
  8
0
 10
-180.9572846349245
 20
70.16957705314164
 30
0.0
 11
-181.4572846349245
 21
70.26957821653875
 31
0.0
  0
LINE
  5
11B48
  8
0
 10
-180.9572846349245
 20
71.76957705314155
 30
0.0
 11
-181.4572846349245
 21
71.86957821653866
 31
0.0
  0
LINE
  5
11B49
  8
0
 10
-180.0944831441864
 20
74.91814031288388
 30
0.0
 11
-180.5516549848174
 21
75.06957610932429
 31
0.0
  0
LINE
  5
11B4A
  8
0
 10
-181.0044684928657
 20
73.46957716292852
 30
0.0
 11
-178.1365057915352
 21
74.26957048976962
 31
0.0
  0
LINE
  5
11B4B
  8
0
 10
-181.4572846349245
 20
70.26957821653875
 30
0.0
 11
-177.4572846349245
 21
71.06956890936132
 31
0.0
  0
LINE
  5
11B4C
  8
0
 10
-181.4572846349245
 20
71.86957821653866
 30
0.0
 11
-177.6836916871284
 21
72.66956943616398
 31
0.0
  0
LINE
  5
11B4D
  8
0
 10
-181.4572846349245
 20
68.66957821653872
 30
0.0
 11
-177.4572846349245
 21
69.4695689093613
 31
0.0
  0
LINE
  5
11B4E
  8
0
 10
-181.4572846349245
 20
55.86957821653434
 30
0.0
 11
-177.4572846349245
 21
56.66956890935259
 31
0.0
  0
LINE
  5
11B4F
  8
0
 10
-177.4572846349245
 20
56.66956890935259
 30
0.0
 11
-177.9572846349245
 21
56.76957007275027
 31
0.0
  0
LINE
  5
11B50
  8
0
 10
-180.9572846349245
 20
57.369577053141
 30
0.0
 11
-181.4572846349245
 21
57.46957821653868
 31
0.0
  0
LINE
  5
11B51
  8
0
 10
-177.4572846349245
 20
55.06956890935245
 30
0.0
 11
-177.9572846349245
 21
55.16957007275013
 31
0.0
  0
LINE
  5
11B52
  8
0
 10
-177.4572846349245
 20
53.46956890935255
 30
0.0
 11
-177.9572846349245
 21
53.56957007275022
 31
0.0
  0
LINE
  5
11B53
  8
0
 10
-180.9572846349245
 20
55.76957705313666
 30
0.0
 11
-181.4572846349245
 21
55.86957821653434
 31
0.0
  0
LINE
  5
11B54
  8
0
 10
-180.9572846349245
 20
54.16957705313652
 30
0.0
 11
-181.4572846349245
 21
54.2695782165342
 31
0.0
  0
LINE
  5
11B55
  8
0
 10
-181.4572846349245
 20
54.2695782165342
 30
0.0
 11
-177.4572846349245
 21
55.06956890935245
 31
0.0
  0
LINE
  5
11B56
  8
0
 10
-177.4572846349245
 20
61.46956890935698
 30
0.0
 11
-177.9572846349245
 21
61.56957007275466
 31
0.0
  0
LINE
  5
11B57
  8
0
 10
-177.4572846349245
 20
63.06956890936132
 30
0.0
 11
-177.9572846349245
 21
63.16957007275843
 31
0.0
  0
LINE
  5
11B58
  8
0
 10
-177.4572846349245
 20
58.26956890935693
 30
0.0
 11
-177.9572846349245
 21
58.36957007275461
 31
0.0
  0
LINE
  5
11B59
  8
0
 10
-177.4572846349245
 20
59.86956890935684
 30
0.0
 11
-177.9572846349245
 21
59.96957007275452
 31
0.0
  0
LINE
  5
11B5A
  8
0
 10
-180.9572846349245
 20
63.76957705314155
 30
0.0
 11
-181.4572846349245
 21
63.86957821653866
 31
0.0
  0
LINE
  5
11B5B
  8
0
 10
-180.9572846349245
 20
62.16957705314096
 30
0.0
 11
-181.4572846349245
 21
62.26957821653875
 31
0.0
  0
LINE
  5
11B5C
  8
0
 10
-180.9572846349245
 20
58.96957705314091
 30
0.0
 11
-181.4572846349245
 21
59.06957821653859
 31
0.0
  0
LINE
  5
11B5D
  8
0
 10
-180.9572846349245
 20
60.56957705314105
 30
0.0
 11
-181.4572846349245
 21
60.66957821653872
 31
0.0
  0
LINE
  5
11B5E
  8
0
 10
-181.4572846349245
 20
60.66957821653872
 30
0.0
 11
-177.4572846349245
 21
61.46956890935698
 31
0.0
  0
LINE
  5
11B5F
  8
0
 10
-181.4572846349245
 20
62.26957821653875
 30
0.0
 11
-177.4572846349245
 21
63.06956890936132
 31
0.0
  0
LINE
  5
11B60
  8
0
 10
-181.4572846349245
 20
59.06957821653859
 30
0.0
 11
-177.4572846349245
 21
59.86956890935684
 31
0.0
  0
LINE
  5
11B61
  8
0
 10
-181.4572846349245
 20
57.46957821653868
 30
0.0
 11
-177.4572846349245
 21
58.26956890935693
 31
0.0
  0
LINE
  5
11B62
  8
0
 10
-180.9572846349245
 20
47.76957705313245
 30
0.0
 11
-181.4572846349245
 21
47.86957821653013
 31
0.0
  0
LINE
  5
11B63
  8
0
 10
-181.4572846349245
 20
47.86957821653013
 30
0.0
 11
-177.4572846349245
 21
48.66956890934838
 31
0.0
  0
LINE
  5
11B64
  8
0
 10
-177.4572846349245
 20
48.66956890934838
 30
0.0
 11
-177.9572846349245
 21
48.76957007274606
 31
0.0
  0
LINE
  5
11B65
  8
0
 10
-180.9572846349245
 20
49.36957705313236
 30
0.0
 11
-181.4572846349245
 21
49.46957821653004
 31
0.0
  0
LINE
  5
11B66
  8
0
 10
-180.9572846349245
 20
50.96957705313227
 30
0.0
 11
-181.4572846349245
 21
51.06957821652995
 31
0.0
  0
LINE
  5
11B67
  8
0
 10
-181.4572846349245
 20
51.06957821652995
 30
0.0
 11
-177.4572846349245
 21
51.8695689093482
 31
0.0
  0
LINE
  5
11B68
  8
0
 10
-177.4572846349245
 20
50.26956890934829
 30
0.0
 11
-177.9572846349245
 21
50.36957007274597
 31
0.0
  0
LINE
  5
11B69
  8
0
 10
-177.4572846349245
 20
51.8695689093482
 30
0.0
 11
-177.9572846349245
 21
51.96957007274588
 31
0.0
  0
LINE
  5
11B6A
  8
0
 10
-181.4572846349245
 20
49.46957821653004
 30
0.0
 11
-177.4572846349245
 21
50.26956890934829
 31
0.0
  0
LINE
  5
11B6B
  8
0
 10
-180.9572846349245
 20
52.56957705313661
 30
0.0
 11
-181.4572846349245
 21
52.66957821653429
 31
0.0
  0
LINE
  5
11B6C
  8
0
 10
-180.9572846349245
 20
46.16957705313254
 30
0.0
 11
-181.4572846349245
 21
46.26957821653022
 31
0.0
  0
LINE
  5
11B6D
  8
0
 10
-181.4572846349245
 20
46.26957821653022
 30
0.0
 11
-177.4572846349245
 21
47.06956890934848
 31
0.0
  0
LINE
  5
11B6E
  8
0
 10
-177.4572846349245
 20
47.06956890934848
 30
0.0
 11
-177.9572846349245
 21
47.16957007274615
 31
0.0
  0
LINE
  5
11B6F
  8
0
 10
-180.9572846349245
 20
44.56957705313263
 30
0.0
 11
-181.4572846349245
 21
44.66957821653031
 31
0.0
  0
LINE
  5
11B70
  8
0
 10
-181.4572846349245
 20
44.66957821653031
 30
0.0
 11
-177.4572846349245
 21
45.46956890934857
 31
0.0
  0
LINE
  5
11B71
  8
0
 10
-177.4572846349245
 20
45.46956890934857
 30
0.0
 11
-177.9572846349245
 21
45.56957007274625
 31
0.0
  0
LINE
  5
11B72
  8
0
 10
-180.9572846349245
 20
42.96957705313272
 30
0.0
 11
-181.4572846349245
 21
43.0695782165304
 31
0.0
  0
LINE
  5
11B73
  8
0
 10
-181.4572846349245
 20
43.0695782165304
 30
0.0
 11
-177.4572846349245
 21
43.86956890934866
 31
0.0
  0
LINE
  5
11B74
  8
0
 10
-177.4572846349245
 20
43.86956890934866
 30
0.0
 11
-177.9572846349245
 21
43.96957007274634
 31
0.0
  0
LINE
  5
11B75
  8
0
 10
74.54266883211957
 20
-104.8304729727337
 30
0.0
 11
69.2426723222579
 21
-103.3304729727337
 31
0.0
  0
LINE
  5
11B76
  8
0
 10
69.2426723222579
 20
-103.3304729727337
 30
0.0
 11
39.54267232236603
 21
-103.3304729727339
 31
0.0
  0
LINE
  5
11B77
  8
0
 10
74.54266883211957
 20
-104.8304729727337
 30
0.0
 11
69.24266534187427
 21
-106.3304729727338
 31
0.0
  0
LINE
  5
11B78
  8
0
 10
39.54267697606412
 20
-101.3304264368359
 30
0.0
 11
39.54266068849978
 21
-108.3304264368358
 31
0.0
  0
LINE
  5
11B79
  8
0
 10
69.24266534187427
 20
-106.3304729727338
 30
0.0
 11
39.54266534198132
 21
-106.3304729727339
 31
0.0
  0
LINE
  5
11B7A
  8
0
 10
39.54267697606412
 20
-101.3304264368359
 30
0.0
 11
38.4426734858688
 21
-101.3304264368358
 31
0.0
  0
ARC
  5
11B7B
  8
0
 10
38.4426734858688
 20
-102.8304264368358
 30
0.0
 40
1.5
 50
90.0
 51
179.9998666844684
  0
LINE
  5
11B7C
  8
0
 10
39.54266068849978
 20
-108.3304264368358
 30
0.0
 11
38.4426641786892
 21
-108.3304264368358
 31
0.0
  0
LINE
  5
11B7D
  8
0
 10
36.94267348587286
 20
-102.8304229466434
 30
0.0
 11
36.94266417869326
 21
-106.8304229466434
 31
0.0
  0
ARC
  5
11B7E
  8
0
 10
38.4426641786892
 20
-106.8304264368358
 30
0.0
 40
1.5
 50
179.9998666844684
 51
270.0
  0
LINE
  5
11B7F
  8
1CENTER
 10
75.97346374958502
 20
-104.8304264368358
 30
0.0
 11
35.87239242297312
 21
-104.8304264368358
 31
0.0
  0
LINE
  5
11B80
  8
0
 10
72.44267137844176
 20
-103.7361026228407
 30
0.0
 11
73.24266681249273
 21
-105.6984377117161
 31
0.0
  0
LINE
  5
11B81
  8
0
 10
73.24266681249273
 20
-105.6984377117161
 30
0.0
 11
73.55443666874484
 21
-105.1101611366737
 31
0.0
  0
LINE
  5
11B82
  8
0
 10
50.04267348565176
 20
-102.8304729727337
 30
0.0
 11
50.84266417847002
 21
-106.8304729727337
 31
0.0
  0
LINE
  5
11B83
  8
0
 10
61.24267348565613
 20
-102.8304729727337
 30
0.0
 11
62.0426641784787
 21
-106.8304729727337
 31
0.0
  0
LINE
  5
11B84
  8
0
 10
64.44267348565617
 20
-102.8304729727337
 30
0.0
 11
65.24266417847875
 21
-106.8304729727337
 31
0.0
  0
LINE
  5
11B85
  8
0
 10
65.24266417847875
 20
-106.8304729727337
 30
0.0
 11
65.34266534187597
 21
-106.3304729727337
 31
0.0
  0
LINE
  5
11B86
  8
0
 10
65.94267232225897
 20
-103.3304729727337
 30
0.0
 11
66.0426734856562
 21
-102.8304729727337
 31
0.0
  0
LINE
  5
11B87
  8
0
 10
62.0426641784787
 20
-106.8304729727337
 30
0.0
 11
62.14266534187593
 21
-106.3304729727337
 31
0.0
  0
LINE
  5
11B88
  8
0
 10
63.64266417847884
 20
-106.8304729727337
 30
0.0
 11
63.74266534187595
 21
-106.3304729727337
 31
0.0
  0
LINE
  5
11B89
  8
0
 10
64.34267232225906
 20
-103.3304729727337
 30
0.0
 11
64.44267348565617
 21
-102.8304729727337
 31
0.0
  0
LINE
  5
11B8A
  8
0
 10
62.74267232225915
 20
-103.3304729727337
 30
0.0
 11
62.84267348565626
 21
-102.8304729727337
 31
0.0
  0
LINE
  5
11B8B
  8
0
 10
62.84267348565626
 20
-102.8304729727337
 30
0.0
 11
63.64266417847884
 21
-106.8304729727337
 31
0.0
  0
LINE
  5
11B8C
  8
0
 10
71.64266575888709
 20
-106.1512518161229
 30
0.0
 11
71.8254299015151
 21
-105.5995023523196
 31
0.0
  0
LINE
  5
11B8D
  8
0
 10
68.4426641784788
 20
-106.8304729727337
 30
0.0
 11
68.5426653418759
 21
-106.3304729727337
 31
0.0
  0
LINE
  5
11B8E
  8
0
 10
66.84266417847877
 20
-106.8304729727337
 30
0.0
 11
66.94266534187577
 21
-106.3304729727337
 31
0.0
  0
LINE
  5
11B8F
  8
0
 10
70.04266470528145
 20
-106.6040659205297
 30
0.0
 11
70.17193540291132
 21
-106.0674721852586
 31
0.0
  0
LINE
  5
11B90
  8
0
 10
70.72990291969595
 20
-103.7513875699424
 30
0.0
 11
70.84267243204599
 21
-103.2832891147924
 31
0.0
  0
LINE
  5
11B91
  8
0
 10
67.54267232225911
 20
-103.3304729727337
 30
0.0
 11
67.64267348565622
 21
-102.8304729727337
 31
0.0
  0
LINE
  5
11B92
  8
0
 10
69.14267232225902
 20
-103.3304729727337
 30
0.0
 11
69.24267348565613
 21
-102.8304729727337
 31
0.0
  0
LINE
  5
11B93
  8
0
 10
72.29123558200135
 20
-104.1932744634718
 30
0.0
 11
72.44267137844176
 21
-103.7361026228407
 31
0.0
  0
LINE
  5
11B94
  8
0
 10
70.84267243204599
 20
-103.2832891147924
 30
0.0
 11
71.64266575888709
 21
-106.1512518161229
 31
0.0
  0
LINE
  5
11B95
  8
0
 10
67.64267348565622
 20
-102.8304729727337
 30
0.0
 11
68.4426641784788
 21
-106.8304729727337
 31
0.0
  0
LINE
  5
11B96
  8
0
 10
69.24267348565613
 20
-102.8304729727337
 30
0.0
 11
70.04266470528145
 21
-106.6040659205297
 31
0.0
  0
LINE
  5
11B97
  8
0
 10
66.0426734856562
 20
-102.8304729727337
 30
0.0
 11
66.84266417847877
 21
-106.8304729727337
 31
0.0
  0
LINE
  5
11B98
  8
0
 10
53.24267348565181
 20
-102.8304729727337
 30
0.0
 11
54.04266417847006
 21
-106.8304729727337
 31
0.0
  0
LINE
  5
11B99
  8
0
 10
54.04266417847006
 20
-106.8304729727337
 30
0.0
 11
54.14266534186774
 21
-106.3304729727337
 31
0.0
  0
LINE
  5
11B9A
  8
0
 10
54.74267232225847
 20
-103.3304729727337
 30
0.0
 11
54.84267348565615
 21
-102.8304729727337
 31
0.0
  0
LINE
  5
11B9B
  8
0
 10
52.44266417846993
 20
-106.8304729727337
 30
0.0
 11
52.5426653418676
 21
-106.3304729727337
 31
0.0
  0
LINE
  5
11B9C
  8
0
 10
50.84266417847002
 20
-106.8304729727337
 30
0.0
 11
50.94266534186769
 21
-106.3304729727337
 31
0.0
  0
LINE
  5
11B9D
  8
0
 10
53.14267232225413
 20
-103.3304729727337
 30
0.0
 11
53.24267348565181
 21
-102.8304729727337
 31
0.0
  0
LINE
  5
11B9E
  8
0
 10
51.54267232225399
 20
-103.3304729727337
 30
0.0
 11
51.64267348565167
 21
-102.8304729727337
 31
0.0
  0
LINE
  5
11B9F
  8
0
 10
51.64267348565167
 20
-102.8304729727337
 30
0.0
 11
52.44266417846993
 21
-106.8304729727337
 31
0.0
  0
LINE
  5
11BA0
  8
0
 10
58.84266417847445
 20
-106.8304729727337
 30
0.0
 11
58.94266534187213
 21
-106.3304729727337
 31
0.0
  0
LINE
  5
11BA1
  8
0
 10
60.44266417847879
 20
-106.8304729727337
 30
0.0
 11
60.5426653418759
 21
-106.3304729727337
 31
0.0
  0
LINE
  5
11BA2
  8
0
 10
55.6426641784744
 20
-106.8304729727337
 30
0.0
 11
55.74266534187208
 21
-106.3304729727337
 31
0.0
  0
LINE
  5
11BA3
  8
0
 10
57.24266417847431
 20
-106.8304729727337
 30
0.0
 11
57.34266534187199
 21
-106.3304729727337
 31
0.0
  0
LINE
  5
11BA4
  8
0
 10
61.14267232225902
 20
-103.3304729727337
 30
0.0
 11
61.24267348565613
 21
-102.8304729727337
 31
0.0
  0
LINE
  5
11BA5
  8
0
 10
59.54267232225843
 20
-103.3304729727337
 30
0.0
 11
59.64267348565622
 21
-102.8304729727337
 31
0.0
  0
LINE
  5
11BA6
  8
0
 10
56.34267232225838
 20
-103.3304729727337
 30
0.0
 11
56.44267348565606
 21
-102.8304729727337
 31
0.0
  0
LINE
  5
11BA7
  8
0
 10
57.94267232225852
 20
-103.3304729727337
 30
0.0
 11
58.04267348565619
 21
-102.8304729727337
 31
0.0
  0
LINE
  5
11BA8
  8
0
 10
58.04267348565619
 20
-102.8304729727337
 30
0.0
 11
58.84266417847445
 21
-106.8304729727337
 31
0.0
  0
LINE
  5
11BA9
  8
0
 10
59.64267348565622
 20
-102.8304729727337
 30
0.0
 11
60.44266417847879
 21
-106.8304729727337
 31
0.0
  0
LINE
  5
11BAA
  8
0
 10
56.44267348565606
 20
-102.8304729727337
 30
0.0
 11
57.24266417847431
 21
-106.8304729727337
 31
0.0
  0
LINE
  5
11BAB
  8
0
 10
54.84267348565615
 20
-102.8304729727337
 30
0.0
 11
55.6426641784744
 21
-106.8304729727337
 31
0.0
  0
LINE
  5
11BAC
  8
0
 10
45.14267232224992
 20
-103.3304729727337
 30
0.0
 11
45.2426734856476
 21
-102.8304729727337
 31
0.0
  0
LINE
  5
11BAD
  8
0
 10
45.2426734856476
 20
-102.8304729727337
 30
0.0
 11
46.04266417846586
 21
-106.8304729727337
 31
0.0
  0
LINE
  5
11BAE
  8
0
 10
46.04266417846586
 20
-106.8304729727337
 30
0.0
 11
46.14266534186353
 21
-106.3304729727337
 31
0.0
  0
LINE
  5
11BAF
  8
0
 10
46.74267232224983
 20
-103.3304729727337
 30
0.0
 11
46.84267348564751
 21
-102.8304729727337
 31
0.0
  0
LINE
  5
11BB0
  8
0
 10
48.34267232224974
 20
-103.3304729727337
 30
0.0
 11
48.44267348564742
 21
-102.8304729727337
 31
0.0
  0
LINE
  5
11BB1
  8
0
 10
48.44267348564742
 20
-102.8304729727337
 30
0.0
 11
49.24266417846567
 21
-106.8304729727337
 31
0.0
  0
LINE
  5
11BB2
  8
0
 10
47.64266417846576
 20
-106.8304729727337
 30
0.0
 11
47.74266534186344
 21
-106.3304729727337
 31
0.0
  0
LINE
  5
11BB3
  8
0
 10
49.24266417846567
 20
-106.8304729727337
 30
0.0
 11
49.34266534186335
 21
-106.3304729727337
 31
0.0
  0
LINE
  5
11BB4
  8
0
 10
46.84267348564751
 20
-102.8304729727337
 30
0.0
 11
47.64266417846576
 21
-106.8304729727337
 31
0.0
  0
LINE
  5
11BB5
  8
0
 10
49.94267232225408
 20
-103.3304729727337
 30
0.0
 11
50.04267348565176
 21
-102.8304729727337
 31
0.0
  0
LINE
  5
11BB6
  8
0
 10
43.54267232225001
 20
-103.3304729727337
 30
0.0
 11
43.64267348564769
 21
-102.8304729727337
 31
0.0
  0
LINE
  5
11BB7
  8
0
 10
43.64267348564769
 20
-102.8304729727337
 30
0.0
 11
44.44266417846595
 21
-106.8304729727337
 31
0.0
  0
LINE
  5
11BB8
  8
0
 10
44.44266417846595
 20
-106.8304729727337
 30
0.0
 11
44.54266534186362
 21
-106.3304729727337
 31
0.0
  0
LINE
  5
11BB9
  8
0
 10
41.9426723222501
 20
-103.3304729727337
 30
0.0
 11
42.04267348564778
 21
-102.8304729727337
 31
0.0
  0
LINE
  5
11BBA
  8
0
 10
42.04267348564778
 20
-102.8304729727337
 30
0.0
 11
42.84266417846604
 21
-106.8304729727337
 31
0.0
  0
LINE
  5
11BBB
  8
0
 10
42.84266417846604
 20
-106.8304729727337
 30
0.0
 11
42.94266534186372
 21
-106.3304729727337
 31
0.0
  0
LINE
  5
11BBC
  8
0
 10
40.34267232225019
 20
-103.3304729727337
 30
0.0
 11
40.44267348564787
 21
-102.8304729727337
 31
0.0
  0
LINE
  5
11BBD
  8
0
 10
40.44267348564787
 20
-102.8304729727337
 30
0.0
 11
41.24266417846613
 21
-106.8304729727337
 31
0.0
  0
LINE
  5
11BBE
  8
0
 10
41.24266417846613
 20
-106.8304729727337
 30
0.0
 11
41.34266534186381
 21
-106.3304729727337
 31
0.0
  0
LINE
  5
11BBF
  8
0
 10
-213.4572846349245
 20
77.1695735630021
 30
0.0
 11
-214.9572846349245
 21
71.86957705314043
 31
0.0
  0
LINE
  5
11BC0
  8
0
 10
-214.9572846349245
 20
71.86957705314043
 30
0.0
 11
-214.9572846349242
 21
42.16957705324856
 31
0.0
  0
LINE
  5
11BC1
  8
0
 10
-213.4572846349245
 20
77.1695735630021
 30
0.0
 11
-211.9572846349243
 21
71.8695700727568
 31
0.0
  0
LINE
  5
11BC2
  8
0
 10
-216.9573311708223
 20
42.16958170694664
 30
0.0
 11
-209.9573311708224
 21
42.16956541938231
 31
0.0
  0
LINE
  5
11BC3
  8
0
 10
-211.9572846349243
 20
71.8695700727568
 30
0.0
 11
-211.9572846349242
 21
42.16957007286385
 31
0.0
  0
LINE
  5
11BC4
  8
0
 10
-216.9573311708223
 20
42.16958170694664
 30
0.0
 11
-216.9573311708224
 21
41.06957821675132
 31
0.0
  0
ARC
  5
11BC5
  8
0
 10
-215.4573311708224
 20
41.06957821675132
 30
0.0
 40
1.5
 50
180.0
 51
269.9998666844684
  0
LINE
  5
11BC6
  8
0
 10
-209.9573311708224
 20
42.16956541938231
 30
0.0
 11
-209.9573311708224
 21
41.06956890957173
 31
0.0
  0
LINE
  5
11BC7
  8
0
 10
-215.4573346610148
 20
39.56957821675539
 30
0.0
 11
-211.4573346610148
 21
39.56956890957579
 31
0.0
  0
ARC
  5
11BC8
  8
0
 10
-211.4573311708224
 20
41.06956890957173
 30
0.0
 40
1.5
 50
269.9998666844684
 51
0.0
  0
LINE
  5
11BC9
  8
1CENTER
 10
-213.4573311708224
 20
78.60036848046755
 30
0.0
 11
-213.4573311708224
 21
38.49929715385565
 31
0.0
  0
LINE
  5
11BCA
  8
0
 10
-214.5516549848174
 20
75.06957610932429
 30
0.0
 11
-212.589319895942
 21
75.86957154337526
 31
0.0
  0
LINE
  5
11BCB
  8
0
 10
-212.589319895942
 20
75.86957154337526
 30
0.0
 11
-213.1775964709844
 21
76.18134139962737
 31
0.0
  0
LINE
  5
11BCC
  8
0
 10
-215.4572846349245
 20
52.66957821653429
 30
0.0
 11
-211.4572846349245
 21
53.46956890935255
 31
0.0
  0
LINE
  5
11BCD
  8
0
 10
-215.4572846349245
 20
63.86957821653866
 30
0.0
 11
-211.4572846349245
 21
64.66956890936123
 31
0.0
  0
LINE
  5
11BCE
  8
0
 10
-215.4572846349245
 20
67.0695782165387
 30
0.0
 11
-211.4572846349245
 21
67.86956890936128
 31
0.0
  0
LINE
  5
11BCF
  8
0
 10
-211.4572846349245
 20
67.86956890936128
 30
0.0
 11
-211.9572846349245
 21
67.9695700727585
 31
0.0
  0
LINE
  5
11BD0
  8
0
 10
-214.9572846349245
 20
68.5695770531415
 30
0.0
 11
-215.4572846349245
 21
68.66957821653872
 31
0.0
  0
LINE
  5
11BD1
  8
0
 10
-211.4572846349245
 20
64.66956890936123
 30
0.0
 11
-211.9572846349245
 21
64.76957007275846
 31
0.0
  0
LINE
  5
11BD2
  8
0
 10
-211.4572846349245
 20
66.26956890936137
 30
0.0
 11
-211.9572846349245
 21
66.36957007275848
 31
0.0
  0
LINE
  5
11BD3
  8
0
 10
-214.9572846349245
 20
66.96957705314159
 30
0.0
 11
-215.4572846349245
 21
67.0695782165387
 31
0.0
  0
LINE
  5
11BD4
  8
0
 10
-214.9572846349245
 20
65.36957705314168
 30
0.0
 11
-215.4572846349245
 21
65.46957821653879
 31
0.0
  0
LINE
  5
11BD5
  8
0
 10
-215.4572846349245
 20
65.46957821653879
 30
0.0
 11
-211.4572846349245
 21
66.26956890936137
 31
0.0
  0
LINE
  5
11BD6
  8
0
 10
-212.1365057915352
 20
74.26957048976962
 30
0.0
 11
-212.6882552553385
 21
74.45233463239762
 31
0.0
  0
LINE
  5
11BD7
  8
0
 10
-211.4572846349245
 20
71.06956890936132
 30
0.0
 11
-211.9572846349245
 21
71.16957007275843
 31
0.0
  0
LINE
  5
11BD8
  8
0
 10
-211.4572846349245
 20
69.4695689093613
 30
0.0
 11
-211.9572846349245
 21
69.5695700727583
 31
0.0
  0
LINE
  5
11BD9
  8
0
 10
-211.6836916871284
 20
72.66956943616398
 30
0.0
 11
-212.2202854223996
 21
72.79884013379385
 31
0.0
  0
LINE
  5
11BDA
  8
0
 10
-214.5363700377158
 20
73.35680765057847
 30
0.0
 11
-215.0044684928657
 21
73.46957716292852
 31
0.0
  0
LINE
  5
11BDB
  8
0
 10
-214.9572846349245
 20
70.16957705314164
 30
0.0
 11
-215.4572846349245
 21
70.26957821653875
 31
0.0
  0
LINE
  5
11BDC
  8
0
 10
-214.9572846349245
 20
71.76957705314155
 30
0.0
 11
-215.4572846349245
 21
71.86957821653866
 31
0.0
  0
LINE
  5
11BDD
  8
0
 10
-214.0944831441864
 20
74.91814031288388
 30
0.0
 11
-214.5516549848174
 21
75.06957610932429
 31
0.0
  0
LINE
  5
11BDE
  8
0
 10
-215.0044684928657
 20
73.46957716292852
 30
0.0
 11
-212.1365057915352
 21
74.26957048976962
 31
0.0
  0
LINE
  5
11BDF
  8
0
 10
-215.4572846349245
 20
70.26957821653875
 30
0.0
 11
-211.4572846349245
 21
71.06956890936132
 31
0.0
  0
LINE
  5
11BE0
  8
0
 10
-215.4572846349245
 20
71.86957821653866
 30
0.0
 11
-211.6836916871284
 21
72.66956943616398
 31
0.0
  0
LINE
  5
11BE1
  8
0
 10
-215.4572846349245
 20
68.66957821653872
 30
0.0
 11
-211.4572846349245
 21
69.4695689093613
 31
0.0
  0
LINE
  5
11BE2
  8
0
 10
-215.4572846349245
 20
55.86957821653434
 30
0.0
 11
-211.4572846349245
 21
56.66956890935259
 31
0.0
  0
LINE
  5
11BE3
  8
0
 10
-211.4572846349245
 20
56.66956890935259
 30
0.0
 11
-211.9572846349245
 21
56.76957007275027
 31
0.0
  0
LINE
  5
11BE4
  8
0
 10
-214.9572846349245
 20
57.369577053141
 30
0.0
 11
-215.4572846349245
 21
57.46957821653868
 31
0.0
  0
LINE
  5
11BE5
  8
0
 10
-211.4572846349245
 20
55.06956890935245
 30
0.0
 11
-211.9572846349245
 21
55.16957007275013
 31
0.0
  0
LINE
  5
11BE6
  8
0
 10
-211.4572846349245
 20
53.46956890935255
 30
0.0
 11
-211.9572846349245
 21
53.56957007275022
 31
0.0
  0
LINE
  5
11BE7
  8
0
 10
-214.9572846349245
 20
55.76957705313666
 30
0.0
 11
-215.4572846349245
 21
55.86957821653434
 31
0.0
  0
LINE
  5
11BE8
  8
0
 10
-214.9572846349245
 20
54.16957705313652
 30
0.0
 11
-215.4572846349245
 21
54.2695782165342
 31
0.0
  0
LINE
  5
11BE9
  8
0
 10
-215.4572846349245
 20
54.2695782165342
 30
0.0
 11
-211.4572846349245
 21
55.06956890935245
 31
0.0
  0
LINE
  5
11BEA
  8
0
 10
-211.4572846349245
 20
61.46956890935698
 30
0.0
 11
-211.9572846349245
 21
61.56957007275466
 31
0.0
  0
LINE
  5
11BEB
  8
0
 10
-211.4572846349245
 20
63.06956890936132
 30
0.0
 11
-211.9572846349245
 21
63.16957007275843
 31
0.0
  0
LINE
  5
11BEC
  8
0
 10
-211.4572846349245
 20
58.26956890935693
 30
0.0
 11
-211.9572846349245
 21
58.36957007275461
 31
0.0
  0
LINE
  5
11BED
  8
0
 10
-211.4572846349245
 20
59.86956890935684
 30
0.0
 11
-211.9572846349245
 21
59.96957007275452
 31
0.0
  0
LINE
  5
11BEE
  8
0
 10
-214.9572846349245
 20
63.76957705314155
 30
0.0
 11
-215.4572846349245
 21
63.86957821653866
 31
0.0
  0
LINE
  5
11BEF
  8
0
 10
-214.9572846349245
 20
62.16957705314096
 30
0.0
 11
-215.4572846349245
 21
62.26957821653875
 31
0.0
  0
LINE
  5
11BF0
  8
0
 10
-214.9572846349245
 20
58.96957705314091
 30
0.0
 11
-215.4572846349245
 21
59.06957821653859
 31
0.0
  0
LINE
  5
11BF1
  8
0
 10
-214.9572846349245
 20
60.56957705314105
 30
0.0
 11
-215.4572846349245
 21
60.66957821653872
 31
0.0
  0
LINE
  5
11BF2
  8
0
 10
-215.4572846349245
 20
60.66957821653872
 30
0.0
 11
-211.4572846349245
 21
61.46956890935698
 31
0.0
  0
LINE
  5
11BF3
  8
0
 10
-215.4572846349245
 20
62.26957821653875
 30
0.0
 11
-211.4572846349245
 21
63.06956890936132
 31
0.0
  0
LINE
  5
11BF4
  8
0
 10
-215.4572846349245
 20
59.06957821653859
 30
0.0
 11
-211.4572846349245
 21
59.86956890935684
 31
0.0
  0
LINE
  5
11BF5
  8
0
 10
-215.4572846349245
 20
57.46957821653868
 30
0.0
 11
-211.4572846349245
 21
58.26956890935693
 31
0.0
  0
LINE
  5
11BF6
  8
0
 10
-214.9572846349245
 20
47.76957705313245
 30
0.0
 11
-215.4572846349245
 21
47.86957821653013
 31
0.0
  0
LINE
  5
11BF7
  8
0
 10
-215.4572846349245
 20
47.86957821653013
 30
0.0
 11
-211.4572846349245
 21
48.66956890934838
 31
0.0
  0
LINE
  5
11BF8
  8
0
 10
-211.4572846349245
 20
48.66956890934838
 30
0.0
 11
-211.9572846349245
 21
48.76957007274606
 31
0.0
  0
LINE
  5
11BF9
  8
0
 10
-214.9572846349245
 20
49.36957705313236
 30
0.0
 11
-215.4572846349245
 21
49.46957821653004
 31
0.0
  0
LINE
  5
11BFA
  8
0
 10
-214.9572846349245
 20
50.96957705313227
 30
0.0
 11
-215.4572846349245
 21
51.06957821652995
 31
0.0
  0
LINE
  5
11BFB
  8
0
 10
-215.4572846349245
 20
51.06957821652995
 30
0.0
 11
-211.4572846349245
 21
51.8695689093482
 31
0.0
  0
LINE
  5
11BFC
  8
0
 10
-211.4572846349245
 20
50.26956890934829
 30
0.0
 11
-211.9572846349245
 21
50.36957007274597
 31
0.0
  0
LINE
  5
11BFD
  8
0
 10
-211.4572846349245
 20
51.8695689093482
 30
0.0
 11
-211.9572846349245
 21
51.96957007274588
 31
0.0
  0
LINE
  5
11BFE
  8
0
 10
-215.4572846349245
 20
49.46957821653004
 30
0.0
 11
-211.4572846349245
 21
50.26956890934829
 31
0.0
  0
LINE
  5
11BFF
  8
0
 10
-214.9572846349245
 20
52.56957705313661
 30
0.0
 11
-215.4572846349245
 21
52.66957821653429
 31
0.0
  0
LINE
  5
11C00
  8
0
 10
-214.9572846349245
 20
46.16957705313254
 30
0.0
 11
-215.4572846349245
 21
46.26957821653022
 31
0.0
  0
LINE
  5
11C01
  8
0
 10
-215.4572846349245
 20
46.26957821653022
 30
0.0
 11
-211.4572846349245
 21
47.06956890934848
 31
0.0
  0
LINE
  5
11C02
  8
0
 10
-211.4572846349245
 20
47.06956890934848
 30
0.0
 11
-211.9572846349245
 21
47.16957007274615
 31
0.0
  0
LINE
  5
11C03
  8
0
 10
-214.9572846349245
 20
44.56957705313263
 30
0.0
 11
-215.4572846349245
 21
44.66957821653031
 31
0.0
  0
LINE
  5
11C04
  8
0
 10
-215.4572846349245
 20
44.66957821653031
 30
0.0
 11
-211.4572846349245
 21
45.46956890934857
 31
0.0
  0
LINE
  5
11C05
  8
0
 10
-211.4572846349245
 20
45.46956890934857
 30
0.0
 11
-211.9572846349245
 21
45.56957007274625
 31
0.0
  0
LINE
  5
11C06
  8
0
 10
-214.9572846349245
 20
42.96957705313272
 30
0.0
 11
-215.4572846349245
 21
43.0695782165304
 31
0.0
  0
LINE
  5
11C07
  8
0
 10
-215.4572846349245
 20
43.0695782165304
 30
0.0
 11
-211.4572846349245
 21
43.86956890934866
 31
0.0
  0
LINE
  5
11C08
  8
0
 10
-211.4572846349245
 20
43.86956890934866
 30
0.0
 11
-211.9572846349245
 21
43.96957007274634
 31
0.0
  0
LINE
  5
11C09
  8
1DIM
 10
-213.457322831484
 20
-104.8304637091309
 30
0.0
 11
-213.457322831484
 21
-142.9640356330012
 31
0.0
1001
ACAD
1000
DSTYLE
1002
{
1070
    45
1040
0.5
1002
}
  0
LINE
  5
11C0A
  8
1DIM
 10
-179.457322831484
 20
-104.8304637091309
 30
0.0
 11
-179.457322831484
 21
-142.9640356330012
 31
0.0
1001
ACAD
1000
DSTYLE
1002
{
1070
    45
1040
0.5
1002
}
  0
LINE
  5
11C0B
  8
1DIM
 10
-211.457322831484
 20
-141.9640356330012
 30
0.0
 11
-181.457322831484
 21
-141.9640356330012
 31
0.0
1001
ACAD
1000
DSTYLE
1002
{
1070
    45
1040
0.5
1002
}
  0
LINE
  5
11C0F
  8
1DIM
 10
-270.9573347369734
 20
-117.5879627083964
 30
0.0
 11
-270.9573347369734
 21
-57.34871916440063
 31
0.0
1001
ACAD
1000
DSTYLE
1002
{
1070
    45
1040
0.5
1002
}
  0
LINE
  5
11C10
  8
1DIM
 10
-121.9573308030668
 20
-117.5879627083964
 30
0.0
 11
-121.9573308030668
 21
-57.34871916440063
 31
0.0
1001
ACAD
1000
DSTYLE
1002
{
1070
    45
1040
0.5
1002
}
  0
LINE
  5
11C11
  8
1DIM
 10
-268.9573347369734
 20
-58.34871916440063
 30
0.0
 11
-123.9573308030668
 21
-58.34871916440063
 31
0.0
1001
ACAD
1000
DSTYLE
1002
{
1070
    45
1040
0.5
1002
}
  0
LINE
  5
11C15
  8
1DIM
 10
-59.49850249282167
 20
-84.3645351077135
 30
0.0
 11
-59.49850249282167
 21
-57.34871916440063
 31
0.0
1001
ACAD
1000
DSTYLE
1002
{
1070
    45
1040
0.5
1070
   271
1070
     0
1002
}
  0
LINE
  5
11C16
  8
1DIM
 10
43.54266883228195
 20
-76.60225285155366
 30
0.0
 11
43.54266883228195
 21
-57.34871916440063
 31
0.0
1001
ACAD
1000
DSTYLE
1002
{
1070
    45
1040
0.5
1070
   271
1070
     0
1002
}
  0
LINE
  5
11C17
  8
1DIM
 10
-57.49850249282167
 20
-58.34871916440063
 30
0.0
 11
41.54266883228195
 21
-58.34871916440063
 31
0.0
1001
ACAD
1000
DSTYLE
1002
{
1070
    45
1040
0.5
1070
   271
1070
     0
1002
}
  0
LINE
  5
11C1B
  8
0
  6
BYBLOCK
 10
-106.9932295477181
 20
44.16957356316447
 30
0.0
 11
-106.4573311677181
 21
46.16957356316447
 31
0.0
  0
LINE
  5
11C1C
  8
0
  6
BYBLOCK
 10
-106.4573311677181
 20
46.16957356316447
 30
0.0
 11
-105.921432787718
 21
44.16957356316447
 31
0.0
  0
LINE
  5
11C1D
  8
0
  6
BYBLOCK
 10
-106.4573311677181
 20
46.16957356316447
 30
0.0
 11
-106.4573311677181
 21
44.16957356316447
 31
0.0
  0
LINE
  5
11C1E
  8
0
  6
BYBLOCK
 10
-105.921432787718
 20
-45.99012455063462
 30
0.0
 11
-106.4573311677181
 21
-47.99012455063462
 31
0.0
  0
LINE
  5
11C1F
  8
0
  6
BYBLOCK
 10
-106.4573311677181
 20
-47.99012455063462
 30
0.0
 11
-106.9932295477181
 21
-45.99012455063462
 31
0.0
  0
LINE
  5
11C20
  8
0
  6
BYBLOCK
 10
-106.4573311677181
 20
-47.99012455063462
 30
0.0
 11
-106.4573311677181
 21
-45.99012455063462
 31
0.0
  0
TEXT
  5
11C21
  8
1DIM
  6
CONTINUOUS
 10
-107.1573311677181
 20
-26.8702291974388
 30
0.0
 40
3.5
  1
94 （ペーパー無し最小値）
 50
90.0
1001
ACAD
1000
DSTYLE
1002
{
1070
    45
1040
0.5
1070
   271
1070
     0
1002
}
  0
LINE
  5
11C22
  8
0
  6
BYBLOCK
 10
85.57856721228195
 20
-102.8304264368358
 30
0.0
 11
85.04266883228195
 21
-104.8304264368358
 31
0.0
  0
LINE
  5
11C23
  8
0
  6
BYBLOCK
 10
85.04266883228195
 20
-104.8304264368358
 30
0.0
 11
84.50677045228194
 21
-102.8304264368358
 31
0.0
  0
LINE
  5
11C24
  8
0
  6
BYBLOCK
 10
85.04266883228195
 20
-104.8304264368358
 30
0.0
 11
85.04266883228195
 21
-102.8304264368358
 31
0.0
  0
LINE
  5
11C25
  8
0
  6
BYBLOCK
 10
84.50677045228194
 20
-92.83042786734723
 30
0.0
 11
85.04266883228195
 21
-90.83042786734723
 31
0.0
  0
LINE
  5
11C26
  8
0
  6
BYBLOCK
 10
85.04266883228195
 20
-90.83042786734723
 30
0.0
 11
85.57856721228195
 21
-92.83042786734723
 31
0.0
  0
LINE
  5
11C27
  8
0
  6
BYBLOCK
 10
85.04266883228195
 20
-90.83042786734723
 30
0.0
 11
85.04266883228195
 21
-92.83042786734723
 31
0.0
  0
TEXT
  5
11C28
  8
1DIM
  6
CONTINUOUS
 10
84.34266883228194
 20
-100.1637604854248
 30
0.0
 40
3.5
  1
14
 50
90.0
1001
ACAD
1000
DSTYLE
1002
{
1070
    45
1040
0.5
1070
   271
1070
     0
1002
}
  0
LINE
  5
11C29
  8
0
  6
BYBLOCK
 10
95.57856721228195
 20
-116.8304250063243
 30
0.0
 11
95.04266883228195
 21
-118.8304250063243
 31
0.0
  0
LINE
  5
11C2A
  8
0
  6
BYBLOCK
 10
95.04266883228195
 20
-118.8304250063243
 30
0.0
 11
94.50677045228194
 21
-116.8304250063243
 31
0.0
  0
LINE
  5
11C2B
  8
0
  6
BYBLOCK
 10
95.04266883228195
 20
-118.8304250063243
 30
0.0
 11
95.04266883228195
 21
-116.8304250063243
 31
0.0
  0
LINE
  5
11C2C
  8
0
  6
BYBLOCK
 10
94.50677045228194
 20
-92.83042786734723
 30
0.0
 11
95.04266883228195
 21
-90.83042786734723
 31
0.0
  0
LINE
  5
11C2D
  8
0
  6
BYBLOCK
 10
95.04266883228195
 20
-90.83042786734723
 30
0.0
 11
95.57856721228195
 21
-92.83042786734723
 31
0.0
  0
LINE
  5
11C2E
  8
0
  6
BYBLOCK
 10
95.04266883228195
 20
-90.83042786734723
 30
0.0
 11
95.04266883228195
 21
-92.83042786734723
 31
0.0
  0
TEXT
  5
11C2F
  8
1DIM
  6
CONTINUOUS
 10
94.34266883228194
 20
-107.7470931035024
 30
0.0
 40
3.5
  1
28
 50
90.0
1001
ACAD
1000
DSTYLE
1002
{
1070
    45
1040
0.5
1002
}
  0
LINE
  5
11C30
  8
0
  6
BYBLOCK
 10
-173.4573307951888
 20
56.79412291889656
 30
0.0
 11
-171.4573307951888
 21
56.25822453889656
 31
0.0
  0
LINE
  5
11C31
  8
0
  6
BYBLOCK
 10
-171.4573307951888
 20
56.25822453889656
 30
0.0
 11
-173.4573307951888
 21
55.72232615889656
 31
0.0
  0
LINE
  5
11C32
  8
0
  6
BYBLOCK
 10
-171.4573307951888
 20
56.25822453889656
 30
0.0
 11
-173.4573307951888
 21
56.25822453889656
 31
0.0
  0
LINE
  5
11C33
  8
0
  6
BYBLOCK
 10
-219.4573315402469
 20
55.72232615889656
 30
0.0
 11
-221.4573315402469
 21
56.25822453889656
 31
0.0
  0
LINE
  5
11C34
  8
0
  6
BYBLOCK
 10
-221.4573315402469
 20
56.25822453889656
 30
0.0
 11
-219.4573315402469
 21
56.79412291889656
 31
0.0
  0
LINE
  5
11C35
  8
0
  6
BYBLOCK
 10
-221.4573315402469
 20
56.25822453889656
 30
0.0
 11
-219.4573315402469
 21
56.25822453889656
 31
0.0
  0
TEXT
  5
11C36
  8
1DIM
  6
CONTINUOUS
 10
-199.1674006121623
 20
56.95822453889656
 30
0.0
 40
3.5
  1
50
1001
ACAD
1000
DSTYLE
1002
{
1070
    45
1040
0.5
1002
}
  0
LINE
  5
11C37
  8
0
  6
BYBLOCK
 10
-211.457322831484
 20
-142.4999340130012
 30
0.0
 11
-213.457322831484
 21
-141.9640356330012
 31
0.0
  0
LINE
  5
11C38
  8
0
  6
BYBLOCK
 10
-213.457322831484
 20
-141.9640356330012
 30
0.0
 11
-211.457322831484
 21
-141.4281372530012
 31
0.0
  0
LINE
  5
11C39
  8
0
  6
BYBLOCK
 10
-213.457322831484
 20
-141.9640356330012
 30
0.0
 11
-211.457322831484
 21
-141.9640356330012
 31
0.0
  0
LINE
  5
11C3A
  8
0
  6
BYBLOCK
 10
-181.457322831484
 20
-141.4281372530012
 30
0.0
 11
-179.457322831484
 21
-141.9640356330012
 31
0.0
  0
LINE
  5
11C3B
  8
0
  6
BYBLOCK
 10
-179.457322831484
 20
-141.9640356330012
 30
0.0
 11
-181.457322831484
 21
-142.4999340130012
 31
0.0
  0
LINE
  5
11C3C
  8
0
  6
BYBLOCK
 10
-179.457322831484
 20
-141.9640356330012
 30
0.0
 11
-181.457322831484
 21
-141.9640356330012
 31
0.0
  0
TEXT
  5
11C3D
  8
1DIM
  6
CONTINUOUS
 10
-201.1239894981507
 20
-141.2640356330012
 30
0.0
 40
3.5
  1
P34
1001
ACAD
1000
DSTYLE
1002
{
1070
    45
1040
0.5
1002
}
  0
LINE
  5
11C3E
  8
0
  6
BYBLOCK
 10
-268.9573347369734
 20
-58.88461754440063
 30
0.0
 11
-270.9573347369734
 21
-58.34871916440063
 31
0.0
  0
LINE
  5
11C3F
  8
0
  6
BYBLOCK
 10
-270.9573347369734
 20
-58.34871916440063
 30
0.0
 11
-268.9573347369734
 21
-57.81282078440064
 31
0.0
  0
LINE
  5
11C40
  8
0
  6
BYBLOCK
 10
-270.9573347369734
 20
-58.34871916440063
 30
0.0
 11
-268.9573347369734
 21
-58.34871916440063
 31
0.0
  0
LINE
  5
11C41
  8
0
  6
BYBLOCK
 10
-123.9573308030668
 20
-57.81282078440064
 30
0.0
 11
-121.9573308030668
 21
-58.34871916440063
 31
0.0
  0
LINE
  5
11C42
  8
0
  6
BYBLOCK
 10
-121.9573308030668
 20
-58.34871916440063
 30
0.0
 11
-123.9573308030668
 21
-58.88461754440063
 31
0.0
  0
LINE
  5
11C43
  8
0
  6
BYBLOCK
 10
-121.9573308030668
 20
-58.34871916440063
 30
0.0
 11
-123.9573308030668
 21
-58.34871916440063
 31
0.0
  0
TEXT
  5
11C44
  8
1DIM
  6
CONTINUOUS
 10
-200.5414746862366
 20
-57.64871916440063
 30
0.0
 40
3.5
  1
149
1001
ACAD
1000
DSTYLE
1002
{
1070
    45
1040
0.5
1002
}
  0
LINE
  5
11C45
  8
0
  6
BYBLOCK
 10
-57.49850249282167
 20
-58.88461754440063
 30
0.0
 11
-59.49850249282167
 21
-58.34871916440063
 31
0.0
  0
LINE
  5
11C46
  8
0
  6
BYBLOCK
 10
-59.49850249282167
 20
-58.34871916440063
 30
0.0
 11
-57.49850249282167
 21
-57.81282078440064
 31
0.0
  0
LINE
  5
11C47
  8
0
  6
BYBLOCK
 10
-59.49850249282167
 20
-58.34871916440063
 30
0.0
 11
-57.49850249282167
 21
-58.34871916440063
 31
0.0
  0
LINE
  5
11C48
  8
0
  6
BYBLOCK
 10
41.54266883228195
 20
-57.81282078440064
 30
0.0
 11
43.54266883228195
 21
-58.34871916440063
 31
0.0
  0
LINE
  5
11C49
  8
0
  6
BYBLOCK
 10
43.54266883228195
 20
-58.34871916440063
 30
0.0
 11
41.54266883228195
 21
-58.88461754440063
 31
0.0
  0
LINE
  5
11C4A
  8
0
  6
BYBLOCK
 10
43.54266883228195
 20
-58.34871916440063
 30
0.0
 11
41.54266883228195
 21
-58.34871916440063
 31
0.0
  0
TEXT
  5
11C4B
  8
1DIM
  6
CONTINUOUS
 10
-34.81125016360321
 20
-57.64871916440063
 30
0.0
 40
3.5
  1
103 （ペーパー付き最大値）
1001
ACAD
1000
DSTYLE
1002
{
1070
    45
1040
0.5
1070
   271
1070
     0
1002
}
  0
VIEWPORT
  5
57
 67
     1
  8
0
 10
0.0
 20
0.0
 30
0.0
 40
554.37576499388
 41
297.0
 68
     1
 69
     1
1001
ACAD
1000
MVIEW
1002
{
1070
    16
1010
0.0
1020
0.0
1030
0.0
1010
0.0
1020
0.0
1030
1.0
1040
0.0
1040
297.0
1040
-4.171999999925305
1040
12.83903210976956
1040
50.0
1040
0.0
1040
0.0
1070
    16
1070
   100
1070
     0
1070
     1
1070
     0
1070
     0
1070
     0
1070
     0
1040
0.0
1040
0.0
1040
0.0
1040
10.0
1040
10.0
1040
10.0
1040
10.0
1070
     0
1002
{
1002
}
1002
}
  0
ENDSEC
  0
EOF
