  0
SECTION
  2
HEADER
  9
$ACADVER
  1
AC1009
  9
$DWGCODEPAGE
  3
ansi_932
  9
$INSBASE
 10
0.0
 20
0.0
 30
0.0
  9
$EXTMIN
 10
378.0162416153648
 20
-739.1428031262897
 30
-0.0000000000000195
  9
$EXTMAX
 10
861.8142877636878
 20
-471.6668341606284
 30
0.0
  9
$LIMMIN
 10
0.0
 20
0.0
  9
$LIMMAX
 10
420.0
 20
297.0
  9
$ORTHOMODE
 70
     0
  9
$REGENMODE
 70
     1
  9
$FILLMODE
 70
     1
  9
$QTEXTMODE
 70
     0
  9
$MIRRTEXT
 70
     0
  9
$DRAGMODE
 70
     2
  9
$LTSCALE
 40
0.5
  9
$OSMODE
 70
 14591
  9
$ATTMODE
 70
     1
  9
$TEXTSIZE
 40
4.0
  9
$TRACEWID
 40
1.0
  9
$TEXTSTYLE
  7
STANDARD
  9
$CLAYER
  8
1TEXT
  9
$CELTYPE
  6
BYLAYER
  9
$CECOLOR
 62
   256
  9
$DIMSCALE
 40
1.0
  9
$DIMASZ
 40
2.0
  9
$DIMEXO
 40
0.0
  9
$DIMDLI
 40
7.0
  9
$DIMRND
 40
0.0
  9
$DIMDLE
 40
0.0
  9
$DIMEXE
 40
1.0
  9
$DIMTP
 40
0.0
  9
$DIMTM
 40
0.0
  9
$DIMTXT
 40
3.5
  9
$DIMCEN
 40
0.0
  9
$DIMTSZ
 40
0.0
  9
$DIMTOL
 70
     0
  9
$DIMLIM
 70
     0
  9
$DIMTIH
 70
     0
  9
$DIMTOH
 70
     0
  9
$DIMSE1
 70
     0
  9
$DIMSE2
 70
     0
  9
$DIMTAD
 70
     1
  9
$DIMZIN
 70
     8
  9
$DIMBLK
  1

  9
$DIMASO
 70
     1
  9
$DIMSHO
 70
     1
  9
$DIMPOST
  1
 
  9
$DIMAPOST
  1

  9
$DIMALT
 70
     0
  9
$DIMALTD
 70
     2
  9
$DIMALTF
 40
25.4
  9
$DIMLFAC
 40
1.0
  9
$DIMTOFL
 70
     1
  9
$DIMTVP
 40
0.0
  9
$DIMTIX
 70
     0
  9
$DIMSOXD
 70
     0
  9
$DIMSAH
 70
     1
  9
$DIMBLK1
  1
OPEN30
  9
$DIMBLK2
  1
OPEN30
  9
$DIMSTYLE
  2
NEWX10
  9
$DIMCLRD
 70
   256
  9
$DIMCLRE
 70
   256
  9
$DIMCLRT
 70
   201
  9
$DIMTFAC
 40
0.7
  9
$DIMGAP
 40
0.7
  9
$LUNITS
 70
     2
  9
$LUPREC
 70
     4
  9
$SKETCHINC
 40
1.0
  9
$FILLETRAD
 40
0.0
  9
$AUNITS
 70
     0
  9
$AUPREC
 70
     2
  9
$MENU
  1
acad
  9
$ELEVATION
 40
0.0
  9
$PELEVATION
 40
0.0
  9
$THICKNESS
 40
0.0
  9
$LIMCHECK
 70
     0
  9
$CHAMFERA
 40
1.0
  9
$CHAMFERB
 40
1.0
  9
$SKPOLY
 70
     0
  9
$TDCREATE
 40
2453033.732663484
  9
$TDUPDATE
 40
2459711.407951933
  9
$TDINDWG
 40
2.4423936806
  9
$TDUSRTIMER
 40
2.4423936806
  9
$USRTIMER
 70
     1
  9
$ANGBASE
 50
0.0
  9
$ANGDIR
 70
     0
  9
$PDMODE
 70
     0
  9
$PDSIZE
 40
0.0
  9
$PLINEWID
 40
0.0
  9
$COORDS
 70
     2
  9
$SPLFRAME
 70
     0
  9
$SPLINETYPE
 70
     6
  9
$SPLINESEGS
 70
     8
  9
$ATTDIA
 70
     0
  9
$ATTREQ
 70
     1
  9
$HANDLING
 70
     1
  9
$HANDSEED
  5
21A81
  9
$SURFTAB1
 70
     6
  9
$SURFTAB2
 70
     6
  9
$SURFTYPE
 70
     6
  9
$SURFU
 70
     6
  9
$SURFV
 70
     6
  9
$UCSNAME
  2

  9
$UCSORG
 10
0.0
 20
0.0
 30
0.0
  9
$UCSXDIR
 10
1.0
 20
0.0
 30
0.0
  9
$UCSYDIR
 10
0.0
 20
1.0
 30
0.0
  9
$PUCSNAME
  2

  9
$PUCSORG
 10
0.0
 20
0.0
 30
0.0
  9
$PUCSXDIR
 10
1.0
 20
0.0
 30
0.0
  9
$PUCSYDIR
 10
0.0
 20
1.0
 30
0.0
  9
$USERI1
 70
     0
  9
$USERI2
 70
     0
  9
$USERI3
 70
     0
  9
$USERI4
 70
     0
  9
$USERI5
 70
     0
  9
$USERR1
 40
0.0
  9
$USERR2
 40
0.0
  9
$USERR3
 40
0.0
  9
$USERR4
 40
0.0
  9
$USERR5
 40
0.0
  9
$WORLDVIEW
 70
     1
  9
$SHADEDGE
 70
     3
  9
$SHADEDIF
 70
    70
  9
$TILEMODE
 70
     1
  9
$MAXACTVP
 70
    48
  9
$PLIMCHECK
 70
     0
  9
$PEXTMIN
 10
1.000000000000000E+20
 20
1.000000000000000E+20
 30
1.000000000000000E+20
  9
$PEXTMAX
 10
-1.000000000000000E+20
 20
-1.000000000000000E+20
 30
-1.000000000000000E+20
  9
$PLIMMIN
 10
0.0
 20
0.0
  9
$PLIMMAX
 10
420.0
 20
297.0
  9
$UNITMODE
 70
     0
  9
$VISRETAIN
 70
     1
  9
$PLINEGEN
 70
     0
  9
$PSLTSCALE
 70
     1
  0
ENDSEC
  0
SECTION
  2
TABLES
  0
TABLE
  2
VPORT
 70
     1
  0
VPORT
  2
*ACTIVE
 70
     0
 10
0.0
 20
0.0
 11
1.0
 21
1.0
 12
619.9152646895263
 22
-605.4048186434591
 13
0.0
 23
0.0
 14
10.0
 24
10.0
 15
10.0
 25
10.0
 16
0.0
 26
0.0
 36
1.0
 17
0.0
 27
0.0
 37
0.0
 40
287.1847245736575
 41
1.866585067319461
 42
50.0
 43
0.0
 44
0.0
 50
0.0
 51
0.0
 71
    16
 72
   100
 73
     1
 74
     1
 75
     0
 76
     0
 77
     0
 78
     0
  0
ENDTAB
  0
TABLE
  2
LTYPE
 70
    18
  0
LTYPE
  2
CONTINUOUS
 70
     0
  3
Solid line
 72
    65
 73
     0
 40
0.0
  0
LTYPE
  2
CENTER2
 70
     0
  3
Center (.5x) ___ _ ___ _ ___ _ ___ _ ___ _ ___
 72
    65
 73
     4
 40
28.575
 49
19.05
 49
-3.175
 49
3.175
 49
-3.175
  0
LTYPE
  2
PHANTOM2
 70
     0
  3
Phantom (0.5x) ___ _ _ ___ _ _ ___ _ _ ___ _ _
 72
    65
 73
     6
 40
31.75
 49
15.875
 49
-3.175
 49
3.175
 49
-3.175
 49
3.175
 49
-3.175
  0
ENDTAB
  0
TABLE
  2
LAYER
 70
    44
  0
LAYER
  2
0
 70
     0
 62
     7
  6
CONTINUOUS
  0
LAYER
  2
1CENTER
 70
     0
 62
     7
  6
CENTER2
  0
LAYER
  2
1TEXT
 70
     0
 62
     7
  6
CONTINUOUS
  0
LAYER
  2
1DIM
 70
     0
 62
     7
  6
CONTINUOUS
  0
LAYER
  2
1PHANTOM
 70
     0
 62
     7
  6
PHANTOM2
  0
LAYER
  2
01
 70
     0
 62
     1
  6
CONTINUOUS
  0
LAYER
  2
1DIM1
 70
     0
 62
     7
  6
CONTINUOUS
  0
ENDTAB
  0
TABLE
  2
STYLE
 70
    25
  0
STYLE
  2
STANDARD
 70
     0
 40
0.0
 41
1.0
 50
0.0
 71
     0
 42
4.0
  3
txt.shx
  4
extfont.shx
  0
ENDTAB
  0
TABLE
  2
VIEW
 70
     0
  0
ENDTAB
  0
TABLE
  2
UCS
 70
     0
  0
ENDTAB
  0
TABLE
  2
APPID
 70
    17
  0
APPID
  2
ACAD
 70
     0
  0
APPID
  2
DRAWINGVARIABLESXDATA
 70
     0
  0
APPID
  2
CONTENTTABDATA
 70
     0
  0
APPID
  2
CONTENTCURRENTTAB
 70
     0
  0
APPID
  2
CONTENTBLOCKDESCRIPTION
 70
     0
  0
APPID
  2
CONTENTBLOCKICON
 70
     0
  0
APPID
  2
CONTENTLONGBLOCKNAME
 70
     0
  0
APPID
  2
ACAD_PSEXT
 70
     0
  0
APPID
  2
ACAD_DSTYLE_DIMTEXT_FILL
 70
     0
  0
APPID
  2
ACAD_MLEADERVER
 70
     0
  0
APPID
  2
ACAD_DSTYLE_DIMRADIAL_EXTE
 70
     0
  0
APPID
  2
ACADANNOTATIVE
 70
     0
  0
APPID
  2
ACAD_EXEMPT_FROM_CAD_STAND
 70
     0
  0
APPID
  2
ACDBBLOCKREPETAG
 70
     0
  0
APPID
  2
ACAD_OBJECT_CHANGE_GUID
 70
     0
  0
APPID
  2
ACLAYERTOOLS
 70
     0
  0
APPID
  2
ACAD_NAV_VCDISPLAY
 70
     0
  0
ENDTAB
  0
TABLE
  2
DIMSTYLE
 70
    10
  0
DIMSTYLE
  2
NEWX10
 70
     0
  3
 
  4

  5

  6
OPEN30
  7
OPEN30
 40
1.0
 41
2.0
 42
0.0
 43
7.0
 44
1.0
 45
0.0
 46
0.0
 47
0.0
 48
0.0
140
3.5
141
0.0
142
0.0
143
25.4
144
1.0
145
0.0
146
0.7
147
0.7
 71
     0
 72
     0
 73
     0
 74
     0
 75
     0
 76
     0
 77
     1
 78
     8
170
     0
171
     2
172
     1
173
     1
174
     0
175
     0
176
   256
177
   256
178
   201
  0
ENDTAB
  0
ENDSEC
  0
SECTION
  2
BLOCKS
  0
BLOCK
  8
0
  2
$MODEL_SPACE
 70
     0
 10
0.0
 20
0.0
 30
0.0
  3
$MODEL_SPACE
  1

  0
ENDBLK
  5
1A
  8
0
  0
BLOCK
 67
     1
  8
0
  2
$PAPER_SPACE
 70
     0
 10
0.0
 20
0.0
 30
0.0
  3
$PAPER_SPACE
  1

  0
ENDBLK
  5
17
 67
     1
  8
0
  0
BLOCK
  8
0
  2
_OPEN30
 70
     0
 10
0.0
 20
0.0
 30
0.0
  3
_OPEN30
  1

  0
LINE
  5
44
  8
0
  6
BYBLOCK
 62
     0
 10
-1.0
 20
0.26794919
 30
0.0
 11
0.0
 21
0.0
 31
0.0
  0
LINE
  5
45
  8
0
  6
BYBLOCK
 62
     0
 10
0.0
 20
0.0
 30
0.0
 11
-1.0
 21
-0.26794919
 31
0.0
  0
LINE
  5
46
  8
0
  6
BYBLOCK
 62
     0
 10
0.0
 20
0.0
 30
0.0
 11
-1.0
 21
0.0
 31
0.0
  0
ENDBLK
  5
47
  8
0
  0
BLOCK
  8
0
  2
A3WAKUKAWAJUN2017_HYOUDAI_
 70
     0
 10
0.0
 20
0.0
 30
0.0
  3
A3WAKUKAWAJUN2017_HYOUDAI_
  1

  0
LINE
  5
1FC48
  8
0
 10
13.26299999998673
 20
-0.0001000000000317
 30
0.0
 11
9.236999999990758
 21
8.999899999990987
 31
0.0
1001
ACAD
1000
ASC_BOUNDS
1002
{
1070
    19
1005
1FC89
1002
}
  0
LINE
  5
1FC49
  8
0
 10
5.657999999994331
 20
0.9999999999989768
 30
0.0
 11
9.236999999990758
 21
8.999999999991019
 31
0.0
1001
ACAD
1000
ASC_BOUNDS
1002
{
1070
    19
1005
1FC89
1002
}
  0
LINE
  5
1FC4A
  8
0
 10
18.59199999998134
 20
-0.2368999999997641
 30
0.0
 11
16.46099999998353
 21
5.432899999994561
 31
0.0
1001
ACAD
1000
ASC_BOUNDS
1002
{
1070
    19
1005
1FC8A
1002
}
  0
LINE
  5
1FC4B
  8
0
 10
18.59199999998134
 20
-0.2368999999997641
 30
0.0
 11
22.38199999997767
 21
8.763099999991255
 31
0.0
1001
ACAD
1000
ASC_BOUNDS
1002
{
1070
    19
1005
1FC8A
1002
}
  0
LINE
  5
1FC4C
  8
0
 10
14.32899999998563
 20
-0.2368999999997641
 30
0.0
 11
16.46099999998353
 21
5.432899999994561
 31
0.0
1001
ACAD
1000
ASC_BOUNDS
1002
{
1070
    19
1005
1FC8A
1002
}
  0
LINE
  5
1FC4D
  8
0
 10
14.32899999998563
 20
-0.2368999999997641
 30
0.0
 11
10.53899999998941
 21
8.763099999991255
 31
0.0
1001
ACAD
1000
ASC_BOUNDS
1002
{
1070
    19
1005
1FC8A
1002
}
  0
LINE
  5
1FC4E
  8
0
 10
19.53899999998043
 20
-0.0001000000000317
 30
0.0
 11
23.56599999997638
 21
8.999899999990987
 31
0.0
1001
ACAD
1000
ASC_BOUNDS
1002
{
1070
    19
1005
1FC8B
1002
}
  0
LINE
  5
1FC4F
  8
0
 10
26.97358892824991
 20
1.383099999991202
 30
0.0
 11
23.56599999997638
 21
8.999899999990987
 31
0.0
1001
ACAD
1000
ASC_BOUNDS
1002
{
1070
    19
1005
1FC8B
1002
}
  0
LINE
  5
1FC50
  8
0
 10
5.657999999994331
 20
0.9999999999989768
 30
0.0
 11
3.181999999996833
 21
4.668599999995308
 31
0.0
1001
ACAD
1000
ASC_BOUNDS
1002
{
1070
    19
1005
1FC89
1002
}
  0
LINE
  5
1FC51
  8
0
 10
4.617999999995391
 20
-0.0001000000000317
 30
0.0
 11
1.420999999998571
 21
4.736799999995242
 31
0.0
1001
ACAD
1000
ASC_BOUNDS
1002
{
1070
    19
1005
1FC89
1002
}
  0
LINE
  5
1FC52
  8
0
 10
1.420999999998571
 20
8.763099999991255
 30
0.0
 11
1.420999999998571
 21
0.0
 31
0.0
1001
ACAD
1000
ASC_BOUNDS
1002
{
1070
    19
1005
1FC8E
1002
}
  0
LINE
  5
1FC53
  8
0
 10
0.0
 20
8.763099999991255
 30
0.0
 11
0.0
 21
0.0
 31
0.0
1001
ACAD
1000
ASC_BOUNDS
1002
{
1070
    19
1005
1FC8E
1002
}
  0
LINE
  5
1FC54
  8
0
 10
6.766999999993232
 20
-0.0001000000000317
 30
0.0
 11
7.826999999992154
 21
2.368399999997621
 31
0.0
1001
ACAD
1000
ASC_BOUNDS
1002
{
1070
    19
1005
1FC89
1002
}
  0
LINE
  5
1FC55
  8
0
 10
0.0
 20
0.0
 30
0.0
 11
1.420999999998571
 21
0.0
 31
0.0
1001
ACAD
1000
ASC_BOUNDS
1002
{
1070
    19
1005
1FC8E
1002
}
  0
LINE
  5
1FC56
  8
0
 10
4.617999999995391
 20
0.0
 30
0.0
 11
6.766999999993232
 21
0.0
 31
0.0
1001
ACAD
1000
ASC_BOUNDS
1002
{
1070
    19
1005
1FC89
1002
}
  0
LINE
  5
1FC57
  8
0
 10
11.70599999998831
 20
-0.0001000000000317
 30
0.0
 11
10.64699999998936
 21
2.368399999997621
 31
0.0
1001
ACAD
1000
ASC_BOUNDS
1002
{
1070
    19
1005
1FC89
1002
}
  0
LINE
  5
1FC58
  8
0
 10
7.826999999992154
 20
2.368399999997621
 30
0.0
 11
10.64699999998936
 21
2.368399999997621
 31
0.0
1001
ACAD
1000
ASC_BOUNDS
1002
{
1070
    19
1005
1FC89
1002
}
  0
LINE
  5
1FC59
  8
0
 10
11.70599999998831
 20
0.0
 30
0.0
 11
13.26299999998673
 21
0.0
 31
0.0
1001
ACAD
1000
ASC_BOUNDS
1002
{
1070
    19
1005
1FC89
1002
}
  0
LINE
  5
1FC5A
  8
0
 10
22.15599999997789
 20
2.368399999997621
 30
0.0
 11
24.97599999997499
 21
2.368399999997621
 31
0.0
1001
ACAD
1000
ASC_BOUNDS
1002
{
1070
    19
1005
1FC8B
1002
}
  0
LINE
  5
1FC5B
  8
0
 10
19.53899999998043
 20
0.0
 30
0.0
 11
21.09599999997886
 21
0.0
 31
0.0
1001
ACAD
1000
ASC_BOUNDS
1002
{
1070
    19
1005
1FC8B
1002
}
  0
LINE
  5
1FC5C
  8
0
 10
21.09599999997886
 20
-0.0001000000000317
 30
0.0
 11
22.15599999997789
 21
2.368399999997621
 31
0.0
1001
ACAD
1000
ASC_BOUNDS
1002
{
1070
    19
1005
1FC8B
1002
}
  0
LINE
  5
1FC5D
  8
0
 10
26.02015566812236
 20
0.0330999999912365
 30
0.0
 11
24.97599999997499
 21
2.368399999997621
 31
0.0
1001
ACAD
1000
ASC_BOUNDS
1002
{
1070
    19
1005
1FC8B
1002
}
  0
LINE
  5
1FC5E
  8
0
 10
14.32399999998563
 20
3.315799999996671
 30
0.0
 11
16.46099999998353
 21
8.999899999990987
 31
0.0
1001
ACAD
1000
ASC_BOUNDS
1002
{
1070
    19
1005
1FC8A
1002
}
  0
LINE
  5
1FC5F
  8
0
 10
6.432999999993513
 20
8.763099999991255
 30
0.0
 11
3.181999999996833
 21
4.668599999995308
 31
0.0
1001
ACAD
1000
ASC_BOUNDS
1002
{
1070
    19
1005
1FC89
1002
}
  0
LINE
  5
1FC60
  8
0
 10
4.617999999995391
 20
8.763099999991255
 30
0.0
 11
1.420999999998571
 21
4.736799999995242
 31
0.0
1001
ACAD
1000
ASC_BOUNDS
1002
{
1070
    19
1005
1FC89
1002
}
  0
LINE
  5
1FC61
  8
0
 10
0.0
 20
8.763099999991255
 30
0.0
 11
1.420999999998571
 21
8.763099999991255
 31
0.0
1001
ACAD
1000
ASC_BOUNDS
1002
{
1070
    19
1005
1FC8E
1002
}
  0
LINE
  5
1FC62
  8
0
 10
4.617999999995391
 20
8.763099999991255
 30
0.0
 11
6.432999999993513
 21
8.763099999991255
 31
0.0
1001
ACAD
1000
ASC_BOUNDS
1002
{
1070
    19
1005
1FC89
1002
}
  0
LINE
  5
1FC63
  8
0
 10
14.32399999998563
 20
3.315799999996671
 30
0.0
 11
12.02999999998792
 21
8.763099999991255
 31
0.0
1001
ACAD
1000
ASC_BOUNDS
1002
{
1070
    19
1005
1FC8A
1002
}
  0
LINE
  5
1FC64
  8
0
 10
10.06399999998996
 20
3.670999999996297
 30
0.0
 11
9.236999999990758
 21
5.5200999999945
 31
0.0
1001
ACAD
1000
ASC_BOUNDS
1002
{
1070
    19
1005
1FC89
1002
}
  0
LINE
  5
1FC65
  8
0
 10
8.409999999991555
 20
3.670999999996297
 30
0.0
 11
9.236999999990758
 21
5.5200999999945
 31
0.0
1001
ACAD
1000
ASC_BOUNDS
1002
{
1070
    19
1005
1FC89
1002
}
  0
LINE
  5
1FC66
  8
0
 10
8.409999999991555
 20
3.670999999996297
 30
0.0
 11
10.06399999998996
 21
3.670999999996297
 31
0.0
1001
ACAD
1000
ASC_BOUNDS
1002
{
1070
    19
1005
1FC89
1002
}
  0
LINE
  5
1FC67
  8
0
 10
10.53899999998941
 20
8.763099999991255
 30
0.0
 11
12.02999999998792
 21
8.763099999991255
 31
0.0
1001
ACAD
1000
ASC_BOUNDS
1002
{
1070
    19
1005
1FC8A
1002
}
  0
LINE
  5
1FC68
  8
0
 10
22.7389999999773
 20
3.670999999996297
 30
0.0
 11
23.56599999997638
 21
5.5200999999945
 31
0.0
1001
ACAD
1000
ASC_BOUNDS
1002
{
1070
    19
1005
1FC8B
1002
}
  0
LINE
  5
1FC69
  8
0
 10
22.7389999999773
 20
3.670999999996297
 30
0.0
 11
24.39299999997559
 21
3.670999999996297
 31
0.0
1001
ACAD
1000
ASC_BOUNDS
1002
{
1070
    19
1005
1FC8B
1002
}
  0
LINE
  5
1FC6A
  8
0
 10
18.59799999998143
 20
3.315799999996671
 30
0.0
 11
20.89099999997916
 21
8.763099999991255
 31
0.0
1001
ACAD
1000
ASC_BOUNDS
1002
{
1070
    19
1005
1FC8A
1002
}
  0
LINE
  5
1FC6B
  8
0
 10
18.59799999998143
 20
3.315799999996671
 30
0.0
 11
16.46099999998353
 21
8.999899999990987
 31
0.0
1001
ACAD
1000
ASC_BOUNDS
1002
{
1070
    19
1005
1FC8A
1002
}
  0
LINE
  5
1FC6C
  8
0
 10
20.89099999997916
 20
8.763099999991255
 30
0.0
 11
22.38199999997767
 21
8.763099999991255
 31
0.0
1001
ACAD
1000
ASC_BOUNDS
1002
{
1070
    19
1005
1FC8A
1002
}
  0
LINE
  5
1FC6D
  8
0
 10
24.39299999997559
 20
3.670999999996297
 30
0.0
 11
23.56599999997638
 21
5.5200999999945
 31
0.0
1001
ACAD
1000
ASC_BOUNDS
1002
{
1070
    19
1005
1FC8B
1002
}
  0
LINE
  5
1FC6E
  8
0
 10
44.99999999995498
 20
-0.2368999999997641
 30
0.0
 11
40.02599999995994
 21
5.341799999994635
 31
0.0
1001
ACAD
1000
ASC_BOUNDS
1002
{
1070
    19
1005
1FC8D
1002
}
  0
LINE
  5
1FC6F
  8
0
 10
40.02599999995994
 20
5.341799999994635
 30
0.0
 11
40.02599999995994
 21
0.0
 31
0.0
1001
ACAD
1000
ASC_BOUNDS
1002
{
1070
    19
1005
1FC8D
1002
}
  0
LINE
  5
1FC70
  8
0
 10
38.60499999996136
 20
8.999999999991019
 30
0.0
 11
38.60499999996136
 21
0.0
 31
0.0
1001
ACAD
1000
ASC_BOUNDS
1002
{
1070
    19
1005
1FC8D
1002
}
  0
LINE
  5
1FC71
  8
0
 10
44.99999999995498
 20
8.763099999991255
 30
0.0
 11
44.99999999995498
 21
-0.2368999999997641
 31
0.0
1001
ACAD
1000
ASC_BOUNDS
1002
{
1070
    19
1005
1FC8D
1002
}
  0
LINE
  5
1FC72
  8
0
 10
38.60499999996136
 20
0.0
 30
0.0
 11
40.02599999995994
 21
0.0
 31
0.0
1001
ACAD
1000
ASC_BOUNDS
1002
{
1070
    19
1005
1FC8D
1002
}
  0
LINE
  5
1FC73
  8
0
 10
43.57899999995641
 20
3.421199999996588
 30
0.0
 11
38.60499999996136
 21
8.999899999990987
 31
0.0
1001
ACAD
1000
ASC_BOUNDS
1002
{
1070
    19
1005
1FC8D
1002
}
  0
LINE
  5
1FC74
  8
0
 10
43.57899999995641
 20
8.763099999991255
 30
0.0
 11
43.57899999995641
 21
3.421199999996588
 31
0.0
1001
ACAD
1000
ASC_BOUNDS
1002
{
1070
    19
1005
1FC8D
1002
}
  0
LINE
  5
1FC75
  8
0
 10
43.57899999995641
 20
8.763099999991255
 30
0.0
 11
44.99999999995498
 21
8.763099999991255
 31
0.0
1001
ACAD
1000
ASC_BOUNDS
1002
{
1070
    19
1005
1FC8D
1002
}
  0
LINE
  5
1FC76
  8
0
 10
37.67199999996831
 20
8.763099999991255
 30
0.0
 11
36.23199999996837
 21
8.763099999991255
 31
0.0
  0
LINE
  5
1FC77
  8
0
 10
31.64199999996833
 20
8.763099999991255
 30
0.0
 11
31.64199999996833
 21
2.481619422925121
 31
0.0
  0
LINE
  5
1FC78
  8
0
 10
37.67199999996831
 20
8.763099999991255
 30
0.0
 11
37.67199999996831
 21
2.481619422925121
 31
0.0
  0
LINE
  5
1FC79
  8
0
 10
36.23199999996837
 20
8.763099999991255
 30
0.0
 11
36.23199999996837
 21
2.481619422925064
 31
0.0
  0
LINE
  5
1FC7A
  8
0
 10
33.08199999996839
 20
8.763099999991255
 30
0.0
 11
33.08199999996839
 21
2.481619422925121
 31
0.0
  0
ARC
  5
1FC7B
  8
0
 10
34.65699999996832
 20
3.183099999991214
 30
0.0
 40
3.420000000000007
 50
240.0000000000255
 51
299.9999999999766
  0
ARC
  5
1FC7C
  8
0
 10
34.65699999996832
 20
3.183099999991214
 30
0.0
 40
1.97999999999999
 50
240.000000000026
 51
299.9999999999703
  0
LINE
  5
1FC7D
  8
0
 10
33.08199999996828
 20
8.763099999991255
 30
0.0
 11
31.64199999996833
 21
8.763099999991255
 31
0.0
  0
ARC
  5
1FC7E
  8
0
 10
35.06199999996829
 20
2.481619422925064
 30
0.0
 40
1.17
 50
299.9999999999699
 51
0.0
  0
ARC
  5
1FC7F
  8
0
 10
34.25199999996835
 20
2.481619422925121
 30
0.0
 40
1.17
 50
180.0
 51
240.0000000000238
  0
ARC
  5
1FC80
  8
0
 10
35.06199999996841
 20
2.481619422925121
 30
0.0
 40
2.61
 50
299.9999999999756
 51
0.0
  0
ARC
  5
1FC81
  8
0
 10
34.25199999996835
 20
2.481619422925121
 30
0.0
 40
2.61
 50
180.0
 51
240.0000000000244
  0
LINE
  5
1FC82
  8
0
 10
29.30199999996933
 20
8.763099999991255
 30
0.0
 11
30.74199999996927
 21
8.763099999991255
 31
0.0
1001
ACAD
1000
ASC_BOUNDS
1002
{
1070
    19
1005
1FC8B
1002
}
  0
LINE
  5
1FC83
  8
0
 10
30.74199999996927
 20
8.763099999991255
 30
0.0
 11
30.74199999996927
 21
2.373099999991211
 31
0.0
1001
ACAD
1000
ASC_BOUNDS
1002
{
1070
    19
1005
1FC8B
1002
}
  0
LINE
  5
1FC84
  8
0
 10
26.02015566812236
 20
0.0330999999912365
 30
0.0
 11
28.40199999996923
 21
0.0330999999912365
 31
0.0
1001
ACAD
1000
ASC_BOUNDS
1002
{
1070
    19
1005
1FC8B
1002
}
  0
LINE
  5
1FC85
  8
0
 10
29.30199999996933
 20
8.763099999991255
 30
0.0
 11
29.30199999996933
 21
2.283099999991236
 31
0.0
1001
ACAD
1000
ASC_BOUNDS
1002
{
1070
    19
1005
1FC8B
1002
}
  0
LINE
  5
1FC86
  8
0
 10
26.97358892824991
 20
1.383099999991202
 30
0.0
 11
28.40199999996923
 21
1.383099999991202
 31
0.0
1001
ACAD
1000
ASC_BOUNDS
1002
{
1070
    19
1005
1FC8B
1002
}
  0
ARC
  5
1FC87
  8
0
 10
28.40199999996923
 20
2.283099999991236
 30
0.0
 40
0.9
 50
270.0
 51
0.0
1001
ACAD
1000
ASC_BOUNDS
1002
{
1070
    19
1005
1FC8B
1002
}
  0
ARC
  5
1FC88
  8
0
 10
28.40199999996923
 20
2.373099999991211
 30
0.0
 40
2.34
 50
270.0
 51
0.0
1001
ACAD
1000
ASC_BOUNDS
1002
{
1070
    19
1005
1FC8B
1002
}
  0
INSERT
  5
1FC89
  8
0
  2
*X124
 10
0.0
 20
0.0
 30
0.0
1001
ACAD
1000
HATCH
1002
{
1070
    19
1000
ANSI37
1040
0.15
1040
0.0
1000
ASC_BOUNDS
1070
     2
1070
     2
1070
    12
1005
1FC48
1005
1FC49
1005
1FC50
1005
1FC5F
1005
1FC62
1005
1FC60
1005
1FC51
1005
1FC56
1005
1FC54
1005
1FC58
1005
1FC57
1005
1FC59
1070
     2
1070
     3
1005
1FC64
1005
1FC66
1005
1FC65
1000
ASC_SEEDPOINT
1011
3.614004224891801
1021
2.996669441146025
1031
0.0
1021
2.996669441146025
1031
0.0
1000
R14_HATCH_DATA
1000
1FC89
1011
1.0
1021
0.0
1031
0.0
1021
0.0
1031
0.0
1011
0.0
1021
1.0
1031
0.0
1021
1.0
1031
0.0
1011
0.0
1021
0.0
1031
1.0
1021
0.0
1031
1.0
1040
0.0
1010
0.0
1020
0.0
1030
1.0
1000
ANSI37
1070
     0
1070
     1
1071
        2
1071
        7
1070
     0
1070
     1
1071
       17
1040
13.26299999998673
1040
-0.0001000000000317
1040
9.236999999990758
1040
8.999899999990987
1040
9.236999999990758
1040
8.999999999991019
1040
5.657999999994331
1040
0.9999999999989768
1040
3.181999999996833
1040
4.668599999995308
1040
6.432999999993513
1040
8.763099999991255
1040
4.617999999995391
1040
8.763099999991255
1040
1.420999999998571
1040
4.736799999995242
1040
4.617999999995391
1040
-0.0001000000000317
1040
4.617999999995391
1040
0.0
1040
6.766999999993232
1040
0.0
1040
6.766999999993232
1040
-0.0001000000000317
1040
7.826999999992154
1040
2.368399999997621
1040
10.64699999998936
1040
2.368399999997621
1040
11.70599999998831
1040
-0.0001000000000317
1040
11.70599999998831
1040
0.0
1040
13.26299999998673
1040
0.0
1071
       12
1005
1FC48
1005
1FC49
1005
1FC50
1005
1FC5F
1005
1FC62
1005
1FC60
1005
1FC51
1005
1FC56
1005
1FC54
1005
1FC58
1005
1FC57
1005
1FC59
1071
       22
1070
     0
1070
     1
1071
        3
1040
9.236999999990758
1040
5.5200999999945
1040
10.06399999998996
1040
3.670999999996297
1040
8.409999999991555
1040
3.670999999996297
1071
        3
1005
1FC64
1005
1FC66
1005
1FC65
1070
     0
1070
     1
1040
0.0
1040
0.15
1070
     0
1070
     2
1040
0.7853981633974483
1040
49.29960901727088
1040
-10.17736998311392
1040
-0.3367596045400932
1040
0.3367596045400932
1070
     0
1040
2.356194490192345
1040
49.29960901727088
1040
-10.17736998311392
1040
-0.3367596045400932
1040
-0.3367596045400932
1070
     0
1040
0.0110235143455945
1071
        2
1040
3.614004224891801
1040
2.996669441146025
1040
0.0
1040
3.614004224891801
1040
2.996669441146025
1040
0.0
1002
}
  0
INSERT
  5
1FC8A
  8
0
  2
*X125
 10
0.0
 20
0.0
 30
0.0
1001
ACAD
1000
HATCH
1002
{
1070
    19
1000
ANSI37
1040
0.15
1040
0.0
1000
ASC_BOUNDS
1070
     1
1070
     2
1070
    10
1005
1FC4A
1005
1FC4B
1005
1FC6C
1005
1FC6A
1005
1FC6B
1005
1FC5E
1005
1FC63
1005
1FC67
1005
1FC4D
1005
1FC4C
1000
ASC_SEEDPOINT
1011
14.73245321214324
1021
2.798246178283421
1031
0.0
1021
2.798246178283421
1031
0.0
1000
R14_HATCH_DATA
1000
1FC8A
1011
1.0
1021
0.0
1031
0.0
1021
0.0
1031
0.0
1011
0.0
1021
1.0
1031
0.0
1021
1.0
1031
0.0
1011
0.0
1021
0.0
1031
1.0
1021
0.0
1031
1.0
1040
0.0
1010
0.0
1020
0.0
1030
1.0
1000
ANSI37
1070
     0
1070
     1
1071
        1
1071
        7
1070
     0
1070
     1
1071
       10
1040
16.46099999998353
1040
5.432899999994561
1040
18.59199999998134
1040
-0.2368999999997641
1040
22.38199999997767
1040
8.763099999991255
1040
20.89099999997916
1040
8.763099999991255
1040
18.59799999998143
1040
3.315799999996671
1040
16.46099999998353
1040
8.999899999990987
1040
14.32399999998563
1040
3.315799999996671
1040
12.02999999998792
1040
8.763099999991255
1040
10.53899999998941
1040
8.763099999991255
1040
14.32899999998563
1040
-0.2368999999997641
1071
       10
1005
1FC4A
1005
1FC4B
1005
1FC6C
1005
1FC6A
1005
1FC6B
1005
1FC5E
1005
1FC63
1005
1FC67
1005
1FC4D
1005
1FC4C
1070
     0
1070
     1
1040
0.0
1040
0.15
1070
     0
1070
     2
1040
0.7853981633974483
1040
49.29960901727088
1040
-10.17736998311392
1040
-0.3367596045400932
1040
0.3367596045400932
1070
     0
1040
2.356194490192345
1040
49.29960901727088
1040
-10.17736998311392
1040
-0.3367596045400932
1040
-0.3367596045400932
1070
     0
1040
0.0110235143455945
1071
        1
1040
14.73245321214324
1040
2.798246178283421
1040
0.0
1002
}
  0
INSERT
  5
1FC8B
  8
0
  2
*X126
 10
0.0
 20
0.0
 30
0.0
1001
ACAD
1000
HATCH
1002
{
1070
    19
1000
ANSI37
1040
0.15
1040
0.0
1000
ASC_BOUNDS
1070
     2
1070
     2
1070
    13
1005
1FC4E
1005
1FC5B
1005
1FC5C
1005
1FC5A
1005
1FC5D
1005
1FC84
1005
1FC88
1005
1FC83
1005
1FC82
1005
1FC85
1005
1FC87
1005
1FC86
1005
1FC4F
1070
     2
1070
     3
1005
1FC68
1005
1FC6D
1005
1FC69
1000
ASC_SEEDPOINT
1011
21.97929957367762
1021
3.294304244259308
1031
0.0
1021
3.294304244259308
1031
0.0
1000
R14_HATCH_DATA
1000
1FC8B
1011
1.0
1021
0.0
1031
0.0
1021
0.0
1031
0.0
1011
0.0
1021
1.0
1031
0.0
1021
1.0
1031
0.0
1011
0.0
1021
0.0
1031
1.0
1021
0.0
1031
1.0
1040
0.0
1010
0.0
1020
0.0
1030
1.0
1000
ANSI37
1070
     0
1070
     1
1071
        2
1071
        7
1070
     1
1070
     1
1071
       15
1040
23.56599999997638
1040
8.999899999990987
1040
0.0
1040
19.53899999998043
1040
-0.0001000000000317
1040
0.0
1040
19.53899999998043
1040
0.0
1040
0.0
1040
21.09599999997886
1040
0.0
1040
0.0
1040
21.09599999997886
1040
-0.0001000000000317
1040
0.0
1040
22.15599999997789
1040
2.368399999997621
1040
0.0
1040
24.97599999997499
1040
2.368399999997621
1040
0.0
1040
26.02015566812236
1040
0.0330999999912365
1040
0.0
1040
28.40199999996923
1040
0.0330999999912365
1040
0.414213562373095
1040
30.74199999996923
1040
2.373099999991211
1040
0.0
1040
30.74199999996927
1040
8.763099999991255
1040
0.0
1040
29.30199999996933
1040
8.763099999991255
1040
0.0
1040
29.30199999996933
1040
2.283099999991236
1040
-0.414213562373095
1040
28.40199999996923
1040
1.383099999991237
1040
0.0
1040
26.97358892824991
1040
1.383099999991202
1040
0.0
1071
       13
1005
1FC4E
1005
1FC5B
1005
1FC5C
1005
1FC5A
1005
1FC5D
1005
1FC84
1005
1FC88
1005
1FC83
1005
1FC82
1005
1FC85
1005
1FC87
1005
1FC86
1005
1FC4F
1071
       22
1070
     0
1070
     1
1071
        3
1040
22.7389999999773
1040
3.670999999996297
1040
23.56599999997638
1040
5.5200999999945
1040
24.39299999997559
1040
3.670999999996297
1071
        3
1005
1FC68
1005
1FC6D
1005
1FC69
1070
     0
1070
     1
1040
0.0
1040
0.15
1070
     0
1070
     2
1040
0.7853981633974483
1040
49.29960901727088
1040
-10.17736998311392
1040
-0.3367596045400932
1040
0.3367596045400932
1070
     0
1040
2.356194490192345
1040
49.29960901727088
1040
-10.17736998311392
1040
-0.3367596045400932
1040
-0.3367596045400932
1070
     0
1040
0.0110235143455945
1071
        2
1040
21.97929957367762
1040
3.294304244259308
1040
0.0
1040
21.97929957367762
1040
3.294304244259308
1040
0.0
1002
}
  0
INSERT
  5
1FC8C
  8
0
  2
*X127
 10
0.0
 20
0.0
 30
0.0
1001
ACAD
1000
HATCH
1002
{
1070
    19
1000
ANSI37
1040
0.15
1040
0.0
1000
R14_HATCH_DATA
1000
1FC8C
1011
1.0
1021
0.0
1031
0.0
1021
0.0
1031
0.0
1011
0.0
1021
1.0
1031
0.0
1021
1.0
1031
0.0
1011
0.0
1021
0.0
1031
1.0
1021
0.0
1031
1.0
1040
0.0
1010
0.0
1020
0.0
1030
1.0
1000
ANSI37
1070
     0
1070
     1
1071
        1
1071
        7
1070
     1
1070
     1
1071
       12
1040
31.64199999996833
1040
2.481619422925121
1040
0.2679491924310942
1040
32.94699999997067
1040
0.2212931190493919
1040
0.2679491924301353
1040
36.36699999995983
1040
0.2212931190459813
1040
0.2679491924321411
1040
37.67199999996831
1040
2.481619422928361
1040
0.0
1040
37.67199999996831
1040
8.763099999991255
1040
0.0
1040
36.23199999996837
1040
8.763099999991255
1040
0.0
1040
36.23199999996837
1040
2.481619422925064
1040
-0.2679491924310291
1040
35.64699999996708
1040
1.468369700498386
1040
-0.267949192430519
1040
33.66699999997093
1040
1.468369700497703
1040
-0.267949192431809
1040
33.08199999996839
1040
2.481619422926997
1040
0.0
1040
33.08199999996839
1040
8.763099999991255
1040
0.0
1040
31.64199999996833
1040
8.763099999991255
1040
0.0
1071
        0
1070
     0
1070
     1
1040
0.0
1040
0.15
1070
     0
1070
     2
1040
0.7853981633974483
1040
49.29960901727088
1040
-10.17736998311392
1040
-0.3367596045400932
1040
0.3367596045400932
1070
     0
1040
2.356194490192345
1040
49.29960901727088
1040
-10.17736998311392
1040
-0.3367596045400932
1040
-0.3367596045400932
1070
     0
1040
0.0110235143455945
1071
        1
1040
32.30357378967278
1040
3.988785755459219
1040
0.0
1002
}
  0
INSERT
  5
1FC8D
  8
0
  2
*X128
 10
0.0
 20
0.0
 30
0.0
1001
ACAD
1000
HATCH
1002
{
1070
    19
1000
ANSI37
1040
0.15
1040
0.0
1000
ASC_BOUNDS
1070
     1
1070
     2
1070
     8
1005
1FC6E
1005
1FC71
1005
1FC75
1005
1FC74
1005
1FC73
1005
1FC70
1005
1FC72
1005
1FC6F
1000
ASC_SEEDPOINT
1011
39.74896370716704
1021
4.484843821435049
1031
0.0
1021
4.484843821435049
1031
0.0
1000
R14_HATCH_DATA
1000
1FC8D
1011
1.0
1021
0.0
1031
0.0
1021
0.0
1031
0.0
1011
0.0
1021
1.0
1031
0.0
1021
1.0
1031
0.0
1011
0.0
1021
0.0
1031
1.0
1021
0.0
1031
1.0
1040
0.0
1010
0.0
1020
0.0
1030
1.0
1000
ANSI37
1070
     0
1070
     1
1071
        1
1071
        7
1070
     0
1070
     1
1071
        9
1040
40.02599999995994
1040
5.341799999994635
1040
44.99999999995498
1040
-0.2368999999997641
1040
44.99999999995498
1040
8.763099999991255
1040
43.57899999995641
1040
8.763099999991255
1040
43.57899999995641
1040
3.421199999996588
1040
38.60499999996136
1040
8.999899999990987
1040
38.60499999996136
1040
8.999999999991019
1040
38.60499999996136
1040
0.0
1040
40.02599999995994
1040
0.0
1071
        8
1005
1FC6E
1005
1FC71
1005
1FC75
1005
1FC74
1005
1FC73
1005
1FC70
1005
1FC72
1005
1FC6F
1070
     0
1070
     1
1040
0.0
1040
0.15
1070
     0
1070
     2
1040
0.7853981633974483
1040
49.29960901727088
1040
-10.17736998311392
1040
-0.3367596045400932
1040
0.3367596045400932
1070
     0
1040
2.356194490192345
1040
49.29960901727088
1040
-10.17736998311392
1040
-0.3367596045400932
1040
-0.3367596045400932
1070
     0
1040
0.0110235143455945
1071
        1
1040
39.74896370716704
1040
4.484843821435049
1040
0.0
1002
}
  0
INSERT
  5
1FC8E
  8
0
  2
*X129
 10
0.0
 20
0.0
 30
0.0
1001
ACAD
1000
HATCH
1002
{
1070
    19
1000
ANSI37
1040
0.15
1040
0.0
1000
ASC_BOUNDS
1070
     1
1070
     2
1070
     4
1005
1FC52
1005
1FC61
1005
1FC53
1005
1FC55
1000
ASC_SEEDPOINT
1011
1.079051535452663
1021
4.148538732891836
1031
0.0
1021
4.148538732891836
1031
0.0
1000
R14_HATCH_DATA
1000
1FC8E
1011
1.0
1021
0.0
1031
0.0
1021
0.0
1031
0.0
1011
0.0
1021
1.0
1031
0.0
1021
1.0
1031
0.0
1011
0.0
1021
0.0
1031
1.0
1021
0.0
1031
1.0
1040
0.0
1010
0.0
1020
0.0
1030
1.0
1000
ANSI37
1070
     0
1070
     1
1071
        1
1071
        7
1070
     0
1070
     1
1071
        4
1040
1.420999999998571
1040
0.0
1040
1.420999999998571
1040
8.763099999991255
1040
0.0
1040
8.763099999991255
1040
0.0
1040
0.0
1071
        4
1005
1FC52
1005
1FC61
1005
1FC53
1005
1FC55
1070
     0
1070
     1
1040
0.0
1040
0.15
1070
     0
1070
     2
1040
0.7853981633974483
1040
49.29960901727088
1040
-10.17736998311392
1040
-0.3367596045400932
1040
0.3367596045400932
1070
     0
1040
2.356194490192345
1040
49.29960901727088
1040
-10.17736998311392
1040
-0.3367596045400932
1040
-0.3367596045400932
1070
     0
1040
0.0053004257112761
1071
        1
1040
1.079051535452663
1040
4.148538732891836
1040
0.0
1002
}
  0
ENDBLK
  5
20346
  8
0
  0
BLOCK
  8
0
  2
*X124
 70
     1
 10
0.0
 20
0.0
 30
0.0
  3
*X124
  1

  0
LINE
  5
218E8
  8
0
  6
CONTINUOUS
 10
3.418023043697893
 20
7.251849696850613
 30
0.0
 11
4.929273346838536
 21
8.763099999991255
 31
0.0
  0
LINE
  5
218E9
  8
0
  6
CONTINUOUS
 10
1.483656411257782
 20
4.643963855330318
 30
0.0
 11
5.60279255591872
 21
8.763099999991255
 31
0.0
  0
LINE
  5
218EA
  8
0
  6
CONTINUOUS
 10
1.755053947328235
 20
4.241842182320584
 30
0.0
 11
6.276311764998907
 21
8.763099999991255
 31
0.0
  0
LINE
  5
218EB
  8
0
  6
CONTINUOUS
 10
2.026451483398688
 20
3.839720509310849
 30
0.0
 11
4.441040904851878
 21
6.254309930764039
 31
0.0
  0
LINE
  5
218EC
  8
0
  6
CONTINUOUS
 10
2.297849019469139
 20
3.437598836301114
 30
0.0
 11
3.321765168359338
 21
4.461514985191313
 31
0.0
  0
LINE
  5
218ED
  8
0
  6
CONTINUOUS
 10
2.569246555539591
 20
3.03547716329138
 30
0.0
 11
3.593163397972743
 21
4.059394005724531
 31
0.0
  0
LINE
  5
218EE
  8
0
  6
CONTINUOUS
 10
2.840644091610043
 20
2.633355490281646
 30
0.0
 11
3.864561627586149
 21
3.657273026257751
 31
0.0
  0
LINE
  5
218EF
  8
0
  6
CONTINUOUS
 10
3.112041627680496
 20
2.231233817271911
 30
0.0
 11
4.135959857199554
 21
3.25515204679097
 31
0.0
  0
LINE
  5
218F0
  8
0
  6
CONTINUOUS
 10
3.383439163750948
 20
1.829112144262177
 30
0.0
 11
4.40735808681296
 21
2.853031067324189
 31
0.0
  0
LINE
  5
218F1
  8
0
  6
CONTINUOUS
 10
3.654836699821399
 20
1.426990471252442
 30
0.0
 11
4.678756316426365
 21
2.450910087857407
 31
0.0
  0
LINE
  5
218F2
  8
0
  6
CONTINUOUS
 10
3.926234235891853
 20
1.024868798242709
 30
0.0
 11
4.95015454603977
 21
2.048789108390626
 31
0.0
  0
LINE
  5
218F3
  8
0
  6
CONTINUOUS
 10
4.197631771962304
 20
0.6227471252329737
 30
0.0
 11
5.221552775653176
 21
1.646668128923846
 31
0.0
  0
LINE
  5
218F4
  8
0
  6
CONTINUOUS
 10
8.715877546767851
 20
7.835069736359266
 30
0.0
 11
9.435953450375058
 21
8.555145639966472
 31
0.0
  0
LINE
  5
218F5
  8
0
  6
CONTINUOUS
 10
8.170620868422267
 20
6.616293848933497
 30
0.0
 11
9.644120833743461
 21
8.08979381425469
 31
0.0
  0
LINE
  5
218F6
  8
0
  6
CONTINUOUS
 10
7.625364190076684
 20
5.397517961507727
 30
0.0
 11
9.852288217111864
 21
7.624441988542907
 31
0.0
  0
LINE
  5
218F7
  8
0
  6
CONTINUOUS
 10
7.080107511731101
 20
4.178742074081957
 30
0.0
 11
10.06045560048027
 21
7.159090162831124
 31
0.0
  0
LINE
  5
218F8
  8
0
  6
CONTINUOUS
 10
6.534850833385518
 20
2.959966186656187
 30
0.0
 11
10.26862298384867
 21
6.693738337119342
 31
0.0
  0
LINE
  5
218F9
  8
0
  6
CONTINUOUS
 10
4.469029308032756
 20
0.2206254522232385
 30
0.0
 11
5.492951005266582
 21
1.244547149457064
 31
0.0
  0
LINE
  5
218FA
  8
0
  6
CONTINUOUS
 10
5.989594155039935
 20
1.741190299230417
 30
0.0
 11
8.806950407233131
 21
4.558546551423613
 31
0.0
  0
LINE
  5
218FB
  8
0
  6
CONTINUOUS
 10
9.401251593263643
 20
5.152847737454126
 30
0.0
 11
10.47679036721708
 21
6.228386511407559
 31
0.0
  0
LINE
  5
218FC
  8
0
  6
CONTINUOUS
 10
4.921837203428691
 20
-0.0000858614610131
 30
0.0
 11
8.592923064886001
 21
3.670999999996297
 31
0.0
  0
LINE
  5
218FD
  8
0
  6
CONTINUOUS
 10
9.609390446785305
 20
4.6874673818956
 30
0.0
 11
10.68495775058548
 21
5.763034685695775
 31
0.0
  0
LINE
  5
218FE
  8
0
  6
CONTINUOUS
 10
5.595387755019432
 20
-0.0000545189504582
 30
0.0
 11
7.716137258923768
 21
2.120694984953879
 31
0.0
  0
LINE
  5
218FF
  8
0
  6
CONTINUOUS
 10
6.268938306610172
 20
-0.000023176439905
 30
0.0
 11
7.170485805526503
 21
0.9015243224764267
 31
0.0
  0
LINE
  5
21900
  8
0
  6
CONTINUOUS
 10
7.963842273967511
 20
2.368399999997621
 30
0.0
 11
9.266442273966188
 21
3.670999999996297
 31
0.0
  0
LINE
  5
21901
  8
0
  6
CONTINUOUS
 10
8.637361483047696
 20
2.368399999997621
 30
0.0
 11
9.939961483046375
 21
3.670999999996297
 31
0.0
  0
LINE
  5
21902
  8
0
  6
CONTINUOUS
 10
9.817529300306965
 20
4.222087026337075
 30
0.0
 11
10.89312513395388
 21
5.297682859983993
 31
0.0
  0
LINE
  5
21903
  8
0
  6
CONTINUOUS
 10
10.02566815382863
 20
3.756706670778549
 30
0.0
 11
11.10129251732229
 21
4.832331034272211
 31
0.0
  0
LINE
  5
21904
  8
0
  6
CONTINUOUS
 10
9.310880692127883
 20
2.368399999997621
 30
0.0
 11
11.30945990069069
 21
4.366979208560428
 31
0.0
  0
LINE
  5
21905
  8
0
  6
CONTINUOUS
 10
9.98439990120807
 20
2.36839999999762
 30
0.0
 11
11.5176272840591
 21
3.901627382848645
 31
0.0
  0
LINE
  5
21906
  8
0
  6
CONTINUOUS
 10
10.65037369446246
 20
2.36085458417182
 30
0.0
 11
11.7257946674275
 21
3.436275557136862
 31
0.0
  0
LINE
  5
21907
  8
0
  6
CONTINUOUS
 10
10.85847197087848
 20
1.895433651507656
 30
0.0
 11
11.9339620507959
 21
2.97092373142508
 31
0.0
  0
LINE
  5
21908
  8
0
  6
CONTINUOUS
 10
11.0665702472945
 20
1.430012718843491
 30
0.0
 11
12.14212943416431
 21
2.505571905713296
 31
0.0
  0
LINE
  5
21909
  8
0
  6
CONTINUOUS
 10
11.27466852371052
 20
0.9645917861793256
 30
0.0
 11
12.35029681753271
 21
2.040220080001513
 31
0.0
  0
LINE
  5
2190A
  8
0
  6
CONTINUOUS
 10
11.48276680012654
 20
0.4991708535151611
 30
0.0
 11
12.55846420090111
 21
1.57486825428973
 31
0.0
  0
LINE
  5
2190B
  8
0
  6
CONTINUOUS
 10
11.69086507654257
 20
0.0337499208509957
 30
0.0
 11
12.76663158426952
 21
1.109516428577947
 31
0.0
  0
LINE
  5
2190C
  8
0
  6
CONTINUOUS
 10
12.33057447873954
 20
-0.0000598860322123
 30
0.0
 11
12.97479896763792
 21
0.6441646028661663
 31
0.0
  0
LINE
  5
2190D
  8
0
  6
CONTINUOUS
 10
13.00413694809395
 20
-0.0000166257579952
 30
0.0
 11
13.18296635100632
 21
0.1788127771543824
 31
0.0
  0
LINE
  5
2190E
  8
0
  6
CONTINUOUS
 10
4.772852165289667
 20
-0.000092794222212
 30
0.0
 11
4.296495091028902
 21
0.4762642800385528
 31
0.0
  0
LINE
  5
2190F
  8
0
  6
CONTINUOUS
 10
5.446340034776103
 20
-0.0000614546284616
 30
0.0
 11
2.898195908335625
 21
2.548082671812017
 31
0.0
  0
LINE
  5
21910
  8
0
  6
CONTINUOUS
 10
6.119827904262539
 20
-0.0000301150347113
 30
0.0
 11
1.499896725642348
 21
4.61990106358548
 31
0.0
  0
LINE
  5
21911
  8
0
  6
CONTINUOUS
 10
6.775136745476159
 20
0.0181802528318542
 30
0.0
 11
5.699826040202669
 21
1.093490958105344
 31
0.0
  0
LINE
  5
21912
  8
0
  6
CONTINUOUS
 10
6.983376846288489
 20
0.4834593610997118
 30
0.0
 11
5.908008617934405
 21
1.558827589453796
 31
0.0
  0
LINE
  5
21913
  8
0
  6
CONTINUOUS
 10
5.377063484962296
 20
1.416253513345719
 30
0.0
 11
1.702276957014131
 21
5.091040041293883
 31
0.0
  0
LINE
  5
21914
  8
0
  6
CONTINUOUS
 10
3.978745891735324
 20
3.488090315652877
 30
0.0
 11
2.000373521109399
 21
5.466462686278803
 31
0.0
  0
LINE
  5
21915
  8
0
  6
CONTINUOUS
 10
7.191616947100819
 20
0.948738469367568
 30
0.0
 11
6.11619119566614
 21
2.024164220802247
 31
0.0
  0
LINE
  5
21916
  8
0
  6
CONTINUOUS
 10
7.399857047913149
 20
1.414017577635424
 30
0.0
 11
6.324373773397875
 21
2.489500852150698
 31
0.0
  0
LINE
  5
21917
  8
0
  6
CONTINUOUS
 10
7.608097148725479
 20
1.879296685903281
 30
0.0
 11
6.53255635112961
 21
2.95483748349915
 31
0.0
  0
LINE
  5
21918
  8
0
  6
CONTINUOUS
 10
7.816337249537808
 20
2.344575794171138
 30
0.0
 11
6.740738928861345
 21
3.420174114847601
 31
0.0
  0
LINE
  5
21919
  8
0
  6
CONTINUOUS
 10
3.310241080789734
 20
4.830114335678653
 30
0.0
 11
2.298470085204666
 21
5.84188533126372
 31
0.0
  0
LINE
  5
2191A
  8
0
  6
CONTINUOUS
 10
3.60832983563551
 20
5.205544789913063
 30
0.0
 11
2.596566649299935
 21
6.217307976248638
 31
0.0
  0
LINE
  5
2191B
  8
0
  6
CONTINUOUS
 10
3.906418590481286
 20
5.580975244147473
 30
0.0
 11
2.894663213395203
 21
6.592730621233557
 31
0.0
  0
LINE
  5
2191C
  8
0
  6
CONTINUOUS
 10
4.204507345327062
 20
5.956405698381884
 30
0.0
 11
3.192759777490472
 21
6.968153266218474
 31
0.0
  0
LINE
  5
2191D
  8
0
  6
CONTINUOUS
 10
8.466032252791512
 20
2.368399999997621
 30
0.0
 11
6.948921506593081
 21
3.885510746196053
 31
0.0
  0
LINE
  5
2191E
  8
0
  6
CONTINUOUS
 10
9.139551461871699
 20
2.36839999999762
 30
0.0
 11
7.157104084324816
 21
4.350847377544504
 31
0.0
  0
LINE
  5
2191F
  8
0
  6
CONTINUOUS
 10
4.502596100172839
 20
6.331836152616295
 30
0.0
 11
3.49085634158574
 21
7.343575911203393
 31
0.0
  0
LINE
  5
21920
  8
0
  6
CONTINUOUS
 10
4.800684855018615
 20
6.707266606850705
 30
0.0
 11
3.788952905681008
 21
7.718998556188312
 31
0.0
  0
LINE
  5
21921
  8
0
  6
CONTINUOUS
 10
12.18154012887317
 20
-0.0000694579236642
 30
0.0
 11
11.32140332908496
 21
0.8600673418645499
 31
0.0
  0
LINE
  5
21922
  8
0
  6
CONTINUOUS
 10
12.85501608323566
 20
-0.0000262032059659
 30
0.0
 11
10.77672456435345
 21
2.078265315676246
 31
0.0
  0
LINE
  5
21923
  8
0
  6
CONTINUOUS
 10
9.813070670951886
 20
2.36839999999762
 30
0.0
 11
8.51047067095321
 21
3.670999999996297
 31
0.0
  0
LINE
  5
21924
  8
0
  6
CONTINUOUS
 10
10.48658988003207
 20
2.36839999999762
 30
0.0
 11
9.183989880033396
 21
3.670999999996297
 31
0.0
  0
LINE
  5
21925
  8
0
  6
CONTINUOUS
 10
8.441048632286794
 20
3.740422038662712
 30
0.0
 11
7.365286662056551
 21
4.816184008892956
 31
0.0
  0
LINE
  5
21926
  8
0
  6
CONTINUOUS
 10
8.649187485808454
 20
4.205802394221237
 30
0.0
 11
7.573469239788285
 21
5.281520640241407
 31
0.0
  0
LINE
  5
21927
  8
0
  6
CONTINUOUS
 10
5.098773609864391
 20
7.082697061085115
 30
0.0
 11
4.087049469776277
 21
8.09442120117323
 31
0.0
  0
LINE
  5
21928
  8
0
  6
CONTINUOUS
 10
5.396862364710167
 20
7.458127515319526
 30
0.0
 11
4.385146033871544
 21
8.469843846158149
 31
0.0
  0
LINE
  5
21929
  8
0
  6
CONTINUOUS
 10
13.04801363231285
 20
0.4804954567970334
 30
0.0
 11
9.85750908911358
 21
3.670999999996297
 31
0.0
  0
LINE
  5
2192A
  8
0
  6
CONTINUOUS
 10
8.857326339330116
 20
4.671182749779763
 30
0.0
 11
7.781651817520021
 21
5.746857271589858
 31
0.0
  0
LINE
  5
2192B
  8
0
  6
CONTINUOUS
 10
5.694951119555943
 20
7.833557969553937
 30
0.0
 11
4.765409089118624
 21
8.763099999991255
 31
0.0
  0
LINE
  5
2192C
  8
0
  6
CONTINUOUS
 10
12.50286117236978
 20
1.699167125820288
 30
0.0
 11
9.68611877250287
 21
4.515909525687196
 31
0.0
  0
LINE
  5
2192D
  8
0
  6
CONTINUOUS
 10
9.065465192851777
 20
5.136563105338288
 30
0.0
 11
7.989834395251757
 21
6.21219390293831
 31
0.0
  0
LINE
  5
2192E
  8
0
  6
CONTINUOUS
 10
5.993039874401719
 20
8.208988423788346
 30
0.0
 11
5.43892829819881
 21
8.763099999991255
 31
0.0
  0
LINE
  5
2192F
  8
0
  6
CONTINUOUS
 10
11.95770871242671
 20
2.917838794843543
 30
0.0
 11
8.19801697298349
 21
6.677530534286761
 31
0.0
  0
LINE
  5
21930
  8
0
  6
CONTINUOUS
 10
6.291128629247495
 20
8.584418878022756
 30
0.0
 11
6.112447507278997
 21
8.763099999991255
 31
0.0
  0
LINE
  5
21931
  8
0
  6
CONTINUOUS
 10
11.41255625248364
 20
4.136510463866797
 30
0.0
 11
8.406199550715227
 21
7.142867165635211
 31
0.0
  0
LINE
  5
21932
  8
0
  6
CONTINUOUS
 10
10.86740379254057
 20
5.355182132890051
 30
0.0
 11
8.614382128446962
 21
7.608203796983664
 31
0.0
  0
LINE
  5
21933
  8
0
  6
CONTINUOUS
 10
10.3222513325975
 20
6.573853801913305
 30
0.0
 11
8.822564706178696
 21
8.073540428332114
 31
0.0
  0
LINE
  5
21934
  8
0
  6
CONTINUOUS
 10
9.777098872654436
 20
7.792525470936562
 30
0.0
 11
9.030747283910433
 21
8.538877059680566
 31
0.0
  0
ENDBLK
  5
21A76
  8
0
  0
BLOCK
  8
0
  2
*X125
 70
     1
 10
0.0
 20
0.0
 30
0.0
  3
*X125
  1

  0
LINE
  5
21936
  8
0
  6
CONTINUOUS
 10
10.67292308101235
 20
8.445076852443387
 30
0.0
 11
10.99094622856022
 21
8.763099999991255
 31
0.0
  0
LINE
  5
21937
  8
0
  6
CONTINUOUS
 10
10.87250383178748
 20
7.971138394138331
 30
0.0
 11
11.6644654376404
 21
8.763099999991255
 31
0.0
  0
LINE
  5
21938
  8
0
  6
CONTINUOUS
 10
11.07208458256261
 20
7.497199935833273
 30
0.0
 11
12.12126590876355
 21
8.546381262034211
 31
0.0
  0
LINE
  5
21939
  8
0
  6
CONTINUOUS
 10
11.27166533333774
 20
7.023261477528216
 30
0.0
 11
12.32085164573666
 21
8.072447789927136
 31
0.0
  0
LINE
  5
2193A
  8
0
  6
CONTINUOUS
 10
11.47124608411287
 20
6.549323019223158
 30
0.0
 11
12.52043738270977
 21
7.59851431782006
 31
0.0
  0
LINE
  5
2193B
  8
0
  6
CONTINUOUS
 10
11.670826834888
 20
6.075384560918101
 30
0.0
 11
12.72002311968288
 21
7.124580845712984
 31
0.0
  0
LINE
  5
2193C
  8
0
  6
CONTINUOUS
 10
11.87040758566313
 20
5.601446102613043
 30
0.0
 11
12.91960885665599
 21
6.650647373605907
 31
0.0
  0
LINE
  5
2193D
  8
0
  6
CONTINUOUS
 10
12.06998833643825
 20
5.127507644307986
 30
0.0
 11
13.1191945936291
 21
6.176713901498832
 31
0.0
  0
LINE
  5
2193E
  8
0
  6
CONTINUOUS
 10
12.26956908721338
 20
4.65356918600293
 30
0.0
 11
13.31878033060221
 21
5.702780429391757
 31
0.0
  0
LINE
  5
2193F
  8
0
  6
CONTINUOUS
 10
12.46914983798851
 20
4.179630727697873
 30
0.0
 11
13.51836606757532
 21
5.228846957284683
 31
0.0
  0
LINE
  5
21940
  8
0
  6
CONTINUOUS
 10
12.66873058876364
 20
3.705692269392816
 30
0.0
 11
13.71795180454843
 21
4.754913485177607
 31
0.0
  0
LINE
  5
21941
  8
0
  6
CONTINUOUS
 10
12.86831133953877
 20
3.231753811087759
 30
0.0
 11
13.91753754152154
 21
4.280980013070531
 31
0.0
  0
LINE
  5
21942
  8
0
  6
CONTINUOUS
 10
13.0678920903139
 20
2.757815352782702
 30
0.0
 11
14.11712327849465
 21
3.807046540963456
 31
0.0
  0
LINE
  5
21943
  8
0
  6
CONTINUOUS
 10
13.26747284108903
 20
2.283876894477644
 30
0.0
 11
14.31670901546777
 21
3.333113068856379
 31
0.0
  0
LINE
  5
21944
  8
0
  6
CONTINUOUS
 10
16.36767838827179
 20
8.751678487061342
 30
0.0
 11
16.50332410898388
 21
8.887324207773432
 31
0.0
  0
LINE
  5
21945
  8
0
  6
CONTINUOUS
 10
15.96190732182191
 20
7.67238821153127
 30
0.0
 11
16.68735328004734
 21
8.397834169756699
 31
0.0
  0
LINE
  5
21946
  8
0
  6
CONTINUOUS
 10
15.55613625537202
 20
6.593097936001196
 30
0.0
 11
16.87138245111079
 21
7.908344131739965
 31
0.0
  0
LINE
  5
21947
  8
0
  6
CONTINUOUS
 10
15.15036518892213
 20
5.513807660471122
 30
0.0
 11
17.05541162217424
 21
7.418854093723231
 31
0.0
  0
LINE
  5
21948
  8
0
  6
CONTINUOUS
 10
14.74459412247225
 20
4.434517384941048
 30
0.0
 11
17.2394407932377
 21
6.929364055706499
 31
0.0
  0
LINE
  5
21949
  8
0
  6
CONTINUOUS
 10
14.33882305602236
 20
3.355227109410975
 30
0.0
 11
17.42346996430115
 21
6.439874017689766
 31
0.0
  0
LINE
  5
2194A
  8
0
  6
CONTINUOUS
 10
13.46705359186416
 20
1.809938436172586
 30
0.0
 11
16.0819338255367
 21
4.424818669845129
 31
0.0
  0
LINE
  5
2194B
  8
0
  6
CONTINUOUS
 10
16.63283254238972
 20
4.975717386698149
 30
0.0
 11
17.60749913536461
 21
5.950383979673033
 31
0.0
  0
LINE
  5
2194C
  8
0
  6
CONTINUOUS
 10
13.66663434263929
 20
1.335999977867529
 30
0.0
 11
15.67604797733754
 21
3.345413612565779
 31
0.0
  0
LINE
  5
2194D
  8
0
  6
CONTINUOUS
 10
13.86621509341442
 20
0.8620615195624723
 30
0.0
 11
15.27016212913838
 21
2.26600855528643
 31
0.0
  0
LINE
  5
2194E
  8
0
  6
CONTINUOUS
 10
16.81682257348267
 20
4.486188208710908
 30
0.0
 11
17.79152830642806
 21
5.460893941656299
 31
0.0
  0
LINE
  5
2194F
  8
0
  6
CONTINUOUS
 10
17.00081260457561
 20
3.996659030723667
 30
0.0
 11
17.97555747749151
 21
4.971403903639565
 31
0.0
  0
LINE
  5
21950
  8
0
  6
CONTINUOUS
 10
20.74362343514722
 20
8.412989070375462
 30
0.0
 11
21.09373436476302
 21
8.763099999991256
 31
0.0
  0
LINE
  5
21951
  8
0
  6
CONTINUOUS
 10
20.25401257174777
 20
7.249858997895826
 30
0.0
 11
21.7672535738432
 21
8.763099999991255
 31
0.0
  0
LINE
  5
21952
  8
0
  6
CONTINUOUS
 10
14.06579584418955
 20
0.3881230612574149
 30
0.0
 11
14.86427628093921
 21
1.186603498007082
 31
0.0
  0
LINE
  5
21953
  8
0
  6
CONTINUOUS
 10
14.26537659496467
 20
-0.0858153970476412
 30
0.0
 11
14.45839043274005
 21
0.1071984407277329
 31
0.0
  0
LINE
  5
21954
  8
0
  6
CONTINUOUS
 10
17.18480263566856
 20
3.507129852736426
 30
0.0
 11
18.15958664855496
 21
4.481913865622833
 31
0.0
  0
LINE
  5
21955
  8
0
  6
CONTINUOUS
 10
17.3687926667615
 20
3.017600674749186
 30
0.0
 11
18.34361581961842
 21
3.9924238276061
 31
0.0
  0
LINE
  5
21956
  8
0
  6
CONTINUOUS
 10
19.76440170834832
 20
6.086728925416191
 30
0.0
 11
22.33924590259489
 21
8.661573119662755
 31
0.0
  0
LINE
  5
21957
  8
0
  6
CONTINUOUS
 10
19.27479084494887
 20
4.923598852936555
 30
0.0
 11
21.84929622842713
 21
7.498104236414807
 31
0.0
  0
LINE
  5
21958
  8
0
  6
CONTINUOUS
 10
17.55278269785445
 20
2.528071496761945
 30
0.0
 11
18.52764499068187
 21
3.502933789589366
 31
0.0
  0
LINE
  5
21959
  8
0
  6
CONTINUOUS
 10
18.78517998154942
 20
3.760468780456919
 30
0.0
 11
21.35934655425936
 21
6.33463535316686
 31
0.0
  0
LINE
  5
2195A
  8
0
  6
CONTINUOUS
 10
17.73677272894739
 20
2.038542318774704
 30
0.0
 11
20.8693968800916
 21
5.171166469918914
 31
0.0
  0
LINE
  5
2195B
  8
0
  6
CONTINUOUS
 10
17.92076276004034
 20
1.549013140787464
 30
0.0
 11
20.37944720592384
 21
4.007697586670968
 31
0.0
  0
LINE
  5
2195C
  8
0
  6
CONTINUOUS
 10
18.10475279113329
 20
1.059483962800223
 30
0.0
 11
19.88949753175608
 21
2.84422870342302
 31
0.0
  0
LINE
  5
2195D
  8
0
  6
CONTINUOUS
 10
18.28874282222623
 20
0.5699547848129822
 30
0.0
 11
19.39954785758832
 21
1.680759820175074
 31
0.0
  0
LINE
  5
2195E
  8
0
  6
CONTINUOUS
 10
18.47273285331918
 20
0.0804256068257416
 30
0.0
 11
18.90959818342056
 21
0.517290936927127
 31
0.0
  0
LINE
  5
2195F
  8
0
  6
CONTINUOUS
 10
14.3590401358224
 20
-0.1570118376323384
 30
0.0
 11
14.24903296539946
 21
-0.0470046672093929
 31
0.0
  0
LINE
  5
21960
  8
0
  6
CONTINUOUS
 10
14.54309291258661
 20
0.332454594683643
 30
0.0
 11
13.75908329123172
 21
1.116464216038529
 31
0.0
  0
LINE
  5
21961
  8
0
  6
CONTINUOUS
 10
14.72714568935081
 20
0.8219210269996244
 30
0.0
 11
13.26913361706399
 21
2.27993309928645
 31
0.0
  0
LINE
  5
21962
  8
0
  6
CONTINUOUS
 10
14.91119846611502
 20
1.311387459315606
 30
0.0
 11
12.77918394289625
 21
3.443401982534371
 31
0.0
  0
LINE
  5
21963
  8
0
  6
CONTINUOUS
 10
15.09525124287922
 20
1.800853891631587
 30
0.0
 11
12.28923426872852
 21
4.606870865782293
 31
0.0
  0
LINE
  5
21964
  8
0
  6
CONTINUOUS
 10
15.27930401964343
 20
2.290320323947569
 30
0.0
 11
11.79928459456078
 21
5.770339749030213
 31
0.0
  0
LINE
  5
21965
  8
0
  6
CONTINUOUS
 10
15.46335679640763
 20
2.77978675626355
 30
0.0
 11
14.48885470994921
 21
3.754288842721972
 31
0.0
  0
LINE
  5
21966
  8
0
  6
CONTINUOUS
 10
13.88507249233704
 20
4.358071060334137
 30
0.0
 11
11.30933492039305
 21
6.933808632278135
 31
0.0
  0
LINE
  5
21967
  8
0
  6
CONTINUOUS
 10
18.75840522805855
 20
0.1582575336928151
 30
0.0
 11
18.25383727664818
 21
0.6628254851031863
 31
0.0
  0
LINE
  5
21968
  8
0
  6
CONTINUOUS
 10
15.64740957317184
 20
3.269253188579531
 30
0.0
 11
14.67288388101266
 21
4.243778880738705
 31
0.0
  0
LINE
  5
21969
  8
0
  6
CONTINUOUS
 10
13.39509276772158
 20
5.521569994029786
 30
0.0
 11
10.81938524622531
 21
8.097277515526056
 31
0.0
  0
LINE
  5
2196A
  8
0
  6
CONTINUOUS
 10
18.95798597883369
 20
0.6321959919978686
 30
0.0
 11
17.84825644852853
 21
1.741925522303024
 31
0.0
  0
LINE
  5
2196B
  8
0
  6
CONTINUOUS
 10
19.15756672960882
 20
1.106134450302922
 30
0.0
 11
17.44267562040888
 21
2.821025559502861
 31
0.0
  0
LINE
  5
2196C
  8
0
  6
CONTINUOUS
 10
15.83146234993604
 20
3.758719620895513
 30
0.0
 11
14.85691305207612
 21
4.733268918755439
 31
0.0
  0
LINE
  5
2196D
  8
0
  6
CONTINUOUS
 10
16.01551512670025
 20
4.248186053211494
 30
0.0
 11
15.04094222313957
 21
5.222758956772172
 31
0.0
  0
LINE
  5
2196E
  8
0
  6
CONTINUOUS
 10
12.90511304310612
 20
6.685068927725435
 30
0.0
 11
10.8270819708403
 21
8.763099999991255
 31
0.0
  0
LINE
  5
2196F
  8
0
  6
CONTINUOUS
 10
12.41513331849066
 20
7.848567861421083
 30
0.0
 11
11.50060117992049
 21
8.763099999991255
 31
0.0
  0
LINE
  5
21970
  8
0
  6
CONTINUOUS
 10
19.35714748038395
 20
1.580072908607975
 30
0.0
 11
17.03709479228923
 21
3.900125596702697
 31
0.0
  0
LINE
  5
21971
  8
0
  6
CONTINUOUS
 10
19.55672823115909
 20
2.054011366913028
 30
0.0
 11
16.63151396416958
 21
4.979225633902534
 31
0.0
  0
LINE
  5
21972
  8
0
  6
CONTINUOUS
 10
16.19956790346445
 20
4.737652485527476
 30
0.0
 11
15.22497139420302
 21
5.712248994788904
 31
0.0
  0
LINE
  5
21973
  8
0
  6
CONTINUOUS
 10
16.38362068022866
 20
5.227118917843457
 30
0.0
 11
15.40900056526648
 21
6.201739032805637
 31
0.0
  0
LINE
  5
21974
  8
0
  6
CONTINUOUS
 10
19.75630898193422
 20
2.527949825218081
 30
0.0
 11
18.70774536448286
 21
3.576513442669441
 31
0.0
  0
LINE
  5
21975
  8
0
  6
CONTINUOUS
 10
19.95588973270936
 20
3.001888283523134
 30
0.0
 11
18.90726987211446
 21
4.050508144118028
 31
0.0
  0
LINE
  5
21976
  8
0
  6
CONTINUOUS
 10
20.15547048348449
 20
3.475826741828186
 30
0.0
 11
19.10679437974606
 21
4.524502845566614
 31
0.0
  0
LINE
  5
21977
  8
0
  6
CONTINUOUS
 10
20.35505123425962
 20
3.94976520013324
 30
0.0
 11
19.30631888737766
 21
4.998497547015201
 31
0.0
  0
LINE
  5
21978
  8
0
  6
CONTINUOUS
 10
20.55463198503475
 20
4.423703658438292
 30
0.0
 11
19.50584339500926
 21
5.472492248463787
 31
0.0
  0
LINE
  5
21979
  8
0
  6
CONTINUOUS
 10
18.37481191085755
 20
3.909446896294752
 30
0.0
 11
15.59302973632993
 21
6.691229070822371
 31
0.0
  0
LINE
  5
2197A
  8
0
  6
CONTINUOUS
 10
17.96904084440766
 20
4.988737171824825
 30
0.0
 11
15.77705890739338
 21
7.180719108839104
 31
0.0
  0
LINE
  5
2197B
  8
0
  6
CONTINUOUS
 10
17.56326977795777
 20
6.068027447354899
 30
0.0
 11
15.96108807845684
 21
7.670209146855838
 31
0.0
  0
LINE
  5
2197C
  8
0
  6
CONTINUOUS
 10
17.15749871150789
 20
7.147317722884972
 30
0.0
 11
16.14511724952029
 21
8.15969918487257
 31
0.0
  0
LINE
  5
2197D
  8
0
  6
CONTINUOUS
 10
16.751727645058
 20
8.226607998415046
 30
0.0
 11
16.32914642058374
 21
8.649189222889303
 31
0.0
  0
LINE
  5
2197E
  8
0
  6
CONTINUOUS
 10
20.75421273580989
 20
4.897642116743345
 30
0.0
 11
19.70536790264086
 21
5.946486949912374
 31
0.0
  0
LINE
  5
2197F
  8
0
  6
CONTINUOUS
 10
20.95379348658502
 20
5.371580575048398
 30
0.0
 11
19.90489241027246
 21
6.42048165136096
 31
0.0
  0
LINE
  5
21980
  8
0
  6
CONTINUOUS
 10
21.15337423736015
 20
5.845519033353452
 30
0.0
 11
20.10441691790406
 21
6.894476352809547
 31
0.0
  0
LINE
  5
21981
  8
0
  6
CONTINUOUS
 10
21.35295498813529
 20
6.319457491658505
 30
0.0
 11
20.30394142553566
 21
7.368471054258134
 31
0.0
  0
LINE
  5
21982
  8
0
  6
CONTINUOUS
 10
21.55253573891042
 20
6.793395949963558
 30
0.0
 11
20.50346593316726
 21
7.842465755706721
 31
0.0
  0
LINE
  5
21983
  8
0
  6
CONTINUOUS
 10
21.75211648968556
 20
7.267334408268612
 30
0.0
 11
20.70299044079886
 21
8.316460457155308
 31
0.0
  0
LINE
  5
21984
  8
0
  6
CONTINUOUS
 10
21.95169724046069
 20
7.741272866573663
 30
0.0
 11
20.9298701070431
 21
8.763099999991256
 31
0.0
  0
LINE
  5
21985
  8
0
  6
CONTINUOUS
 10
22.15127799123582
 20
8.215211324878716
 30
0.0
 11
21.60338931612328
 21
8.763099999991256
 31
0.0
  0
LINE
  5
21986
  8
0
  6
CONTINUOUS
 10
22.35085874201096
 20
8.689149783183769
 30
0.0
 11
22.27690852520347
 21
8.763099999991255
 31
0.0
  0
ENDBLK
  5
21A78
  8
0
  0
BLOCK
  8
0
  2
*X126
 70
     1
 10
0.0
 20
0.0
 30
0.0
  3
*X126
  1

  0
LINE
  5
21988
  8
0
  6
CONTINUOUS
 10
23.19462913593892
 20
8.169917934846424
 30
0.0
 11
23.70775465517246
 21
8.683043454079957
 31
0.0
  0
LINE
  5
21989
  8
0
  6
CONTINUOUS
 10
22.64923161835078
 20
6.951001208178088
 30
0.0
 11
23.9159364069932
 21
8.217705996820516
 31
0.0
  0
LINE
  5
2198A
  8
0
  6
CONTINUOUS
 10
22.10383410076263
 20
5.732084481509751
 30
0.0
 11
24.12411815881395
 21
7.752368539561078
 31
0.0
  0
LINE
  5
2198B
  8
0
  6
CONTINUOUS
 10
21.55843658317447
 20
4.513167754841414
 30
0.0
 11
24.3322999106347
 21
7.287031082301639
 31
0.0
  0
LINE
  5
2198C
  8
0
  6
CONTINUOUS
 10
21.01303906558632
 20
3.294251028173077
 30
0.0
 11
24.54048166245544
 21
6.821693625042199
 31
0.0
  0
LINE
  5
2198D
  8
0
  6
CONTINUOUS
 10
20.46764154799817
 20
2.075334301504738
 30
0.0
 11
23.28571549467848
 21
4.89340824818505
 31
0.0
  0
LINE
  5
2198E
  8
0
  6
CONTINUOUS
 10
19.92224403041002
 20
0.8564175748364002
 30
0.0
 11
22.74075865492779
 21
3.674932199354171
 31
0.0
  0
LINE
  5
2198F
  8
0
  6
CONTINUOUS
 10
23.67305085490148
 20
5.280743608408048
 30
0.0
 11
24.74866341427619
 21
6.356356167782759
 31
0.0
  0
LINE
  5
21990
  8
0
  6
CONTINUOUS
 10
23.88118970842314
 20
4.815363252849522
 30
0.0
 11
24.95684516609694
 21
5.89101871052332
 31
0.0
  0
LINE
  5
21991
  8
0
  6
CONTINUOUS
 10
19.73925852647308
 20
-0.0000871381807288
 30
0.0
 11
23.4103456646501
 21
3.670999999996297
 31
0.0
  0
LINE
  5
21992
  8
0
  6
CONTINUOUS
 10
24.0893285619448
 20
4.349982897290997
 30
0.0
 11
25.16502691791769
 21
5.42568125326388
 31
0.0
  0
LINE
  5
21993
  8
0
  6
CONTINUOUS
 10
20.41282099582748
 20
-0.0000438779065108
 30
0.0
 11
21.64944178675636
 21
1.236576913022366
 31
0.0
  0
LINE
  5
21994
  8
0
  6
CONTINUOUS
 10
22.78126487373161
 20
2.36839999999762
 30
0.0
 11
24.08386487373029
 21
3.670999999996297
 31
0.0
  0
LINE
  5
21995
  8
0
  6
CONTINUOUS
 10
24.29746741546646
 20
3.884602541732471
 30
0.0
 11
25.37320866973843
 21
4.960343796004441
 31
0.0
  0
LINE
  5
21996
  8
0
  6
CONTINUOUS
 10
21.08638346518189
 20
-0.0000006176322938
 30
0.0
 11
21.10379033335899
 21
0.0174062505448083
 31
0.0
  0
LINE
  5
21997
  8
0
  6
CONTINUOUS
 10
23.4547840828118
 20
2.36839999999762
 30
0.0
 11
25.58139042155918
 21
4.495006338745002
 31
0.0
  0
LINE
  5
21998
  8
0
  6
CONTINUOUS
 10
29.30199999996933
 20
8.215615917155148
 30
0.0
 11
29.84948408280543
 21
8.763099999991255
 31
0.0
  0
LINE
  5
21999
  8
0
  6
CONTINUOUS
 10
24.12830329189199
 20
2.36839999999762
 30
0.0
 11
25.78957217337993
 21
4.029668881485562
 31
0.0
  0
LINE
  5
2199A
  8
0
  6
CONTINUOUS
 10
29.30199999996933
 20
7.54209670807496
 30
0.0
 11
30.52300329188562
 21
8.763099999991255
 31
0.0
  0
LINE
  5
2199B
  8
0
  6
CONTINUOUS
 10
24.80182250097217
 20
2.36839999999762
 30
0.0
 11
25.99775392520067
 21
3.564331424226122
 31
0.0
  0
LINE
  5
2199C
  8
0
  6
CONTINUOUS
 10
29.30199999996933
 20
6.868577498994774
 30
0.0
 11
30.74199999996926
 21
8.308577498994712
 31
0.0
  0
LINE
  5
2199D
  8
0
  6
CONTINUOUS
 10
25.13028238392013
 20
2.023340673865392
 30
0.0
 11
26.20593567702142
 21
3.098993966966683
 31
0.0
  0
LINE
  5
2199E
  8
0
  6
CONTINUOUS
 10
25.33838066033617
 20
1.557919741201244
 30
0.0
 11
26.41411742884217
 21
2.633656509707244
 31
0.0
  0
LINE
  5
2199F
  8
0
  6
CONTINUOUS
 10
25.54647893675221
 20
1.092498808537098
 30
0.0
 11
26.62229918066291
 21
2.168319052447804
 31
0.0
  0
LINE
  5
219A0
  8
0
  6
CONTINUOUS
 10
25.75457721316825
 20
0.62707787587295
 30
0.0
 11
26.83048093248366
 21
1.702981595188365
 31
0.0
  0
LINE
  5
219A1
  8
0
  6
CONTINUOUS
 10
29.30199999996933
 20
6.195058289914587
 30
0.0
 11
30.74199999996926
 21
7.635058289914522
 31
0.0
  0
LINE
  5
219A2
  8
0
  6
CONTINUOUS
 10
29.30199999996933
 20
5.521539080834401
 30
0.0
 11
30.74199999996926
 21
6.961539080834331
 31
0.0
  0
LINE
  5
219A3
  8
0
  6
CONTINUOUS
 10
29.30199999996933
 20
4.848019871754214
 30
0.0
 11
30.74199999996925
 21
6.288019871754143
 31
0.0
  0
LINE
  5
219A4
  8
0
  6
CONTINUOUS
 10
29.30199999996933
 20
4.174500662674028
 30
0.0
 11
30.74199999996925
 21
5.614500662673953
 31
0.0
  0
LINE
  5
219A5
  8
0
  6
CONTINUOUS
 10
25.96267548958429
 20
0.1616569432088024
 30
0.0
 11
27.18411854636669
 21
1.383099999991207
 31
0.0
  0
LINE
  5
219A6
  8
0
  6
CONTINUOUS
 10
29.30199999996933
 20
3.500981453593841
 30
0.0
 11
30.74199999996925
 21
4.940981453593762
 31
0.0
  0
LINE
  5
219A7
  8
0
  6
CONTINUOUS
 10
26.50763775544691
 20
0.0330999999912356
 30
0.0
 11
27.85763775544689
 21
1.383099999991223
 31
0.0
  0
LINE
  5
219A8
  8
0
  6
CONTINUOUS
 10
29.30199999996933
 20
2.827462244513656
 30
0.0
 11
30.74199999996925
 21
4.267462244513574
 31
0.0
  0
LINE
  5
219A9
  8
0
  6
CONTINUOUS
 10
27.18115696452709
 20
0.0330999999912356
 30
0.0
 11
28.6224847300034
 21
1.474427765467545
 31
0.0
  0
LINE
  5
219AA
  8
0
  6
CONTINUOUS
 10
29.21067223449293
 20
2.062615269957069
 30
0.0
 11
30.74199999996924
 21
3.593943035433383
 31
0.0
  0
LINE
  5
219AB
  8
0
  6
CONTINUOUS
 10
27.85467617360728
 20
0.0330999999912356
 30
0.0
 11
30.74199999996924
 21
2.920423826353195
 31
0.0
  0
LINE
  5
219AC
  8
0
  6
CONTINUOUS
 10
28.57438609860264
 20
0.0792907159064073
 30
0.0
 11
30.69580928405405
 21
2.200713901357819
 31
0.0
  0
LINE
  5
219AD
  8
0
  6
CONTINUOUS
 10
29.49443044814297
 20
0.3258158563665496
 30
0.0
 11
30.44928414359389
 21
1.280669551817477
 31
0.0
  0
LINE
  5
219AE
  8
0
  6
CONTINUOUS
 10
19.59027867740337
 20
-0.0000967065718083
 30
0.0
 11
19.55485265190471
 21
0.035329318926844
 31
0.0
  0
LINE
  5
219AF
  8
0
  6
CONTINUOUS
 10
20.26375463176586
 20
-0.0000534518541091
 30
0.0
 11
19.76305575737534
 21
0.5006454225364014
 31
0.0
  0
LINE
  5
219B0
  8
0
  6
CONTINUOUS
 10
20.93723058612834
 20
-0.0000101971364099
 30
0.0
 11
19.97125886284597
 21
0.965961526145958
 31
0.0
  0
LINE
  5
219B1
  8
0
  6
CONTINUOUS
 10
21.25514828313686
 20
0.355591314935257
 30
0.0
 11
20.1794619683166
 21
1.431277629755512
 31
0.0
  0
LINE
  5
219B2
  8
0
  6
CONTINUOUS
 10
21.46338838394921
 20
0.8208704232030986
 30
0.0
 11
20.38766507378723
 21
1.896593733365069
 31
0.0
  0
LINE
  5
219B3
  8
0
  6
CONTINUOUS
 10
21.67162848476155
 20
1.28614953147094
 30
0.0
 11
20.59586817925786
 21
2.361909836974626
 31
0.0
  0
LINE
  5
219B4
  8
0
  6
CONTINUOUS
 10
21.8798685855739
 20
1.751428639738782
 30
0.0
 11
20.80407128472849
 21
2.827225940584183
 31
0.0
  0
LINE
  5
219B5
  8
0
  6
CONTINUOUS
 10
22.08810868638624
 20
2.216707748006623
 30
0.0
 11
21.01227439019912
 21
3.292542044193739
 31
0.0
  0
LINE
  5
219B6
  8
0
  6
CONTINUOUS
 10
22.60993564347543
 20
2.36839999999762
 30
0.0
 11
21.22047749566975
 21
3.757858147803296
 31
0.0
  0
LINE
  5
219B7
  8
0
  6
CONTINUOUS
 10
23.28345485255561
 20
2.36839999999762
 30
0.0
 11
21.42868060114038
 21
4.223174251412853
 31
0.0
  0
LINE
  5
219B8
  8
0
  6
CONTINUOUS
 10
26.29227406164219
 20
0.0330999999912356
 30
0.0
 11
25.80009199592872
 21
0.5252820657046957
 31
0.0
  0
LINE
  5
219B9
  8
0
  6
CONTINUOUS
 10
23.9569740616358
 20
2.36839999999762
 30
0.0
 11
21.63688370661101
 21
4.688490355022409
 31
0.0
  0
LINE
  5
219BA
  8
0
  6
CONTINUOUS
 10
26.96579327072237
 20
0.0330999999912356
 30
0.0
 11
25.2554132311971
 21
1.743480039516508
 31
0.0
  0
LINE
  5
219BB
  8
0
  6
CONTINUOUS
 10
24.63049327071599
 20
2.36839999999762
 30
0.0
 11
23.32789327071731
 21
3.670999999996297
 31
0.0
  0
LINE
  5
219BC
  8
0
  6
CONTINUOUS
 10
22.92098674744635
 20
4.077906523267254
 30
0.0
 11
21.84508681208164
 21
5.153806458631966
 31
0.0
  0
LINE
  5
219BD
  8
0
  6
CONTINUOUS
 10
27.63931247980256
 20
0.0330999999912356
 30
0.0
 11
24.0014124797975
 21
3.670999999996297
 31
0.0
  0
LINE
  5
219BE
  8
0
  6
CONTINUOUS
 10
23.129125600968
 20
4.5432868788258
 30
0.0
 11
22.05328991755227
 21
5.619122562241522
 31
0.0
  0
LINE
  5
219BF
  8
0
  6
CONTINUOUS
 10
28.31283168888275
 20
0.0330999999912356
 30
0.0
 11
24.16488385994816
 21
4.181047828925828
 31
0.0
  0
LINE
  5
219C0
  8
0
  6
CONTINUOUS
 10
23.33726445448964
 20
5.008667234384345
 30
0.0
 11
22.2614930230229
 21
6.084438665851079
 31
0.0
  0
LINE
  5
219C1
  8
0
  6
CONTINUOUS
 10
28.86286302309502
 20
0.1565878748591523
 30
0.0
 11
27.63635089796295
 21
1.383099999991217
 31
0.0
  0
LINE
  5
219C2
  8
0
  6
CONTINUOUS
 10
26.43704649509776
 20
2.582404402856405
 30
0.0
 11
23.61992702019732
 21
5.399523877756844
 31
0.0
  0
LINE
  5
219C3
  8
0
  6
CONTINUOUS
 10
23.54540330801128
 20
5.47404758994289
 30
0.0
 11
22.46969612849353
 21
6.549754769460635
 31
0.0
  0
LINE
  5
219C4
  8
0
  6
CONTINUOUS
 10
29.39405087596853
 20
0.2989192310658284
 30
0.0
 11
28.30987010704312
 21
1.383099999991234
 31
0.0
  0
LINE
  5
219C5
  8
0
  6
CONTINUOUS
 10
25.89179548232307
 20
3.801174624711282
 30
0.0
 11
22.67789923396416
 21
7.015070873070191
 31
0.0
  0
LINE
  5
219C6
  8
0
  6
CONTINUOUS
 10
29.79594438047407
 20
0.570544935640473
 30
0.0
 11
28.81310432793121
 21
1.553384988183336
 31
0.0
  0
LINE
  5
219C7
  8
0
  6
CONTINUOUS
 10
25.34654446954838
 20
5.01994484656616
 30
0.0
 11
22.88610233943479
 21
7.480386976679748
 31
0.0
  0
LINE
  5
219C8
  8
0
  6
CONTINUOUS
 10
30.13270398501416
 20
0.9073045401805646
 30
0.0
 11
29.14234640337737
 21
1.897662121817355
 31
0.0
  0
LINE
  5
219C9
  8
0
  6
CONTINUOUS
 10
24.80129345677369
 20
6.238715068421037
 30
0.0
 11
23.09430544490542
 21
7.945703080289305
 31
0.0
  0
LINE
  5
219CA
  8
0
  6
CONTINUOUS
 10
30.44581292956759
 20
1.26771480470732
 30
0.0
 11
29.30199999996933
 21
2.411527734305588
 31
0.0
  0
LINE
  5
219CB
  8
0
  6
CONTINUOUS
 10
30.58814428577427
 20
1.798902657580827
 30
0.0
 11
29.30199999996933
 21
3.085046943385775
 31
0.0
  0
LINE
  5
219CC
  8
0
  6
CONTINUOUS
 10
24.256042443999
 20
7.457485290275915
 30
0.0
 11
23.30250855037605
 21
8.411019183898862
 31
0.0
  0
LINE
  5
219CD
  8
0
  6
CONTINUOUS
 10
23.71079143122431
 20
8.676255512130794
 30
0.0
 11
23.51071165584668
 21
8.876335287508418
 31
0.0
  0
LINE
  5
219CE
  8
0
  6
CONTINUOUS
 10
30.73047564198095
 20
2.330090510454333
 30
0.0
 11
29.30199999996933
 21
3.758566152465961
 31
0.0
  0
LINE
  5
219CF
  8
0
  6
CONTINUOUS
 10
30.74199999996924
 20
2.992085361546236
 30
0.0
 11
29.30199999996933
 21
4.432085361546148
 31
0.0
  0
LINE
  5
219D0
  8
0
  6
CONTINUOUS
 10
30.74199999996924
 20
3.665604570626419
 30
0.0
 11
29.30199999996933
 21
5.105604570626333
 31
0.0
  0
LINE
  5
219D1
  8
0
  6
CONTINUOUS
 10
30.74199999996925
 20
4.339123779706602
 30
0.0
 11
29.30199999996933
 21
5.77912377970652
 31
0.0
  0
LINE
  5
219D2
  8
0
  6
CONTINUOUS
 10
30.74199999996925
 20
5.012642988786785
 30
0.0
 11
29.30199999996933
 21
6.452642988786707
 31
0.0
  0
LINE
  5
219D3
  8
0
  6
CONTINUOUS
 10
30.74199999996925
 20
5.68616219786697
 30
0.0
 11
29.30199999996933
 21
7.126162197866894
 31
0.0
  0
LINE
  5
219D4
  8
0
  6
CONTINUOUS
 10
30.74199999996925
 20
6.359681406947153
 30
0.0
 11
29.30199999996933
 21
7.799681406947081
 31
0.0
  0
LINE
  5
219D5
  8
0
  6
CONTINUOUS
 10
30.74199999996926
 20
7.033200616027337
 30
0.0
 11
29.30199999996933
 21
8.473200616027269
 31
0.0
  0
LINE
  5
219D6
  8
0
  6
CONTINUOUS
 10
30.74199999996926
 20
7.706719825107518
 30
0.0
 11
29.68561982508552
 21
8.763099999991255
 31
0.0
  0
LINE
  5
219D7
  8
0
  6
CONTINUOUS
 10
30.74199999996926
 20
8.380239034187703
 30
0.0
 11
30.35913903416571
 21
8.763099999991255
 31
0.0
  0
ENDBLK
  5
21A7A
  8
0
  0
BLOCK
  8
0
  2
*X127
 70
     1
 10
0.0
 20
0.0
 30
0.0
  3
*X127
  1

  0
LINE
  5
219D9
  8
0
  6
CONTINUOUS
 10
31.64199999996833
 20
8.5350582899136
 30
0.0
 11
31.87004171004599
 21
8.763099999991255
 31
0.0
  0
LINE
  5
219DA
  8
0
  6
CONTINUOUS
 10
31.64199999996833
 20
7.861539080833413
 30
0.0
 11
32.54356091912618
 21
8.763099999991255
 31
0.0
  0
LINE
  5
219DB
  8
0
  6
CONTINUOUS
 10
31.64199999996833
 20
7.188019871753227
 30
0.0
 11
33.08199999996839
 21
8.628019871753281
 31
0.0
  0
LINE
  5
219DC
  8
0
  6
CONTINUOUS
 10
31.64199999996833
 20
6.514500662673041
 30
0.0
 11
33.08199999996839
 21
7.954500662673095
 31
0.0
  0
LINE
  5
219DD
  8
0
  6
CONTINUOUS
 10
31.64199999996833
 20
5.840981453592855
 30
0.0
 11
33.08199999996839
 21
7.28098145359291
 31
0.0
  0
LINE
  5
219DE
  8
0
  6
CONTINUOUS
 10
31.64199999996833
 20
5.167462244512668
 30
0.0
 11
33.08199999996839
 21
6.607462244512723
 31
0.0
  0
LINE
  5
219DF
  8
0
  6
CONTINUOUS
 10
31.64199999996833
 20
4.493943035432482
 30
0.0
 11
33.08199999996839
 21
5.933943035432536
 31
0.0
  0
LINE
  5
219E0
  8
0
  6
CONTINUOUS
 10
31.64199999996833
 20
3.820423826352294
 30
0.0
 11
33.08199999996839
 21
5.260423826352349
 31
0.0
  0
LINE
  5
219E1
  8
0
  6
CONTINUOUS
 10
31.64199999996833
 20
3.146904617272108
 30
0.0
 11
33.08199999996839
 21
4.586904617272163
 31
0.0
  0
LINE
  5
219E2
  8
0
  6
CONTINUOUS
 10
36.23199999996837
 20
8.410423826352327
 30
0.0
 11
36.58467617360729
 21
8.763099999991255
 31
0.0
  0
LINE
  5
219E3
  8
0
  6
CONTINUOUS
 10
36.23199999996837
 20
7.73690461727214
 30
0.0
 11
37.25819538268748
 21
8.763099999991255
 31
0.0
  0
LINE
  5
219E4
  8
0
  6
CONTINUOUS
 10
31.64323424774199
 20
2.474619655965573
 30
0.0
 11
33.08199999996839
 21
3.913385408191976
 31
0.0
  0
LINE
  5
219E5
  8
0
  6
CONTINUOUS
 10
31.74419223861915
 20
1.902058437762552
 30
0.0
 11
33.08199999996839
 21
3.239866199111789
 31
0.0
  0
LINE
  5
219E6
  8
0
  6
CONTINUOUS
 10
36.23199999996837
 20
7.063385408191953
 30
0.0
 11
37.67199999996831
 21
8.503385408191894
 31
0.0
  0
LINE
  5
219E7
  8
0
  6
CONTINUOUS
 10
36.23199999996837
 20
6.389866199111767
 30
0.0
 11
37.67199999996831
 21
7.829866199111708
 31
0.0
  0
LINE
  5
219E8
  8
0
  6
CONTINUOUS
 10
31.91111233414976
 20
1.39545932421297
 30
0.0
 11
33.08199999996839
 21
2.566346990031603
 31
0.0
  0
LINE
  5
219E9
  8
0
  6
CONTINUOUS
 10
36.23199999996837
 20
5.71634699003158
 30
0.0
 11
37.67199999996831
 21
7.156346990031522
 31
0.0
  0
LINE
  5
219EA
  8
0
  6
CONTINUOUS
 10
32.1576374746103
 20
0.9684652555933289
 30
0.0
 11
33.20642631446081
 21
2.017254095443838
 31
0.0
  0
LINE
  5
219EB
  8
0
  6
CONTINUOUS
 10
36.23199999996837
 20
5.042827780951393
 30
0.0
 11
37.67199999996831
 21
6.482827780951334
 31
0.0
  0
LINE
  5
219EC
  8
0
  6
CONTINUOUS
 10
32.47774023927325
 20
0.6150488111760914
 30
0.0
 11
33.49903056428258
 21
1.636339136185419
 31
0.0
  0
LINE
  5
219ED
  8
0
  6
CONTINUOUS
 10
36.23199999996837
 20
4.369308571871207
 30
0.0
 11
37.67199999996831
 21
5.809308571871148
 31
0.0
  0
LINE
  5
219EE
  8
0
  6
CONTINUOUS
 10
32.84396249154443
 20
0.3077518543670883
 30
0.0
 11
33.93324121824649
 21
1.397030581069146
 31
0.0
  0
LINE
  5
219EF
  8
0
  6
CONTINUOUS
 10
36.23199999996837
 20
3.695789362791021
 30
0.0
 11
37.67199999996831
 21
5.135789362790963
 31
0.0
  0
LINE
  5
219F0
  8
0
  6
CONTINUOUS
 10
33.30186329036846
 20
0.0921334441109263
 30
0.0
 11
34.46442907112041
 21
1.254699224862875
 31
0.0
  0
LINE
  5
219F1
  8
0
  6
CONTINUOUS
 10
36.23199999996837
 20
3.022270153710834
 30
0.0
 11
37.67199999996831
 21
4.462270153710776
 31
0.0
  0
LINE
  5
219F2
  8
0
  6
CONTINUOUS
 10
33.79565647746294
 20
-0.0875925778747773
 30
0.0
 11
35.24350171668284
 21
1.360252661345124
 31
0.0
  0
LINE
  5
219F3
  8
0
  6
CONTINUOUS
 10
36.18336676155003
 20
2.300117706212308
 30
0.0
 11
37.67199999996831
 21
3.788750944630589
 31
0.0
  0
LINE
  5
219F4
  8
0
  6
CONTINUOUS
 10
34.37182574910968
 20
-0.184942515308224
 30
0.0
 11
37.67199999996831
 21
3.115231735550402
 31
0.0
  0
LINE
  5
219F5
  8
0
  6
CONTINUOUS
 10
35.0453449581892
 20
-0.1849425153088955
 30
0.0
 11
37.66345697088136
 21
2.433169497383271
 31
0.0
  0
LINE
  5
219F6
  8
0
  6
CONTINUOUS
 10
35.98667157609191
 20
0.0828648935136398
 30
0.0
 11
37.51927401744566
 21
1.615467334867382
 31
0.0
  0
LINE
  5
219F7
  8
0
  6
CONTINUOUS
 10
32.27747408544484
 20
0.7830920669904482
 30
0.0
 11
32.24716210471949
 21
0.8134040477157893
 31
0.0
  0
LINE
  5
219F8
  8
0
  6
CONTINUOUS
 10
33.83656881101902
 20
-0.1024834495035494
 30
0.0
 11
31.72538911593758
 21
2.008696245577891
 31
0.0
  0
LINE
  5
219F9
  8
0
  6
CONTINUOUS
 10
34.5925470859041
 20
-0.1849425153084434
 30
0.0
 11
31.64199999996833
 21
2.765604570627322
 31
0.0
  0
LINE
  5
219FA
  8
0
  6
CONTINUOUS
 10
35.26201302775981
 20
-0.1808892480839752
 30
0.0
 11
31.64199999996833
 21
3.439123779707508
 31
0.0
  0
LINE
  5
219FB
  8
0
  6
CONTINUOUS
 10
35.75580621485512
 20
-0.0011632260990879
 30
0.0
 11
34.51294304365551
 21
1.241699945100514
 31
0.0
  0
LINE
  5
219FC
  8
0
  6
CONTINUOUS
 10
33.08199999996839
 20
2.672642988787641
 30
0.0
 11
31.64199999996833
 21
4.112642988787695
 31
0.0
  0
LINE
  5
219FD
  8
0
  6
CONTINUOUS
 10
36.24959940195042
 20
0.1785627958857976
 30
0.0
 11
35.10501653033629
 21
1.323145667499924
 31
0.0
  0
LINE
  5
219FE
  8
0
  6
CONTINUOUS
 10
33.08199999996839
 20
3.346162197867827
 30
0.0
 11
31.64199999996833
 21
4.786162197867881
 31
0.0
  0
LINE
  5
219FF
  8
0
  6
CONTINUOUS
 10
36.64615197150552
 20
0.4555294354108876
 30
0.0
 11
35.6362043832099
 21
1.465477023706505
 31
0.0
  0
LINE
  5
21A00
  8
0
  6
CONTINUOUS
 10
33.08199999996839
 20
4.019681406948013
 30
0.0
 11
31.64199999996833
 21
5.459681406948068
 31
0.0
  0
LINE
  5
21A01
  8
0
  6
CONTINUOUS
 10
37.0123742237774
 20
0.7628263922191891
 30
0.0
 11
35.97691545773309
 21
1.798285158263504
 31
0.0
  0
LINE
  5
21A02
  8
0
  6
CONTINUOUS
 10
33.08199999996839
 20
4.6932006160282
 30
0.0
 11
31.64199999996833
 21
6.133200616028255
 31
0.0
  0
LINE
  5
21A03
  8
0
  6
CONTINUOUS
 10
37.27491524157143
 20
1.173804583505349
 30
0.0
 11
36.17602012811361
 21
2.272699696963169
 31
0.0
  0
LINE
  5
21A04
  8
0
  6
CONTINUOUS
 10
33.08199999996839
 20
5.366719825108387
 30
0.0
 11
31.64199999996833
 21
6.806719825108441
 31
0.0
  0
LINE
  5
21A05
  8
0
  6
CONTINUOUS
 10
37.51739996707661
 20
1.604839067080355
 30
0.0
 11
36.23199999996837
 21
2.890239034188595
 31
0.0
  0
LINE
  5
21A06
  8
0
  6
CONTINUOUS
 10
37.6183579579535
 20
2.177400285283649
 30
0.0
 11
36.23199999996837
 21
3.563758243268782
 31
0.0
  0
LINE
  5
21A07
  8
0
  6
CONTINUOUS
 10
33.08199999996839
 20
6.040239034188573
 30
0.0
 11
31.64199999996833
 21
7.480239034188628
 31
0.0
  0
LINE
  5
21A08
  8
0
  6
CONTINUOUS
 10
33.08199999996839
 20
6.713758243268759
 30
0.0
 11
31.64199999996833
 21
8.153758243268815
 31
0.0
  0
LINE
  5
21A09
  8
0
  6
CONTINUOUS
 10
37.67199999996831
 20
2.797277452349027
 30
0.0
 11
36.23199999996837
 21
4.237277452348969
 31
0.0
  0
LINE
  5
21A0A
  8
0
  6
CONTINUOUS
 10
37.67199999996831
 20
3.470796661429214
 30
0.0
 11
36.23199999996837
 21
4.910796661429155
 31
0.0
  0
LINE
  5
21A0B
  8
0
  6
CONTINUOUS
 10
37.67199999996831
 20
4.1443158705094
 30
0.0
 11
36.23199999996837
 21
5.584315870509341
 31
0.0
  0
LINE
  5
21A0C
  8
0
  6
CONTINUOUS
 10
33.08199999996839
 20
7.387277452348946
 30
0.0
 11
31.70617745232608
 21
8.763099999991255
 31
0.0
  0
LINE
  5
21A0D
  8
0
  6
CONTINUOUS
 10
33.08199999996839
 20
8.060796661429134
 30
0.0
 11
32.37969666140626
 21
8.763099999991255
 31
0.0
  0
LINE
  5
21A0E
  8
0
  6
CONTINUOUS
 10
33.08199999996839
 20
8.734315870509318
 30
0.0
 11
33.05321587048645
 21
8.763099999991255
 31
0.0
  0
LINE
  5
21A0F
  8
0
  6
CONTINUOUS
 10
37.67199999996831
 20
4.817835079589586
 30
0.0
 11
36.23199999996837
 21
6.257835079589528
 31
0.0
  0
LINE
  5
21A10
  8
0
  6
CONTINUOUS
 10
37.67199999996831
 20
5.491354288669772
 30
0.0
 11
36.23199999996837
 21
6.931354288669715
 31
0.0
  0
LINE
  5
21A11
  8
0
  6
CONTINUOUS
 10
37.67199999996831
 20
6.164873497749959
 30
0.0
 11
36.23199999996837
 21
7.6048734977499
 31
0.0
  0
LINE
  5
21A12
  8
0
  6
CONTINUOUS
 10
37.67199999996831
 20
6.838392706830145
 30
0.0
 11
36.23199999996837
 21
8.278392706830086
 31
0.0
  0
LINE
  5
21A13
  8
0
  6
CONTINUOUS
 10
37.67199999996831
 20
7.511911915910333
 30
0.0
 11
36.42081191588738
 21
8.763099999991255
 31
0.0
  0
LINE
  5
21A14
  8
0
  6
CONTINUOUS
 10
37.67199999996831
 20
8.185431124990519
 30
0.0
 11
37.09433112496757
 21
8.763099999991255
 31
0.0
  0
ENDBLK
  5
21A7C
  8
0
  0
BLOCK
  8
0
  2
*X128
 70
     1
 10
0.0
 20
0.0
 30
0.0
  3
*X128
  1

  0
LINE
  5
21A16
  8
0
  6
CONTINUOUS
 10
38.60499999996136
 20
8.762866199104765
 30
0.0
 11
38.71672554182345
 21
8.874591740966855
 31
0.0
  0
LINE
  5
21A17
  8
0
  6
CONTINUOUS
 10
38.60499999996136
 20
8.089346990024577
 30
0.0
 11
39.03418785440363
 21
8.518534844466847
 31
0.0
  0
LINE
  5
21A18
  8
0
  6
CONTINUOUS
 10
38.60499999996136
 20
7.41582778094439
 30
0.0
 11
39.35165016698382
 21
8.16247794796684
 31
0.0
  0
LINE
  5
21A19
  8
0
  6
CONTINUOUS
 10
38.60499999996136
 20
6.742308571864204
 30
0.0
 11
39.66911247956399
 21
7.806421051466834
 31
0.0
  0
LINE
  5
21A1A
  8
0
  6
CONTINUOUS
 10
38.60499999996136
 20
6.068789362784018
 30
0.0
 11
39.98657479214418
 21
7.450364154966827
 31
0.0
  0
LINE
  5
21A1B
  8
0
  6
CONTINUOUS
 10
38.60499999996136
 20
5.395270153703832
 30
0.0
 11
40.30403710472435
 21
7.09430725846682
 31
0.0
  0
LINE
  5
21A1C
  8
0
  6
CONTINUOUS
 10
38.60499999996136
 20
4.721750944623645
 30
0.0
 11
40.62149941730453
 21
6.738250361966813
 31
0.0
  0
LINE
  5
21A1D
  8
0
  6
CONTINUOUS
 10
38.60499999996136
 20
4.048231735543458
 30
0.0
 11
40.93896172988471
 21
6.382193465466806
 31
0.0
  0
LINE
  5
21A1E
  8
0
  6
CONTINUOUS
 10
38.60499999996136
 20
3.374712526463272
 30
0.0
 11
40.02599999995994
 21
4.795712526461843
 31
0.0
  0
LINE
  5
21A1F
  8
0
  6
CONTINUOUS
 10
38.60499999996136
 20
2.701193317383085
 30
0.0
 11
40.02599999995994
 21
4.122193317381657
 31
0.0
  0
LINE
  5
21A20
  8
0
  6
CONTINUOUS
 10
40.28339754687704
 20
5.053110073378947
 30
0.0
 11
41.25642404246489
 21
6.026136568966799
 31
0.0
  0
LINE
  5
21A21
  8
0
  6
CONTINUOUS
 10
40.60085985945722
 20
4.697053176878939
 30
0.0
 11
41.57388635504507
 21
5.670079672466793
 31
0.0
  0
LINE
  5
21A22
  8
0
  6
CONTINUOUS
 10
43.57899999995641
 20
8.348712526458318
 30
0.0
 11
43.99338747348935
 21
8.763099999991255
 31
0.0
  0
LINE
  5
21A23
  8
0
  6
CONTINUOUS
 10
43.57899999995641
 20
7.675193317378131
 30
0.0
 11
44.66690668256953
 21
8.763099999991255
 31
0.0
  0
LINE
  5
21A24
  8
0
  6
CONTINUOUS
 10
38.60499999996136
 20
2.027674108302898
 30
0.0
 11
40.02599999995994
 21
3.44867410830147
 31
0.0
  0
LINE
  5
21A25
  8
0
  6
CONTINUOUS
 10
38.60499999996136
 20
1.354154899222712
 30
0.0
 11
40.02599999995994
 21
2.775154899221284
 31
0.0
  0
LINE
  5
21A26
  8
0
  6
CONTINUOUS
 10
38.60499999996136
 20
0.6806356901425255
 30
0.0
 11
40.02599999995994
 21
2.101635690141098
 31
0.0
  0
LINE
  5
21A27
  8
0
  6
CONTINUOUS
 10
38.60499999996136
 20
0.0071164810623383
 30
0.0
 11
40.02599999995994
 21
1.428116481060911
 31
0.0
  0
LINE
  5
21A28
  8
0
  6
CONTINUOUS
 10
40.9183221720374
 20
4.340996280378933
 30
0.0
 11
41.89134866762525
 21
5.314022775966786
 31
0.0
  0
LINE
  5
21A29
  8
0
  6
CONTINUOUS
 10
41.23578448461758
 20
3.984939383878926
 30
0.0
 11
42.20881098020543
 21
4.957965879466778
 31
0.0
  0
LINE
  5
21A2A
  8
0
  6
CONTINUOUS
 10
41.55324679719776
 20
3.628882487378919
 30
0.0
 11
42.52627329278561
 21
4.601908982966772
 31
0.0
  0
LINE
  5
21A2B
  8
0
  6
CONTINUOUS
 10
41.87070910977793
 20
3.272825590878912
 30
0.0
 11
42.84373560536579
 21
4.245852086466765
 31
0.0
  0
LINE
  5
21A2C
  8
0
  6
CONTINUOUS
 10
43.57899999995641
 20
7.001674108297943
 30
0.0
 11
44.99999999995498
 21
8.422674108296516
 31
0.0
  0
LINE
  5
21A2D
  8
0
  6
CONTINUOUS
 10
43.57899999995641
 20
6.328154899217758
 30
0.0
 11
44.99999999995498
 21
7.749154899216329
 31
0.0
  0
LINE
  5
21A2E
  8
0
  6
CONTINUOUS
 10
43.57899999995641
 20
5.654635690137571
 30
0.0
 11
44.99999999995498
 21
7.075635690136142
 31
0.0
  0
LINE
  5
21A2F
  8
0
  6
CONTINUOUS
 10
43.57899999995641
 20
4.981116481057384
 30
0.0
 11
44.99999999995498
 21
6.402116481055955
 31
0.0
  0
LINE
  5
21A30
  8
0
  6
CONTINUOUS
 10
39.27140272797921
 20
-0.0000000000000009
 30
0.0
 11
40.02599999995994
 21
0.7545972719807246
 31
0.0
  0
LINE
  5
21A31
  8
0
  6
CONTINUOUS
 10
39.9449219370594
 20
-0.0000000000000009
 30
0.0
 11
40.02599999995994
 21
0.0810780629005379
 31
0.0
  0
LINE
  5
21A32
  8
0
  6
CONTINUOUS
 10
42.18817142235812
 20
2.916768694378905
 30
0.0
 11
43.16119791794597
 21
3.889795189966758
 31
0.0
  0
LINE
  5
21A33
  8
0
  6
CONTINUOUS
 10
42.50563373493829
 20
2.560711797878898
 30
0.0
 11
43.47866023052615
 21
3.533738293466751
 31
0.0
  0
LINE
  5
21A34
  8
0
  6
CONTINUOUS
 10
43.57899999995641
 20
4.307597271977198
 30
0.0
 11
44.99999999995498
 21
5.728597271975769
 31
0.0
  0
LINE
  5
21A35
  8
0
  6
CONTINUOUS
 10
43.57899999995641
 20
3.634078062897011
 30
0.0
 11
44.99999999995498
 21
5.055078062895582
 31
0.0
  0
LINE
  5
21A36
  8
0
  6
CONTINUOUS
 10
42.82309604751848
 20
2.204654901378891
 30
0.0
 11
44.99999999995498
 21
4.381558853815395
 31
0.0
  0
LINE
  5
21A37
  8
0
  6
CONTINUOUS
 10
43.14055836009865
 20
1.848598004878885
 30
0.0
 11
44.99999999995498
 21
3.70803964473521
 31
0.0
  0
LINE
  5
21A38
  8
0
  6
CONTINUOUS
 10
43.45802067267883
 20
1.492541108378878
 30
0.0
 11
44.99999999995498
 21
3.034520435655023
 31
0.0
  0
LINE
  5
21A39
  8
0
  6
CONTINUOUS
 10
43.77548298525902
 20
1.136484211878871
 30
0.0
 11
44.99999999995498
 21
2.361001226574837
 31
0.0
  0
LINE
  5
21A3A
  8
0
  6
CONTINUOUS
 10
44.09294529783919
 20
0.7804273153788639
 30
0.0
 11
44.99999999995498
 21
1.687482017494649
 31
0.0
  0
LINE
  5
21A3B
  8
0
  6
CONTINUOUS
 10
44.41040761041938
 20
0.4243704188788566
 30
0.0
 11
44.99999999995498
 21
1.013962808414463
 31
0.0
  0
LINE
  5
21A3C
  8
0
  6
CONTINUOUS
 10
44.72786992299955
 20
0.0683135223788494
 30
0.0
 11
44.99999999995498
 21
0.340443599334276
 31
0.0
  0
LINE
  5
21A3D
  8
0
  6
CONTINUOUS
 10
39.12223903415696
 20
-0.0000000000000009
 30
0.0
 11
38.60499999996136
 21
0.5172390341955961
 31
0.0
  0
LINE
  5
21A3E
  8
0
  6
CONTINUOUS
 10
39.79575824323715
 20
-0.0000000000000009
 30
0.0
 11
38.60499999996136
 21
1.190758243275783
 31
0.0
  0
LINE
  5
21A3F
  8
0
  6
CONTINUOUS
 10
40.02599999995994
 20
0.443277452357397
 30
0.0
 11
38.60499999996136
 21
1.864277452355969
 31
0.0
  0
LINE
  5
21A40
  8
0
  6
CONTINUOUS
 10
40.02599999995994
 20
1.116796661437583
 30
0.0
 11
38.60499999996136
 21
2.537796661436155
 31
0.0
  0
LINE
  5
21A41
  8
0
  6
CONTINUOUS
 10
40.02599999995994
 20
1.79031587051777
 30
0.0
 11
38.60499999996136
 21
3.211315870516341
 31
0.0
  0
LINE
  5
21A42
  8
0
  6
CONTINUOUS
 10
40.02599999995994
 20
2.463835079597956
 30
0.0
 11
38.60499999996136
 21
3.884835079596527
 31
0.0
  0
LINE
  5
21A43
  8
0
  6
CONTINUOUS
 10
40.02599999995994
 20
3.137354288678143
 30
0.0
 11
38.60499999996136
 21
4.558354288676714
 31
0.0
  0
LINE
  5
21A44
  8
0
  6
CONTINUOUS
 10
40.02599999995994
 20
3.810873497758329
 30
0.0
 11
38.60499999996136
 21
5.2318734977569
 31
0.0
  0
LINE
  5
21A45
  8
0
  6
CONTINUOUS
 10
40.02599999995994
 20
4.484392706838515
 30
0.0
 11
38.60499999996136
 21
5.905392706837086
 31
0.0
  0
LINE
  5
21A46
  8
0
  6
CONTINUOUS
 10
44.99999999995498
 20
0.183911915923658
 30
0.0
 11
41.53858364506288
 21
3.64532827081576
 31
0.0
  0
LINE
  5
21A47
  8
0
  6
CONTINUOUS
 10
40.02599999995994
 20
5.157911915918703
 30
0.0
 11
38.60499999996136
 21
6.578911915917274
 31
0.0
  0
LINE
  5
21A48
  8
0
  6
CONTINUOUS
 10
44.99999999995498
 20
0.8574311250038447
 30
0.0
 11
38.60499999996136
 21
7.25243112499746
 31
0.0
  0
LINE
  5
21A49
  8
0
  6
CONTINUOUS
 10
44.99999999995498
 20
1.530950334084031
 30
0.0
 11
38.60499999996136
 21
7.925950334077647
 31
0.0
  0
LINE
  5
21A4A
  8
0
  6
CONTINUOUS
 10
44.99999999995498
 20
2.204469543164218
 30
0.0
 11
43.57899999995641
 21
3.625469543162789
 31
0.0
  0
LINE
  5
21A4B
  8
0
  6
CONTINUOUS
 10
41.89876730984767
 20
5.305702233271528
 30
0.0
 11
38.60499999996136
 21
8.599469543157834
 31
0.0
  0
LINE
  5
21A4C
  8
0
  6
CONTINUOUS
 10
44.99999999995498
 20
2.877988752244405
 30
0.0
 11
43.57899999995641
 21
4.298988752242975
 31
0.0
  0
LINE
  5
21A4D
  8
0
  6
CONTINUOUS
 10
44.99999999995498
 20
3.551507961324591
 30
0.0
 11
43.57899999995641
 21
4.972507961323163
 31
0.0
  0
LINE
  5
21A4E
  8
0
  6
CONTINUOUS
 10
44.99999999995498
 20
4.225027170404777
 30
0.0
 11
43.57899999995641
 21
5.646027170403348
 31
0.0
  0
LINE
  5
21A4F
  8
0
  6
CONTINUOUS
 10
44.99999999995498
 20
4.898546379484964
 30
0.0
 11
43.57899999995641
 21
6.319546379483535
 31
0.0
  0
LINE
  5
21A50
  8
0
  6
CONTINUOUS
 10
44.99999999995498
 20
5.572065588565151
 30
0.0
 11
43.57899999995641
 21
6.993065588563722
 31
0.0
  0
LINE
  5
21A51
  8
0
  6
CONTINUOUS
 10
44.99999999995498
 20
6.245584797645336
 30
0.0
 11
43.57899999995641
 21
7.666584797643908
 31
0.0
  0
LINE
  5
21A52
  8
0
  6
CONTINUOUS
 10
44.99999999995498
 20
6.919104006725522
 30
0.0
 11
43.57899999995641
 21
8.340104006724093
 31
0.0
  0
LINE
  5
21A53
  8
0
  6
CONTINUOUS
 10
44.99999999995498
 20
7.592623215805709
 30
0.0
 11
43.82952321576943
 21
8.763099999991255
 31
0.0
  0
LINE
  5
21A54
  8
0
  6
CONTINUOUS
 10
44.99999999995498
 20
8.266142424885896
 30
0.0
 11
44.50304242484962
 21
8.763099999991255
 31
0.0
  0
ENDBLK
  5
21A7E
  8
0
  0
BLOCK
  8
0
  2
*X129
 70
     1
 10
0.0
 20
0.0
 30
0.0
  3
*X129
  1

  0
LINE
  5
21A56
  8
0
  6
CONTINUOUS
 10
0.0
 20
8.548461116714023
 30
0.0
 11
0.2146388832772324
 21
8.763099999991255
 31
0.0
  0
LINE
  5
21A57
  8
0
  6
CONTINUOUS
 10
-0.0000000000000002
 20
7.874941907633837
 30
0.0
 11
0.8881580923574184
 21
8.763099999991255
 31
0.0
  0
LINE
  5
21A58
  8
0
  6
CONTINUOUS
 10
0.0
 20
7.20142269855365
 30
0.0
 11
1.420999999998572
 21
8.622422698552223
 31
0.0
  0
LINE
  5
21A59
  8
0
  6
CONTINUOUS
 10
-0.0000000000000001
 20
6.527903489473465
 30
0.0
 11
1.420999999998571
 21
7.948903489472036
 31
0.0
  0
LINE
  5
21A5A
  8
0
  6
CONTINUOUS
 10
-0.0000000000000002
 20
5.854384280393278
 30
0.0
 11
1.420999999998571
 21
7.275384280391849
 31
0.0
  0
LINE
  5
21A5B
  8
0
  6
CONTINUOUS
 10
-0.0000000000000002
 20
5.180865071313091
 30
0.0
 11
1.420999999998571
 21
6.601865071311663
 31
0.0
  0
LINE
  5
21A5C
  8
0
  6
CONTINUOUS
 10
0.0
 20
4.507345862232905
 30
0.0
 11
1.420999999998571
 21
5.928345862231477
 31
0.0
  0
LINE
  5
21A5D
  8
0
  6
CONTINUOUS
 10
-0.0000000000000003
 20
3.833826653152718
 30
0.0
 11
1.420999999998571
 21
5.25482665315129
 31
0.0
  0
LINE
  5
21A5E
  8
0
  6
CONTINUOUS
 10
-0.0000000000000002
 20
3.160307444072532
 30
0.0
 11
1.420999999998571
 21
4.581307444071103
 31
0.0
  0
LINE
  5
21A5F
  8
0
  6
CONTINUOUS
 10
-0.0000000000000001
 20
2.486788234992345
 30
0.0
 11
1.420999999998571
 21
3.907788234990917
 31
0.0
  0
LINE
  5
21A60
  8
0
  6
CONTINUOUS
 10
-0.0000000000000006
 20
1.813269025912159
 30
0.0
 11
1.420999999998571
 21
3.234269025910731
 31
0.0
  0
LINE
  5
21A61
  8
0
  6
CONTINUOUS
 10
0.0
 20
1.139749816831973
 30
0.0
 11
1.420999999998571
 21
2.560749816830544
 31
0.0
  0
LINE
  5
21A62
  8
0
  6
CONTINUOUS
 10
0.0000000000000002
 20
0.466230607751787
 30
0.0
 11
1.420999999998571
 21
1.887230607750358
 31
0.0
  0
LINE
  5
21A63
  8
0
  6
CONTINUOUS
 10
0.2072886013284003
 20
-0.0000000000000009
 30
0.0
 11
1.420999999998571
 21
1.213711398670171
 31
0.0
  0
LINE
  5
21A64
  8
0
  6
CONTINUOUS
 10
0.8808078104085864
 20
-0.0000000000000009
 30
0.0
 11
1.420999999998571
 21
0.5401921895899839
 31
0.0
  0
LINE
  5
21A65
  8
0
  6
CONTINUOUS
 10
0.0581249075061505
 20
-0.0000000000000009
 30
0.0
 11
-0.0000000000000002
 21
0.0581249075061496
 31
0.0
  0
LINE
  5
21A66
  8
0
  6
CONTINUOUS
 10
0.7316441165863372
 20
-0.0000000000000009
 30
0.0
 11
-0.0000000000000002
 21
0.7316441165863363
 31
0.0
  0
LINE
  5
21A67
  8
0
  6
CONTINUOUS
 10
1.405163325666523
 20
-0.0000000000000009
 30
0.0
 11
-0.0000000000000002
 21
1.405163325666523
 31
0.0
  0
LINE
  5
21A68
  8
0
  6
CONTINUOUS
 10
1.420999999998572
 20
0.6576825347481381
 30
0.0
 11
-0.0000000000000001
 21
2.07868253474671
 31
0.0
  0
LINE
  5
21A69
  8
0
  6
CONTINUOUS
 10
1.420999999998571
 20
1.331201743828324
 30
0.0
 11
-0.0000000000000001
 21
2.752201743826896
 31
0.0
  0
LINE
  5
21A6A
  8
0
  6
CONTINUOUS
 10
1.420999999998571
 20
2.004720952908511
 30
0.0
 11
-0.0000000000000002
 21
3.425720952907082
 31
0.0
  0
LINE
  5
21A6B
  8
0
  6
CONTINUOUS
 10
1.420999999998571
 20
2.678240161988697
 30
0.0
 11
-0.0000000000000001
 21
4.099240161987269
 31
0.0
  0
LINE
  5
21A6C
  8
0
  6
CONTINUOUS
 10
1.420999999998572
 20
3.351759371068884
 30
0.0
 11
0.0
 21
4.772759371067455
 31
0.0
  0
LINE
  5
21A6D
  8
0
  6
CONTINUOUS
 10
1.420999999998571
 20
4.02527858014907
 30
0.0
 11
-0.0000000000000003
 21
5.446278580147642
 31
0.0
  0
LINE
  5
21A6E
  8
0
  6
CONTINUOUS
 10
1.420999999998571
 20
4.698797789229257
 30
0.0
 11
0.0
 21
6.119797789227828
 31
0.0
  0
LINE
  5
21A6F
  8
0
  6
CONTINUOUS
 10
1.420999999998571
 20
5.372316998309444
 30
0.0
 11
-0.0000000000000001
 21
6.793316998308015
 31
0.0
  0
LINE
  5
21A70
  8
0
  6
CONTINUOUS
 10
1.420999999998572
 20
6.045836207389629
 30
0.0
 11
-0.0000000000000004
 21
7.466836207388202
 31
0.0
  0
LINE
  5
21A71
  8
0
  6
CONTINUOUS
 10
1.420999999998571
 20
6.719355416469816
 30
0.0
 11
0.0
 21
8.140355416468388
 31
0.0
  0
LINE
  5
21A72
  8
0
  6
CONTINUOUS
 10
1.420999999998571
 20
7.392874625550003
 30
0.0
 11
0.0507746255573185
 21
8.763099999991255
 31
0.0
  0
LINE
  5
21A73
  8
0
  6
CONTINUOUS
 10
1.420999999998571
 20
8.06639383463019
 30
0.0
 11
0.7242938346375052
 21
8.763099999991255
 31
0.0
  0
LINE
  5
21A74
  8
0
  6
CONTINUOUS
 10
1.420999999998571
 20
8.739913043710375
 30
0.0
 11
1.397813043717691
 21
8.763099999991255
 31
0.0
  0
ENDBLK
  5
21A80
  8
0
  0
ENDSEC
  0
SECTION
  2
ENTITIES
  0
LINE
  5
1D8CA
  8
01
 10
803.016241615365
 20
-650.6713303512659
 30
0.0
 11
803.016241615365
 21
-672.8213303512673
 31
0.0
  0
LINE
  5
1D90A
  8
01
 10
803.016241615365
 20
-653.1713303512665
 30
0.0
 11
803.016241615365
 21
-670.8213303512659
 31
0.0
  0
LINE
  5
1DBA4
  8
01
 10
815.516241615365
 20
-618.5931567659845
 30
0.0
 11
815.516241615365
 21
-693.0495039365483
 31
0.0
  0
LINE
  5
1DBA5
  8
01
 10
824.516241615365
 20
-618.5931567659845
 30
0.0
 11
824.516241615365
 21
-693.0495039365483
 31
0.0
  0
LINE
  5
1DBA6
  8
01
 10
803.016241615365
 20
-618.5931567659845
 30
0.0
 11
803.016241615365
 21
-693.0495039365483
 31
0.0
  0
TEXT
  5
1F822
  8
1TEXT
 10
713.4369335464958
 20
-609.0240344234479
 30
0.0
 40
4.0
  1
表面処理
 72
     1
 11
722.7036002131624
 21
-609.0240344234479
 31
0.0
  0
LINE
  5
1F823
  8
1DIM
 10
705.3036002131623
 20
-603.5240344234479
 30
0.0
 11
775.3036002131623
 21
-603.5240344234479
 31
0.0
  0
LINE
  5
1F824
  8
1DIM
 10
705.3036002131623
 20
-617.5240344234479
 30
0.0
 11
775.3036002131623
 21
-617.5240344234479
 31
0.0
  0
LINE
  5
1F825
  8
1DIM
 10
705.3036002131623
 20
-610.5240344234479
 30
0.0
 11
775.3036002131623
 21
-610.5240344234479
 31
0.0
  0
LINE
  5
1F826
  8
1DIM
 10
740.3036002131623
 20
-603.5240344234479
 30
0.0
 11
740.3036002131619
 21
-617.5240344234479
 31
0.0
  0
TEXT
  5
1F827
  8
1TEXT
 10
750.8369335464957
 20
-609.0240344234479
 30
0.0
 40
4.0
  1
コード
 72
     1
 11
757.7036002131624
 21
-609.0240344234479
 31
0.0
  0
LINE
  5
1F829
  8
1DIM
 10
775.3036002131621
 20
-617.5240344234479
 30
0.0
 11
775.3036002131623
 21
-603.5240344234479
 31
0.0
  0
TEXT
  5
1F82A
  8
1TEXT
 10
705.3036002131623
 20
-598.5240344234479
 30
0.0
 40
8.0
  1
SE-414-X
  0
TEXT
  5
1F82B
  8
1TEXT
 10
718.370266879829
 20
-615.8593230829722
 30
0.0
 40
4.0
  1
鏡面
 72
     1
 11
722.7036002131624
 21
-615.8593230829722
 31
0.0
  0
TEXT
  5
1F82C
  8
1TEXT
 10
743.536933546496
 20
-616.2383914070972
 30
0.0
 40
4.0
  1
SE-414-XP
 41
0.85
 72
     1
 11
757.7036002131626
 21
-616.2383914070972
 31
0.0
  0
LINE
  5
20441
  8
1DIM
 10
705.3036002131623
 20
-617.5240344234479
 30
0.0
 11
705.3036002131623
 21
-603.5240344234479
 31
0.0
  0
LINE
  5
207A5
  8
01
  6
CONTINUOUS
 10
378.0162416153653
 20
-645.3213303512663
 30
0.0
 11
378.0162416153653
 21
-666.3213303512663
 31
0.0
  0
LINE
  5
207A6
  8
01
  6
CONTINUOUS
 10
643.0162416153653
 20
-666.3213303512663
 30
0.0
 11
643.0162416153653
 21
-645.3213303512663
 31
0.0
  0
LINE
  5
207A9
  8
1CENTER
 10
397.1412022763775
 20
-655.8212907585076
 30
0.0
 11
403.8912022763775
 21
-655.8212907585076
 31
0.0
  0
LINE
  5
207AA
  8
1CENTER
 10
400.5162022763775
 20
-659.1962907585076
 30
0.0
 11
400.5162022763775
 21
-652.4462907585076
 31
0.0
  0
LINE
  5
207AB
  8
1CENTER
 10
617.1411629373893
 20
-655.821251165749
 30
0.0
 11
623.8911629373893
 21
-655.821251165749
 31
0.0
  0
LINE
  5
207AC
  8
1CENTER
 10
620.5161629373893
 20
-659.196251165749
 30
0.0
 11
620.5161629373893
 21
-652.446251165749
 31
0.0
  0
LINE
  5
207E7
  8
01
  6
CONTINUOUS
 10
633.0162416153657
 20
-516.0713303512664
 30
-0.0000000000000195
 11
388.0162416153653
 21
-516.0713303512664
 31
-0.0000000000000195
  0
LINE
  5
207E8
  8
01
  6
CONTINUOUS
 10
388.0162416153653
 20
-519.5713303512664
 30
-0.0000000000000195
 11
633.0162416153657
 21
-519.5713303512664
 31
-0.0000000000000195
  0
LINE
  5
207E9
  8
01
  6
CONTINUOUS
 10
633.0162416153657
 20
-528.0713303512664
 30
-0.0000000000000195
 11
388.0162416153653
 21
-528.0713303512664
 31
-0.0000000000000195
  0
LINE
  5
207EA
  8
01
  6
CONTINUOUS
 10
388.0162416153653
 20
-531.5713303512664
 30
-0.0000000000000195
 11
633.0162416153657
 21
-531.5713303512664
 31
-0.0000000000000195
  0
LINE
  5
207EB
  8
01
  6
CONTINUOUS
 10
633.0162416153657
 20
-540.0713303512664
 30
-0.0000000000000195
 11
388.0162416153653
 21
-540.0713303512664
 31
-0.0000000000000195
  0
LINE
  5
207EC
  8
01
  6
CONTINUOUS
 10
388.0162416153653
 20
-543.5713303512664
 30
-0.0000000000000195
 11
633.0162416153657
 21
-543.5713303512664
 31
-0.0000000000000195
  0
LINE
  5
207ED
  8
01
  6
CONTINUOUS
 10
633.0162416153657
 20
-588.0713303512664
 30
-0.0000000000000195
 11
388.0162416153653
 21
-588.0713303512664
 31
-0.0000000000000195
  0
LINE
  5
207EE
  8
01
  6
CONTINUOUS
 10
388.0162416153653
 20
-591.5713303512664
 30
-0.0000000000000195
 11
633.0162416153657
 21
-591.5713303512664
 31
-0.0000000000000195
  0
LINE
  5
207EF
  8
01
  6
CONTINUOUS
 10
633.0162416153657
 20
-576.0713303512664
 30
-0.0000000000000195
 11
388.0162416153653
 21
-576.0713303512664
 31
-0.0000000000000195
  0
LINE
  5
207F0
  8
01
  6
CONTINUOUS
 10
388.0162416153653
 20
-579.5713303512664
 30
-0.0000000000000195
 11
633.0162416153657
 21
-579.5713303512664
 31
-0.0000000000000195
  0
LINE
  5
207F1
  8
01
  6
CONTINUOUS
 10
633.0162416153657
 20
-564.0713303512664
 30
-0.0000000000000195
 11
388.0162416153653
 21
-564.0713303512664
 31
-0.0000000000000195
  0
LINE
  5
207F2
  8
01
  6
CONTINUOUS
 10
388.0162416153653
 20
-567.5713303512664
 30
-0.0000000000000195
 11
633.0162416153657
 21
-567.5713303512664
 31
-0.0000000000000195
  0
LINE
  5
207F3
  8
01
  6
CONTINUOUS
 10
633.0162416153657
 20
-552.0713303512664
 30
-0.0000000000000195
 11
388.0162416153653
 21
-552.0713303512664
 31
-0.0000000000000195
  0
LINE
  5
207F4
  8
01
  6
CONTINUOUS
 10
388.0162416153653
 20
-555.5713303512664
 30
-0.0000000000000195
 11
633.0162416153657
 21
-555.5713303512664
 31
-0.0000000000000195
  0
ARC
  5
207F5
  8
01
  6
CONTINUOUS
 10
641.8162416153655
 20
-602.6213303512664
 30
-0.0000000000000195
 40
1.200000000000045
 50
270.0
 51
0.0
  0
LINE
  5
207F6
  8
01
  6
CONTINUOUS
 10
378.0162416153653
 20
-602.6213303512664
 30
-0.0000000000000195
 11
378.0162416153653
 21
-509.8213303512664
 31
-0.0000000000000195
  0
ARC
  5
207F7
  8
01
  6
CONTINUOUS
 10
379.2162416153656
 20
-602.6213303512664
 30
-0.0000000000000195
 40
1.200000000000017
 50
180.0
 51
270.0
  0
LINE
  5
207F8
  8
01
  6
CONTINUOUS
 10
388.0162416153653
 20
-509.8213303512664
 30
-0.0000000000000195
 11
388.0162416153653
 21
-593.8213303512664
 31
-0.0000000000000195
  0
LINE
  5
207F9
  8
01
  6
CONTINUOUS
 10
386.8162416153655
 20
-509.8213303512664
 30
-0.0000000000000195
 11
388.0162416153653
 21
-509.8213303512664
 31
-0.0000000000000195
  0
LINE
  5
207FA
  8
01
  6
CONTINUOUS
 10
641.8162416153655
 20
-603.8213303512664
 30
-0.0000000000000195
 11
379.2162416153656
 21
-603.8213303512664
 31
-0.0000000000000195
  0
LINE
  5
207FB
  8
01
  6
CONTINUOUS
 10
388.0162416153653
 20
-593.8213303512664
 30
-0.0000000000000195
 11
633.0162416153657
 21
-593.8213303512664
 31
-0.0000000000000195
  0
LINE
  5
207FC
  8
01
  6
CONTINUOUS
 10
641.8162416153655
 20
-509.8213303512664
 30
-0.0000000000000195
 11
634.2162416153656
 21
-509.8213303512664
 31
-0.0000000000000195
  0
LINE
  5
207FD
  8
01
  6
CONTINUOUS
 10
386.8162416153655
 20
-509.8213303512664
 30
-0.0000000000000195
 11
378.0162416153653
 21
-509.8213303512664
 31
-0.0000000000000195
  0
LINE
  5
207FE
  8
01
  6
CONTINUOUS
 10
633.0162416153657
 20
-593.8213303512664
 30
-0.0000000000000195
 11
633.0162416153657
 21
-509.8213303512664
 31
-0.0000000000000195
  0
LINE
  5
207FF
  8
01
  6
CONTINUOUS
 10
633.0162416153657
 20
-509.8213303512664
 30
-0.0000000000000195
 11
634.2162416153656
 21
-509.8213303512664
 31
-0.0000000000000195
  0
LINE
  5
20800
  8
01
  6
CONTINUOUS
 10
643.0162416153657
 20
-509.8213303512664
 30
-0.0000000000000195
 11
643.0162416153657
 21
-602.6213303512664
 31
-0.0000000000000195
  0
LINE
  5
20801
  8
01
  6
CONTINUOUS
 10
641.8162416153655
 20
-509.8213303512664
 30
-0.0000000000000195
 11
643.0162416153657
 21
-509.8213303512664
 31
-0.0000000000000195
  0
LINE
  5
20802
  8
01
  6
CONTINUOUS
 10
381.2662416153648
 20
-665.8213303512665
 30
0.0
 11
381.2662416153648
 21
-672.8213303512665
 31
0.0
  0
LINE
  5
20803
  8
01
  6
CONTINUOUS
 10
384.7662416153648
 20
-672.8213303512665
 30
0.0
 11
384.7662416153648
 21
-665.8213303512665
 31
0.0
  0
LINE
  5
20804
  8
01
  6
CONTINUOUS
 10
630.0162416153648
 20
-679.0713303512665
 30
0.0
 11
391.0162416153648
 21
-679.0713303512665
 31
0.0
  0
LINE
  5
20805
  8
01
  6
CONTINUOUS
 10
391.0162416153648
 20
-682.5713303512665
 30
0.0
 11
630.0162416153648
 21
-682.5713303512665
 31
0.0
  0
ARC
  5
20806
  8
01
  6
CONTINUOUS
 10
630.0162416153648
 20
-672.8213303512665
 30
0.0
 40
6.25
 50
270.0000000000041
 51
0.0
  0
ARC
  5
20807
  8
01
  6
CONTINUOUS
 10
630.0162416153648
 20
-672.8213303512665
 30
0.0
 40
9.750000000000057
 50
270.0000000000026
 51
0.0
  0
ARC
  5
20808
  8
01
  6
CONTINUOUS
 10
391.0162416153648
 20
-672.8213303512665
 30
0.0
 40
6.25
 50
180.0
 51
270.0000000000041
  0
ARC
  5
20809
  8
01
  6
CONTINUOUS
 10
391.0162416153648
 20
-672.8213303512665
 30
0.0
 40
9.75
 50
180.0
 51
270.0000000000013
  0
LINE
  5
2080A
  8
01
  6
CONTINUOUS
 10
636.2662416153648
 20
-665.8213303512665
 30
0.0
 11
636.2662416153648
 21
-672.8213303512665
 31
0.0
  0
LINE
  5
2080B
  8
01
  6
CONTINUOUS
 10
639.7662416153653
 20
-672.8213303512665
 30
0.0
 11
639.7662416153653
 21
-665.8213303512665
 31
0.0
  0
LINE
  5
2080C
  8
01
  6
CONTINUOUS
 10
641.816241615365
 20
-665.8213303512665
 30
0.0
 11
379.2162416153651
 21
-665.8213303512665
 31
0.0
  0
LINE
  5
2080D
  8
01
  6
CONTINUOUS
 10
378.0162416153648
 20
-664.6213303512665
 30
0.0
 11
378.0162416153648
 21
-647.0213303512663
 31
0.0
  0
ARC
  5
2080E
  8
01
  6
CONTINUOUS
 10
379.2162416153651
 20
-664.6213303512665
 30
0.0
 40
1.20000000000001
 50
180.0
 51
270.0
  0
LINE
  5
2080F
  8
01
  6
CONTINUOUS
 10
379.2162416153651
 20
-645.8213303512665
 30
0.0
 11
641.816241615365
 21
-645.8213303512665
 31
0.0
  0
ARC
  5
20810
  8
01
  6
CONTINUOUS
 10
379.2162416153651
 20
-647.0213303512663
 30
0.0
 40
1.200000000000017
 50
90.0
 51
180.0
  0
ARC
  5
20811
  8
01
  6
CONTINUOUS
 10
641.816241615365
 20
-647.0213303512663
 30
0.0
 40
1.200000000000045
 50
0.0
 51
90.0
  0
ARC
  5
20812
  8
01
  6
CONTINUOUS
 10
641.816241615365
 20
-664.6213303512665
 30
0.0
 40
1.200000000000045
 50
270.0
 51
0.0
  0
LINE
  5
20813
  8
01
  6
CONTINUOUS
 10
643.0162416153653
 20
-647.0213303512663
 30
0.0
 11
643.0162416153653
 21
-664.6213303512665
 31
0.0
  0
LINE
  5
20814
  8
01
  6
CONTINUOUS
 10
792.766241615365
 20
-680.8221361270973
 30
0.0
 11
792.766241615365
 21
-665.8221361270973
 31
0.0
  0
LINE
  5
20815
  8
01
  6
CONTINUOUS
 10
789.266241615365
 20
-665.8221361270973
 30
0.0
 11
789.266241615365
 21
-680.8221361270973
 31
0.0
  0
LINE
  5
20816
  8
01
  6
CONTINUOUS
 10
780.766241615365
 20
-680.8221361270973
 30
0.0
 11
780.766241615365
 21
-665.8221361270973
 31
0.0
  0
LINE
  5
20817
  8
01
  6
CONTINUOUS
 10
777.266241615365
 20
-665.8221361270973
 30
0.0
 11
777.266241615365
 21
-680.8221361270973
 31
0.0
  0
LINE
  5
20818
  8
01
  6
CONTINUOUS
 10
768.766241615365
 20
-680.8221361270973
 30
0.0
 11
768.766241615365
 21
-665.8221361270973
 31
0.0
  0
LINE
  5
20819
  8
01
  6
CONTINUOUS
 10
765.266241615365
 20
-665.8221361270973
 30
0.0
 11
765.266241615365
 21
-680.8221361270973
 31
0.0
  0
LINE
  5
2081A
  8
01
  6
CONTINUOUS
 10
720.766241615365
 20
-680.8221361270973
 30
0.0
 11
720.766241615365
 21
-665.8221361270973
 31
0.0
  0
LINE
  5
2081B
  8
01
  6
CONTINUOUS
 10
717.266241615365
 20
-665.8221361270973
 30
0.0
 11
717.266241615365
 21
-680.8221361270973
 31
0.0
  0
LINE
  5
2081C
  8
01
  6
CONTINUOUS
 10
732.766241615365
 20
-680.8221361270973
 30
0.0
 11
732.766241615365
 21
-665.8221361270973
 31
0.0
  0
LINE
  5
2081D
  8
01
  6
CONTINUOUS
 10
729.266241615365
 20
-665.8221361270973
 30
0.0
 11
729.266241615365
 21
-680.8221361270973
 31
0.0
  0
LINE
  5
2081E
  8
01
  6
CONTINUOUS
 10
744.766241615365
 20
-680.8221361270973
 30
0.0
 11
744.766241615365
 21
-665.8221361270973
 31
0.0
  0
LINE
  5
2081F
  8
01
  6
CONTINUOUS
 10
741.266241615365
 20
-665.8221361270973
 30
0.0
 11
741.266241615365
 21
-680.8221361270973
 31
0.0
  0
LINE
  5
20820
  8
01
  6
CONTINUOUS
 10
756.766241615365
 20
-680.8221361270973
 30
0.0
 11
756.766241615365
 21
-665.8221361270973
 31
0.0
  0
LINE
  5
20821
  8
01
  6
CONTINUOUS
 10
753.266241615365
 20
-665.8221361270973
 30
0.0
 11
753.266241615365
 21
-680.8221361270973
 31
0.0
  0
ARC
  5
20822
  8
01
  6
CONTINUOUS
 10
791.016241615365
 20
-680.8221361270973
 30
0.0
 40
1.75
 50
180.0
 51
0.0
  0
ARC
  5
20823
  8
01
  6
CONTINUOUS
 10
779.016241615365
 20
-680.8221361270973
 30
0.0
 40
1.750000000000028
 50
180.0
 51
0.0
  0
ARC
  5
20824
  8
01
  6
CONTINUOUS
 10
767.016241615365
 20
-680.8221361270973
 30
0.0
 40
1.75
 50
180.0
 51
0.0
  0
ARC
  5
20825
  8
01
  6
CONTINUOUS
 10
719.016241615365
 20
-680.8221361270973
 30
0.0
 40
1.750000000000028
 50
180.0
 51
0.0
  0
ARC
  5
20826
  8
01
  6
CONTINUOUS
 10
731.016241615365
 20
-680.8221361270973
 30
0.0
 40
1.75
 50
180.0
 51
0.0
  0
ARC
  5
20827
  8
01
  6
CONTINUOUS
 10
743.016241615365
 20
-680.8221361270973
 30
0.0
 40
1.75
 50
180.0
 51
0.0
  0
ARC
  5
20828
  8
01
  6
CONTINUOUS
 10
755.016241615365
 20
-680.8221361270973
 30
0.0
 40
1.75
 50
180.0
 51
0.0
  0
LINE
  5
20829
  8
01
  6
CONTINUOUS
 10
799.016241615365
 20
-665.8221361270973
 30
0.0
 11
706.216241615365
 21
-665.8221361270973
 31
0.0
  0
LINE
  5
2082A
  8
01
  6
CONTINUOUS
 10
799.016241615365
 20
-664.6221361270975
 30
0.0
 11
799.016241615365
 21
-665.8221361270973
 31
0.0
  0
LINE
  5
20830
  8
01
  6
CONTINUOUS
 10
799.016241615365
 20
-647.0221361270972
 30
0.0
 11
799.016241615365
 21
-653.1221361270975
 31
0.0
  0
LINE
  5
20831
  8
01
  6
CONTINUOUS
 10
799.016241615365
 20
-658.5221361270972
 30
0.0
 11
799.016241615365
 21
-664.6221361270975
 31
0.0
  0
LINE
  5
20832
  8
01
  6
CONTINUOUS
 10
705.016241615365
 20
-664.6221361270975
 30
0.0
 11
705.016241615365
 21
-647.0221361270972
 31
0.0
  0
ARC
  5
20833
  8
01
  6
CONTINUOUS
 10
706.216241615365
 20
-664.6221361270975
 30
0.0
 40
1.200000000000017
 50
180.0
 51
270.0
  0
LINE
  5
20834
  8
01
  6
CONTINUOUS
 10
706.216241615365
 20
-645.8221361270973
 30
0.0
 11
799.016241615365
 21
-645.8221361270973
 31
0.0
  0
LINE
  5
20835
  8
01
  6
CONTINUOUS
 10
799.016241615365
 20
-645.8221361270973
 30
0.0
 11
799.016241615365
 21
-647.0221361270972
 31
0.0
  0
ARC
  5
20836
  8
01
  6
CONTINUOUS
 10
706.216241615365
 20
-647.0221361270972
 30
0.0
 40
1.200000000000045
 50
90.0
 51
180.0
  0
LINE
  5
20837
  8
01
  6
CONTINUOUS
 10
799.016241615365
 20
-653.122136127098
 30
0.0
 11
799.016241615365
 21
-658.5221361270981
 31
0.0
  0
LINE
  5
20844
  8
01
  6
CONTINUOUS
 10
378.0162416153653
 20
-505.8213303512664
 30
0.0
 11
378.0162416153653
 21
-509.3213303512664
 31
0.0
  0
LINE
  5
20845
  8
01
  6
CONTINUOUS
 10
379.2162416153656
 20
-505.8213303512664
 30
0.0
 11
378.0162416153653
 21
-505.8213303512664
 31
0.0
  0
LINE
  5
20846
  8
01
  6
CONTINUOUS
 10
641.8162416153655
 20
-505.8213303512664
 30
0.0
 11
379.2162416153656
 21
-505.8213303512664
 31
0.0
  0
LINE
  5
20847
  8
01
  6
CONTINUOUS
 10
642.5162416153657
 20
-509.8213303512664
 30
0.0
 11
378.2662809543542
 21
-509.8213303512664
 31
0.0
  0
LINE
  5
20848
  8
01
  6
CONTINUOUS
 10
643.0162416153657
 20
-509.3213303512664
 30
0.0
 11
643.0162416153657
 21
-505.8213303512664
 31
0.0
  0
LINE
  5
20849
  8
01
  6
CONTINUOUS
 10
643.0162416153657
 20
-505.8213303512664
 30
0.0
 11
641.8162416153655
 21
-505.8213303512664
 31
0.0
  0
ARC
  5
2084A
  8
01
  6
CONTINUOUS
 10
642.5162416153657
 20
-509.3213303512664
 30
0.0
 40
0.5
 50
270.0
 51
0.0
  0
ARC
  5
2084B
  8
01
  6
CONTINUOUS
 10
378.5162416153653
 20
-509.3213303512664
 30
0.0
 40
0.5
 50
180.0
 51
270.0
  0
LINE
  5
2084C
  8
1CENTER
 10
510.5162416153657
 20
-513.4705902549592
 30
0.0
 11
510.5162416153657
 21
-502.0500747810236
 31
0.0
  0
LINE
  5
2084E
  8
1PHANTOM
 10
642.5662022763777
 20
-509.8213303512664
 30
0.0
 11
642.5662022763777
 21
-529.8213303512664
 31
0.0
  0
LINE
  5
2084F
  8
01
 10
641.5662022763777
 20
-509.8213303512664
 30
0.0
 11
642.5662022763777
 21
-509.8213303512664
 31
0.0
  0
LINE
  5
20850
  8
01
 10
799.016241615365
 20
-653.822136127098
 30
0.0
 11
799.016241615365
 21
-657.822136127098
 31
0.0
  0
LINE
  5
20851
  8
01
 10
798.016241615365
 20
-658.822136127098
 30
0.0
 11
780.016241615365
 21
-658.822136127098
 31
0.0
  0
LINE
  5
20852
  8
01
 10
779.016241615365
 20
-653.822136127098
 30
0.0
 11
779.016241615365
 21
-657.822136127098
 31
0.0
  0
ARC
  5
20853
  8
01
 10
780.016241615365
 20
-657.822136127098
 30
0.0
 40
1.0
 50
180.0
 51
270.0
  0
LINE
  5
20854
  8
01
 10
798.016241615365
 20
-652.822136127098
 30
0.0
 11
780.016241615365
 21
-652.822136127098
 31
0.0
  0
ARC
  5
20855
  8
01
 10
780.016241615365
 20
-653.822136127098
 30
0.0
 40
1.0
 50
90.0
 51
180.0
  0
ARC
  5
20856
  8
01
 10
798.016241615365
 20
-657.822136127098
 30
0.0
 40
1.0
 50
270.0
 51
0.0
  0
ARC
  5
20857
  8
01
 10
798.016241615365
 20
-653.822136127098
 30
0.0
 40
1.0
 50
0.0
 51
90.0
  0
LINE
  5
20858
  8
1PHANTOM
 10
641.5662022763777
 20
-529.8213303512664
 30
0.0
 11
642.5662022763777
 21
-529.8213303512664
 31
0.0
  0
LINE
  5
2085D
  8
01
  6
CONTINUOUS
 10
799.016241615365
 20
-647.7721361270981
 30
0.0
 11
799.016241615365
 21
-653.122136127098
 31
0.0
  0
LINE
  5
2085F
  8
01
  6
CONTINUOUS
 10
799.016241615365
 20
-658.5221361270981
 30
0.0
 11
799.016241615365
 21
-663.872136127098
 31
0.0
  0
LINE
  5
20861
  8
1PHANTOM
 10
799.016241615365
 20
-647.2721361270981
 30
0.0
 11
770.7233483965516
 21
-647.2721361270981
 31
0.0
  0
LINE
  5
20863
  8
01
  6
CONTINUOUS
 10
799.016241615365
 20
-647.7721361270981
 30
0.0
 11
799.016241615365
 21
-647.2721361270981
 31
0.0
  0
LINE
  5
20864
  8
1PHANTOM
 10
770.7233483965516
 20
-647.2721361270981
 30
0.0
 11
769.5162416153654
 21
-647.2721361270981
 31
0.0
  0
ARC
  5
20865
  8
1PHANTOM
 10
769.5162416153654
 20
-647.7721361270981
 30
0.0
 40
0.4999999999999998
 50
90.0
 51
180.0
  0
LINE
  5
20866
  8
1PHANTOM
 10
769.0162416153654
 20
-647.7721361270981
 30
0.0
 11
769.0162416153654
 21
-663.872136127098
 31
0.0
  0
ARC
  5
20867
  8
1PHANTOM
 10
769.5162416153654
 20
-663.872136127098
 30
0.0
 40
0.4999999999999998
 50
180.0
 51
270.0
  0
LINE
  5
20868
  8
1PHANTOM
 10
769.5162416153654
 20
-664.372136127098
 30
0.0
 11
770.7233483965516
 21
-664.372136127098
 31
0.0
  0
LINE
  5
2086A
  8
1PHANTOM
 10
770.7233483965516
 20
-664.372136127098
 30
0.0
 11
799.016241615365
 21
-664.372136127098
 31
0.0
  0
LINE
  5
2086B
  8
01
  6
CONTINUOUS
 10
799.016241615365
 20
-664.372136127098
 30
0.0
 11
799.016241615365
 21
-663.872136127098
 31
0.0
  0
LINE
  5
2086C
  8
01
  6
CONTINUOUS
 10
799.016241615365
 20
-653.122136127098
 30
0.0
 11
799.016241615365
 21
-658.5221361270981
 31
0.0
  0
LINE
  5
2086D
  8
1PHANTOM
 10
634.4662022763775
 20
-509.8213303512664
 30
0.0
 11
634.4662022763775
 21
-538.3213303512664
 31
0.0
  0
LINE
  5
2086E
  8
01
  6
CONTINUOUS
 10
635.1217221247609
 20
-509.8213303512664
 30
0.0
 11
634.6217221247609
 21
-509.8213303512664
 31
0.0
  0
LINE
  5
2086F
  8
1PHANTOM
 10
634.4662022763775
 20
-538.3213303512664
 30
0.0
 11
635.9662022763775
 21
-539.8213303512664
 31
0.0
  0
LINE
  5
20870
  8
01
  6
CONTINUOUS
 10
635.1217221247609
 20
-509.8213303512664
 30
0.0
 11
641.2217221247611
 21
-509.8213303512664
 31
0.0
  0
LINE
  5
20871
  8
1PHANTOM
 10
635.9662022763775
 20
-539.8213303512664
 30
0.0
 11
640.0662022763777
 21
-539.8213303512664
 31
0.0
  0
LINE
  5
20872
  8
1PHANTOM
 10
640.0662022763777
 20
-539.8213303512664
 30
0.0
 11
641.5662022763777
 21
-538.3213303512664
 31
0.0
  0
LINE
  5
20873
  8
1PHANTOM
 10
641.5662022763777
 20
-538.3213303512664
 30
0.0
 11
641.5662022763777
 21
-529.8213303512664
 31
0.0
  0
LINE
  5
20874
  8
01
  6
CONTINUOUS
 10
641.7217221247611
 20
-509.8213303512664
 30
0.0
 11
641.2217221247611
 21
-509.8213303512664
 31
0.0
  0
LINE
  5
20875
  8
1CENTER
 10
799.7978543630494
 20
-655.822136127098
 30
0.0
 11
767.1772948831132
 21
-655.822136127098
 31
0.0
  0
LINE
  5
208A8
  8
1PHANTOM
 10
379.4662022763778
 20
-529.8213303512664
 30
0.0
 11
379.4662022763778
 21
-538.3213303512664
 31
0.0
  0
LINE
  5
208A9
  8
1PHANTOM
 10
379.4662022763778
 20
-538.3213303512664
 30
0.0
 11
380.9662022763778
 21
-539.8213303512664
 31
0.0
  0
LINE
  5
208AA
  8
1PHANTOM
 10
380.9662022763778
 20
-539.8213303512664
 30
0.0
 11
385.0662022763777
 21
-539.8213303512664
 31
0.0
  0
LINE
  5
208AB
  8
1PHANTOM
 10
385.0662022763777
 20
-539.8213303512664
 30
0.0
 11
386.5662022763777
 21
-538.3213303512664
 31
0.0
  0
LINE
  5
208AC
  8
1PHANTOM
 10
386.5662022763777
 20
-538.3213303512664
 30
0.0
 11
386.5662022763777
 21
-509.8213303512664
 31
0.0
  0
LINE
  5
208D2
  8
01
  6
CONTINUOUS
 10
799.016241615365
 20
-667.8213303512664
 30
0.0
 11
799.016241615365
 21
-647.0213303512664
 31
0.0
  0
LINE
  5
208D3
  8
01
  6
CONTINUOUS
 10
803.016241615365
 20
-668.3213303512664
 30
0.0
 11
803.016241615365
 21
-643.3213303512664
 31
0.0
  0
LINE
  5
208D4
  8
01
  6
CONTINUOUS
 10
799.016241615365
 20
-653.0713303512664
 30
0.0
 11
799.016241615365
 21
-648.5729419029296
 31
0.0
  0
LINE
  5
208D5
  8
01
  6
CONTINUOUS
 10
799.016241615365
 20
-653.0713303512664
 30
0.0
 11
799.016241615365
 21
-643.8213303512664
 31
0.0
  0
ARC
  5
208D6
  8
01
  6
CONTINUOUS
 10
799.516241615365
 20
-643.8213303512664
 30
0.0
 40
0.5
 50
90.0
 51
180.0
  0
ARC
  5
208D7
  8
01
  6
CONTINUOUS
 10
799.516241615365
 20
-667.8213303512664
 30
0.0
 40
0.5
 50
180.0
 51
270.0
  0
LINE
  5
208D8
  8
01
  6
CONTINUOUS
 10
799.016241615365
 20
-663.8721361270981
 30
0.0
 11
799.016241615365
 21
-658.5221361270981
 31
0.0
  0
LINE
  5
208D9
  8
01
  6
CONTINUOUS
 10
799.016241615365
 20
-647.7721361270981
 30
0.0
 11
799.016241615365
 21
-653.1221361270981
 31
0.0
  0
LINE
  5
208DA
  8
01
  6
CONTINUOUS
 10
787.516241615365
 20
-664.3721361270981
 30
0.0
 11
782.516241615365
 21
-664.3721361270981
 31
0.0
  0
LINE
  5
208DB
  8
1PHANTOM
 10
769.516241615365
 20
-664.3721361270981
 30
0.0
 11
770.7233483965516
 21
-664.3721361270981
 31
0.0
  0
LINE
  5
208DC
  8
01
  6
CONTINUOUS
 10
799.016241615365
 20
-664.3721361270981
 30
0.0
 11
799.016241615365
 21
-663.8721361270981
 31
0.0
  0
LINE
  5
208DD
  8
01
  6
CONTINUOUS
 10
799.016241615365
 20
-653.1221361270981
 30
0.0
 11
799.016241615365
 21
-658.5221361270981
 31
0.0
  0
LINE
  5
208DE
  8
01
  6
CONTINUOUS
 10
799.016241615365
 20
-647.2721361270981
 30
0.0
 11
799.016241615365
 21
-647.7721361270981
 31
0.0
  0
LINE
  5
208DF
  8
01
  6
CONTINUOUS
 10
799.016241615365
 20
-658.5723460161779
 30
0.0
 11
799.016241615365
 21
-663.0719262380182
 31
0.0
  0
LINE
  5
208E0
  8
01
  6
CONTINUOUS
 10
799.016241615365
 20
-648.5723460161779
 30
0.0
 11
799.016241615365
 21
-653.0719262380182
 31
0.0
  0
LINE
  5
208E1
  8
01
  6
CONTINUOUS
 10
799.016241615365
 20
-663.8721361270981
 30
0.0
 11
799.016241615365
 21
-664.3721361270981
 31
0.0
  0
LINE
  5
208E2
  8
1PHANTOM
 10
769.516241615365
 20
-647.2721361270981
 30
0.0
 11
770.7233483965516
 21
-647.2721361270981
 31
0.0
  0
ARC
  5
208E3
  8
1PHANTOM
 10
769.516241615365
 20
-663.8721361270981
 30
0.0
 40
0.5
 50
180.0
 51
270.0
  0
ARC
  5
208E4
  8
1PHANTOM
 10
769.516241615365
 20
-647.7721361270981
 30
0.0
 40
0.5
 50
90.0
 51
180.0
  0
LINE
  5
208E5
  8
01
  6
CONTINUOUS
 10
799.016241615365
 20
-647.7721361270981
 30
0.0
 11
799.016241615365
 21
-647.2721361270981
 31
0.0
  0
LINE
  5
208E6
  8
1PHANTOM
 10
769.016241615365
 20
-663.8721361270981
 30
0.0
 11
769.016241615365
 21
-647.7721361270981
 31
0.0
  0
LINE
  5
208F8
  8
1PHANTOM
 10
379.4662809543543
 20
-529.8213303512664
 30
0.0
 11
378.2662809543542
 21
-529.8213303512664
 31
0.0
  0
LINE
  5
208FB
  8
01
  6
CONTINUOUS
 10
803.016241615365
 20
-643.3213303512664
 30
0.0
 11
799.516241615365
 21
-643.3213303512664
 31
0.0
  0
LINE
  5
208FC
  8
01
  6
CONTINUOUS
 10
799.516241615365
 20
-668.3213303512664
 30
0.0
 11
803.016241615365
 21
-668.3213303512664
 31
0.0
  0
LINE
  5
208FD
  8
01
  6
CONTINUOUS
 10
641.0162416153653
 20
-643.3213303512663
 30
0.0
 11
380.0162416153653
 21
-643.3213303512663
 31
0.0
  0
LINE
  5
208FE
  8
01
  6
CONTINUOUS
 10
380.0162416153653
 20
-668.3213303512663
 30
0.0
 11
381.2662416153648
 21
-668.3213303512663
 31
0.0
  0
ARC
  5
208FF
  8
01
  6
CONTINUOUS
 10
641.0162416153653
 20
-645.3213303512663
 30
0.0
 40
2.0
 50
0.0
 51
90.0
  0
ARC
  5
20900
  8
01
  6
CONTINUOUS
 10
641.0162416153653
 20
-666.3213303512663
 30
0.0
 40
2.0
 50
270.0
 51
0.0
  0
ARC
  5
20901
  8
01
  6
CONTINUOUS
 10
380.0162416153653
 20
-645.3213303512663
 30
0.0
 40
2.0
 50
90.0
 51
180.0
  0
ARC
  5
20902
  8
01
  6
CONTINUOUS
 10
380.0162416153653
 20
-666.3213303512663
 30
0.0
 40
2.0
 50
180.0
 51
270.0
  0
LINE
  5
20908
  8
1CENTER
 10
507.141202276378
 20
-655.8212907585078
 30
0.0
 11
513.891202276378
 21
-655.8212907585078
 31
0.0
  0
LINE
  5
20909
  8
1CENTER
 10
510.516202276378
 20
-659.1962907585078
 30
0.0
 11
510.516202276378
 21
-652.4462907585078
 31
0.0
  0
CIRCLE
  5
2090B
  8
1PHANTOM
 10
620.5162416153653
 20
-655.8213303512663
 30
0.0
 40
2.5
  0
LINE
  5
2090E
  8
1PHANTOM
 10
378.2662809543542
 20
-509.8213303512664
 30
0.0
 11
378.2662809543542
 21
-529.8213303512664
 31
0.0
  0
CIRCLE
  5
2095A
  8
1PHANTOM
 10
510.516280954354
 20
-655.821369944025
 30
0.0
 40
2.5
  0
CIRCLE
  5
2095D
  8
1PHANTOM
 10
400.5162809543535
 20
-655.8213699440249
 30
0.0
 40
2.5
  0
LINE
  5
20AF4
  8
01
  6
CONTINUOUS
 10
384.7662416153648
 20
-668.3213303512663
 30
0.0
 11
636.2662416153648
 21
-668.3213303512663
 31
0.0
  0
LINE
  5
20AF5
  8
01
  6
CONTINUOUS
 10
639.7662416153653
 20
-668.3213303512663
 30
0.0
 11
641.0162416153653
 21
-668.3213303512663
 31
0.0
  0
LINE
  5
20D99
  8
01
  6
CONTINUOUS
 10
799.016241615365
 20
-652.6221361270984
 30
0.0
 11
779.7162416153648
 21
-652.6221361270984
 31
0.0
  0
ARC
  5
20D9A
  8
01
  6
CONTINUOUS
 10
779.7162416153648
 20
-653.6221361270984
 30
0.0
 40
1.0
 50
90.0
 51
180.0
  0
LINE
  5
20D9B
  8
01
  6
CONTINUOUS
 10
778.7162416153648
 20
-653.6221361270984
 30
0.0
 11
778.7162416153648
 21
-658.0221361270985
 31
0.0
  0
ARC
  5
20D9C
  8
01
  6
CONTINUOUS
 10
779.7162416153648
 20
-658.0221361270985
 30
0.0
 40
1.0
 50
180.0
 51
270.0
  0
LINE
  5
20D9D
  8
01
  6
CONTINUOUS
 10
779.7162416153648
 20
-659.0221361270985
 30
0.0
 11
799.016241615365
 21
-659.0221361270985
 31
0.0
  0
LINE
  5
20ECB
  8
1CENTER
 10
785.0125136717496
 20
-656.108620282123
 30
0.0
 11
785.0122446827519
 21
-668.0098566840018
 31
0.0
  0
LINE
  5
20ECC
  8
01
 10
788.5123066054431
 20
-665.2701686225836
 30
0.0
 11
788.5122998249122
 21
-665.5701686225436
 31
0.0
  0
LINE
  5
20ECD
  8
01
 10
781.512306606564
 20
-665.2700399315473
 30
0.0
 11
781.5123066036555
 21
-665.2701686225836
 31
0.0
  0
LINE
  5
20ECE
  8
01
 10
781.512306606564
 20
-665.2700399315472
 30
0.0
 11
783.0122841430949
 21
-663.7700728654
 31
0.0
  0
LINE
  5
20ECF
  8
01
 10
783.0122841430949
 20
-663.7700728654
 30
0.0
 11
783.0125122405918
 21
-657.9201298245349
 31
0.0
  0
LINE
  5
20ED0
  8
01
 10
783.0123563878944
 20
-657.920129823447
 30
0.0
 11
783.362359057393
 21
-657.5701330809701
 31
0.0
  0
LINE
  5
20ED1
  8
01
 10
783.362359057393
 20
-657.5701330809701
 30
0.0
 11
786.6623590573301
 21
-657.5701553018614
 31
0.0
  0
LINE
  5
20ED2
  8
01
 10
786.6623590573301
 20
-657.5701553018614
 30
0.0
 11
787.0123563878074
 21
-657.9201577449858
 31
0.0
  0
LINE
  5
20ED3
  8
01
 10
787.0123563878074
 20
-657.9201577449858
 30
0.0
 11
787.0122841427484
 21
-663.7701287085644
 31
0.0
  0
LINE
  5
20ED4
  8
01
 10
787.0122841427484
 20
-663.7701287085644
 30
0.0
 11
788.5123066054431
 21
-665.2701686225836
 31
0.0
  0
LINE
  5
20ED5
  8
01
 10
788.5123066054431
 20
-665.2701686225836
 30
0.0
 11
781.5123066036552
 21
-665.2701686225836
 31
0.0
  0
LINE
  5
20ED6
  8
01
 10
781.5123066036552
 20
-665.570119759898
 30
0.0
 11
788.5122998249125
 21
-665.5701686225436
 31
0.0
  0
LINE
  5
20ED7
  8
1DIM
 10
787.0122841427484
 20
-663.7701287085644
 30
0.0
 11
786.6622874002536
 21
-663.4201278941927
 31
0.0
  0
LINE
  5
20ED8
  8
1DIM
 10
786.6622874002536
 20
-663.4201278941927
 30
0.0
 11
786.6625148489394
 21
-657.5703110957463
 31
0.0
  0
LINE
  5
20ED9
  8
1DIM
 10
787.0123563878074
 20
-657.9201577449858
 30
0.0
 11
783.0123563878944
 21
-657.920129823447
 31
0.0
  0
LINE
  5
20EDA
  8
1DIM
 10
783.3625148551523
 20
-657.5701330820192
 30
0.0
 11
783.3622874006304
 21
-663.4200720510133
 31
0.0
  0
LINE
  5
20EDB
  8
1DIM
 10
783.3622874006304
 20
-663.4200720510133
 30
0.0
 11
783.0122841430949
 21
-663.7700728654
 31
0.0
  0
LINE
  5
20EDC
  8
01
 10
781.512306606564
 20
-665.2700399315473
 30
0.0
 11
781.5123066036552
 21
-665.570119759898
 31
0.0
  0
TEXT
  5
21729
  8
01
  6
CONTINUOUS
 10
809.7537571261875
 20
-611.3902613041472
 30
0.0
 40
3.5
  1
PB
  0
TEXT
  5
2172A
  8
01
  6
CONTINUOUS
 10
822.8891752713527
 20
-611.3902613041472
 30
0.0
 40
3.5
  1
合板9mm以上
  0
LINE
  5
2172C
  8
1CENTER
 10
836.2707378060029
 20
-655.8213303512664
 30
0.0
 11
798.4376047586281
 21
-655.8213303512664
 31
0.0
  0
LINE
  5
2172D
  8
01
 10
827.6162451053422
 20
-654.3213768871643
 30
0.0
 11
827.7162462687393
 21
-653.8213768871643
 31
0.0
  0
LINE
  5
2172E
  8
01
 10
827.7162462687393
 20
-653.8213768871643
 30
0.0
 11
828.5162369615618
 21
-657.8213768871643
 31
0.0
  0
LINE
  5
2172F
  8
01
 10
828.5162369615618
 20
-657.8213768871643
 30
0.0
 11
828.616238124959
 21
-657.3213768871643
 31
0.0
  0
LINE
  5
21730
  8
01
 10
826.016245105342
 20
-654.3213768871643
 30
0.0
 11
826.1162462687391
 21
-653.8213768871643
 31
0.0
  0
LINE
  5
21731
  8
01
 10
826.9162369615617
 20
-657.8213768871643
 30
0.0
 11
827.0162381249588
 21
-657.3213768871643
 31
0.0
  0
LINE
  5
21732
  8
01
 10
826.1162462687391
 20
-653.8213768871643
 30
0.0
 11
826.9162369615617
 21
-657.8213768871643
 31
0.0
  0
LINE
  5
21733
  8
01
 10
824.4162451053421
 20
-654.3213768871643
 30
0.0
 11
824.5162462687392
 21
-653.8213768871643
 31
0.0
  0
LINE
  5
21734
  8
01
 10
824.5162462687392
 20
-653.8213768871643
 30
0.0
 11
825.3162369615618
 21
-657.8213768871643
 31
0.0
  0
LINE
  5
21735
  8
01
 10
825.3162369615618
 20
-657.8213768871643
 30
0.0
 11
825.4162381249589
 21
-657.3213768871643
 31
0.0
  0
LINE
  5
21736
  8
01
 10
816.4162451053419
 20
-654.3213768871643
 30
0.0
 11
816.516246268739
 21
-653.8213768871643
 31
0.0
  0
LINE
  5
21737
  8
01
 10
817.3162369615616
 20
-657.8213768871643
 30
0.0
 11
817.4162381249589
 21
-657.3213768871643
 31
0.0
  0
LINE
  5
21738
  8
01
 10
818.9162369615617
 20
-657.8213768871643
 30
0.0
 11
819.0162381249588
 21
-657.3213768871643
 31
0.0
  0
LINE
  5
21739
  8
01
 10
818.016245105342
 20
-654.3213768871643
 30
0.0
 11
818.1162462687391
 21
-653.8213768871643
 31
0.0
  0
LINE
  5
2173A
  8
01
 10
819.6162451053419
 20
-654.3213768871643
 30
0.0
 11
819.716246268739
 21
-653.8213768871643
 31
0.0
  0
LINE
  5
2173B
  8
01
 10
818.1162462687391
 20
-653.8213768871643
 30
0.0
 11
818.9162369615617
 21
-657.8213768871643
 31
0.0
  0
LINE
  5
2173C
  8
01
 10
816.516246268739
 20
-653.8213768871643
 30
0.0
 11
817.3162369615616
 21
-657.8213768871643
 31
0.0
  0
LINE
  5
2173D
  8
01
 10
821.2162451053418
 20
-654.3213768871643
 30
0.0
 11
821.3162462687392
 21
-653.8213768871643
 31
0.0
  0
LINE
  5
2173E
  8
01
 10
829.4162451053419
 20
-654.3213768871643
 30
0.0
 11
829.516246268739
 21
-653.8213768871643
 31
0.0
  0
LINE
  5
2173F
  8
01
 10
829.516246268739
 20
-653.8213768871643
 30
0.0
 11
830.3162374883643
 21
-657.5949698349604
 31
0.0
  0
LINE
  5
21740
  8
01
 10
830.3162374883643
 20
-657.5949698349604
 30
0.0
 11
830.4455081859942
 21
-657.0583760996892
 31
0.0
  0
LINE
  5
21741
  8
01
 10
822.1162369615618
 20
-657.8213768871643
 30
0.0
 11
822.2162381249586
 21
-657.3213768871643
 31
0.0
  0
LINE
  5
21742
  8
01
 10
823.7162369615617
 20
-657.8213768871643
 30
0.0
 11
823.8162381249588
 21
-657.3213768871643
 31
0.0
  0
LINE
  5
21743
  8
01
 10
822.816245105342
 20
-654.3213768871643
 30
0.0
 11
822.9162462687391
 21
-653.8213768871643
 31
0.0
  0
LINE
  5
21744
  8
01
 10
822.9162462687391
 20
-653.8213768871643
 30
0.0
 11
823.7162369615617
 21
-657.8213768871643
 31
0.0
  0
LINE
  5
21745
  8
01
 10
821.3162462687392
 20
-653.8213768871643
 30
0.0
 11
822.1162369615618
 21
-657.8213768871643
 31
0.0
  0
LINE
  5
21746
  8
01
 10
831.1162452151289
 20
-654.274193029223
 30
0.0
 11
831.91623854197
 21
-657.1421557305536
 31
0.0
  0
LINE
  5
21747
  8
01
 10
832.7162441615246
 20
-654.7270065372713
 30
0.0
 11
833.5162395955756
 21
-656.6893416261468
 31
0.0
  0
LINE
  5
21748
  8
01
 10
831.91623854197
 20
-657.1421557305536
 30
0.0
 11
832.099002684598
 21
-656.5904062667503
 31
0.0
  0
LINE
  5
21749
  8
01
 10
832.5648083650842
 20
-655.1841783779024
 30
0.0
 11
832.7162441615246
 21
-654.7270065372713
 31
0.0
  0
LINE
  5
2174A
  8
01
 10
833.5162395955756
 20
-656.6893416261468
 30
0.0
 11
833.8280094518277
 21
-656.1010650511043
 31
0.0
  0
LINE
  5
2174B
  8
01
 10
831.0034757027788
 20
-654.742291484373
 30
0.0
 11
831.1162452151289
 21
-654.274193029223
 31
0.0
  0
LINE
  5
2174C
  8
01
 10
820.5162369615616
 20
-657.8213768871643
 30
0.0
 11
820.616238124959
 21
-657.3213768871643
 31
0.0
  0
LINE
  5
2174D
  8
01
 10
819.716246268739
 20
-653.8213768871643
 30
0.0
 11
820.5162369615616
 21
-657.8213768871643
 31
0.0
  0
LINE
  5
2174E
  8
01
 10
802.816238124942
 20
-657.3213768871643
 30
0.0
 11
802.9162369615442
 21
-657.8213768871643
 31
0.0
  0
LINE
  5
2174F
  8
01
 10
803.7162462687304
 20
-653.8213768871643
 30
0.0
 11
804.5162369615487
 21
-657.8213768871643
 31
0.0
  0
LINE
  5
21750
  8
01
 10
806.9162462687304
 20
-653.8213768871643
 30
0.0
 11
807.7162369615487
 21
-657.8213768871643
 31
0.0
  0
LINE
  5
21751
  8
01
 10
807.7162369615487
 20
-657.8213768871643
 30
0.0
 11
807.8162381249463
 21
-657.3213768871643
 31
0.0
  0
LINE
  5
21752
  8
01
 10
804.5162369615487
 20
-657.8213768871643
 30
0.0
 11
804.6162381249462
 21
-657.3213768871643
 31
0.0
  0
LINE
  5
21753
  8
01
 10
805.2162451053325
 20
-654.3213768871643
 30
0.0
 11
805.3162462687303
 21
-653.8213768871643
 31
0.0
  0
LINE
  5
21754
  8
01
 10
806.1162369615486
 20
-657.8213768871643
 30
0.0
 11
806.2162381249461
 21
-657.3213768871643
 31
0.0
  0
LINE
  5
21755
  8
01
 10
805.3162462687303
 20
-653.8213768871643
 30
0.0
 11
806.1162369615486
 21
-657.8213768871643
 31
0.0
  0
LINE
  5
21756
  8
01
 10
806.8162451053327
 20
-654.3213768871643
 30
0.0
 11
806.9162462687304
 21
-653.8213768871643
 31
0.0
  0
LINE
  5
21757
  8
01
 10
802.9162369615442
 20
-657.8213768871643
 30
0.0
 11
803.016238124942
 21
-657.3213768871643
 31
0.0
  0
LINE
  5
21758
  8
01
 10
803.6162451053326
 20
-654.3213768871643
 30
0.0
 11
803.7162462687304
 21
-653.8213768871643
 31
0.0
  0
LINE
  5
21759
  8
01
 10
800.1162509225455
 20
-651.8213303512664
 30
0.0
 11
800.1162323081863
 21
-659.8213303512664
 31
0.0
  0
LINE
  5
2175A
  8
01
 10
808.4162451053371
 20
-654.3213768871643
 30
0.0
 11
808.5162462687347
 21
-653.8213768871643
 31
0.0
  0
LINE
  5
2175B
  8
01
 10
810.0162451053413
 20
-654.3213768871643
 30
0.0
 11
810.1162462687391
 21
-653.8213768871643
 31
0.0
  0
LINE
  5
2175C
  8
01
 10
809.3162369615529
 20
-657.8213768871643
 30
0.0
 11
809.4162381249507
 21
-657.3213768871643
 31
0.0
  0
LINE
  5
2175D
  8
01
 10
813.2162451053414
 20
-654.3213768871643
 30
0.0
 11
813.3162462687392
 21
-653.8213768871643
 31
0.0
  0
LINE
  5
2175E
  8
01
 10
811.716246268739
 20
-653.8213768871643
 30
0.0
 11
812.5162369615573
 21
-657.8213768871643
 31
0.0
  0
LINE
  5
2175F
  8
01
 10
812.5162369615573
 20
-657.8213768871643
 30
0.0
 11
812.6162381249549
 21
-657.3213768871643
 31
0.0
  0
LINE
  5
21760
  8
01
 10
811.6162451053412
 20
-654.3213768871643
 30
0.0
 11
811.716246268739
 21
-653.8213768871643
 31
0.0
  0
LINE
  5
21761
  8
01
 10
810.9162369615574
 20
-657.8213768871643
 30
0.0
 11
811.016238124955
 21
-657.3213768871643
 31
0.0
  0
LINE
  5
21762
  8
01
 10
815.7162369615617
 20
-657.8213768871643
 30
0.0
 11
815.8162381249588
 21
-657.3213768871643
 31
0.0
  0
LINE
  5
21763
  8
01
 10
814.1162369615574
 20
-657.8213768871643
 30
0.0
 11
814.216238124955
 21
-657.3213768871643
 31
0.0
  0
LINE
  5
21764
  8
01
 10
814.8162451053413
 20
-654.3213768871643
 30
0.0
 11
814.9162462687391
 21
-653.8213768871643
 31
0.0
  0
LINE
  5
21765
  8
01
 10
814.9162462687391
 20
-653.8213768871643
 30
0.0
 11
815.7162369615617
 21
-657.8213768871643
 31
0.0
  0
LINE
  5
21766
  8
01
 10
813.3162462687392
 20
-653.8213768871643
 30
0.0
 11
814.1162369615574
 21
-657.8213768871643
 31
0.0
  0
LINE
  5
21767
  8
01
 10
810.1162462687391
 20
-653.8213768871643
 30
0.0
 11
810.9162369615574
 21
-657.8213768871643
 31
0.0
  0
LINE
  5
21768
  8
01
 10
808.5162462687347
 20
-653.8213768871643
 30
0.0
 11
809.3162369615529
 21
-657.8213768871643
 31
0.0
  0
LINE
  5
2176A
  8
1CENTER
 10
620.5161629373893
 20
-471.6668341606284
 30
0.0
 11
620.5161629373893
 21
-509.4999672080031
 31
0.0
  0
LINE
  5
2176B
  8
01
 10
619.0162094732872
 20
-480.3213268612892
 30
0.0
 11
618.5162094732872
 21
-480.221325697892
 31
0.0
  0
LINE
  5
2176C
  8
01
 10
618.5162094732872
 20
-480.221325697892
 30
0.0
 11
622.5162094732872
 21
-479.4213350050695
 31
0.0
  0
LINE
  5
2176D
  8
01
 10
622.5162094732872
 20
-479.4213350050695
 30
0.0
 11
622.0162094732872
 21
-479.3213338416724
 31
0.0
  0
LINE
  5
2176E
  8
01
 10
619.0162094732872
 20
-481.9213268612892
 30
0.0
 11
618.5162094732872
 21
-481.8213256978921
 31
0.0
  0
LINE
  5
2176F
  8
01
 10
622.5162094732872
 20
-481.0213350050695
 30
0.0
 11
622.0162094732872
 21
-480.9213338416724
 31
0.0
  0
LINE
  5
21770
  8
01
 10
618.5162094732872
 20
-481.8213256978921
 30
0.0
 11
622.5162094732872
 21
-481.0213350050695
 31
0.0
  0
LINE
  5
21771
  8
01
 10
619.0162094732872
 20
-483.5213268612892
 30
0.0
 11
618.5162094732872
 21
-483.4213256978921
 31
0.0
  0
LINE
  5
21772
  8
01
 10
618.5162094732872
 20
-483.4213256978921
 30
0.0
 11
622.5162094732872
 21
-482.6213350050695
 31
0.0
  0
LINE
  5
21773
  8
01
 10
622.5162094732872
 20
-482.6213350050695
 30
0.0
 11
622.0162094732872
 21
-482.5213338416724
 31
0.0
  0
LINE
  5
21774
  8
01
 10
619.0162094732872
 20
-491.5213268612893
 30
0.0
 11
618.5162094732872
 21
-491.4213256978922
 31
0.0
  0
LINE
  5
21775
  8
01
 10
622.5162094732872
 20
-490.6213350050696
 30
0.0
 11
622.0162094732872
 21
-490.5213338416724
 31
0.0
  0
LINE
  5
21776
  8
01
 10
622.5162094732872
 20
-489.0213350050695
 30
0.0
 11
622.0162094732872
 21
-488.9213338416724
 31
0.0
  0
LINE
  5
21777
  8
01
 10
619.0162094732872
 20
-489.9213268612892
 30
0.0
 11
618.5162094732872
 21
-489.8213256978921
 31
0.0
  0
LINE
  5
21778
  8
01
 10
619.0162094732872
 20
-488.3213268612893
 30
0.0
 11
618.5162094732872
 21
-488.2213256978922
 31
0.0
  0
LINE
  5
21779
  8
01
 10
618.5162094732872
 20
-489.8213256978921
 30
0.0
 11
622.5162094732872
 21
-489.0213350050695
 31
0.0
  0
LINE
  5
2177A
  8
01
 10
618.5162094732872
 20
-491.4213256978922
 30
0.0
 11
622.5162094732872
 21
-490.6213350050696
 31
0.0
  0
LINE
  5
2177B
  8
01
 10
619.0162094732872
 20
-486.7213268612894
 30
0.0
 11
618.5162094732872
 21
-486.6213256978921
 31
0.0
  0
LINE
  5
2177C
  8
01
 10
619.0162094732872
 20
-478.5213268612893
 30
0.0
 11
618.5162094732872
 21
-478.4213256978922
 31
0.0
  0
LINE
  5
2177D
  8
01
 10
618.5162094732872
 20
-478.4213256978922
 30
0.0
 11
622.2898024210832
 21
-477.6213344782669
 31
0.0
  0
LINE
  5
2177E
  8
01
 10
622.2898024210832
 20
-477.6213344782669
 30
0.0
 11
621.7532086858121
 21
-477.4920637806371
 31
0.0
  0
LINE
  5
2177F
  8
01
 10
622.5162094732872
 20
-485.8213350050696
 30
0.0
 11
622.0162094732872
 21
-485.7213338416726
 31
0.0
  0
LINE
  5
21780
  8
01
 10
622.5162094732872
 20
-484.2213350050695
 30
0.0
 11
622.0162094732872
 21
-484.1213338416724
 31
0.0
  0
LINE
  5
21781
  8
01
 10
619.0162094732872
 20
-485.1213268612892
 30
0.0
 11
618.5162094732872
 21
-485.0213256978921
 31
0.0
  0
LINE
  5
21782
  8
01
 10
618.5162094732872
 20
-485.0213256978921
 30
0.0
 11
622.5162094732872
 21
-484.2213350050695
 31
0.0
  0
LINE
  5
21783
  8
01
 10
618.5162094732872
 20
-486.6213256978921
 30
0.0
 11
622.5162094732872
 21
-485.8213350050696
 31
0.0
  0
LINE
  5
21784
  8
01
 10
618.9690256153459
 20
-476.8213267515024
 30
0.0
 11
621.8369883166764
 21
-476.0213334246613
 31
0.0
  0
LINE
  5
21785
  8
01
 10
619.4218391233942
 20
-475.2213278051066
 30
0.0
 11
621.3841742122696
 21
-474.4213323710557
 31
0.0
  0
LINE
  5
21786
  8
01
 10
621.8369883166764
 20
-476.0213334246613
 30
0.0
 11
621.2852388528731
 21
-475.8385692820333
 31
0.0
  0
LINE
  5
21787
  8
01
 10
619.8790109640253
 20
-475.372763601547
 30
0.0
 11
619.4218391233942
 21
-475.2213278051066
 31
0.0
  0
LINE
  5
21788
  8
01
 10
621.3841742122696
 20
-474.4213323710557
 30
0.0
 11
620.7958976372272
 21
-474.1095625148035
 31
0.0
  0
LINE
  5
21789
  8
01
 10
619.4371240704959
 20
-476.9340962638524
 30
0.0
 11
618.9690256153459
 21
-476.8213267515024
 31
0.0
  0
LINE
  5
2178A
  8
01
 10
622.5162094732872
 20
-487.4213350050696
 30
0.0
 11
622.0162094732872
 21
-487.3213338416724
 31
0.0
  0
LINE
  5
2178B
  8
01
 10
618.5162094732872
 20
-488.2213256978922
 30
0.0
 11
622.5162094732872
 21
-487.4213350050696
 31
0.0
  0
LINE
  5
2178C
  8
01
 10
622.0162094732872
 20
-505.1213338416893
 30
0.0
 11
622.5162094732872
 21
-505.021335005087
 31
0.0
  0
LINE
  5
2178D
  8
01
 10
618.5162094732872
 20
-504.2213256979009
 30
0.0
 11
622.5162094732872
 21
-503.4213350050827
 31
0.0
  0
LINE
  5
2178E
  8
01
 10
618.5162094732872
 20
-501.0213256979009
 30
0.0
 11
622.5162094732872
 21
-500.2213350050826
 31
0.0
  0
LINE
  5
2178F
  8
01
 10
622.5162094732872
 20
-500.2213350050826
 30
0.0
 11
622.0162094732872
 21
-500.1213338416849
 31
0.0
  0
LINE
  5
21790
  8
01
 10
622.5162094732872
 20
-503.4213350050827
 30
0.0
 11
622.0162094732872
 21
-503.321333841685
 31
0.0
  0
LINE
  5
21791
  8
01
 10
619.0162094732872
 20
-502.7213268612987
 30
0.0
 11
618.5162094732872
 21
-502.621325697901
 31
0.0
  0
LINE
  5
21792
  8
01
 10
622.5162094732872
 20
-501.8213350050827
 30
0.0
 11
622.0162094732872
 21
-501.7213338416851
 31
0.0
  0
LINE
  5
21793
  8
01
 10
618.5162094732872
 20
-502.621325697901
 30
0.0
 11
622.5162094732872
 21
-501.8213350050827
 31
0.0
  0
LINE
  5
21794
  8
01
 10
619.0162094732872
 20
-501.1213268612985
 30
0.0
 11
618.5162094732872
 21
-501.0213256979009
 31
0.0
  0
LINE
  5
21795
  8
01
 10
622.5162094732872
 20
-505.021335005087
 30
0.0
 11
622.0162094732872
 21
-504.9213338416893
 31
0.0
  0
LINE
  5
21796
  8
01
 10
619.0162094732872
 20
-504.3213268612986
 30
0.0
 11
618.5162094732872
 21
-504.2213256979009
 31
0.0
  0
LINE
  5
21797
  8
01
 10
616.5161629373893
 20
-507.8213210440858
 30
0.0
 11
624.5161629373893
 21
-507.8213396584449
 31
0.0
  0
LINE
  5
21798
  8
01
 10
619.0162094732872
 20
-499.5213268612942
 30
0.0
 11
618.5162094732872
 21
-499.4213256978965
 31
0.0
  0
LINE
  5
21799
  8
01
 10
619.0162094732872
 20
-497.9213268612899
 30
0.0
 11
618.5162094732872
 21
-497.8213256978922
 31
0.0
  0
LINE
  5
2179A
  8
01
 10
622.5162094732872
 20
-498.6213350050783
 30
0.0
 11
622.0162094732872
 21
-498.5213338416806
 31
0.0
  0
LINE
  5
2179B
  8
01
 10
619.0162094732872
 20
-494.7213268612898
 30
0.0
 11
618.5162094732872
 21
-494.6213256978921
 31
0.0
  0
LINE
  5
2179C
  8
01
 10
618.5162094732872
 20
-496.2213256978923
 30
0.0
 11
622.5162094732872
 21
-495.421335005074
 31
0.0
  0
LINE
  5
2179D
  8
01
 10
622.5162094732872
 20
-495.421335005074
 30
0.0
 11
622.0162094732872
 21
-495.3213338416763
 31
0.0
  0
LINE
  5
2179E
  8
01
 10
619.0162094732872
 20
-496.3213268612899
 30
0.0
 11
618.5162094732872
 21
-496.2213256978923
 31
0.0
  0
LINE
  5
2179F
  8
01
 10
622.5162094732872
 20
-497.0213350050739
 30
0.0
 11
622.0162094732872
 21
-496.9213338416762
 31
0.0
  0
LINE
  5
217A0
  8
01
 10
622.5162094732872
 20
-492.2213350050695
 30
0.0
 11
622.0162094732872
 21
-492.1213338416724
 31
0.0
  0
LINE
  5
217A1
  8
01
 10
622.5162094732872
 20
-493.8213350050739
 30
0.0
 11
622.0162094732872
 21
-493.7213338416762
 31
0.0
  0
LINE
  5
217A2
  8
01
 10
619.0162094732872
 20
-493.1213268612899
 30
0.0
 11
618.5162094732872
 21
-493.0213256978921
 31
0.0
  0
LINE
  5
217A3
  8
01
 10
618.5162094732872
 20
-493.0213256978921
 30
0.0
 11
622.5162094732872
 21
-492.2213350050695
 31
0.0
  0
LINE
  5
217A4
  8
01
 10
618.5162094732872
 20
-494.6213256978921
 30
0.0
 11
622.5162094732872
 21
-493.8213350050739
 31
0.0
  0
LINE
  5
217A5
  8
01
 10
618.5162094732872
 20
-497.8213256978922
 30
0.0
 11
622.5162094732872
 21
-497.0213350050739
 31
0.0
  0
LINE
  5
217A6
  8
01
 10
618.5162094732872
 20
-499.4213256978965
 30
0.0
 11
622.5162094732872
 21
-498.6213350050783
 31
0.0
  0
LINE
  5
217A8
  8
1CENTER
 10
510.5162416153655
 20
-471.6668341606284
 30
0.0
 11
510.5162416153655
 21
-509.4999672080031
 31
0.0
  0
LINE
  5
217A9
  8
01
 10
509.0162881512634
 20
-480.3213268612892
 30
0.0
 11
508.5162881512634
 21
-480.221325697892
 31
0.0
  0
LINE
  5
217AA
  8
01
 10
508.5162881512634
 20
-480.221325697892
 30
0.0
 11
512.5162881512634
 21
-479.4213350050695
 31
0.0
  0
LINE
  5
217AB
  8
01
 10
512.5162881512634
 20
-479.4213350050695
 30
0.0
 11
512.0162881512634
 21
-479.3213338416724
 31
0.0
  0
LINE
  5
217AC
  8
01
 10
509.0162881512634
 20
-481.9213268612892
 30
0.0
 11
508.5162881512634
 21
-481.8213256978921
 31
0.0
  0
LINE
  5
217AD
  8
01
 10
512.5162881512634
 20
-481.0213350050695
 30
0.0
 11
512.0162881512634
 21
-480.9213338416724
 31
0.0
  0
LINE
  5
217AE
  8
01
 10
508.5162881512634
 20
-481.8213256978921
 30
0.0
 11
512.5162881512634
 21
-481.0213350050695
 31
0.0
  0
LINE
  5
217AF
  8
01
 10
509.0162881512634
 20
-483.5213268612892
 30
0.0
 11
508.5162881512634
 21
-483.4213256978921
 31
0.0
  0
LINE
  5
217B0
  8
01
 10
508.5162881512634
 20
-483.4213256978921
 30
0.0
 11
512.5162881512634
 21
-482.6213350050695
 31
0.0
  0
LINE
  5
217B1
  8
01
 10
512.5162881512634
 20
-482.6213350050695
 30
0.0
 11
512.0162881512634
 21
-482.5213338416724
 31
0.0
  0
LINE
  5
217B2
  8
01
 10
509.0162881512634
 20
-491.5213268612893
 30
0.0
 11
508.5162881512634
 21
-491.4213256978922
 31
0.0
  0
LINE
  5
217B3
  8
01
 10
512.5162881512634
 20
-490.6213350050696
 30
0.0
 11
512.0162881512634
 21
-490.5213338416724
 31
0.0
  0
LINE
  5
217B4
  8
01
 10
512.5162881512634
 20
-489.0213350050695
 30
0.0
 11
512.0162881512634
 21
-488.9213338416724
 31
0.0
  0
LINE
  5
217B5
  8
01
 10
509.0162881512634
 20
-489.9213268612892
 30
0.0
 11
508.5162881512634
 21
-489.8213256978921
 31
0.0
  0
LINE
  5
217B6
  8
01
 10
509.0162881512634
 20
-488.3213268612893
 30
0.0
 11
508.5162881512634
 21
-488.2213256978922
 31
0.0
  0
LINE
  5
217B7
  8
01
 10
508.5162881512634
 20
-489.8213256978921
 30
0.0
 11
512.5162881512634
 21
-489.0213350050695
 31
0.0
  0
LINE
  5
217B8
  8
01
 10
508.5162881512634
 20
-491.4213256978922
 30
0.0
 11
512.5162881512634
 21
-490.6213350050696
 31
0.0
  0
LINE
  5
217B9
  8
01
 10
509.0162881512634
 20
-486.7213268612894
 30
0.0
 11
508.5162881512634
 21
-486.6213256978921
 31
0.0
  0
LINE
  5
217BA
  8
01
 10
509.0162881512634
 20
-478.5213268612893
 30
0.0
 11
508.5162881512634
 21
-478.4213256978922
 31
0.0
  0
LINE
  5
217BB
  8
01
 10
508.5162881512634
 20
-478.4213256978922
 30
0.0
 11
512.2898810990595
 21
-477.6213344782669
 31
0.0
  0
LINE
  5
217BC
  8
01
 10
512.2898810990595
 20
-477.6213344782669
 30
0.0
 11
511.7532873637883
 21
-477.4920637806371
 31
0.0
  0
LINE
  5
217BD
  8
01
 10
512.5162881512634
 20
-485.8213350050696
 30
0.0
 11
512.0162881512634
 21
-485.7213338416726
 31
0.0
  0
LINE
  5
217BE
  8
01
 10
512.5162881512634
 20
-484.2213350050695
 30
0.0
 11
512.0162881512634
 21
-484.1213338416724
 31
0.0
  0
LINE
  5
217BF
  8
01
 10
509.0162881512634
 20
-485.1213268612892
 30
0.0
 11
508.5162881512634
 21
-485.0213256978921
 31
0.0
  0
LINE
  5
217C0
  8
01
 10
508.5162881512634
 20
-485.0213256978921
 30
0.0
 11
512.5162881512634
 21
-484.2213350050695
 31
0.0
  0
LINE
  5
217C1
  8
01
 10
508.5162881512634
 20
-486.6213256978921
 30
0.0
 11
512.5162881512634
 21
-485.8213350050696
 31
0.0
  0
LINE
  5
217C2
  8
01
 10
508.9691042933222
 20
-476.8213267515024
 30
0.0
 11
511.8370669946527
 21
-476.0213334246613
 31
0.0
  0
LINE
  5
217C3
  8
01
 10
509.4219178013705
 20
-475.2213278051066
 30
0.0
 11
511.3842528902459
 21
-474.4213323710557
 31
0.0
  0
LINE
  5
217C4
  8
01
 10
511.8370669946527
 20
-476.0213334246613
 30
0.0
 11
511.2853175308494
 21
-475.8385692820333
 31
0.0
  0
LINE
  5
217C5
  8
01
 10
509.8790896420015
 20
-475.372763601547
 30
0.0
 11
509.4219178013705
 21
-475.2213278051066
 31
0.0
  0
LINE
  5
217C6
  8
01
 10
511.3842528902459
 20
-474.4213323710557
 30
0.0
 11
510.7959763152035
 21
-474.1095625148035
 31
0.0
  0
LINE
  5
217C7
  8
01
 10
509.4372027484721
 20
-476.9340962638524
 30
0.0
 11
508.9691042933222
 21
-476.8213267515024
 31
0.0
  0
LINE
  5
217C8
  8
01
 10
512.5162881512634
 20
-487.4213350050696
 30
0.0
 11
512.0162881512634
 21
-487.3213338416724
 31
0.0
  0
LINE
  5
217C9
  8
01
 10
508.5162881512634
 20
-488.2213256978922
 30
0.0
 11
512.5162881512634
 21
-487.4213350050696
 31
0.0
  0
LINE
  5
217CA
  8
01
 10
512.0162881512634
 20
-505.1213338416893
 30
0.0
 11
512.5162881512634
 21
-505.021335005087
 31
0.0
  0
LINE
  5
217CB
  8
01
 10
508.5162881512634
 20
-504.2213256979009
 30
0.0
 11
512.5162881512634
 21
-503.4213350050827
 31
0.0
  0
LINE
  5
217CC
  8
01
 10
508.5162881512634
 20
-501.0213256979009
 30
0.0
 11
512.5162881512634
 21
-500.2213350050826
 31
0.0
  0
LINE
  5
217CD
  8
01
 10
512.5162881512634
 20
-500.2213350050826
 30
0.0
 11
512.0162881512634
 21
-500.1213338416849
 31
0.0
  0
LINE
  5
217CE
  8
01
 10
512.5162881512634
 20
-503.4213350050827
 30
0.0
 11
512.0162881512634
 21
-503.321333841685
 31
0.0
  0
LINE
  5
217CF
  8
01
 10
509.0162881512634
 20
-502.7213268612987
 30
0.0
 11
508.5162881512634
 21
-502.621325697901
 31
0.0
  0
LINE
  5
217D0
  8
01
 10
512.5162881512634
 20
-501.8213350050827
 30
0.0
 11
512.0162881512634
 21
-501.7213338416851
 31
0.0
  0
LINE
  5
217D1
  8
01
 10
508.5162881512634
 20
-502.621325697901
 30
0.0
 11
512.5162881512634
 21
-501.8213350050827
 31
0.0
  0
LINE
  5
217D2
  8
01
 10
509.0162881512634
 20
-501.1213268612985
 30
0.0
 11
508.5162881512634
 21
-501.0213256979009
 31
0.0
  0
LINE
  5
217D3
  8
01
 10
512.5162881512634
 20
-505.021335005087
 30
0.0
 11
512.0162881512634
 21
-504.9213338416893
 31
0.0
  0
LINE
  5
217D4
  8
01
 10
509.0162881512634
 20
-504.3213268612986
 30
0.0
 11
508.5162881512634
 21
-504.2213256979009
 31
0.0
  0
LINE
  5
217D5
  8
01
 10
506.5162416153655
 20
-507.8213210440858
 30
0.0
 11
514.5162416153655
 21
-507.8213396584449
 31
0.0
  0
LINE
  5
217D6
  8
01
 10
509.0162881512634
 20
-499.5213268612942
 30
0.0
 11
508.5162881512634
 21
-499.4213256978965
 31
0.0
  0
LINE
  5
217D7
  8
01
 10
509.0162881512634
 20
-497.9213268612899
 30
0.0
 11
508.5162881512634
 21
-497.8213256978922
 31
0.0
  0
LINE
  5
217D8
  8
01
 10
512.5162881512634
 20
-498.6213350050783
 30
0.0
 11
512.0162881512634
 21
-498.5213338416806
 31
0.0
  0
LINE
  5
217D9
  8
01
 10
509.0162881512634
 20
-494.7213268612898
 30
0.0
 11
508.5162881512634
 21
-494.6213256978921
 31
0.0
  0
LINE
  5
217DA
  8
01
 10
508.5162881512634
 20
-496.2213256978923
 30
0.0
 11
512.5162881512634
 21
-495.421335005074
 31
0.0
  0
LINE
  5
217DB
  8
01
 10
512.5162881512634
 20
-495.421335005074
 30
0.0
 11
512.0162881512634
 21
-495.3213338416763
 31
0.0
  0
LINE
  5
217DC
  8
01
 10
509.0162881512634
 20
-496.3213268612899
 30
0.0
 11
508.5162881512634
 21
-496.2213256978923
 31
0.0
  0
LINE
  5
217DD
  8
01
 10
512.5162881512634
 20
-497.0213350050739
 30
0.0
 11
512.0162881512634
 21
-496.9213338416762
 31
0.0
  0
LINE
  5
217DE
  8
01
 10
512.5162881512634
 20
-492.2213350050695
 30
0.0
 11
512.0162881512634
 21
-492.1213338416724
 31
0.0
  0
LINE
  5
217DF
  8
01
 10
512.5162881512634
 20
-493.8213350050739
 30
0.0
 11
512.0162881512634
 21
-493.7213338416762
 31
0.0
  0
LINE
  5
217E0
  8
01
 10
509.0162881512634
 20
-493.1213268612899
 30
0.0
 11
508.5162881512634
 21
-493.0213256978921
 31
0.0
  0
LINE
  5
217E1
  8
01
 10
508.5162881512634
 20
-493.0213256978921
 30
0.0
 11
512.5162881512634
 21
-492.2213350050695
 31
0.0
  0
LINE
  5
217E2
  8
01
 10
508.5162881512634
 20
-494.6213256978921
 30
0.0
 11
512.5162881512634
 21
-493.8213350050739
 31
0.0
  0
LINE
  5
217E3
  8
01
 10
508.5162881512634
 20
-497.8213256978922
 30
0.0
 11
512.5162881512634
 21
-497.0213350050739
 31
0.0
  0
LINE
  5
217E4
  8
01
 10
508.5162881512634
 20
-499.4213256978965
 30
0.0
 11
512.5162881512634
 21
-498.6213350050783
 31
0.0
  0
LINE
  5
217E6
  8
1CENTER
 10
400.5162128805935
 20
-471.6668341606284
 30
0.0
 11
400.5162128805935
 21
-509.4999672080031
 31
0.0
  0
LINE
  5
217E7
  8
01
 10
399.0162594164914
 20
-480.3213268612892
 30
0.0
 11
398.5162594164914
 21
-480.221325697892
 31
0.0
  0
LINE
  5
217E8
  8
01
 10
398.5162594164914
 20
-480.221325697892
 30
0.0
 11
402.5162594164914
 21
-479.4213350050695
 31
0.0
  0
LINE
  5
217E9
  8
01
 10
402.5162594164914
 20
-479.4213350050695
 30
0.0
 11
402.0162594164914
 21
-479.3213338416724
 31
0.0
  0
LINE
  5
217EA
  8
01
 10
399.0162594164914
 20
-481.9213268612892
 30
0.0
 11
398.5162594164914
 21
-481.8213256978921
 31
0.0
  0
LINE
  5
217EB
  8
01
 10
402.5162594164914
 20
-481.0213350050695
 30
0.0
 11
402.0162594164914
 21
-480.9213338416724
 31
0.0
  0
LINE
  5
217EC
  8
01
 10
398.5162594164914
 20
-481.8213256978921
 30
0.0
 11
402.5162594164914
 21
-481.0213350050695
 31
0.0
  0
LINE
  5
217ED
  8
01
 10
399.0162594164914
 20
-483.5213268612892
 30
0.0
 11
398.5162594164914
 21
-483.4213256978921
 31
0.0
  0
LINE
  5
217EE
  8
01
 10
398.5162594164914
 20
-483.4213256978921
 30
0.0
 11
402.5162594164914
 21
-482.6213350050695
 31
0.0
  0
LINE
  5
217EF
  8
01
 10
402.5162594164914
 20
-482.6213350050695
 30
0.0
 11
402.0162594164914
 21
-482.5213338416724
 31
0.0
  0
LINE
  5
217F0
  8
01
 10
399.0162594164914
 20
-491.5213268612893
 30
0.0
 11
398.5162594164914
 21
-491.4213256978922
 31
0.0
  0
LINE
  5
217F1
  8
01
 10
402.5162594164914
 20
-490.6213350050696
 30
0.0
 11
402.0162594164914
 21
-490.5213338416724
 31
0.0
  0
LINE
  5
217F2
  8
01
 10
402.5162594164914
 20
-489.0213350050695
 30
0.0
 11
402.0162594164914
 21
-488.9213338416724
 31
0.0
  0
LINE
  5
217F3
  8
01
 10
399.0162594164914
 20
-489.9213268612892
 30
0.0
 11
398.5162594164914
 21
-489.8213256978921
 31
0.0
  0
LINE
  5
217F4
  8
01
 10
399.0162594164914
 20
-488.3213268612893
 30
0.0
 11
398.5162594164914
 21
-488.2213256978922
 31
0.0
  0
LINE
  5
217F5
  8
01
 10
398.5162594164914
 20
-489.8213256978921
 30
0.0
 11
402.5162594164914
 21
-489.0213350050695
 31
0.0
  0
LINE
  5
217F6
  8
01
 10
398.5162594164914
 20
-491.4213256978922
 30
0.0
 11
402.5162594164914
 21
-490.6213350050696
 31
0.0
  0
LINE
  5
217F7
  8
01
 10
399.0162594164914
 20
-486.7213268612894
 30
0.0
 11
398.5162594164914
 21
-486.6213256978921
 31
0.0
  0
LINE
  5
217F8
  8
01
 10
399.0162594164914
 20
-478.5213268612893
 30
0.0
 11
398.5162594164914
 21
-478.4213256978922
 31
0.0
  0
LINE
  5
217F9
  8
01
 10
398.5162594164914
 20
-478.4213256978922
 30
0.0
 11
402.2898523642874
 21
-477.6213344782669
 31
0.0
  0
LINE
  5
217FA
  8
01
 10
402.2898523642874
 20
-477.6213344782669
 30
0.0
 11
401.7532586290163
 21
-477.4920637806371
 31
0.0
  0
LINE
  5
217FB
  8
01
 10
402.5162594164914
 20
-485.8213350050696
 30
0.0
 11
402.0162594164914
 21
-485.7213338416726
 31
0.0
  0
LINE
  5
217FC
  8
01
 10
402.5162594164914
 20
-484.2213350050695
 30
0.0
 11
402.0162594164914
 21
-484.1213338416724
 31
0.0
  0
LINE
  5
217FD
  8
01
 10
399.0162594164914
 20
-485.1213268612892
 30
0.0
 11
398.5162594164914
 21
-485.0213256978921
 31
0.0
  0
LINE
  5
217FE
  8
01
 10
398.5162594164914
 20
-485.0213256978921
 30
0.0
 11
402.5162594164914
 21
-484.2213350050695
 31
0.0
  0
LINE
  5
217FF
  8
01
 10
398.5162594164914
 20
-486.6213256978921
 30
0.0
 11
402.5162594164914
 21
-485.8213350050696
 31
0.0
  0
LINE
  5
21800
  8
01
 10
398.9690755585501
 20
-476.8213267515024
 30
0.0
 11
401.8370382598806
 21
-476.0213334246613
 31
0.0
  0
LINE
  5
21801
  8
01
 10
399.4218890665984
 20
-475.2213278051066
 30
0.0
 11
401.3842241554738
 21
-474.4213323710557
 31
0.0
  0
LINE
  5
21802
  8
01
 10
401.8370382598806
 20
-476.0213334246613
 30
0.0
 11
401.2852887960773
 21
-475.8385692820333
 31
0.0
  0
LINE
  5
21803
  8
01
 10
399.8790609072295
 20
-475.372763601547
 30
0.0
 11
399.4218890665984
 21
-475.2213278051066
 31
0.0
  0
LINE
  5
21804
  8
01
 10
401.3842241554738
 20
-474.4213323710557
 30
0.0
 11
400.7959475804314
 21
-474.1095625148035
 31
0.0
  0
LINE
  5
21805
  8
01
 10
399.4371740137001
 20
-476.9340962638524
 30
0.0
 11
398.9690755585501
 21
-476.8213267515024
 31
0.0
  0
LINE
  5
21806
  8
01
 10
402.5162594164914
 20
-487.4213350050696
 30
0.0
 11
402.0162594164914
 21
-487.3213338416724
 31
0.0
  0
LINE
  5
21807
  8
01
 10
398.5162594164914
 20
-488.2213256978922
 30
0.0
 11
402.5162594164914
 21
-487.4213350050696
 31
0.0
  0
LINE
  5
21808
  8
01
 10
402.0162594164914
 20
-505.1213338416893
 30
0.0
 11
402.5162594164914
 21
-505.021335005087
 31
0.0
  0
LINE
  5
21809
  8
01
 10
398.5162594164914
 20
-504.2213256979009
 30
0.0
 11
402.5162594164914
 21
-503.4213350050827
 31
0.0
  0
LINE
  5
2180A
  8
01
 10
398.5162594164914
 20
-501.0213256979009
 30
0.0
 11
402.5162594164914
 21
-500.2213350050826
 31
0.0
  0
LINE
  5
2180B
  8
01
 10
402.5162594164914
 20
-500.2213350050826
 30
0.0
 11
402.0162594164914
 21
-500.1213338416849
 31
0.0
  0
LINE
  5
2180C
  8
01
 10
402.5162594164914
 20
-503.4213350050827
 30
0.0
 11
402.0162594164914
 21
-503.321333841685
 31
0.0
  0
LINE
  5
2180D
  8
01
 10
399.0162594164914
 20
-502.7213268612987
 30
0.0
 11
398.5162594164914
 21
-502.621325697901
 31
0.0
  0
LINE
  5
2180E
  8
01
 10
402.5162594164914
 20
-501.8213350050827
 30
0.0
 11
402.0162594164914
 21
-501.7213338416851
 31
0.0
  0
LINE
  5
2180F
  8
01
 10
398.5162594164914
 20
-502.621325697901
 30
0.0
 11
402.5162594164914
 21
-501.8213350050827
 31
0.0
  0
LINE
  5
21810
  8
01
 10
399.0162594164914
 20
-501.1213268612985
 30
0.0
 11
398.5162594164914
 21
-501.0213256979009
 31
0.0
  0
LINE
  5
21811
  8
01
 10
402.5162594164914
 20
-505.021335005087
 30
0.0
 11
402.0162594164914
 21
-504.9213338416893
 31
0.0
  0
LINE
  5
21812
  8
01
 10
399.0162594164914
 20
-504.3213268612986
 30
0.0
 11
398.5162594164914
 21
-504.2213256979009
 31
0.0
  0
LINE
  5
21813
  8
01
 10
396.5162128805935
 20
-507.8213210440858
 30
0.0
 11
404.5162128805935
 21
-507.8213396584449
 31
0.0
  0
LINE
  5
21814
  8
01
 10
399.0162594164914
 20
-499.5213268612942
 30
0.0
 11
398.5162594164914
 21
-499.4213256978965
 31
0.0
  0
LINE
  5
21815
  8
01
 10
399.0162594164914
 20
-497.9213268612899
 30
0.0
 11
398.5162594164914
 21
-497.8213256978922
 31
0.0
  0
LINE
  5
21816
  8
01
 10
402.5162594164914
 20
-498.6213350050783
 30
0.0
 11
402.0162594164914
 21
-498.5213338416806
 31
0.0
  0
LINE
  5
21817
  8
01
 10
399.0162594164914
 20
-494.7213268612898
 30
0.0
 11
398.5162594164914
 21
-494.6213256978921
 31
0.0
  0
LINE
  5
21818
  8
01
 10
398.5162594164914
 20
-496.2213256978923
 30
0.0
 11
402.5162594164914
 21
-495.421335005074
 31
0.0
  0
LINE
  5
21819
  8
01
 10
402.5162594164914
 20
-495.421335005074
 30
0.0
 11
402.0162594164914
 21
-495.3213338416763
 31
0.0
  0
LINE
  5
2181A
  8
01
 10
399.0162594164914
 20
-496.3213268612899
 30
0.0
 11
398.5162594164914
 21
-496.2213256978923
 31
0.0
  0
LINE
  5
2181B
  8
01
 10
402.5162594164914
 20
-497.0213350050739
 30
0.0
 11
402.0162594164914
 21
-496.9213338416762
 31
0.0
  0
LINE
  5
2181C
  8
01
 10
402.5162594164914
 20
-492.2213350050695
 30
0.0
 11
402.0162594164914
 21
-492.1213338416724
 31
0.0
  0
LINE
  5
2181D
  8
01
 10
402.5162594164914
 20
-493.8213350050739
 30
0.0
 11
402.0162594164914
 21
-493.7213338416762
 31
0.0
  0
LINE
  5
2181E
  8
01
 10
399.0162594164914
 20
-493.1213268612899
 30
0.0
 11
398.5162594164914
 21
-493.0213256978921
 31
0.0
  0
LINE
  5
2181F
  8
01
 10
398.5162594164914
 20
-493.0213256978921
 30
0.0
 11
402.5162594164914
 21
-492.2213350050695
 31
0.0
  0
LINE
  5
21820
  8
01
 10
398.5162594164914
 20
-494.6213256978921
 30
0.0
 11
402.5162594164914
 21
-493.8213350050739
 31
0.0
  0
LINE
  5
21821
  8
01
 10
398.5162594164914
 20
-497.8213256978922
 30
0.0
 11
402.5162594164914
 21
-497.0213350050739
 31
0.0
  0
LINE
  5
21822
  8
01
 10
398.5162594164914
 20
-499.4213256978965
 30
0.0
 11
402.5162594164914
 21
-498.6213350050783
 31
0.0
  0
LINE
  5
21823
  8
01
 10
829.5162451053415
 20
-654.3213768871643
 30
0.0
 11
802.6162800072176
 21
-654.3213768871643
 31
0.0
  0
LINE
  5
21824
  8
01
 10
802.6162800072176
 20
-654.3213768871643
 30
0.0
 11
800.1162509225455
 21
-651.8213303512664
 31
0.0
  0
LINE
  5
21825
  8
01
 10
800.1162509225455
 20
-651.8213303512664
 30
0.0
 11
799.8162509225444
 21
-651.8213303512664
 31
0.0
  0
LINE
  5
21826
  8
01
 10
799.8162509225444
 20
-651.8213303512664
 30
0.0
 11
799.8162323081854
 21
-659.8213303512664
 31
0.0
  0
LINE
  5
21827
  8
01
 10
799.8162323081854
 20
-659.8213303512664
 30
0.0
 11
800.1162323081865
 21
-659.8213303512664
 31
0.0
  0
LINE
  5
21828
  8
01
 10
800.1162323081865
 20
-659.8213303512664
 30
0.0
 11
802.6162148568524
 21
-657.3213768871643
 31
0.0
  0
LINE
  5
21829
  8
01
 10
802.6162148568524
 20
-657.3213768871643
 30
0.0
 11
829.5162381249571
 21
-657.3213768871643
 31
0.0
  0
LINE
  5
2182A
  8
01
 10
829.5162381249571
 20
-657.3213768871643
 30
0.0
 11
834.8162416152024
 21
-655.8213768871643
 31
0.0
  0
LINE
  5
2182B
  8
01
 10
834.8162416152024
 20
-655.8213768871643
 30
0.0
 11
829.5162451053415
 21
-654.3213768871643
 31
0.0
  0
LINE
  5
2182C
  8
01
 10
619.0162094732872
 20
-478.4213268612898
 30
0.0
 11
619.0162094732872
 21
-505.3212919594137
 31
0.0
  0
LINE
  5
2182D
  8
01
 10
619.0162094732872
 20
-505.3212919594137
 30
0.0
 11
616.5161629373893
 21
-507.8213210440858
 31
0.0
  0
LINE
  5
2182E
  8
01
 10
616.5161629373893
 20
-507.8213210440858
 30
0.0
 11
616.5161629373893
 21
-508.1213210440868
 31
0.0
  0
LINE
  5
2182F
  8
01
 10
616.5161629373893
 20
-508.1213210440868
 30
0.0
 11
624.5161629373893
 21
-508.1213396584459
 31
0.0
  0
LINE
  5
21830
  8
01
 10
624.5161629373893
 20
-508.1213396584459
 30
0.0
 11
624.5161629373893
 21
-507.8213396584449
 31
0.0
  0
LINE
  5
21831
  8
01
 10
624.5161629373893
 20
-507.8213396584449
 30
0.0
 11
622.0162094732872
 21
-505.3213571097789
 31
0.0
  0
LINE
  5
21832
  8
01
 10
622.0162094732872
 20
-505.3213571097789
 30
0.0
 11
622.0162094732872
 21
-478.4213338416741
 31
0.0
  0
LINE
  5
21833
  8
01
 10
622.0162094732872
 20
-478.4213338416741
 30
0.0
 11
620.5162094732872
 21
-473.1213303514288
 31
0.0
  0
LINE
  5
21834
  8
01
 10
620.5162094732872
 20
-473.1213303514288
 30
0.0
 11
619.0162094732872
 21
-478.4213268612898
 31
0.0
  0
LINE
  5
21835
  8
01
 10
509.0162881512634
 20
-478.4213268612898
 30
0.0
 11
509.0162881512634
 21
-505.3212919594137
 31
0.0
  0
LINE
  5
21836
  8
01
 10
509.0162881512634
 20
-505.3212919594137
 30
0.0
 11
506.5162416153655
 21
-507.8213210440858
 31
0.0
  0
LINE
  5
21837
  8
01
 10
506.5162416153655
 20
-507.8213210440858
 30
0.0
 11
506.5162416153655
 21
-508.1213210440868
 31
0.0
  0
LINE
  5
21838
  8
01
 10
506.5162416153655
 20
-508.1213210440868
 30
0.0
 11
514.5162416153655
 21
-508.1213396584459
 31
0.0
  0
LINE
  5
21839
  8
01
 10
514.5162416153655
 20
-508.1213396584459
 30
0.0
 11
514.5162416153655
 21
-507.8213396584449
 31
0.0
  0
LINE
  5
2183A
  8
01
 10
514.5162416153655
 20
-507.8213396584449
 30
0.0
 11
512.0162881512634
 21
-505.3213571097789
 31
0.0
  0
LINE
  5
2183B
  8
01
 10
512.0162881512634
 20
-505.3213571097789
 30
0.0
 11
512.0162881512634
 21
-478.4213338416741
 31
0.0
  0
LINE
  5
2183C
  8
01
 10
512.0162881512634
 20
-478.4213338416741
 30
0.0
 11
510.5162881512634
 21
-473.1213303514288
 31
0.0
  0
LINE
  5
2183D
  8
01
 10
510.5162881512634
 20
-473.1213303514288
 30
0.0
 11
509.0162881512634
 21
-478.4213268612898
 31
0.0
  0
LINE
  5
2183E
  8
01
 10
399.0162594164914
 20
-478.4213268612898
 30
0.0
 11
399.0162594164914
 21
-505.3212919594137
 31
0.0
  0
LINE
  5
2183F
  8
01
 10
399.0162594164914
 20
-505.3212919594137
 30
0.0
 11
396.5162128805935
 21
-507.8213210440858
 31
0.0
  0
LINE
  5
21840
  8
01
 10
396.5162128805935
 20
-507.8213210440858
 30
0.0
 11
396.5162128805935
 21
-508.1213210440868
 31
0.0
  0
LINE
  5
21841
  8
01
 10
396.5162128805935
 20
-508.1213210440868
 30
0.0
 11
404.5162128805935
 21
-508.1213396584459
 31
0.0
  0
LINE
  5
21842
  8
01
 10
404.5162128805935
 20
-508.1213396584459
 30
0.0
 11
404.5162128805935
 21
-507.8213396584449
 31
0.0
  0
LINE
  5
21843
  8
01
 10
404.5162128805935
 20
-507.8213396584449
 30
0.0
 11
402.0162594164914
 21
-505.3213571097789
 31
0.0
  0
LINE
  5
21844
  8
01
 10
402.0162594164914
 20
-505.3213571097789
 30
0.0
 11
402.0162594164914
 21
-478.4213338416741
 31
0.0
  0
LINE
  5
21845
  8
01
 10
402.0162594164914
 20
-478.4213338416741
 30
0.0
 11
400.5162594164914
 21
-473.1213303514288
 31
0.0
  0
LINE
  5
21846
  8
01
 10
400.5162594164914
 20
-473.1213303514288
 30
0.0
 11
399.0162594164914
 21
-478.4213268612898
 31
0.0
  0
LINE
  5
21847
  8
1DIM1
 10
510.516202276378
 20
-659.1962907585078
 30
0.0
 11
510.516202276378
 21
-715.5228599883025
 31
0.0
1001
ACAD
1000
DSTYLE
1002
{
1070
    40
1040
3.0
1070
    45
1040
0.5
1002
}
  0
LINE
  5
21848
  8
1DIM1
 10
620.5161629373893
 20
-659.196251165749
 30
0.0
 11
620.5161629373893
 21
-715.5228599883025
 31
0.0
1001
ACAD
1000
DSTYLE
1002
{
1070
    40
1040
3.0
1070
    45
1040
0.5
1002
}
  0
LINE
  5
21849
  8
1DIM1
 10
516.516202276378
 20
-712.5228599883025
 30
0.0
 11
614.5161629373893
 21
-712.5228599883025
 31
0.0
1001
ACAD
1000
DSTYLE
1002
{
1070
    40
1040
3.0
1070
    45
1040
0.5
1002
}
  0
LINE
  5
2184D
  8
1DIM
 10
719.016241615365
 20
-682.5721361270973
 30
0.0
 11
690.8573118228933
 21
-682.5721361270973
 31
0.0
1001
ACAD
1000
DSTYLE
1002
{
1070
    45
1040
0.5
1002
}
  0
LINE
  5
2184E
  8
1DIM
 10
706.216241615365
 20
-645.8221361270971
 30
0.0
 11
690.8573118228933
 21
-645.8221361270971
 31
0.0
1001
ACAD
1000
DSTYLE
1002
{
1070
    45
1040
0.5
1002
}
  0
LINE
  5
2184F
  8
1DIM
 10
691.8573118228933
 20
-680.5721361270973
 30
0.0
 11
691.8573118228933
 21
-647.8221361270971
 31
0.0
1001
ACAD
1000
DSTYLE
1002
{
1070
    45
1040
0.5
1002
}
  0
LINE
  5
21853
  8
1DIM
 10
705.016241615365
 20
-664.6221361270975
 30
0.0
 11
705.016241615365
 21
-698.735417143908
 31
0.0
1001
ACAD
1000
DSTYLE
1002
{
1070
    45
1040
0.5
1002
}
  0
LINE
  5
21854
  8
1DIM
 10
803.016241615365
 20
-693.0495039365483
 30
0.0
 11
803.016241615365
 21
-698.735417143908
 31
0.0
1001
ACAD
1000
DSTYLE
1002
{
1070
    45
1040
0.5
1002
}
  0
LINE
  5
21855
  8
1DIM
 10
707.016241615365
 20
-697.735417143908
 30
0.0
 11
801.016241615365
 21
-697.735417143908
 31
0.0
1001
ACAD
1000
DSTYLE
1002
{
1070
    45
1040
0.5
1002
}
  0
LINE
  5
21859
  8
1DIM
 10
803.016241615365
 20
-693.0495039365483
 30
0.0
 11
803.016241615365
 21
-688.9139184314258
 31
0.0
1001
ACAD
1000
DSTYLE
1002
{
1070
    45
1040
0.5
1002
}
  0
LINE
  5
2185A
  8
1DIM
 10
785.0122446827519
 20
-668.0098566840018
 30
0.0
 11
785.0122446827519
 21
-690.9139184314258
 31
0.0
1001
ACAD
1000
DSTYLE
1002
{
1070
    45
1040
0.5
1002
}
  0
LINE
  5
2185B
  8
1DIM
 10
801.016241615365
 20
-689.9139184314258
 30
0.0
 11
787.0122446827519
 21
-689.9139184314258
 31
0.0
1001
ACAD
1000
DSTYLE
1002
{
1070
    45
1040
0.5
1002
}
  0
LINE
  5
2185F
  8
1DIM
 10
836.2707378060029
 20
-655.8213303512664
 30
0.0
 11
845.516241615365
 21
-655.8213303512664
 31
0.0
1001
ACAD
1000
DSTYLE
1002
{
1070
    45
1040
0.5
1070
   271
1070
     0
1002
}
  0
LINE
  5
21860
  8
1DIM
 10
803.016241615365
 20
-643.3213303512664
 30
0.0
 11
845.516241615365
 21
-643.3213303512664
 31
0.0
1001
ACAD
1000
DSTYLE
1002
{
1070
    45
1040
0.5
1070
   271
1070
     0
1002
}
  0
LINE
  5
21861
  8
1DIM
 10
844.516241615365
 20
-653.8213303512664
 30
0.0
 11
844.516241615365
 21
-645.3213303512664
 31
0.0
1001
ACAD
1000
DSTYLE
1002
{
1070
    45
1040
0.5
1070
   271
1070
     0
1002
}
  0
LINE
  5
21865
  8
1DIM1
 10
378.0162416153651
 20
-664.6213303512665
 30
0.0
 11
378.0162416153651
 21
-739.1428031262897
 31
0.0
1001
ACAD
1000
DSTYLE
1002
{
1070
    40
1040
3.0
1070
    45
1040
0.5
1002
}
  0
LINE
  5
21866
  8
1DIM1
 10
643.0162416153653
 20
-652.9748735941021
 30
0.0
 11
643.0162416153653
 21
-739.1428031262897
 31
0.0
1001
ACAD
1000
DSTYLE
1002
{
1070
    40
1040
3.0
1070
    45
1040
0.5
1002
}
  0
LINE
  5
21867
  8
1DIM1
 10
384.0162416153651
 20
-736.1428031262897
 30
0.0
 11
637.0162416153653
 21
-736.1428031262897
 31
0.0
1001
ACAD
1000
DSTYLE
1002
{
1070
    40
1040
3.0
1070
    45
1040
0.5
1002
}
  0
LINE
  5
2186B
  8
1DIM
 10
803.016241615365
 20
-668.3213303512664
 30
0.0
 11
853.33490780049
 21
-668.3213303512664
 31
0.0
1001
ACAD
1000
DSTYLE
1002
{
1070
    45
1040
0.5
1002
}
  0
LINE
  5
2186C
  8
1DIM
 10
803.016241615365
 20
-643.3213303512664
 30
0.0
 11
853.33490780049
 21
-643.3213303512664
 31
0.0
1001
ACAD
1000
DSTYLE
1002
{
1070
    45
1040
0.5
1002
}
  0
LINE
  5
2186D
  8
1DIM
 10
852.33490780049
 20
-666.3213303512664
 30
0.0
 11
852.33490780049
 21
-645.3213303512664
 31
0.0
1001
ACAD
1000
DSTYLE
1002
{
1070
    45
1040
0.5
1002
}
  0
SOLID
  5
21871
  8
1DIM
 10
806.6708479197653
 20
-624.9354292138315
 30
0.0
 11
805.9299131930724
 21
-626.8227889680627
 31
0.0
 12
806.0186807169501
 22
-624.797145505403
 32
0.0
 13
806.0186807169501
 23
-624.797145505403
 33
0.0
1001
ACAD
1000
DSTYLE
1002
{
1070
    45
1040
0.5
1002
}
  0
LINE
  5
21872
  8
1DIM
 10
806.3447643183576
 20
-624.8662873596172
 30
0.0
 11
809.0537571261874
 21
-612.0902613041472
 31
0.0
1001
ACAD
1000
DSTYLE
1002
{
1070
    45
1040
0.5
1002
}
  0
SOLID
  5
21873
  8
1DIM
 10
819.8062660649305
 20
-624.9354292138315
 30
0.0
 11
819.0653313382376
 21
-626.8227889680627
 31
0.0
 12
819.1540988621153
 22
-624.797145505403
 32
0.0
 13
819.1540988621153
 23
-624.797145505403
 33
0.0
1001
ACAD
1000
DSTYLE
1002
{
1070
    45
1040
0.5
1002
}
  0
LINE
  5
21874
  8
1DIM
 10
819.4801824635229
 20
-624.8662873596172
 30
0.0
 11
822.1891752713526
 21
-612.0902613041472
 31
0.0
1001
ACAD
1000
DSTYLE
1002
{
1070
    45
1040
0.5
1002
}
  0
SOLID
  5
21875
  8
1DIM
 10
751.59900625441
 20
-644.0681853491295
 30
0.0
 11
752.616241615365
 21
-645.8221361270973
 31
0.0
 12
751.0851430486342
 22
-644.4929076704104
 32
0.0
 13
751.0851430486342
 23
-644.4929076704104
 33
0.0
1001
ACAD
1000
DSTYLE
1002
{
1070
    45
1040
0.5
1002
}
  0
LINE
  5
21876
  8
1DIM
 10
751.3420746515221
 20
-644.28054650977
 30
0.0
 11
744.2620935789105
 21
-635.7146162807404
 31
0.0
1001
ACAD
1000
DSTYLE
1002
{
1070
    45
1040
0.5
1002
}
  0
LINE
  5
21877
  8
1DIM
 10
744.2620935789105
 20
-635.7146162807404
 30
0.0
 11
704.5787602455771
 21
-635.7146162807404
 31
0.0
1001
ACAD
1000
DSTYLE
1002
{
1070
    45
1040
0.5
1002
}
  0
TEXT
  5
21878
  8
1DIM
  6
CONTINUOUS
 10
709.0120935789105
 20
-629.181282947407
 30
0.0
 40
3.5
  1
材質：ステンレス
  0
TEXT
  5
21879
  8
1DIM
  6
CONTINUOUS
 10
704.4620935789104
 20
-635.0146162807404
 30
0.0
 40
3.5
  1
仕上げ：各種仕上げ
  0
LINE
  5
2187A
  8
1DIM1
 10
400.5162416153667
 20
-659.1963303512665
 30
0.0
 11
400.5162416153667
 21
-715.5228995810612
 31
0.0
1001
ACAD
1000
DSTYLE
1002
{
1070
    40
1040
3.0
1070
    45
1040
0.5
1002
}
  0
LINE
  5
2187B
  8
1DIM1
 10
510.516202276378
 20
-659.1962907585078
 30
0.0
 11
510.516202276378
 21
-715.5228995810612
 31
0.0
1001
ACAD
1000
DSTYLE
1002
{
1070
    40
1040
3.0
1070
    45
1040
0.5
1002
}
  0
LINE
  5
2187C
  8
1DIM1
 10
406.5162416153667
 20
-712.5228995810612
 30
0.0
 11
504.516202276378
 21
-712.5228995810612
 31
0.0
1001
ACAD
1000
DSTYLE
1002
{
1070
    40
1040
3.0
1070
    45
1040
0.5
1002
}
  0
LINE
  5
21880
  8
1DIM1
 10
388.0162416153653
 20
-593.8213303512664
 30
0.0
 11
388.0162416153653
 21
-631.8440395205372
 31
0.0
1001
ACAD
1000
DSTYLE
1002
{
1070
    40
1040
3.0
1070
    45
1040
0.5
1002
}
  0
LINE
  5
21881
  8
1DIM1
 10
633.0162416153657
 20
-593.8213303512664
 30
0.0
 11
633.0162416153657
 21
-631.8440395205372
 31
0.0
1001
ACAD
1000
DSTYLE
1002
{
1070
    40
1040
3.0
1070
    45
1040
0.5
1002
}
  0
LINE
  5
21882
  8
1DIM1
 10
394.0162416153653
 20
-628.8440395205372
 30
0.0
 11
627.0162416153657
 21
-628.8440395205372
 31
0.0
1001
ACAD
1000
DSTYLE
1002
{
1070
    40
1040
3.0
1070
    45
1040
0.5
1002
}
  0
LINE
  5
21886
  8
1DIM1
 10
633.0162416153657
 20
-593.8213303512664
 30
0.0
 11
671.0389507846365
 21
-593.8213303512664
 31
0.0
1001
ACAD
1000
DSTYLE
1002
{
1070
    40
1040
3.0
1070
    45
1040
0.5
1002
}
  0
LINE
  5
21887
  8
1DIM1
 10
633.0162416153657
 20
-509.8213303512664
 30
0.0
 11
671.0389507846365
 21
-509.8213303512664
 31
0.0
1001
ACAD
1000
DSTYLE
1002
{
1070
    40
1040
3.0
1070
    45
1040
0.5
1002
}
  0
LINE
  5
21888
  8
1DIM1
 10
668.0389507846365
 20
-587.8213303512664
 30
0.0
 11
668.0389507846365
 21
-515.8213303512664
 31
0.0
1001
ACAD
1000
DSTYLE
1002
{
1070
    40
1040
3.0
1070
    45
1040
0.5
1002
}
  0
LINE
  5
2188C
  8
1DIM
 10
791.016241615365
 20
-682.5721361270973
 30
0.0
 11
861.8142877636878
 21
-682.5721361270973
 31
0.0
1001
ACAD
1000
DSTYLE
1002
{
1070
    45
1040
0.5
1002
}
  0
LINE
  5
2188D
  8
1DIM
 10
803.016241615365
 20
-643.3213303512664
 30
0.0
 11
861.8142877636878
 21
-643.3213303512664
 31
0.0
1001
ACAD
1000
DSTYLE
1002
{
1070
    45
1040
0.5
1002
}
  0
LINE
  5
2188E
  8
1DIM
 10
860.8142877636878
 20
-680.5721361270973
 30
0.0
 11
860.8142877636878
 21
-645.3213303512664
 31
0.0
1001
ACAD
1000
DSTYLE
1002
{
1070
    45
1040
0.5
1002
}
  0
TEXT
  5
21892
  8
1DIM
  6
CONTINUOUS
 10
757.769109058109
 20
-628.6824323897763
 30
0.0
 40
3.5
  1
材質：ステンレス
  0
TEXT
  5
21893
  8
1DIM
  6
CONTINUOUS
 10
753.219109058109
 20
-634.5157657231097
 30
0.0
 40
3.5
  1
仕上げ：各種仕上げ
  0
SOLID
  5
21894
  8
1DIM
 10
798.1462204996924
 20
-641.989889833697
 30
0.0
 11
799.016241615365
 21
-643.8213303512664
 31
0.0
 12
797.5992679597061
 22
-642.3710556289188
 32
0.0
 13
797.5992679597061
 23
-642.3710556289188
 33
0.0
1001
ACAD
1000
DSTYLE
1002
{
1070
    45
1040
0.5
1002
}
  0
LINE
  5
21895
  8
1DIM
 10
797.8727442296993
 20
-642.180472731308
 30
0.0
 11
793.019109058109
 21
-635.2157657231097
 31
0.0
1001
ACAD
1000
DSTYLE
1002
{
1070
    45
1040
0.5
1002
}
  0
LINE
  5
21896
  8
1DIM
 10
793.019109058109
 20
-635.2157657231097
 30
0.0
 11
791.019109058109
 21
-635.2157657231097
 31
0.0
1001
ACAD
1000
DSTYLE
1002
{
1070
    45
1040
0.5
1002
}
  0
LINE
  5
21897
  8
0
  6
BYBLOCK
 10
516.516202276378
 20
-714.1305551283025
 30
0.0
 11
510.516202276378
 21
-712.5228599883025
 31
0.0
  0
LINE
  5
21898
  8
0
  6
BYBLOCK
 10
510.516202276378
 20
-712.5228599883025
 30
0.0
 11
516.516202276378
 21
-710.9151648483024
 31
0.0
  0
LINE
  5
21899
  8
0
  6
BYBLOCK
 10
510.516202276378
 20
-712.5228599883025
 30
0.0
 11
516.516202276378
 21
-712.5228599883025
 31
0.0
  0
LINE
  5
2189A
  8
0
  6
BYBLOCK
 10
614.5161629373893
 20
-710.9151648483024
 30
0.0
 11
620.5161629373893
 21
-712.5228599883025
 31
0.0
  0
LINE
  5
2189B
  8
0
  6
BYBLOCK
 10
620.5161629373893
 20
-712.5228599883025
 30
0.0
 11
614.5161629373893
 21
-714.1305551283025
 31
0.0
  0
LINE
  5
2189C
  8
0
  6
BYBLOCK
 10
620.5161629373893
 20
-712.5228599883025
 30
0.0
 11
614.5161629373893
 21
-712.5228599883025
 31
0.0
  0
TEXT
  5
2189D
  8
1DIM1
  6
CONTINUOUS
 10
550.4224326068836
 20
-710.4228599883024
 30
0.0
 40
10.5
  1
P110
1001
ACAD
1000
DSTYLE
1002
{
1070
    40
1040
3.0
1070
    45
1040
0.5
1002
}
  0
LINE
  5
2189E
  8
0
  6
BYBLOCK
 10
692.3932102028933
 20
-680.5721361270973
 30
0.0
 11
691.8573118228933
 21
-682.5721361270973
 31
0.0
  0
LINE
  5
2189F
  8
0
  6
BYBLOCK
 10
691.8573118228933
 20
-682.5721361270973
 30
0.0
 11
691.3214134428932
 21
-680.5721361270973
 31
0.0
  0
LINE
  5
218A0
  8
0
  6
BYBLOCK
 10
691.8573118228933
 20
-682.5721361270973
 30
0.0
 11
691.8573118228933
 21
-680.5721361270973
 31
0.0
  0
LINE
  5
218A1
  8
0
  6
BYBLOCK
 10
691.3214134428932
 20
-647.8221361270971
 30
0.0
 11
691.8573118228933
 21
-645.8221361270971
 31
0.0
  0
LINE
  5
218A2
  8
0
  6
BYBLOCK
 10
691.8573118228933
 20
-645.8221361270971
 30
0.0
 11
692.3932102028933
 21
-647.8221361270971
 31
0.0
  0
LINE
  5
218A3
  8
0
  6
BYBLOCK
 10
691.8573118228933
 20
-645.8221361270971
 30
0.0
 11
691.8573118228933
 21
-647.8221361270971
 31
0.0
  0
TEXT
  5
218A4
  8
1DIM
  6
CONTINUOUS
 10
691.1573118228932
 20
-667.113802793764
 30
0.0
 40
3.5
  1
37
 50
90.0
1001
ACAD
1000
DSTYLE
1002
{
1070
    45
1040
0.5
1002
}
  0
LINE
  5
218A5
  8
0
  6
BYBLOCK
 10
707.016241615365
 20
-698.271315523908
 30
0.0
 11
705.016241615365
 21
-697.735417143908
 31
0.0
  0
LINE
  5
218A6
  8
0
  6
BYBLOCK
 10
705.016241615365
 20
-697.735417143908
 30
0.0
 11
707.016241615365
 21
-697.1995187639079
 31
0.0
  0
LINE
  5
218A7
  8
0
  6
BYBLOCK
 10
705.016241615365
 20
-697.735417143908
 30
0.0
 11
707.016241615365
 21
-697.735417143908
 31
0.0
  0
LINE
  5
218A8
  8
0
  6
BYBLOCK
 10
801.016241615365
 20
-697.1995187639079
 30
0.0
 11
803.016241615365
 21
-697.735417143908
 31
0.0
  0
LINE
  5
218A9
  8
0
  6
BYBLOCK
 10
803.016241615365
 20
-697.735417143908
 30
0.0
 11
801.016241615365
 21
-698.271315523908
 31
0.0
  0
LINE
  5
218AA
  8
0
  6
BYBLOCK
 10
803.016241615365
 20
-697.735417143908
 30
0.0
 11
801.016241615365
 21
-697.735417143908
 31
0.0
  0
TEXT
  5
218AB
  8
1DIM
  6
CONTINUOUS
 10
751.097954578328
 20
-697.0354171439079
 30
0.0
 40
3.5
  1
98
1001
ACAD
1000
DSTYLE
1002
{
1070
    45
1040
0.5
1002
}
  0
LINE
  5
218AC
  8
0
  6
BYBLOCK
 10
801.016241615365
 20
-689.3780200514258
 30
0.0
 11
803.016241615365
 21
-689.9139184314258
 31
0.0
  0
LINE
  5
218AD
  8
0
  6
BYBLOCK
 10
803.016241615365
 20
-689.9139184314258
 30
0.0
 11
801.016241615365
 21
-690.4498168114259
 31
0.0
  0
LINE
  5
218AE
  8
0
  6
BYBLOCK
 10
803.016241615365
 20
-689.9139184314258
 30
0.0
 11
801.016241615365
 21
-689.9139184314258
 31
0.0
  0
LINE
  5
218AF
  8
0
  6
BYBLOCK
 10
787.0122446827519
 20
-690.4498168114259
 30
0.0
 11
785.0122446827519
 21
-689.9139184314258
 31
0.0
  0
LINE
  5
218B0
  8
0
  6
BYBLOCK
 10
785.0122446827519
 20
-689.9139184314258
 30
0.0
 11
787.0122446827519
 21
-689.3780200514258
 31
0.0
  0
LINE
  5
218B1
  8
0
  6
BYBLOCK
 10
785.0122446827519
 20
-689.9139184314258
 30
0.0
 11
787.0122446827519
 21
-689.9139184314258
 31
0.0
  0
TEXT
  5
218B2
  8
1DIM
  6
CONTINUOUS
 10
791.680909815725
 20
-689.2139184314258
 30
0.0
 40
3.5
  1
18
1001
ACAD
1000
DSTYLE
1002
{
1070
    45
1040
0.5
1002
}
  0
LINE
  5
218B3
  8
0
  6
BYBLOCK
 10
845.052139995365
 20
-653.8213303512664
 30
0.0
 11
844.516241615365
 21
-655.8213303512664
 31
0.0
  0
LINE
  5
218B4
  8
0
  6
BYBLOCK
 10
844.516241615365
 20
-655.8213303512664
 30
0.0
 11
843.9803432353649
 21
-653.8213303512664
 31
0.0
  0
LINE
  5
218B5
  8
0
  6
BYBLOCK
 10
844.516241615365
 20
-655.8213303512664
 30
0.0
 11
844.516241615365
 21
-653.8213303512664
 31
0.0
  0
LINE
  5
218B6
  8
0
  6
BYBLOCK
 10
843.9803432353649
 20
-645.3213303512664
 30
0.0
 11
844.516241615365
 21
-643.3213303512664
 31
0.0
  0
LINE
  5
218B7
  8
0
  6
BYBLOCK
 10
844.516241615365
 20
-643.3213303512664
 30
0.0
 11
845.052139995365
 21
-645.3213303512664
 31
0.0
  0
LINE
  5
218B8
  8
0
  6
BYBLOCK
 10
844.516241615365
 20
-643.3213303512664
 30
0.0
 11
844.516241615365
 21
-645.3213303512664
 31
0.0
  0
TEXT
  5
218B9
  8
1DIM
  6
CONTINUOUS
 10
843.8162416153649
 20
-651.9046636845997
 30
0.0
 40
3.5
  1
13
 50
90.0
1001
ACAD
1000
DSTYLE
1002
{
1070
    45
1040
0.5
1070
   271
1070
     0
1002
}
  0
LINE
  5
218BA
  8
0
  6
BYBLOCK
 10
384.0162416153651
 20
-737.7504982662897
 30
0.0
 11
378.0162416153651
 21
-736.1428031262897
 31
0.0
  0
LINE
  5
218BB
  8
0
  6
BYBLOCK
 10
378.0162416153651
 20
-736.1428031262897
 30
0.0
 11
384.0162416153651
 21
-734.5351079862896
 31
0.0
  0
LINE
  5
218BC
  8
0
  6
BYBLOCK
 10
378.0162416153651
 20
-736.1428031262897
 30
0.0
 11
384.0162416153651
 21
-736.1428031262897
 31
0.0
  0
LINE
  5
218BD
  8
0
  6
BYBLOCK
 10
637.0162416153653
 20
-734.5351079862896
 30
0.0
 11
643.0162416153653
 21
-736.1428031262897
 31
0.0
  0
LINE
  5
218BE
  8
0
  6
BYBLOCK
 10
643.0162416153653
 20
-736.1428031262897
 30
0.0
 11
637.0162416153653
 21
-737.7504982662897
 31
0.0
  0
LINE
  5
218BF
  8
0
  6
BYBLOCK
 10
643.0162416153653
 20
-736.1428031262897
 30
0.0
 11
637.0162416153653
 21
-736.1428031262897
 31
0.0
  0
TEXT
  5
218C0
  8
1DIM1
  6
CONTINUOUS
 10
496.4797832820319
 20
-734.0428031262896
 30
0.0
 40
10.5
  1
265
1001
ACAD
1000
DSTYLE
1002
{
1070
    40
1040
3.0
1070
    45
1040
0.5
1002
}
  0
LINE
  5
218C1
  8
0
  6
BYBLOCK
 10
852.87080618049
 20
-666.3213303512664
 30
0.0
 11
852.33490780049
 21
-668.3213303512664
 31
0.0
  0
LINE
  5
218C2
  8
0
  6
BYBLOCK
 10
852.33490780049
 20
-668.3213303512664
 30
0.0
 11
851.7990094204899
 21
-666.3213303512664
 31
0.0
  0
LINE
  5
218C3
  8
0
  6
BYBLOCK
 10
852.33490780049
 20
-668.3213303512664
 30
0.0
 11
852.33490780049
 21
-666.3213303512664
 31
0.0
  0
LINE
  5
218C4
  8
0
  6
BYBLOCK
 10
851.7990094204899
 20
-645.3213303512664
 30
0.0
 11
852.33490780049
 21
-643.3213303512664
 31
0.0
  0
LINE
  5
218C5
  8
0
  6
BYBLOCK
 10
852.33490780049
 20
-643.3213303512664
 30
0.0
 11
852.87080618049
 21
-645.3213303512664
 31
0.0
  0
LINE
  5
218C6
  8
0
  6
BYBLOCK
 10
852.33490780049
 20
-643.3213303512664
 30
0.0
 11
852.33490780049
 21
-645.3213303512664
 31
0.0
  0
TEXT
  5
218C7
  8
1DIM
  6
CONTINUOUS
 10
851.63490780049
 20
-658.7379970179329
 30
0.0
 40
3.5
  1
25
 50
90.0
1001
ACAD
1000
DSTYLE
1002
{
1070
    45
1040
0.5
1002
}
  0
LINE
  5
218C8
  8
0
  6
BYBLOCK
 10
406.5162416153667
 20
-714.1305947210612
 30
0.0
 11
400.5162416153667
 21
-712.5228995810612
 31
0.0
  0
LINE
  5
218C9
  8
0
  6
BYBLOCK
 10
400.5162416153667
 20
-712.5228995810612
 30
0.0
 11
406.5162416153667
 21
-710.9152044410612
 31
0.0
  0
LINE
  5
218CA
  8
0
  6
BYBLOCK
 10
400.5162416153667
 20
-712.5228995810612
 30
0.0
 11
406.5162416153667
 21
-712.5228995810612
 31
0.0
  0
LINE
  5
218CB
  8
0
  6
BYBLOCK
 10
504.516202276378
 20
-710.9152044410612
 30
0.0
 11
510.516202276378
 21
-712.5228995810612
 31
0.0
  0
LINE
  5
218CC
  8
0
  6
BYBLOCK
 10
510.516202276378
 20
-712.5228995810612
 30
0.0
 11
504.516202276378
 21
-714.1305947210612
 31
0.0
  0
LINE
  5
218CD
  8
0
  6
BYBLOCK
 10
510.516202276378
 20
-712.5228995810612
 30
0.0
 11
504.516202276378
 21
-712.5228995810612
 31
0.0
  0
TEXT
  5
218CE
  8
1DIM1
  6
CONTINUOUS
 10
440.4224719458723
 20
-710.4228995810612
 30
0.0
 40
10.5
  1
P110
1001
ACAD
1000
DSTYLE
1002
{
1070
    40
1040
3.0
1070
    45
1040
0.5
1002
}
  0
LINE
  5
218CF
  8
0
  6
BYBLOCK
 10
394.0162416153653
 20
-630.4517346605372
 30
0.0
 11
388.0162416153653
 21
-628.8440395205372
 31
0.0
  0
LINE
  5
218D0
  8
0
  6
BYBLOCK
 10
388.0162416153653
 20
-628.8440395205372
 30
0.0
 11
394.0162416153653
 21
-627.2363443805372
 31
0.0
  0
LINE
  5
218D1
  8
0
  6
BYBLOCK
 10
388.0162416153653
 20
-628.8440395205372
 30
0.0
 11
394.0162416153653
 21
-628.8440395205372
 31
0.0
  0
LINE
  5
218D2
  8
0
  6
BYBLOCK
 10
627.0162416153657
 20
-627.2363443805372
 30
0.0
 11
633.0162416153657
 21
-628.8440395205372
 31
0.0
  0
LINE
  5
218D3
  8
0
  6
BYBLOCK
 10
633.0162416153657
 20
-628.8440395205372
 30
0.0
 11
627.0162416153657
 21
-630.4517346605372
 31
0.0
  0
LINE
  5
218D4
  8
0
  6
BYBLOCK
 10
633.0162416153657
 20
-628.8440395205372
 30
0.0
 11
627.0162416153657
 21
-628.8440395205372
 31
0.0
  0
TEXT
  5
218D5
  8
1DIM1
  6
CONTINUOUS
 10
496.5162416153649
 20
-626.7440395205372
 30
0.0
 40
10.5
  1
245
1001
ACAD
1000
DSTYLE
1002
{
1070
    40
1040
3.0
1070
    45
1040
0.5
1002
}
  0
LINE
  5
218D6
  8
0
  6
BYBLOCK
 10
669.6466459246366
 20
-587.8213303512664
 30
0.0
 11
668.0389507846365
 21
-593.8213303512664
 31
0.0
  0
LINE
  5
218D7
  8
0
  6
BYBLOCK
 10
668.0389507846365
 20
-593.8213303512664
 30
0.0
 11
666.4312556446365
 21
-587.8213303512664
 31
0.0
  0
LINE
  5
218D8
  8
0
  6
BYBLOCK
 10
668.0389507846365
 20
-593.8213303512664
 30
0.0
 11
668.0389507846365
 21
-587.8213303512664
 31
0.0
  0
LINE
  5
218D9
  8
0
  6
BYBLOCK
 10
666.4312556446365
 20
-515.8213303512664
 30
0.0
 11
668.0389507846365
 21
-509.8213303512664
 31
0.0
  0
LINE
  5
218DA
  8
0
  6
BYBLOCK
 10
668.0389507846365
 20
-509.8213303512664
 30
0.0
 11
669.6466459246366
 21
-515.8213303512664
 31
0.0
  0
LINE
  5
218DB
  8
0
  6
BYBLOCK
 10
668.0389507846365
 20
-509.8213303512664
 30
0.0
 11
668.0389507846365
 21
-515.8213303512664
 31
0.0
  0
TEXT
  5
218DC
  8
1DIM1
  6
CONTINUOUS
 10
665.9389507846365
 20
-560.5713303512664
 30
0.0
 40
10.5
  1
84
 50
90.0
1001
ACAD
1000
DSTYLE
1002
{
1070
    40
1040
3.0
1070
    45
1040
0.5
1002
}
  0
LINE
  5
218DD
  8
0
  6
BYBLOCK
 10
861.3501861436879
 20
-680.5721361270973
 30
0.0
 11
860.8142877636878
 21
-682.5721361270973
 31
0.0
  0
LINE
  5
218DE
  8
0
  6
BYBLOCK
 10
860.8142877636878
 20
-682.5721361270973
 30
0.0
 11
860.2783893836878
 21
-680.5721361270973
 31
0.0
  0
LINE
  5
218DF
  8
0
  6
BYBLOCK
 10
860.8142877636878
 20
-682.5721361270973
 30
0.0
 11
860.8142877636878
 21
-680.5721361270973
 31
0.0
  0
LINE
  5
218E0
  8
0
  6
BYBLOCK
 10
860.2783893836878
 20
-645.3213303512664
 30
0.0
 11
860.8142877636878
 21
-643.3213303512664
 31
0.0
  0
LINE
  5
218E1
  8
0
  6
BYBLOCK
 10
860.8142877636878
 20
-643.3213303512664
 30
0.0
 11
861.3501861436879
 21
-645.3213303512664
 31
0.0
  0
LINE
  5
218E2
  8
0
  6
BYBLOCK
 10
860.8142877636878
 20
-643.3213303512664
 30
0.0
 11
860.8142877636878
 21
-645.3213303512664
 31
0.0
  0
TEXT
  5
218E3
  8
1DIM
  6
CONTINUOUS
 10
860.1142877636879
 20
-668.197543424367
 30
0.0
 40
3.5
  1
39.5
 50
90.0
1001
ACAD
1000
DSTYLE
1002
{
1070
    45
1040
0.5
1002
}
  0
VIEWPORT
  5
57
 67
     1
  8
0
 10
0.0
 20
0.0
 30
0.0
 40
554.37576499388
 41
297.0
 68
     1
 69
     1
1001
ACAD
1000
MVIEW
1002
{
1070
    16
1010
0.0
1020
0.0
1030
0.0
1010
0.0
1020
0.0
1030
1.0
1040
0.0
1040
297.0
1040
-4.171999999925362
1040
12.83903210976956
1040
50.0
1040
0.0
1040
0.0
1070
    16
1070
   100
1070
     0
1070
     1
1070
     0
1070
     0
1070
     0
1070
     0
1040
0.0
1040
0.0
1040
0.0
1040
10.0
1040
10.0
1040
10.0
1040
10.0
1070
     0
1002
{
1002
}
1002
}
  0
ENDSEC
  0
EOF
