  0
SECTION
  2
HEADER
  9
$ACADVER
  1
AC1009
  9
$DWGCODEPAGE
  3
ansi_932
  9
$INSBASE
 10
0.0
 20
0.0
 30
0.0
  9
$EXTMIN
 10
391.4162416153582
 20
-733.2776775218301
 30
-0.00000000000131
  9
$EXTMAX
 10
767.8854466978986
 20
-523.8213303512657
 30
0.0000000000026127
  9
$LIMMIN
 10
0.0
 20
0.0
  9
$LIMMAX
 10
420.0
 20
297.0
  9
$ORTHOMODE
 70
     0
  9
$REGENMODE
 70
     1
  9
$FILLMODE
 70
     1
  9
$QTEXTMODE
 70
     0
  9
$MIRRTEXT
 70
     0
  9
$DRAGMODE
 70
     2
  9
$LTSCALE
 40
0.5
  9
$OSMODE
 70
 14591
  9
$ATTMODE
 70
     1
  9
$TEXTSIZE
 40
4.0
  9
$TRACEWID
 40
1.0
  9
$TEXTSTYLE
  7
STANDARD
  9
$CLAYER
  8
1TEXT
  9
$CELTYPE
  6
BYLAYER
  9
$CECOLOR
 62
   256
  9
$DIMSCALE
 40
1.0
  9
$DIMASZ
 40
2.0
  9
$DIMEXO
 40
0.0
  9
$DIMDLI
 40
7.0
  9
$DIMRND
 40
0.0
  9
$DIMDLE
 40
0.0
  9
$DIMEXE
 40
1.0
  9
$DIMTP
 40
0.0
  9
$DIMTM
 40
0.0
  9
$DIMTXT
 40
3.5
  9
$DIMCEN
 40
0.0
  9
$DIMTSZ
 40
0.0
  9
$DIMTOL
 70
     0
  9
$DIMLIM
 70
     0
  9
$DIMTIH
 70
     0
  9
$DIMTOH
 70
     0
  9
$DIMSE1
 70
     0
  9
$DIMSE2
 70
     0
  9
$DIMTAD
 70
     1
  9
$DIMZIN
 70
     8
  9
$DIMBLK
  1

  9
$DIMASO
 70
     1
  9
$DIMSHO
 70
     1
  9
$DIMPOST
  1
 
  9
$DIMAPOST
  1

  9
$DIMALT
 70
     0
  9
$DIMALTD
 70
     2
  9
$DIMALTF
 40
25.4
  9
$DIMLFAC
 40
1.0
  9
$DIMTOFL
 70
     1
  9
$DIMTVP
 40
0.0
  9
$DIMTIX
 70
     0
  9
$DIMSOXD
 70
     0
  9
$DIMSAH
 70
     1
  9
$DIMBLK1
  1
OPEN30
  9
$DIMBLK2
  1
OPEN30
  9
$DIMSTYLE
  2
NEWX10
  9
$DIMCLRD
 70
   256
  9
$DIMCLRE
 70
   256
  9
$DIMCLRT
 70
   201
  9
$DIMTFAC
 40
0.7
  9
$DIMGAP
 40
0.7
  9
$LUNITS
 70
     2
  9
$LUPREC
 70
     4
  9
$SKETCHINC
 40
1.0
  9
$FILLETRAD
 40
4.0
  9
$AUNITS
 70
     0
  9
$AUPREC
 70
     2
  9
$MENU
  1
acad
  9
$ELEVATION
 40
0.0
  9
$PELEVATION
 40
0.0
  9
$THICKNESS
 40
0.0
  9
$LIMCHECK
 70
     0
  9
$CHAMFERA
 40
1.0
  9
$CHAMFERB
 40
1.0
  9
$SKPOLY
 70
     0
  9
$TDCREATE
 40
2453033.732663484
  9
$TDUPDATE
 40
2459787.741832419
  9
$TDINDWG
 40
2.7470335069
  9
$TDUSRTIMER
 40
2.7470335069
  9
$USRTIMER
 70
     1
  9
$ANGBASE
 50
0.0
  9
$ANGDIR
 70
     0
  9
$PDMODE
 70
     0
  9
$PDSIZE
 40
0.0
  9
$PLINEWID
 40
0.0
  9
$COORDS
 70
     2
  9
$SPLFRAME
 70
     0
  9
$SPLINETYPE
 70
     6
  9
$SPLINESEGS
 70
     8
  9
$ATTDIA
 70
     0
  9
$ATTREQ
 70
     1
  9
$HANDLING
 70
     1
  9
$HANDSEED
  5
2520A
  9
$SURFTAB1
 70
     6
  9
$SURFTAB2
 70
     6
  9
$SURFTYPE
 70
     6
  9
$SURFU
 70
     6
  9
$SURFV
 70
     6
  9
$UCSNAME
  2

  9
$UCSORG
 10
0.0
 20
0.0
 30
0.0
  9
$UCSXDIR
 10
1.0
 20
0.0
 30
0.0
  9
$UCSYDIR
 10
0.0
 20
1.0
 30
0.0
  9
$PUCSNAME
  2

  9
$PUCSORG
 10
0.0
 20
0.0
 30
0.0
  9
$PUCSXDIR
 10
1.0
 20
0.0
 30
0.0
  9
$PUCSYDIR
 10
0.0
 20
1.0
 30
0.0
  9
$USERI1
 70
     0
  9
$USERI2
 70
     0
  9
$USERI3
 70
     0
  9
$USERI4
 70
     0
  9
$USERI5
 70
     0
  9
$USERR1
 40
0.0
  9
$USERR2
 40
0.0
  9
$USERR3
 40
0.0
  9
$USERR4
 40
0.0
  9
$USERR5
 40
0.0
  9
$WORLDVIEW
 70
     1
  9
$SHADEDGE
 70
     3
  9
$SHADEDIF
 70
    70
  9
$TILEMODE
 70
     1
  9
$MAXACTVP
 70
    48
  9
$PLIMCHECK
 70
     0
  9
$PEXTMIN
 10
1.000000000000000E+20
 20
1.000000000000000E+20
 30
1.000000000000000E+20
  9
$PEXTMAX
 10
-1.000000000000000E+20
 20
-1.000000000000000E+20
 30
-1.000000000000000E+20
  9
$PLIMMIN
 10
0.0
 20
0.0
  9
$PLIMMAX
 10
420.0
 20
297.0
  9
$UNITMODE
 70
     0
  9
$VISRETAIN
 70
     1
  9
$PLINEGEN
 70
     0
  9
$PSLTSCALE
 70
     1
  0
ENDSEC
  0
SECTION
  2
TABLES
  0
TABLE
  2
VPORT
 70
     1
  0
VPORT
  2
*ACTIVE
 70
     0
 10
0.0
 20
0.0
 11
1.0
 21
1.0
 12
579.6508441566284
 22
-628.5495039365479
 13
0.0
 23
0.0
 14
10.0
 24
10.0
 15
10.0
 25
10.0
 16
0.0
 26
0.0
 36
1.0
 17
0.0
 27
0.0
 37
0.0
 40
224.8899727515534
 41
1.866585067319461
 42
50.0
 43
0.0
 44
0.0
 50
0.0
 51
0.0
 71
    16
 72
   100
 73
     1
 74
     1
 75
     0
 76
     0
 77
     0
 78
     0
  0
ENDTAB
  0
TABLE
  2
LTYPE
 70
    18
  0
LTYPE
  2
CONTINUOUS
 70
     0
  3
Solid line
 72
    65
 73
     0
 40
0.0
  0
LTYPE
  2
CENTER2
 70
     0
  3
Center (.5x) ___ _ ___ _ ___ _ ___ _ ___ _ ___
 72
    65
 73
     4
 40
28.575
 49
19.05
 49
-3.175
 49
3.175
 49
-3.175
  0
LTYPE
  2
PHANTOM2
 70
     0
  3
Phantom (0.5x) ___ _ _ ___ _ _ ___ _ _ ___ _ _
 72
    65
 73
     6
 40
31.75
 49
15.875
 49
-3.175
 49
3.175
 49
-3.175
 49
3.175
 49
-3.175
  0
ENDTAB
  0
TABLE
  2
LAYER
 70
    44
  0
LAYER
  2
0
 70
     0
 62
     7
  6
CONTINUOUS
  0
LAYER
  2
1CENTER
 70
     0
 62
     7
  6
CENTER2
  0
LAYER
  2
1TEXT
 70
     0
 62
     7
  6
CONTINUOUS
  0
LAYER
  2
1DIM
 70
     0
 62
     7
  6
CONTINUOUS
  0
LAYER
  2
1PHANTOM
 70
     0
 62
     7
  6
PHANTOM2
  0
LAYER
  2
01
 70
     0
 62
     1
  6
CONTINUOUS
  0
LAYER
  2
1HATCH
 70
     0
 62
     7
  6
CONTINUOUS
  0
ENDTAB
  0
TABLE
  2
STYLE
 70
    26
  0
STYLE
  2
STANDARD
 70
     0
 40
0.0
 41
1.0
 50
0.0
 71
     0
 42
4.0
  3
txt.shx
  4
extfont.shx
  0
ENDTAB
  0
TABLE
  2
VIEW
 70
     0
  0
ENDTAB
  0
TABLE
  2
UCS
 70
     0
  0
ENDTAB
  0
TABLE
  2
APPID
 70
    31
  0
APPID
  2
ACAD
 70
     0
  0
APPID
  2
DRAWINGVARIABLESXDATA
 70
     0
  0
APPID
  2
CONTENTTABDATA
 70
     0
  0
APPID
  2
CONTENTCURRENTTAB
 70
     0
  0
APPID
  2
CONTENTBLOCKDESCRIPTION
 70
     0
  0
APPID
  2
CONTENTBLOCKICON
 70
     0
  0
APPID
  2
CONTENTLONGBLOCKNAME
 70
     0
  0
APPID
  2
ACAD_PSEXT
 70
     0
  0
APPID
  2
ACAD_DSTYLE_DIMTEXT_FILL
 70
     0
  0
APPID
  2
ACAD_MLEADERVER
 70
     0
  0
APPID
  2
ACAD_DSTYLE_DIMRADIAL_EXTE
 70
     0
  0
APPID
  2
ACADANNOTATIVE
 70
     0
  0
APPID
  2
ACAD_EXEMPT_FROM_CAD_STAND
 70
     0
  0
APPID
  2
ACDBBLOCKREPETAG
 70
     0
  0
APPID
  2
ACAD_OBJECT_CHANGE_GUID
 70
     0
  0
APPID
  2
ACLAYERTOOLS
 70
     0
  0
APPID
  2
ACAD_NAV_VCDISPLAY
 70
     0
  0
APPID
  2
ACAD_DSTYLE_DIMJOGGED_JOGA
 70
     0
  0
APPID
  2
ACAD_DSTYLE_DIM_LINETYPE
 70
     0
  0
APPID
  2
ACAD_DSTYLE_DIM_EXT1_LINET
 70
     0
  0
APPID
  2
ACAD_DSTYLE_DIM_EXT2_LINET
 70
     0
  0
APPID
  2
ACDBDYNAMICBLOCKTRUENAME
 70
     0
  0
APPID
  2
ACDBDYNAMICBLOCKGUID
 70
     0
  0
APPID
  2
ACDBBLOCKREPBTAG
 70
     0
  0
APPID
  2
ACAUTHENVIRON
 70
     0
  0
APPID
  2
ACADANNOPO
 70
     0
  0
APPID
  2
ACAECLAYERSTANDARD
 70
     0
  0
APPID
  2
ACAD_DIMASSOC_CALC_DIMLFAC
 70
     0
  0
APPID
  2
ACAD_DIMASSOC_DIMLFAC
 70
     0
  0
APPID
  2
ACAD_DIMASSOC_OVERRIDDEN_D
 70
     0
  0
APPID
  2
ACADANNOTATIVEDECOMPOSITIO
 70
     0
  0
ENDTAB
  0
TABLE
  2
DIMSTYLE
 70
    11
  0
DIMSTYLE
  2
NEWX10
 70
     0
  3
 
  4

  5

  6
OPEN30
  7
OPEN30
 40
1.0
 41
2.0
 42
0.0
 43
7.0
 44
1.0
 45
0.0
 46
0.0
 47
0.0
 48
0.0
140
3.5
141
0.0
142
0.0
143
25.4
144
1.0
145
0.0
146
0.7
147
0.7
 71
     0
 72
     0
 73
     0
 74
     0
 75
     0
 76
     0
 77
     1
 78
     8
170
     0
171
     2
172
     1
173
     1
174
     0
175
     0
176
   256
177
   256
178
   201
  0
DIMSTYLE
  2
ISO-25
 70
     0
  3

  4

  5

  6

  7

 40
1.0
 41
20.0
 42
3.0
 43
3.75
 44
2.0
 45
0.0
 46
0.0
 47
0.0
 48
0.0
140
30.0
141
5.0
142
0.0
143
0.03937
144
1.0
145
0.0
146
1.0
147
8.0
 71
     0
 72
     0
 73
     0
 74
     0
 75
     0
 76
     0
 77
     1
 78
     8
170
     0
171
     3
172
     1
173
     0
174
     0
175
     0
176
     1
177
     1
178
     1
  0
ENDTAB
  0
ENDSEC
  0
SECTION
  2
BLOCKS
  0
BLOCK
  8
0
  2
$MODEL_SPACE
 70
     0
 10
0.0
 20
0.0
 30
0.0
  3
$MODEL_SPACE
  1

  0
ENDBLK
  5
1A
  8
0
  0
BLOCK
 67
     1
  8
0
  2
$PAPER_SPACE
 70
     0
 10
0.0
 20
0.0
 30
0.0
  3
$PAPER_SPACE
  1

  0
ENDBLK
  5
17
 67
     1
  8
0
  0
BLOCK
  8
0
  2
_OPEN30
 70
     0
 10
0.0
 20
0.0
 30
0.0
  3
_OPEN30
  1

  0
LINE
  5
44
  8
0
  6
BYBLOCK
 62
     0
 10
-1.0
 20
0.26794919
 30
0.0
 11
0.0
 21
0.0
 31
0.0
  0
LINE
  5
45
  8
0
  6
BYBLOCK
 62
     0
 10
0.0
 20
0.0
 30
0.0
 11
-1.0
 21
-0.26794919
 31
0.0
  0
LINE
  5
46
  8
0
  6
BYBLOCK
 62
     0
 10
0.0
 20
0.0
 30
0.0
 11
-1.0
 21
0.0
 31
0.0
  0
ENDBLK
  5
47
  8
0
  0
BLOCK
  8
0
  2
A3WAKUKAWAJUN2017_HYOUDAI_
 70
     0
 10
0.0
 20
0.0
 30
0.0
  3
A3WAKUKAWAJUN2017_HYOUDAI_
  1

  0
LINE
  5
1FECB
  8
0
 10
13.26299999998673
 20
-0.0001000000000317
 30
0.0
 11
9.236999999990758
 21
8.999899999990987
 31
0.0
1001
ACAD
1000
ASC_BOUNDS
1002
{
1070
    19
1005
1FF0C
1002
}
  0
LINE
  5
1FECC
  8
0
 10
5.657999999994331
 20
0.9999999999989768
 30
0.0
 11
9.236999999990758
 21
8.999999999991019
 31
0.0
1001
ACAD
1000
ASC_BOUNDS
1002
{
1070
    19
1005
1FF0C
1002
}
  0
LINE
  5
1FECD
  8
0
 10
18.59199999998134
 20
-0.2368999999997641
 30
0.0
 11
16.46099999998353
 21
5.432899999994561
 31
0.0
1001
ACAD
1000
ASC_BOUNDS
1002
{
1070
    19
1005
1FF0D
1002
}
  0
LINE
  5
1FECE
  8
0
 10
18.59199999998134
 20
-0.2368999999997641
 30
0.0
 11
22.38199999997767
 21
8.763099999991255
 31
0.0
1001
ACAD
1000
ASC_BOUNDS
1002
{
1070
    19
1005
1FF0D
1002
}
  0
LINE
  5
1FECF
  8
0
 10
14.32899999998563
 20
-0.2368999999997641
 30
0.0
 11
16.46099999998353
 21
5.432899999994561
 31
0.0
1001
ACAD
1000
ASC_BOUNDS
1002
{
1070
    19
1005
1FF0D
1002
}
  0
LINE
  5
1FED0
  8
0
 10
14.32899999998563
 20
-0.2368999999997641
 30
0.0
 11
10.53899999998941
 21
8.763099999991255
 31
0.0
1001
ACAD
1000
ASC_BOUNDS
1002
{
1070
    19
1005
1FF0D
1002
}
  0
LINE
  5
1FED1
  8
0
 10
19.53899999998043
 20
-0.0001000000000317
 30
0.0
 11
23.56599999997638
 21
8.999899999990987
 31
0.0
1001
ACAD
1000
ASC_BOUNDS
1002
{
1070
    19
1005
1FF0E
1002
}
  0
LINE
  5
1FED2
  8
0
 10
26.97358892824991
 20
1.383099999991202
 30
0.0
 11
23.56599999997638
 21
8.999899999990987
 31
0.0
1001
ACAD
1000
ASC_BOUNDS
1002
{
1070
    19
1005
1FF0E
1002
}
  0
LINE
  5
1FED3
  8
0
 10
5.657999999994331
 20
0.9999999999989768
 30
0.0
 11
3.181999999996833
 21
4.668599999995308
 31
0.0
1001
ACAD
1000
ASC_BOUNDS
1002
{
1070
    19
1005
1FF0C
1002
}
  0
LINE
  5
1FED4
  8
0
 10
4.617999999995391
 20
-0.0001000000000317
 30
0.0
 11
1.420999999998571
 21
4.736799999995242
 31
0.0
1001
ACAD
1000
ASC_BOUNDS
1002
{
1070
    19
1005
1FF0C
1002
}
  0
LINE
  5
1FED5
  8
0
 10
1.420999999998571
 20
8.763099999991255
 30
0.0
 11
1.420999999998571
 21
0.0
 31
0.0
1001
ACAD
1000
ASC_BOUNDS
1002
{
1070
    19
1005
1FF11
1002
}
  0
LINE
  5
1FED6
  8
0
 10
0.0
 20
8.763099999991255
 30
0.0
 11
0.0
 21
0.0
 31
0.0
1001
ACAD
1000
ASC_BOUNDS
1002
{
1070
    19
1005
1FF11
1002
}
  0
LINE
  5
1FED7
  8
0
 10
6.766999999993232
 20
-0.0001000000000317
 30
0.0
 11
7.826999999992154
 21
2.368399999997621
 31
0.0
1001
ACAD
1000
ASC_BOUNDS
1002
{
1070
    19
1005
1FF0C
1002
}
  0
LINE
  5
1FED8
  8
0
 10
0.0
 20
0.0
 30
0.0
 11
1.420999999998571
 21
0.0
 31
0.0
1001
ACAD
1000
ASC_BOUNDS
1002
{
1070
    19
1005
1FF11
1002
}
  0
LINE
  5
1FED9
  8
0
 10
4.617999999995391
 20
0.0
 30
0.0
 11
6.766999999993232
 21
0.0
 31
0.0
1001
ACAD
1000
ASC_BOUNDS
1002
{
1070
    19
1005
1FF0C
1002
}
  0
LINE
  5
1FEDA
  8
0
 10
11.70599999998831
 20
-0.0001000000000317
 30
0.0
 11
10.64699999998936
 21
2.368399999997621
 31
0.0
1001
ACAD
1000
ASC_BOUNDS
1002
{
1070
    19
1005
1FF0C
1002
}
  0
LINE
  5
1FEDB
  8
0
 10
7.826999999992154
 20
2.368399999997621
 30
0.0
 11
10.64699999998936
 21
2.368399999997621
 31
0.0
1001
ACAD
1000
ASC_BOUNDS
1002
{
1070
    19
1005
1FF0C
1002
}
  0
LINE
  5
1FEDC
  8
0
 10
11.70599999998831
 20
0.0
 30
0.0
 11
13.26299999998673
 21
0.0
 31
0.0
1001
ACAD
1000
ASC_BOUNDS
1002
{
1070
    19
1005
1FF0C
1002
}
  0
LINE
  5
1FEDD
  8
0
 10
22.15599999997789
 20
2.368399999997621
 30
0.0
 11
24.97599999997499
 21
2.368399999997621
 31
0.0
1001
ACAD
1000
ASC_BOUNDS
1002
{
1070
    19
1005
1FF0E
1002
}
  0
LINE
  5
1FEDE
  8
0
 10
19.53899999998043
 20
0.0
 30
0.0
 11
21.09599999997886
 21
0.0
 31
0.0
1001
ACAD
1000
ASC_BOUNDS
1002
{
1070
    19
1005
1FF0E
1002
}
  0
LINE
  5
1FEDF
  8
0
 10
21.09599999997886
 20
-0.0001000000000317
 30
0.0
 11
22.15599999997789
 21
2.368399999997621
 31
0.0
1001
ACAD
1000
ASC_BOUNDS
1002
{
1070
    19
1005
1FF0E
1002
}
  0
LINE
  5
1FEE0
  8
0
 10
26.02015566812236
 20
0.0330999999912365
 30
0.0
 11
24.97599999997499
 21
2.368399999997621
 31
0.0
1001
ACAD
1000
ASC_BOUNDS
1002
{
1070
    19
1005
1FF0E
1002
}
  0
LINE
  5
1FEE1
  8
0
 10
14.32399999998563
 20
3.315799999996671
 30
0.0
 11
16.46099999998353
 21
8.999899999990987
 31
0.0
1001
ACAD
1000
ASC_BOUNDS
1002
{
1070
    19
1005
1FF0D
1002
}
  0
LINE
  5
1FEE2
  8
0
 10
6.432999999993513
 20
8.763099999991255
 30
0.0
 11
3.181999999996833
 21
4.668599999995308
 31
0.0
1001
ACAD
1000
ASC_BOUNDS
1002
{
1070
    19
1005
1FF0C
1002
}
  0
LINE
  5
1FEE3
  8
0
 10
4.617999999995391
 20
8.763099999991255
 30
0.0
 11
1.420999999998571
 21
4.736799999995242
 31
0.0
1001
ACAD
1000
ASC_BOUNDS
1002
{
1070
    19
1005
1FF0C
1002
}
  0
LINE
  5
1FEE4
  8
0
 10
0.0
 20
8.763099999991255
 30
0.0
 11
1.420999999998571
 21
8.763099999991255
 31
0.0
1001
ACAD
1000
ASC_BOUNDS
1002
{
1070
    19
1005
1FF11
1002
}
  0
LINE
  5
1FEE5
  8
0
 10
4.617999999995391
 20
8.763099999991255
 30
0.0
 11
6.432999999993513
 21
8.763099999991255
 31
0.0
1001
ACAD
1000
ASC_BOUNDS
1002
{
1070
    19
1005
1FF0C
1002
}
  0
LINE
  5
1FEE6
  8
0
 10
14.32399999998563
 20
3.315799999996671
 30
0.0
 11
12.02999999998792
 21
8.763099999991255
 31
0.0
1001
ACAD
1000
ASC_BOUNDS
1002
{
1070
    19
1005
1FF0D
1002
}
  0
LINE
  5
1FEE7
  8
0
 10
10.06399999998996
 20
3.670999999996297
 30
0.0
 11
9.236999999990758
 21
5.5200999999945
 31
0.0
1001
ACAD
1000
ASC_BOUNDS
1002
{
1070
    19
1005
1FF0C
1002
}
  0
LINE
  5
1FEE8
  8
0
 10
8.409999999991555
 20
3.670999999996297
 30
0.0
 11
9.236999999990758
 21
5.5200999999945
 31
0.0
1001
ACAD
1000
ASC_BOUNDS
1002
{
1070
    19
1005
1FF0C
1002
}
  0
LINE
  5
1FEE9
  8
0
 10
8.409999999991555
 20
3.670999999996297
 30
0.0
 11
10.06399999998996
 21
3.670999999996297
 31
0.0
1001
ACAD
1000
ASC_BOUNDS
1002
{
1070
    19
1005
1FF0C
1002
}
  0
LINE
  5
1FEEA
  8
0
 10
10.53899999998941
 20
8.763099999991255
 30
0.0
 11
12.02999999998792
 21
8.763099999991255
 31
0.0
1001
ACAD
1000
ASC_BOUNDS
1002
{
1070
    19
1005
1FF0D
1002
}
  0
LINE
  5
1FEEB
  8
0
 10
22.7389999999773
 20
3.670999999996297
 30
0.0
 11
23.56599999997638
 21
5.5200999999945
 31
0.0
1001
ACAD
1000
ASC_BOUNDS
1002
{
1070
    19
1005
1FF0E
1002
}
  0
LINE
  5
1FEEC
  8
0
 10
22.7389999999773
 20
3.670999999996297
 30
0.0
 11
24.39299999997559
 21
3.670999999996297
 31
0.0
1001
ACAD
1000
ASC_BOUNDS
1002
{
1070
    19
1005
1FF0E
1002
}
  0
LINE
  5
1FEED
  8
0
 10
18.59799999998143
 20
3.315799999996671
 30
0.0
 11
20.89099999997916
 21
8.763099999991255
 31
0.0
1001
ACAD
1000
ASC_BOUNDS
1002
{
1070
    19
1005
1FF0D
1002
}
  0
LINE
  5
1FEEE
  8
0
 10
18.59799999998143
 20
3.315799999996671
 30
0.0
 11
16.46099999998353
 21
8.999899999990987
 31
0.0
1001
ACAD
1000
ASC_BOUNDS
1002
{
1070
    19
1005
1FF0D
1002
}
  0
LINE
  5
1FEEF
  8
0
 10
20.89099999997916
 20
8.763099999991255
 30
0.0
 11
22.38199999997767
 21
8.763099999991255
 31
0.0
1001
ACAD
1000
ASC_BOUNDS
1002
{
1070
    19
1005
1FF0D
1002
}
  0
LINE
  5
1FEF0
  8
0
 10
24.39299999997559
 20
3.670999999996297
 30
0.0
 11
23.56599999997638
 21
5.5200999999945
 31
0.0
1001
ACAD
1000
ASC_BOUNDS
1002
{
1070
    19
1005
1FF0E
1002
}
  0
LINE
  5
1FEF1
  8
0
 10
44.99999999995498
 20
-0.2368999999997641
 30
0.0
 11
40.02599999995994
 21
5.341799999994635
 31
0.0
1001
ACAD
1000
ASC_BOUNDS
1002
{
1070
    19
1005
1FF10
1002
}
  0
LINE
  5
1FEF2
  8
0
 10
40.02599999995994
 20
5.341799999994635
 30
0.0
 11
40.02599999995994
 21
0.0
 31
0.0
1001
ACAD
1000
ASC_BOUNDS
1002
{
1070
    19
1005
1FF10
1002
}
  0
LINE
  5
1FEF3
  8
0
 10
38.60499999996136
 20
8.999999999991019
 30
0.0
 11
38.60499999996136
 21
0.0
 31
0.0
1001
ACAD
1000
ASC_BOUNDS
1002
{
1070
    19
1005
1FF10
1002
}
  0
LINE
  5
1FEF4
  8
0
 10
44.99999999995498
 20
8.763099999991255
 30
0.0
 11
44.99999999995498
 21
-0.2368999999997641
 31
0.0
1001
ACAD
1000
ASC_BOUNDS
1002
{
1070
    19
1005
1FF10
1002
}
  0
LINE
  5
1FEF5
  8
0
 10
38.60499999996136
 20
0.0
 30
0.0
 11
40.02599999995994
 21
0.0
 31
0.0
1001
ACAD
1000
ASC_BOUNDS
1002
{
1070
    19
1005
1FF10
1002
}
  0
LINE
  5
1FEF6
  8
0
 10
43.57899999995641
 20
3.421199999996588
 30
0.0
 11
38.60499999996136
 21
8.999899999990987
 31
0.0
1001
ACAD
1000
ASC_BOUNDS
1002
{
1070
    19
1005
1FF10
1002
}
  0
LINE
  5
1FEF7
  8
0
 10
43.57899999995641
 20
8.763099999991255
 30
0.0
 11
43.57899999995641
 21
3.421199999996588
 31
0.0
1001
ACAD
1000
ASC_BOUNDS
1002
{
1070
    19
1005
1FF10
1002
}
  0
LINE
  5
1FEF8
  8
0
 10
43.57899999995641
 20
8.763099999991255
 30
0.0
 11
44.99999999995498
 21
8.763099999991255
 31
0.0
1001
ACAD
1000
ASC_BOUNDS
1002
{
1070
    19
1005
1FF10
1002
}
  0
LINE
  5
1FEF9
  8
0
 10
37.67199999996831
 20
8.763099999991255
 30
0.0
 11
36.23199999996837
 21
8.763099999991255
 31
0.0
  0
LINE
  5
1FEFA
  8
0
 10
31.64199999996833
 20
8.763099999991255
 30
0.0
 11
31.64199999996833
 21
2.481619422925121
 31
0.0
  0
LINE
  5
1FEFB
  8
0
 10
37.67199999996831
 20
8.763099999991255
 30
0.0
 11
37.67199999996831
 21
2.481619422925121
 31
0.0
  0
LINE
  5
1FEFC
  8
0
 10
36.23199999996837
 20
8.763099999991255
 30
0.0
 11
36.23199999996837
 21
2.481619422925064
 31
0.0
  0
LINE
  5
1FEFD
  8
0
 10
33.08199999996839
 20
8.763099999991255
 30
0.0
 11
33.08199999996839
 21
2.481619422925121
 31
0.0
  0
ARC
  5
1FEFE
  8
0
 10
34.65699999996832
 20
3.183099999991214
 30
0.0
 40
3.420000000000007
 50
240.0000000000255
 51
299.9999999999766
  0
ARC
  5
1FEFF
  8
0
 10
34.65699999996832
 20
3.183099999991214
 30
0.0
 40
1.97999999999999
 50
240.000000000026
 51
299.9999999999703
  0
LINE
  5
1FF00
  8
0
 10
33.08199999996828
 20
8.763099999991255
 30
0.0
 11
31.64199999996833
 21
8.763099999991255
 31
0.0
  0
ARC
  5
1FF01
  8
0
 10
35.06199999996829
 20
2.481619422925064
 30
0.0
 40
1.17
 50
299.9999999999699
 51
0.0
  0
ARC
  5
1FF02
  8
0
 10
34.25199999996835
 20
2.481619422925121
 30
0.0
 40
1.17
 50
180.0
 51
240.0000000000238
  0
ARC
  5
1FF03
  8
0
 10
35.06199999996841
 20
2.481619422925121
 30
0.0
 40
2.61
 50
299.9999999999756
 51
0.0
  0
ARC
  5
1FF04
  8
0
 10
34.25199999996835
 20
2.481619422925121
 30
0.0
 40
2.61
 50
180.0
 51
240.0000000000244
  0
LINE
  5
1FF05
  8
0
 10
29.30199999996933
 20
8.763099999991255
 30
0.0
 11
30.74199999996927
 21
8.763099999991255
 31
0.0
1001
ACAD
1000
ASC_BOUNDS
1002
{
1070
    19
1005
1FF0E
1002
}
  0
LINE
  5
1FF06
  8
0
 10
30.74199999996927
 20
8.763099999991255
 30
0.0
 11
30.74199999996927
 21
2.373099999991211
 31
0.0
1001
ACAD
1000
ASC_BOUNDS
1002
{
1070
    19
1005
1FF0E
1002
}
  0
LINE
  5
1FF07
  8
0
 10
26.02015566812236
 20
0.0330999999912365
 30
0.0
 11
28.40199999996923
 21
0.0330999999912365
 31
0.0
1001
ACAD
1000
ASC_BOUNDS
1002
{
1070
    19
1005
1FF0E
1002
}
  0
LINE
  5
1FF08
  8
0
 10
29.30199999996933
 20
8.763099999991255
 30
0.0
 11
29.30199999996933
 21
2.283099999991236
 31
0.0
1001
ACAD
1000
ASC_BOUNDS
1002
{
1070
    19
1005
1FF0E
1002
}
  0
LINE
  5
1FF09
  8
0
 10
26.97358892824991
 20
1.383099999991202
 30
0.0
 11
28.40199999996923
 21
1.383099999991202
 31
0.0
1001
ACAD
1000
ASC_BOUNDS
1002
{
1070
    19
1005
1FF0E
1002
}
  0
ARC
  5
1FF0A
  8
0
 10
28.40199999996923
 20
2.283099999991236
 30
0.0
 40
0.9
 50
270.0
 51
0.0
1001
ACAD
1000
ASC_BOUNDS
1002
{
1070
    19
1005
1FF0E
1002
}
  0
ARC
  5
1FF0B
  8
0
 10
28.40199999996923
 20
2.373099999991211
 30
0.0
 40
2.34
 50
270.0
 51
0.0
1001
ACAD
1000
ASC_BOUNDS
1002
{
1070
    19
1005
1FF0E
1002
}
  0
INSERT
  5
1FF0C
  8
0
  2
*X322
 10
0.0
 20
0.0
 30
0.0
1001
ACAD
1000
HATCH
1002
{
1070
    19
1000
ANSI37
1040
0.15
1040
0.0
1000
ASC_BOUNDS
1070
     2
1070
     2
1070
    12
1005
1FECB
1005
1FECC
1005
1FED3
1005
1FEE2
1005
1FEE5
1005
1FEE3
1005
1FED4
1005
1FED9
1005
1FED7
1005
1FEDB
1005
1FEDA
1005
1FEDC
1070
     2
1070
     3
1005
1FEE7
1005
1FEE9
1005
1FEE8
1000
ASC_SEEDPOINT
1011
3.614004224891801
1021
2.996669441146025
1031
0.0
1021
2.996669441146025
1031
0.0
1000
R14_HATCH_DATA
1000
1FF0C
1011
1.0
1021
0.0
1031
0.0
1021
0.0
1031
0.0
1011
0.0
1021
1.0
1031
0.0
1021
1.0
1031
0.0
1011
0.0
1021
0.0
1031
1.0
1021
0.0
1031
1.0
1040
0.0
1010
0.0
1020
0.0
1030
1.0
1000
ANSI37
1070
     0
1070
     1
1071
        2
1071
        7
1070
     0
1070
     1
1071
       17
1040
13.26299999998673
1040
-0.0001000000000317
1040
9.236999999990758
1040
8.999899999990987
1040
9.236999999990758
1040
8.999999999991019
1040
5.657999999994331
1040
0.9999999999989768
1040
3.181999999996833
1040
4.668599999995308
1040
6.432999999993513
1040
8.763099999991255
1040
4.617999999995391
1040
8.763099999991255
1040
1.420999999998571
1040
4.736799999995242
1040
4.617999999995391
1040
-0.0001000000000317
1040
4.617999999995391
1040
0.0
1040
6.766999999993232
1040
0.0
1040
6.766999999993232
1040
-0.0001000000000317
1040
7.826999999992154
1040
2.368399999997621
1040
10.64699999998936
1040
2.368399999997621
1040
11.70599999998831
1040
-0.0001000000000317
1040
11.70599999998831
1040
0.0
1040
13.26299999998673
1040
0.0
1071
       12
1005
1FECB
1005
1FECC
1005
1FED3
1005
1FEE2
1005
1FEE5
1005
1FEE3
1005
1FED4
1005
1FED9
1005
1FED7
1005
1FEDB
1005
1FEDA
1005
1FEDC
1071
       22
1070
     0
1070
     1
1071
        3
1040
9.236999999990758
1040
5.5200999999945
1040
10.06399999998996
1040
3.670999999996297
1040
8.409999999991555
1040
3.670999999996297
1071
        3
1005
1FEE7
1005
1FEE9
1005
1FEE8
1070
     0
1070
     1
1040
0.0
1040
0.15
1070
     0
1070
     2
1040
0.7853981633974483
1040
49.29960901727088
1040
-10.17736998311392
1040
-0.3367596045400932
1040
0.3367596045400932
1070
     0
1040
2.356194490192345
1040
49.29960901727088
1040
-10.17736998311392
1040
-0.3367596045400932
1040
-0.3367596045400932
1070
     0
1040
0.0110235143455945
1071
        2
1040
3.614004224891801
1040
2.996669441146025
1040
0.0
1040
3.614004224891801
1040
2.996669441146025
1040
0.0
1002
}
  0
INSERT
  5
1FF0D
  8
0
  2
*X323
 10
0.0
 20
0.0
 30
0.0
1001
ACAD
1000
HATCH
1002
{
1070
    19
1000
ANSI37
1040
0.15
1040
0.0
1000
ASC_BOUNDS
1070
     1
1070
     2
1070
    10
1005
1FECD
1005
1FECE
1005
1FEEF
1005
1FEED
1005
1FEEE
1005
1FEE1
1005
1FEE6
1005
1FEEA
1005
1FED0
1005
1FECF
1000
ASC_SEEDPOINT
1011
14.73245321214324
1021
2.798246178283421
1031
0.0
1021
2.798246178283421
1031
0.0
1000
R14_HATCH_DATA
1000
1FF0D
1011
1.0
1021
0.0
1031
0.0
1021
0.0
1031
0.0
1011
0.0
1021
1.0
1031
0.0
1021
1.0
1031
0.0
1011
0.0
1021
0.0
1031
1.0
1021
0.0
1031
1.0
1040
0.0
1010
0.0
1020
0.0
1030
1.0
1000
ANSI37
1070
     0
1070
     1
1071
        1
1071
        7
1070
     0
1070
     1
1071
       10
1040
16.46099999998353
1040
5.432899999994561
1040
18.59199999998134
1040
-0.2368999999997641
1040
22.38199999997767
1040
8.763099999991255
1040
20.89099999997916
1040
8.763099999991255
1040
18.59799999998143
1040
3.315799999996671
1040
16.46099999998353
1040
8.999899999990987
1040
14.32399999998563
1040
3.315799999996671
1040
12.02999999998792
1040
8.763099999991255
1040
10.53899999998941
1040
8.763099999991255
1040
14.32899999998563
1040
-0.2368999999997641
1071
       10
1005
1FECD
1005
1FECE
1005
1FEEF
1005
1FEED
1005
1FEEE
1005
1FEE1
1005
1FEE6
1005
1FEEA
1005
1FED0
1005
1FECF
1070
     0
1070
     1
1040
0.0
1040
0.15
1070
     0
1070
     2
1040
0.7853981633974483
1040
49.29960901727088
1040
-10.17736998311392
1040
-0.3367596045400932
1040
0.3367596045400932
1070
     0
1040
2.356194490192345
1040
49.29960901727088
1040
-10.17736998311392
1040
-0.3367596045400932
1040
-0.3367596045400932
1070
     0
1040
0.0110235143455945
1071
        1
1040
14.73245321214324
1040
2.798246178283421
1040
0.0
1002
}
  0
INSERT
  5
1FF0E
  8
0
  2
*X324
 10
0.0
 20
0.0
 30
0.0
1001
ACAD
1000
HATCH
1002
{
1070
    19
1000
ANSI37
1040
0.15
1040
0.0
1000
ASC_BOUNDS
1070
     2
1070
     2
1070
    13
1005
1FED1
1005
1FEDE
1005
1FEDF
1005
1FEDD
1005
1FEE0
1005
1FF07
1005
1FF0B
1005
1FF06
1005
1FF05
1005
1FF08
1005
1FF0A
1005
1FF09
1005
1FED2
1070
     2
1070
     3
1005
1FEEB
1005
1FEF0
1005
1FEEC
1000
ASC_SEEDPOINT
1011
21.97929957367762
1021
3.294304244259308
1031
0.0
1021
3.294304244259308
1031
0.0
1000
R14_HATCH_DATA
1000
1FF0E
1011
1.0
1021
0.0
1031
0.0
1021
0.0
1031
0.0
1011
0.0
1021
1.0
1031
0.0
1021
1.0
1031
0.0
1011
0.0
1021
0.0
1031
1.0
1021
0.0
1031
1.0
1040
0.0
1010
0.0
1020
0.0
1030
1.0
1000
ANSI37
1070
     0
1070
     1
1071
        2
1071
        7
1070
     1
1070
     1
1071
       15
1040
23.56599999997638
1040
8.999899999990987
1040
0.0
1040
19.53899999998043
1040
-0.0001000000000317
1040
0.0
1040
19.53899999998043
1040
0.0
1040
0.0
1040
21.09599999997886
1040
0.0
1040
0.0
1040
21.09599999997886
1040
-0.0001000000000317
1040
0.0
1040
22.15599999997789
1040
2.368399999997621
1040
0.0
1040
24.97599999997499
1040
2.368399999997621
1040
0.0
1040
26.02015566812236
1040
0.0330999999912365
1040
0.0
1040
28.40199999996923
1040
0.0330999999912365
1040
0.414213562373095
1040
30.74199999996923
1040
2.373099999991211
1040
0.0
1040
30.74199999996927
1040
8.763099999991255
1040
0.0
1040
29.30199999996933
1040
8.763099999991255
1040
0.0
1040
29.30199999996933
1040
2.283099999991236
1040
-0.414213562373095
1040
28.40199999996923
1040
1.383099999991237
1040
0.0
1040
26.97358892824991
1040
1.383099999991202
1040
0.0
1071
       13
1005
1FED1
1005
1FEDE
1005
1FEDF
1005
1FEDD
1005
1FEE0
1005
1FF07
1005
1FF0B
1005
1FF06
1005
1FF05
1005
1FF08
1005
1FF0A
1005
1FF09
1005
1FED2
1071
       22
1070
     0
1070
     1
1071
        3
1040
22.7389999999773
1040
3.670999999996297
1040
23.56599999997638
1040
5.5200999999945
1040
24.39299999997559
1040
3.670999999996297
1071
        3
1005
1FEEB
1005
1FEF0
1005
1FEEC
1070
     0
1070
     1
1040
0.0
1040
0.15
1070
     0
1070
     2
1040
0.7853981633974483
1040
49.29960901727088
1040
-10.17736998311392
1040
-0.3367596045400932
1040
0.3367596045400932
1070
     0
1040
2.356194490192345
1040
49.29960901727088
1040
-10.17736998311392
1040
-0.3367596045400932
1040
-0.3367596045400932
1070
     0
1040
0.0110235143455945
1071
        2
1040
21.97929957367762
1040
3.294304244259308
1040
0.0
1040
21.97929957367762
1040
3.294304244259308
1040
0.0
1002
}
  0
INSERT
  5
1FF0F
  8
0
  2
*X325
 10
0.0
 20
0.0
 30
0.0
1001
ACAD
1000
HATCH
1002
{
1070
    19
1000
ANSI37
1040
0.15
1040
0.0
1000
R14_HATCH_DATA
1000
1FF0F
1011
1.0
1021
0.0
1031
0.0
1021
0.0
1031
0.0
1011
0.0
1021
1.0
1031
0.0
1021
1.0
1031
0.0
1011
0.0
1021
0.0
1031
1.0
1021
0.0
1031
1.0
1040
0.0
1010
0.0
1020
0.0
1030
1.0
1000
ANSI37
1070
     0
1070
     1
1071
        1
1071
        7
1070
     1
1070
     1
1071
       12
1040
31.64199999996833
1040
2.481619422925121
1040
0.2679491924310942
1040
32.94699999997067
1040
0.2212931190493919
1040
0.2679491924301353
1040
36.36699999995983
1040
0.2212931190459813
1040
0.2679491924321411
1040
37.67199999996831
1040
2.481619422928361
1040
0.0
1040
37.67199999996831
1040
8.763099999991255
1040
0.0
1040
36.23199999996837
1040
8.763099999991255
1040
0.0
1040
36.23199999996837
1040
2.481619422925064
1040
-0.2679491924310291
1040
35.64699999996708
1040
1.468369700498386
1040
-0.267949192430519
1040
33.66699999997093
1040
1.468369700497703
1040
-0.267949192431809
1040
33.08199999996839
1040
2.481619422926997
1040
0.0
1040
33.08199999996839
1040
8.763099999991255
1040
0.0
1040
31.64199999996833
1040
8.763099999991255
1040
0.0
1071
        0
1070
     0
1070
     1
1040
0.0
1040
0.15
1070
     0
1070
     2
1040
0.7853981633974483
1040
49.29960901727088
1040
-10.17736998311392
1040
-0.3367596045400932
1040
0.3367596045400932
1070
     0
1040
2.356194490192345
1040
49.29960901727088
1040
-10.17736998311392
1040
-0.3367596045400932
1040
-0.3367596045400932
1070
     0
1040
0.0110235143455945
1071
        1
1040
32.30357378967278
1040
3.988785755459219
1040
0.0
1002
}
  0
INSERT
  5
1FF10
  8
0
  2
*X326
 10
0.0
 20
0.0
 30
0.0
1001
ACAD
1000
HATCH
1002
{
1070
    19
1000
ANSI37
1040
0.15
1040
0.0
1000
ASC_BOUNDS
1070
     1
1070
     2
1070
     8
1005
1FEF1
1005
1FEF4
1005
1FEF8
1005
1FEF7
1005
1FEF6
1005
1FEF3
1005
1FEF5
1005
1FEF2
1000
ASC_SEEDPOINT
1011
39.74896370716704
1021
4.484843821435049
1031
0.0
1021
4.484843821435049
1031
0.0
1000
R14_HATCH_DATA
1000
1FF10
1011
1.0
1021
0.0
1031
0.0
1021
0.0
1031
0.0
1011
0.0
1021
1.0
1031
0.0
1021
1.0
1031
0.0
1011
0.0
1021
0.0
1031
1.0
1021
0.0
1031
1.0
1040
0.0
1010
0.0
1020
0.0
1030
1.0
1000
ANSI37
1070
     0
1070
     1
1071
        1
1071
        7
1070
     0
1070
     1
1071
        9
1040
40.02599999995994
1040
5.341799999994635
1040
44.99999999995498
1040
-0.2368999999997641
1040
44.99999999995498
1040
8.763099999991255
1040
43.57899999995641
1040
8.763099999991255
1040
43.57899999995641
1040
3.421199999996588
1040
38.60499999996136
1040
8.999899999990987
1040
38.60499999996136
1040
8.999999999991019
1040
38.60499999996136
1040
0.0
1040
40.02599999995994
1040
0.0
1071
        8
1005
1FEF1
1005
1FEF4
1005
1FEF8
1005
1FEF7
1005
1FEF6
1005
1FEF3
1005
1FEF5
1005
1FEF2
1070
     0
1070
     1
1040
0.0
1040
0.15
1070
     0
1070
     2
1040
0.7853981633974483
1040
49.29960901727088
1040
-10.17736998311392
1040
-0.3367596045400932
1040
0.3367596045400932
1070
     0
1040
2.356194490192345
1040
49.29960901727088
1040
-10.17736998311392
1040
-0.3367596045400932
1040
-0.3367596045400932
1070
     0
1040
0.0110235143455945
1071
        1
1040
39.74896370716704
1040
4.484843821435049
1040
0.0
1002
}
  0
INSERT
  5
1FF11
  8
0
  2
*X327
 10
0.0
 20
0.0
 30
0.0
1001
ACAD
1000
HATCH
1002
{
1070
    19
1000
ANSI37
1040
0.15
1040
0.0
1000
ASC_BOUNDS
1070
     1
1070
     2
1070
     4
1005
1FED5
1005
1FEE4
1005
1FED6
1005
1FED8
1000
ASC_SEEDPOINT
1011
1.079051535452663
1021
4.148538732891836
1031
0.0
1021
4.148538732891836
1031
0.0
1000
R14_HATCH_DATA
1000
1FF11
1011
1.0
1021
0.0
1031
0.0
1021
0.0
1031
0.0
1011
0.0
1021
1.0
1031
0.0
1021
1.0
1031
0.0
1011
0.0
1021
0.0
1031
1.0
1021
0.0
1031
1.0
1040
0.0
1010
0.0
1020
0.0
1030
1.0
1000
ANSI37
1070
     0
1070
     1
1071
        1
1071
        7
1070
     0
1070
     1
1071
        4
1040
1.420999999998571
1040
0.0
1040
1.420999999998571
1040
8.763099999991255
1040
0.0
1040
8.763099999991255
1040
0.0
1040
0.0
1071
        4
1005
1FED5
1005
1FEE4
1005
1FED6
1005
1FED8
1070
     0
1070
     1
1040
0.0
1040
0.15
1070
     0
1070
     2
1040
0.7853981633974483
1040
49.29960901727088
1040
-10.17736998311392
1040
-0.3367596045400932
1040
0.3367596045400932
1070
     0
1040
2.356194490192345
1040
49.29960901727088
1040
-10.17736998311392
1040
-0.3367596045400932
1040
-0.3367596045400932
1070
     0
1040
0.0053004257112761
1071
        1
1040
1.079051535452663
1040
4.148538732891836
1040
0.0
1002
}
  0
ENDBLK
  5
205D6
  8
0
  0
BLOCK
  8
0
  2
*X322
 70
     1
 10
0.0
 20
0.0
 30
0.0
  3
*X322
  1

  0
LINE
  5
2506B
  8
0
  6
CONTINUOUS
 10
3.418023043697893
 20
7.251849696850613
 30
0.0
 11
4.929273346838536
 21
8.763099999991255
 31
0.0
  0
LINE
  5
2506C
  8
0
  6
CONTINUOUS
 10
1.483656411257782
 20
4.643963855330318
 30
0.0
 11
5.60279255591872
 21
8.763099999991255
 31
0.0
  0
LINE
  5
2506D
  8
0
  6
CONTINUOUS
 10
1.755053947328235
 20
4.241842182320584
 30
0.0
 11
6.276311764998907
 21
8.763099999991255
 31
0.0
  0
LINE
  5
2506E
  8
0
  6
CONTINUOUS
 10
2.026451483398688
 20
3.839720509310849
 30
0.0
 11
4.441040904851878
 21
6.254309930764039
 31
0.0
  0
LINE
  5
2506F
  8
0
  6
CONTINUOUS
 10
2.297849019469139
 20
3.437598836301114
 30
0.0
 11
3.321765168359338
 21
4.461514985191313
 31
0.0
  0
LINE
  5
25070
  8
0
  6
CONTINUOUS
 10
2.569246555539591
 20
3.03547716329138
 30
0.0
 11
3.593163397972743
 21
4.059394005724531
 31
0.0
  0
LINE
  5
25071
  8
0
  6
CONTINUOUS
 10
2.840644091610043
 20
2.633355490281646
 30
0.0
 11
3.864561627586149
 21
3.657273026257751
 31
0.0
  0
LINE
  5
25072
  8
0
  6
CONTINUOUS
 10
3.112041627680496
 20
2.231233817271911
 30
0.0
 11
4.135959857199554
 21
3.25515204679097
 31
0.0
  0
LINE
  5
25073
  8
0
  6
CONTINUOUS
 10
3.383439163750948
 20
1.829112144262177
 30
0.0
 11
4.40735808681296
 21
2.853031067324189
 31
0.0
  0
LINE
  5
25074
  8
0
  6
CONTINUOUS
 10
3.654836699821399
 20
1.426990471252442
 30
0.0
 11
4.678756316426365
 21
2.450910087857407
 31
0.0
  0
LINE
  5
25075
  8
0
  6
CONTINUOUS
 10
3.926234235891853
 20
1.024868798242709
 30
0.0
 11
4.95015454603977
 21
2.048789108390626
 31
0.0
  0
LINE
  5
25076
  8
0
  6
CONTINUOUS
 10
4.197631771962304
 20
0.6227471252329737
 30
0.0
 11
5.221552775653176
 21
1.646668128923846
 31
0.0
  0
LINE
  5
25077
  8
0
  6
CONTINUOUS
 10
8.715877546767851
 20
7.835069736359266
 30
0.0
 11
9.435953450375058
 21
8.555145639966472
 31
0.0
  0
LINE
  5
25078
  8
0
  6
CONTINUOUS
 10
8.170620868422267
 20
6.616293848933497
 30
0.0
 11
9.644120833743461
 21
8.08979381425469
 31
0.0
  0
LINE
  5
25079
  8
0
  6
CONTINUOUS
 10
7.625364190076684
 20
5.397517961507727
 30
0.0
 11
9.852288217111864
 21
7.624441988542907
 31
0.0
  0
LINE
  5
2507A
  8
0
  6
CONTINUOUS
 10
7.080107511731101
 20
4.178742074081957
 30
0.0
 11
10.06045560048027
 21
7.159090162831124
 31
0.0
  0
LINE
  5
2507B
  8
0
  6
CONTINUOUS
 10
6.534850833385518
 20
2.959966186656187
 30
0.0
 11
10.26862298384867
 21
6.693738337119342
 31
0.0
  0
LINE
  5
2507C
  8
0
  6
CONTINUOUS
 10
4.469029308032756
 20
0.2206254522232385
 30
0.0
 11
5.492951005266582
 21
1.244547149457064
 31
0.0
  0
LINE
  5
2507D
  8
0
  6
CONTINUOUS
 10
5.989594155039935
 20
1.741190299230417
 30
0.0
 11
8.806950407233131
 21
4.558546551423613
 31
0.0
  0
LINE
  5
2507E
  8
0
  6
CONTINUOUS
 10
9.401251593263643
 20
5.152847737454126
 30
0.0
 11
10.47679036721708
 21
6.228386511407559
 31
0.0
  0
LINE
  5
2507F
  8
0
  6
CONTINUOUS
 10
4.921837203428691
 20
-0.0000858614610131
 30
0.0
 11
8.592923064886001
 21
3.670999999996297
 31
0.0
  0
LINE
  5
25080
  8
0
  6
CONTINUOUS
 10
9.609390446785305
 20
4.6874673818956
 30
0.0
 11
10.68495775058548
 21
5.763034685695775
 31
0.0
  0
LINE
  5
25081
  8
0
  6
CONTINUOUS
 10
5.595387755019432
 20
-0.0000545189504582
 30
0.0
 11
7.716137258923768
 21
2.120694984953879
 31
0.0
  0
LINE
  5
25082
  8
0
  6
CONTINUOUS
 10
6.268938306610172
 20
-0.000023176439905
 30
0.0
 11
7.170485805526503
 21
0.9015243224764267
 31
0.0
  0
LINE
  5
25083
  8
0
  6
CONTINUOUS
 10
7.963842273967511
 20
2.368399999997621
 30
0.0
 11
9.266442273966188
 21
3.670999999996297
 31
0.0
  0
LINE
  5
25084
  8
0
  6
CONTINUOUS
 10
8.637361483047696
 20
2.368399999997621
 30
0.0
 11
9.939961483046375
 21
3.670999999996297
 31
0.0
  0
LINE
  5
25085
  8
0
  6
CONTINUOUS
 10
9.817529300306965
 20
4.222087026337075
 30
0.0
 11
10.89312513395388
 21
5.297682859983993
 31
0.0
  0
LINE
  5
25086
  8
0
  6
CONTINUOUS
 10
10.02566815382863
 20
3.756706670778549
 30
0.0
 11
11.10129251732229
 21
4.832331034272211
 31
0.0
  0
LINE
  5
25087
  8
0
  6
CONTINUOUS
 10
9.310880692127883
 20
2.368399999997621
 30
0.0
 11
11.30945990069069
 21
4.366979208560428
 31
0.0
  0
LINE
  5
25088
  8
0
  6
CONTINUOUS
 10
9.98439990120807
 20
2.36839999999762
 30
0.0
 11
11.5176272840591
 21
3.901627382848645
 31
0.0
  0
LINE
  5
25089
  8
0
  6
CONTINUOUS
 10
10.65037369446246
 20
2.36085458417182
 30
0.0
 11
11.7257946674275
 21
3.436275557136862
 31
0.0
  0
LINE
  5
2508A
  8
0
  6
CONTINUOUS
 10
10.85847197087848
 20
1.895433651507656
 30
0.0
 11
11.9339620507959
 21
2.97092373142508
 31
0.0
  0
LINE
  5
2508B
  8
0
  6
CONTINUOUS
 10
11.0665702472945
 20
1.430012718843491
 30
0.0
 11
12.14212943416431
 21
2.505571905713296
 31
0.0
  0
LINE
  5
2508C
  8
0
  6
CONTINUOUS
 10
11.27466852371052
 20
0.9645917861793256
 30
0.0
 11
12.35029681753271
 21
2.040220080001513
 31
0.0
  0
LINE
  5
2508D
  8
0
  6
CONTINUOUS
 10
11.48276680012654
 20
0.4991708535151611
 30
0.0
 11
12.55846420090111
 21
1.57486825428973
 31
0.0
  0
LINE
  5
2508E
  8
0
  6
CONTINUOUS
 10
11.69086507654257
 20
0.0337499208509957
 30
0.0
 11
12.76663158426952
 21
1.109516428577947
 31
0.0
  0
LINE
  5
2508F
  8
0
  6
CONTINUOUS
 10
12.33057447873954
 20
-0.0000598860322123
 30
0.0
 11
12.97479896763792
 21
0.6441646028661663
 31
0.0
  0
LINE
  5
25090
  8
0
  6
CONTINUOUS
 10
13.00413694809395
 20
-0.0000166257579952
 30
0.0
 11
13.18296635100632
 21
0.1788127771543824
 31
0.0
  0
LINE
  5
25091
  8
0
  6
CONTINUOUS
 10
4.772852165289667
 20
-0.000092794222212
 30
0.0
 11
4.296495091028902
 21
0.4762642800385528
 31
0.0
  0
LINE
  5
25092
  8
0
  6
CONTINUOUS
 10
5.446340034776103
 20
-0.0000614546284616
 30
0.0
 11
2.898195908335625
 21
2.548082671812017
 31
0.0
  0
LINE
  5
25093
  8
0
  6
CONTINUOUS
 10
6.119827904262539
 20
-0.0000301150347113
 30
0.0
 11
1.499896725642348
 21
4.61990106358548
 31
0.0
  0
LINE
  5
25094
  8
0
  6
CONTINUOUS
 10
6.775136745476159
 20
0.0181802528318542
 30
0.0
 11
5.699826040202669
 21
1.093490958105344
 31
0.0
  0
LINE
  5
25095
  8
0
  6
CONTINUOUS
 10
6.983376846288489
 20
0.4834593610997118
 30
0.0
 11
5.908008617934405
 21
1.558827589453796
 31
0.0
  0
LINE
  5
25096
  8
0
  6
CONTINUOUS
 10
5.377063484962296
 20
1.416253513345719
 30
0.0
 11
1.702276957014131
 21
5.091040041293883
 31
0.0
  0
LINE
  5
25097
  8
0
  6
CONTINUOUS
 10
3.978745891735324
 20
3.488090315652877
 30
0.0
 11
2.000373521109399
 21
5.466462686278803
 31
0.0
  0
LINE
  5
25098
  8
0
  6
CONTINUOUS
 10
7.191616947100819
 20
0.948738469367568
 30
0.0
 11
6.11619119566614
 21
2.024164220802247
 31
0.0
  0
LINE
  5
25099
  8
0
  6
CONTINUOUS
 10
7.399857047913149
 20
1.414017577635424
 30
0.0
 11
6.324373773397875
 21
2.489500852150698
 31
0.0
  0
LINE
  5
2509A
  8
0
  6
CONTINUOUS
 10
7.608097148725479
 20
1.879296685903281
 30
0.0
 11
6.53255635112961
 21
2.95483748349915
 31
0.0
  0
LINE
  5
2509B
  8
0
  6
CONTINUOUS
 10
7.816337249537808
 20
2.344575794171138
 30
0.0
 11
6.740738928861345
 21
3.420174114847601
 31
0.0
  0
LINE
  5
2509C
  8
0
  6
CONTINUOUS
 10
3.310241080789734
 20
4.830114335678653
 30
0.0
 11
2.298470085204666
 21
5.84188533126372
 31
0.0
  0
LINE
  5
2509D
  8
0
  6
CONTINUOUS
 10
3.60832983563551
 20
5.205544789913063
 30
0.0
 11
2.596566649299935
 21
6.217307976248638
 31
0.0
  0
LINE
  5
2509E
  8
0
  6
CONTINUOUS
 10
3.906418590481286
 20
5.580975244147473
 30
0.0
 11
2.894663213395203
 21
6.592730621233557
 31
0.0
  0
LINE
  5
2509F
  8
0
  6
CONTINUOUS
 10
4.204507345327062
 20
5.956405698381884
 30
0.0
 11
3.192759777490472
 21
6.968153266218474
 31
0.0
  0
LINE
  5
250A0
  8
0
  6
CONTINUOUS
 10
8.466032252791512
 20
2.368399999997621
 30
0.0
 11
6.948921506593081
 21
3.885510746196053
 31
0.0
  0
LINE
  5
250A1
  8
0
  6
CONTINUOUS
 10
9.139551461871699
 20
2.36839999999762
 30
0.0
 11
7.157104084324816
 21
4.350847377544504
 31
0.0
  0
LINE
  5
250A2
  8
0
  6
CONTINUOUS
 10
4.502596100172839
 20
6.331836152616295
 30
0.0
 11
3.49085634158574
 21
7.343575911203393
 31
0.0
  0
LINE
  5
250A3
  8
0
  6
CONTINUOUS
 10
4.800684855018615
 20
6.707266606850705
 30
0.0
 11
3.788952905681008
 21
7.718998556188312
 31
0.0
  0
LINE
  5
250A4
  8
0
  6
CONTINUOUS
 10
12.18154012887317
 20
-0.0000694579236642
 30
0.0
 11
11.32140332908496
 21
0.8600673418645499
 31
0.0
  0
LINE
  5
250A5
  8
0
  6
CONTINUOUS
 10
12.85501608323566
 20
-0.0000262032059659
 30
0.0
 11
10.77672456435345
 21
2.078265315676246
 31
0.0
  0
LINE
  5
250A6
  8
0
  6
CONTINUOUS
 10
9.813070670951886
 20
2.36839999999762
 30
0.0
 11
8.51047067095321
 21
3.670999999996297
 31
0.0
  0
LINE
  5
250A7
  8
0
  6
CONTINUOUS
 10
10.48658988003207
 20
2.36839999999762
 30
0.0
 11
9.183989880033396
 21
3.670999999996297
 31
0.0
  0
LINE
  5
250A8
  8
0
  6
CONTINUOUS
 10
8.441048632286794
 20
3.740422038662712
 30
0.0
 11
7.365286662056551
 21
4.816184008892956
 31
0.0
  0
LINE
  5
250A9
  8
0
  6
CONTINUOUS
 10
8.649187485808454
 20
4.205802394221237
 30
0.0
 11
7.573469239788285
 21
5.281520640241407
 31
0.0
  0
LINE
  5
250AA
  8
0
  6
CONTINUOUS
 10
5.098773609864391
 20
7.082697061085115
 30
0.0
 11
4.087049469776277
 21
8.09442120117323
 31
0.0
  0
LINE
  5
250AB
  8
0
  6
CONTINUOUS
 10
5.396862364710167
 20
7.458127515319526
 30
0.0
 11
4.385146033871544
 21
8.469843846158149
 31
0.0
  0
LINE
  5
250AC
  8
0
  6
CONTINUOUS
 10
13.04801363231285
 20
0.4804954567970334
 30
0.0
 11
9.85750908911358
 21
3.670999999996297
 31
0.0
  0
LINE
  5
250AD
  8
0
  6
CONTINUOUS
 10
8.857326339330116
 20
4.671182749779763
 30
0.0
 11
7.781651817520021
 21
5.746857271589858
 31
0.0
  0
LINE
  5
250AE
  8
0
  6
CONTINUOUS
 10
5.694951119555943
 20
7.833557969553937
 30
0.0
 11
4.765409089118624
 21
8.763099999991255
 31
0.0
  0
LINE
  5
250AF
  8
0
  6
CONTINUOUS
 10
12.50286117236978
 20
1.699167125820288
 30
0.0
 11
9.68611877250287
 21
4.515909525687196
 31
0.0
  0
LINE
  5
250B0
  8
0
  6
CONTINUOUS
 10
9.065465192851777
 20
5.136563105338288
 30
0.0
 11
7.989834395251757
 21
6.21219390293831
 31
0.0
  0
LINE
  5
250B1
  8
0
  6
CONTINUOUS
 10
5.993039874401719
 20
8.208988423788346
 30
0.0
 11
5.43892829819881
 21
8.763099999991255
 31
0.0
  0
LINE
  5
250B2
  8
0
  6
CONTINUOUS
 10
11.95770871242671
 20
2.917838794843543
 30
0.0
 11
8.19801697298349
 21
6.677530534286761
 31
0.0
  0
LINE
  5
250B3
  8
0
  6
CONTINUOUS
 10
6.291128629247495
 20
8.584418878022756
 30
0.0
 11
6.112447507278997
 21
8.763099999991255
 31
0.0
  0
LINE
  5
250B4
  8
0
  6
CONTINUOUS
 10
11.41255625248364
 20
4.136510463866797
 30
0.0
 11
8.406199550715227
 21
7.142867165635211
 31
0.0
  0
LINE
  5
250B5
  8
0
  6
CONTINUOUS
 10
10.86740379254057
 20
5.355182132890051
 30
0.0
 11
8.614382128446962
 21
7.608203796983664
 31
0.0
  0
LINE
  5
250B6
  8
0
  6
CONTINUOUS
 10
10.3222513325975
 20
6.573853801913305
 30
0.0
 11
8.822564706178696
 21
8.073540428332114
 31
0.0
  0
LINE
  5
250B7
  8
0
  6
CONTINUOUS
 10
9.777098872654436
 20
7.792525470936562
 30
0.0
 11
9.030747283910433
 21
8.538877059680566
 31
0.0
  0
ENDBLK
  5
251F9
  8
0
  0
BLOCK
  8
0
  2
*X323
 70
     1
 10
0.0
 20
0.0
 30
0.0
  3
*X323
  1

  0
LINE
  5
250B9
  8
0
  6
CONTINUOUS
 10
10.67292308101235
 20
8.445076852443387
 30
0.0
 11
10.99094622856022
 21
8.763099999991255
 31
0.0
  0
LINE
  5
250BA
  8
0
  6
CONTINUOUS
 10
10.87250383178748
 20
7.971138394138331
 30
0.0
 11
11.6644654376404
 21
8.763099999991255
 31
0.0
  0
LINE
  5
250BB
  8
0
  6
CONTINUOUS
 10
11.07208458256261
 20
7.497199935833273
 30
0.0
 11
12.12126590876355
 21
8.546381262034211
 31
0.0
  0
LINE
  5
250BC
  8
0
  6
CONTINUOUS
 10
11.27166533333774
 20
7.023261477528216
 30
0.0
 11
12.32085164573666
 21
8.072447789927136
 31
0.0
  0
LINE
  5
250BD
  8
0
  6
CONTINUOUS
 10
11.47124608411287
 20
6.549323019223158
 30
0.0
 11
12.52043738270977
 21
7.59851431782006
 31
0.0
  0
LINE
  5
250BE
  8
0
  6
CONTINUOUS
 10
11.670826834888
 20
6.075384560918101
 30
0.0
 11
12.72002311968288
 21
7.124580845712984
 31
0.0
  0
LINE
  5
250BF
  8
0
  6
CONTINUOUS
 10
11.87040758566313
 20
5.601446102613043
 30
0.0
 11
12.91960885665599
 21
6.650647373605907
 31
0.0
  0
LINE
  5
250C0
  8
0
  6
CONTINUOUS
 10
12.06998833643825
 20
5.127507644307986
 30
0.0
 11
13.1191945936291
 21
6.176713901498832
 31
0.0
  0
LINE
  5
250C1
  8
0
  6
CONTINUOUS
 10
12.26956908721338
 20
4.65356918600293
 30
0.0
 11
13.31878033060221
 21
5.702780429391757
 31
0.0
  0
LINE
  5
250C2
  8
0
  6
CONTINUOUS
 10
12.46914983798851
 20
4.179630727697873
 30
0.0
 11
13.51836606757532
 21
5.228846957284683
 31
0.0
  0
LINE
  5
250C3
  8
0
  6
CONTINUOUS
 10
12.66873058876364
 20
3.705692269392816
 30
0.0
 11
13.71795180454843
 21
4.754913485177607
 31
0.0
  0
LINE
  5
250C4
  8
0
  6
CONTINUOUS
 10
12.86831133953877
 20
3.231753811087759
 30
0.0
 11
13.91753754152154
 21
4.280980013070531
 31
0.0
  0
LINE
  5
250C5
  8
0
  6
CONTINUOUS
 10
13.0678920903139
 20
2.757815352782702
 30
0.0
 11
14.11712327849465
 21
3.807046540963456
 31
0.0
  0
LINE
  5
250C6
  8
0
  6
CONTINUOUS
 10
13.26747284108903
 20
2.283876894477644
 30
0.0
 11
14.31670901546777
 21
3.333113068856379
 31
0.0
  0
LINE
  5
250C7
  8
0
  6
CONTINUOUS
 10
16.36767838827179
 20
8.751678487061342
 30
0.0
 11
16.50332410898388
 21
8.887324207773432
 31
0.0
  0
LINE
  5
250C8
  8
0
  6
CONTINUOUS
 10
15.96190732182191
 20
7.67238821153127
 30
0.0
 11
16.68735328004734
 21
8.397834169756699
 31
0.0
  0
LINE
  5
250C9
  8
0
  6
CONTINUOUS
 10
15.55613625537202
 20
6.593097936001196
 30
0.0
 11
16.87138245111079
 21
7.908344131739965
 31
0.0
  0
LINE
  5
250CA
  8
0
  6
CONTINUOUS
 10
15.15036518892213
 20
5.513807660471122
 30
0.0
 11
17.05541162217424
 21
7.418854093723231
 31
0.0
  0
LINE
  5
250CB
  8
0
  6
CONTINUOUS
 10
14.74459412247225
 20
4.434517384941048
 30
0.0
 11
17.2394407932377
 21
6.929364055706499
 31
0.0
  0
LINE
  5
250CC
  8
0
  6
CONTINUOUS
 10
14.33882305602236
 20
3.355227109410975
 30
0.0
 11
17.42346996430115
 21
6.439874017689766
 31
0.0
  0
LINE
  5
250CD
  8
0
  6
CONTINUOUS
 10
13.46705359186416
 20
1.809938436172586
 30
0.0
 11
16.0819338255367
 21
4.424818669845129
 31
0.0
  0
LINE
  5
250CE
  8
0
  6
CONTINUOUS
 10
16.63283254238972
 20
4.975717386698149
 30
0.0
 11
17.60749913536461
 21
5.950383979673033
 31
0.0
  0
LINE
  5
250CF
  8
0
  6
CONTINUOUS
 10
13.66663434263929
 20
1.335999977867529
 30
0.0
 11
15.67604797733754
 21
3.345413612565779
 31
0.0
  0
LINE
  5
250D0
  8
0
  6
CONTINUOUS
 10
13.86621509341442
 20
0.8620615195624723
 30
0.0
 11
15.27016212913838
 21
2.26600855528643
 31
0.0
  0
LINE
  5
250D1
  8
0
  6
CONTINUOUS
 10
16.81682257348267
 20
4.486188208710908
 30
0.0
 11
17.79152830642806
 21
5.460893941656299
 31
0.0
  0
LINE
  5
250D2
  8
0
  6
CONTINUOUS
 10
17.00081260457561
 20
3.996659030723667
 30
0.0
 11
17.97555747749151
 21
4.971403903639565
 31
0.0
  0
LINE
  5
250D3
  8
0
  6
CONTINUOUS
 10
20.74362343514722
 20
8.412989070375462
 30
0.0
 11
21.09373436476302
 21
8.763099999991256
 31
0.0
  0
LINE
  5
250D4
  8
0
  6
CONTINUOUS
 10
20.25401257174777
 20
7.249858997895826
 30
0.0
 11
21.7672535738432
 21
8.763099999991255
 31
0.0
  0
LINE
  5
250D5
  8
0
  6
CONTINUOUS
 10
14.06579584418955
 20
0.3881230612574149
 30
0.0
 11
14.86427628093921
 21
1.186603498007082
 31
0.0
  0
LINE
  5
250D6
  8
0
  6
CONTINUOUS
 10
14.26537659496467
 20
-0.0858153970476412
 30
0.0
 11
14.45839043274005
 21
0.1071984407277329
 31
0.0
  0
LINE
  5
250D7
  8
0
  6
CONTINUOUS
 10
17.18480263566856
 20
3.507129852736426
 30
0.0
 11
18.15958664855496
 21
4.481913865622833
 31
0.0
  0
LINE
  5
250D8
  8
0
  6
CONTINUOUS
 10
17.3687926667615
 20
3.017600674749186
 30
0.0
 11
18.34361581961842
 21
3.9924238276061
 31
0.0
  0
LINE
  5
250D9
  8
0
  6
CONTINUOUS
 10
19.76440170834832
 20
6.086728925416191
 30
0.0
 11
22.33924590259489
 21
8.661573119662755
 31
0.0
  0
LINE
  5
250DA
  8
0
  6
CONTINUOUS
 10
19.27479084494887
 20
4.923598852936555
 30
0.0
 11
21.84929622842713
 21
7.498104236414807
 31
0.0
  0
LINE
  5
250DB
  8
0
  6
CONTINUOUS
 10
17.55278269785445
 20
2.528071496761945
 30
0.0
 11
18.52764499068187
 21
3.502933789589366
 31
0.0
  0
LINE
  5
250DC
  8
0
  6
CONTINUOUS
 10
18.78517998154942
 20
3.760468780456919
 30
0.0
 11
21.35934655425936
 21
6.33463535316686
 31
0.0
  0
LINE
  5
250DD
  8
0
  6
CONTINUOUS
 10
17.73677272894739
 20
2.038542318774704
 30
0.0
 11
20.8693968800916
 21
5.171166469918914
 31
0.0
  0
LINE
  5
250DE
  8
0
  6
CONTINUOUS
 10
17.92076276004034
 20
1.549013140787464
 30
0.0
 11
20.37944720592384
 21
4.007697586670968
 31
0.0
  0
LINE
  5
250DF
  8
0
  6
CONTINUOUS
 10
18.10475279113329
 20
1.059483962800223
 30
0.0
 11
19.88949753175608
 21
2.84422870342302
 31
0.0
  0
LINE
  5
250E0
  8
0
  6
CONTINUOUS
 10
18.28874282222623
 20
0.5699547848129822
 30
0.0
 11
19.39954785758832
 21
1.680759820175074
 31
0.0
  0
LINE
  5
250E1
  8
0
  6
CONTINUOUS
 10
18.47273285331918
 20
0.0804256068257416
 30
0.0
 11
18.90959818342056
 21
0.517290936927127
 31
0.0
  0
LINE
  5
250E2
  8
0
  6
CONTINUOUS
 10
14.3590401358224
 20
-0.1570118376323384
 30
0.0
 11
14.24903296539946
 21
-0.0470046672093929
 31
0.0
  0
LINE
  5
250E3
  8
0
  6
CONTINUOUS
 10
14.54309291258661
 20
0.332454594683643
 30
0.0
 11
13.75908329123172
 21
1.116464216038529
 31
0.0
  0
LINE
  5
250E4
  8
0
  6
CONTINUOUS
 10
14.72714568935081
 20
0.8219210269996244
 30
0.0
 11
13.26913361706399
 21
2.27993309928645
 31
0.0
  0
LINE
  5
250E5
  8
0
  6
CONTINUOUS
 10
14.91119846611502
 20
1.311387459315606
 30
0.0
 11
12.77918394289625
 21
3.443401982534371
 31
0.0
  0
LINE
  5
250E6
  8
0
  6
CONTINUOUS
 10
15.09525124287922
 20
1.800853891631587
 30
0.0
 11
12.28923426872852
 21
4.606870865782293
 31
0.0
  0
LINE
  5
250E7
  8
0
  6
CONTINUOUS
 10
15.27930401964343
 20
2.290320323947569
 30
0.0
 11
11.79928459456078
 21
5.770339749030213
 31
0.0
  0
LINE
  5
250E8
  8
0
  6
CONTINUOUS
 10
15.46335679640763
 20
2.77978675626355
 30
0.0
 11
14.48885470994921
 21
3.754288842721972
 31
0.0
  0
LINE
  5
250E9
  8
0
  6
CONTINUOUS
 10
13.88507249233704
 20
4.358071060334137
 30
0.0
 11
11.30933492039305
 21
6.933808632278135
 31
0.0
  0
LINE
  5
250EA
  8
0
  6
CONTINUOUS
 10
18.75840522805855
 20
0.1582575336928151
 30
0.0
 11
18.25383727664818
 21
0.6628254851031863
 31
0.0
  0
LINE
  5
250EB
  8
0
  6
CONTINUOUS
 10
15.64740957317184
 20
3.269253188579531
 30
0.0
 11
14.67288388101266
 21
4.243778880738705
 31
0.0
  0
LINE
  5
250EC
  8
0
  6
CONTINUOUS
 10
13.39509276772158
 20
5.521569994029786
 30
0.0
 11
10.81938524622531
 21
8.097277515526056
 31
0.0
  0
LINE
  5
250ED
  8
0
  6
CONTINUOUS
 10
18.95798597883369
 20
0.6321959919978686
 30
0.0
 11
17.84825644852853
 21
1.741925522303024
 31
0.0
  0
LINE
  5
250EE
  8
0
  6
CONTINUOUS
 10
19.15756672960882
 20
1.106134450302922
 30
0.0
 11
17.44267562040888
 21
2.821025559502861
 31
0.0
  0
LINE
  5
250EF
  8
0
  6
CONTINUOUS
 10
15.83146234993604
 20
3.758719620895513
 30
0.0
 11
14.85691305207612
 21
4.733268918755439
 31
0.0
  0
LINE
  5
250F0
  8
0
  6
CONTINUOUS
 10
16.01551512670025
 20
4.248186053211494
 30
0.0
 11
15.04094222313957
 21
5.222758956772172
 31
0.0
  0
LINE
  5
250F1
  8
0
  6
CONTINUOUS
 10
12.90511304310612
 20
6.685068927725435
 30
0.0
 11
10.8270819708403
 21
8.763099999991255
 31
0.0
  0
LINE
  5
250F2
  8
0
  6
CONTINUOUS
 10
12.41513331849066
 20
7.848567861421083
 30
0.0
 11
11.50060117992049
 21
8.763099999991255
 31
0.0
  0
LINE
  5
250F3
  8
0
  6
CONTINUOUS
 10
19.35714748038395
 20
1.580072908607975
 30
0.0
 11
17.03709479228923
 21
3.900125596702697
 31
0.0
  0
LINE
  5
250F4
  8
0
  6
CONTINUOUS
 10
19.55672823115909
 20
2.054011366913028
 30
0.0
 11
16.63151396416958
 21
4.979225633902534
 31
0.0
  0
LINE
  5
250F5
  8
0
  6
CONTINUOUS
 10
16.19956790346445
 20
4.737652485527476
 30
0.0
 11
15.22497139420302
 21
5.712248994788904
 31
0.0
  0
LINE
  5
250F6
  8
0
  6
CONTINUOUS
 10
16.38362068022866
 20
5.227118917843457
 30
0.0
 11
15.40900056526648
 21
6.201739032805637
 31
0.0
  0
LINE
  5
250F7
  8
0
  6
CONTINUOUS
 10
19.75630898193422
 20
2.527949825218081
 30
0.0
 11
18.70774536448286
 21
3.576513442669441
 31
0.0
  0
LINE
  5
250F8
  8
0
  6
CONTINUOUS
 10
19.95588973270936
 20
3.001888283523134
 30
0.0
 11
18.90726987211446
 21
4.050508144118028
 31
0.0
  0
LINE
  5
250F9
  8
0
  6
CONTINUOUS
 10
20.15547048348449
 20
3.475826741828186
 30
0.0
 11
19.10679437974606
 21
4.524502845566614
 31
0.0
  0
LINE
  5
250FA
  8
0
  6
CONTINUOUS
 10
20.35505123425962
 20
3.94976520013324
 30
0.0
 11
19.30631888737766
 21
4.998497547015201
 31
0.0
  0
LINE
  5
250FB
  8
0
  6
CONTINUOUS
 10
20.55463198503475
 20
4.423703658438292
 30
0.0
 11
19.50584339500926
 21
5.472492248463787
 31
0.0
  0
LINE
  5
250FC
  8
0
  6
CONTINUOUS
 10
18.37481191085755
 20
3.909446896294752
 30
0.0
 11
15.59302973632993
 21
6.691229070822371
 31
0.0
  0
LINE
  5
250FD
  8
0
  6
CONTINUOUS
 10
17.96904084440766
 20
4.988737171824825
 30
0.0
 11
15.77705890739338
 21
7.180719108839104
 31
0.0
  0
LINE
  5
250FE
  8
0
  6
CONTINUOUS
 10
17.56326977795777
 20
6.068027447354899
 30
0.0
 11
15.96108807845684
 21
7.670209146855838
 31
0.0
  0
LINE
  5
250FF
  8
0
  6
CONTINUOUS
 10
17.15749871150789
 20
7.147317722884972
 30
0.0
 11
16.14511724952029
 21
8.15969918487257
 31
0.0
  0
LINE
  5
25100
  8
0
  6
CONTINUOUS
 10
16.751727645058
 20
8.226607998415046
 30
0.0
 11
16.32914642058374
 21
8.649189222889303
 31
0.0
  0
LINE
  5
25101
  8
0
  6
CONTINUOUS
 10
20.75421273580989
 20
4.897642116743345
 30
0.0
 11
19.70536790264086
 21
5.946486949912374
 31
0.0
  0
LINE
  5
25102
  8
0
  6
CONTINUOUS
 10
20.95379348658502
 20
5.371580575048398
 30
0.0
 11
19.90489241027246
 21
6.42048165136096
 31
0.0
  0
LINE
  5
25103
  8
0
  6
CONTINUOUS
 10
21.15337423736015
 20
5.845519033353452
 30
0.0
 11
20.10441691790406
 21
6.894476352809547
 31
0.0
  0
LINE
  5
25104
  8
0
  6
CONTINUOUS
 10
21.35295498813529
 20
6.319457491658505
 30
0.0
 11
20.30394142553566
 21
7.368471054258134
 31
0.0
  0
LINE
  5
25105
  8
0
  6
CONTINUOUS
 10
21.55253573891042
 20
6.793395949963558
 30
0.0
 11
20.50346593316726
 21
7.842465755706721
 31
0.0
  0
LINE
  5
25106
  8
0
  6
CONTINUOUS
 10
21.75211648968556
 20
7.267334408268612
 30
0.0
 11
20.70299044079886
 21
8.316460457155308
 31
0.0
  0
LINE
  5
25107
  8
0
  6
CONTINUOUS
 10
21.95169724046069
 20
7.741272866573663
 30
0.0
 11
20.9298701070431
 21
8.763099999991256
 31
0.0
  0
LINE
  5
25108
  8
0
  6
CONTINUOUS
 10
22.15127799123582
 20
8.215211324878716
 30
0.0
 11
21.60338931612328
 21
8.763099999991256
 31
0.0
  0
LINE
  5
25109
  8
0
  6
CONTINUOUS
 10
22.35085874201096
 20
8.689149783183769
 30
0.0
 11
22.27690852520347
 21
8.763099999991255
 31
0.0
  0
ENDBLK
  5
251FB
  8
0
  0
BLOCK
  8
0
  2
*X324
 70
     1
 10
0.0
 20
0.0
 30
0.0
  3
*X324
  1

  0
LINE
  5
2510B
  8
0
  6
CONTINUOUS
 10
23.19462913593892
 20
8.169917934846424
 30
0.0
 11
23.70775465517246
 21
8.683043454079957
 31
0.0
  0
LINE
  5
2510C
  8
0
  6
CONTINUOUS
 10
22.64923161835078
 20
6.951001208178088
 30
0.0
 11
23.9159364069932
 21
8.217705996820516
 31
0.0
  0
LINE
  5
2510D
  8
0
  6
CONTINUOUS
 10
22.10383410076263
 20
5.732084481509751
 30
0.0
 11
24.12411815881395
 21
7.752368539561078
 31
0.0
  0
LINE
  5
2510E
  8
0
  6
CONTINUOUS
 10
21.55843658317447
 20
4.513167754841414
 30
0.0
 11
24.3322999106347
 21
7.287031082301639
 31
0.0
  0
LINE
  5
2510F
  8
0
  6
CONTINUOUS
 10
21.01303906558632
 20
3.294251028173077
 30
0.0
 11
24.54048166245544
 21
6.821693625042199
 31
0.0
  0
LINE
  5
25110
  8
0
  6
CONTINUOUS
 10
20.46764154799817
 20
2.075334301504738
 30
0.0
 11
23.28571549467848
 21
4.89340824818505
 31
0.0
  0
LINE
  5
25111
  8
0
  6
CONTINUOUS
 10
19.92224403041002
 20
0.8564175748364002
 30
0.0
 11
22.74075865492779
 21
3.674932199354171
 31
0.0
  0
LINE
  5
25112
  8
0
  6
CONTINUOUS
 10
23.67305085490148
 20
5.280743608408048
 30
0.0
 11
24.74866341427619
 21
6.356356167782759
 31
0.0
  0
LINE
  5
25113
  8
0
  6
CONTINUOUS
 10
23.88118970842314
 20
4.815363252849522
 30
0.0
 11
24.95684516609694
 21
5.89101871052332
 31
0.0
  0
LINE
  5
25114
  8
0
  6
CONTINUOUS
 10
19.73925852647308
 20
-0.0000871381807288
 30
0.0
 11
23.4103456646501
 21
3.670999999996297
 31
0.0
  0
LINE
  5
25115
  8
0
  6
CONTINUOUS
 10
24.0893285619448
 20
4.349982897290997
 30
0.0
 11
25.16502691791769
 21
5.42568125326388
 31
0.0
  0
LINE
  5
25116
  8
0
  6
CONTINUOUS
 10
20.41282099582748
 20
-0.0000438779065108
 30
0.0
 11
21.64944178675636
 21
1.236576913022366
 31
0.0
  0
LINE
  5
25117
  8
0
  6
CONTINUOUS
 10
22.78126487373161
 20
2.36839999999762
 30
0.0
 11
24.08386487373029
 21
3.670999999996297
 31
0.0
  0
LINE
  5
25118
  8
0
  6
CONTINUOUS
 10
24.29746741546646
 20
3.884602541732471
 30
0.0
 11
25.37320866973843
 21
4.960343796004441
 31
0.0
  0
LINE
  5
25119
  8
0
  6
CONTINUOUS
 10
21.08638346518189
 20
-0.0000006176322938
 30
0.0
 11
21.10379033335899
 21
0.0174062505448083
 31
0.0
  0
LINE
  5
2511A
  8
0
  6
CONTINUOUS
 10
23.4547840828118
 20
2.36839999999762
 30
0.0
 11
25.58139042155918
 21
4.495006338745002
 31
0.0
  0
LINE
  5
2511B
  8
0
  6
CONTINUOUS
 10
29.30199999996933
 20
8.215615917155148
 30
0.0
 11
29.84948408280543
 21
8.763099999991255
 31
0.0
  0
LINE
  5
2511C
  8
0
  6
CONTINUOUS
 10
24.12830329189199
 20
2.36839999999762
 30
0.0
 11
25.78957217337993
 21
4.029668881485562
 31
0.0
  0
LINE
  5
2511D
  8
0
  6
CONTINUOUS
 10
29.30199999996933
 20
7.54209670807496
 30
0.0
 11
30.52300329188562
 21
8.763099999991255
 31
0.0
  0
LINE
  5
2511E
  8
0
  6
CONTINUOUS
 10
24.80182250097217
 20
2.36839999999762
 30
0.0
 11
25.99775392520067
 21
3.564331424226122
 31
0.0
  0
LINE
  5
2511F
  8
0
  6
CONTINUOUS
 10
29.30199999996933
 20
6.868577498994774
 30
0.0
 11
30.74199999996926
 21
8.308577498994712
 31
0.0
  0
LINE
  5
25120
  8
0
  6
CONTINUOUS
 10
25.13028238392013
 20
2.023340673865392
 30
0.0
 11
26.20593567702142
 21
3.098993966966683
 31
0.0
  0
LINE
  5
25121
  8
0
  6
CONTINUOUS
 10
25.33838066033617
 20
1.557919741201244
 30
0.0
 11
26.41411742884217
 21
2.633656509707244
 31
0.0
  0
LINE
  5
25122
  8
0
  6
CONTINUOUS
 10
25.54647893675221
 20
1.092498808537098
 30
0.0
 11
26.62229918066291
 21
2.168319052447804
 31
0.0
  0
LINE
  5
25123
  8
0
  6
CONTINUOUS
 10
25.75457721316825
 20
0.62707787587295
 30
0.0
 11
26.83048093248366
 21
1.702981595188365
 31
0.0
  0
LINE
  5
25124
  8
0
  6
CONTINUOUS
 10
29.30199999996933
 20
6.195058289914587
 30
0.0
 11
30.74199999996926
 21
7.635058289914522
 31
0.0
  0
LINE
  5
25125
  8
0
  6
CONTINUOUS
 10
29.30199999996933
 20
5.521539080834401
 30
0.0
 11
30.74199999996926
 21
6.961539080834331
 31
0.0
  0
LINE
  5
25126
  8
0
  6
CONTINUOUS
 10
29.30199999996933
 20
4.848019871754214
 30
0.0
 11
30.74199999996925
 21
6.288019871754143
 31
0.0
  0
LINE
  5
25127
  8
0
  6
CONTINUOUS
 10
29.30199999996933
 20
4.174500662674028
 30
0.0
 11
30.74199999996925
 21
5.614500662673953
 31
0.0
  0
LINE
  5
25128
  8
0
  6
CONTINUOUS
 10
25.96267548958429
 20
0.1616569432088024
 30
0.0
 11
27.18411854636669
 21
1.383099999991207
 31
0.0
  0
LINE
  5
25129
  8
0
  6
CONTINUOUS
 10
29.30199999996933
 20
3.500981453593841
 30
0.0
 11
30.74199999996925
 21
4.940981453593762
 31
0.0
  0
LINE
  5
2512A
  8
0
  6
CONTINUOUS
 10
26.50763775544691
 20
0.0330999999912356
 30
0.0
 11
27.85763775544689
 21
1.383099999991223
 31
0.0
  0
LINE
  5
2512B
  8
0
  6
CONTINUOUS
 10
29.30199999996933
 20
2.827462244513656
 30
0.0
 11
30.74199999996925
 21
4.267462244513574
 31
0.0
  0
LINE
  5
2512C
  8
0
  6
CONTINUOUS
 10
27.18115696452709
 20
0.0330999999912356
 30
0.0
 11
28.6224847300034
 21
1.474427765467545
 31
0.0
  0
LINE
  5
2512D
  8
0
  6
CONTINUOUS
 10
29.21067223449293
 20
2.062615269957069
 30
0.0
 11
30.74199999996924
 21
3.593943035433383
 31
0.0
  0
LINE
  5
2512E
  8
0
  6
CONTINUOUS
 10
27.85467617360728
 20
0.0330999999912356
 30
0.0
 11
30.74199999996924
 21
2.920423826353195
 31
0.0
  0
LINE
  5
2512F
  8
0
  6
CONTINUOUS
 10
28.57438609860264
 20
0.0792907159064073
 30
0.0
 11
30.69580928405405
 21
2.200713901357819
 31
0.0
  0
LINE
  5
25130
  8
0
  6
CONTINUOUS
 10
29.49443044814297
 20
0.3258158563665496
 30
0.0
 11
30.44928414359389
 21
1.280669551817477
 31
0.0
  0
LINE
  5
25131
  8
0
  6
CONTINUOUS
 10
19.59027867740337
 20
-0.0000967065718083
 30
0.0
 11
19.55485265190471
 21
0.035329318926844
 31
0.0
  0
LINE
  5
25132
  8
0
  6
CONTINUOUS
 10
20.26375463176586
 20
-0.0000534518541091
 30
0.0
 11
19.76305575737534
 21
0.5006454225364014
 31
0.0
  0
LINE
  5
25133
  8
0
  6
CONTINUOUS
 10
20.93723058612834
 20
-0.0000101971364099
 30
0.0
 11
19.97125886284597
 21
0.965961526145958
 31
0.0
  0
LINE
  5
25134
  8
0
  6
CONTINUOUS
 10
21.25514828313686
 20
0.355591314935257
 30
0.0
 11
20.1794619683166
 21
1.431277629755512
 31
0.0
  0
LINE
  5
25135
  8
0
  6
CONTINUOUS
 10
21.46338838394921
 20
0.8208704232030986
 30
0.0
 11
20.38766507378723
 21
1.896593733365069
 31
0.0
  0
LINE
  5
25136
  8
0
  6
CONTINUOUS
 10
21.67162848476155
 20
1.28614953147094
 30
0.0
 11
20.59586817925786
 21
2.361909836974626
 31
0.0
  0
LINE
  5
25137
  8
0
  6
CONTINUOUS
 10
21.8798685855739
 20
1.751428639738782
 30
0.0
 11
20.80407128472849
 21
2.827225940584183
 31
0.0
  0
LINE
  5
25138
  8
0
  6
CONTINUOUS
 10
22.08810868638624
 20
2.216707748006623
 30
0.0
 11
21.01227439019912
 21
3.292542044193739
 31
0.0
  0
LINE
  5
25139
  8
0
  6
CONTINUOUS
 10
22.60993564347543
 20
2.36839999999762
 30
0.0
 11
21.22047749566975
 21
3.757858147803296
 31
0.0
  0
LINE
  5
2513A
  8
0
  6
CONTINUOUS
 10
23.28345485255561
 20
2.36839999999762
 30
0.0
 11
21.42868060114038
 21
4.223174251412853
 31
0.0
  0
LINE
  5
2513B
  8
0
  6
CONTINUOUS
 10
26.29227406164219
 20
0.0330999999912356
 30
0.0
 11
25.80009199592872
 21
0.5252820657046957
 31
0.0
  0
LINE
  5
2513C
  8
0
  6
CONTINUOUS
 10
23.9569740616358
 20
2.36839999999762
 30
0.0
 11
21.63688370661101
 21
4.688490355022409
 31
0.0
  0
LINE
  5
2513D
  8
0
  6
CONTINUOUS
 10
26.96579327072237
 20
0.0330999999912356
 30
0.0
 11
25.2554132311971
 21
1.743480039516508
 31
0.0
  0
LINE
  5
2513E
  8
0
  6
CONTINUOUS
 10
24.63049327071599
 20
2.36839999999762
 30
0.0
 11
23.32789327071731
 21
3.670999999996297
 31
0.0
  0
LINE
  5
2513F
  8
0
  6
CONTINUOUS
 10
22.92098674744635
 20
4.077906523267254
 30
0.0
 11
21.84508681208164
 21
5.153806458631966
 31
0.0
  0
LINE
  5
25140
  8
0
  6
CONTINUOUS
 10
27.63931247980256
 20
0.0330999999912356
 30
0.0
 11
24.0014124797975
 21
3.670999999996297
 31
0.0
  0
LINE
  5
25141
  8
0
  6
CONTINUOUS
 10
23.129125600968
 20
4.5432868788258
 30
0.0
 11
22.05328991755227
 21
5.619122562241522
 31
0.0
  0
LINE
  5
25142
  8
0
  6
CONTINUOUS
 10
28.31283168888275
 20
0.0330999999912356
 30
0.0
 11
24.16488385994816
 21
4.181047828925828
 31
0.0
  0
LINE
  5
25143
  8
0
  6
CONTINUOUS
 10
23.33726445448964
 20
5.008667234384345
 30
0.0
 11
22.2614930230229
 21
6.084438665851079
 31
0.0
  0
LINE
  5
25144
  8
0
  6
CONTINUOUS
 10
28.86286302309502
 20
0.1565878748591523
 30
0.0
 11
27.63635089796295
 21
1.383099999991217
 31
0.0
  0
LINE
  5
25145
  8
0
  6
CONTINUOUS
 10
26.43704649509776
 20
2.582404402856405
 30
0.0
 11
23.61992702019732
 21
5.399523877756844
 31
0.0
  0
LINE
  5
25146
  8
0
  6
CONTINUOUS
 10
23.54540330801128
 20
5.47404758994289
 30
0.0
 11
22.46969612849353
 21
6.549754769460635
 31
0.0
  0
LINE
  5
25147
  8
0
  6
CONTINUOUS
 10
29.39405087596853
 20
0.2989192310658284
 30
0.0
 11
28.30987010704312
 21
1.383099999991234
 31
0.0
  0
LINE
  5
25148
  8
0
  6
CONTINUOUS
 10
25.89179548232307
 20
3.801174624711282
 30
0.0
 11
22.67789923396416
 21
7.015070873070191
 31
0.0
  0
LINE
  5
25149
  8
0
  6
CONTINUOUS
 10
29.79594438047407
 20
0.570544935640473
 30
0.0
 11
28.81310432793121
 21
1.553384988183336
 31
0.0
  0
LINE
  5
2514A
  8
0
  6
CONTINUOUS
 10
25.34654446954838
 20
5.01994484656616
 30
0.0
 11
22.88610233943479
 21
7.480386976679748
 31
0.0
  0
LINE
  5
2514B
  8
0
  6
CONTINUOUS
 10
30.13270398501416
 20
0.9073045401805646
 30
0.0
 11
29.14234640337737
 21
1.897662121817355
 31
0.0
  0
LINE
  5
2514C
  8
0
  6
CONTINUOUS
 10
24.80129345677369
 20
6.238715068421037
 30
0.0
 11
23.09430544490542
 21
7.945703080289305
 31
0.0
  0
LINE
  5
2514D
  8
0
  6
CONTINUOUS
 10
30.44581292956759
 20
1.26771480470732
 30
0.0
 11
29.30199999996933
 21
2.411527734305588
 31
0.0
  0
LINE
  5
2514E
  8
0
  6
CONTINUOUS
 10
30.58814428577427
 20
1.798902657580827
 30
0.0
 11
29.30199999996933
 21
3.085046943385775
 31
0.0
  0
LINE
  5
2514F
  8
0
  6
CONTINUOUS
 10
24.256042443999
 20
7.457485290275915
 30
0.0
 11
23.30250855037605
 21
8.411019183898862
 31
0.0
  0
LINE
  5
25150
  8
0
  6
CONTINUOUS
 10
23.71079143122431
 20
8.676255512130794
 30
0.0
 11
23.51071165584668
 21
8.876335287508418
 31
0.0
  0
LINE
  5
25151
  8
0
  6
CONTINUOUS
 10
30.73047564198095
 20
2.330090510454333
 30
0.0
 11
29.30199999996933
 21
3.758566152465961
 31
0.0
  0
LINE
  5
25152
  8
0
  6
CONTINUOUS
 10
30.74199999996924
 20
2.992085361546236
 30
0.0
 11
29.30199999996933
 21
4.432085361546148
 31
0.0
  0
LINE
  5
25153
  8
0
  6
CONTINUOUS
 10
30.74199999996924
 20
3.665604570626419
 30
0.0
 11
29.30199999996933
 21
5.105604570626333
 31
0.0
  0
LINE
  5
25154
  8
0
  6
CONTINUOUS
 10
30.74199999996925
 20
4.339123779706602
 30
0.0
 11
29.30199999996933
 21
5.77912377970652
 31
0.0
  0
LINE
  5
25155
  8
0
  6
CONTINUOUS
 10
30.74199999996925
 20
5.012642988786785
 30
0.0
 11
29.30199999996933
 21
6.452642988786707
 31
0.0
  0
LINE
  5
25156
  8
0
  6
CONTINUOUS
 10
30.74199999996925
 20
5.68616219786697
 30
0.0
 11
29.30199999996933
 21
7.126162197866894
 31
0.0
  0
LINE
  5
25157
  8
0
  6
CONTINUOUS
 10
30.74199999996925
 20
6.359681406947153
 30
0.0
 11
29.30199999996933
 21
7.799681406947081
 31
0.0
  0
LINE
  5
25158
  8
0
  6
CONTINUOUS
 10
30.74199999996926
 20
7.033200616027337
 30
0.0
 11
29.30199999996933
 21
8.473200616027269
 31
0.0
  0
LINE
  5
25159
  8
0
  6
CONTINUOUS
 10
30.74199999996926
 20
7.706719825107518
 30
0.0
 11
29.68561982508552
 21
8.763099999991255
 31
0.0
  0
LINE
  5
2515A
  8
0
  6
CONTINUOUS
 10
30.74199999996926
 20
8.380239034187703
 30
0.0
 11
30.35913903416571
 21
8.763099999991255
 31
0.0
  0
ENDBLK
  5
251FD
  8
0
  0
BLOCK
  8
0
  2
*X325
 70
     1
 10
0.0
 20
0.0
 30
0.0
  3
*X325
  1

  0
LINE
  5
2515C
  8
0
  6
CONTINUOUS
 10
31.64199999996833
 20
8.5350582899136
 30
0.0
 11
31.87004171004599
 21
8.763099999991255
 31
0.0
  0
LINE
  5
2515D
  8
0
  6
CONTINUOUS
 10
31.64199999996833
 20
7.861539080833413
 30
0.0
 11
32.54356091912618
 21
8.763099999991255
 31
0.0
  0
LINE
  5
2515E
  8
0
  6
CONTINUOUS
 10
31.64199999996833
 20
7.188019871753227
 30
0.0
 11
33.08199999996839
 21
8.628019871753281
 31
0.0
  0
LINE
  5
2515F
  8
0
  6
CONTINUOUS
 10
31.64199999996833
 20
6.514500662673041
 30
0.0
 11
33.08199999996839
 21
7.954500662673095
 31
0.0
  0
LINE
  5
25160
  8
0
  6
CONTINUOUS
 10
31.64199999996833
 20
5.840981453592855
 30
0.0
 11
33.08199999996839
 21
7.28098145359291
 31
0.0
  0
LINE
  5
25161
  8
0
  6
CONTINUOUS
 10
31.64199999996833
 20
5.167462244512668
 30
0.0
 11
33.08199999996839
 21
6.607462244512723
 31
0.0
  0
LINE
  5
25162
  8
0
  6
CONTINUOUS
 10
31.64199999996833
 20
4.493943035432482
 30
0.0
 11
33.08199999996839
 21
5.933943035432536
 31
0.0
  0
LINE
  5
25163
  8
0
  6
CONTINUOUS
 10
31.64199999996833
 20
3.820423826352294
 30
0.0
 11
33.08199999996839
 21
5.260423826352349
 31
0.0
  0
LINE
  5
25164
  8
0
  6
CONTINUOUS
 10
31.64199999996833
 20
3.146904617272108
 30
0.0
 11
33.08199999996839
 21
4.586904617272163
 31
0.0
  0
LINE
  5
25165
  8
0
  6
CONTINUOUS
 10
36.23199999996837
 20
8.410423826352327
 30
0.0
 11
36.58467617360729
 21
8.763099999991255
 31
0.0
  0
LINE
  5
25166
  8
0
  6
CONTINUOUS
 10
36.23199999996837
 20
7.73690461727214
 30
0.0
 11
37.25819538268748
 21
8.763099999991255
 31
0.0
  0
LINE
  5
25167
  8
0
  6
CONTINUOUS
 10
31.64323424774199
 20
2.474619655965573
 30
0.0
 11
33.08199999996839
 21
3.913385408191976
 31
0.0
  0
LINE
  5
25168
  8
0
  6
CONTINUOUS
 10
31.74419223861915
 20
1.902058437762552
 30
0.0
 11
33.08199999996839
 21
3.239866199111789
 31
0.0
  0
LINE
  5
25169
  8
0
  6
CONTINUOUS
 10
36.23199999996837
 20
7.063385408191953
 30
0.0
 11
37.67199999996831
 21
8.503385408191894
 31
0.0
  0
LINE
  5
2516A
  8
0
  6
CONTINUOUS
 10
36.23199999996837
 20
6.389866199111767
 30
0.0
 11
37.67199999996831
 21
7.829866199111708
 31
0.0
  0
LINE
  5
2516B
  8
0
  6
CONTINUOUS
 10
31.91111233414976
 20
1.39545932421297
 30
0.0
 11
33.08199999996839
 21
2.566346990031603
 31
0.0
  0
LINE
  5
2516C
  8
0
  6
CONTINUOUS
 10
36.23199999996837
 20
5.71634699003158
 30
0.0
 11
37.67199999996831
 21
7.156346990031522
 31
0.0
  0
LINE
  5
2516D
  8
0
  6
CONTINUOUS
 10
32.1576374746103
 20
0.9684652555933289
 30
0.0
 11
33.20642631446081
 21
2.017254095443838
 31
0.0
  0
LINE
  5
2516E
  8
0
  6
CONTINUOUS
 10
36.23199999996837
 20
5.042827780951393
 30
0.0
 11
37.67199999996831
 21
6.482827780951334
 31
0.0
  0
LINE
  5
2516F
  8
0
  6
CONTINUOUS
 10
32.47774023927325
 20
0.6150488111760914
 30
0.0
 11
33.49903056428258
 21
1.636339136185419
 31
0.0
  0
LINE
  5
25170
  8
0
  6
CONTINUOUS
 10
36.23199999996837
 20
4.369308571871207
 30
0.0
 11
37.67199999996831
 21
5.809308571871148
 31
0.0
  0
LINE
  5
25171
  8
0
  6
CONTINUOUS
 10
32.84396249154443
 20
0.3077518543670883
 30
0.0
 11
33.93324121824649
 21
1.397030581069146
 31
0.0
  0
LINE
  5
25172
  8
0
  6
CONTINUOUS
 10
36.23199999996837
 20
3.695789362791021
 30
0.0
 11
37.67199999996831
 21
5.135789362790963
 31
0.0
  0
LINE
  5
25173
  8
0
  6
CONTINUOUS
 10
33.30186329036846
 20
0.0921334441109263
 30
0.0
 11
34.46442907112041
 21
1.254699224862875
 31
0.0
  0
LINE
  5
25174
  8
0
  6
CONTINUOUS
 10
36.23199999996837
 20
3.022270153710834
 30
0.0
 11
37.67199999996831
 21
4.462270153710776
 31
0.0
  0
LINE
  5
25175
  8
0
  6
CONTINUOUS
 10
33.79565647746294
 20
-0.0875925778747773
 30
0.0
 11
35.24350171668284
 21
1.360252661345124
 31
0.0
  0
LINE
  5
25176
  8
0
  6
CONTINUOUS
 10
36.18336676155003
 20
2.300117706212308
 30
0.0
 11
37.67199999996831
 21
3.788750944630589
 31
0.0
  0
LINE
  5
25177
  8
0
  6
CONTINUOUS
 10
34.37182574910968
 20
-0.184942515308224
 30
0.0
 11
37.67199999996831
 21
3.115231735550402
 31
0.0
  0
LINE
  5
25178
  8
0
  6
CONTINUOUS
 10
35.0453449581892
 20
-0.1849425153088955
 30
0.0
 11
37.66345697088136
 21
2.433169497383271
 31
0.0
  0
LINE
  5
25179
  8
0
  6
CONTINUOUS
 10
35.98667157609191
 20
0.0828648935136398
 30
0.0
 11
37.51927401744566
 21
1.615467334867382
 31
0.0
  0
LINE
  5
2517A
  8
0
  6
CONTINUOUS
 10
32.27747408544484
 20
0.7830920669904482
 30
0.0
 11
32.24716210471949
 21
0.8134040477157893
 31
0.0
  0
LINE
  5
2517B
  8
0
  6
CONTINUOUS
 10
33.83656881101902
 20
-0.1024834495035494
 30
0.0
 11
31.72538911593758
 21
2.008696245577891
 31
0.0
  0
LINE
  5
2517C
  8
0
  6
CONTINUOUS
 10
34.5925470859041
 20
-0.1849425153084434
 30
0.0
 11
31.64199999996833
 21
2.765604570627322
 31
0.0
  0
LINE
  5
2517D
  8
0
  6
CONTINUOUS
 10
35.26201302775981
 20
-0.1808892480839752
 30
0.0
 11
31.64199999996833
 21
3.439123779707508
 31
0.0
  0
LINE
  5
2517E
  8
0
  6
CONTINUOUS
 10
35.75580621485512
 20
-0.0011632260990879
 30
0.0
 11
34.51294304365551
 21
1.241699945100514
 31
0.0
  0
LINE
  5
2517F
  8
0
  6
CONTINUOUS
 10
33.08199999996839
 20
2.672642988787641
 30
0.0
 11
31.64199999996833
 21
4.112642988787695
 31
0.0
  0
LINE
  5
25180
  8
0
  6
CONTINUOUS
 10
36.24959940195042
 20
0.1785627958857976
 30
0.0
 11
35.10501653033629
 21
1.323145667499924
 31
0.0
  0
LINE
  5
25181
  8
0
  6
CONTINUOUS
 10
33.08199999996839
 20
3.346162197867827
 30
0.0
 11
31.64199999996833
 21
4.786162197867881
 31
0.0
  0
LINE
  5
25182
  8
0
  6
CONTINUOUS
 10
36.64615197150552
 20
0.4555294354108876
 30
0.0
 11
35.6362043832099
 21
1.465477023706505
 31
0.0
  0
LINE
  5
25183
  8
0
  6
CONTINUOUS
 10
33.08199999996839
 20
4.019681406948013
 30
0.0
 11
31.64199999996833
 21
5.459681406948068
 31
0.0
  0
LINE
  5
25184
  8
0
  6
CONTINUOUS
 10
37.0123742237774
 20
0.7628263922191891
 30
0.0
 11
35.97691545773309
 21
1.798285158263504
 31
0.0
  0
LINE
  5
25185
  8
0
  6
CONTINUOUS
 10
33.08199999996839
 20
4.6932006160282
 30
0.0
 11
31.64199999996833
 21
6.133200616028255
 31
0.0
  0
LINE
  5
25186
  8
0
  6
CONTINUOUS
 10
37.27491524157143
 20
1.173804583505349
 30
0.0
 11
36.17602012811361
 21
2.272699696963169
 31
0.0
  0
LINE
  5
25187
  8
0
  6
CONTINUOUS
 10
33.08199999996839
 20
5.366719825108387
 30
0.0
 11
31.64199999996833
 21
6.806719825108441
 31
0.0
  0
LINE
  5
25188
  8
0
  6
CONTINUOUS
 10
37.51739996707661
 20
1.604839067080355
 30
0.0
 11
36.23199999996837
 21
2.890239034188595
 31
0.0
  0
LINE
  5
25189
  8
0
  6
CONTINUOUS
 10
37.6183579579535
 20
2.177400285283649
 30
0.0
 11
36.23199999996837
 21
3.563758243268782
 31
0.0
  0
LINE
  5
2518A
  8
0
  6
CONTINUOUS
 10
33.08199999996839
 20
6.040239034188573
 30
0.0
 11
31.64199999996833
 21
7.480239034188628
 31
0.0
  0
LINE
  5
2518B
  8
0
  6
CONTINUOUS
 10
33.08199999996839
 20
6.713758243268759
 30
0.0
 11
31.64199999996833
 21
8.153758243268815
 31
0.0
  0
LINE
  5
2518C
  8
0
  6
CONTINUOUS
 10
37.67199999996831
 20
2.797277452349027
 30
0.0
 11
36.23199999996837
 21
4.237277452348969
 31
0.0
  0
LINE
  5
2518D
  8
0
  6
CONTINUOUS
 10
37.67199999996831
 20
3.470796661429214
 30
0.0
 11
36.23199999996837
 21
4.910796661429155
 31
0.0
  0
LINE
  5
2518E
  8
0
  6
CONTINUOUS
 10
37.67199999996831
 20
4.1443158705094
 30
0.0
 11
36.23199999996837
 21
5.584315870509341
 31
0.0
  0
LINE
  5
2518F
  8
0
  6
CONTINUOUS
 10
33.08199999996839
 20
7.387277452348946
 30
0.0
 11
31.70617745232608
 21
8.763099999991255
 31
0.0
  0
LINE
  5
25190
  8
0
  6
CONTINUOUS
 10
33.08199999996839
 20
8.060796661429134
 30
0.0
 11
32.37969666140626
 21
8.763099999991255
 31
0.0
  0
LINE
  5
25191
  8
0
  6
CONTINUOUS
 10
33.08199999996839
 20
8.734315870509318
 30
0.0
 11
33.05321587048645
 21
8.763099999991255
 31
0.0
  0
LINE
  5
25192
  8
0
  6
CONTINUOUS
 10
37.67199999996831
 20
4.817835079589586
 30
0.0
 11
36.23199999996837
 21
6.257835079589528
 31
0.0
  0
LINE
  5
25193
  8
0
  6
CONTINUOUS
 10
37.67199999996831
 20
5.491354288669772
 30
0.0
 11
36.23199999996837
 21
6.931354288669715
 31
0.0
  0
LINE
  5
25194
  8
0
  6
CONTINUOUS
 10
37.67199999996831
 20
6.164873497749959
 30
0.0
 11
36.23199999996837
 21
7.6048734977499
 31
0.0
  0
LINE
  5
25195
  8
0
  6
CONTINUOUS
 10
37.67199999996831
 20
6.838392706830145
 30
0.0
 11
36.23199999996837
 21
8.278392706830086
 31
0.0
  0
LINE
  5
25196
  8
0
  6
CONTINUOUS
 10
37.67199999996831
 20
7.511911915910333
 30
0.0
 11
36.42081191588738
 21
8.763099999991255
 31
0.0
  0
LINE
  5
25197
  8
0
  6
CONTINUOUS
 10
37.67199999996831
 20
8.185431124990519
 30
0.0
 11
37.09433112496757
 21
8.763099999991255
 31
0.0
  0
ENDBLK
  5
251FF
  8
0
  0
BLOCK
  8
0
  2
*X326
 70
     1
 10
0.0
 20
0.0
 30
0.0
  3
*X326
  1

  0
LINE
  5
25199
  8
0
  6
CONTINUOUS
 10
38.60499999996136
 20
8.762866199104765
 30
0.0
 11
38.71672554182345
 21
8.874591740966855
 31
0.0
  0
LINE
  5
2519A
  8
0
  6
CONTINUOUS
 10
38.60499999996136
 20
8.089346990024577
 30
0.0
 11
39.03418785440363
 21
8.518534844466847
 31
0.0
  0
LINE
  5
2519B
  8
0
  6
CONTINUOUS
 10
38.60499999996136
 20
7.41582778094439
 30
0.0
 11
39.35165016698382
 21
8.16247794796684
 31
0.0
  0
LINE
  5
2519C
  8
0
  6
CONTINUOUS
 10
38.60499999996136
 20
6.742308571864204
 30
0.0
 11
39.66911247956399
 21
7.806421051466834
 31
0.0
  0
LINE
  5
2519D
  8
0
  6
CONTINUOUS
 10
38.60499999996136
 20
6.068789362784018
 30
0.0
 11
39.98657479214418
 21
7.450364154966827
 31
0.0
  0
LINE
  5
2519E
  8
0
  6
CONTINUOUS
 10
38.60499999996136
 20
5.395270153703832
 30
0.0
 11
40.30403710472435
 21
7.09430725846682
 31
0.0
  0
LINE
  5
2519F
  8
0
  6
CONTINUOUS
 10
38.60499999996136
 20
4.721750944623645
 30
0.0
 11
40.62149941730453
 21
6.738250361966813
 31
0.0
  0
LINE
  5
251A0
  8
0
  6
CONTINUOUS
 10
38.60499999996136
 20
4.048231735543458
 30
0.0
 11
40.93896172988471
 21
6.382193465466806
 31
0.0
  0
LINE
  5
251A1
  8
0
  6
CONTINUOUS
 10
38.60499999996136
 20
3.374712526463272
 30
0.0
 11
40.02599999995994
 21
4.795712526461843
 31
0.0
  0
LINE
  5
251A2
  8
0
  6
CONTINUOUS
 10
38.60499999996136
 20
2.701193317383085
 30
0.0
 11
40.02599999995994
 21
4.122193317381657
 31
0.0
  0
LINE
  5
251A3
  8
0
  6
CONTINUOUS
 10
40.28339754687704
 20
5.053110073378947
 30
0.0
 11
41.25642404246489
 21
6.026136568966799
 31
0.0
  0
LINE
  5
251A4
  8
0
  6
CONTINUOUS
 10
40.60085985945722
 20
4.697053176878939
 30
0.0
 11
41.57388635504507
 21
5.670079672466793
 31
0.0
  0
LINE
  5
251A5
  8
0
  6
CONTINUOUS
 10
43.57899999995641
 20
8.348712526458318
 30
0.0
 11
43.99338747348935
 21
8.763099999991255
 31
0.0
  0
LINE
  5
251A6
  8
0
  6
CONTINUOUS
 10
43.57899999995641
 20
7.675193317378131
 30
0.0
 11
44.66690668256953
 21
8.763099999991255
 31
0.0
  0
LINE
  5
251A7
  8
0
  6
CONTINUOUS
 10
38.60499999996136
 20
2.027674108302898
 30
0.0
 11
40.02599999995994
 21
3.44867410830147
 31
0.0
  0
LINE
  5
251A8
  8
0
  6
CONTINUOUS
 10
38.60499999996136
 20
1.354154899222712
 30
0.0
 11
40.02599999995994
 21
2.775154899221284
 31
0.0
  0
LINE
  5
251A9
  8
0
  6
CONTINUOUS
 10
38.60499999996136
 20
0.6806356901425255
 30
0.0
 11
40.02599999995994
 21
2.101635690141098
 31
0.0
  0
LINE
  5
251AA
  8
0
  6
CONTINUOUS
 10
38.60499999996136
 20
0.0071164810623383
 30
0.0
 11
40.02599999995994
 21
1.428116481060911
 31
0.0
  0
LINE
  5
251AB
  8
0
  6
CONTINUOUS
 10
40.9183221720374
 20
4.340996280378933
 30
0.0
 11
41.89134866762525
 21
5.314022775966786
 31
0.0
  0
LINE
  5
251AC
  8
0
  6
CONTINUOUS
 10
41.23578448461758
 20
3.984939383878926
 30
0.0
 11
42.20881098020543
 21
4.957965879466778
 31
0.0
  0
LINE
  5
251AD
  8
0
  6
CONTINUOUS
 10
41.55324679719776
 20
3.628882487378919
 30
0.0
 11
42.52627329278561
 21
4.601908982966772
 31
0.0
  0
LINE
  5
251AE
  8
0
  6
CONTINUOUS
 10
41.87070910977793
 20
3.272825590878912
 30
0.0
 11
42.84373560536579
 21
4.245852086466765
 31
0.0
  0
LINE
  5
251AF
  8
0
  6
CONTINUOUS
 10
43.57899999995641
 20
7.001674108297943
 30
0.0
 11
44.99999999995498
 21
8.422674108296516
 31
0.0
  0
LINE
  5
251B0
  8
0
  6
CONTINUOUS
 10
43.57899999995641
 20
6.328154899217758
 30
0.0
 11
44.99999999995498
 21
7.749154899216329
 31
0.0
  0
LINE
  5
251B1
  8
0
  6
CONTINUOUS
 10
43.57899999995641
 20
5.654635690137571
 30
0.0
 11
44.99999999995498
 21
7.075635690136142
 31
0.0
  0
LINE
  5
251B2
  8
0
  6
CONTINUOUS
 10
43.57899999995641
 20
4.981116481057384
 30
0.0
 11
44.99999999995498
 21
6.402116481055955
 31
0.0
  0
LINE
  5
251B3
  8
0
  6
CONTINUOUS
 10
39.27140272797921
 20
-0.0000000000000009
 30
0.0
 11
40.02599999995994
 21
0.7545972719807246
 31
0.0
  0
LINE
  5
251B4
  8
0
  6
CONTINUOUS
 10
39.9449219370594
 20
-0.0000000000000009
 30
0.0
 11
40.02599999995994
 21
0.0810780629005379
 31
0.0
  0
LINE
  5
251B5
  8
0
  6
CONTINUOUS
 10
42.18817142235812
 20
2.916768694378905
 30
0.0
 11
43.16119791794597
 21
3.889795189966758
 31
0.0
  0
LINE
  5
251B6
  8
0
  6
CONTINUOUS
 10
42.50563373493829
 20
2.560711797878898
 30
0.0
 11
43.47866023052615
 21
3.533738293466751
 31
0.0
  0
LINE
  5
251B7
  8
0
  6
CONTINUOUS
 10
43.57899999995641
 20
4.307597271977198
 30
0.0
 11
44.99999999995498
 21
5.728597271975769
 31
0.0
  0
LINE
  5
251B8
  8
0
  6
CONTINUOUS
 10
43.57899999995641
 20
3.634078062897011
 30
0.0
 11
44.99999999995498
 21
5.055078062895582
 31
0.0
  0
LINE
  5
251B9
  8
0
  6
CONTINUOUS
 10
42.82309604751848
 20
2.204654901378891
 30
0.0
 11
44.99999999995498
 21
4.381558853815395
 31
0.0
  0
LINE
  5
251BA
  8
0
  6
CONTINUOUS
 10
43.14055836009865
 20
1.848598004878885
 30
0.0
 11
44.99999999995498
 21
3.70803964473521
 31
0.0
  0
LINE
  5
251BB
  8
0
  6
CONTINUOUS
 10
43.45802067267883
 20
1.492541108378878
 30
0.0
 11
44.99999999995498
 21
3.034520435655023
 31
0.0
  0
LINE
  5
251BC
  8
0
  6
CONTINUOUS
 10
43.77548298525902
 20
1.136484211878871
 30
0.0
 11
44.99999999995498
 21
2.361001226574837
 31
0.0
  0
LINE
  5
251BD
  8
0
  6
CONTINUOUS
 10
44.09294529783919
 20
0.7804273153788639
 30
0.0
 11
44.99999999995498
 21
1.687482017494649
 31
0.0
  0
LINE
  5
251BE
  8
0
  6
CONTINUOUS
 10
44.41040761041938
 20
0.4243704188788566
 30
0.0
 11
44.99999999995498
 21
1.013962808414463
 31
0.0
  0
LINE
  5
251BF
  8
0
  6
CONTINUOUS
 10
44.72786992299955
 20
0.0683135223788494
 30
0.0
 11
44.99999999995498
 21
0.340443599334276
 31
0.0
  0
LINE
  5
251C0
  8
0
  6
CONTINUOUS
 10
39.12223903415696
 20
-0.0000000000000009
 30
0.0
 11
38.60499999996136
 21
0.5172390341955961
 31
0.0
  0
LINE
  5
251C1
  8
0
  6
CONTINUOUS
 10
39.79575824323715
 20
-0.0000000000000009
 30
0.0
 11
38.60499999996136
 21
1.190758243275783
 31
0.0
  0
LINE
  5
251C2
  8
0
  6
CONTINUOUS
 10
40.02599999995994
 20
0.443277452357397
 30
0.0
 11
38.60499999996136
 21
1.864277452355969
 31
0.0
  0
LINE
  5
251C3
  8
0
  6
CONTINUOUS
 10
40.02599999995994
 20
1.116796661437583
 30
0.0
 11
38.60499999996136
 21
2.537796661436155
 31
0.0
  0
LINE
  5
251C4
  8
0
  6
CONTINUOUS
 10
40.02599999995994
 20
1.79031587051777
 30
0.0
 11
38.60499999996136
 21
3.211315870516341
 31
0.0
  0
LINE
  5
251C5
  8
0
  6
CONTINUOUS
 10
40.02599999995994
 20
2.463835079597956
 30
0.0
 11
38.60499999996136
 21
3.884835079596527
 31
0.0
  0
LINE
  5
251C6
  8
0
  6
CONTINUOUS
 10
40.02599999995994
 20
3.137354288678143
 30
0.0
 11
38.60499999996136
 21
4.558354288676714
 31
0.0
  0
LINE
  5
251C7
  8
0
  6
CONTINUOUS
 10
40.02599999995994
 20
3.810873497758329
 30
0.0
 11
38.60499999996136
 21
5.2318734977569
 31
0.0
  0
LINE
  5
251C8
  8
0
  6
CONTINUOUS
 10
40.02599999995994
 20
4.484392706838515
 30
0.0
 11
38.60499999996136
 21
5.905392706837086
 31
0.0
  0
LINE
  5
251C9
  8
0
  6
CONTINUOUS
 10
44.99999999995498
 20
0.183911915923658
 30
0.0
 11
41.53858364506288
 21
3.64532827081576
 31
0.0
  0
LINE
  5
251CA
  8
0
  6
CONTINUOUS
 10
40.02599999995994
 20
5.157911915918703
 30
0.0
 11
38.60499999996136
 21
6.578911915917274
 31
0.0
  0
LINE
  5
251CB
  8
0
  6
CONTINUOUS
 10
44.99999999995498
 20
0.8574311250038447
 30
0.0
 11
38.60499999996136
 21
7.25243112499746
 31
0.0
  0
LINE
  5
251CC
  8
0
  6
CONTINUOUS
 10
44.99999999995498
 20
1.530950334084031
 30
0.0
 11
38.60499999996136
 21
7.925950334077647
 31
0.0
  0
LINE
  5
251CD
  8
0
  6
CONTINUOUS
 10
44.99999999995498
 20
2.204469543164218
 30
0.0
 11
43.57899999995641
 21
3.625469543162789
 31
0.0
  0
LINE
  5
251CE
  8
0
  6
CONTINUOUS
 10
41.89876730984767
 20
5.305702233271528
 30
0.0
 11
38.60499999996136
 21
8.599469543157834
 31
0.0
  0
LINE
  5
251CF
  8
0
  6
CONTINUOUS
 10
44.99999999995498
 20
2.877988752244405
 30
0.0
 11
43.57899999995641
 21
4.298988752242975
 31
0.0
  0
LINE
  5
251D0
  8
0
  6
CONTINUOUS
 10
44.99999999995498
 20
3.551507961324591
 30
0.0
 11
43.57899999995641
 21
4.972507961323163
 31
0.0
  0
LINE
  5
251D1
  8
0
  6
CONTINUOUS
 10
44.99999999995498
 20
4.225027170404777
 30
0.0
 11
43.57899999995641
 21
5.646027170403348
 31
0.0
  0
LINE
  5
251D2
  8
0
  6
CONTINUOUS
 10
44.99999999995498
 20
4.898546379484964
 30
0.0
 11
43.57899999995641
 21
6.319546379483535
 31
0.0
  0
LINE
  5
251D3
  8
0
  6
CONTINUOUS
 10
44.99999999995498
 20
5.572065588565151
 30
0.0
 11
43.57899999995641
 21
6.993065588563722
 31
0.0
  0
LINE
  5
251D4
  8
0
  6
CONTINUOUS
 10
44.99999999995498
 20
6.245584797645336
 30
0.0
 11
43.57899999995641
 21
7.666584797643908
 31
0.0
  0
LINE
  5
251D5
  8
0
  6
CONTINUOUS
 10
44.99999999995498
 20
6.919104006725522
 30
0.0
 11
43.57899999995641
 21
8.340104006724093
 31
0.0
  0
LINE
  5
251D6
  8
0
  6
CONTINUOUS
 10
44.99999999995498
 20
7.592623215805709
 30
0.0
 11
43.82952321576943
 21
8.763099999991255
 31
0.0
  0
LINE
  5
251D7
  8
0
  6
CONTINUOUS
 10
44.99999999995498
 20
8.266142424885896
 30
0.0
 11
44.50304242484962
 21
8.763099999991255
 31
0.0
  0
ENDBLK
  5
25201
  8
0
  0
BLOCK
  8
0
  2
*X327
 70
     1
 10
0.0
 20
0.0
 30
0.0
  3
*X327
  1

  0
LINE
  5
251D9
  8
0
  6
CONTINUOUS
 10
0.0
 20
8.548461116714023
 30
0.0
 11
0.2146388832772324
 21
8.763099999991255
 31
0.0
  0
LINE
  5
251DA
  8
0
  6
CONTINUOUS
 10
-0.0000000000000002
 20
7.874941907633837
 30
0.0
 11
0.8881580923574184
 21
8.763099999991255
 31
0.0
  0
LINE
  5
251DB
  8
0
  6
CONTINUOUS
 10
0.0
 20
7.20142269855365
 30
0.0
 11
1.420999999998572
 21
8.622422698552223
 31
0.0
  0
LINE
  5
251DC
  8
0
  6
CONTINUOUS
 10
-0.0000000000000001
 20
6.527903489473465
 30
0.0
 11
1.420999999998571
 21
7.948903489472036
 31
0.0
  0
LINE
  5
251DD
  8
0
  6
CONTINUOUS
 10
-0.0000000000000002
 20
5.854384280393278
 30
0.0
 11
1.420999999998571
 21
7.275384280391849
 31
0.0
  0
LINE
  5
251DE
  8
0
  6
CONTINUOUS
 10
-0.0000000000000002
 20
5.180865071313091
 30
0.0
 11
1.420999999998571
 21
6.601865071311663
 31
0.0
  0
LINE
  5
251DF
  8
0
  6
CONTINUOUS
 10
0.0
 20
4.507345862232905
 30
0.0
 11
1.420999999998571
 21
5.928345862231477
 31
0.0
  0
LINE
  5
251E0
  8
0
  6
CONTINUOUS
 10
-0.0000000000000003
 20
3.833826653152718
 30
0.0
 11
1.420999999998571
 21
5.25482665315129
 31
0.0
  0
LINE
  5
251E1
  8
0
  6
CONTINUOUS
 10
-0.0000000000000002
 20
3.160307444072532
 30
0.0
 11
1.420999999998571
 21
4.581307444071103
 31
0.0
  0
LINE
  5
251E2
  8
0
  6
CONTINUOUS
 10
-0.0000000000000001
 20
2.486788234992345
 30
0.0
 11
1.420999999998571
 21
3.907788234990917
 31
0.0
  0
LINE
  5
251E3
  8
0
  6
CONTINUOUS
 10
-0.0000000000000006
 20
1.813269025912159
 30
0.0
 11
1.420999999998571
 21
3.234269025910731
 31
0.0
  0
LINE
  5
251E4
  8
0
  6
CONTINUOUS
 10
0.0
 20
1.139749816831973
 30
0.0
 11
1.420999999998571
 21
2.560749816830544
 31
0.0
  0
LINE
  5
251E5
  8
0
  6
CONTINUOUS
 10
0.0000000000000002
 20
0.466230607751787
 30
0.0
 11
1.420999999998571
 21
1.887230607750358
 31
0.0
  0
LINE
  5
251E6
  8
0
  6
CONTINUOUS
 10
0.2072886013284003
 20
-0.0000000000000009
 30
0.0
 11
1.420999999998571
 21
1.213711398670171
 31
0.0
  0
LINE
  5
251E7
  8
0
  6
CONTINUOUS
 10
0.8808078104085864
 20
-0.0000000000000009
 30
0.0
 11
1.420999999998571
 21
0.5401921895899839
 31
0.0
  0
LINE
  5
251E8
  8
0
  6
CONTINUOUS
 10
0.0581249075061505
 20
-0.0000000000000009
 30
0.0
 11
-0.0000000000000002
 21
0.0581249075061496
 31
0.0
  0
LINE
  5
251E9
  8
0
  6
CONTINUOUS
 10
0.7316441165863372
 20
-0.0000000000000009
 30
0.0
 11
-0.0000000000000002
 21
0.7316441165863363
 31
0.0
  0
LINE
  5
251EA
  8
0
  6
CONTINUOUS
 10
1.405163325666523
 20
-0.0000000000000009
 30
0.0
 11
-0.0000000000000002
 21
1.405163325666523
 31
0.0
  0
LINE
  5
251EB
  8
0
  6
CONTINUOUS
 10
1.420999999998572
 20
0.6576825347481381
 30
0.0
 11
-0.0000000000000001
 21
2.07868253474671
 31
0.0
  0
LINE
  5
251EC
  8
0
  6
CONTINUOUS
 10
1.420999999998571
 20
1.331201743828324
 30
0.0
 11
-0.0000000000000001
 21
2.752201743826896
 31
0.0
  0
LINE
  5
251ED
  8
0
  6
CONTINUOUS
 10
1.420999999998571
 20
2.004720952908511
 30
0.0
 11
-0.0000000000000002
 21
3.425720952907082
 31
0.0
  0
LINE
  5
251EE
  8
0
  6
CONTINUOUS
 10
1.420999999998571
 20
2.678240161988697
 30
0.0
 11
-0.0000000000000001
 21
4.099240161987269
 31
0.0
  0
LINE
  5
251EF
  8
0
  6
CONTINUOUS
 10
1.420999999998572
 20
3.351759371068884
 30
0.0
 11
0.0
 21
4.772759371067455
 31
0.0
  0
LINE
  5
251F0
  8
0
  6
CONTINUOUS
 10
1.420999999998571
 20
4.02527858014907
 30
0.0
 11
-0.0000000000000003
 21
5.446278580147642
 31
0.0
  0
LINE
  5
251F1
  8
0
  6
CONTINUOUS
 10
1.420999999998571
 20
4.698797789229257
 30
0.0
 11
0.0
 21
6.119797789227828
 31
0.0
  0
LINE
  5
251F2
  8
0
  6
CONTINUOUS
 10
1.420999999998571
 20
5.372316998309444
 30
0.0
 11
-0.0000000000000001
 21
6.793316998308015
 31
0.0
  0
LINE
  5
251F3
  8
0
  6
CONTINUOUS
 10
1.420999999998572
 20
6.045836207389629
 30
0.0
 11
-0.0000000000000004
 21
7.466836207388202
 31
0.0
  0
LINE
  5
251F4
  8
0
  6
CONTINUOUS
 10
1.420999999998571
 20
6.719355416469816
 30
0.0
 11
0.0
 21
8.140355416468388
 31
0.0
  0
LINE
  5
251F5
  8
0
  6
CONTINUOUS
 10
1.420999999998571
 20
7.392874625550003
 30
0.0
 11
0.0507746255573185
 21
8.763099999991255
 31
0.0
  0
LINE
  5
251F6
  8
0
  6
CONTINUOUS
 10
1.420999999998571
 20
8.06639383463019
 30
0.0
 11
0.7242938346375052
 21
8.763099999991255
 31
0.0
  0
LINE
  5
251F7
  8
0
  6
CONTINUOUS
 10
1.420999999998571
 20
8.739913043710375
 30
0.0
 11
1.397813043717691
 21
8.763099999991255
 31
0.0
  0
ENDBLK
  5
25203
  8
0
  0
ENDSEC
  0
SECTION
  2
ENTITIES
  0
LINE
  5
224DD
  8
01
  6
CONTINUOUS
 10
461.4162416153582
 20
-600.2984491602832
 30
-0.0000000000000037
 11
461.4162416153582
 21
-644.2984491602832
 31
-0.0000000000000037
  0
LINE
  5
224DE
  8
01
  6
CONTINUOUS
 10
628.4162416153582
 20
-597.2984491602832
 30
-0.0000000000000037
 11
464.4162416153582
 21
-597.2984491602832
 31
-0.0000000000000037
  0
LINE
  5
224DF
  8
01
  6
CONTINUOUS
 10
402.9162416153
 20
-654.2984491602832
 30
-0.0000000000000037
 11
396.4162416153582
 21
-654.2984491602832
 31
-0.0000000000000037
  0
LINE
  5
224E0
  8
01
  6
CONTINUOUS
 10
631.4162416153582
 20
-644.2984491602832
 30
-0.0000000000000037
 11
631.4162416153582
 21
-600.2984491602832
 31
-0.0000000000000037
  0
LINE
  5
224E2
  8
01
  6
CONTINUOUS
 10
638.4162416153582
 20
-649.2984491602832
 30
-0.0000000000000037
 11
638.4162416153582
 21
-595.2984491602832
 31
-0.0000000000000037
  0
LINE
  5
224E5
  8
01
  6
CONTINUOUS
 10
391.4162416153582
 20
-649.2984491602832
 30
-0.0000000000000037
 11
391.4162416153582
 21
-595.2984491602832
 31
-0.0000000000000037
  0
LINE
  5
224E6
  8
01
  6
CONTINUOUS
 10
449.9162416153582
 20
-654.2984491602832
 30
-0.0000000000000037
 11
633.4162416153582
 21
-654.2984491602832
 31
-0.0000000000000037
  0
LINE
  5
224E7
  8
01
  6
CONTINUOUS
 10
633.4162416153582
 20
-590.2984491602832
 30
-0.0000000000000037
 11
396.4162416153582
 21
-590.2984491602832
 31
-0.0000000000000037
  0
LINE
  5
224E8
  8
01
  6
CONTINUOUS
 10
464.4162416153582
 20
-647.2984491602832
 30
-0.0000000000000037
 11
628.4162416153582
 21
-647.2984491602832
 31
-0.0000000000000037
  0
ARC
  5
224E9
  8
01
 10
402.9162416153
 20
-650.7984491602832
 30
-0.0000000000000037
 40
3.5
 50
270.0
 51
90.0
  0
ARC
  5
224EA
  8
01
 10
449.9162416153582
 20
-650.7984491602832
 30
-0.0000000000000037
 40
3.5
 50
90.0
 51
270.0
  0
ARC
  5
224EF
  8
01
  6
CONTINUOUS
 10
464.4162416153582
 20
-644.2984491602832
 30
-0.0000000000000037
 40
3.0
 50
180.0
 51
270.0
  0
ARC
  5
224F3
  8
01
  6
CONTINUOUS
 10
464.4162416153582
 20
-600.2984491602832
 30
-0.0000000000000037
 40
3.0
 50
90.0
 51
180.0
  0
ARC
  5
224F4
  8
01
  6
CONTINUOUS
 10
628.4162416153582
 20
-644.2984491602832
 30
-0.0000000000000037
 40
3.0
 50
270.0
 51
0.0
  0
ARC
  5
224F5
  8
01
  6
CONTINUOUS
 10
628.4162416153582
 20
-600.2984491602832
 30
-0.0000000000000037
 40
3.0
 50
0.0
 51
90.0
  0
ARC
  5
224F6
  8
01
  6
CONTINUOUS
 10
633.4162416153582
 20
-595.2984491602832
 30
-0.0000000000000037
 40
5.0
 50
0.0
 51
90.0
  0
ARC
  5
224F7
  8
01
  6
CONTINUOUS
 10
633.4162416153582
 20
-649.2984491602832
 30
-0.0000000000000037
 40
5.0
 50
270.0
 51
0.0
  0
ARC
  5
224F8
  8
01
  6
CONTINUOUS
 10
396.4162416153582
 20
-595.2984491602832
 30
-0.0000000000000037
 40
5.0
 50
90.0
 51
180.0
  0
ARC
  5
224F9
  8
01
  6
CONTINUOUS
 10
396.4162416153582
 20
-649.2984491602832
 30
-0.0000000000000037
 40
5.0
 50
180.0
 51
270.0
  0
LINE
  5
224FA
  8
01
 10
454.9162416153582
 20
-590.2984491602832
 30
-0.0000000000000037
 11
454.9162416153582
 21
-568.2984491602832
 31
-0.0000000000000037
  0
LINE
  5
224FB
  8
01
 10
454.9162416153582
 20
-568.2984491602832
 30
-0.0000000000000037
 11
574.9162416153582
 21
-568.2984491602832
 31
-0.0000000000000037
  0
LINE
  5
224FC
  8
01
 10
574.9162416153582
 20
-590.2984491602832
 30
-0.0000000000000037
 11
574.9162416153582
 21
-568.2984491602832
 31
-0.0000000000000037
  0
LINE
  5
224FD
  8
1CENTER
 10
559.9162416153582
 20
-576.4433182345523
 30
-0.0000000000000037
 11
559.9162416153582
 21
-560.3201159527374
 31
-0.0000000000000037
  0
LINE
  5
224FE
  8
1CENTER
 10
469.9162416153873
 20
-576.4433182345523
 30
-0.0000000000000037
 11
469.9162416153873
 21
-560.3201159527374
 31
-0.0000000000000037
  0
LINE
  5
224FF
  8
01
  6
CONTINUOUS
 10
406.4162416153582
 20
-690.0495039365481
 30
-0.0000000000000037
 11
406.4162416153582
 21
-672.0495039365481
 31
-0.0000000000000037
  0
LINE
  5
22500
  8
01
  6
CONTINUOUS
 10
446.4162416153582
 20
-672.0495039365481
 30
-0.0000000000000037
 11
446.4162416153582
 21
-690.0495039365481
 31
-0.0000000000000037
  0
LINE
  5
22501
  8
01
  6
CONTINUOUS
 10
638.4162416153582
 20
-690.0495039365481
 30
-0.0000000000000037
 11
638.4162416153582
 21
-672.0495039365481
 31
-0.0000000000000037
  0
LINE
  5
22502
  8
01
  6
CONTINUOUS
 10
391.4162416153582
 20
-672.0495039365481
 30
-0.0000000000000037
 11
391.4162416153582
 21
-690.0495039365481
 31
-0.0000000000000037
  0
ARC
  5
22503
  8
01
  6
CONTINUOUS
 10
392.4162416153582
 20
-672.0495039365481
 30
-0.0000000000000037
 40
1.0
 50
90.0
 51
180.0
  0
ARC
  5
22504
  8
01
  6
CONTINUOUS
 10
392.4162416153582
 20
-690.0495039365481
 30
-0.0000000000000037
 40
1.0
 50
180.0
 51
270.0
  0
LINE
  5
22505
  8
01
  6
CONTINUOUS
 10
392.4162416153582
 20
-671.0495039365481
 30
-0.0000000000000037
 11
637.4162416153582
 21
-671.0495039365481
 31
-0.0000000000000037
  0
LINE
  5
22506
  8
01
  6
CONTINUOUS
 10
392.4162416153582
 20
-691.0495039365481
 30
-0.0000000000000037
 11
637.4162416153582
 21
-691.0495039365481
 31
-0.0000000000000037
  0
ARC
  5
22507
  8
01
  6
CONTINUOUS
 10
405.4162416153582
 20
-672.0495039365481
 30
-0.0000000000000037
 40
1.0
 50
0.0
 51
90.0
  0
ARC
  5
22508
  8
01
  6
CONTINUOUS
 10
405.4162416153582
 20
-690.0495039365481
 30
-0.0000000000000037
 40
1.0
 50
270.0
 51
0.0
  0
ARC
  5
22509
  8
01
  6
CONTINUOUS
 10
637.4162416153582
 20
-672.0495039365481
 30
-0.0000000000000037
 40
1.0
 50
0.0
 51
90.0
  0
ARC
  5
2250A
  8
01
  6
CONTINUOUS
 10
637.4162416153582
 20
-690.0495039365481
 30
-0.0000000000000037
 40
1.0
 50
270.0
 51
0.0
  0
ARC
  5
2250B
  8
01
  6
CONTINUOUS
 10
447.4162416153582
 20
-672.0495039365481
 30
-0.0000000000000037
 40
1.0
 50
90.0
 51
180.0
  0
ARC
  5
2250C
  8
01
  6
CONTINUOUS
 10
447.4162416153582
 20
-690.0495039365481
 30
-0.0000000000000037
 40
1.0
 50
180.0
 51
270.0
  0
LINE
  5
2250D
  8
01
  6
CONTINUOUS
 10
645.016241615364
 20
-690.0495039365481
 30
-0.0000000000000037
 11
645.016241615364
 21
-672.0495039365481
 31
-0.0000000000000037
  0
LINE
  5
2250E
  8
01
  6
CONTINUOUS
 10
709.016241615364
 20
-672.0495039365483
 30
-0.0000000000000037
 11
709.016241615364
 21
-690.0495039365483
 31
-0.0000000000000037
  0
LINE
  5
2250F
  8
01
  6
CONTINUOUS
 10
646.016241615364
 20
-671.0495039365481
 30
-0.0000000000000037
 11
708.016241615364
 21
-671.0495039365483
 31
-0.0000000000000037
  0
LINE
  5
22510
  8
01
  6
CONTINUOUS
 10
646.016241615364
 20
-691.0495039365481
 30
-0.0000000000000037
 11
708.016241615364
 21
-691.0495039365483
 31
-0.0000000000000037
  0
LINE
  5
22511
  8
01
  6
CONTINUOUS
 10
709.016241615364
 20
-689.0495039365483
 30
-0.0000000000000037
 11
709.016241615364
 21
-673.0495039365483
 31
-0.0000000000000037
  0
ARC
  5
22515
  8
01
  6
CONTINUOUS
 10
708.016241615364
 20
-690.0495039365483
 30
-0.0000000000000037
 40
1.0
 50
270.0
 51
0.0
  0
ARC
  5
22516
  8
01
  6
CONTINUOUS
 10
708.016241615364
 20
-672.0495039365483
 30
-0.0000000000000037
 40
1.0
 50
0.0
 51
90.0
  0
ARC
  5
22517
  8
01
  6
CONTINUOUS
 10
646.016241615364
 20
-690.0495039365481
 30
-0.0000000000000037
 40
1.0
 50
180.0
 51
270.0
  0
ARC
  5
22518
  8
01
  6
CONTINUOUS
 10
646.016241615364
 20
-672.0495039365481
 30
-0.0000000000000037
 40
1.0
 50
90.0
 51
180.0
  0
LINE
  5
225B2
  8
1PHANTOM
 10
716.516241615364
 20
-688.0495039365483
 30
-0.0000000000000037
 11
716.516241615364
 21
-687.0495039365483
 31
-0.0000000000000037
  0
LINE
  5
225B3
  8
1PHANTOM
 10
709.516241615364
 20
-688.0495039365483
 30
-0.0000000000000037
 11
709.516241615364
 21
-687.0495039365483
 31
-0.0000000000000037
  0
LINE
  5
225B5
  8
01
  6
CONTINUOUS
 10
395.9162416153582
 20
-650.7984491602832
 30
-0.0000000000000037
 11
401.9162416153582
 21
-650.7984491602832
 31
-0.0000000000000037
  0
LINE
  5
225B6
  8
01
  6
CONTINUOUS
 10
456.9162416153873
 20
-650.7984491602832
 30
-0.0000000000000037
 11
450.9162416153582
 21
-650.7984491602832
 31
-0.0000000000000037
  0
LINE
  5
225B7
  8
01
  6
CONTINUOUS
 10
402.9162416153582
 20
-604.7984491602832
 30
-0.0000000000000037
 11
402.9162416153582
 21
-649.7984491602832
 31
-0.0000000000000037
  0
LINE
  5
225B8
  8
01
  6
CONTINUOUS
 10
394.9162416153582
 20
-649.7984491602832
 30
-0.0000000000000037
 11
394.9162416153582
 21
-596.7984491602832
 31
-0.0000000000000037
  0
LINE
  5
225B9
  8
01
  6
CONTINUOUS
 10
457.9162416153873
 20
-649.7984491602832
 30
-0.0000000000000037
 11
457.9162416153873
 21
-596.7984491602832
 31
-0.0000000000000037
  0
LINE
  5
225BA
  8
01
  6
CONTINUOUS
 10
449.9162416153582
 20
-649.7984491602832
 30
-0.0000000000000037
 11
449.9162416153582
 21
-604.7984491602832
 31
-0.0000000000000037
  0
LINE
  5
225BB
  8
01
  6
CONTINUOUS
 10
405.9162416153582
 20
-601.7984491602832
 30
-0.0000000000000037
 11
446.9162416153582
 21
-601.7984491602832
 31
-0.0000000000000037
  0
LINE
  5
225BC
  8
01
  6
CONTINUOUS
 10
397.9162416153582
 20
-593.7984491602832
 30
-0.0000000000000037
 11
454.9162416153873
 21
-593.7984491602832
 31
-0.0000000000000037
  0
ARC
  5
225BE
  8
01
  6
CONTINUOUS
 10
446.9162416153582
 20
-604.7984491602832
 30
-0.0000000000000037
 40
3.0
 50
0.0
 51
90.0
  0
ARC
  5
225BF
  8
01
  6
CONTINUOUS
 10
454.9162416153873
 20
-596.7984491602832
 30
-0.0000000000000037
 40
3.0
 50
0.0
 51
90.0
  0
ARC
  5
225C0
  8
01
  6
CONTINUOUS
 10
405.9162416153582
 20
-604.7984491602832
 30
-0.0000000000000037
 40
3.0
 50
90.0
 51
180.0
  0
ARC
  5
225C1
  8
01
  6
CONTINUOUS
 10
397.9162416153582
 20
-596.7984491602832
 30
-0.0000000000000037
 40
3.0
 50
90.0
 51
180.0
  0
ARC
  5
225C2
  8
01
  6
CONTINUOUS
 10
456.9162416153873
 20
-649.7984491602832
 30
-0.0000000000000037
 40
1.0
 50
270.0
 51
0.0
  0
ARC
  5
225C3
  8
01
  6
CONTINUOUS
 10
450.9162416153582
 20
-649.7984491602832
 30
-0.0000000000000037
 40
1.0
 50
180.0
 51
270.0
  0
ARC
  5
225C4
  8
01
  6
CONTINUOUS
 10
401.9162416153582
 20
-649.7984491602832
 30
-0.0000000000000037
 40
1.0
 50
270.0
 51
0.0
  0
ARC
  5
225C5
  8
01
  6
CONTINUOUS
 10
395.9162416153582
 20
-649.7984491602832
 30
-0.0000000000000037
 40
1.0
 50
180.0
 51
270.0
  0
LINE
  5
225CC
  8
01
 10
709.016241615364
 20
-671.0495039365483
 30
-0.0000000000000037
 11
731.016241615364
 21
-671.0495039365483
 31
-0.0000000000000037
  0
ARC
  5
225CF
  8
01
 10
729.3703075382097
 20
-704.0495039365483
 30
-0.0000000000000037
 40
2.000000000000025
 50
201.8014094866609
 51
270.0
  0
LINE
  5
225D0
  8
01
 10
727.5133541564452
 20
-704.7922852892657
 30
-0.0000000000000037
 11
723.0220165332017
 21
-693.5639412311716
 31
-0.0000000000000037
  0
ARC
  5
225D1
  8
01
 10
719.3081097696728
 20
-695.0495039365483
 30
-0.0000000000000037
 40
4.000000000000008
 50
21.8014094857313
 51
90.0
  0
LINE
  5
225D2
  8
01
 10
719.3081097696728
 20
-691.0495039365483
 30
-0.0000000000000037
 11
709.016241615364
 21
-691.0495039365483
 31
-0.0000000000000037
  0
LINE
  5
225D6
  8
01
 10
731.016241615364
 20
-706.0495039365483
 30
-0.0000000000000037
 11
729.3703075382097
 21
-706.0495039365483
 31
-0.0000000000000037
  0
LINE
  5
225DB
  8
01
 10
731.016241615364
 20
-671.0495039365483
 30
-0.0000000000000037
 11
731.016241615364
 21
-706.0495039365483
 31
-0.0000000000000037
  0
LINE
  5
225DC
  8
01
 10
709.016241615364
 20
-671.0495039365483
 30
-0.0000000000000037
 11
709.016241615364
 21
-691.0495039365483
 31
-0.0000000000000037
  0
LINE
  5
2294B
  8
01
  6
CONTINUOUS
 10
454.9162416153582
 20
-691.0495039365481
 30
-0.0000000000000037
 11
454.9162416153582
 21
-704.0495039365481
 31
-0.0000000000000037
  0
LINE
  5
22951
  8
01
  6
CONTINUOUS
 10
549.4162416153582
 20
-691.0495039365481
 30
-0.0000000000000037
 11
572.9162416153582
 21
-691.0495039365481
 31
-0.0000000000000037
  0
LINE
  5
2295C
  8
01
  6
CONTINUOUS
 10
574.9162416153582
 20
-691.0495039365481
 30
-0.0000000000000037
 11
574.9162416153582
 21
-704.0495039365481
 31
-0.0000000000000037
  0
LINE
  5
2295D
  8
01
  6
CONTINUOUS
 10
572.9162416153582
 20
-706.0495039365481
 30
-0.0000000000000037
 11
456.9162416153582
 21
-706.0495039365481
 31
-0.0000000000000037
  0
ARC
  5
2295E
  8
01
  6
CONTINUOUS
 10
572.9162416153582
 20
-704.0495039365481
 30
-0.0000000000000037
 40
2.0
 50
270.0
 51
0.0
  0
ARC
  5
2295F
  8
01
  6
CONTINUOUS
 10
456.9162416153582
 20
-704.0495039365481
 30
-0.0000000000000037
 40
2.0
 50
180.0
 51
270.0
  0
CIRCLE
  5
22960
  8
01
  6
CONTINUOUS
 10
469.9162416153582
 20
-681.0495039365481
 30
-0.0000000000000037
 40
2.25
  0
CIRCLE
  5
22961
  8
01
  6
CONTINUOUS
 10
559.9162416153582
 20
-681.0495039365481
 30
-0.0000000000000037
 40
2.250000000000028
  0
LINE
  5
22964
  8
1CENTER
 10
469.9162416153582
 20
-676.9495039365423
 30
-0.0000000000000037
 11
469.9162416153582
 21
-685.1433093861555
 31
-0.0000000000000037
  0
LINE
  5
22965
  8
1CENTER
 10
473.9162416153582
 20
-681.0495039365481
 30
-0.0000000000000037
 11
465.5287998115988
 21
-681.0495039365481
 31
-0.0000000000000037
  0
LINE
  5
22966
  8
1CENTER
 10
559.9162416153582
 20
-676.9495039365423
 30
0.0
 11
559.9162416153582
 21
-685.2492133014888
 31
0.0
  0
LINE
  5
22967
  8
1CENTER
 10
555.1162416153699
 20
-681.0495039365481
 30
0.0
 11
564.6913534400688
 21
-681.0495039365481
 31
0.0
  0
LINE
  5
2296A
  8
01
 10
727.016241615364
 20
-681.5495037896525
 30
0.0
 11
728.016241615364
 21
-680.5495040896525
 31
0.0
  0
LINE
  5
22971
  8
01
 10
743.516241615364
 20
-658.8213303512664
 30
0.0
 11
743.516241615364
 21
-733.2776775218301
 31
0.0
  0
LINE
  5
22972
  8
01
 10
752.516241615364
 20
-658.8213303512664
 30
0.0
 11
752.516241615364
 21
-733.2776775218301
 31
0.0
  0
LINE
  5
22973
  8
01
 10
731.016241615364
 20
-658.8213303512664
 30
0.0
 11
731.016241615364
 21
-733.2776775218301
 31
0.0
  0
LINE
  5
229FA
  8
1PHANTOM
 10
709.516241615364
 20
-687.0495039365483
 30
-0.0000000000000037
 11
716.516241615364
 21
-687.0495039365483
 31
-0.0000000000000037
  0
LINE
  5
22A00
  8
1PHANTOM
 10
560.4162414684625
 20
-572.2984491602832
 30
-0.0000000000000037
 11
559.4162417684626
 21
-571.2984491602832
 31
-0.0000000000000037
  0
LINE
  5
22A01
  8
1PHANTOM
 10
563.7162416184625
 20
-572.2984491602832
 30
-0.0000000000000037
 11
563.7162416184625
 21
-571.2984491602832
 31
-0.0000000000000037
  0
LINE
  5
22A02
  8
1PHANTOM
 10
563.7162416184625
 20
-571.2984491602832
 30
-0.0000000000000037
 11
556.1162416184626
 21
-571.2984491602832
 31
-0.0000000000000037
  0
LINE
  5
22A03
  8
1PHANTOM
 10
563.7162416184625
 20
-572.2984491602832
 30
-0.0000000000000037
 11
556.1162416184626
 21
-572.2984491602832
 31
-0.0000000000000037
  0
LINE
  5
22A04
  8
1PHANTOM
 10
556.1162416184626
 20
-572.2984491602832
 30
-0.0000000000000037
 11
556.1162416184626
 21
-571.2984491602832
 31
-0.0000000000000037
  0
LINE
  5
22A07
  8
1PHANTOM
 10
470.4162414684916
 20
-572.2984491602832
 30
-0.0000000000000037
 11
469.4162417684917
 21
-571.2984491602832
 31
-0.0000000000000037
  0
TEXT
  5
23736
  8
1TEXT
 10
600.2038686286623
 20
-542.3213303512657
 30
0.0
 40
4.0
  1
表面処理:リング
 72
     1
 11
617.4047945545883
 21
-542.3213303512657
 31
0.0
  0
LINE
  5
23737
  8
1DIM
 10
595.0047945545882
 20
-536.8213303512657
 30
0.0
 11
755.004794554588
 21
-536.8213303512657
 31
0.0
  0
LINE
  5
23738
  8
1DIM
 10
595.0047945545882
 20
-550.8213303512657
 30
0.0
 11
683.004794554588
 21
-550.8213303512657
 31
0.0
  0
LINE
  5
23739
  8
1DIM
 10
595.0047945545882
 20
-543.8213303512657
 30
0.0
 11
755.0047945545882
 21
-543.8213303512657
 31
0.0
  0
TEXT
  5
2373A
  8
1TEXT
 10
727.0334149436679
 20
-542.3213303512656
 30
0.0
 40
4.0
  1
コード
 72
     1
 11
733.9000816103346
 21
-542.3213303512656
 31
0.0
  0
TEXT
  5
2373B
  8
1TEXT
 10
605.0047945545882
 20
-531.8213303512657
 30
0.0
 40
8.0
  1
SE-420-X
  0
TEXT
  5
2373C
  8
1TEXT
 10
607.9381278879216
 20
-549.15661901079
 30
0.0
 40
4.0
  1
クローム
 72
     1
 11
617.4047945545883
 21
-549.15661901079
 31
0.0
  0
TEXT
  5
2373D
  8
1TEXT
 10
720.6588702945579
 20
-549.5356873349149
 30
0.0
 40
4.0
  1
SE-420-XC
 41
0.85
 72
     1
 11
735.108870294558
 21
-549.5356873349149
 31
0.0
  0
LINE
  5
2373E
  8
1DIM
 10
595.0047945545882
 20
-557.8213303512657
 30
0.0
 11
683.004794554588
 21
-557.8213303512657
 31
0.0
  0
TEXT
  5
2373F
  8
1TEXT
 10
596.471461221255
 20
-556.15661901079
 30
0.0
 40
4.0
  1
セラミックホワイト
 72
     1
 11
617.4047945545883
 21
-556.15661901079
 31
0.0
  0
TEXT
  5
23740
  8
1TEXT
 10
718.392203627892
 20
-556.5356873349149
 30
0.0
 40
4.0
  1
SE-420-001C
 41
0.85
 72
     1
 11
735.1088702945586
 21
-556.5356873349149
 31
0.0
  0
LINE
  5
23741
  8
1DIM
 10
595.0047945545882
 20
-564.8213303512657
 30
0.0
 11
755.0047945545882
 21
-564.8213303512657
 31
0.0
  0
TEXT
  5
23742
  8
1TEXT
 10
601.1381278879217
 20
-563.15661901079
 30
0.0
 40
4.0
  1
マットブラック
 72
     1
 11
617.4047945545883
 21
-563.15661901079
 31
0.0
  0
TEXT
  5
23743
  8
1TEXT
 10
717.8255369612253
 20
-563.5356873349149
 30
0.0
 40
4.0
  1
SE-420-003C
 41
0.85
 72
     1
 11
735.1088702945586
 21
-563.5356873349149
 31
0.0
  0
LINE
  5
23744
  8
1DIM
 10
595.0047945545882
 20
-564.8213303512657
 30
0.0
 11
595.0047945545882
 21
-536.8213303512657
 31
0.0
  0
LINE
  5
23745
  8
1DIM
 10
640.0047945545882
 20
-536.8213303512657
 30
0.0
 11
640.0047945545873
 21
-564.8213303512657
 31
0.0
  0
TEXT
  5
23746
  8
1TEXT
 10
683.7756025911794
 20
-542.3213303512656
 30
0.0
 40
4.0
  1
表面処理:本体
 72
     1
 11
698.5098618504387
 21
-542.3213303512656
 31
0.0
  0
TEXT
  5
23747
  8
1TEXT
 10
688.8936788719941
 20
-556.1566190107899
 30
0.0
 40
4.0
  1
クローム
 72
     1
 11
698.3603455386608
 21
-556.1566190107899
 31
0.0
  0
LINE
  5
23748
  8
1DIM
 10
715.0047945545878
 20
-550.8213303512656
 30
0.0
 11
755.0047945545882
 21
-550.8213303512656
 31
0.0
  0
LINE
  5
23749
  8
1DIM
 10
715.0047945545875
 20
-557.8213303512656
 30
0.0
 11
755.0047945545882
 21
-557.8213303512656
 31
0.0
  0
LINE
  5
2374A
  8
1DIM
 10
755.0047945545873
 20
-564.8213303512657
 30
0.0
 11
755.0047945545882
 21
-536.8213303512657
 31
0.0
  0
LINE
  5
2374D
  8
1DIM
 10
715.0047945545882
 20
-536.8213303512656
 30
0.0
 11
715.0047945545873
 21
-564.8213303512656
 31
0.0
  0
TEXT
  5
2374E
  8
1TEXT
 10
652.6962817630764
 20
-556.15661901079
 30
0.0
 40
4.0
  1
ホワイト
 72
     1
 11
661.6296150964097
 21
-556.15661901079
 31
0.0
  0
TEXT
  5
2374F
  8
1TEXT
 10
652.3816228374536
 20
-549.0797789161163
 30
0.0
 40
4.0
  1
ブラック
 72
     1
 11
661.3816228374536
 21
-549.0797789161163
 31
0.0
  0
LINE
  5
23750
  8
1DIM
 10
683.0047945545882
 20
-536.8213303512657
 30
0.0
 11
683.0047945545873
 21
-564.8213303512657
 31
0.0
  0
LINE
  5
239AB
  8
01
  6
CONTINUOUS
 10
456.925682836913
 20
-660.0495043862605
 30
-0.0000000000000037
 11
451.9186263141769
 21
-660.0495043862605
 31
-0.0000000000000037
  0
POLYLINE
  5
239AC
  8
01
  6
CONTINUOUS
 66
     1
 10
0.0
 20
0.0
 30
-0.0000000000000037
  0
VERTEX
  5
24F04
  8
01
  6
CONTINUOUS
 10
457.9162416153727
 20
-661.0491892294953
 30
-0.0000000000000037
  0
VERTEX
  5
24F05
  8
01
  6
CONTINUOUS
 10
457.9136188983817
 20
-661.0245626677672
 30
-0.0000000000000037
  0
VERTEX
  5
24F06
  8
01
  6
CONTINUOUS
 10
457.910945960165
 20
-660.9999515890056
 30
-0.0000000000000037
  0
VERTEX
  5
24F07
  8
01
  6
CONTINUOUS
 10
457.9081725794975
 20
-660.9753714761767
 30
-0.0000000000000037
  0
VERTEX
  5
24F08
  8
01
  6
CONTINUOUS
 10
457.905248535154
 20
-660.9508378122464
 30
-0.0000000000000037
  0
VERTEX
  5
24F09
  8
01
  6
CONTINUOUS
 10
457.9021236059093
 20
-660.926366080181
 30
-0.0000000000000037
  0
VERTEX
  5
24F0A
  8
01
  6
CONTINUOUS
 10
457.8987475705381
 20
-660.9019717629466
 30
-0.0000000000000037
  0
VERTEX
  5
24F0B
  8
01
  6
CONTINUOUS
 10
457.8950702078155
 20
-660.8776703435091
 30
-0.0000000000000037
  0
VERTEX
  5
24F0C
  8
01
  6
CONTINUOUS
 10
457.8910412965159
 20
-660.8534773048349
 30
-0.0000000000000037
  0
VERTEX
  5
24F0D
  8
01
  6
CONTINUOUS
 10
457.8866106154143
 20
-660.8294081298897
 30
-0.0000000000000037
  0
VERTEX
  5
24F0E
  8
01
  6
CONTINUOUS
 10
457.8817279432856
 20
-660.8054783016399
 30
-0.0000000000000037
  0
VERTEX
  5
24F0F
  8
01
  6
CONTINUOUS
 10
457.8763430589044
 20
-660.7817033030518
 30
-0.0000000000000037
  0
VERTEX
  5
24F10
  8
01
  6
CONTINUOUS
 10
457.8704057410457
 20
-660.758098617091
 30
-0.0000000000000037
  0
VERTEX
  5
24F11
  8
01
  6
CONTINUOUS
 10
457.8638657684841
 20
-660.7346797267242
 30
-0.0000000000000037
  0
VERTEX
  5
24F12
  8
01
  6
CONTINUOUS
 10
457.8566729199945
 20
-660.7114621149169
 30
-0.0000000000000037
  0
VERTEX
  5
24F13
  8
01
  6
CONTINUOUS
 10
457.8487769743517
 20
-660.6884612646356
 30
-0.0000000000000037
  0
VERTEX
  5
24F14
  8
01
  6
CONTINUOUS
 10
457.8401322327698
 20
-660.6656923888798
 30
-0.0000000000000037
  0
VERTEX
  5
24F15
  8
01
  6
CONTINUOUS
 10
457.8307444685121
 20
-660.6431676280315
 30
-0.0000000000000037
  0
VERTEX
  5
24F16
  8
01
  6
CONTINUOUS
 10
457.8206521470443
 20
-660.620897170916
 30
-0.0000000000000037
  0
VERTEX
  5
24F17
  8
01
  6
CONTINUOUS
 10
457.8098942559998
 20
-660.5988911751872
 30
-0.0000000000000037
  0
VERTEX
  5
24F18
  8
01
  6
CONTINUOUS
 10
457.7985097830123
 20
-660.5771597984996
 30
-0.0000000000000037
  0
VERTEX
  5
24F19
  8
01
  6
CONTINUOUS
 10
457.7865377157154
 20
-660.5557131985073
 30
-0.0000000000000037
  0
VERTEX
  5
24F1A
  8
01
  6
CONTINUOUS
 10
457.7740170417426
 20
-660.5345615328648
 30
-0.0000000000000037
  0
VERTEX
  5
24F1B
  8
01
  6
CONTINUOUS
 10
457.7609867487275
 20
-660.5137149592264
 30
-0.0000000000000037
  0
VERTEX
  5
24F1C
  8
01
  6
CONTINUOUS
 10
457.7474853453007
 20
-660.4931836874764
 30
-0.0000000000000037
  0
VERTEX
  5
24F1D
  8
01
  6
CONTINUOUS
 10
457.7335349220951
 20
-660.4729797177116
 30
-0.0000000000000037
  0
VERTEX
  5
24F1E
  8
01
  6
CONTINUOUS
 10
457.7191374358566
 20
-660.4531172454198
 30
-0.0000000000000037
  0
VERTEX
  5
24F1F
  8
01
  6
CONTINUOUS
 10
457.7042936114391
 20
-660.4336106004135
 30
-0.0000000000000037
  0
VERTEX
  5
24F20
  8
01
  6
CONTINUOUS
 10
457.6890041736966
 20
-660.4144741125057
 30
-0.0000000000000037
  0
VERTEX
  5
24F21
  8
01
  6
CONTINUOUS
 10
457.6732698474831
 20
-660.3957221115089
 30
-0.0000000000000037
  0
VERTEX
  5
24F22
  8
01
  6
CONTINUOUS
 10
457.6570913576527
 20
-660.3773689272359
 30
-0.0000000000000037
  0
VERTEX
  5
24F23
  8
01
  6
CONTINUOUS
 10
457.6404694290592
 20
-660.3594288894997
 30
-0.0000000000000037
  0
VERTEX
  5
24F24
  8
01
  6
CONTINUOUS
 10
457.6234047865568
 20
-660.3419163281126
 30
-0.0000000000000037
  0
VERTEX
  5
24F25
  8
01
  6
CONTINUOUS
 10
457.6059003977052
 20
-660.3248433309201
 30
-0.0000000000000037
  0
VERTEX
  5
24F26
  8
01
  6
CONTINUOUS
 10
457.5879682891103
 20
-660.3082129297037
 30
-0.0000000000000037
  0
VERTEX
  5
24F27
  8
01
  6
CONTINUOUS
 10
457.5696227744113
 20
-660.2920258699645
 30
-0.0000000000000037
  0
VERTEX
  5
24F28
  8
01
  6
CONTINUOUS
 10
457.5508781672477
 20
-660.2762828972033
 30
-0.0000000000000037
  0
VERTEX
  5
24F29
  8
01
  6
CONTINUOUS
 10
457.5317487812588
 20
-660.2609847569212
 30
-0.0000000000000037
  0
VERTEX
  5
24F2A
  8
01
  6
CONTINUOUS
 10
457.5122489300841
 20
-660.2461321946191
 30
-0.0000000000000037
  0
VERTEX
  5
24F2B
  8
01
  6
CONTINUOUS
 10
457.4923929273629
 20
-660.2317259557981
 30
-0.0000000000000037
  0
VERTEX
  5
24F2C
  8
01
  6
CONTINUOUS
 10
457.4721950867345
 20
-660.2177667859589
 30
-0.0000000000000037
  0
VERTEX
  5
24F2D
  8
01
  6
CONTINUOUS
 10
457.4516695920339
 20
-660.2042566261922
 30
-0.0000000000000037
  0
VERTEX
  5
24F2E
  8
01
  6
CONTINUOUS
 10
457.4308284527544
 20
-660.1912174447714
 30
-0.0000000000000037
  0
VERTEX
  5
24F2F
  8
01
  6
CONTINUOUS
 10
457.4096818773247
 20
-660.1786877990228
 30
-0.0000000000000037
  0
VERTEX
  5
24F30
  8
01
  6
CONTINUOUS
 10
457.388240019855
 20
-660.1667067465805
 30
-0.0000000000000037
  0
VERTEX
  5
24F31
  8
01
  6
CONTINUOUS
 10
457.3665130344555
 20
-660.1553133450786
 30
-0.0000000000000037
  0
VERTEX
  5
24F32
  8
01
  6
CONTINUOUS
 10
457.3445110752364
 20
-660.1445466521511
 30
-0.0000000000000037
  0
VERTEX
  5
24F33
  8
01
  6
CONTINUOUS
 10
457.3222442963079
 20
-660.134445725432
 30
-0.0000000000000037
  0
VERTEX
  5
24F34
  8
01
  6
CONTINUOUS
 10
457.2997228517805
 20
-660.1250496225556
 30
-0.0000000000000037
  0
VERTEX
  5
24F35
  8
01
  6
CONTINUOUS
 10
457.2769569258356
 20
-660.1163968994623
 30
-0.0000000000000037
  0
VERTEX
  5
24F36
  8
01
  6
CONTINUOUS
 10
457.2539586488759
 20
-660.1084936424634
 30
-0.0000000000000037
  0
VERTEX
  5
24F37
  8
01
  6
CONTINUOUS
 10
457.2307432525221
 20
-660.1012941989304
 30
-0.0000000000000037
  0
VERTEX
  5
24F38
  8
01
  6
CONTINUOUS
 10
457.2073262453025
 20
-660.0947482964731
 30
-0.0000000000000037
  0
VERTEX
  5
24F39
  8
01
  6
CONTINUOUS
 10
457.1837231357451
 20
-660.0888056627009
 30
-0.0000000000000037
  0
VERTEX
  5
24F3A
  8
01
  6
CONTINUOUS
 10
457.1599494323781
 20
-660.0834160252236
 30
-0.0000000000000037
  0
VERTEX
  5
24F3B
  8
01
  6
CONTINUOUS
 10
457.1360206437297
 20
-660.0785291116508
 30
-0.0000000000000037
  0
VERTEX
  5
24F3C
  8
01
  6
CONTINUOUS
 10
457.111952278328
 20
-660.0740946495921
 30
-0.0000000000000037
  0
VERTEX
  5
24F3D
  8
01
  6
CONTINUOUS
 10
457.0877598447012
 20
-660.070062366657
 30
-0.0000000000000037
  0
VERTEX
  5
24F3E
  8
01
  6
CONTINUOUS
 10
457.0634588513773
 20
-660.0663819904553
 30
-0.0000000000000037
  0
VERTEX
  5
24F3F
  8
01
  6
CONTINUOUS
 10
457.0390648068845
 20
-660.0630032485965
 30
-0.0000000000000037
  0
VERTEX
  5
24F40
  8
01
  6
CONTINUOUS
 10
457.014593219751
 20
-660.0598758686904
 30
-0.0000000000000037
  0
VERTEX
  5
24F41
  8
01
  6
CONTINUOUS
 10
456.990059598505
 20
-660.0569495783462
 30
-0.0000000000000037
  0
VERTEX
  5
24F42
  8
01
  6
CONTINUOUS
 10
456.9654794516745
 20
-660.0541741051741
 30
-0.0000000000000037
  0
VERTEX
  5
24F43
  8
01
  6
CONTINUOUS
 10
456.9408682877876
 20
-660.0514991767833
 30
-0.0000000000000037
  0
VERTEX
  5
24F44
  8
01
  6
CONTINUOUS
 10
456.9162416153727
 20
-660.0488745207834
 30
-0.0000000000000037
  0
SEQEND
  5
25204
  8
01
  6
CONTINUOUS
  0
POLYLINE
  5
239AD
  8
01
  6
CONTINUOUS
 66
     1
 10
0.0
 20
0.0
 30
-0.00000000000131
  0
VERTEX
  5
24F45
  8
01
  6
CONTINUOUS
 10
451.9186263141769
 20
-660.0488745207834
 30
-0.00000000000131
  0
VERTEX
  5
24F46
  8
01
  6
CONTINUOUS
 10
451.8939996417647
 20
-660.0514991767833
 30
-0.00000000000131
  0
VERTEX
  5
24F47
  8
01
  6
CONTINUOUS
 10
451.8693884778802
 20
-660.0541741051741
 30
-0.00000000000131
  0
VERTEX
  5
24F48
  8
01
  6
CONTINUOUS
 10
451.8448083310518
 20
-660.0569495783462
 30
-0.00000000000131
  0
VERTEX
  5
24F49
  8
01
  6
CONTINUOUS
 10
451.8202747098074
 20
-660.0598758686904
 30
-0.00000000000131
  0
VERTEX
  5
24F4A
  8
01
  6
CONTINUOUS
 10
451.7958031226754
 20
-660.0630032485965
 30
-0.00000000000131
  0
VERTEX
  5
24F4B
  8
01
  6
CONTINUOUS
 10
451.7714090781839
 20
-660.0663819904553
 30
-0.00000000000131
  0
VERTEX
  5
24F4C
  8
01
  6
CONTINUOUS
 10
451.7471080848609
 20
-660.070062366657
 30
-0.00000000000131
  0
VERTEX
  5
24F4D
  8
01
  6
CONTINUOUS
 10
451.7229156512349
 20
-660.074094649592
 30
-0.00000000000131
  0
VERTEX
  5
24F4E
  8
01
  6
CONTINUOUS
 10
451.6988472858338
 20
-660.0785291116507
 30
-0.00000000000131
  0
VERTEX
  5
24F4F
  8
01
  6
CONTINUOUS
 10
451.6749184971858
 20
-660.0834160252236
 30
-0.00000000000131
  0
VERTEX
  5
24F50
  8
01
  6
CONTINUOUS
 10
451.6511447938191
 20
-660.0888056627009
 30
-0.00000000000131
  0
VERTEX
  5
24F51
  8
01
  6
CONTINUOUS
 10
451.627541684262
 20
-660.094748296473
 30
-0.00000000000131
  0
VERTEX
  5
24F52
  8
01
  6
CONTINUOUS
 10
451.6041246770424
 20
-660.1012941989303
 30
-0.00000000000131
  0
VERTEX
  5
24F53
  8
01
  6
CONTINUOUS
 10
451.5809092806887
 20
-660.1084936424633
 30
-0.00000000000131
  0
VERTEX
  5
24F54
  8
01
  6
CONTINUOUS
 10
451.557911003729
 20
-660.1163968994621
 30
-0.00000000000131
  0
VERTEX
  5
24F55
  8
01
  6
CONTINUOUS
 10
451.5351450777842
 20
-660.1250496225554
 30
-0.00000000000131
  0
VERTEX
  5
24F56
  8
01
  6
CONTINUOUS
 10
451.5126236332567
 20
-660.134445725432
 30
-0.00000000000131
  0
VERTEX
  5
24F57
  8
01
  6
CONTINUOUS
 10
451.4903568543284
 20
-660.1445466521508
 30
-0.00000000000131
  0
VERTEX
  5
24F58
  8
01
  6
CONTINUOUS
 10
451.4683548951093
 20
-660.1553133450783
 30
-0.00000000000131
  0
VERTEX
  5
24F59
  8
01
  6
CONTINUOUS
 10
451.4466279097098
 20
-660.1667067465802
 30
-0.00000000000131
  0
VERTEX
  5
24F5A
  8
01
  6
CONTINUOUS
 10
451.42518605224
 20
-660.1786877990224
 30
-0.00000000000131
  0
VERTEX
  5
24F5B
  8
01
  6
CONTINUOUS
 10
451.4040394768103
 20
-660.191217444771
 30
-0.00000000000131
  0
VERTEX
  5
24F5C
  8
01
  6
CONTINUOUS
 10
451.383198337531
 20
-660.2042566261919
 30
-0.00000000000131
  0
VERTEX
  5
24F5D
  8
01
  6
CONTINUOUS
 10
451.3626728428303
 20
-660.2177667859586
 30
-0.00000000000131
  0
VERTEX
  5
24F5E
  8
01
  6
CONTINUOUS
 10
451.342475002202
 20
-660.2317259557977
 30
-0.00000000000131
  0
VERTEX
  5
24F5F
  8
01
  6
CONTINUOUS
 10
451.3226189994807
 20
-660.2461321946187
 30
-0.00000000000131
  0
VERTEX
  5
24F60
  8
01
  6
CONTINUOUS
 10
451.303119148306
 20
-660.2609847569207
 30
-0.00000000000131
  0
VERTEX
  5
24F61
  8
01
  6
CONTINUOUS
 10
451.2839897623171
 20
-660.2762828972028
 30
-0.00000000000131
  0
VERTEX
  5
24F62
  8
01
  6
CONTINUOUS
 10
451.2652451551535
 20
-660.2920258699638
 30
-0.00000000000131
  0
VERTEX
  5
24F63
  8
01
  6
CONTINUOUS
 10
451.2468996404546
 20
-660.3082129297031
 30
-0.00000000000131
  0
VERTEX
  5
24F64
  8
01
  6
CONTINUOUS
 10
451.2289675318597
 20
-660.3248433309195
 30
-0.00000000000131
  0
VERTEX
  5
24F65
  8
01
  6
CONTINUOUS
 10
451.2114631430081
 20
-660.341916328112
 30
-0.00000000000131
  0
VERTEX
  5
24F66
  8
01
  6
CONTINUOUS
 10
451.1943985005056
 20
-660.359428889499
 30
-0.00000000000131
  0
VERTEX
  5
24F67
  8
01
  6
CONTINUOUS
 10
451.1777765719121
 20
-660.3773689272352
 30
-0.00000000000131
  0
VERTEX
  5
24F68
  8
01
  6
CONTINUOUS
 10
451.1615980820818
 20
-660.3957221115081
 30
-0.00000000000131
  0
VERTEX
  5
24F69
  8
01
  6
CONTINUOUS
 10
451.1458637558682
 20
-660.4144741125049
 30
-0.00000000000131
  0
VERTEX
  5
24F6A
  8
01
  6
CONTINUOUS
 10
451.1305743181258
 20
-660.4336106004127
 30
-0.00000000000131
  0
VERTEX
  5
24F6B
  8
01
  6
CONTINUOUS
 10
451.1157304937083
 20
-660.453117245419
 30
-0.00000000000131
  0
VERTEX
  5
24F6C
  8
01
  6
CONTINUOUS
 10
451.1013330074696
 20
-660.4729797177108
 30
-0.00000000000131
  0
VERTEX
  5
24F6D
  8
01
  6
CONTINUOUS
 10
451.087382584264
 20
-660.4931836874756
 30
-0.00000000000131
  0
VERTEX
  5
24F6E
  8
01
  6
CONTINUOUS
 10
451.0738811808372
 20
-660.5137149592256
 30
-0.00000000000131
  0
VERTEX
  5
24F6F
  8
01
  6
CONTINUOUS
 10
451.0608508878221
 20
-660.5345615328639
 30
-0.00000000000131
  0
VERTEX
  5
24F70
  8
01
  6
CONTINUOUS
 10
451.0483302138493
 20
-660.5557131985065
 30
-0.00000000000131
  0
VERTEX
  5
24F71
  8
01
  6
CONTINUOUS
 10
451.0363581465523
 20
-660.5771597984987
 30
-0.00000000000131
  0
VERTEX
  5
24F72
  8
01
  6
CONTINUOUS
 10
451.0249736735648
 20
-660.5988911751864
 30
-0.00000000000131
  0
VERTEX
  5
24F73
  8
01
  6
CONTINUOUS
 10
451.0142157825204
 20
-660.6208971709151
 30
-0.00000000000131
  0
VERTEX
  5
24F74
  8
01
  6
CONTINUOUS
 10
451.0041234610525
 20
-660.6431676280307
 30
-0.00000000000131
  0
VERTEX
  5
24F75
  8
01
  6
CONTINUOUS
 10
450.9947356967947
 20
-660.665692388879
 30
-0.00000000000131
  0
VERTEX
  5
24F76
  8
01
  6
CONTINUOUS
 10
450.9860909552127
 20
-660.6884612646348
 30
-0.00000000000131
  0
VERTEX
  5
24F77
  8
01
  6
CONTINUOUS
 10
450.9781950095699
 20
-660.7114621149161
 30
-0.00000000000131
  0
VERTEX
  5
24F78
  8
01
  6
CONTINUOUS
 10
450.9710021610803
 20
-660.7346797267234
 30
-0.00000000000131
  0
VERTEX
  5
24F79
  8
01
  6
CONTINUOUS
 10
450.9644621885187
 20
-660.7580986170905
 30
-0.00000000000131
  0
VERTEX
  5
24F7A
  8
01
  6
CONTINUOUS
 10
450.9585248706599
 20
-660.7817033030511
 30
-0.00000000000131
  0
VERTEX
  5
24F7B
  8
01
  6
CONTINUOUS
 10
450.9531399862788
 20
-660.8054783016395
 30
-0.00000000000131
  0
VERTEX
  5
24F7C
  8
01
  6
CONTINUOUS
 10
450.94825731415
 20
-660.8294081298892
 30
-0.00000000000131
  0
VERTEX
  5
24F7D
  8
01
  6
CONTINUOUS
 10
450.9438266330484
 20
-660.8534773048342
 30
-0.00000000000131
  0
VERTEX
  5
24F7E
  8
01
  6
CONTINUOUS
 10
450.9397977217488
 20
-660.8776703435086
 30
-0.00000000000131
  0
VERTEX
  5
24F7F
  8
01
  6
CONTINUOUS
 10
450.9361203590261
 20
-660.9019717629461
 30
-0.00000000000131
  0
VERTEX
  5
24F80
  8
01
  6
CONTINUOUS
 10
450.932744323655
 20
-660.9263660801806
 30
-0.00000000000131
  0
VERTEX
  5
24F81
  8
01
  6
CONTINUOUS
 10
450.9296193944103
 20
-660.9508378122462
 30
-0.00000000000131
  0
VERTEX
  5
24F82
  8
01
  6
CONTINUOUS
 10
450.9266953500667
 20
-660.9753714761764
 30
-0.00000000000131
  0
VERTEX
  5
24F83
  8
01
  6
CONTINUOUS
 10
450.9239219693992
 20
-660.9999515890055
 30
-0.00000000000131
  0
VERTEX
  5
24F84
  8
01
  6
CONTINUOUS
 10
450.9212490311825
 20
-661.0245626677671
 30
-0.00000000000131
  0
VERTEX
  5
24F85
  8
01
  6
CONTINUOUS
 10
450.9186263141915
 20
-661.0491892294953
 30
-0.00000000000131
  0
SEQEND
  5
25205
  8
01
  6
CONTINUOUS
  0
LINE
  5
239B1
  8
01
  6
CONTINUOUS
 10
450.9162416153727
 20
-671.0495039365481
 30
-0.0000000000000037
 11
457.9162416153873
 21
-671.0495039365481
 31
-0.0000000000000037
  0
LINE
  5
239B2
  8
01
  6
CONTINUOUS
 10
457.9162416153873
 20
-671.0495039365481
 30
-0.0000000000000037
 11
457.9162416153873
 21
-661.0491892294953
 31
-0.0000000000000037
  0
LINE
  5
239B3
  8
01
  6
CONTINUOUS
 10
450.9186263141769
 20
-661.0491892294953
 30
-0.00000000000131
 11
450.9186263141769
 21
-671.0495039365481
 31
-0.00000000000131
  0
LINE
  5
239B5
  8
01
  6
CONTINUOUS
 10
450.9162416153727
 20
-668.0495039365481
 30
-0.0000000000000037
 11
401.9162416153727
 21
-668.0495039365481
 31
-0.0000000000000037
  0
LINE
  5
239BC
  8
01
  6
CONTINUOUS
 10
648.516241615364
 20
-671.0495039365481
 30
0.0
 11
705.5162416153931
 21
-671.0495039365481
 31
0.0
  0
LINE
  5
239BE
  8
01
  6
CONTINUOUS
 10
705.5162416153931
 20
-671.0495039365481
 30
0.0
 11
705.5162416153931
 21
-669.0495039365481
 31
0.0
  0
LINE
  5
239BF
  8
01
  6
CONTINUOUS
 10
704.5162416153931
 20
-668.0495039365481
 30
0.0
 11
657.3379168639245
 21
-668.0495039365481
 31
0.0
  0
POLYLINE
  5
239C0
  8
01
  6
CONTINUOUS
 66
     1
 10
0.0
 20
0.0
 30
0.0
  0
VERTEX
  5
24F86
  8
01
  6
CONTINUOUS
 10
657.3379168639245
 20
-668.0495039365481
 30
0.0
  0
VERTEX
  5
24F87
  8
01
  6
CONTINUOUS
 10
657.3038721581967
 20
-668.0492081490745
 30
0.0
  0
VERTEX
  5
24F88
  8
01
  6
CONTINUOUS
 10
657.2696371152198
 20
-668.0483168631123
 30
0.0
  0
VERTEX
  5
24F89
  8
01
  6
CONTINUOUS
 10
657.235228491008
 20
-668.0468241933494
 30
0.0
  0
VERTEX
  5
24F8A
  8
01
  6
CONTINUOUS
 10
657.2006630415748
 20
-668.0447242544735
 30
0.0
  0
VERTEX
  5
24F8B
  8
01
  6
CONTINUOUS
 10
657.1659575229345
 20
-668.0420111611726
 30
0.0
  0
VERTEX
  5
24F8C
  8
01
  6
CONTINUOUS
 10
657.1311286911009
 20
-668.0386790281343
 30
0.0
  0
VERTEX
  5
24F8D
  8
01
  6
CONTINUOUS
 10
657.0961933020882
 20
-668.0347219700469
 30
0.0
  0
VERTEX
  5
24F8E
  8
01
  6
CONTINUOUS
 10
657.0611681119099
 20
-668.0301341015978
 30
0.0
  0
VERTEX
  5
24F8F
  8
01
  6
CONTINUOUS
 10
657.0260698765802
 20
-668.0249095374751
 30
0.0
  0
VERTEX
  5
24F90
  8
01
  6
CONTINUOUS
 10
656.990915352113
 20
-668.0190423923665
 30
0.0
  0
VERTEX
  5
24F91
  8
01
  6
CONTINUOUS
 10
656.9557212945224
 20
-668.01252678096
 30
0.0
  0
VERTEX
  5
24F92
  8
01
  6
CONTINUOUS
 10
656.920504459822
 20
-668.0053568179434
 30
0.0
  0
VERTEX
  5
24F93
  8
01
  6
CONTINUOUS
 10
656.8852816040261
 20
-667.9975266180044
 30
0.0
  0
VERTEX
  5
24F94
  8
01
  6
CONTINUOUS
 10
656.8500694831484
 20
-667.989030295831
 30
0.0
  0
VERTEX
  5
24F95
  8
01
  6
CONTINUOUS
 10
656.8148848532029
 20
-667.9798619661109
 30
0.0
  0
VERTEX
  5
24F96
  8
01
  6
CONTINUOUS
 10
656.7797444702037
 20
-667.9700157435324
 30
0.0
  0
VERTEX
  5
24F97
  8
01
  6
CONTINUOUS
 10
656.7446650901645
 20
-667.9594857427827
 30
0.0
  0
VERTEX
  5
24F98
  8
01
  6
CONTINUOUS
 10
656.7096634690994
 20
-667.9482660785501
 30
0.0
  0
VERTEX
  5
24F99
  8
01
  6
CONTINUOUS
 10
656.6747625532894
 20
-667.9363508309929
 30
0.0
  0
VERTEX
  5
24F9A
  8
01
  6
CONTINUOUS
 10
656.6399866659389
 20
-667.9237421555011
 30
0.0
  0
VERTEX
  5
24F9B
  8
01
  6
CONTINUOUS
 10
656.6053546284467
 20
-667.9104462796098
 30
0.0
  0
VERTEX
  5
24F9C
  8
01
  6
CONTINUOUS
 10
656.5708852622117
 20
-667.8964694308538
 30
0.0
  0
VERTEX
  5
24F9D
  8
01
  6
CONTINUOUS
 10
656.536597388633
 20
-667.8818178367684
 30
0.0
  0
VERTEX
  5
24F9E
  8
01
  6
CONTINUOUS
 10
656.5025098291094
 20
-667.8664977248885
 30
0.0
  0
VERTEX
  5
24F9F
  8
01
  6
CONTINUOUS
 10
656.4686414050395
 20
-667.8505153227493
 30
0.0
  0
VERTEX
  5
24FA0
  8
01
  6
CONTINUOUS
 10
656.4350109378227
 20
-667.8338768578855
 30
0.0
  0
VERTEX
  5
24FA1
  8
01
  6
CONTINUOUS
 10
656.4016372488574
 20
-667.8165885578322
 30
0.0
  0
VERTEX
  5
24FA2
  8
01
  6
CONTINUOUS
 10
656.3685391595427
 20
-667.7986566501246
 30
0.0
  0
VERTEX
  5
24FA3
  8
01
  6
CONTINUOUS
 10
656.3357354912775
 20
-667.7800873622978
 30
0.0
  0
VERTEX
  5
24FA4
  8
01
  6
CONTINUOUS
 10
656.3032450654607
 20
-667.7608869218866
 30
0.0
  0
VERTEX
  5
24FA5
  8
01
  6
CONTINUOUS
 10
656.2710867034912
 20
-667.7410615564262
 30
0.0
  0
VERTEX
  5
24FA6
  8
01
  6
CONTINUOUS
 10
656.239279226768
 20
-667.7206174934514
 30
0.0
  0
VERTEX
  5
24FA7
  8
01
  6
CONTINUOUS
 10
656.2078414566896
 20
-667.6995609604975
 30
0.0
  0
VERTEX
  5
24FA8
  8
01
  6
CONTINUOUS
 10
656.1767922146553
 20
-667.6778981850993
 30
0.0
  0
VERTEX
  5
24FA9
  8
01
  6
CONTINUOUS
 10
656.1461503220636
 20
-667.6556353947921
 30
0.0
  0
VERTEX
  5
24FAA
  8
01
  6
CONTINUOUS
 10
656.1159346003138
 20
-667.6327788171105
 30
0.0
  0
VERTEX
  5
24FAB
  8
01
  6
CONTINUOUS
 10
656.0861678536421
 20
-667.6093405198866
 30
0.0
  0
VERTEX
  5
24FAC
  8
01
  6
CONTINUOUS
 10
656.0568675341997
 20
-667.5853395054406
 30
0.0
  0
VERTEX
  5
24FAD
  8
01
  6
CONTINUOUS
 10
656.0280444352579
 20
-667.5607924030401
 30
0.0
  0
VERTEX
  5
24FAE
  8
01
  6
CONTINUOUS
 10
655.9997093500879
 20
-667.5357158419528
 30
0.0
  0
VERTEX
  5
24FAF
  8
01
  6
CONTINUOUS
 10
655.971873071961
 20
-667.5101264514465
 30
0.0
  0
VERTEX
  5
24FB0
  8
01
  6
CONTINUOUS
 10
655.9445463941485
 20
-667.4840408607889
 30
0.0
  0
VERTEX
  5
24FB1
  8
01
  6
CONTINUOUS
 10
655.9177401099214
 20
-667.4574756992479
 30
0.0
  0
VERTEX
  5
24FB2
  8
01
  6
CONTINUOUS
 10
655.8914650125511
 20
-667.4304475960911
 30
0.0
  0
VERTEX
  5
24FB3
  8
01
  6
CONTINUOUS
 10
655.8657318953088
 20
-667.4029731805862
 30
0.0
  0
VERTEX
  5
24FB4
  8
01
  6
CONTINUOUS
 10
655.8405515514659
 20
-667.375069082001
 30
0.0
  0
VERTEX
  5
24FB5
  8
01
  6
CONTINUOUS
 10
655.8159347742933
 20
-667.3467519296033
 30
0.0
  0
VERTEX
  5
24FB6
  8
01
  6
CONTINUOUS
 10
655.7918923570625
 20
-667.3180383526608
 30
0.0
  0
VERTEX
  5
24FB7
  8
01
  6
CONTINUOUS
 10
655.7684350930447
 20
-667.2889449804413
 30
0.0
  0
VERTEX
  5
24FB8
  8
01
  6
CONTINUOUS
 10
655.7455737755109
 20
-667.2594884422124
 30
0.0
  0
VERTEX
  5
24FB9
  8
01
  6
CONTINUOUS
 10
655.7233191977328
 20
-667.2296853672419
 30
0.0
  0
VERTEX
  5
24FBA
  8
01
  6
CONTINUOUS
 10
655.7016821529812
 20
-667.1995523847976
 30
0.0
  0
VERTEX
  5
24FBB
  8
01
  6
CONTINUOUS
 10
655.6806734345275
 20
-667.1691061241471
 30
0.0
  0
VERTEX
  5
24FBC
  8
01
  6
CONTINUOUS
 10
655.660303835643
 20
-667.1383632145584
 30
0.0
  0
VERTEX
  5
24FBD
  8
01
  6
CONTINUOUS
 10
655.6405816043858
 20
-667.1073466393625
 30
0.0
  0
VERTEX
  5
24FBE
  8
01
  6
CONTINUOUS
 10
655.6215068282179
 20
-667.0760800959999
 30
0.0
  0
VERTEX
  5
24FBF
  8
01
  6
CONTINUOUS
 10
655.6030780595165
 20
-667.0445812849031
 30
0.0
  0
VERTEX
  5
24FC0
  8
01
  6
CONTINUOUS
 10
655.5852938506589
 20
-667.0128679065033
 30
0.0
  0
VERTEX
  5
24FC1
  8
01
  6
CONTINUOUS
 10
655.5681527540219
 20
-666.9809576612327
 30
0.0
  0
VERTEX
  5
24FC2
  8
01
  6
CONTINUOUS
 10
655.551653321983
 20
-666.948868249523
 30
0.0
  0
VERTEX
  5
24FC3
  8
01
  6
CONTINUOUS
 10
655.5357941069193
 20
-666.9166173718064
 30
0.0
  0
VERTEX
  5
24FC4
  8
01
  6
CONTINUOUS
 10
655.5205736612079
 20
-666.8842227285144
 30
0.0
  0
VERTEX
  5
24FC5
  8
01
  6
CONTINUOUS
 10
655.505990537226
 20
-666.8517020200792
 30
0.0
  0
VERTEX
  5
24FC6
  8
01
  6
CONTINUOUS
 10
655.4920432873508
 20
-666.8190729469325
 30
0.0
  0
VERTEX
  5
24FC7
  8
01
  6
CONTINUOUS
 10
655.4787304639593
 20
-666.7863532095062
 30
0.0
  0
VERTEX
  5
24FC8
  8
01
  6
CONTINUOUS
 10
655.466050619429
 20
-666.7535605082321
 30
0.0
  0
VERTEX
  5
24FC9
  8
01
  6
CONTINUOUS
 10
655.4540023061367
 20
-666.7207125435423
 30
0.0
  0
VERTEX
  5
24FCA
  8
01
  6
CONTINUOUS
 10
655.4425840764596
 20
-666.6878270158685
 30
0.0
  0
VERTEX
  5
24FCB
  8
01
  6
CONTINUOUS
 10
655.4317944827752
 20
-666.6549216256427
 30
0.0
  0
VERTEX
  5
24FCC
  8
01
  6
CONTINUOUS
 10
655.4216320774605
 20
-666.6220140732966
 30
0.0
  0
VERTEX
  5
24FCD
  8
01
  6
CONTINUOUS
 10
655.4120954128924
 20
-666.5891220592622
 30
0.0
  0
VERTEX
  5
24FCE
  8
01
  6
CONTINUOUS
 10
655.4031830414484
 20
-666.5562632839714
 30
0.0
  0
SEQEND
  5
25206
  8
01
  6
CONTINUOUS
  0
LINE
  5
239C1
  8
01
  6
CONTINUOUS
 10
648.5815077753383
 20
-667.8003271150222
 30
0.0
 11
650.2205386389275
 21
-661.5427445857052
 31
0.0
  0
LINE
  5
239C2
  8
01
  6
CONTINUOUS
 10
654.0900062971801
 20
-661.542744589154
 30
0.0
 11
655.4031830414484
 21
-666.5562632839714
 31
0.0
  0
POLYLINE
  5
239C3
  8
01
  6
CONTINUOUS
 66
     1
 10
0.0
 20
0.0
 30
0.0
  0
VERTEX
  5
24FCF
  8
01
  6
CONTINUOUS
 10
648.5815077753383
 20
-667.8003271150222
 30
0.0
  0
VERTEX
  5
24FD0
  8
01
  6
CONTINUOUS
 10
648.5762065513653
 20
-667.8210062846015
 30
0.0
  0
VERTEX
  5
24FD1
  8
01
  6
CONTINUOUS
 10
648.5711275559038
 20
-667.8417410205434
 30
0.0
  0
VERTEX
  5
24FD2
  8
01
  6
CONTINUOUS
 10
648.5662710993031
 20
-667.862528913246
 30
0.0
  0
VERTEX
  5
24FD3
  8
01
  6
CONTINUOUS
 10
648.5616374919117
 20
-667.8833675531076
 30
0.0
  0
VERTEX
  5
24FD4
  8
01
  6
CONTINUOUS
 10
648.5572270440787
 20
-667.9042545305265
 30
0.0
  0
VERTEX
  5
24FD5
  8
01
  6
CONTINUOUS
 10
648.5530400661529
 20
-667.925187435901
 30
0.0
  0
VERTEX
  5
24FD6
  8
01
  6
CONTINUOUS
 10
648.5490768684834
 20
-667.9461638596292
 30
0.0
  0
VERTEX
  5
24FD7
  8
01
  6
CONTINUOUS
 10
648.5453377614189
 20
-667.9671813921093
 30
0.0
  0
VERTEX
  5
24FD8
  8
01
  6
CONTINUOUS
 10
648.5418230553084
 20
-667.9882376237399
 30
0.0
  0
VERTEX
  5
24FD9
  8
01
  6
CONTINUOUS
 10
648.538533060501
 20
-668.009330144919
 30
0.0
  0
VERTEX
  5
24FDA
  8
01
  6
CONTINUOUS
 10
648.5354680873453
 20
-668.0304565460448
 30
0.0
  0
VERTEX
  5
24FDB
  8
01
  6
CONTINUOUS
 10
648.5326284461904
 20
-668.0516144175157
 30
0.0
  0
VERTEX
  5
24FDC
  8
01
  6
CONTINUOUS
 10
648.5300144473852
 20
-668.0728013497298
 30
0.0
  0
VERTEX
  5
24FDD
  8
01
  6
CONTINUOUS
 10
648.5276264012784
 20
-668.0940149330855
 30
0.0
  0
VERTEX
  5
24FDE
  8
01
  6
CONTINUOUS
 10
648.5254646182193
 20
-668.1152527579811
 30
0.0
  0
VERTEX
  5
24FDF
  8
01
  6
CONTINUOUS
 10
648.5235294085564
 20
-668.1365124148148
 30
0.0
  0
VERTEX
  5
24FE0
  8
01
  6
CONTINUOUS
 10
648.5218210826389
 20
-668.1577914939845
 30
0.0
  0
VERTEX
  5
24FE1
  8
01
  6
CONTINUOUS
 10
648.5203399508156
 20
-668.1790875858891
 30
0.0
  0
VERTEX
  5
24FE2
  8
01
  6
CONTINUOUS
 10
648.5190863234354
 20
-668.2003982809264
 30
0.0
  0
VERTEX
  5
24FE3
  8
01
  6
CONTINUOUS
 10
648.5180605108472
 20
-668.2217211694946
 30
0.0
  0
VERTEX
  5
24FE4
  8
01
  6
CONTINUOUS
 10
648.5172628234001
 20
-668.2430538419924
 30
0.0
  0
VERTEX
  5
24FE5
  8
01
  6
CONTINUOUS
 10
648.5166935714427
 20
-668.2643938888177
 30
0.0
  0
VERTEX
  5
24FE6
  8
01
  6
CONTINUOUS
 10
648.516353065324
 20
-668.2857389003686
 30
0.0
  0
VERTEX
  5
24FE7
  8
01
  6
CONTINUOUS
 10
648.5162416153931
 20
-668.3070864670439
 30
0.0
  0
SEQEND
  5
25207
  8
01
  6
CONTINUOUS
  0
LINE
  5
239C4
  8
01
  6
CONTINUOUS
 10
648.516241615364
 20
-671.0495039365481
 30
0.0
 11
648.5162416153931
 21
-668.3070864670439
 31
0.0
  0
LINE
  5
239C7
  8
01
  6
CONTINUOUS
 10
650.220538642449
 20
-661.542744586622
 30
0.0
 11
648.5815077799949
 21
-667.8003271162446
 31
0.0
  0
LINE
  5
239CA
  8
01
  6
CONTINUOUS
 10
395.9068003938324
 20
-660.0495043862605
 30
-0.0000000000000037
 11
400.9162416153727
 21
-660.0495043862605
 31
-0.0000000000000037
  0
POLYLINE
  5
239CB
  8
01
  6
CONTINUOUS
 66
     1
 10
0.0
 20
0.0
 30
-0.0000000000000037
  0
VERTEX
  5
24FE8
  8
01
  6
CONTINUOUS
 10
394.9162416153727
 20
-661.0491892294953
 30
-0.0000000000000037
  0
VERTEX
  5
24FE9
  8
01
  6
CONTINUOUS
 10
394.9188643323637
 20
-661.0245626677672
 30
-0.0000000000000037
  0
VERTEX
  5
24FEA
  8
01
  6
CONTINUOUS
 10
394.9215372705804
 20
-660.9999515890056
 30
-0.0000000000000037
  0
VERTEX
  5
24FEB
  8
01
  6
CONTINUOUS
 10
394.9243106512479
 20
-660.9753714761767
 30
-0.0000000000000037
  0
VERTEX
  5
24FEC
  8
01
  6
CONTINUOUS
 10
394.9272346955914
 20
-660.9508378122464
 30
-0.0000000000000037
  0
VERTEX
  5
24FED
  8
01
  6
CONTINUOUS
 10
394.9303596248362
 20
-660.926366080181
 30
-0.0000000000000037
  0
VERTEX
  5
24FEE
  8
01
  6
CONTINUOUS
 10
394.9337356602073
 20
-660.9019717629466
 30
-0.0000000000000037
  0
VERTEX
  5
24FEF
  8
01
  6
CONTINUOUS
 10
394.9374130229299
 20
-660.8776703435091
 30
-0.0000000000000037
  0
VERTEX
  5
24FF0
  8
01
  6
CONTINUOUS
 10
394.9414419342295
 20
-660.8534773048349
 30
-0.0000000000000037
  0
VERTEX
  5
24FF1
  8
01
  6
CONTINUOUS
 10
394.9458726153311
 20
-660.8294081298897
 30
-0.0000000000000037
  0
VERTEX
  5
24FF2
  8
01
  6
CONTINUOUS
 10
394.9507552874599
 20
-660.8054783016399
 30
-0.0000000000000037
  0
VERTEX
  5
24FF3
  8
01
  6
CONTINUOUS
 10
394.956140171841
 20
-660.7817033030518
 30
-0.0000000000000037
  0
VERTEX
  5
24FF4
  8
01
  6
CONTINUOUS
 10
394.9620774896998
 20
-660.758098617091
 30
-0.0000000000000037
  0
VERTEX
  5
24FF5
  8
01
  6
CONTINUOUS
 10
394.9686174622614
 20
-660.7346797267242
 30
-0.0000000000000037
  0
VERTEX
  5
24FF6
  8
01
  6
CONTINUOUS
 10
394.9758103107509
 20
-660.7114621149169
 30
-0.0000000000000037
  0
VERTEX
  5
24FF7
  8
01
  6
CONTINUOUS
 10
394.9837062563937
 20
-660.6884612646356
 30
-0.0000000000000037
  0
VERTEX
  5
24FF8
  8
01
  6
CONTINUOUS
 10
394.9923509979756
 20
-660.6656923888798
 30
-0.0000000000000037
  0
VERTEX
  5
24FF9
  8
01
  6
CONTINUOUS
 10
395.0017387622333
 20
-660.6431676280315
 30
-0.0000000000000037
  0
VERTEX
  5
24FFA
  8
01
  6
CONTINUOUS
 10
395.0118310837012
 20
-660.620897170916
 30
-0.0000000000000037
  0
VERTEX
  5
24FFB
  8
01
  6
CONTINUOUS
 10
395.0225889747456
 20
-660.5988911751872
 30
-0.0000000000000037
  0
VERTEX
  5
24FFC
  8
01
  6
CONTINUOUS
 10
395.0339734477331
 20
-660.5771597984996
 30
-0.0000000000000037
  0
VERTEX
  5
24FFD
  8
01
  6
CONTINUOUS
 10
395.04594551503
 20
-660.5557131985073
 30
-0.0000000000000037
  0
VERTEX
  5
24FFE
  8
01
  6
CONTINUOUS
 10
395.0584661890028
 20
-660.5345615328648
 30
-0.0000000000000037
  0
VERTEX
  5
24FFF
  8
01
  6
CONTINUOUS
 10
395.0714964820179
 20
-660.5137149592264
 30
-0.0000000000000037
  0
VERTEX
  5
25000
  8
01
  6
CONTINUOUS
 10
395.0849978854447
 20
-660.4931836874764
 30
-0.0000000000000037
  0
VERTEX
  5
25001
  8
01
  6
CONTINUOUS
 10
395.0989483086503
 20
-660.4729797177116
 30
-0.0000000000000037
  0
VERTEX
  5
25002
  8
01
  6
CONTINUOUS
 10
395.1133457948889
 20
-660.4531172454198
 30
-0.0000000000000037
  0
VERTEX
  5
25003
  8
01
  6
CONTINUOUS
 10
395.1281896193063
 20
-660.4336106004135
 30
-0.0000000000000037
  0
VERTEX
  5
25004
  8
01
  6
CONTINUOUS
 10
395.1434790570489
 20
-660.4144741125057
 30
-0.0000000000000037
  0
VERTEX
  5
25005
  8
01
  6
CONTINUOUS
 10
395.1592133832623
 20
-660.3957221115089
 30
-0.0000000000000037
  0
VERTEX
  5
25006
  8
01
  6
CONTINUOUS
 10
395.1753918730927
 20
-660.3773689272359
 30
-0.0000000000000037
  0
VERTEX
  5
25007
  8
01
  6
CONTINUOUS
 10
395.1920138016862
 20
-660.3594288894997
 30
-0.0000000000000037
  0
VERTEX
  5
25008
  8
01
  6
CONTINUOUS
 10
395.2090784441887
 20
-660.3419163281126
 30
-0.0000000000000037
  0
VERTEX
  5
25009
  8
01
  6
CONTINUOUS
 10
395.2265828330402
 20
-660.3248433309201
 30
-0.0000000000000037
  0
VERTEX
  5
2500A
  8
01
  6
CONTINUOUS
 10
395.2445149416351
 20
-660.3082129297037
 30
-0.0000000000000037
  0
VERTEX
  5
2500B
  8
01
  6
CONTINUOUS
 10
395.2628604563341
 20
-660.2920258699645
 30
-0.0000000000000037
  0
VERTEX
  5
2500C
  8
01
  6
CONTINUOUS
 10
395.2816050634977
 20
-660.2762828972033
 30
-0.0000000000000037
  0
VERTEX
  5
2500D
  8
01
  6
CONTINUOUS
 10
395.3007344494866
 20
-660.2609847569212
 30
-0.0000000000000037
  0
VERTEX
  5
2500E
  8
01
  6
CONTINUOUS
 10
395.3202343006613
 20
-660.2461321946191
 30
-0.0000000000000037
  0
VERTEX
  5
2500F
  8
01
  6
CONTINUOUS
 10
395.3400903033826
 20
-660.2317259557981
 30
-0.0000000000000037
  0
VERTEX
  5
25010
  8
01
  6
CONTINUOUS
 10
395.360288144011
 20
-660.2177667859589
 30
-0.0000000000000037
  0
VERTEX
  5
25011
  8
01
  6
CONTINUOUS
 10
395.3808136387116
 20
-660.2042566261922
 30
-0.0000000000000037
  0
VERTEX
  5
25012
  8
01
  6
CONTINUOUS
 10
395.401654777991
 20
-660.1912174447714
 30
-0.0000000000000037
  0
VERTEX
  5
25013
  8
01
  6
CONTINUOUS
 10
395.4228013534207
 20
-660.1786877990228
 30
-0.0000000000000037
  0
VERTEX
  5
25014
  8
01
  6
CONTINUOUS
 10
395.4442432108904
 20
-660.1667067465805
 30
-0.0000000000000037
  0
VERTEX
  5
25015
  8
01
  6
CONTINUOUS
 10
395.46597019629
 20
-660.1553133450786
 30
-0.0000000000000037
  0
VERTEX
  5
25016
  8
01
  6
CONTINUOUS
 10
395.4879721555091
 20
-660.1445466521511
 30
-0.0000000000000037
  0
VERTEX
  5
25017
  8
01
  6
CONTINUOUS
 10
395.5102389344375
 20
-660.134445725432
 30
-0.0000000000000037
  0
VERTEX
  5
25018
  8
01
  6
CONTINUOUS
 10
395.5327603789649
 20
-660.1250496225556
 30
-0.0000000000000037
  0
VERTEX
  5
25019
  8
01
  6
CONTINUOUS
 10
395.5555263049098
 20
-660.1163968994623
 30
-0.0000000000000037
  0
VERTEX
  5
2501A
  8
01
  6
CONTINUOUS
 10
395.5785245818695
 20
-660.1084936424634
 30
-0.0000000000000037
  0
VERTEX
  5
2501B
  8
01
  6
CONTINUOUS
 10
395.6017399782233
 20
-660.1012941989304
 30
-0.0000000000000037
  0
VERTEX
  5
2501C
  8
01
  6
CONTINUOUS
 10
395.6251569854429
 20
-660.0947482964731
 30
-0.0000000000000037
  0
VERTEX
  5
2501D
  8
01
  6
CONTINUOUS
 10
395.6487600950003
 20
-660.0888056627009
 30
-0.0000000000000037
  0
VERTEX
  5
2501E
  8
01
  6
CONTINUOUS
 10
395.6725337983673
 20
-660.0834160252236
 30
-0.0000000000000037
  0
VERTEX
  5
2501F
  8
01
  6
CONTINUOUS
 10
395.6964625870157
 20
-660.0785291116508
 30
-0.0000000000000037
  0
VERTEX
  5
25020
  8
01
  6
CONTINUOUS
 10
395.7205309524174
 20
-660.0740946495921
 30
-0.0000000000000037
  0
VERTEX
  5
25021
  8
01
  6
CONTINUOUS
 10
395.7447233860443
 20
-660.070062366657
 30
-0.0000000000000037
  0
VERTEX
  5
25022
  8
01
  6
CONTINUOUS
 10
395.7690243793681
 20
-660.0663819904553
 30
-0.0000000000000037
  0
VERTEX
  5
25023
  8
01
  6
CONTINUOUS
 10
395.7934184238609
 20
-660.0630032485965
 30
-0.0000000000000037
  0
VERTEX
  5
25024
  8
01
  6
CONTINUOUS
 10
395.8178900109944
 20
-660.0598758686904
 30
-0.0000000000000037
  0
VERTEX
  5
25025
  8
01
  6
CONTINUOUS
 10
395.8424236322405
 20
-660.0569495783462
 30
-0.0000000000000037
  0
VERTEX
  5
25026
  8
01
  6
CONTINUOUS
 10
395.867003779071
 20
-660.0541741051741
 30
-0.0000000000000037
  0
VERTEX
  5
25027
  8
01
  6
CONTINUOUS
 10
395.8916149429578
 20
-660.0514991767833
 30
-0.0000000000000037
  0
VERTEX
  5
25028
  8
01
  6
CONTINUOUS
 10
395.9162416153727
 20
-660.0488745207834
 30
-0.0000000000000037
  0
SEQEND
  5
25208
  8
01
  6
CONTINUOUS
  0
POLYLINE
  5
239CC
  8
01
  6
CONTINUOUS
 66
     1
 10
0.0
 20
0.0
 30
-0.00000000000131
  0
VERTEX
  5
25029
  8
01
  6
CONTINUOUS
 10
400.9162416153727
 20
-660.0488745207834
 30
-0.00000000000131
  0
VERTEX
  5
2502A
  8
01
  6
CONTINUOUS
 10
400.940868287785
 20
-660.0514991767833
 30
-0.00000000000131
  0
VERTEX
  5
2502B
  8
01
  6
CONTINUOUS
 10
400.9654794516694
 20
-660.0541741051741
 30
-0.00000000000131
  0
VERTEX
  5
2502C
  8
01
  6
CONTINUOUS
 10
400.9900595984979
 20
-660.0569495783462
 30
-0.00000000000131
  0
VERTEX
  5
2502D
  8
01
  6
CONTINUOUS
 10
401.0145932197422
 20
-660.0598758686904
 30
-0.00000000000131
  0
VERTEX
  5
2502E
  8
01
  6
CONTINUOUS
 10
401.0390648068743
 20
-660.0630032485965
 30
-0.00000000000131
  0
VERTEX
  5
2502F
  8
01
  6
CONTINUOUS
 10
401.0634588513658
 20
-660.0663819904553
 30
-0.00000000000131
  0
VERTEX
  5
25030
  8
01
  6
CONTINUOUS
 10
401.0877598446887
 20
-660.070062366657
 30
-0.00000000000131
  0
VERTEX
  5
25031
  8
01
  6
CONTINUOUS
 10
401.1119522783148
 20
-660.074094649592
 30
-0.00000000000131
  0
VERTEX
  5
25032
  8
01
  6
CONTINUOUS
 10
401.1360206437159
 20
-660.0785291116507
 30
-0.00000000000131
  0
VERTEX
  5
25033
  8
01
  6
CONTINUOUS
 10
401.1599494323639
 20
-660.0834160252236
 30
-0.00000000000131
  0
VERTEX
  5
25034
  8
01
  6
CONTINUOUS
 10
401.1837231357305
 20
-660.0888056627009
 30
-0.00000000000131
  0
VERTEX
  5
25035
  8
01
  6
CONTINUOUS
 10
401.2073262452877
 20
-660.094748296473
 30
-0.00000000000131
  0
VERTEX
  5
25036
  8
01
  6
CONTINUOUS
 10
401.2307432525072
 20
-660.1012941989303
 30
-0.00000000000131
  0
VERTEX
  5
25037
  8
01
  6
CONTINUOUS
 10
401.2539586488609
 20
-660.1084936424633
 30
-0.00000000000131
  0
VERTEX
  5
25038
  8
01
  6
CONTINUOUS
 10
401.2769569258206
 20
-660.1163968994621
 30
-0.00000000000131
  0
VERTEX
  5
25039
  8
01
  6
CONTINUOUS
 10
401.2997228517655
 20
-660.1250496225554
 30
-0.00000000000131
  0
VERTEX
  5
2503A
  8
01
  6
CONTINUOUS
 10
401.3222442962929
 20
-660.134445725432
 30
-0.00000000000131
  0
VERTEX
  5
2503B
  8
01
  6
CONTINUOUS
 10
401.3445110752213
 20
-660.1445466521508
 30
-0.00000000000131
  0
VERTEX
  5
2503C
  8
01
  6
CONTINUOUS
 10
401.3665130344404
 20
-660.1553133450783
 30
-0.00000000000131
  0
VERTEX
  5
2503D
  8
01
  6
CONTINUOUS
 10
401.3882400198399
 20
-660.1667067465802
 30
-0.00000000000131
  0
VERTEX
  5
2503E
  8
01
  6
CONTINUOUS
 10
401.4096818773097
 20
-660.1786877990224
 30
-0.00000000000131
  0
VERTEX
  5
2503F
  8
01
  6
CONTINUOUS
 10
401.4308284527393
 20
-660.191217444771
 30
-0.00000000000131
  0
VERTEX
  5
25040
  8
01
  6
CONTINUOUS
 10
401.4516695920187
 20
-660.2042566261919
 30
-0.00000000000131
  0
VERTEX
  5
25041
  8
01
  6
CONTINUOUS
 10
401.4721950867194
 20
-660.2177667859586
 30
-0.00000000000131
  0
VERTEX
  5
25042
  8
01
  6
CONTINUOUS
 10
401.4923929273477
 20
-660.2317259557977
 30
-0.00000000000131
  0
VERTEX
  5
25043
  8
01
  6
CONTINUOUS
 10
401.5122489300689
 20
-660.2461321946187
 30
-0.00000000000131
  0
VERTEX
  5
25044
  8
01
  6
CONTINUOUS
 10
401.5317487812437
 20
-660.2609847569207
 30
-0.00000000000131
  0
VERTEX
  5
25045
  8
01
  6
CONTINUOUS
 10
401.5508781672326
 20
-660.2762828972028
 30
-0.00000000000131
  0
VERTEX
  5
25046
  8
01
  6
CONTINUOUS
 10
401.5696227743962
 20
-660.2920258699638
 30
-0.00000000000131
  0
VERTEX
  5
25047
  8
01
  6
CONTINUOUS
 10
401.587968289095
 20
-660.3082129297031
 30
-0.00000000000131
  0
VERTEX
  5
25048
  8
01
  6
CONTINUOUS
 10
401.60590039769
 20
-660.3248433309195
 30
-0.00000000000131
  0
VERTEX
  5
25049
  8
01
  6
CONTINUOUS
 10
401.6234047865415
 20
-660.341916328112
 30
-0.00000000000131
  0
VERTEX
  5
2504A
  8
01
  6
CONTINUOUS
 10
401.6404694290441
 20
-660.359428889499
 30
-0.00000000000131
  0
VERTEX
  5
2504B
  8
01
  6
CONTINUOUS
 10
401.6570913576375
 20
-660.3773689272352
 30
-0.00000000000131
  0
VERTEX
  5
2504C
  8
01
  6
CONTINUOUS
 10
401.6732698474679
 20
-660.3957221115081
 30
-0.00000000000131
  0
VERTEX
  5
2504D
  8
01
  6
CONTINUOUS
 10
401.6890041736814
 20
-660.4144741125049
 30
-0.00000000000131
  0
VERTEX
  5
2504E
  8
01
  6
CONTINUOUS
 10
401.7042936114239
 20
-660.4336106004127
 30
-0.00000000000131
  0
VERTEX
  5
2504F
  8
01
  6
CONTINUOUS
 10
401.7191374358414
 20
-660.453117245419
 30
-0.00000000000131
  0
VERTEX
  5
25050
  8
01
  6
CONTINUOUS
 10
401.73353492208
 20
-660.4729797177108
 30
-0.00000000000131
  0
VERTEX
  5
25051
  8
01
  6
CONTINUOUS
 10
401.7474853452856
 20
-660.4931836874756
 30
-0.00000000000131
  0
VERTEX
  5
25052
  8
01
  6
CONTINUOUS
 10
401.7609867487124
 20
-660.5137149592256
 30
-0.00000000000131
  0
VERTEX
  5
25053
  8
01
  6
CONTINUOUS
 10
401.7740170417275
 20
-660.5345615328639
 30
-0.00000000000131
  0
VERTEX
  5
25054
  8
01
  6
CONTINUOUS
 10
401.7865377157004
 20
-660.5557131985065
 30
-0.00000000000131
  0
VERTEX
  5
25055
  8
01
  6
CONTINUOUS
 10
401.7985097829973
 20
-660.5771597984987
 30
-0.00000000000131
  0
VERTEX
  5
25056
  8
01
  6
CONTINUOUS
 10
401.8098942559848
 20
-660.5988911751864
 30
-0.00000000000131
  0
VERTEX
  5
25057
  8
01
  6
CONTINUOUS
 10
401.8206521470293
 20
-660.6208971709151
 30
-0.00000000000131
  0
VERTEX
  5
25058
  8
01
  6
CONTINUOUS
 10
401.8307444684972
 20
-660.6431676280307
 30
-0.00000000000131
  0
VERTEX
  5
25059
  8
01
  6
CONTINUOUS
 10
401.8401322327549
 20
-660.665692388879
 30
-0.00000000000131
  0
VERTEX
  5
2505A
  8
01
  6
CONTINUOUS
 10
401.8487769743369
 20
-660.6884612646348
 30
-0.00000000000131
  0
VERTEX
  5
2505B
  8
01
  6
CONTINUOUS
 10
401.8566729199798
 20
-660.7114621149161
 30
-0.00000000000131
  0
VERTEX
  5
2505C
  8
01
  6
CONTINUOUS
 10
401.8638657684693
 20
-660.7346797267234
 30
-0.00000000000131
  0
VERTEX
  5
2505D
  8
01
  6
CONTINUOUS
 10
401.8704057410309
 20
-660.7580986170905
 30
-0.00000000000131
  0
VERTEX
  5
2505E
  8
01
  6
CONTINUOUS
 10
401.8763430588897
 20
-660.7817033030511
 30
-0.00000000000131
  0
VERTEX
  5
2505F
  8
01
  6
CONTINUOUS
 10
401.8817279432709
 20
-660.8054783016395
 30
-0.00000000000131
  0
VERTEX
  5
25060
  8
01
  6
CONTINUOUS
 10
401.8866106153997
 20
-660.8294081298892
 30
-0.00000000000131
  0
VERTEX
  5
25061
  8
01
  6
CONTINUOUS
 10
401.8910412965013
 20
-660.8534773048342
 30
-0.00000000000131
  0
VERTEX
  5
25062
  8
01
  6
CONTINUOUS
 10
401.8950702078008
 20
-660.8776703435086
 30
-0.00000000000131
  0
VERTEX
  5
25063
  8
01
  6
CONTINUOUS
 10
401.8987475705235
 20
-660.9019717629461
 30
-0.00000000000131
  0
VERTEX
  5
25064
  8
01
  6
CONTINUOUS
 10
401.9021236058947
 20
-660.9263660801806
 30
-0.00000000000131
  0
VERTEX
  5
25065
  8
01
  6
CONTINUOUS
 10
401.9052485351394
 20
-660.9508378122462
 30
-0.00000000000131
  0
VERTEX
  5
25066
  8
01
  6
CONTINUOUS
 10
401.9081725794829
 20
-660.9753714761764
 30
-0.00000000000131
  0
VERTEX
  5
25067
  8
01
  6
CONTINUOUS
 10
401.9109459601505
 20
-660.9999515890055
 30
-0.00000000000131
  0
VERTEX
  5
25068
  8
01
  6
CONTINUOUS
 10
401.9136188983671
 20
-661.0245626677671
 30
-0.00000000000131
  0
VERTEX
  5
25069
  8
01
  6
CONTINUOUS
 10
401.9162416153582
 20
-661.0491892294953
 30
-0.00000000000131
  0
SEQEND
  5
25209
  8
01
  6
CONTINUOUS
  0
LINE
  5
239D0
  8
01
  6
CONTINUOUS
 10
401.9162416153727
 20
-671.0495039365481
 30
-0.0000000000000037
 11
394.9162416153582
 21
-671.0495039365481
 31
-0.0000000000000037
  0
LINE
  5
239D1
  8
01
  6
CONTINUOUS
 10
394.9162416153582
 20
-671.0495039365481
 30
-0.0000000000000037
 11
394.9162416153582
 21
-661.0491892294953
 31
-0.0000000000000037
  0
LINE
  5
239D2
  8
01
  6
CONTINUOUS
 10
401.9162416153727
 20
-661.0491892294953
 30
-0.00000000000131
 11
401.9162416153727
 21
-671.0495039365481
 31
-0.00000000000131
  0
ARC
  5
239D3
  8
01
  6
CONTINUOUS
 10
704.5162416153931
 20
-669.0495039365481
 30
0.0
 40
1.0
 50
0.0
 51
90.0
  0
ARC
  5
239F7
  8
01
 10
652.1552724572126
 20
-662.049503941132
 30
0.0000000000026127
 40
2.000000062806066
 50
14.67759440018309
 51
165.322405570492
  0
TEXT
  5
240B7
  8
1TEXT
 10
645.4008290664785
 20
-542.3213303512656
 30
0.0
 40
4.0
  1
表面処理:カバ-
 72
     1
 11
661.8684216590711
 21
-542.3213303512656
 31
0.0
  0
TEXT
  5
240B8
  8
1TEXT
 10
652.3816228374532
 20
-563.0797789161163
 30
0.0
 40
4.0
  1
ブラック
 72
     1
 11
661.3816228374532
 21
-563.0797789161163
 31
0.0
  0
LINE
  5
247B2
  8
1PHANTOM
 10
709.016241615364
 20
-676.0495039365483
 30
-0.0000000000000037
 11
722.516241615364
 21
-676.0495039365483
 31
-0.0000000000000037
  0
LINE
  5
247B3
  8
1PHANTOM
 10
724.016241615364
 20
-684.5495039365483
 30
-0.0000000000000037
 11
724.016241615364
 21
-677.5495039365483
 31
-0.0000000000000037
  0
LINE
  5
247B4
  8
1PHANTOM
 10
709.016241615364
 20
-686.0495039365483
 30
-0.0000000000000037
 11
722.516241615364
 21
-686.0495039365483
 31
-0.0000000000000037
  0
ARC
  5
248EE
  8
1PHANTOM
 10
722.516241615364
 20
-677.5495039365483
 30
-0.0000000000000037
 40
1.5
 50
0.0
 51
90.0
  0
ARC
  5
248EF
  8
1PHANTOM
 10
722.516241615364
 20
-684.5495039365483
 30
-0.0000000000000037
 40
1.5
 50
270.0
 51
0.0
  0
LINE
  5
24C14
  8
1PHANTOM
 10
569.4162416153582
 20
-575.2984491602832
 30
-0.0000000000000037
 11
460.4162416153582
 21
-575.2984491602832
 31
-0.0000000000000037
  0
LINE
  5
24C15
  8
1PHANTOM
 10
570.9162416153582
 20
-590.2984491602832
 30
-0.0000000000000037
 11
570.9162416153582
 21
-576.7984491602832
 31
-0.0000000000000037
  0
LINE
  5
24C16
  8
1PHANTOM
 10
458.9162416153582
 20
-576.7984491602832
 30
-0.0000000000000037
 11
458.9162416153582
 21
-590.2984491602832
 31
-0.0000000000000037
  0
ARC
  5
24C17
  8
1PHANTOM
 10
569.4162416153582
 20
-576.7984491602832
 30
-0.0000000000000037
 40
1.5
 50
0.0
 51
90.0
  0
ARC
  5
24C18
  8
1PHANTOM
 10
460.4162416153582
 20
-576.7984491602832
 30
-0.0000000000000037
 40
1.5
 50
90.0
 51
180.0
  0
LINE
  5
24D2E
  8
1HATCH
 10
714.666241615364
 20
-678.0495039365483
 30
-0.0000000000000037
 11
714.666241615364
 21
-688.0495039365483
 31
-0.0000000000000037
  0
LINE
  5
24D2F
  8
1HATCH
 10
711.3662416153641
 20
-678.0495039365483
 30
-0.0000000000000037
 11
711.366241615364
 21
-688.0495039365483
 31
-0.0000000000000037
  0
LINE
  5
24D30
  8
1CENTER
 10
713.016241615364
 20
-677.0236235701141
 30
-0.0000000000000037
 11
713.016241615364
 21
-691.9001945832592
 31
-0.0000000000000037
  0
LINE
  5
24D31
  8
1HATCH
 10
715.016241615364
 20
-678.3995039365483
 30
-0.0000000000000037
 11
711.016241615364
 21
-678.3995039365483
 31
-0.0000000000000037
  0
LINE
  5
24D32
  8
01
 10
715.016241615364
 20
-688.0495039365483
 30
-0.0000000000000037
 11
711.016241615364
 21
-688.0495039365483
 31
-0.0000000000000037
  0
LINE
  5
24D33
  8
01
 10
727.016241615364
 20
-684.8495039396524
 30
0.0
 11
727.016241615364
 21
-677.2495039396525
 31
0.0
  0
LINE
  5
24D34
  8
01
 10
727.016241615364
 20
-677.2495039396525
 30
0.0
 11
728.016241615364
 21
-677.2495039396525
 31
0.0
  0
LINE
  5
24D35
  8
01
 10
728.016241615364
 20
-677.2495039396525
 30
0.0
 11
728.016241615364
 21
-684.8495039396524
 31
0.0
  0
LINE
  5
24D36
  8
01
 10
728.016241615364
 20
-684.8495039396524
 30
0.0
 11
727.016241615364
 21
-684.8495039396524
 31
0.0
  0
LINE
  5
24D37
  8
01
 10
715.016241615364
 20
-688.0495039365483
 30
-0.0000000000000037
 11
715.016241615364
 21
-678.3995039365483
 31
-0.0000000000000037
  0
LINE
  5
24D38
  8
01
 10
715.016241615364
 20
-678.3995039365483
 30
-0.0000000000000037
 11
714.666241615364
 21
-678.0495039365483
 31
-0.0000000000000037
  0
LINE
  5
24D39
  8
01
 10
714.666241615364
 20
-678.0495039365483
 30
-0.0000000000000037
 11
711.3662416153642
 21
-678.0495039365483
 31
-0.0000000000000037
  0
LINE
  5
24D3A
  8
01
 10
711.3662416153642
 20
-678.0495039365483
 30
-0.0000000000000037
 11
711.016241615364
 21
-678.3995039365483
 31
-0.0000000000000037
  0
LINE
  5
24D3B
  8
01
 10
711.016241615364
 20
-678.3995039365483
 30
-0.0000000000000037
 11
711.016241615364
 21
-688.0495039365483
 31
-0.0000000000000037
  0
LINE
  5
24D3C
  8
01
 10
711.016241615364
 20
-688.0495039365483
 30
-0.0000000000000037
 11
709.516241615364
 21
-688.0495039365483
 31
-0.0000000000000037
  0
LINE
  5
24D3D
  8
01
 10
709.516241615364
 20
-688.0495039365483
 30
-0.0000000000000037
 11
709.516241615364
 21
-688.6495039365483
 31
-0.0000000000000037
  0
ARC
  5
24D3E
  8
01
 10
711.516241615364
 20
-688.6495039365483
 30
-0.0000000000000037
 40
2.0
 50
180.0
 51
270.0
  0
LINE
  5
24D3F
  8
01
 10
711.516241615364
 20
-690.6495039365483
 30
-0.0000000000000037
 11
714.5162416153639
 21
-690.6495039365483
 31
-0.0000000000000037
  0
ARC
  5
24D40
  8
01
 10
714.5162416153639
 20
-688.6495039365483
 30
-0.0000000000000037
 40
2.0
 50
270.0
 51
0.0000000000032569
  0
LINE
  5
24D41
  8
01
 10
716.5162416153639
 20
-688.6495039365482
 30
-0.0000000000000037
 11
716.5162416153639
 21
-688.0495039365483
 31
-0.0000000000000037
  0
LINE
  5
24D42
  8
01
 10
716.5162416153639
 20
-688.0495039365483
 30
-0.0000000000000037
 11
715.016241615364
 21
-688.0495039365483
 31
-0.0000000000000037
  0
LINE
  5
24D43
  8
0
 10
762.0162416152017
 20
-681.0495504724461
 30
0.0
 11
756.71624510534
 21
-679.5495504724461
 31
0.0
  0
LINE
  5
24D44
  8
0
 10
756.71624510534
 20
-679.5495504724461
 30
0.0
 11
727.0162451054481
 21
-679.5495504724463
 31
0.0
  0
LINE
  5
24D45
  8
0
 10
762.0162416152017
 20
-681.0495504724461
 30
0.0
 11
756.7162381249564
 21
-682.5495504724462
 31
0.0
  0
LINE
  5
24D46
  8
0
 10
727.0162497591463
 20
-677.5495039365483
 30
0.0
 11
727.0162334715818
 21
-684.5495039365481
 31
0.0
  0
LINE
  5
24D47
  8
0
 10
756.7162381249564
 20
-682.5495504724462
 30
0.0
 11
727.0162381250634
 21
-682.5495504724463
 31
0.0
  0
LINE
  5
24D48
  8
0
 10
727.0162497591463
 20
-677.5495039365483
 30
0.0
 11
725.9162462689509
 21
-677.5495039365481
 31
0.0
  0
ARC
  5
24D49
  8
0
 10
725.9162462689509
 20
-679.0495039365481
 30
0.0
 40
1.5
 50
90.0
 51
179.9998666844663
  0
LINE
  5
24D4A
  8
0
 10
727.0162334715818
 20
-684.5495039365481
 30
0.0
 11
725.9162369617712
 21
-684.5495039365481
 31
0.0
  0
LINE
  5
24D4B
  8
0
 10
724.416246268955
 20
-679.0495004463558
 30
0.0
 11
724.4162369617753
 21
-683.0495004463558
 31
0.0
  0
ARC
  5
24D4C
  8
0
 10
725.9162369617712
 20
-683.0495039365481
 30
0.0
 40
1.5
 50
179.9998666844663
 51
270.0
  0
LINE
  5
24D4D
  8
1CENTER
 10
763.4470365326671
 20
-681.0495039365481
 30
0.0
 11
723.3459652060552
 21
-681.0495039365481
 31
0.0
  0
LINE
  5
24D4E
  8
0
 10
759.9162441615239
 20
-679.9551801225531
 30
0.0
 11
760.7162395955748
 21
-681.9175152114285
 31
0.0
  0
LINE
  5
24D4F
  8
0
 10
760.7162395955748
 20
-681.9175152114285
 30
0.0
 11
761.028009451827
 21
-681.3292386363861
 31
0.0
  0
LINE
  5
24D50
  8
0
 10
737.5162462687339
 20
-679.0495504724461
 30
0.0
 11
738.3162369615521
 21
-683.0495504724461
 31
0.0
  0
LINE
  5
24D51
  8
0
 10
748.7162462687382
 20
-679.0495504724461
 30
0.0
 11
749.5162369615608
 21
-683.0495504724461
 31
0.0
  0
LINE
  5
24D52
  8
0
 10
751.9162462687383
 20
-679.0495504724461
 30
0.0
 11
752.7162369615609
 21
-683.0495504724461
 31
0.0
  0
LINE
  5
24D53
  8
0
 10
752.7162369615609
 20
-683.0495504724461
 30
0.0
 11
752.8162381249581
 21
-682.5495504724461
 31
0.0
  0
LINE
  5
24D54
  8
0
 10
753.4162451053411
 20
-679.5495504724461
 30
0.0
 11
753.5162462687383
 21
-679.0495504724461
 31
0.0
  0
LINE
  5
24D55
  8
0
 10
749.5162369615608
 20
-683.0495504724461
 30
0.0
 11
749.616238124958
 21
-682.5495504724461
 31
0.0
  0
LINE
  5
24D56
  8
0
 10
751.116236961561
 20
-683.0495504724461
 30
0.0
 11
751.2162381249581
 21
-682.5495504724461
 31
0.0
  0
LINE
  5
24D57
  8
0
 10
751.8162451053412
 20
-679.5495504724461
 30
0.0
 11
751.9162462687383
 21
-679.0495504724461
 31
0.0
  0
LINE
  5
24D58
  8
0
 10
750.2162451053413
 20
-679.5495504724461
 30
0.0
 11
750.3162462687384
 21
-679.0495504724461
 31
0.0
  0
LINE
  5
24D59
  8
0
 10
750.3162462687384
 20
-679.0495504724461
 30
0.0
 11
751.116236961561
 21
-683.0495504724461
 31
0.0
  0
LINE
  5
24D5A
  8
0
 10
759.1162385419692
 20
-682.3703293158353
 30
0.0
 11
759.2990026845972
 21
-681.818579852032
 31
0.0
  0
LINE
  5
24D5B
  8
0
 10
755.9162369615609
 20
-683.0495504724461
 30
0.0
 11
756.016238124958
 21
-682.5495504724461
 31
0.0
  0
LINE
  5
24D5C
  8
0
 10
754.3162369615609
 20
-683.0495504724461
 30
0.0
 11
754.4162381249579
 21
-682.5495504724461
 31
0.0
  0
LINE
  5
24D5D
  8
0
 10
757.5162374883636
 20
-682.8231434202421
 30
0.0
 11
757.6455081859934
 21
-682.286549684971
 31
0.0
  0
LINE
  5
24D5E
  8
0
 10
758.2034757027781
 20
-679.9704650696548
 30
0.0
 11
758.3162452151281
 21
-679.5023666145048
 31
0.0
  0
LINE
  5
24D5F
  8
0
 10
755.0162451053412
 20
-679.5495504724461
 30
0.0
 11
755.1162462687383
 21
-679.0495504724461
 31
0.0
  0
LINE
  5
24D60
  8
0
 10
756.6162451053411
 20
-679.5495504724461
 30
0.0
 11
756.7162462687382
 21
-679.0495504724461
 31
0.0
  0
LINE
  5
24D61
  8
0
 10
759.7648083650835
 20
-680.4123519631842
 30
0.0
 11
759.9162441615239
 21
-679.9551801225531
 31
0.0
  0
LINE
  5
24D62
  8
0
 10
758.3162452151281
 20
-679.5023666145048
 30
0.0
 11
759.1162385419692
 21
-682.3703293158353
 31
0.0
  0
LINE
  5
24D63
  8
0
 10
755.1162462687383
 20
-679.0495504724461
 30
0.0
 11
755.9162369615609
 21
-683.0495504724461
 31
0.0
  0
LINE
  5
24D64
  8
0
 10
756.7162462687382
 20
-679.0495504724461
 30
0.0
 11
757.5162374883636
 21
-682.8231434202421
 31
0.0
  0
LINE
  5
24D65
  8
0
 10
753.5162462687383
 20
-679.0495504724461
 30
0.0
 11
754.3162369615609
 21
-683.0495504724461
 31
0.0
  0
LINE
  5
24D66
  8
0
 10
740.7162462687339
 20
-679.0495504724461
 30
0.0
 11
741.5162369615522
 21
-683.0495504724461
 31
0.0
  0
LINE
  5
24D67
  8
0
 10
741.5162369615522
 20
-683.0495504724461
 30
0.0
 11
741.6162381249499
 21
-682.5495504724461
 31
0.0
  0
LINE
  5
24D68
  8
0
 10
742.2162451053406
 20
-679.5495504724461
 30
0.0
 11
742.3162462687383
 21
-679.0495504724461
 31
0.0
  0
LINE
  5
24D69
  8
0
 10
739.916236961552
 20
-683.0495504724461
 30
0.0
 11
740.0162381249497
 21
-682.5495504724461
 31
0.0
  0
LINE
  5
24D6A
  8
0
 10
738.3162369615521
 20
-683.0495504724461
 30
0.0
 11
738.4162381249498
 21
-682.5495504724461
 31
0.0
  0
LINE
  5
24D6B
  8
0
 10
740.6162451053362
 20
-679.5495504724461
 30
0.0
 11
740.7162462687339
 21
-679.0495504724461
 31
0.0
  0
LINE
  5
24D6C
  8
0
 10
739.0162451053361
 20
-679.5495504724461
 30
0.0
 11
739.1162462687338
 21
-679.0495504724461
 31
0.0
  0
LINE
  5
24D6D
  8
0
 10
739.1162462687338
 20
-679.0495504724461
 30
0.0
 11
739.916236961552
 21
-683.0495504724461
 31
0.0
  0
LINE
  5
24D6E
  8
0
 10
746.3162369615566
 20
-683.0495504724461
 30
0.0
 11
746.4162381249542
 21
-682.5495504724461
 31
0.0
  0
LINE
  5
24D6F
  8
0
 10
747.9162369615609
 20
-683.0495504724461
 30
0.0
 11
748.016238124958
 21
-682.5495504724461
 31
0.0
  0
LINE
  5
24D70
  8
0
 10
743.1162369615565
 20
-683.0495504724461
 30
0.0
 11
743.2162381249542
 21
-682.5495504724461
 31
0.0
  0
LINE
  5
24D71
  8
0
 10
744.7162369615564
 20
-683.0495504724461
 30
0.0
 11
744.8162381249541
 21
-682.5495504724461
 31
0.0
  0
LINE
  5
24D72
  8
0
 10
748.6162451053411
 20
-679.5495504724461
 30
0.0
 11
748.7162462687382
 21
-679.0495504724461
 31
0.0
  0
LINE
  5
24D73
  8
0
 10
747.0162451053405
 20
-679.5495504724461
 30
0.0
 11
747.1162462687383
 21
-679.0495504724461
 31
0.0
  0
LINE
  5
24D74
  8
0
 10
743.8162451053405
 20
-679.5495504724461
 30
0.0
 11
743.9162462687382
 21
-679.0495504724461
 31
0.0
  0
LINE
  5
24D75
  8
0
 10
745.4162451053406
 20
-679.5495504724461
 30
0.0
 11
745.5162462687383
 21
-679.0495504724461
 31
0.0
  0
LINE
  5
24D76
  8
0
 10
745.5162462687383
 20
-679.0495504724461
 30
0.0
 11
746.3162369615566
 21
-683.0495504724461
 31
0.0
  0
LINE
  5
24D77
  8
0
 10
747.1162462687383
 20
-679.0495504724461
 30
0.0
 11
747.9162369615609
 21
-683.0495504724461
 31
0.0
  0
LINE
  5
24D78
  8
0
 10
743.9162462687382
 20
-679.0495504724461
 30
0.0
 11
744.7162369615564
 21
-683.0495504724461
 31
0.0
  0
LINE
  5
24D79
  8
0
 10
742.3162462687383
 20
-679.0495504724461
 30
0.0
 11
743.1162369615565
 21
-683.0495504724461
 31
0.0
  0
LINE
  5
24D7A
  8
0
 10
732.616245105332
 20
-679.5495504724461
 30
0.0
 11
732.7162462687297
 21
-679.0495504724461
 31
0.0
  0
LINE
  5
24D7B
  8
0
 10
732.7162462687297
 20
-679.0495504724461
 30
0.0
 11
733.516236961548
 21
-683.0495504724461
 31
0.0
  0
LINE
  5
24D7C
  8
0
 10
733.516236961548
 20
-683.0495504724461
 30
0.0
 11
733.6162381249457
 21
-682.5495504724461
 31
0.0
  0
LINE
  5
24D7D
  8
0
 10
734.216245105332
 20
-679.5495504724461
 30
0.0
 11
734.3162462687296
 21
-679.0495504724461
 31
0.0
  0
LINE
  5
24D7E
  8
0
 10
735.8162451053319
 20
-679.5495504724461
 30
0.0
 11
735.9162462687295
 21
-679.0495504724461
 31
0.0
  0
LINE
  5
24D7F
  8
0
 10
735.9162462687295
 20
-679.0495504724461
 30
0.0
 11
736.7162369615478
 21
-683.0495504724461
 31
0.0
  0
LINE
  5
24D80
  8
0
 10
735.1162369615479
 20
-683.0495504724461
 30
0.0
 11
735.2162381249456
 21
-682.5495504724461
 31
0.0
  0
LINE
  5
24D81
  8
0
 10
736.7162369615478
 20
-683.0495504724461
 30
0.0
 11
736.8162381249455
 21
-682.5495504724461
 31
0.0
  0
LINE
  5
24D82
  8
0
 10
734.3162462687296
 20
-679.0495504724461
 30
0.0
 11
735.1162369615479
 21
-683.0495504724461
 31
0.0
  0
LINE
  5
24D83
  8
0
 10
737.4162451053362
 20
-679.5495504724461
 30
0.0
 11
737.5162462687339
 21
-679.0495504724461
 31
0.0
  0
LINE
  5
24D84
  8
0
 10
731.0162451053321
 20
-679.5495504724461
 30
0.0
 11
731.1162462687298
 21
-679.0495504724461
 31
0.0
  0
LINE
  5
24D85
  8
0
 10
731.1162462687298
 20
-679.0495504724461
 30
0.0
 11
731.9162369615481
 21
-683.0495504724461
 31
0.0
  0
LINE
  5
24D86
  8
0
 10
731.9162369615481
 20
-683.0495504724461
 30
0.0
 11
732.0162381249457
 21
-682.5495504724461
 31
0.0
  0
LINE
  5
24D87
  8
0
 10
729.4162451053322
 20
-679.5495504724461
 30
0.0
 11
729.5162462687299
 21
-679.0495504724461
 31
0.0
  0
LINE
  5
24D88
  8
0
 10
729.5162462687299
 20
-679.0495504724461
 30
0.0
 11
730.3162369615482
 21
-683.0495504724461
 31
0.0
  0
LINE
  5
24D89
  8
0
 10
730.3162369615482
 20
-683.0495504724461
 30
0.0
 11
730.4162381249458
 21
-682.5495504724461
 31
0.0
  0
LINE
  5
24D8A
  8
0
 10
727.8162451053323
 20
-679.5495504724461
 30
0.0
 11
727.91624626873
 21
-679.0495504724461
 31
0.0
  0
LINE
  5
24D8B
  8
0
 10
727.91624626873
 20
-679.0495504724461
 30
0.0
 11
728.7162369615482
 21
-683.0495504724461
 31
0.0
  0
LINE
  5
24D8C
  8
0
 10
728.7162369615482
 20
-683.0495504724461
 30
0.0
 11
728.8162381249459
 21
-682.5495504724461
 31
0.0
  0
LINE
  5
24D8D
  8
1DIM
 10
752.516241615364
 20
-681.0495039365481
 30
0.0
 11
761.3854466978986
 21
-681.0495039365481
 31
0.0
1001
ACAD
1000
DSTYLE
1002
{
1070
    45
1040
0.5
1070
   271
1070
     0
1002
}
  0
LINE
  5
24D8E
  8
1DIM
 10
752.516241615364
 20
-671.0495504724461
 30
0.0
 11
761.3854466978986
 21
-671.0495504724461
 31
0.0
1001
ACAD
1000
DSTYLE
1002
{
1070
    45
1040
0.5
1070
   271
1070
     0
1002
}
  0
LINE
  5
24D8F
  8
1DIM
 10
760.3854466978986
 20
-671.0495504724461
 30
0.0
 11
760.3854466978986
 21
-662.4828838057792
 31
0.0
1001
ACAD
1000
DSTYLE
1002
{
1070
    45
1040
0.5
1070
   271
1070
     0
1002
}
  0
LINE
  5
24D90
  8
1DIM
 10
760.3854466978986
 20
-679.0495039365481
 30
0.0
 11
760.3854466978986
 21
-673.0495504724461
 31
0.0
1001
ACAD
1000
DSTYLE
1002
{
1070
    45
1040
0.5
1070
   271
1070
     0
1002
}
  0
LINE
  5
24D94
  8
1DIM
 10
731.016241615364
 20
-706.0495039365483
 30
0.0
 11
767.8854466978986
 21
-706.0495039365483
 31
0.0
1001
ACAD
1000
DSTYLE
1002
{
1070
     3
1000
<>
1070
    45
1040
0.5
1002
}
  0
LINE
  5
24D95
  8
1DIM
 10
731.016241615364
 20
-671.0495039365483
 30
0.0
 11
767.8854466978986
 21
-671.0495039365483
 31
0.0
1001
ACAD
1000
DSTYLE
1002
{
1070
     3
1000
<>
1070
    45
1040
0.5
1002
}
  0
LINE
  5
24D96
  8
1DIM
 10
766.8854466978986
 20
-704.0495039365483
 30
0.0
 11
766.8854466978986
 21
-673.0495039365483
 31
0.0
1001
ACAD
1000
DSTYLE
1002
{
1070
     3
1000
<>
1070
    45
1040
0.5
1002
}
  0
LINE
  5
24D9A
  8
1DIM
 10
731.016241615364
 20
-706.0495039365483
 30
0.0
 11
731.016241615364
 21
-715.6495039365496
 31
0.0
1001
ACAD
1000
DSTYLE
1002
{
1070
    45
1040
0.5
1002
}
  0
LINE
  5
24D9B
  8
1DIM
 10
713.016241615364
 20
-691.9001945832592
 30
0.0
 11
713.016241615364
 21
-715.6495039365496
 31
0.0
1001
ACAD
1000
DSTYLE
1002
{
1070
    45
1040
0.5
1002
}
  0
LINE
  5
24D9C
  8
1DIM
 10
729.016241615364
 20
-714.6495039365496
 30
0.0
 11
715.016241615364
 21
-714.6495039365496
 31
0.0
1001
ACAD
1000
DSTYLE
1002
{
1070
    45
1040
0.5
1002
}
  0
LINE
  5
24DA0
  8
1DIM
 10
646.016241615364
 20
-691.0495039365481
 30
0.0
 11
684.9052724572126
 21
-691.0495039365481
 31
0.0
1001
ACAD
1000
DSTYLE
1002
{
1070
    45
1040
0.5
1002
}
  0
LINE
  5
24DA1
  8
1DIM
 10
648.516241615364
 20
-671.0495039365481
 30
0.0
 11
684.9052724572126
 21
-671.0495039365481
 31
0.0
1001
ACAD
1000
DSTYLE
1002
{
1070
    45
1040
0.5
1002
}
  0
LINE
  5
24DA2
  8
1DIM
 10
683.9052724572126
 20
-691.0495039365481
 30
0.0
 11
683.9052724572126
 21
-700.116170603215
 31
0.0
1001
ACAD
1000
DSTYLE
1002
{
1070
    45
1040
0.5
1002
}
  0
LINE
  5
24DA3
  8
1DIM
 10
683.9052724572126
 20
-689.0495039365481
 30
0.0
 11
683.9052724572126
 21
-673.0495039365481
 31
0.0
1001
ACAD
1000
DSTYLE
1002
{
1070
    45
1040
0.5
1002
}
  0
LINE
  5
24DA7
  8
0
 10
559.9162881512561
 20
-537.2984491604456
 30
-0.0000000000000037
 11
558.4162881512561
 21
-542.5984456703072
 31
-0.0000000000000037
  0
LINE
  5
24DA8
  8
0
 10
558.4162881512561
 20
-542.5984456703072
 30
-0.0000000000000037
 11
558.4162881512564
 21
-572.2984456701992
 31
-0.0000000000000037
  0
LINE
  5
24DA9
  8
0
 10
559.9162881512561
 20
-537.2984491604456
 30
-0.0000000000000037
 11
561.4162881512563
 21
-542.5984526506909
 31
-0.0000000000000037
  0
LINE
  5
24DAA
  8
0
 10
556.4162416153583
 20
-572.298441016501
 30
-0.0000000000000037
 11
563.4162416153582
 21
-572.2984573040654
 31
-0.0000000000000037
  0
LINE
  5
24DAB
  8
0
 10
561.4162881512563
 20
-542.5984526506909
 30
-0.0000000000000037
 11
561.4162881512564
 21
-572.2984526505838
 31
-0.0000000000000037
  0
LINE
  5
24DAC
  8
0
 10
556.4162416153583
 20
-572.298441016501
 30
-0.0000000000000037
 11
556.4162416153582
 21
-573.3984445066964
 31
-0.0000000000000037
  0
ARC
  5
24DAD
  8
0
 10
557.9162416153582
 20
-573.3984445066964
 30
-0.0000000000000037
 40
1.5
 50
180.0
 51
269.9998666844662
  0
LINE
  5
24DAE
  8
0
 10
563.4162416153582
 20
-572.2984573040654
 30
-0.0000000000000037
 11
563.4162416153582
 21
-573.398453813876
 31
-0.0000000000000037
  0
LINE
  5
24DAF
  8
0
 10
557.9162381251658
 20
-574.8984445066923
 30
-0.0000000000000037
 11
561.9162381251658
 21
-574.8984538138719
 31
-0.0000000000000037
  0
ARC
  5
24DB0
  8
0
 10
561.9162416153582
 20
-573.398453813876
 30
-0.0000000000000037
 40
1.5
 50
269.9998666844662
 51
0.0
  0
LINE
  5
24DB1
  8
1CENTER
 10
559.9162416153582
 20
-535.8676542429802
 30
-0.0000000000000037
 11
559.9162416153582
 21
-575.968725569592
 31
-0.0000000000000037
  0
LINE
  5
24DB2
  8
0
 10
558.8219178013632
 20
-539.3984466141234
 30
-0.0000000000000037
 11
560.7842528902386
 21
-538.5984511800724
 31
-0.0000000000000037
  0
LINE
  5
24DB3
  8
0
 10
560.7842528902386
 20
-538.5984511800724
 30
-0.0000000000000037
 11
560.1959763151962
 21
-538.2866813238203
 31
-0.0000000000000037
  0
LINE
  5
24DB4
  8
0
 10
557.9162881512561
 20
-561.7984445069134
 30
-0.0000000000000037
 11
561.9162881512561
 21
-560.9984538140951
 31
-0.0000000000000037
  0
LINE
  5
24DB5
  8
0
 10
557.9162881512561
 20
-550.598444506909
 30
-0.0000000000000037
 11
561.9162881512561
 21
-549.7984538140864
 31
-0.0000000000000037
  0
LINE
  5
24DB6
  8
0
 10
557.9162881512561
 20
-547.398444506909
 30
-0.0000000000000037
 11
561.9162881512561
 21
-546.5984538140864
 31
-0.0000000000000037
  0
LINE
  5
24DB7
  8
0
 10
561.9162881512561
 20
-546.5984538140864
 30
-0.0000000000000037
 11
561.4162881512561
 21
-546.4984526506892
 31
-0.0000000000000037
  0
LINE
  5
24DB8
  8
0
 10
558.4162881512561
 20
-545.8984456703062
 30
-0.0000000000000037
 11
557.9162881512561
 21
-545.7984445069089
 31
-0.0000000000000037
  0
LINE
  5
24DB9
  8
0
 10
561.9162881512561
 20
-549.7984538140864
 30
-0.0000000000000037
 11
561.4162881512561
 21
-549.6984526506892
 31
-0.0000000000000037
  0
LINE
  5
24DBA
  8
0
 10
561.9162881512561
 20
-548.1984538140863
 30
-0.0000000000000037
 11
561.4162881512561
 21
-548.0984526506892
 31
-0.0000000000000037
  0
LINE
  5
24DBB
  8
0
 10
558.4162881512561
 20
-547.4984456703061
 30
-0.0000000000000037
 11
557.9162881512561
 21
-547.398444506909
 31
-0.0000000000000037
  0
LINE
  5
24DBC
  8
0
 10
558.4162881512561
 20
-549.098445670306
 30
-0.0000000000000037
 11
557.9162881512561
 21
-548.9984445069089
 31
-0.0000000000000037
  0
LINE
  5
24DBD
  8
0
 10
557.9162881512561
 20
-548.9984445069089
 30
-0.0000000000000037
 11
561.9162881512561
 21
-548.1984538140863
 31
-0.0000000000000037
  0
LINE
  5
24DBE
  8
0
 10
561.2370669946454
 20
-540.198452233678
 30
-0.0000000000000037
 11
560.6853175308421
 21
-540.01568809105
 31
-0.0000000000000037
  0
LINE
  5
24DBF
  8
0
 10
561.9162881512561
 20
-543.3984538140863
 30
-0.0000000000000037
 11
561.4162881512561
 21
-543.2984526506892
 31
-0.0000000000000037
  0
LINE
  5
24DC0
  8
0
 10
561.9162881512561
 20
-544.9984538140864
 30
-0.0000000000000037
 11
561.4162881512561
 21
-544.8984526506894
 31
-0.0000000000000037
  0
LINE
  5
24DC1
  8
0
 10
561.6898810990522
 20
-541.7984532872837
 30
-0.0000000000000037
 11
561.153287363781
 21
-541.6691825896538
 31
-0.0000000000000037
  0
LINE
  5
24DC2
  8
0
 10
558.8372027484648
 20
-541.1112150728692
 30
-0.0000000000000037
 11
558.3691042933149
 21
-540.9984455605191
 31
-0.0000000000000037
  0
LINE
  5
24DC3
  8
0
 10
558.4162881512561
 20
-544.298445670306
 30
-0.0000000000000037
 11
557.9162881512561
 21
-544.1984445069089
 31
-0.0000000000000037
  0
LINE
  5
24DC4
  8
0
 10
558.4162881512561
 20
-542.6984456703061
 30
-0.0000000000000037
 11
557.9162881512561
 21
-542.598444506909
 31
-0.0000000000000037
  0
LINE
  5
24DC5
  8
0
 10
559.2790896419942
 20
-539.5498824105638
 30
-0.0000000000000037
 11
558.8219178013632
 21
-539.3984466141234
 31
-0.0000000000000037
  0
LINE
  5
24DC6
  8
0
 10
558.3691042933149
 20
-540.9984455605191
 30
-0.0000000000000037
 11
561.2370669946454
 21
-540.198452233678
 31
-0.0000000000000037
  0
LINE
  5
24DC7
  8
0
 10
557.9162881512561
 20
-544.1984445069089
 30
-0.0000000000000037
 11
561.9162881512561
 21
-543.3984538140863
 31
-0.0000000000000037
  0
LINE
  5
24DC8
  8
0
 10
557.9162881512561
 20
-542.598444506909
 30
-0.0000000000000037
 11
561.6898810990522
 21
-541.7984532872837
 31
-0.0000000000000037
  0
LINE
  5
24DC9
  8
0
 10
557.9162881512561
 20
-545.7984445069089
 30
-0.0000000000000037
 11
561.9162881512561
 21
-544.9984538140864
 31
-0.0000000000000037
  0
LINE
  5
24DCA
  8
0
 10
557.9162881512561
 20
-558.5984445069133
 30
-0.0000000000000037
 11
561.9162881512561
 21
-557.7984538140951
 31
-0.0000000000000037
  0
LINE
  5
24DCB
  8
0
 10
561.9162881512561
 20
-557.7984538140951
 30
-0.0000000000000037
 11
561.4162881512561
 21
-557.6984526506974
 31
-0.0000000000000037
  0
LINE
  5
24DCC
  8
0
 10
558.4162881512561
 20
-557.0984456703067
 30
-0.0000000000000037
 11
557.9162881512561
 21
-556.998444506909
 31
-0.0000000000000037
  0
LINE
  5
24DCD
  8
0
 10
561.9162881512561
 20
-559.3984538140952
 30
-0.0000000000000037
 11
561.4162881512561
 21
-559.2984526506975
 31
-0.0000000000000037
  0
LINE
  5
24DCE
  8
0
 10
561.9162881512561
 20
-560.9984538140951
 30
-0.0000000000000037
 11
561.4162881512561
 21
-560.8984526506974
 31
-0.0000000000000037
  0
LINE
  5
24DCF
  8
0
 10
558.4162881512561
 20
-558.698445670311
 30
-0.0000000000000037
 11
557.9162881512561
 21
-558.5984445069133
 31
-0.0000000000000037
  0
LINE
  5
24DD0
  8
0
 10
558.4162881512561
 20
-560.2984456703111
 30
-0.0000000000000037
 11
557.9162881512561
 21
-560.1984445069135
 31
-0.0000000000000037
  0
LINE
  5
24DD1
  8
0
 10
557.9162881512561
 20
-560.1984445069135
 30
-0.0000000000000037
 11
561.9162881512561
 21
-559.3984538140952
 31
-0.0000000000000037
  0
LINE
  5
24DD2
  8
0
 10
561.9162881512561
 20
-552.9984538140907
 30
-0.0000000000000037
 11
561.4162881512561
 21
-552.898452650693
 31
-0.0000000000000037
  0
LINE
  5
24DD3
  8
0
 10
561.9162881512561
 20
-551.3984538140863
 30
-0.0000000000000037
 11
561.4162881512561
 21
-551.2984526506892
 31
-0.0000000000000037
  0
LINE
  5
24DD4
  8
0
 10
561.9162881512561
 20
-556.1984538140907
 30
-0.0000000000000037
 11
561.4162881512561
 21
-556.098452650693
 31
-0.0000000000000037
  0
LINE
  5
24DD5
  8
0
 10
561.9162881512561
 20
-554.5984538140908
 30
-0.0000000000000037
 11
561.4162881512561
 21
-554.4984526506931
 31
-0.0000000000000037
  0
LINE
  5
24DD6
  8
0
 10
558.4162881512561
 20
-550.6984456703061
 30
-0.0000000000000037
 11
557.9162881512561
 21
-550.598444506909
 31
-0.0000000000000037
  0
LINE
  5
24DD7
  8
0
 10
558.4162881512561
 20
-552.2984456703067
 30
-0.0000000000000037
 11
557.9162881512561
 21
-552.1984445069089
 31
-0.0000000000000037
  0
LINE
  5
24DD8
  8
0
 10
558.4162881512561
 20
-555.4984456703068
 30
-0.0000000000000037
 11
557.9162881512561
 21
-555.3984445069091
 31
-0.0000000000000037
  0
LINE
  5
24DD9
  8
0
 10
558.4162881512561
 20
-553.8984456703066
 30
-0.0000000000000037
 11
557.9162881512561
 21
-553.7984445069089
 31
-0.0000000000000037
  0
LINE
  5
24DDA
  8
0
 10
557.9162881512561
 20
-553.7984445069089
 30
-0.0000000000000037
 11
561.9162881512561
 21
-552.9984538140907
 31
-0.0000000000000037
  0
LINE
  5
24DDB
  8
0
 10
557.9162881512561
 20
-552.1984445069089
 30
-0.0000000000000037
 11
561.9162881512561
 21
-551.3984538140863
 31
-0.0000000000000037
  0
LINE
  5
24DDC
  8
0
 10
557.9162881512561
 20
-555.3984445069091
 30
-0.0000000000000037
 11
561.9162881512561
 21
-554.5984538140908
 31
-0.0000000000000037
  0
LINE
  5
24DDD
  8
0
 10
557.9162881512561
 20
-556.998444506909
 30
-0.0000000000000037
 11
561.9162881512561
 21
-556.1984538140907
 31
-0.0000000000000037
  0
LINE
  5
24DDE
  8
0
 10
558.4162881512561
 20
-566.6984456703152
 30
-0.0000000000000037
 11
557.9162881512561
 21
-566.5984445069175
 31
-0.0000000000000037
  0
LINE
  5
24DDF
  8
0
 10
557.9162881512561
 20
-566.5984445069175
 30
-0.0000000000000037
 11
561.9162881512561
 21
-565.7984538140993
 31
-0.0000000000000037
  0
LINE
  5
24DE0
  8
0
 10
561.9162881512561
 20
-565.7984538140993
 30
-0.0000000000000037
 11
561.4162881512561
 21
-565.6984526507016
 31
-0.0000000000000037
  0
LINE
  5
24DE1
  8
0
 10
558.4162881512561
 20
-565.0984456703153
 30
-0.0000000000000037
 11
557.9162881512561
 21
-564.9984445069176
 31
-0.0000000000000037
  0
LINE
  5
24DE2
  8
0
 10
558.4162881512561
 20
-563.4984456703154
 30
-0.0000000000000037
 11
557.9162881512561
 21
-563.3984445069177
 31
-0.0000000000000037
  0
LINE
  5
24DE3
  8
0
 10
557.9162881512561
 20
-563.3984445069177
 30
-0.0000000000000037
 11
561.9162881512561
 21
-562.5984538140995
 31
-0.0000000000000037
  0
LINE
  5
24DE4
  8
0
 10
561.9162881512561
 20
-564.1984538140994
 30
-0.0000000000000037
 11
561.4162881512561
 21
-564.0984526507017
 31
-0.0000000000000037
  0
LINE
  5
24DE5
  8
0
 10
561.9162881512561
 20
-562.5984538140995
 30
-0.0000000000000037
 11
561.4162881512561
 21
-562.4984526507018
 31
-0.0000000000000037
  0
LINE
  5
24DE6
  8
0
 10
557.9162881512561
 20
-564.9984445069176
 30
-0.0000000000000037
 11
561.9162881512561
 21
-564.1984538140994
 31
-0.0000000000000037
  0
LINE
  5
24DE7
  8
0
 10
558.4162881512561
 20
-561.898445670311
 30
-0.0000000000000037
 11
557.9162881512561
 21
-561.7984445069134
 31
-0.0000000000000037
  0
LINE
  5
24DE8
  8
0
 10
558.4162881512561
 20
-568.2984456703151
 30
-0.0000000000000037
 11
557.9162881512561
 21
-568.1984445069174
 31
-0.0000000000000037
  0
LINE
  5
24DE9
  8
0
 10
557.9162881512561
 20
-568.1984445069174
 30
-0.0000000000000037
 11
561.9162881512561
 21
-567.3984538140992
 31
-0.0000000000000037
  0
LINE
  5
24DEA
  8
0
 10
561.9162881512561
 20
-567.3984538140992
 30
-0.0000000000000037
 11
561.4162881512561
 21
-567.2984526507015
 31
-0.0000000000000037
  0
LINE
  5
24DEB
  8
0
 10
558.4162881512561
 20
-569.898445670315
 30
-0.0000000000000037
 11
557.9162881512561
 21
-569.7984445069173
 31
-0.0000000000000037
  0
LINE
  5
24DEC
  8
0
 10
557.9162881512561
 20
-569.7984445069173
 30
-0.0000000000000037
 11
561.9162881512561
 21
-568.9984538140991
 31
-0.0000000000000037
  0
LINE
  5
24DED
  8
0
 10
561.9162881512561
 20
-568.9984538140991
 30
-0.0000000000000037
 11
561.4162881512561
 21
-568.8984526507014
 31
-0.0000000000000037
  0
LINE
  5
24DEE
  8
0
 10
558.4162881512561
 20
-571.4984456703149
 30
-0.0000000000000037
 11
557.9162881512561
 21
-571.3984445069173
 31
-0.0000000000000037
  0
LINE
  5
24DEF
  8
0
 10
557.9162881512561
 20
-571.3984445069173
 30
-0.0000000000000037
 11
561.9162881512561
 21
-570.598453814099
 31
-0.0000000000000037
  0
LINE
  5
24DF0
  8
0
 10
561.9162881512561
 20
-570.598453814099
 30
-0.0000000000000037
 11
561.4162881512561
 21
-570.4984526507013
 31
-0.0000000000000037
  0
LINE
  5
24DF1
  8
0
 10
469.9162881512852
 20
-537.2984491604456
 30
-0.0000000000000037
 11
468.4162881512852
 21
-542.5984456703072
 31
-0.0000000000000037
  0
LINE
  5
24DF2
  8
0
 10
468.4162881512852
 20
-542.5984456703072
 30
-0.0000000000000037
 11
468.4162881512855
 21
-572.2984456701992
 31
-0.0000000000000037
  0
LINE
  5
24DF3
  8
0
 10
469.9162881512852
 20
-537.2984491604456
 30
-0.0000000000000037
 11
471.4162881512854
 21
-542.5984526506909
 31
-0.0000000000000037
  0
LINE
  5
24DF4
  8
0
 10
466.4162416153874
 20
-572.298441016501
 30
-0.0000000000000037
 11
473.4162416153873
 21
-572.2984573040654
 31
-0.0000000000000037
  0
LINE
  5
24DF5
  8
0
 10
471.4162881512854
 20
-542.5984526506909
 30
-0.0000000000000037
 11
471.4162881512855
 21
-572.2984526505838
 31
-0.0000000000000037
  0
LINE
  5
24DF6
  8
0
 10
466.4162416153874
 20
-572.298441016501
 30
-0.0000000000000037
 11
466.4162416153873
 21
-573.3984445066964
 31
-0.0000000000000037
  0
ARC
  5
24DF7
  8
0
 10
467.9162416153873
 20
-573.3984445066964
 30
-0.0000000000000037
 40
1.5
 50
180.0
 51
269.9998666844684
  0
LINE
  5
24DF8
  8
0
 10
473.4162416153873
 20
-572.2984573040654
 30
-0.0000000000000037
 11
473.4162416153873
 21
-573.398453813876
 31
-0.0000000000000037
  0
LINE
  5
24DF9
  8
0
 10
467.9162381251949
 20
-574.8984445066923
 30
-0.0000000000000037
 11
471.9162381251949
 21
-574.8984538138719
 31
-0.0000000000000037
  0
ARC
  5
24DFA
  8
0
 10
471.9162416153873
 20
-573.398453813876
 30
-0.0000000000000037
 40
1.5
 50
269.9998666844684
 51
0.0
  0
LINE
  5
24DFB
  8
1CENTER
 10
469.9162416153873
 20
-535.8676542429802
 30
-0.0000000000000037
 11
469.9162416153873
 21
-575.968725569592
 31
-0.0000000000000037
  0
LINE
  5
24DFC
  8
0
 10
468.8219178013923
 20
-539.3984466141234
 30
-0.0000000000000037
 11
470.7842528902677
 21
-538.5984511800724
 31
-0.0000000000000037
  0
LINE
  5
24DFD
  8
0
 10
470.7842528902677
 20
-538.5984511800724
 30
-0.0000000000000037
 11
470.1959763152253
 21
-538.2866813238203
 31
-0.0000000000000037
  0
LINE
  5
24DFE
  8
0
 10
467.9162881512852
 20
-561.7984445069134
 30
-0.0000000000000037
 11
471.9162881512852
 21
-560.9984538140951
 31
-0.0000000000000037
  0
LINE
  5
24DFF
  8
0
 10
467.9162881512852
 20
-550.598444506909
 30
-0.0000000000000037
 11
471.9162881512852
 21
-549.7984538140864
 31
-0.0000000000000037
  0
LINE
  5
24E00
  8
0
 10
467.9162881512852
 20
-547.398444506909
 30
-0.0000000000000037
 11
471.9162881512852
 21
-546.5984538140864
 31
-0.0000000000000037
  0
LINE
  5
24E01
  8
0
 10
471.9162881512852
 20
-546.5984538140864
 30
-0.0000000000000037
 11
471.4162881512852
 21
-546.4984526506892
 31
-0.0000000000000037
  0
LINE
  5
24E02
  8
0
 10
468.4162881512852
 20
-545.8984456703062
 30
-0.0000000000000037
 11
467.9162881512852
 21
-545.7984445069089
 31
-0.0000000000000037
  0
LINE
  5
24E03
  8
0
 10
471.9162881512852
 20
-549.7984538140864
 30
-0.0000000000000037
 11
471.4162881512852
 21
-549.6984526506892
 31
-0.0000000000000037
  0
LINE
  5
24E04
  8
0
 10
471.9162881512852
 20
-548.1984538140863
 30
-0.0000000000000037
 11
471.4162881512852
 21
-548.0984526506892
 31
-0.0000000000000037
  0
LINE
  5
24E05
  8
0
 10
468.4162881512852
 20
-547.4984456703061
 30
-0.0000000000000037
 11
467.9162881512852
 21
-547.398444506909
 31
-0.0000000000000037
  0
LINE
  5
24E06
  8
0
 10
468.4162881512852
 20
-549.098445670306
 30
-0.0000000000000037
 11
467.9162881512852
 21
-548.9984445069089
 31
-0.0000000000000037
  0
LINE
  5
24E07
  8
0
 10
467.9162881512852
 20
-548.9984445069089
 30
-0.0000000000000037
 11
471.9162881512852
 21
-548.1984538140863
 31
-0.0000000000000037
  0
LINE
  5
24E08
  8
0
 10
471.2370669946745
 20
-540.198452233678
 30
-0.0000000000000037
 11
470.6853175308712
 21
-540.01568809105
 31
-0.0000000000000037
  0
LINE
  5
24E09
  8
0
 10
471.9162881512852
 20
-543.3984538140863
 30
-0.0000000000000037
 11
471.4162881512852
 21
-543.2984526506892
 31
-0.0000000000000037
  0
LINE
  5
24E0A
  8
0
 10
471.9162881512852
 20
-544.9984538140864
 30
-0.0000000000000037
 11
471.4162881512852
 21
-544.8984526506894
 31
-0.0000000000000037
  0
LINE
  5
24E0B
  8
0
 10
471.6898810990813
 20
-541.7984532872837
 30
-0.0000000000000037
 11
471.1532873638101
 21
-541.6691825896538
 31
-0.0000000000000037
  0
LINE
  5
24E0C
  8
0
 10
468.837202748494
 20
-541.1112150728692
 30
-0.0000000000000037
 11
468.369104293344
 21
-540.9984455605191
 31
-0.0000000000000037
  0
LINE
  5
24E0D
  8
0
 10
468.4162881512852
 20
-544.298445670306
 30
-0.0000000000000037
 11
467.9162881512852
 21
-544.1984445069089
 31
-0.0000000000000037
  0
LINE
  5
24E0E
  8
0
 10
468.4162881512852
 20
-542.6984456703061
 30
-0.0000000000000037
 11
467.9162881512852
 21
-542.598444506909
 31
-0.0000000000000037
  0
LINE
  5
24E0F
  8
0
 10
469.2790896420233
 20
-539.5498824105638
 30
-0.0000000000000037
 11
468.8219178013923
 21
-539.3984466141234
 31
-0.0000000000000037
  0
LINE
  5
24E10
  8
0
 10
468.369104293344
 20
-540.9984455605191
 30
-0.0000000000000037
 11
471.2370669946745
 21
-540.198452233678
 31
-0.0000000000000037
  0
LINE
  5
24E11
  8
0
 10
467.9162881512852
 20
-544.1984445069089
 30
-0.0000000000000037
 11
471.9162881512852
 21
-543.3984538140863
 31
-0.0000000000000037
  0
LINE
  5
24E12
  8
0
 10
467.9162881512852
 20
-542.598444506909
 30
-0.0000000000000037
 11
471.6898810990813
 21
-541.7984532872837
 31
-0.0000000000000037
  0
LINE
  5
24E13
  8
0
 10
467.9162881512852
 20
-545.7984445069089
 30
-0.0000000000000037
 11
471.9162881512852
 21
-544.9984538140864
 31
-0.0000000000000037
  0
LINE
  5
24E14
  8
0
 10
467.9162881512852
 20
-558.5984445069133
 30
-0.0000000000000037
 11
471.9162881512852
 21
-557.7984538140951
 31
-0.0000000000000037
  0
LINE
  5
24E15
  8
0
 10
471.9162881512852
 20
-557.7984538140951
 30
-0.0000000000000037
 11
471.4162881512852
 21
-557.6984526506974
 31
-0.0000000000000037
  0
LINE
  5
24E16
  8
0
 10
468.4162881512852
 20
-557.0984456703067
 30
-0.0000000000000037
 11
467.9162881512852
 21
-556.998444506909
 31
-0.0000000000000037
  0
LINE
  5
24E17
  8
0
 10
471.9162881512852
 20
-559.3984538140952
 30
-0.0000000000000037
 11
471.4162881512852
 21
-559.2984526506975
 31
-0.0000000000000037
  0
LINE
  5
24E18
  8
0
 10
471.9162881512852
 20
-560.9984538140951
 30
-0.0000000000000037
 11
471.4162881512852
 21
-560.8984526506974
 31
-0.0000000000000037
  0
LINE
  5
24E19
  8
0
 10
468.4162881512852
 20
-558.698445670311
 30
-0.0000000000000037
 11
467.9162881512852
 21
-558.5984445069133
 31
-0.0000000000000037
  0
LINE
  5
24E1A
  8
0
 10
468.4162881512852
 20
-560.2984456703111
 30
-0.0000000000000037
 11
467.9162881512852
 21
-560.1984445069135
 31
-0.0000000000000037
  0
LINE
  5
24E1B
  8
0
 10
467.9162881512852
 20
-560.1984445069135
 30
-0.0000000000000037
 11
471.9162881512852
 21
-559.3984538140952
 31
-0.0000000000000037
  0
LINE
  5
24E1C
  8
0
 10
471.9162881512852
 20
-552.9984538140907
 30
-0.0000000000000037
 11
471.4162881512852
 21
-552.898452650693
 31
-0.0000000000000037
  0
LINE
  5
24E1D
  8
0
 10
471.9162881512852
 20
-551.3984538140863
 30
-0.0000000000000037
 11
471.4162881512852
 21
-551.2984526506892
 31
-0.0000000000000037
  0
LINE
  5
24E1E
  8
0
 10
471.9162881512852
 20
-556.1984538140907
 30
-0.0000000000000037
 11
471.4162881512852
 21
-556.098452650693
 31
-0.0000000000000037
  0
LINE
  5
24E1F
  8
0
 10
471.9162881512852
 20
-554.5984538140908
 30
-0.0000000000000037
 11
471.4162881512852
 21
-554.4984526506931
 31
-0.0000000000000037
  0
LINE
  5
24E20
  8
0
 10
468.4162881512852
 20
-550.6984456703061
 30
-0.0000000000000037
 11
467.9162881512852
 21
-550.598444506909
 31
-0.0000000000000037
  0
LINE
  5
24E21
  8
0
 10
468.4162881512852
 20
-552.2984456703067
 30
-0.0000000000000037
 11
467.9162881512852
 21
-552.1984445069089
 31
-0.0000000000000037
  0
LINE
  5
24E22
  8
0
 10
468.4162881512852
 20
-555.4984456703068
 30
-0.0000000000000037
 11
467.9162881512852
 21
-555.3984445069091
 31
-0.0000000000000037
  0
LINE
  5
24E23
  8
0
 10
468.4162881512852
 20
-553.8984456703066
 30
-0.0000000000000037
 11
467.9162881512852
 21
-553.7984445069089
 31
-0.0000000000000037
  0
LINE
  5
24E24
  8
0
 10
467.9162881512852
 20
-553.7984445069089
 30
-0.0000000000000037
 11
471.9162881512852
 21
-552.9984538140907
 31
-0.0000000000000037
  0
LINE
  5
24E25
  8
0
 10
467.9162881512852
 20
-552.1984445069089
 30
-0.0000000000000037
 11
471.9162881512852
 21
-551.3984538140863
 31
-0.0000000000000037
  0
LINE
  5
24E26
  8
0
 10
467.9162881512852
 20
-555.3984445069091
 30
-0.0000000000000037
 11
471.9162881512852
 21
-554.5984538140908
 31
-0.0000000000000037
  0
LINE
  5
24E27
  8
0
 10
467.9162881512852
 20
-556.998444506909
 30
-0.0000000000000037
 11
471.9162881512852
 21
-556.1984538140907
 31
-0.0000000000000037
  0
LINE
  5
24E28
  8
0
 10
468.4162881512852
 20
-566.6984456703152
 30
-0.0000000000000037
 11
467.9162881512852
 21
-566.5984445069175
 31
-0.0000000000000037
  0
LINE
  5
24E29
  8
0
 10
467.9162881512852
 20
-566.5984445069175
 30
-0.0000000000000037
 11
471.9162881512852
 21
-565.7984538140993
 31
-0.0000000000000037
  0
LINE
  5
24E2A
  8
0
 10
471.9162881512852
 20
-565.7984538140993
 30
-0.0000000000000037
 11
471.4162881512852
 21
-565.6984526507016
 31
-0.0000000000000037
  0
LINE
  5
24E2B
  8
0
 10
468.4162881512852
 20
-565.0984456703153
 30
-0.0000000000000037
 11
467.9162881512852
 21
-564.9984445069176
 31
-0.0000000000000037
  0
LINE
  5
24E2C
  8
0
 10
468.4162881512852
 20
-563.4984456703154
 30
-0.0000000000000037
 11
467.9162881512852
 21
-563.3984445069177
 31
-0.0000000000000037
  0
LINE
  5
24E2D
  8
0
 10
467.9162881512852
 20
-563.3984445069177
 30
-0.0000000000000037
 11
471.9162881512852
 21
-562.5984538140995
 31
-0.0000000000000037
  0
LINE
  5
24E2E
  8
0
 10
471.9162881512852
 20
-564.1984538140994
 30
-0.0000000000000037
 11
471.4162881512852
 21
-564.0984526507017
 31
-0.0000000000000037
  0
LINE
  5
24E2F
  8
0
 10
471.9162881512852
 20
-562.5984538140995
 30
-0.0000000000000037
 11
471.4162881512852
 21
-562.4984526507018
 31
-0.0000000000000037
  0
LINE
  5
24E30
  8
0
 10
467.9162881512852
 20
-564.9984445069176
 30
-0.0000000000000037
 11
471.9162881512852
 21
-564.1984538140994
 31
-0.0000000000000037
  0
LINE
  5
24E31
  8
0
 10
468.4162881512852
 20
-561.898445670311
 30
-0.0000000000000037
 11
467.9162881512852
 21
-561.7984445069134
 31
-0.0000000000000037
  0
LINE
  5
24E32
  8
0
 10
468.4162881512852
 20
-568.2984456703151
 30
-0.0000000000000037
 11
467.9162881512852
 21
-568.1984445069174
 31
-0.0000000000000037
  0
LINE
  5
24E33
  8
0
 10
467.9162881512852
 20
-568.1984445069174
 30
-0.0000000000000037
 11
471.9162881512852
 21
-567.3984538140992
 31
-0.0000000000000037
  0
LINE
  5
24E34
  8
0
 10
471.9162881512852
 20
-567.3984538140992
 30
-0.0000000000000037
 11
471.4162881512852
 21
-567.2984526507015
 31
-0.0000000000000037
  0
LINE
  5
24E35
  8
0
 10
468.4162881512852
 20
-569.898445670315
 30
-0.0000000000000037
 11
467.9162881512852
 21
-569.7984445069173
 31
-0.0000000000000037
  0
LINE
  5
24E36
  8
0
 10
467.9162881512852
 20
-569.7984445069173
 30
-0.0000000000000037
 11
471.9162881512852
 21
-568.9984538140991
 31
-0.0000000000000037
  0
LINE
  5
24E37
  8
0
 10
471.9162881512852
 20
-568.9984538140991
 30
-0.0000000000000037
 11
471.4162881512852
 21
-568.8984526507014
 31
-0.0000000000000037
  0
LINE
  5
24E38
  8
0
 10
468.4162881512852
 20
-571.4984456703149
 30
-0.0000000000000037
 11
467.9162881512852
 21
-571.3984445069173
 31
-0.0000000000000037
  0
LINE
  5
24E39
  8
0
 10
467.9162881512852
 20
-571.3984445069173
 30
-0.0000000000000037
 11
471.9162881512852
 21
-570.598453814099
 31
-0.0000000000000037
  0
LINE
  5
24E3A
  8
0
 10
471.9162881512852
 20
-570.598453814099
 30
-0.0000000000000037
 11
471.4162881512852
 21
-570.4984526507013
 31
-0.0000000000000037
  0
LINE
  5
24E3B
  8
1PHANTOM
 10
473.7162416184916
 20
-572.2984491602832
 30
0.0
 11
466.1162416184917
 21
-572.2984491602832
 31
0.0
  0
LINE
  5
24E3C
  8
1PHANTOM
 10
466.1162416184917
 20
-572.2984491602832
 30
0.0
 11
466.1162416184917
 21
-571.2984491602832
 31
0.0
  0
LINE
  5
24E3D
  8
1PHANTOM
 10
466.1162416184917
 20
-571.2984491602832
 30
0.0
 11
473.7162416184916
 21
-571.2984491602832
 31
0.0
  0
LINE
  5
24E3E
  8
1PHANTOM
 10
473.7162416184916
 20
-571.2984491602832
 30
0.0
 11
473.7162416184916
 21
-572.2984491602832
 31
0.0
  0
SOLID
  5
24E3F
  8
1DIM
 10
489.6650672898093
 20
-578.9275843004331
 30
-0.0000000000000037
 11
488.4361237479229
 21
-580.5402866542377
 31
-0.0000000000000037
 12
489.0755993079328
 22
-578.6161811167837
 32
-0.0000000000000037
 13
489.0755993079328
 23
-578.6161811167837
 33
-0.0000000000000037
1001
ACAD
1000
DSTYLE
1002
{
1070
    45
1040
0.5
1002
}
  0
LINE
  5
24E40
  8
1DIM
 10
489.370333298871
 20
-578.7718827086084
 30
-0.0000000000000037
 11
500.615993170046
 21
-557.4845074433817
 31
-0.0000000000000037
1001
ACAD
1000
DSTYLE
1002
{
1070
    45
1040
0.5
1002
}
  0
LINE
  5
24E41
  8
1DIM
 10
500.615993170046
 20
-557.4845074433817
 30
-0.0000000000000037
 11
547.8826598367127
 21
-557.4845074433817
 31
-0.0000000000000037
1001
ACAD
1000
DSTYLE
1002
{
1070
    45
1040
0.5
1002
}
  0
TEXT
  5
24E42
  8
1DIM
  6
CONTINUOUS
 10
503.0826598367127
 20
-550.9511741100483
 30
-0.0000000000000037
 40
3.5
  1
材質：亜鉛ダイキャスト
  0
TEXT
  5
24E43
  8
1DIM
  6
CONTINUOUS
 10
503.1993265033793
 20
-556.7845074433817
 30
-0.0000000000000037
 40
3.5
  1
仕上げ：クローム
  0
SOLID
  5
24E44
  8
1DIM
 10
492.5588217457515
 20
-647.0355466659822
 30
0.0
 11
491.6465271519704
 21
-648.8463005656795
 31
0.0
 12
491.922236989429
 22
-646.8375459274422
 32
0.0
 13
491.922236989429
 23
-646.8375459274422
 33
0.0
1001
ACAD
1000
DSTYLE
1002
{
1070
    45
1040
0.5
1002
}
  0
LINE
  5
24E45
  8
1DIM
 10
492.2405293675902
 20
-646.9365462967122
 30
0.0
 11
499.6263965740935
 21
-623.1905213548235
 31
0.0
1001
ACAD
1000
DSTYLE
1002
{
1070
    45
1040
0.5
1002
}
  0
LINE
  5
24E46
  8
1DIM
 10
499.6263965740935
 20
-623.1905213548235
 30
0.0
 11
546.8930632407602
 21
-623.1905213548235
 31
0.0
1001
ACAD
1000
DSTYLE
1002
{
1070
    45
1040
0.5
1002
}
  0
TEXT
  5
24E47
  8
1DIM
  6
CONTINUOUS
 10
502.0930632407601
 20
-616.6571880214901
 30
0.0
 40
3.5
  1
材質：亜鉛ダイキャスト
  0
TEXT
  5
24E48
  8
1DIM
  6
CONTINUOUS
 10
502.2097299074268
 20
-622.4905213548235
 30
0.0
 40
3.5
  1
仕上げ：各種仕上げ
  0
LINE
  5
24E49
  8
1DIM
 10
391.4162416153582
 20
-690.0495039365481
 30
0.0
 11
391.4162416153582
 21
-728.0995039387033
 31
0.0
1001
ACAD
1000
DSTYLE
1002
{
1070
    45
1040
0.5
1002
}
  0
LINE
  5
24E4A
  8
1DIM
 10
638.4162416153582
 20
-690.0495039365481
 30
0.0
 11
638.4162416153582
 21
-728.0995039387033
 31
0.0
1001
ACAD
1000
DSTYLE
1002
{
1070
    45
1040
0.5
1002
}
  0
LINE
  5
24E4B
  8
1DIM
 10
393.4162416153582
 20
-727.0995039387033
 30
0.0
 11
636.4162416153582
 21
-727.0995039387033
 31
0.0
1001
ACAD
1000
DSTYLE
1002
{
1070
    45
1040
0.5
1002
}
  0
LINE
  5
24E50
  8
1DIM
  6
BYBLOCK
 10
732.4999999999991
 20
-645.5
 30
0.0
 11
724.6666666666657
 21
-645.5
 31
0.0
  0
LINE
  5
24E52
  8
1DIM
  6
BYBLOCK
 10
736.1169792811598
 20
-664.0370188159486
 30
0.0
 11
732.4999999999991
 21
-645.5
 31
0.0
  0
LINE
  5
24E54
  8
1DIM
  6
BYBLOCK
 10
740.7930170549018
 20
-628.0
 30
0.0
 11
710.7913966845315
 21
-628.0
 31
0.0
  0
LINE
  5
24E56
  8
1DIM
  6
BYBLOCK
 10
747.9057509911086
 20
-664.0378519434472
 30
0.0
 11
740.7930170549018
 21
-628.0
 31
0.0
  0
LINE
  5
24E57
  8
1DIM
 10
469.9162416153582
 20
-685.1433093861555
 30
0.0
 11
469.9162416153582
 21
-716.1931132888618
 31
0.0
1001
ACAD
1000
DSTYLE
1002
{
1070
    70
1070
     0
1070
    69
1070
     0
1070
    45
1040
0.5
1002
}
  0
LINE
  5
24E58
  8
1DIM
 10
559.9162416153582
 20
-685.2492133014888
 30
0.0
 11
559.9162416153582
 21
-716.1931132888618
 31
0.0
1001
ACAD
1000
DSTYLE
1002
{
1070
    70
1070
     0
1070
    69
1070
     0
1070
    45
1040
0.5
1002
}
  0
LINE
  5
24E59
  8
1DIM
 10
471.9162416153582
 20
-715.1931132888618
 30
0.0
 11
557.9162416153582
 21
-715.1931132888618
 31
0.0
1001
ACAD
1000
DSTYLE
1002
{
1070
    70
1070
     0
1070
    69
1070
     0
1070
    45
1040
0.5
1002
}
  0
LINE
  5
24E5E
  8
1DIM
  6
BYBLOCK
 10
409.4269388583466
 20
-559.4930453074735
 30
0.0
 11
448.41027219168
 21
-559.4930453074735
 31
0.0
  0
LINE
  5
24E60
  8
1DIM
  6
BYBLOCK
 10
416.0911567337088
 20
-591.9339549648968
 30
0.0
 11
409.4269388583466
 21
-559.4930453074735
 31
0.0
  0
LINE
  5
24E61
  8
1DIM
 10
648.516241615364
 20
-671.0495039365481
 30
0.0
 11
684.9052724572126
 21
-671.0495039365481
 31
0.0
1001
ACAD
1000
DSTYLE
1002
{
1070
    45
1040
0.5
1002
}
  0
LINE
  5
24E62
  8
1DIM
 10
652.1552724572126
 20
-660.0495038783259
 30
0.0
 11
684.9052724572126
 21
-660.0495038783259
 31
0.0
1001
ACAD
1000
DSTYLE
1002
{
1070
    45
1040
0.5
1002
}
  0
LINE
  5
24E63
  8
1DIM
 10
683.9052724572126
 20
-660.0495038783259
 30
0.0
 11
683.9052724572126
 21
-650.7995038783259
 31
0.0
1001
ACAD
1000
DSTYLE
1002
{
1070
    45
1040
0.5
1002
}
  0
LINE
  5
24E64
  8
1DIM
 10
683.9052724572126
 20
-669.0495039365481
 30
0.0
 11
683.9052724572126
 21
-662.0495038783259
 31
0.0
1001
ACAD
1000
DSTYLE
1002
{
1070
    45
1040
0.5
1002
}
  0
LINE
  5
24E68
  8
1DIM
 10
454.9162416153582
 20
-568.2984491602832
 30
0.0
 11
454.9162416153582
 21
-542.4420585125969
 31
0.0
1001
ACAD
1000
DSTYLE
1002
{
1070
    45
1040
0.5
1002
}
  0
LINE
  5
24E69
  8
1DIM
 10
574.9162416153582
 20
-568.2984491602832
 30
0.0
 11
574.9162416153582
 21
-542.4420585125969
 31
0.0
1001
ACAD
1000
DSTYLE
1002
{
1070
    45
1040
0.5
1002
}
  0
LINE
  5
24E6A
  8
1DIM
 10
456.9162416153582
 20
-543.4420585125969
 30
0.0
 11
572.9162416153582
 21
-543.4420585125969
 31
0.0
1001
ACAD
1000
DSTYLE
1002
{
1070
    45
1040
0.5
1002
}
  0
LINE
  5
24E6E
  8
1DIM
 10
628.4162416153582
 20
-647.2984491602832
 30
0.0
 11
608.7102811643778
 21
-647.2984491602832
 31
0.0
1001
ACAD
1000
DSTYLE
1002
{
1070
     3
1000
<>
1070
    45
1040
0.5
1002
}
  0
LINE
  5
24E6F
  8
1DIM
 10
628.4162416153582
 20
-597.2984491602832
 30
0.0
 11
608.7102811643778
 21
-597.2984491602832
 31
0.0
1001
ACAD
1000
DSTYLE
1002
{
1070
     3
1000
<>
1070
    45
1040
0.5
1002
}
  0
LINE
  5
24E70
  8
1DIM
 10
609.7102811643778
 20
-645.2984491602832
 30
0.0
 11
609.7102811643778
 21
-599.2984491602832
 31
0.0
1001
ACAD
1000
DSTYLE
1002
{
1070
     3
1000
<>
1070
    45
1040
0.5
1002
}
  0
LINE
  5
24E74
  8
1DIM
 10
633.4162416153582
 20
-654.2984491602832
 30
0.0
 11
608.7102811643778
 21
-654.2984491602832
 31
0.0
1001
ACAD
1000
DSTYLE
1002
{
1070
     3
1000
<>
1070
    45
1040
0.5
1002
}
  0
LINE
  5
24E75
  8
1DIM
 10
628.4162416153582
 20
-647.2984491602832
 30
0.0
 11
608.7102811643778
 21
-647.2984491602832
 31
0.0
1001
ACAD
1000
DSTYLE
1002
{
1070
     3
1000
<>
1070
    45
1040
0.5
1002
}
  0
LINE
  5
24E76
  8
1DIM
 10
609.7102811643778
 20
-652.2984491602832
 30
0.0
 11
609.7102811643778
 21
-649.2984491602832
 31
0.0
1001
ACAD
1000
DSTYLE
1002
{
1070
     3
1000
<>
1070
    45
1040
0.5
1002
}
  0
LINE
  5
24E7A
  8
1DIM
 10
461.4162416153582
 20
-644.2984491602832
 30
0.0
 11
461.4162416153582
 21
-663.9111174735197
 31
0.0
1001
ACAD
1000
DSTYLE
1002
{
1070
    45
1040
0.5
1002
}
  0
LINE
  5
24E7B
  8
1DIM
 10
631.4162416153582
 20
-643.2569972759558
 30
0.0
 11
631.4162416153582
 21
-663.9111174735197
 31
0.0
1001
ACAD
1000
DSTYLE
1002
{
1070
    45
1040
0.5
1002
}
  0
LINE
  5
24E7C
  8
1DIM
 10
463.4162416153582
 20
-662.9111174735197
 30
0.0
 11
629.4162416153582
 21
-662.9111174735197
 31
0.0
1001
ACAD
1000
DSTYLE
1002
{
1070
    45
1040
0.5
1002
}
  0
LINE
  5
24E80
  8
1DIM
 10
449.9162416153582
 20
-654.2984491602832
 30
0.0
 11
435.4102811643777
 21
-654.2984491602832
 31
0.0
1001
ACAD
1000
DSTYLE
1002
{
1070
     3
1000
<>
1070
    45
1040
0.5
1002
}
  0
LINE
  5
24E81
  8
1DIM
 10
446.9162416153582
 20
-601.7984491602832
 30
0.0
 11
435.4102811643777
 21
-601.7984491602832
 31
0.0
1001
ACAD
1000
DSTYLE
1002
{
1070
     3
1000
<>
1070
    45
1040
0.5
1002
}
  0
LINE
  5
24E82
  8
1DIM
 10
436.4102811643777
 20
-652.2984491602832
 30
0.0
 11
436.4102811643777
 21
-603.7984491602832
 31
0.0
1001
ACAD
1000
DSTYLE
1002
{
1070
     3
1000
<>
1070
    45
1040
0.5
1002
}
  0
LINE
  5
24E86
  8
1DIM
 10
402.9162416153582
 20
-604.7984491602832
 30
0.0
 11
402.9162416153582
 21
-638.9495039365423
 31
0.0
1001
ACAD
1000
DSTYLE
1002
{
1070
    45
1040
0.5
1002
}
  0
LINE
  5
24E87
  8
1DIM
 10
449.9162416153582
 20
-604.7984491602832
 30
0.0
 11
449.9162416153582
 21
-638.9495039365423
 31
0.0
1001
ACAD
1000
DSTYLE
1002
{
1070
    45
1040
0.5
1002
}
  0
LINE
  5
24E88
  8
1DIM
 10
404.9162416153582
 20
-637.9495039365423
 30
0.0
 11
447.9162416153582
 21
-637.9495039365423
 31
0.0
1001
ACAD
1000
DSTYLE
1002
{
1070
    45
1040
0.5
1002
}
  0
LINE
  5
24E8C
  8
1DIM
 10
731.016241615364
 20
-671.0495039365483
 30
0.0
 11
731.016241615364
 21
-648.2988132898386
 31
0.0
1001
ACAD
1000
DSTYLE
1002
{
1070
    45
1040
0.5
1002
}
  0
LINE
  5
24E8D
  8
1DIM
 10
645.016241615364
 20
-672.0495039365481
 30
0.0
 11
645.016241615364
 21
-648.2988132898386
 31
0.0
1001
ACAD
1000
DSTYLE
1002
{
1070
    45
1040
0.5
1002
}
  0
LINE
  5
24E8E
  8
1DIM
 10
729.016241615364
 20
-649.2988132898386
 30
0.0
 11
647.016241615364
 21
-649.2988132898386
 31
0.0
1001
ACAD
1000
DSTYLE
1002
{
1070
    45
1040
0.5
1002
}
  0
LINE
  5
24E92
  8
0
  6
BYBLOCK
 10
760.9213450778986
 20
-679.0495039365481
 30
0.0
 11
760.3854466978986
 21
-681.0495039365481
 31
0.0
  0
LINE
  5
24E93
  8
0
  6
BYBLOCK
 10
760.3854466978986
 20
-681.0495039365481
 30
0.0
 11
759.8495483178986
 21
-679.0495039365481
 31
0.0
  0
LINE
  5
24E94
  8
0
  6
BYBLOCK
 10
760.3854466978986
 20
-681.0495039365481
 30
0.0
 11
760.3854466978986
 21
-679.0495039365481
 31
0.0
  0
LINE
  5
24E95
  8
0
  6
BYBLOCK
 10
759.8495483178986
 20
-673.0495504724461
 30
0.0
 11
760.3854466978986
 21
-671.0495504724461
 31
0.0
  0
LINE
  5
24E96
  8
0
  6
BYBLOCK
 10
760.3854466978986
 20
-671.0495504724461
 30
0.0
 11
760.9213450778986
 21
-673.0495504724461
 31
0.0
  0
LINE
  5
24E97
  8
0
  6
BYBLOCK
 10
760.3854466978986
 20
-671.0495504724461
 30
0.0
 11
760.3854466978986
 21
-673.0495504724461
 31
0.0
  0
TEXT
  5
24E98
  8
1DIM
  6
CONTINUOUS
 10
759.6854466978986
 20
-667.880800472446
 30
0.0
 40
3.5
  1
10
 50
90.0
1001
ACAD
1000
DSTYLE
1002
{
1070
    45
1040
0.5
1070
   271
1070
     0
1002
}
  0
LINE
  5
24E99
  8
0
  6
BYBLOCK
 10
767.4213450778986
 20
-704.0495039365483
 30
0.0
 11
766.8854466978986
 21
-706.0495039365483
 31
0.0
  0
LINE
  5
24E9A
  8
0
  6
BYBLOCK
 10
766.8854466978986
 20
-706.0495039365483
 30
0.0
 11
766.3495483178986
 21
-704.0495039365483
 31
0.0
  0
LINE
  5
24E9B
  8
0
  6
BYBLOCK
 10
766.8854466978986
 20
-706.0495039365483
 30
0.0
 11
766.8854466978986
 21
-704.0495039365483
 31
0.0
  0
LINE
  5
24E9C
  8
0
  6
BYBLOCK
 10
766.3495483178986
 20
-673.0495039365483
 30
0.0
 11
766.8854466978986
 21
-671.0495039365483
 31
0.0
  0
LINE
  5
24E9D
  8
0
  6
BYBLOCK
 10
766.8854466978986
 20
-671.0495039365483
 30
0.0
 11
767.4213450778986
 21
-673.0495039365483
 31
0.0
  0
LINE
  5
24E9E
  8
0
  6
BYBLOCK
 10
766.8854466978986
 20
-671.0495039365483
 30
0.0
 11
766.8854466978986
 21
-673.0495039365483
 31
0.0
  0
TEXT
  5
24E9F
  8
1DIM
  6
CONTINUOUS
 10
766.1854466978987
 20
-691.4661706032148
 30
0.0
 40
3.5
  1
35
 50
90.0
1001
ACAD
1000
DSTYLE
1002
{
1070
     3
1000
<>
1070
    45
1040
0.5
1002
}
  0
LINE
  5
24EA0
  8
0
  6
BYBLOCK
 10
729.016241615364
 20
-714.1136055565496
 30
0.0
 11
731.016241615364
 21
-714.6495039365496
 31
0.0
  0
LINE
  5
24EA1
  8
0
  6
BYBLOCK
 10
731.016241615364
 20
-714.6495039365496
 30
0.0
 11
729.016241615364
 21
-715.1854023165497
 31
0.0
  0
LINE
  5
24EA2
  8
0
  6
BYBLOCK
 10
731.016241615364
 20
-714.6495039365496
 30
0.0
 11
729.016241615364
 21
-714.6495039365496
 31
0.0
  0
LINE
  5
24EA3
  8
0
  6
BYBLOCK
 10
715.016241615364
 20
-715.1854023165497
 30
0.0
 11
713.016241615364
 21
-714.6495039365496
 31
0.0
  0
LINE
  5
24EA4
  8
0
  6
BYBLOCK
 10
713.016241615364
 20
-714.6495039365496
 30
0.0
 11
715.016241615364
 21
-714.1136055565496
 31
0.0
  0
LINE
  5
24EA5
  8
0
  6
BYBLOCK
 10
713.016241615364
 20
-714.6495039365496
 30
0.0
 11
715.016241615364
 21
-714.6495039365496
 31
0.0
  0
TEXT
  5
24EA6
  8
1DIM
  6
CONTINUOUS
 10
719.6829082820307
 20
-713.9495039365496
 30
0.0
 40
3.5
  1
18
1001
ACAD
1000
DSTYLE
1002
{
1070
    45
1040
0.5
1002
}
  0
LINE
  5
24EA7
  8
0
  6
BYBLOCK
 10
684.4411708372127
 20
-689.0495039365481
 30
0.0
 11
683.9052724572126
 21
-691.0495039365481
 31
0.0
  0
LINE
  5
24EA8
  8
0
  6
BYBLOCK
 10
683.9052724572126
 20
-691.0495039365481
 30
0.0
 11
683.3693740772126
 21
-689.0495039365481
 31
0.0
  0
LINE
  5
24EA9
  8
0
  6
BYBLOCK
 10
683.9052724572126
 20
-691.0495039365481
 30
0.0
 11
683.9052724572126
 21
-689.0495039365481
 31
0.0
  0
LINE
  5
24EAA
  8
0
  6
BYBLOCK
 10
683.3693740772126
 20
-673.0495039365481
 30
0.0
 11
683.9052724572126
 21
-671.0495039365481
 31
0.0
  0
LINE
  5
24EAB
  8
0
  6
BYBLOCK
 10
683.9052724572126
 20
-671.0495039365481
 30
0.0
 11
684.4411708372127
 21
-673.0495039365481
 31
0.0
  0
LINE
  5
24EAC
  8
0
  6
BYBLOCK
 10
683.9052724572126
 20
-671.0495039365481
 30
0.0
 11
683.9052724572126
 21
-673.0495039365481
 31
0.0
  0
TEXT
  5
24EAD
  8
1DIM
  6
CONTINUOUS
 10
683.2052724572126
 20
-699.2807539365483
 30
0.0
 40
3.5
  1
20
 50
90.0
1001
ACAD
1000
DSTYLE
1002
{
1070
    45
1040
0.5
1002
}
  0
LINE
  5
24EAE
  8
0
  6
BYBLOCK
 10
393.4162416153582
 20
-727.6354023187033
 30
0.0
 11
391.4162416153582
 21
-727.0995039387033
 31
0.0
  0
LINE
  5
24EAF
  8
0
  6
BYBLOCK
 10
391.4162416153582
 20
-727.0995039387033
 30
0.0
 11
393.4162416153582
 21
-726.5636055587032
 31
0.0
  0
LINE
  5
24EB0
  8
0
  6
BYBLOCK
 10
391.4162416153582
 20
-727.0995039387033
 30
0.0
 11
393.4162416153582
 21
-727.0995039387033
 31
0.0
  0
LINE
  5
24EB1
  8
0
  6
BYBLOCK
 10
636.4162416153582
 20
-726.5636055587032
 30
0.0
 11
638.4162416153582
 21
-727.0995039387033
 31
0.0
  0
LINE
  5
24EB2
  8
0
  6
BYBLOCK
 10
638.4162416153582
 20
-727.0995039387033
 30
0.0
 11
636.4162416153582
 21
-727.6354023187033
 31
0.0
  0
LINE
  5
24EB3
  8
0
  6
BYBLOCK
 10
638.4162416153582
 20
-727.0995039387033
 30
0.0
 11
636.4162416153582
 21
-727.0995039387033
 31
0.0
  0
TEXT
  5
24EB4
  8
1DIM
  6
CONTINUOUS
 10
510.2495749486915
 20
-726.3995039387032
 30
0.0
 40
3.5
  1
247
1001
ACAD
1000
DSTYLE
1002
{
1070
    45
1040
0.5
1002
}
  0
TEXT
  5
24EB5
  8
1DIM
  6
CONTINUOUS
 10
724.6666666666657
 20
-644.8
 30
0.0
 40
3.5
  1
PB
  0
LINE
  5
24EB6
  8
0
  6
BYBLOCK
 10
736.6429584994116
 20
-663.9343887245824
 30
0.0
 11
736.4999999999991
 21
-666.0
 31
0.0
  0
LINE
  5
24EB7
  8
0
  6
BYBLOCK
 10
736.4999999999991
 20
-666.0
 30
0.0
 11
735.5910000629079
 21
-664.1396489073148
 31
0.0
  0
LINE
  5
24EB8
  8
0
  6
BYBLOCK
 10
736.4999999999991
 20
-666.0
 30
0.0
 11
736.1169792811598
 21
-664.0370188159486
 31
0.0
  0
TEXT
  5
24EB9
  8
1DIM
  6
CONTINUOUS
 10
710.7913966845315
 20
-627.3
 30
0.0
 40
3.5
  1
合板9ｍｍ以上
  0
LINE
  5
24EBA
  8
0
  6
BYBLOCK
 10
748.4315069735219
 20
-663.9340843153393
 30
0.0
 11
748.2930170549018
 21
-666.0
 31
0.0
  0
LINE
  5
24EBB
  8
0
  6
BYBLOCK
 10
748.2930170549018
 20
-666.0
 30
0.0
 11
747.3799950086951
 21
-664.1416195715551
 31
0.0
  0
LINE
  5
24EBC
  8
0
  6
BYBLOCK
 10
748.2930170549018
 20
-666.0
 30
0.0
 11
747.9057509911086
 21
-664.0378519434472
 31
0.0
  0
LINE
  5
24EBD
  8
0
  6
BYBLOCK
 10
471.9162416153582
 20
-715.7290116688619
 30
0.0
 11
469.9162416153582
 21
-715.1931132888618
 31
0.0
  0
LINE
  5
24EBE
  8
0
  6
BYBLOCK
 10
469.9162416153582
 20
-715.1931132888618
 30
0.0
 11
471.9162416153582
 21
-714.6572149088618
 31
0.0
  0
LINE
  5
24EBF
  8
0
  6
BYBLOCK
 10
469.9162416153582
 20
-715.1931132888618
 30
0.0
 11
471.9162416153582
 21
-715.1931132888618
 31
0.0
  0
LINE
  5
24EC0
  8
0
  6
BYBLOCK
 10
557.9162416153582
 20
-714.6572149088618
 30
0.0
 11
559.9162416153582
 21
-715.1931132888618
 31
0.0
  0
LINE
  5
24EC1
  8
0
  6
BYBLOCK
 10
559.9162416153582
 20
-715.1931132888618
 30
0.0
 11
557.9162416153582
 21
-715.7290116688619
 31
0.0
  0
LINE
  5
24EC2
  8
0
  6
BYBLOCK
 10
559.9162416153582
 20
-715.1931132888618
 30
0.0
 11
557.9162416153582
 21
-715.1931132888618
 31
0.0
  0
TEXT
  5
24EC3
  8
1DIM
  6
CONTINUOUS
 10
510.4675147635064
 20
-714.4931132888618
 30
0.0
 40
3.5
  1
P90
1001
ACAD
1000
DSTYLE
1002
{
1070
    70
1070
     0
1070
    69
1070
     0
1070
    45
1040
0.5
1002
}
  0
TEXT
  5
24EC4
  8
1DIM
  6
CONTINUOUS
 10
411.1936055250133
 20
-552.9597119741402
 30
0.0
 40
3.5
  1
材質：ABS樹脂
  0
TEXT
  5
24EC5
  8
1DIM
  6
CONTINUOUS
 10
411.3102721916799
 20
-558.7930453074736
 30
0.0
 40
3.5
  1
仕上げ：各種仕上げ
  0
LINE
  5
24EC6
  8
0
  6
BYBLOCK
 10
416.6160934041391
 20
-591.8261191372503
 30
0.0
 11
416.4936055250133
 21
-593.8930453074736
 31
0.0
  0
LINE
  5
24EC7
  8
0
  6
BYBLOCK
 10
416.4936055250133
 20
-593.8930453074736
 30
0.0
 11
415.5662200632785
 21
-592.0417907925433
 31
0.0
  0
LINE
  5
24EC8
  8
0
  6
BYBLOCK
 10
416.4936055250133
 20
-593.8930453074736
 30
0.0
 11
416.0911567337088
 21
-591.9339549648968
 31
0.0
  0
LINE
  5
24EC9
  8
0
  6
BYBLOCK
 10
684.4411708372127
 20
-669.0495039365481
 30
0.0
 11
683.9052724572126
 21
-671.0495039365481
 31
0.0
  0
LINE
  5
24ECA
  8
0
  6
BYBLOCK
 10
683.9052724572126
 20
-671.0495039365481
 30
0.0
 11
683.3693740772126
 21
-669.0495039365481
 31
0.0
  0
LINE
  5
24ECB
  8
0
  6
BYBLOCK
 10
683.9052724572126
 20
-671.0495039365481
 30
0.0
 11
683.9052724572126
 21
-669.0495039365481
 31
0.0
  0
LINE
  5
24ECC
  8
0
  6
BYBLOCK
 10
683.3693740772126
 20
-662.0495038783259
 30
0.0
 11
683.9052724572126
 21
-660.0495038783259
 31
0.0
  0
LINE
  5
24ECD
  8
0
  6
BYBLOCK
 10
683.9052724572126
 20
-660.0495038783259
 30
0.0
 11
684.4411708372127
 21
-662.0495038783259
 31
0.0
  0
LINE
  5
24ECE
  8
0
  6
BYBLOCK
 10
683.9052724572126
 20
-660.0495038783259
 30
0.0
 11
683.9052724572126
 21
-662.0495038783259
 31
0.0
  0
TEXT
  5
24ECF
  8
1DIM
  6
CONTINUOUS
 10
683.2052724572126
 20
-655.3328372116595
 30
0.0
 40
3.5
  1
11
 50
90.0
1001
ACAD
1000
DSTYLE
1002
{
1070
    45
1040
0.5
1002
}
  0
LINE
  5
24ED0
  8
0
  6
BYBLOCK
 10
456.9162416153582
 20
-543.9779568925969
 30
0.0
 11
454.9162416153582
 21
-543.4420585125969
 31
0.0
  0
LINE
  5
24ED1
  8
0
  6
BYBLOCK
 10
454.9162416153582
 20
-543.4420585125969
 30
0.0
 11
456.9162416153582
 21
-542.9061601325968
 31
0.0
  0
LINE
  5
24ED2
  8
0
  6
BYBLOCK
 10
454.9162416153582
 20
-543.4420585125969
 30
0.0
 11
456.9162416153582
 21
-543.4420585125969
 31
0.0
  0
LINE
  5
24ED3
  8
0
  6
BYBLOCK
 10
572.9162416153582
 20
-542.9061601325968
 30
0.0
 11
574.9162416153582
 21
-543.4420585125969
 31
0.0
  0
LINE
  5
24ED4
  8
0
  6
BYBLOCK
 10
574.9162416153582
 20
-543.4420585125969
 30
0.0
 11
572.9162416153582
 21
-543.9779568925969
 31
0.0
  0
LINE
  5
24ED5
  8
0
  6
BYBLOCK
 10
574.9162416153582
 20
-543.4420585125969
 30
0.0
 11
572.9162416153582
 21
-543.4420585125969
 31
0.0
  0
TEXT
  5
24ED6
  8
1DIM
  6
CONTINUOUS
 10
511.0516582820249
 20
-542.7420585125968
 30
0.0
 40
3.5
  1
120
1001
ACAD
1000
DSTYLE
1002
{
1070
    45
1040
0.5
1002
}
  0
LINE
  5
24ED7
  8
0
  6
BYBLOCK
 10
610.2461795443778
 20
-645.2984491602832
 30
0.0
 11
609.7102811643778
 21
-647.2984491602832
 31
0.0
  0
LINE
  5
24ED8
  8
0
  6
BYBLOCK
 10
609.7102811643778
 20
-647.2984491602832
 30
0.0
 11
609.1743827843777
 21
-645.2984491602832
 31
0.0
  0
LINE
  5
24ED9
  8
0
  6
BYBLOCK
 10
609.7102811643778
 20
-647.2984491602832
 30
0.0
 11
609.7102811643778
 21
-645.2984491602832
 31
0.0
  0
LINE
  5
24EDA
  8
0
  6
BYBLOCK
 10
609.1743827843777
 20
-599.2984491602832
 30
0.0
 11
609.7102811643778
 21
-597.2984491602832
 31
0.0
  0
LINE
  5
24EDB
  8
0
  6
BYBLOCK
 10
609.7102811643778
 20
-597.2984491602832
 30
0.0
 11
610.2461795443778
 21
-599.2984491602832
 31
0.0
  0
LINE
  5
24EDC
  8
0
  6
BYBLOCK
 10
609.7102811643778
 20
-597.2984491602832
 30
0.0
 11
609.7102811643778
 21
-599.2984491602832
 31
0.0
  0
TEXT
  5
24EDD
  8
1DIM
  6
CONTINUOUS
 10
609.0102811643778
 20
-624.9251852713944
 30
0.0
 40
3.5
  1
50
 50
90.0
1001
ACAD
1000
DSTYLE
1002
{
1070
     3
1000
<>
1070
    45
1040
0.5
1002
}
  0
LINE
  5
24EDE
  8
0
  6
BYBLOCK
 10
610.2461795443778
 20
-652.2984491602832
 30
0.0
 11
609.7102811643778
 21
-654.2984491602832
 31
0.0
  0
LINE
  5
24EDF
  8
0
  6
BYBLOCK
 10
609.7102811643778
 20
-654.2984491602832
 30
0.0
 11
609.1743827843777
 21
-652.2984491602832
 31
0.0
  0
LINE
  5
24EE0
  8
0
  6
BYBLOCK
 10
609.7102811643778
 20
-654.2984491602832
 30
0.0
 11
609.7102811643778
 21
-652.2984491602832
 31
0.0
  0
LINE
  5
24EE1
  8
0
  6
BYBLOCK
 10
609.1743827843777
 20
-649.2984491602832
 30
0.0
 11
609.7102811643778
 21
-647.2984491602832
 31
0.0
  0
LINE
  5
24EE2
  8
0
  6
BYBLOCK
 10
609.7102811643778
 20
-647.2984491602832
 30
0.0
 11
610.2461795443778
 21
-649.2984491602832
 31
0.0
  0
LINE
  5
24EE3
  8
0
  6
BYBLOCK
 10
609.7102811643778
 20
-647.2984491602832
 30
0.0
 11
609.7102811643778
 21
-649.2984491602832
 31
0.0
  0
TEXT
  5
24EE4
  8
1DIM
  6
CONTINUOUS
 10
609.0102811643777
 20
-651.4817824936165
 30
0.0
 40
3.5
  1
7
 50
90.0
1001
ACAD
1000
DSTYLE
1002
{
1070
     3
1000
<>
1070
    45
1040
0.5
1002
}
  0
LINE
  5
24EE5
  8
0
  6
BYBLOCK
 10
463.4162416153582
 20
-663.4470158535197
 30
0.0
 11
461.4162416153582
 21
-662.9111174735197
 31
0.0
  0
LINE
  5
24EE6
  8
0
  6
BYBLOCK
 10
461.4162416153582
 20
-662.9111174735197
 30
0.0
 11
463.4162416153582
 21
-662.3752190935196
 31
0.0
  0
LINE
  5
24EE7
  8
0
  6
BYBLOCK
 10
461.4162416153582
 20
-662.9111174735197
 30
0.0
 11
463.4162416153582
 21
-662.9111174735197
 31
0.0
  0
LINE
  5
24EE8
  8
0
  6
BYBLOCK
 10
629.4162416153582
 20
-662.3752190935196
 30
0.0
 11
631.4162416153582
 21
-662.9111174735197
 31
0.0
  0
LINE
  5
24EE9
  8
0
  6
BYBLOCK
 10
631.4162416153582
 20
-662.9111174735197
 30
0.0
 11
629.4162416153582
 21
-663.4470158535197
 31
0.0
  0
LINE
  5
24EEA
  8
0
  6
BYBLOCK
 10
631.4162416153582
 20
-662.9111174735197
 30
0.0
 11
629.4162416153582
 21
-662.9111174735197
 31
0.0
  0
TEXT
  5
24EEB
  8
1DIM
  6
CONTINUOUS
 10
541.7632140930136
 20
-662.2111174735196
 30
0.0
 40
3.5
  1
170
1001
ACAD
1000
DSTYLE
1002
{
1070
    45
1040
0.5
1002
}
  0
LINE
  5
24EEC
  8
0
  6
BYBLOCK
 10
436.9461795443777
 20
-652.2984491602832
 30
0.0
 11
436.4102811643777
 21
-654.2984491602832
 31
0.0
  0
LINE
  5
24EED
  8
0
  6
BYBLOCK
 10
436.4102811643777
 20
-654.2984491602832
 30
0.0
 11
435.8743827843778
 21
-652.2984491602832
 31
0.0
  0
LINE
  5
24EEE
  8
0
  6
BYBLOCK
 10
436.4102811643777
 20
-654.2984491602832
 30
0.0
 11
436.4102811643777
 21
-652.2984491602832
 31
0.0
  0
LINE
  5
24EEF
  8
0
  6
BYBLOCK
 10
435.8743827843778
 20
-603.7984491602832
 30
0.0
 11
436.4102811643777
 21
-601.7984491602832
 31
0.0
  0
LINE
  5
24EF0
  8
0
  6
BYBLOCK
 10
436.4102811643777
 20
-601.7984491602832
 30
0.0
 11
436.9461795443777
 21
-603.7984491602832
 31
0.0
  0
LINE
  5
24EF1
  8
0
  6
BYBLOCK
 10
436.4102811643777
 20
-601.7984491602832
 30
0.0
 11
436.4102811643777
 21
-603.7984491602832
 31
0.0
  0
TEXT
  5
24EF2
  8
1DIM
  6
CONTINUOUS
 10
435.7102811643776
 20
-621.4772686047277
 30
0.0
 40
3.5
  1
52.5
 50
90.0
1001
ACAD
1000
DSTYLE
1002
{
1070
     3
1000
<>
1070
    45
1040
0.5
1002
}
  0
LINE
  5
24EF3
  8
0
  6
BYBLOCK
 10
404.9162416153582
 20
-638.4854023165424
 30
0.0
 11
402.9162416153582
 21
-637.9495039365423
 31
0.0
  0
LINE
  5
24EF4
  8
0
  6
BYBLOCK
 10
402.9162416153582
 20
-637.9495039365423
 30
0.0
 11
404.9162416153582
 21
-637.4136055565423
 31
0.0
  0
LINE
  5
24EF5
  8
0
  6
BYBLOCK
 10
402.9162416153582
 20
-637.9495039365423
 30
0.0
 11
404.9162416153582
 21
-637.9495039365423
 31
0.0
  0
LINE
  5
24EF6
  8
0
  6
BYBLOCK
 10
447.9162416153582
 20
-637.4136055565423
 30
0.0
 11
449.9162416153582
 21
-637.9495039365423
 31
0.0
  0
LINE
  5
24EF7
  8
0
  6
BYBLOCK
 10
449.9162416153582
 20
-637.9495039365423
 30
0.0
 11
447.9162416153582
 21
-638.4854023165424
 31
0.0
  0
LINE
  5
24EF8
  8
0
  6
BYBLOCK
 10
449.9162416153582
 20
-637.9495039365423
 30
0.0
 11
447.9162416153582
 21
-637.9495039365423
 31
0.0
  0
TEXT
  5
24EF9
  8
1DIM
  6
CONTINUOUS
 10
424.0995749486915
 20
-637.2495039365423
 30
0.0
 40
3.5
  1
47
1001
ACAD
1000
DSTYLE
1002
{
1070
    45
1040
0.5
1002
}
  0
LINE
  5
24EFA
  8
0
  6
BYBLOCK
 10
729.016241615364
 20
-648.7629149098385
 30
0.0
 11
731.016241615364
 21
-649.2988132898386
 31
0.0
  0
LINE
  5
24EFB
  8
0
  6
BYBLOCK
 10
731.016241615364
 20
-649.2988132898386
 30
0.0
 11
729.016241615364
 21
-649.8347116698386
 31
0.0
  0
LINE
  5
24EFC
  8
0
  6
BYBLOCK
 10
731.016241615364
 20
-649.2988132898386
 30
0.0
 11
729.016241615364
 21
-649.2988132898386
 31
0.0
  0
LINE
  5
24EFD
  8
0
  6
BYBLOCK
 10
647.016241615364
 20
-649.8347116698386
 30
0.0
 11
645.016241615364
 21
-649.2988132898386
 31
0.0
  0
LINE
  5
24EFE
  8
0
  6
BYBLOCK
 10
645.016241615364
 20
-649.2988132898386
 30
0.0
 11
647.016241615364
 21
-648.7629149098385
 31
0.0
  0
LINE
  5
24EFF
  8
0
  6
BYBLOCK
 10
645.016241615364
 20
-649.2988132898386
 30
0.0
 11
647.016241615364
 21
-649.2988132898386
 31
0.0
  0
TEXT
  5
24F00
  8
1DIM
  6
CONTINUOUS
 10
685.0995749486974
 20
-648.5988132898385
 30
0.0
 40
3.5
  1
86
1001
ACAD
1000
DSTYLE
1002
{
1070
    45
1040
0.5
1002
}
  0
VIEWPORT
  5
57
 67
     1
  8
0
 10
0.0
 20
0.0
 30
0.0
 40
554.37576499388
 41
297.0
 68
     1
 69
     1
1001
ACAD
1000
MVIEW
1002
{
1070
    16
1010
0.0
1020
0.0
1030
0.0
1010
0.0
1020
0.0
1030
1.0
1040
0.0
1040
297.0
1040
-4.171999999925333
1040
12.83903210976956
1040
50.0
1040
0.0
1040
0.0
1070
    16
1070
   100
1070
     0
1070
     1
1070
     0
1070
     0
1070
     0
1070
     0
1040
0.0
1040
0.0
1040
0.0
1040
10.0
1040
10.0
1040
10.0
1040
10.0
1070
     0
1002
{
1002
}
1002
}
  0
ENDSEC
  0
EOF
