  0
SECTION
  2
HEADER
  9
$ACADVER
  1
AC1009
  9
$DWGCODEPAGE
  3
ansi_932
  9
$INSBASE
 10
0.0
 20
0.0
 30
0.0
  9
$EXTMIN
 10
-264.6312703595368
 20
-254.056712016421
 30
-0.0000000000026063
  9
$EXTMAX
 10
86.99236696372486
 20
68.9142731017022
 30
0.0000000000026069
  9
$LIMMIN
 10
0.0
 20
0.0
  9
$LIMMAX
 10
420.0
 20
297.0
  9
$ORTHOMODE
 70
     0
  9
$REGENMODE
 70
     1
  9
$FILLMODE
 70
     1
  9
$QTEXTMODE
 70
     0
  9
$MIRRTEXT
 70
     0
  9
$DRAGMODE
 70
     2
  9
$LTSCALE
 40
0.5
  9
$OSMODE
 70
 14591
  9
$ATTMODE
 70
     1
  9
$TEXTSIZE
 40
4.0
  9
$TRACEWID
 40
1.0
  9
$TEXTSTYLE
  7
STANDARD
  9
$CLAYER
  8
1TEXT
  9
$CELTYPE
  6
BYLAYER
  9
$CECOLOR
 62
   256
  9
$DIMSCALE
 40
1.0
  9
$DIMASZ
 40
2.0
  9
$DIMEXO
 40
0.0
  9
$DIMDLI
 40
7.0
  9
$DIMRND
 40
0.0
  9
$DIMDLE
 40
0.0
  9
$DIMEXE
 40
1.0
  9
$DIMTP
 40
0.0
  9
$DIMTM
 40
0.0
  9
$DIMTXT
 40
3.5
  9
$DIMCEN
 40
0.0
  9
$DIMTSZ
 40
0.0
  9
$DIMTOL
 70
     0
  9
$DIMLIM
 70
     0
  9
$DIMTIH
 70
     0
  9
$DIMTOH
 70
     0
  9
$DIMSE1
 70
     0
  9
$DIMSE2
 70
     0
  9
$DIMTAD
 70
     1
  9
$DIMZIN
 70
     8
  9
$DIMBLK
  1

  9
$DIMASO
 70
     1
  9
$DIMSHO
 70
     1
  9
$DIMPOST
  1
 
  9
$DIMAPOST
  1

  9
$DIMALT
 70
     0
  9
$DIMALTD
 70
     2
  9
$DIMALTF
 40
25.4
  9
$DIMLFAC
 40
1.0
  9
$DIMTOFL
 70
     1
  9
$DIMTVP
 40
0.0
  9
$DIMTIX
 70
     0
  9
$DIMSOXD
 70
     0
  9
$DIMSAH
 70
     1
  9
$DIMBLK1
  1
OPEN30
  9
$DIMBLK2
  1
OPEN30
  9
$DIMSTYLE
  2
NEWX10
  9
$DIMCLRD
 70
   256
  9
$DIMCLRE
 70
   256
  9
$DIMCLRT
 70
   201
  9
$DIMTFAC
 40
0.7
  9
$DIMGAP
 40
0.7
  9
$LUNITS
 70
     2
  9
$LUPREC
 70
     4
  9
$SKETCHINC
 40
1.0
  9
$FILLETRAD
 40
0.0
  9
$AUNITS
 70
     0
  9
$AUPREC
 70
     2
  9
$MENU
  1
acad
  9
$ELEVATION
 40
0.0
  9
$PELEVATION
 40
0.0
  9
$THICKNESS
 40
0.0
  9
$LIMCHECK
 70
     0
  9
$CHAMFERA
 40
10.0
  9
$CHAMFERB
 40
10.0
  9
$SKPOLY
 70
     0
  9
$TDCREATE
 40
2451318.621352917
  9
$TDUPDATE
 40
2459787.743459201
  9
$TDINDWG
 40
1.3830210185
  9
$TDUSRTIMER
 40
1.3830210185
  9
$USRTIMER
 70
     1
  9
$ANGBASE
 50
0.0
  9
$ANGDIR
 70
     0
  9
$PDMODE
 70
     0
  9
$PDSIZE
 40
0.0
  9
$PLINEWID
 40
0.0
  9
$COORDS
 70
     2
  9
$SPLFRAME
 70
     0
  9
$SPLINETYPE
 70
     6
  9
$SPLINESEGS
 70
     8
  9
$ATTDIA
 70
     0
  9
$ATTREQ
 70
     1
  9
$HANDLING
 70
     1
  9
$HANDSEED
  5
14FE4
  9
$SURFTAB1
 70
     6
  9
$SURFTAB2
 70
     6
  9
$SURFTYPE
 70
     6
  9
$SURFU
 70
     6
  9
$SURFV
 70
     6
  9
$UCSNAME
  2

  9
$UCSORG
 10
0.0
 20
0.0
 30
0.0
  9
$UCSXDIR
 10
1.0
 20
0.0
 30
0.0
  9
$UCSYDIR
 10
0.0
 20
1.0
 30
0.0
  9
$PUCSNAME
  2

  9
$PUCSORG
 10
0.0
 20
0.0
 30
0.0
  9
$PUCSXDIR
 10
1.0
 20
0.0
 30
0.0
  9
$PUCSYDIR
 10
0.0
 20
1.0
 30
0.0
  9
$USERI1
 70
     0
  9
$USERI2
 70
     0
  9
$USERI3
 70
     0
  9
$USERI4
 70
     0
  9
$USERI5
 70
     0
  9
$USERR1
 40
0.0
  9
$USERR2
 40
0.0
  9
$USERR3
 40
0.0
  9
$USERR4
 40
0.0
  9
$USERR5
 40
0.0
  9
$WORLDVIEW
 70
     1
  9
$SHADEDGE
 70
     3
  9
$SHADEDIF
 70
    70
  9
$TILEMODE
 70
     1
  9
$MAXACTVP
 70
    48
  9
$PLIMCHECK
 70
     0
  9
$PEXTMIN
 10
1.000000000000000E+20
 20
1.000000000000000E+20
 30
1.000000000000000E+20
  9
$PEXTMAX
 10
-1.000000000000000E+20
 20
-1.000000000000000E+20
 30
-1.000000000000000E+20
  9
$PLIMMIN
 10
0.0
 20
0.0
  9
$PLIMMAX
 10
420.0
 20
297.0
  9
$UNITMODE
 70
     0
  9
$VISRETAIN
 70
     1
  9
$PLINEGEN
 70
     0
  9
$PSLTSCALE
 70
     1
  0
ENDSEC
  0
SECTION
  2
TABLES
  0
TABLE
  2
VPORT
 70
     1
  0
VPORT
  2
*ACTIVE
 70
     0
 10
0.0
 20
0.0
 11
1.0
 21
1.0
 12
-88.81945169790595
 22
-92.57121945735943
 13
0.0
 23
0.0
 14
10.0
 24
10.0
 15
10.0
 25
10.0
 16
0.0
 26
0.0
 36
1.0
 17
0.0
 27
0.0
 37
0.0
 40
346.7688471794586
 41
1.866585067319461
 42
50.0
 43
0.0
 44
0.0
 50
0.0
 51
0.0
 71
    16
 72
   100
 73
     1
 74
     1
 75
     0
 76
     0
 77
     0
 78
     0
  0
ENDTAB
  0
TABLE
  2
LTYPE
 70
    12
  0
LTYPE
  2
CONTINUOUS
 70
     0
  3
Solid line
 72
    65
 73
     0
 40
0.0
  0
LTYPE
  2
PHANTOM2
 70
     0
  3
Phantom (0.5x) ___ _ _ ___ _ _ ___ _ _ ___ _ _
 72
    65
 73
     6
 40
31.75
 49
15.875
 49
-3.175
 49
3.175
 49
-3.175
 49
3.175
 49
-3.175
  0
LTYPE
  2
CENTER2
 70
     0
  3
Center (.5x) ___ _ ___ _ ___ _ ___ _ ___ _ ___
 72
    65
 73
     4
 40
28.575
 49
19.05
 49
-3.175
 49
3.175
 49
-3.175
  0
ENDTAB
  0
TABLE
  2
LAYER
 70
    37
  0
LAYER
  2
0
 70
     0
 62
     7
  6
CONTINUOUS
  0
LAYER
  2
1CENTER
 70
     0
 62
     7
  6
CENTER2
  0
LAYER
  2
1TEXT
 70
     0
 62
     7
  6
CONTINUOUS
  0
LAYER
  2
1DIM
 70
     0
 62
     7
  6
CONTINUOUS
  0
LAYER
  2
1PHANTOM
 70
     0
 62
     7
  6
PHANTOM2
  0
LAYER
  2
01
 70
     0
 62
     1
  6
CONTINUOUS
  0
ENDTAB
  0
TABLE
  2
STYLE
 70
    18
  0
STYLE
  2
STANDARD
 70
     0
 40
0.0
 41
1.0
 50
0.0
 71
     0
 42
4.0
  3
txt.shx
  4
extfont.shx
  0
ENDTAB
  0
TABLE
  2
VIEW
 70
     0
  0
ENDTAB
  0
TABLE
  2
UCS
 70
     0
  0
ENDTAB
  0
TABLE
  2
APPID
 70
    21
  0
APPID
  2
ACAD
 70
     0
  0
APPID
  2
DRAWINGVARIABLESXDATA
 70
     0
  0
APPID
  2
CONTENTTABDATA
 70
     0
  0
APPID
  2
CONTENTCURRENTTAB
 70
     0
  0
APPID
  2
CONTENTBLOCKDESCRIPTION
 70
     0
  0
APPID
  2
CONTENTBLOCKICON
 70
     0
  0
APPID
  2
CONTENTLONGBLOCKNAME
 70
     0
  0
APPID
  2
ACAD_PSEXT
 70
     0
  0
APPID
  2
ACAD_MLEADERVER
 70
     0
  0
APPID
  2
ACAD_EXEMPT_FROM_CAD_STAND
 70
     0
  0
APPID
  2
ACAECLAYERSTANDARD
 70
     0
  0
APPID
  2
ACADANNOTATIVE
 70
     0
  0
APPID
  2
ACDBBLOCKREPETAG
 70
     0
  0
APPID
  2
ACAD_OBJECT_CHANGE_GUID
 70
     0
  0
APPID
  2
ACLAYERTOOLS
 70
     0
  0
APPID
  2
ACAD_NAV_VCDISPLAY
 70
     0
  0
APPID
  2
ACAD_DSTYLE_DIMJOGGED_JOGA
 70
     0
  0
APPID
  2
ACAD_DSTYLE_DIM_LINETYPE
 70
     0
  0
APPID
  2
ACAD_DSTYLE_DIM_EXT1_LINET
 70
     0
  0
APPID
  2
ACAD_DSTYLE_DIM_EXT2_LINET
 70
     0
  0
APPID
  2
ACAD_DSTYLE_DIMRADIAL_EXTE
 70
     0
  0
ENDTAB
  0
TABLE
  2
DIMSTYLE
 70
     2
  0
DIMSTYLE
  2
NEWX10
 70
     0
  3
 
  4

  5

  6
OPEN30
  7
OPEN30
 40
1.0
 41
2.0
 42
0.0
 43
7.0
 44
1.0
 45
0.0
 46
0.0
 47
0.0
 48
0.0
140
3.5
141
0.0
142
0.0
143
25.4
144
1.0
145
0.0
146
0.7
147
0.7
 71
     0
 72
     0
 73
     0
 74
     0
 75
     0
 76
     0
 77
     1
 78
     8
170
     0
171
     2
172
     1
173
     1
174
     0
175
     0
176
   256
177
   256
178
   201
  0
DIMSTYLE
  2
ISO-25
 70
     0
  3

  4

  5

  6

  7

 40
1.0
 41
20.0
 42
3.0
 43
3.75
 44
2.0
 45
0.0
 46
0.0
 47
0.0
 48
0.0
140
30.0
141
5.0
142
0.0
143
0.03937
144
1.0
145
0.0
146
1.0
147
8.0
 71
     0
 72
     0
 73
     0
 74
     0
 75
     0
 76
     0
 77
     1
 78
     8
170
     0
171
     3
172
     1
173
     0
174
     0
175
     0
176
     1
177
     1
178
     1
  0
ENDTAB
  0
ENDSEC
  0
SECTION
  2
BLOCKS
  0
BLOCK
  8
0
  2
$MODEL_SPACE
 70
     0
 10
0.0
 20
0.0
 30
0.0
  3
$MODEL_SPACE
  1

  0
ENDBLK
  5
1A
  8
0
  0
BLOCK
 67
     1
  8
0
  2
$PAPER_SPACE
 70
     0
 10
0.0
 20
0.0
 30
0.0
  3
$PAPER_SPACE
  1

  0
ENDBLK
  5
17
 67
     1
  8
0
  0
BLOCK
  8
0
  2
_OPEN30
 70
     0
 10
0.0
 20
0.0
 30
0.0
  3
_OPEN30
  1

  0
LINE
  5
44
  8
0
  6
BYBLOCK
 62
     0
 10
-1.0
 20
0.26794919
 30
0.0
 11
0.0
 21
0.0
 31
0.0
  0
LINE
  5
45
  8
0
  6
BYBLOCK
 62
     0
 10
0.0
 20
0.0
 30
0.0
 11
-1.0
 21
-0.26794919
 31
0.0
  0
LINE
  5
46
  8
0
  6
BYBLOCK
 62
     0
 10
0.0
 20
0.0
 30
0.0
 11
-1.0
 21
0.0
 31
0.0
  0
ENDBLK
  5
47
  8
0
  0
BLOCK
  8
0
  2
A3WAKUKAWAJUN2017_HYOUDAI_
 70
     0
 10
0.0
 20
0.0
 30
0.0
  3
A3WAKUKAWAJUN2017_HYOUDAI_
  1

  0
LINE
  5
1057F
  8
0
 10
13.26299999998673
 20
-0.0001000000000317
 30
0.0
 11
9.236999999990758
 21
8.999899999990987
 31
0.0
1001
ACAD
1000
ASC_BOUNDS
1002
{
1070
    19
1005
105C0
1002
}
  0
LINE
  5
10580
  8
0
 10
5.657999999994331
 20
0.9999999999989768
 30
0.0
 11
9.236999999990758
 21
8.999999999991019
 31
0.0
1001
ACAD
1000
ASC_BOUNDS
1002
{
1070
    19
1005
105C0
1002
}
  0
LINE
  5
10581
  8
0
 10
18.59199999998134
 20
-0.2368999999997641
 30
0.0
 11
16.46099999998353
 21
5.432899999994561
 31
0.0
1001
ACAD
1000
ASC_BOUNDS
1002
{
1070
    19
1005
105C1
1002
}
  0
LINE
  5
10582
  8
0
 10
18.59199999998134
 20
-0.2368999999997641
 30
0.0
 11
22.38199999997767
 21
8.763099999991255
 31
0.0
1001
ACAD
1000
ASC_BOUNDS
1002
{
1070
    19
1005
105C1
1002
}
  0
LINE
  5
10583
  8
0
 10
14.32899999998563
 20
-0.2368999999997641
 30
0.0
 11
16.46099999998353
 21
5.432899999994561
 31
0.0
1001
ACAD
1000
ASC_BOUNDS
1002
{
1070
    19
1005
105C1
1002
}
  0
LINE
  5
10584
  8
0
 10
14.32899999998563
 20
-0.2368999999997641
 30
0.0
 11
10.53899999998941
 21
8.763099999991255
 31
0.0
1001
ACAD
1000
ASC_BOUNDS
1002
{
1070
    19
1005
105C1
1002
}
  0
LINE
  5
10585
  8
0
 10
19.53899999998043
 20
-0.0001000000000317
 30
0.0
 11
23.56599999997638
 21
8.999899999990987
 31
0.0
1001
ACAD
1000
ASC_BOUNDS
1002
{
1070
    19
1005
105C2
1002
}
  0
LINE
  5
10586
  8
0
 10
26.97358892824991
 20
1.383099999991202
 30
0.0
 11
23.56599999997638
 21
8.999899999990987
 31
0.0
1001
ACAD
1000
ASC_BOUNDS
1002
{
1070
    19
1005
105C2
1002
}
  0
LINE
  5
10587
  8
0
 10
5.657999999994331
 20
0.9999999999989768
 30
0.0
 11
3.181999999996833
 21
4.668599999995308
 31
0.0
1001
ACAD
1000
ASC_BOUNDS
1002
{
1070
    19
1005
105C0
1002
}
  0
LINE
  5
10588
  8
0
 10
4.617999999995391
 20
-0.0001000000000317
 30
0.0
 11
1.420999999998571
 21
4.736799999995242
 31
0.0
1001
ACAD
1000
ASC_BOUNDS
1002
{
1070
    19
1005
105C0
1002
}
  0
LINE
  5
10589
  8
0
 10
1.420999999998571
 20
8.763099999991255
 30
0.0
 11
1.420999999998571
 21
0.0
 31
0.0
1001
ACAD
1000
ASC_BOUNDS
1002
{
1070
    19
1005
105C5
1002
}
  0
LINE
  5
1058A
  8
0
 10
0.0
 20
8.763099999991255
 30
0.0
 11
0.0
 21
0.0
 31
0.0
1001
ACAD
1000
ASC_BOUNDS
1002
{
1070
    19
1005
105C5
1002
}
  0
LINE
  5
1058B
  8
0
 10
6.766999999993232
 20
-0.0001000000000317
 30
0.0
 11
7.826999999992154
 21
2.368399999997621
 31
0.0
1001
ACAD
1000
ASC_BOUNDS
1002
{
1070
    19
1005
105C0
1002
}
  0
LINE
  5
1058C
  8
0
 10
0.0
 20
0.0
 30
0.0
 11
1.420999999998571
 21
0.0
 31
0.0
1001
ACAD
1000
ASC_BOUNDS
1002
{
1070
    19
1005
105C5
1002
}
  0
LINE
  5
1058D
  8
0
 10
4.617999999995391
 20
0.0
 30
0.0
 11
6.766999999993232
 21
0.0
 31
0.0
1001
ACAD
1000
ASC_BOUNDS
1002
{
1070
    19
1005
105C0
1002
}
  0
LINE
  5
1058E
  8
0
 10
11.70599999998831
 20
-0.0001000000000317
 30
0.0
 11
10.64699999998936
 21
2.368399999997621
 31
0.0
1001
ACAD
1000
ASC_BOUNDS
1002
{
1070
    19
1005
105C0
1002
}
  0
LINE
  5
1058F
  8
0
 10
7.826999999992154
 20
2.368399999997621
 30
0.0
 11
10.64699999998936
 21
2.368399999997621
 31
0.0
1001
ACAD
1000
ASC_BOUNDS
1002
{
1070
    19
1005
105C0
1002
}
  0
LINE
  5
10590
  8
0
 10
11.70599999998831
 20
0.0
 30
0.0
 11
13.26299999998673
 21
0.0
 31
0.0
1001
ACAD
1000
ASC_BOUNDS
1002
{
1070
    19
1005
105C0
1002
}
  0
LINE
  5
10591
  8
0
 10
22.15599999997789
 20
2.368399999997621
 30
0.0
 11
24.97599999997499
 21
2.368399999997621
 31
0.0
1001
ACAD
1000
ASC_BOUNDS
1002
{
1070
    19
1005
105C2
1002
}
  0
LINE
  5
10592
  8
0
 10
19.53899999998043
 20
0.0
 30
0.0
 11
21.09599999997886
 21
0.0
 31
0.0
1001
ACAD
1000
ASC_BOUNDS
1002
{
1070
    19
1005
105C2
1002
}
  0
LINE
  5
10593
  8
0
 10
21.09599999997886
 20
-0.0001000000000317
 30
0.0
 11
22.15599999997789
 21
2.368399999997621
 31
0.0
1001
ACAD
1000
ASC_BOUNDS
1002
{
1070
    19
1005
105C2
1002
}
  0
LINE
  5
10594
  8
0
 10
26.02015566812236
 20
0.0330999999912365
 30
0.0
 11
24.97599999997499
 21
2.368399999997621
 31
0.0
1001
ACAD
1000
ASC_BOUNDS
1002
{
1070
    19
1005
105C2
1002
}
  0
LINE
  5
10595
  8
0
 10
14.32399999998563
 20
3.315799999996671
 30
0.0
 11
16.46099999998353
 21
8.999899999990987
 31
0.0
1001
ACAD
1000
ASC_BOUNDS
1002
{
1070
    19
1005
105C1
1002
}
  0
LINE
  5
10596
  8
0
 10
6.432999999993513
 20
8.763099999991255
 30
0.0
 11
3.181999999996833
 21
4.668599999995308
 31
0.0
1001
ACAD
1000
ASC_BOUNDS
1002
{
1070
    19
1005
105C0
1002
}
  0
LINE
  5
10597
  8
0
 10
4.617999999995391
 20
8.763099999991255
 30
0.0
 11
1.420999999998571
 21
4.736799999995242
 31
0.0
1001
ACAD
1000
ASC_BOUNDS
1002
{
1070
    19
1005
105C0
1002
}
  0
LINE
  5
10598
  8
0
 10
0.0
 20
8.763099999991255
 30
0.0
 11
1.420999999998571
 21
8.763099999991255
 31
0.0
1001
ACAD
1000
ASC_BOUNDS
1002
{
1070
    19
1005
105C5
1002
}
  0
LINE
  5
10599
  8
0
 10
4.617999999995391
 20
8.763099999991255
 30
0.0
 11
6.432999999993513
 21
8.763099999991255
 31
0.0
1001
ACAD
1000
ASC_BOUNDS
1002
{
1070
    19
1005
105C0
1002
}
  0
LINE
  5
1059A
  8
0
 10
14.32399999998563
 20
3.315799999996671
 30
0.0
 11
12.02999999998792
 21
8.763099999991255
 31
0.0
1001
ACAD
1000
ASC_BOUNDS
1002
{
1070
    19
1005
105C1
1002
}
  0
LINE
  5
1059B
  8
0
 10
10.06399999998996
 20
3.670999999996297
 30
0.0
 11
9.236999999990758
 21
5.5200999999945
 31
0.0
1001
ACAD
1000
ASC_BOUNDS
1002
{
1070
    19
1005
105C0
1002
}
  0
LINE
  5
1059C
  8
0
 10
8.409999999991555
 20
3.670999999996297
 30
0.0
 11
9.236999999990758
 21
5.5200999999945
 31
0.0
1001
ACAD
1000
ASC_BOUNDS
1002
{
1070
    19
1005
105C0
1002
}
  0
LINE
  5
1059D
  8
0
 10
8.409999999991555
 20
3.670999999996297
 30
0.0
 11
10.06399999998996
 21
3.670999999996297
 31
0.0
1001
ACAD
1000
ASC_BOUNDS
1002
{
1070
    19
1005
105C0
1002
}
  0
LINE
  5
1059E
  8
0
 10
10.53899999998941
 20
8.763099999991255
 30
0.0
 11
12.02999999998792
 21
8.763099999991255
 31
0.0
1001
ACAD
1000
ASC_BOUNDS
1002
{
1070
    19
1005
105C1
1002
}
  0
LINE
  5
1059F
  8
0
 10
22.7389999999773
 20
3.670999999996297
 30
0.0
 11
23.56599999997638
 21
5.5200999999945
 31
0.0
1001
ACAD
1000
ASC_BOUNDS
1002
{
1070
    19
1005
105C2
1002
}
  0
LINE
  5
105A0
  8
0
 10
22.7389999999773
 20
3.670999999996297
 30
0.0
 11
24.39299999997559
 21
3.670999999996297
 31
0.0
1001
ACAD
1000
ASC_BOUNDS
1002
{
1070
    19
1005
105C2
1002
}
  0
LINE
  5
105A1
  8
0
 10
18.59799999998143
 20
3.315799999996671
 30
0.0
 11
20.89099999997916
 21
8.763099999991255
 31
0.0
1001
ACAD
1000
ASC_BOUNDS
1002
{
1070
    19
1005
105C1
1002
}
  0
LINE
  5
105A2
  8
0
 10
18.59799999998143
 20
3.315799999996671
 30
0.0
 11
16.46099999998353
 21
8.999899999990987
 31
0.0
1001
ACAD
1000
ASC_BOUNDS
1002
{
1070
    19
1005
105C1
1002
}
  0
LINE
  5
105A3
  8
0
 10
20.89099999997916
 20
8.763099999991255
 30
0.0
 11
22.38199999997767
 21
8.763099999991255
 31
0.0
1001
ACAD
1000
ASC_BOUNDS
1002
{
1070
    19
1005
105C1
1002
}
  0
LINE
  5
105A4
  8
0
 10
24.39299999997559
 20
3.670999999996297
 30
0.0
 11
23.56599999997638
 21
5.5200999999945
 31
0.0
1001
ACAD
1000
ASC_BOUNDS
1002
{
1070
    19
1005
105C2
1002
}
  0
LINE
  5
105A5
  8
0
 10
44.99999999995498
 20
-0.2368999999997641
 30
0.0
 11
40.02599999995994
 21
5.341799999994635
 31
0.0
1001
ACAD
1000
ASC_BOUNDS
1002
{
1070
    19
1005
105C4
1002
}
  0
LINE
  5
105A6
  8
0
 10
40.02599999995994
 20
5.341799999994635
 30
0.0
 11
40.02599999995994
 21
0.0
 31
0.0
1001
ACAD
1000
ASC_BOUNDS
1002
{
1070
    19
1005
105C4
1002
}
  0
LINE
  5
105A7
  8
0
 10
38.60499999996136
 20
8.999999999991019
 30
0.0
 11
38.60499999996136
 21
0.0
 31
0.0
1001
ACAD
1000
ASC_BOUNDS
1002
{
1070
    19
1005
105C4
1002
}
  0
LINE
  5
105A8
  8
0
 10
44.99999999995498
 20
8.763099999991255
 30
0.0
 11
44.99999999995498
 21
-0.2368999999997641
 31
0.0
1001
ACAD
1000
ASC_BOUNDS
1002
{
1070
    19
1005
105C4
1002
}
  0
LINE
  5
105A9
  8
0
 10
38.60499999996136
 20
0.0
 30
0.0
 11
40.02599999995994
 21
0.0
 31
0.0
1001
ACAD
1000
ASC_BOUNDS
1002
{
1070
    19
1005
105C4
1002
}
  0
LINE
  5
105AA
  8
0
 10
43.57899999995641
 20
3.421199999996588
 30
0.0
 11
38.60499999996136
 21
8.999899999990987
 31
0.0
1001
ACAD
1000
ASC_BOUNDS
1002
{
1070
    19
1005
105C4
1002
}
  0
LINE
  5
105AB
  8
0
 10
43.57899999995641
 20
8.763099999991255
 30
0.0
 11
43.57899999995641
 21
3.421199999996588
 31
0.0
1001
ACAD
1000
ASC_BOUNDS
1002
{
1070
    19
1005
105C4
1002
}
  0
LINE
  5
105AC
  8
0
 10
43.57899999995641
 20
8.763099999991255
 30
0.0
 11
44.99999999995498
 21
8.763099999991255
 31
0.0
1001
ACAD
1000
ASC_BOUNDS
1002
{
1070
    19
1005
105C4
1002
}
  0
LINE
  5
105AD
  8
0
 10
37.67199999996831
 20
8.763099999991255
 30
0.0
 11
36.23199999996837
 21
8.763099999991255
 31
0.0
  0
LINE
  5
105AE
  8
0
 10
31.64199999996833
 20
8.763099999991255
 30
0.0
 11
31.64199999996833
 21
2.481619422925121
 31
0.0
  0
LINE
  5
105AF
  8
0
 10
37.67199999996831
 20
8.763099999991255
 30
0.0
 11
37.67199999996831
 21
2.481619422925121
 31
0.0
  0
LINE
  5
105B0
  8
0
 10
36.23199999996837
 20
8.763099999991255
 30
0.0
 11
36.23199999996837
 21
2.481619422925064
 31
0.0
  0
LINE
  5
105B1
  8
0
 10
33.08199999996839
 20
8.763099999991255
 30
0.0
 11
33.08199999996839
 21
2.481619422925121
 31
0.0
  0
ARC
  5
105B2
  8
0
 10
34.65699999996832
 20
3.183099999991214
 30
0.0
 40
3.420000000000007
 50
240.0000000000255
 51
299.9999999999766
  0
ARC
  5
105B3
  8
0
 10
34.65699999996832
 20
3.183099999991214
 30
0.0
 40
1.97999999999999
 50
240.000000000026
 51
299.9999999999703
  0
LINE
  5
105B4
  8
0
 10
33.08199999996828
 20
8.763099999991255
 30
0.0
 11
31.64199999996833
 21
8.763099999991255
 31
0.0
  0
ARC
  5
105B5
  8
0
 10
35.06199999996829
 20
2.481619422925064
 30
0.0
 40
1.17
 50
299.9999999999699
 51
0.0
  0
ARC
  5
105B6
  8
0
 10
34.25199999996835
 20
2.481619422925121
 30
0.0
 40
1.17
 50
180.0
 51
240.0000000000238
  0
ARC
  5
105B7
  8
0
 10
35.06199999996841
 20
2.481619422925121
 30
0.0
 40
2.61
 50
299.9999999999756
 51
0.0
  0
ARC
  5
105B8
  8
0
 10
34.25199999996835
 20
2.481619422925121
 30
0.0
 40
2.61
 50
180.0
 51
240.0000000000244
  0
LINE
  5
105B9
  8
0
 10
29.30199999996933
 20
8.763099999991255
 30
0.0
 11
30.74199999996927
 21
8.763099999991255
 31
0.0
1001
ACAD
1000
ASC_BOUNDS
1002
{
1070
    19
1005
105C2
1002
}
  0
LINE
  5
105BA
  8
0
 10
30.74199999996927
 20
8.763099999991255
 30
0.0
 11
30.74199999996927
 21
2.373099999991211
 31
0.0
1001
ACAD
1000
ASC_BOUNDS
1002
{
1070
    19
1005
105C2
1002
}
  0
LINE
  5
105BB
  8
0
 10
26.02015566812236
 20
0.0330999999912365
 30
0.0
 11
28.40199999996923
 21
0.0330999999912365
 31
0.0
1001
ACAD
1000
ASC_BOUNDS
1002
{
1070
    19
1005
105C2
1002
}
  0
LINE
  5
105BC
  8
0
 10
29.30199999996933
 20
8.763099999991255
 30
0.0
 11
29.30199999996933
 21
2.283099999991236
 31
0.0
1001
ACAD
1000
ASC_BOUNDS
1002
{
1070
    19
1005
105C2
1002
}
  0
LINE
  5
105BD
  8
0
 10
26.97358892824991
 20
1.383099999991202
 30
0.0
 11
28.40199999996923
 21
1.383099999991202
 31
0.0
1001
ACAD
1000
ASC_BOUNDS
1002
{
1070
    19
1005
105C2
1002
}
  0
ARC
  5
105BE
  8
0
 10
28.40199999996923
 20
2.283099999991236
 30
0.0
 40
0.9
 50
270.0
 51
0.0
1001
ACAD
1000
ASC_BOUNDS
1002
{
1070
    19
1005
105C2
1002
}
  0
ARC
  5
105BF
  8
0
 10
28.40199999996923
 20
2.373099999991211
 30
0.0
 40
2.34
 50
270.0
 51
0.0
1001
ACAD
1000
ASC_BOUNDS
1002
{
1070
    19
1005
105C2
1002
}
  0
INSERT
  5
105C0
  8
0
  2
*X112
 10
0.0
 20
0.0
 30
0.0
1001
ACAD
1000
HATCH
1002
{
1070
    19
1000
ANSI37
1040
0.15
1040
0.0
1000
ASC_BOUNDS
1070
     2
1070
     2
1070
    12
1005
1057F
1005
10580
1005
10587
1005
10596
1005
10599
1005
10597
1005
10588
1005
1058D
1005
1058B
1005
1058F
1005
1058E
1005
10590
1070
     2
1070
     3
1005
1059B
1005
1059D
1005
1059C
1000
ASC_SEEDPOINT
1011
3.614004224891801
1021
2.996669441146025
1031
0.0
1021
2.996669441146025
1031
0.0
1000
R14_HATCH_DATA
1000
105C0
1011
1.0
1021
0.0
1031
0.0
1021
0.0
1031
0.0
1011
0.0
1021
1.0
1031
0.0
1021
1.0
1031
0.0
1011
0.0
1021
0.0
1031
1.0
1021
0.0
1031
1.0
1040
0.0
1010
0.0
1020
0.0
1030
1.0
1000
ANSI37
1070
     0
1070
     1
1071
        2
1071
        7
1070
     0
1070
     1
1071
       17
1040
13.26299999998673
1040
-0.0001000000000317
1040
9.236999999990758
1040
8.999899999990987
1040
9.236999999990758
1040
8.999999999991019
1040
5.657999999994331
1040
0.9999999999989768
1040
3.181999999996833
1040
4.668599999995308
1040
6.432999999993513
1040
8.763099999991255
1040
4.617999999995391
1040
8.763099999991255
1040
1.420999999998571
1040
4.736799999995242
1040
4.617999999995391
1040
-0.0001000000000317
1040
4.617999999995391
1040
0.0
1040
6.766999999993232
1040
0.0
1040
6.766999999993232
1040
-0.0001000000000317
1040
7.826999999992154
1040
2.368399999997621
1040
10.64699999998936
1040
2.368399999997621
1040
11.70599999998831
1040
-0.0001000000000317
1040
11.70599999998831
1040
0.0
1040
13.26299999998673
1040
0.0
1071
       12
1005
1057F
1005
10580
1005
10587
1005
10596
1005
10599
1005
10597
1005
10588
1005
1058D
1005
1058B
1005
1058F
1005
1058E
1005
10590
1071
       22
1070
     0
1070
     1
1071
        3
1040
9.236999999990758
1040
5.5200999999945
1040
10.06399999998996
1040
3.670999999996297
1040
8.409999999991555
1040
3.670999999996297
1071
        3
1005
1059B
1005
1059D
1005
1059C
1070
     0
1070
     1
1040
0.0
1040
0.15
1070
     0
1070
     2
1040
0.7853981633974483
1040
49.29960901727088
1040
-10.17736998311392
1040
-0.3367596045400932
1040
0.3367596045400932
1070
     0
1040
2.356194490192345
1040
49.29960901727088
1040
-10.17736998311392
1040
-0.3367596045400932
1040
-0.3367596045400932
1070
     0
1040
0.0110235143455945
1071
        2
1040
3.614004224891801
1040
2.996669441146025
1040
0.0
1040
3.614004224891801
1040
2.996669441146025
1040
0.0
1002
}
  0
INSERT
  5
105C1
  8
0
  2
*X113
 10
0.0
 20
0.0
 30
0.0
1001
ACAD
1000
HATCH
1002
{
1070
    19
1000
ANSI37
1040
0.15
1040
0.0
1000
ASC_BOUNDS
1070
     1
1070
     2
1070
    10
1005
10581
1005
10582
1005
105A3
1005
105A1
1005
105A2
1005
10595
1005
1059A
1005
1059E
1005
10584
1005
10583
1000
ASC_SEEDPOINT
1011
14.73245321214324
1021
2.798246178283421
1031
0.0
1021
2.798246178283421
1031
0.0
1000
R14_HATCH_DATA
1000
105C1
1011
1.0
1021
0.0
1031
0.0
1021
0.0
1031
0.0
1011
0.0
1021
1.0
1031
0.0
1021
1.0
1031
0.0
1011
0.0
1021
0.0
1031
1.0
1021
0.0
1031
1.0
1040
0.0
1010
0.0
1020
0.0
1030
1.0
1000
ANSI37
1070
     0
1070
     1
1071
        1
1071
        7
1070
     0
1070
     1
1071
       10
1040
16.46099999998353
1040
5.432899999994561
1040
18.59199999998134
1040
-0.2368999999997641
1040
22.38199999997767
1040
8.763099999991255
1040
20.89099999997916
1040
8.763099999991255
1040
18.59799999998143
1040
3.315799999996671
1040
16.46099999998353
1040
8.999899999990987
1040
14.32399999998563
1040
3.315799999996671
1040
12.02999999998792
1040
8.763099999991255
1040
10.53899999998941
1040
8.763099999991255
1040
14.32899999998563
1040
-0.2368999999997641
1071
       10
1005
10581
1005
10582
1005
105A3
1005
105A1
1005
105A2
1005
10595
1005
1059A
1005
1059E
1005
10584
1005
10583
1070
     0
1070
     1
1040
0.0
1040
0.15
1070
     0
1070
     2
1040
0.7853981633974483
1040
49.29960901727088
1040
-10.17736998311392
1040
-0.3367596045400932
1040
0.3367596045400932
1070
     0
1040
2.356194490192345
1040
49.29960901727088
1040
-10.17736998311392
1040
-0.3367596045400932
1040
-0.3367596045400932
1070
     0
1040
0.0110235143455945
1071
        1
1040
14.73245321214324
1040
2.798246178283421
1040
0.0
1002
}
  0
INSERT
  5
105C2
  8
0
  2
*X114
 10
0.0
 20
0.0
 30
0.0
1001
ACAD
1000
HATCH
1002
{
1070
    19
1000
ANSI37
1040
0.15
1040
0.0
1000
ASC_BOUNDS
1070
     2
1070
     2
1070
    13
1005
10585
1005
10592
1005
10593
1005
10591
1005
10594
1005
105BB
1005
105BF
1005
105BA
1005
105B9
1005
105BC
1005
105BE
1005
105BD
1005
10586
1070
     2
1070
     3
1005
1059F
1005
105A4
1005
105A0
1000
ASC_SEEDPOINT
1011
21.97929957367762
1021
3.294304244259308
1031
0.0
1021
3.294304244259308
1031
0.0
1000
R14_HATCH_DATA
1000
105C2
1011
1.0
1021
0.0
1031
0.0
1021
0.0
1031
0.0
1011
0.0
1021
1.0
1031
0.0
1021
1.0
1031
0.0
1011
0.0
1021
0.0
1031
1.0
1021
0.0
1031
1.0
1040
0.0
1010
0.0
1020
0.0
1030
1.0
1000
ANSI37
1070
     0
1070
     1
1071
        2
1071
        7
1070
     1
1070
     1
1071
       15
1040
23.56599999997638
1040
8.999899999990987
1040
0.0
1040
19.53899999998043
1040
-0.0001000000000317
1040
0.0
1040
19.53899999998043
1040
0.0
1040
0.0
1040
21.09599999997886
1040
0.0
1040
0.0
1040
21.09599999997886
1040
-0.0001000000000317
1040
0.0
1040
22.15599999997789
1040
2.368399999997621
1040
0.0
1040
24.97599999997499
1040
2.368399999997621
1040
0.0
1040
26.02015566812236
1040
0.0330999999912365
1040
0.0
1040
28.40199999996923
1040
0.0330999999912365
1040
0.414213562373095
1040
30.74199999996923
1040
2.373099999991211
1040
0.0
1040
30.74199999996927
1040
8.763099999991255
1040
0.0
1040
29.30199999996933
1040
8.763099999991255
1040
0.0
1040
29.30199999996933
1040
2.283099999991236
1040
-0.414213562373095
1040
28.40199999996923
1040
1.383099999991237
1040
0.0
1040
26.97358892824991
1040
1.383099999991202
1040
0.0
1071
       13
1005
10585
1005
10592
1005
10593
1005
10591
1005
10594
1005
105BB
1005
105BF
1005
105BA
1005
105B9
1005
105BC
1005
105BE
1005
105BD
1005
10586
1071
       22
1070
     0
1070
     1
1071
        3
1040
22.7389999999773
1040
3.670999999996297
1040
23.56599999997638
1040
5.5200999999945
1040
24.39299999997559
1040
3.670999999996297
1071
        3
1005
1059F
1005
105A4
1005
105A0
1070
     0
1070
     1
1040
0.0
1040
0.15
1070
     0
1070
     2
1040
0.7853981633974483
1040
49.29960901727088
1040
-10.17736998311392
1040
-0.3367596045400932
1040
0.3367596045400932
1070
     0
1040
2.356194490192345
1040
49.29960901727088
1040
-10.17736998311392
1040
-0.3367596045400932
1040
-0.3367596045400932
1070
     0
1040
0.0110235143455945
1071
        2
1040
21.97929957367762
1040
3.294304244259308
1040
0.0
1040
21.97929957367762
1040
3.294304244259308
1040
0.0
1002
}
  0
INSERT
  5
105C3
  8
0
  2
*X115
 10
0.0
 20
0.0
 30
0.0
1001
ACAD
1000
HATCH
1002
{
1070
    19
1000
ANSI37
1040
0.15
1040
0.0
1000
R14_HATCH_DATA
1000
105C3
1011
1.0
1021
0.0
1031
0.0
1021
0.0
1031
0.0
1011
0.0
1021
1.0
1031
0.0
1021
1.0
1031
0.0
1011
0.0
1021
0.0
1031
1.0
1021
0.0
1031
1.0
1040
0.0
1010
0.0
1020
0.0
1030
1.0
1000
ANSI37
1070
     0
1070
     1
1071
        1
1071
        7
1070
     1
1070
     1
1071
       12
1040
31.64199999996833
1040
2.481619422925121
1040
0.2679491924310942
1040
32.94699999997067
1040
0.2212931190493919
1040
0.2679491924301353
1040
36.36699999995983
1040
0.2212931190459813
1040
0.2679491924321411
1040
37.67199999996831
1040
2.481619422928361
1040
0.0
1040
37.67199999996831
1040
8.763099999991255
1040
0.0
1040
36.23199999996837
1040
8.763099999991255
1040
0.0
1040
36.23199999996837
1040
2.481619422925064
1040
-0.2679491924310291
1040
35.64699999996708
1040
1.468369700498386
1040
-0.267949192430519
1040
33.66699999997093
1040
1.468369700497703
1040
-0.267949192431809
1040
33.08199999996839
1040
2.481619422926997
1040
0.0
1040
33.08199999996839
1040
8.763099999991255
1040
0.0
1040
31.64199999996833
1040
8.763099999991255
1040
0.0
1071
        0
1070
     0
1070
     1
1040
0.0
1040
0.15
1070
     0
1070
     2
1040
0.7853981633974483
1040
49.29960901727088
1040
-10.17736998311392
1040
-0.3367596045400932
1040
0.3367596045400932
1070
     0
1040
2.356194490192345
1040
49.29960901727088
1040
-10.17736998311392
1040
-0.3367596045400932
1040
-0.3367596045400932
1070
     0
1040
0.0110235143455945
1071
        1
1040
32.30357378967278
1040
3.988785755459219
1040
0.0
1002
}
  0
INSERT
  5
105C4
  8
0
  2
*X116
 10
0.0
 20
0.0
 30
0.0
1001
ACAD
1000
HATCH
1002
{
1070
    19
1000
ANSI37
1040
0.15
1040
0.0
1000
ASC_BOUNDS
1070
     1
1070
     2
1070
     8
1005
105A5
1005
105A8
1005
105AC
1005
105AB
1005
105AA
1005
105A7
1005
105A9
1005
105A6
1000
ASC_SEEDPOINT
1011
39.74896370716704
1021
4.484843821435049
1031
0.0
1021
4.484843821435049
1031
0.0
1000
R14_HATCH_DATA
1000
105C4
1011
1.0
1021
0.0
1031
0.0
1021
0.0
1031
0.0
1011
0.0
1021
1.0
1031
0.0
1021
1.0
1031
0.0
1011
0.0
1021
0.0
1031
1.0
1021
0.0
1031
1.0
1040
0.0
1010
0.0
1020
0.0
1030
1.0
1000
ANSI37
1070
     0
1070
     1
1071
        1
1071
        7
1070
     0
1070
     1
1071
        9
1040
40.02599999995994
1040
5.341799999994635
1040
44.99999999995498
1040
-0.2368999999997641
1040
44.99999999995498
1040
8.763099999991255
1040
43.57899999995641
1040
8.763099999991255
1040
43.57899999995641
1040
3.421199999996588
1040
38.60499999996136
1040
8.999899999990987
1040
38.60499999996136
1040
8.999999999991019
1040
38.60499999996136
1040
0.0
1040
40.02599999995994
1040
0.0
1071
        8
1005
105A5
1005
105A8
1005
105AC
1005
105AB
1005
105AA
1005
105A7
1005
105A9
1005
105A6
1070
     0
1070
     1
1040
0.0
1040
0.15
1070
     0
1070
     2
1040
0.7853981633974483
1040
49.29960901727088
1040
-10.17736998311392
1040
-0.3367596045400932
1040
0.3367596045400932
1070
     0
1040
2.356194490192345
1040
49.29960901727088
1040
-10.17736998311392
1040
-0.3367596045400932
1040
-0.3367596045400932
1070
     0
1040
0.0110235143455945
1071
        1
1040
39.74896370716704
1040
4.484843821435049
1040
0.0
1002
}
  0
INSERT
  5
105C5
  8
0
  2
*X117
 10
0.0
 20
0.0
 30
0.0
1001
ACAD
1000
HATCH
1002
{
1070
    19
1000
ANSI37
1040
0.15
1040
0.0
1000
ASC_BOUNDS
1070
     1
1070
     2
1070
     4
1005
10589
1005
10598
1005
1058A
1005
1058C
1000
ASC_SEEDPOINT
1011
1.079051535452663
1021
4.148538732891836
1031
0.0
1021
4.148538732891836
1031
0.0
1000
R14_HATCH_DATA
1000
105C5
1011
1.0
1021
0.0
1031
0.0
1021
0.0
1031
0.0
1011
0.0
1021
1.0
1031
0.0
1021
1.0
1031
0.0
1011
0.0
1021
0.0
1031
1.0
1021
0.0
1031
1.0
1040
0.0
1010
0.0
1020
0.0
1030
1.0
1000
ANSI37
1070
     0
1070
     1
1071
        1
1071
        7
1070
     0
1070
     1
1071
        4
1040
1.420999999998571
1040
0.0
1040
1.420999999998571
1040
8.763099999991255
1040
0.0
1040
8.763099999991255
1040
0.0
1040
0.0
1071
        4
1005
10589
1005
10598
1005
1058A
1005
1058C
1070
     0
1070
     1
1040
0.0
1040
0.15
1070
     0
1070
     2
1040
0.7853981633974483
1040
49.29960901727088
1040
-10.17736998311392
1040
-0.3367596045400932
1040
0.3367596045400932
1070
     0
1040
2.356194490192345
1040
49.29960901727088
1040
-10.17736998311392
1040
-0.3367596045400932
1040
-0.3367596045400932
1070
     0
1040
0.0053004257112761
1071
        1
1040
1.079051535452663
1040
4.148538732891836
1040
0.0
1002
}
  0
ENDBLK
  5
10C7D
  8
0
  0
BLOCK
  8
0
  2
*X112
 70
     1
 10
0.0
 20
0.0
 30
0.0
  3
*X112
  1

  0
LINE
  5
14E45
  8
0
  6
CONTINUOUS
 10
3.418023043697893
 20
7.251849696850613
 30
0.0
 11
4.929273346838536
 21
8.763099999991255
 31
0.0
  0
LINE
  5
14E46
  8
0
  6
CONTINUOUS
 10
1.483656411257782
 20
4.643963855330318
 30
0.0
 11
5.60279255591872
 21
8.763099999991255
 31
0.0
  0
LINE
  5
14E47
  8
0
  6
CONTINUOUS
 10
1.755053947328235
 20
4.241842182320584
 30
0.0
 11
6.276311764998907
 21
8.763099999991255
 31
0.0
  0
LINE
  5
14E48
  8
0
  6
CONTINUOUS
 10
2.026451483398688
 20
3.839720509310849
 30
0.0
 11
4.441040904851878
 21
6.254309930764039
 31
0.0
  0
LINE
  5
14E49
  8
0
  6
CONTINUOUS
 10
2.297849019469139
 20
3.437598836301114
 30
0.0
 11
3.321765168359338
 21
4.461514985191313
 31
0.0
  0
LINE
  5
14E4A
  8
0
  6
CONTINUOUS
 10
2.569246555539591
 20
3.03547716329138
 30
0.0
 11
3.593163397972743
 21
4.059394005724531
 31
0.0
  0
LINE
  5
14E4B
  8
0
  6
CONTINUOUS
 10
2.840644091610043
 20
2.633355490281646
 30
0.0
 11
3.864561627586149
 21
3.657273026257751
 31
0.0
  0
LINE
  5
14E4C
  8
0
  6
CONTINUOUS
 10
3.112041627680496
 20
2.231233817271911
 30
0.0
 11
4.135959857199554
 21
3.25515204679097
 31
0.0
  0
LINE
  5
14E4D
  8
0
  6
CONTINUOUS
 10
3.383439163750948
 20
1.829112144262177
 30
0.0
 11
4.40735808681296
 21
2.853031067324189
 31
0.0
  0
LINE
  5
14E4E
  8
0
  6
CONTINUOUS
 10
3.654836699821399
 20
1.426990471252442
 30
0.0
 11
4.678756316426365
 21
2.450910087857407
 31
0.0
  0
LINE
  5
14E4F
  8
0
  6
CONTINUOUS
 10
3.926234235891853
 20
1.024868798242709
 30
0.0
 11
4.95015454603977
 21
2.048789108390626
 31
0.0
  0
LINE
  5
14E50
  8
0
  6
CONTINUOUS
 10
4.197631771962304
 20
0.6227471252329737
 30
0.0
 11
5.221552775653176
 21
1.646668128923846
 31
0.0
  0
LINE
  5
14E51
  8
0
  6
CONTINUOUS
 10
8.715877546767851
 20
7.835069736359266
 30
0.0
 11
9.435953450375058
 21
8.555145639966472
 31
0.0
  0
LINE
  5
14E52
  8
0
  6
CONTINUOUS
 10
8.170620868422267
 20
6.616293848933497
 30
0.0
 11
9.644120833743461
 21
8.08979381425469
 31
0.0
  0
LINE
  5
14E53
  8
0
  6
CONTINUOUS
 10
7.625364190076684
 20
5.397517961507727
 30
0.0
 11
9.852288217111864
 21
7.624441988542907
 31
0.0
  0
LINE
  5
14E54
  8
0
  6
CONTINUOUS
 10
7.080107511731101
 20
4.178742074081957
 30
0.0
 11
10.06045560048027
 21
7.159090162831124
 31
0.0
  0
LINE
  5
14E55
  8
0
  6
CONTINUOUS
 10
6.534850833385518
 20
2.959966186656187
 30
0.0
 11
10.26862298384867
 21
6.693738337119342
 31
0.0
  0
LINE
  5
14E56
  8
0
  6
CONTINUOUS
 10
4.469029308032756
 20
0.2206254522232385
 30
0.0
 11
5.492951005266582
 21
1.244547149457064
 31
0.0
  0
LINE
  5
14E57
  8
0
  6
CONTINUOUS
 10
5.989594155039935
 20
1.741190299230417
 30
0.0
 11
8.806950407233131
 21
4.558546551423613
 31
0.0
  0
LINE
  5
14E58
  8
0
  6
CONTINUOUS
 10
9.401251593263643
 20
5.152847737454126
 30
0.0
 11
10.47679036721708
 21
6.228386511407559
 31
0.0
  0
LINE
  5
14E59
  8
0
  6
CONTINUOUS
 10
4.921837203428691
 20
-0.0000858614610131
 30
0.0
 11
8.592923064886001
 21
3.670999999996297
 31
0.0
  0
LINE
  5
14E5A
  8
0
  6
CONTINUOUS
 10
9.609390446785305
 20
4.6874673818956
 30
0.0
 11
10.68495775058548
 21
5.763034685695775
 31
0.0
  0
LINE
  5
14E5B
  8
0
  6
CONTINUOUS
 10
5.595387755019432
 20
-0.0000545189504582
 30
0.0
 11
7.716137258923768
 21
2.120694984953879
 31
0.0
  0
LINE
  5
14E5C
  8
0
  6
CONTINUOUS
 10
6.268938306610172
 20
-0.000023176439905
 30
0.0
 11
7.170485805526503
 21
0.9015243224764267
 31
0.0
  0
LINE
  5
14E5D
  8
0
  6
CONTINUOUS
 10
7.963842273967511
 20
2.368399999997621
 30
0.0
 11
9.266442273966188
 21
3.670999999996297
 31
0.0
  0
LINE
  5
14E5E
  8
0
  6
CONTINUOUS
 10
8.637361483047696
 20
2.368399999997621
 30
0.0
 11
9.939961483046375
 21
3.670999999996297
 31
0.0
  0
LINE
  5
14E5F
  8
0
  6
CONTINUOUS
 10
9.817529300306965
 20
4.222087026337075
 30
0.0
 11
10.89312513395388
 21
5.297682859983993
 31
0.0
  0
LINE
  5
14E60
  8
0
  6
CONTINUOUS
 10
10.02566815382863
 20
3.756706670778549
 30
0.0
 11
11.10129251732229
 21
4.832331034272211
 31
0.0
  0
LINE
  5
14E61
  8
0
  6
CONTINUOUS
 10
9.310880692127883
 20
2.368399999997621
 30
0.0
 11
11.30945990069069
 21
4.366979208560428
 31
0.0
  0
LINE
  5
14E62
  8
0
  6
CONTINUOUS
 10
9.98439990120807
 20
2.36839999999762
 30
0.0
 11
11.5176272840591
 21
3.901627382848645
 31
0.0
  0
LINE
  5
14E63
  8
0
  6
CONTINUOUS
 10
10.65037369446246
 20
2.36085458417182
 30
0.0
 11
11.7257946674275
 21
3.436275557136862
 31
0.0
  0
LINE
  5
14E64
  8
0
  6
CONTINUOUS
 10
10.85847197087848
 20
1.895433651507656
 30
0.0
 11
11.9339620507959
 21
2.97092373142508
 31
0.0
  0
LINE
  5
14E65
  8
0
  6
CONTINUOUS
 10
11.0665702472945
 20
1.430012718843491
 30
0.0
 11
12.14212943416431
 21
2.505571905713296
 31
0.0
  0
LINE
  5
14E66
  8
0
  6
CONTINUOUS
 10
11.27466852371052
 20
0.9645917861793256
 30
0.0
 11
12.35029681753271
 21
2.040220080001513
 31
0.0
  0
LINE
  5
14E67
  8
0
  6
CONTINUOUS
 10
11.48276680012654
 20
0.4991708535151611
 30
0.0
 11
12.55846420090111
 21
1.57486825428973
 31
0.0
  0
LINE
  5
14E68
  8
0
  6
CONTINUOUS
 10
11.69086507654257
 20
0.0337499208509957
 30
0.0
 11
12.76663158426952
 21
1.109516428577947
 31
0.0
  0
LINE
  5
14E69
  8
0
  6
CONTINUOUS
 10
12.33057447873954
 20
-0.0000598860322123
 30
0.0
 11
12.97479896763792
 21
0.6441646028661663
 31
0.0
  0
LINE
  5
14E6A
  8
0
  6
CONTINUOUS
 10
13.00413694809395
 20
-0.0000166257579952
 30
0.0
 11
13.18296635100632
 21
0.1788127771543824
 31
0.0
  0
LINE
  5
14E6B
  8
0
  6
CONTINUOUS
 10
4.772852165289667
 20
-0.000092794222212
 30
0.0
 11
4.296495091028902
 21
0.4762642800385528
 31
0.0
  0
LINE
  5
14E6C
  8
0
  6
CONTINUOUS
 10
5.446340034776103
 20
-0.0000614546284616
 30
0.0
 11
2.898195908335625
 21
2.548082671812017
 31
0.0
  0
LINE
  5
14E6D
  8
0
  6
CONTINUOUS
 10
6.119827904262539
 20
-0.0000301150347113
 30
0.0
 11
1.499896725642348
 21
4.61990106358548
 31
0.0
  0
LINE
  5
14E6E
  8
0
  6
CONTINUOUS
 10
6.775136745476159
 20
0.0181802528318542
 30
0.0
 11
5.699826040202669
 21
1.093490958105344
 31
0.0
  0
LINE
  5
14E6F
  8
0
  6
CONTINUOUS
 10
6.983376846288489
 20
0.4834593610997118
 30
0.0
 11
5.908008617934405
 21
1.558827589453796
 31
0.0
  0
LINE
  5
14E70
  8
0
  6
CONTINUOUS
 10
5.377063484962296
 20
1.416253513345719
 30
0.0
 11
1.702276957014131
 21
5.091040041293883
 31
0.0
  0
LINE
  5
14E71
  8
0
  6
CONTINUOUS
 10
3.978745891735324
 20
3.488090315652877
 30
0.0
 11
2.000373521109399
 21
5.466462686278803
 31
0.0
  0
LINE
  5
14E72
  8
0
  6
CONTINUOUS
 10
7.191616947100819
 20
0.948738469367568
 30
0.0
 11
6.11619119566614
 21
2.024164220802247
 31
0.0
  0
LINE
  5
14E73
  8
0
  6
CONTINUOUS
 10
7.399857047913149
 20
1.414017577635424
 30
0.0
 11
6.324373773397875
 21
2.489500852150698
 31
0.0
  0
LINE
  5
14E74
  8
0
  6
CONTINUOUS
 10
7.608097148725479
 20
1.879296685903281
 30
0.0
 11
6.53255635112961
 21
2.95483748349915
 31
0.0
  0
LINE
  5
14E75
  8
0
  6
CONTINUOUS
 10
7.816337249537808
 20
2.344575794171138
 30
0.0
 11
6.740738928861345
 21
3.420174114847601
 31
0.0
  0
LINE
  5
14E76
  8
0
  6
CONTINUOUS
 10
3.310241080789734
 20
4.830114335678653
 30
0.0
 11
2.298470085204666
 21
5.84188533126372
 31
0.0
  0
LINE
  5
14E77
  8
0
  6
CONTINUOUS
 10
3.60832983563551
 20
5.205544789913063
 30
0.0
 11
2.596566649299935
 21
6.217307976248638
 31
0.0
  0
LINE
  5
14E78
  8
0
  6
CONTINUOUS
 10
3.906418590481286
 20
5.580975244147473
 30
0.0
 11
2.894663213395203
 21
6.592730621233557
 31
0.0
  0
LINE
  5
14E79
  8
0
  6
CONTINUOUS
 10
4.204507345327062
 20
5.956405698381884
 30
0.0
 11
3.192759777490472
 21
6.968153266218474
 31
0.0
  0
LINE
  5
14E7A
  8
0
  6
CONTINUOUS
 10
8.466032252791512
 20
2.368399999997621
 30
0.0
 11
6.948921506593081
 21
3.885510746196053
 31
0.0
  0
LINE
  5
14E7B
  8
0
  6
CONTINUOUS
 10
9.139551461871699
 20
2.36839999999762
 30
0.0
 11
7.157104084324816
 21
4.350847377544504
 31
0.0
  0
LINE
  5
14E7C
  8
0
  6
CONTINUOUS
 10
4.502596100172839
 20
6.331836152616295
 30
0.0
 11
3.49085634158574
 21
7.343575911203393
 31
0.0
  0
LINE
  5
14E7D
  8
0
  6
CONTINUOUS
 10
4.800684855018615
 20
6.707266606850705
 30
0.0
 11
3.788952905681008
 21
7.718998556188312
 31
0.0
  0
LINE
  5
14E7E
  8
0
  6
CONTINUOUS
 10
12.18154012887317
 20
-0.0000694579236642
 30
0.0
 11
11.32140332908496
 21
0.8600673418645499
 31
0.0
  0
LINE
  5
14E7F
  8
0
  6
CONTINUOUS
 10
12.85501608323566
 20
-0.0000262032059659
 30
0.0
 11
10.77672456435345
 21
2.078265315676246
 31
0.0
  0
LINE
  5
14E80
  8
0
  6
CONTINUOUS
 10
9.813070670951886
 20
2.36839999999762
 30
0.0
 11
8.51047067095321
 21
3.670999999996297
 31
0.0
  0
LINE
  5
14E81
  8
0
  6
CONTINUOUS
 10
10.48658988003207
 20
2.36839999999762
 30
0.0
 11
9.183989880033396
 21
3.670999999996297
 31
0.0
  0
LINE
  5
14E82
  8
0
  6
CONTINUOUS
 10
8.441048632286794
 20
3.740422038662712
 30
0.0
 11
7.365286662056551
 21
4.816184008892956
 31
0.0
  0
LINE
  5
14E83
  8
0
  6
CONTINUOUS
 10
8.649187485808454
 20
4.205802394221237
 30
0.0
 11
7.573469239788285
 21
5.281520640241407
 31
0.0
  0
LINE
  5
14E84
  8
0
  6
CONTINUOUS
 10
5.098773609864391
 20
7.082697061085115
 30
0.0
 11
4.087049469776277
 21
8.09442120117323
 31
0.0
  0
LINE
  5
14E85
  8
0
  6
CONTINUOUS
 10
5.396862364710167
 20
7.458127515319526
 30
0.0
 11
4.385146033871544
 21
8.469843846158149
 31
0.0
  0
LINE
  5
14E86
  8
0
  6
CONTINUOUS
 10
13.04801363231285
 20
0.4804954567970334
 30
0.0
 11
9.85750908911358
 21
3.670999999996297
 31
0.0
  0
LINE
  5
14E87
  8
0
  6
CONTINUOUS
 10
8.857326339330116
 20
4.671182749779763
 30
0.0
 11
7.781651817520021
 21
5.746857271589858
 31
0.0
  0
LINE
  5
14E88
  8
0
  6
CONTINUOUS
 10
5.694951119555943
 20
7.833557969553937
 30
0.0
 11
4.765409089118624
 21
8.763099999991255
 31
0.0
  0
LINE
  5
14E89
  8
0
  6
CONTINUOUS
 10
12.50286117236978
 20
1.699167125820288
 30
0.0
 11
9.68611877250287
 21
4.515909525687196
 31
0.0
  0
LINE
  5
14E8A
  8
0
  6
CONTINUOUS
 10
9.065465192851777
 20
5.136563105338288
 30
0.0
 11
7.989834395251757
 21
6.21219390293831
 31
0.0
  0
LINE
  5
14E8B
  8
0
  6
CONTINUOUS
 10
5.993039874401719
 20
8.208988423788346
 30
0.0
 11
5.43892829819881
 21
8.763099999991255
 31
0.0
  0
LINE
  5
14E8C
  8
0
  6
CONTINUOUS
 10
11.95770871242671
 20
2.917838794843543
 30
0.0
 11
8.19801697298349
 21
6.677530534286761
 31
0.0
  0
LINE
  5
14E8D
  8
0
  6
CONTINUOUS
 10
6.291128629247495
 20
8.584418878022756
 30
0.0
 11
6.112447507278997
 21
8.763099999991255
 31
0.0
  0
LINE
  5
14E8E
  8
0
  6
CONTINUOUS
 10
11.41255625248364
 20
4.136510463866797
 30
0.0
 11
8.406199550715227
 21
7.142867165635211
 31
0.0
  0
LINE
  5
14E8F
  8
0
  6
CONTINUOUS
 10
10.86740379254057
 20
5.355182132890051
 30
0.0
 11
8.614382128446962
 21
7.608203796983664
 31
0.0
  0
LINE
  5
14E90
  8
0
  6
CONTINUOUS
 10
10.3222513325975
 20
6.573853801913305
 30
0.0
 11
8.822564706178696
 21
8.073540428332114
 31
0.0
  0
LINE
  5
14E91
  8
0
  6
CONTINUOUS
 10
9.777098872654436
 20
7.792525470936562
 30
0.0
 11
9.030747283910433
 21
8.538877059680566
 31
0.0
  0
ENDBLK
  5
14FD3
  8
0
  0
BLOCK
  8
0
  2
*X113
 70
     1
 10
0.0
 20
0.0
 30
0.0
  3
*X113
  1

  0
LINE
  5
14E93
  8
0
  6
CONTINUOUS
 10
10.67292308101235
 20
8.445076852443387
 30
0.0
 11
10.99094622856022
 21
8.763099999991255
 31
0.0
  0
LINE
  5
14E94
  8
0
  6
CONTINUOUS
 10
10.87250383178748
 20
7.971138394138331
 30
0.0
 11
11.6644654376404
 21
8.763099999991255
 31
0.0
  0
LINE
  5
14E95
  8
0
  6
CONTINUOUS
 10
11.07208458256261
 20
7.497199935833273
 30
0.0
 11
12.12126590876355
 21
8.546381262034211
 31
0.0
  0
LINE
  5
14E96
  8
0
  6
CONTINUOUS
 10
11.27166533333774
 20
7.023261477528216
 30
0.0
 11
12.32085164573666
 21
8.072447789927136
 31
0.0
  0
LINE
  5
14E97
  8
0
  6
CONTINUOUS
 10
11.47124608411287
 20
6.549323019223158
 30
0.0
 11
12.52043738270977
 21
7.59851431782006
 31
0.0
  0
LINE
  5
14E98
  8
0
  6
CONTINUOUS
 10
11.670826834888
 20
6.075384560918101
 30
0.0
 11
12.72002311968288
 21
7.124580845712984
 31
0.0
  0
LINE
  5
14E99
  8
0
  6
CONTINUOUS
 10
11.87040758566313
 20
5.601446102613043
 30
0.0
 11
12.91960885665599
 21
6.650647373605907
 31
0.0
  0
LINE
  5
14E9A
  8
0
  6
CONTINUOUS
 10
12.06998833643825
 20
5.127507644307986
 30
0.0
 11
13.1191945936291
 21
6.176713901498832
 31
0.0
  0
LINE
  5
14E9B
  8
0
  6
CONTINUOUS
 10
12.26956908721338
 20
4.65356918600293
 30
0.0
 11
13.31878033060221
 21
5.702780429391757
 31
0.0
  0
LINE
  5
14E9C
  8
0
  6
CONTINUOUS
 10
12.46914983798851
 20
4.179630727697873
 30
0.0
 11
13.51836606757532
 21
5.228846957284683
 31
0.0
  0
LINE
  5
14E9D
  8
0
  6
CONTINUOUS
 10
12.66873058876364
 20
3.705692269392816
 30
0.0
 11
13.71795180454843
 21
4.754913485177607
 31
0.0
  0
LINE
  5
14E9E
  8
0
  6
CONTINUOUS
 10
12.86831133953877
 20
3.231753811087759
 30
0.0
 11
13.91753754152154
 21
4.280980013070531
 31
0.0
  0
LINE
  5
14E9F
  8
0
  6
CONTINUOUS
 10
13.0678920903139
 20
2.757815352782702
 30
0.0
 11
14.11712327849465
 21
3.807046540963456
 31
0.0
  0
LINE
  5
14EA0
  8
0
  6
CONTINUOUS
 10
13.26747284108903
 20
2.283876894477644
 30
0.0
 11
14.31670901546777
 21
3.333113068856379
 31
0.0
  0
LINE
  5
14EA1
  8
0
  6
CONTINUOUS
 10
16.36767838827179
 20
8.751678487061342
 30
0.0
 11
16.50332410898388
 21
8.887324207773432
 31
0.0
  0
LINE
  5
14EA2
  8
0
  6
CONTINUOUS
 10
15.96190732182191
 20
7.67238821153127
 30
0.0
 11
16.68735328004734
 21
8.397834169756699
 31
0.0
  0
LINE
  5
14EA3
  8
0
  6
CONTINUOUS
 10
15.55613625537202
 20
6.593097936001196
 30
0.0
 11
16.87138245111079
 21
7.908344131739965
 31
0.0
  0
LINE
  5
14EA4
  8
0
  6
CONTINUOUS
 10
15.15036518892213
 20
5.513807660471122
 30
0.0
 11
17.05541162217424
 21
7.418854093723231
 31
0.0
  0
LINE
  5
14EA5
  8
0
  6
CONTINUOUS
 10
14.74459412247225
 20
4.434517384941048
 30
0.0
 11
17.2394407932377
 21
6.929364055706499
 31
0.0
  0
LINE
  5
14EA6
  8
0
  6
CONTINUOUS
 10
14.33882305602236
 20
3.355227109410975
 30
0.0
 11
17.42346996430115
 21
6.439874017689766
 31
0.0
  0
LINE
  5
14EA7
  8
0
  6
CONTINUOUS
 10
13.46705359186416
 20
1.809938436172586
 30
0.0
 11
16.0819338255367
 21
4.424818669845129
 31
0.0
  0
LINE
  5
14EA8
  8
0
  6
CONTINUOUS
 10
16.63283254238972
 20
4.975717386698149
 30
0.0
 11
17.60749913536461
 21
5.950383979673033
 31
0.0
  0
LINE
  5
14EA9
  8
0
  6
CONTINUOUS
 10
13.66663434263929
 20
1.335999977867529
 30
0.0
 11
15.67604797733754
 21
3.345413612565779
 31
0.0
  0
LINE
  5
14EAA
  8
0
  6
CONTINUOUS
 10
13.86621509341442
 20
0.8620615195624723
 30
0.0
 11
15.27016212913838
 21
2.26600855528643
 31
0.0
  0
LINE
  5
14EAB
  8
0
  6
CONTINUOUS
 10
16.81682257348267
 20
4.486188208710908
 30
0.0
 11
17.79152830642806
 21
5.460893941656299
 31
0.0
  0
LINE
  5
14EAC
  8
0
  6
CONTINUOUS
 10
17.00081260457561
 20
3.996659030723667
 30
0.0
 11
17.97555747749151
 21
4.971403903639565
 31
0.0
  0
LINE
  5
14EAD
  8
0
  6
CONTINUOUS
 10
20.74362343514722
 20
8.412989070375462
 30
0.0
 11
21.09373436476302
 21
8.763099999991256
 31
0.0
  0
LINE
  5
14EAE
  8
0
  6
CONTINUOUS
 10
20.25401257174777
 20
7.249858997895826
 30
0.0
 11
21.7672535738432
 21
8.763099999991255
 31
0.0
  0
LINE
  5
14EAF
  8
0
  6
CONTINUOUS
 10
14.06579584418955
 20
0.3881230612574149
 30
0.0
 11
14.86427628093921
 21
1.186603498007082
 31
0.0
  0
LINE
  5
14EB0
  8
0
  6
CONTINUOUS
 10
14.26537659496467
 20
-0.0858153970476412
 30
0.0
 11
14.45839043274005
 21
0.1071984407277329
 31
0.0
  0
LINE
  5
14EB1
  8
0
  6
CONTINUOUS
 10
17.18480263566856
 20
3.507129852736426
 30
0.0
 11
18.15958664855496
 21
4.481913865622833
 31
0.0
  0
LINE
  5
14EB2
  8
0
  6
CONTINUOUS
 10
17.3687926667615
 20
3.017600674749186
 30
0.0
 11
18.34361581961842
 21
3.9924238276061
 31
0.0
  0
LINE
  5
14EB3
  8
0
  6
CONTINUOUS
 10
19.76440170834832
 20
6.086728925416191
 30
0.0
 11
22.33924590259489
 21
8.661573119662755
 31
0.0
  0
LINE
  5
14EB4
  8
0
  6
CONTINUOUS
 10
19.27479084494887
 20
4.923598852936555
 30
0.0
 11
21.84929622842713
 21
7.498104236414807
 31
0.0
  0
LINE
  5
14EB5
  8
0
  6
CONTINUOUS
 10
17.55278269785445
 20
2.528071496761945
 30
0.0
 11
18.52764499068187
 21
3.502933789589366
 31
0.0
  0
LINE
  5
14EB6
  8
0
  6
CONTINUOUS
 10
18.78517998154942
 20
3.760468780456919
 30
0.0
 11
21.35934655425936
 21
6.33463535316686
 31
0.0
  0
LINE
  5
14EB7
  8
0
  6
CONTINUOUS
 10
17.73677272894739
 20
2.038542318774704
 30
0.0
 11
20.8693968800916
 21
5.171166469918914
 31
0.0
  0
LINE
  5
14EB8
  8
0
  6
CONTINUOUS
 10
17.92076276004034
 20
1.549013140787464
 30
0.0
 11
20.37944720592384
 21
4.007697586670968
 31
0.0
  0
LINE
  5
14EB9
  8
0
  6
CONTINUOUS
 10
18.10475279113329
 20
1.059483962800223
 30
0.0
 11
19.88949753175608
 21
2.84422870342302
 31
0.0
  0
LINE
  5
14EBA
  8
0
  6
CONTINUOUS
 10
18.28874282222623
 20
0.5699547848129822
 30
0.0
 11
19.39954785758832
 21
1.680759820175074
 31
0.0
  0
LINE
  5
14EBB
  8
0
  6
CONTINUOUS
 10
18.47273285331918
 20
0.0804256068257416
 30
0.0
 11
18.90959818342056
 21
0.517290936927127
 31
0.0
  0
LINE
  5
14EBC
  8
0
  6
CONTINUOUS
 10
14.3590401358224
 20
-0.1570118376323384
 30
0.0
 11
14.24903296539946
 21
-0.0470046672093929
 31
0.0
  0
LINE
  5
14EBD
  8
0
  6
CONTINUOUS
 10
14.54309291258661
 20
0.332454594683643
 30
0.0
 11
13.75908329123172
 21
1.116464216038529
 31
0.0
  0
LINE
  5
14EBE
  8
0
  6
CONTINUOUS
 10
14.72714568935081
 20
0.8219210269996244
 30
0.0
 11
13.26913361706399
 21
2.27993309928645
 31
0.0
  0
LINE
  5
14EBF
  8
0
  6
CONTINUOUS
 10
14.91119846611502
 20
1.311387459315606
 30
0.0
 11
12.77918394289625
 21
3.443401982534371
 31
0.0
  0
LINE
  5
14EC0
  8
0
  6
CONTINUOUS
 10
15.09525124287922
 20
1.800853891631587
 30
0.0
 11
12.28923426872852
 21
4.606870865782293
 31
0.0
  0
LINE
  5
14EC1
  8
0
  6
CONTINUOUS
 10
15.27930401964343
 20
2.290320323947569
 30
0.0
 11
11.79928459456078
 21
5.770339749030213
 31
0.0
  0
LINE
  5
14EC2
  8
0
  6
CONTINUOUS
 10
15.46335679640763
 20
2.77978675626355
 30
0.0
 11
14.48885470994921
 21
3.754288842721972
 31
0.0
  0
LINE
  5
14EC3
  8
0
  6
CONTINUOUS
 10
13.88507249233704
 20
4.358071060334137
 30
0.0
 11
11.30933492039305
 21
6.933808632278135
 31
0.0
  0
LINE
  5
14EC4
  8
0
  6
CONTINUOUS
 10
18.75840522805855
 20
0.1582575336928151
 30
0.0
 11
18.25383727664818
 21
0.6628254851031863
 31
0.0
  0
LINE
  5
14EC5
  8
0
  6
CONTINUOUS
 10
15.64740957317184
 20
3.269253188579531
 30
0.0
 11
14.67288388101266
 21
4.243778880738705
 31
0.0
  0
LINE
  5
14EC6
  8
0
  6
CONTINUOUS
 10
13.39509276772158
 20
5.521569994029786
 30
0.0
 11
10.81938524622531
 21
8.097277515526056
 31
0.0
  0
LINE
  5
14EC7
  8
0
  6
CONTINUOUS
 10
18.95798597883369
 20
0.6321959919978686
 30
0.0
 11
17.84825644852853
 21
1.741925522303024
 31
0.0
  0
LINE
  5
14EC8
  8
0
  6
CONTINUOUS
 10
19.15756672960882
 20
1.106134450302922
 30
0.0
 11
17.44267562040888
 21
2.821025559502861
 31
0.0
  0
LINE
  5
14EC9
  8
0
  6
CONTINUOUS
 10
15.83146234993604
 20
3.758719620895513
 30
0.0
 11
14.85691305207612
 21
4.733268918755439
 31
0.0
  0
LINE
  5
14ECA
  8
0
  6
CONTINUOUS
 10
16.01551512670025
 20
4.248186053211494
 30
0.0
 11
15.04094222313957
 21
5.222758956772172
 31
0.0
  0
LINE
  5
14ECB
  8
0
  6
CONTINUOUS
 10
12.90511304310612
 20
6.685068927725435
 30
0.0
 11
10.8270819708403
 21
8.763099999991255
 31
0.0
  0
LINE
  5
14ECC
  8
0
  6
CONTINUOUS
 10
12.41513331849066
 20
7.848567861421083
 30
0.0
 11
11.50060117992049
 21
8.763099999991255
 31
0.0
  0
LINE
  5
14ECD
  8
0
  6
CONTINUOUS
 10
19.35714748038395
 20
1.580072908607975
 30
0.0
 11
17.03709479228923
 21
3.900125596702697
 31
0.0
  0
LINE
  5
14ECE
  8
0
  6
CONTINUOUS
 10
19.55672823115909
 20
2.054011366913028
 30
0.0
 11
16.63151396416958
 21
4.979225633902534
 31
0.0
  0
LINE
  5
14ECF
  8
0
  6
CONTINUOUS
 10
16.19956790346445
 20
4.737652485527476
 30
0.0
 11
15.22497139420302
 21
5.712248994788904
 31
0.0
  0
LINE
  5
14ED0
  8
0
  6
CONTINUOUS
 10
16.38362068022866
 20
5.227118917843457
 30
0.0
 11
15.40900056526648
 21
6.201739032805637
 31
0.0
  0
LINE
  5
14ED1
  8
0
  6
CONTINUOUS
 10
19.75630898193422
 20
2.527949825218081
 30
0.0
 11
18.70774536448286
 21
3.576513442669441
 31
0.0
  0
LINE
  5
14ED2
  8
0
  6
CONTINUOUS
 10
19.95588973270936
 20
3.001888283523134
 30
0.0
 11
18.90726987211446
 21
4.050508144118028
 31
0.0
  0
LINE
  5
14ED3
  8
0
  6
CONTINUOUS
 10
20.15547048348449
 20
3.475826741828186
 30
0.0
 11
19.10679437974606
 21
4.524502845566614
 31
0.0
  0
LINE
  5
14ED4
  8
0
  6
CONTINUOUS
 10
20.35505123425962
 20
3.94976520013324
 30
0.0
 11
19.30631888737766
 21
4.998497547015201
 31
0.0
  0
LINE
  5
14ED5
  8
0
  6
CONTINUOUS
 10
20.55463198503475
 20
4.423703658438292
 30
0.0
 11
19.50584339500926
 21
5.472492248463787
 31
0.0
  0
LINE
  5
14ED6
  8
0
  6
CONTINUOUS
 10
18.37481191085755
 20
3.909446896294752
 30
0.0
 11
15.59302973632993
 21
6.691229070822371
 31
0.0
  0
LINE
  5
14ED7
  8
0
  6
CONTINUOUS
 10
17.96904084440766
 20
4.988737171824825
 30
0.0
 11
15.77705890739338
 21
7.180719108839104
 31
0.0
  0
LINE
  5
14ED8
  8
0
  6
CONTINUOUS
 10
17.56326977795777
 20
6.068027447354899
 30
0.0
 11
15.96108807845684
 21
7.670209146855838
 31
0.0
  0
LINE
  5
14ED9
  8
0
  6
CONTINUOUS
 10
17.15749871150789
 20
7.147317722884972
 30
0.0
 11
16.14511724952029
 21
8.15969918487257
 31
0.0
  0
LINE
  5
14EDA
  8
0
  6
CONTINUOUS
 10
16.751727645058
 20
8.226607998415046
 30
0.0
 11
16.32914642058374
 21
8.649189222889303
 31
0.0
  0
LINE
  5
14EDB
  8
0
  6
CONTINUOUS
 10
20.75421273580989
 20
4.897642116743345
 30
0.0
 11
19.70536790264086
 21
5.946486949912374
 31
0.0
  0
LINE
  5
14EDC
  8
0
  6
CONTINUOUS
 10
20.95379348658502
 20
5.371580575048398
 30
0.0
 11
19.90489241027246
 21
6.42048165136096
 31
0.0
  0
LINE
  5
14EDD
  8
0
  6
CONTINUOUS
 10
21.15337423736015
 20
5.845519033353452
 30
0.0
 11
20.10441691790406
 21
6.894476352809547
 31
0.0
  0
LINE
  5
14EDE
  8
0
  6
CONTINUOUS
 10
21.35295498813529
 20
6.319457491658505
 30
0.0
 11
20.30394142553566
 21
7.368471054258134
 31
0.0
  0
LINE
  5
14EDF
  8
0
  6
CONTINUOUS
 10
21.55253573891042
 20
6.793395949963558
 30
0.0
 11
20.50346593316726
 21
7.842465755706721
 31
0.0
  0
LINE
  5
14EE0
  8
0
  6
CONTINUOUS
 10
21.75211648968556
 20
7.267334408268612
 30
0.0
 11
20.70299044079886
 21
8.316460457155308
 31
0.0
  0
LINE
  5
14EE1
  8
0
  6
CONTINUOUS
 10
21.95169724046069
 20
7.741272866573663
 30
0.0
 11
20.9298701070431
 21
8.763099999991256
 31
0.0
  0
LINE
  5
14EE2
  8
0
  6
CONTINUOUS
 10
22.15127799123582
 20
8.215211324878716
 30
0.0
 11
21.60338931612328
 21
8.763099999991256
 31
0.0
  0
LINE
  5
14EE3
  8
0
  6
CONTINUOUS
 10
22.35085874201096
 20
8.689149783183769
 30
0.0
 11
22.27690852520347
 21
8.763099999991255
 31
0.0
  0
ENDBLK
  5
14FD5
  8
0
  0
BLOCK
  8
0
  2
*X114
 70
     1
 10
0.0
 20
0.0
 30
0.0
  3
*X114
  1

  0
LINE
  5
14EE5
  8
0
  6
CONTINUOUS
 10
23.19462913593892
 20
8.169917934846424
 30
0.0
 11
23.70775465517246
 21
8.683043454079957
 31
0.0
  0
LINE
  5
14EE6
  8
0
  6
CONTINUOUS
 10
22.64923161835078
 20
6.951001208178088
 30
0.0
 11
23.9159364069932
 21
8.217705996820516
 31
0.0
  0
LINE
  5
14EE7
  8
0
  6
CONTINUOUS
 10
22.10383410076263
 20
5.732084481509751
 30
0.0
 11
24.12411815881395
 21
7.752368539561078
 31
0.0
  0
LINE
  5
14EE8
  8
0
  6
CONTINUOUS
 10
21.55843658317447
 20
4.513167754841414
 30
0.0
 11
24.3322999106347
 21
7.287031082301639
 31
0.0
  0
LINE
  5
14EE9
  8
0
  6
CONTINUOUS
 10
21.01303906558632
 20
3.294251028173077
 30
0.0
 11
24.54048166245544
 21
6.821693625042199
 31
0.0
  0
LINE
  5
14EEA
  8
0
  6
CONTINUOUS
 10
20.46764154799817
 20
2.075334301504738
 30
0.0
 11
23.28571549467848
 21
4.89340824818505
 31
0.0
  0
LINE
  5
14EEB
  8
0
  6
CONTINUOUS
 10
19.92224403041002
 20
0.8564175748364002
 30
0.0
 11
22.74075865492779
 21
3.674932199354171
 31
0.0
  0
LINE
  5
14EEC
  8
0
  6
CONTINUOUS
 10
23.67305085490148
 20
5.280743608408048
 30
0.0
 11
24.74866341427619
 21
6.356356167782759
 31
0.0
  0
LINE
  5
14EED
  8
0
  6
CONTINUOUS
 10
23.88118970842314
 20
4.815363252849522
 30
0.0
 11
24.95684516609694
 21
5.89101871052332
 31
0.0
  0
LINE
  5
14EEE
  8
0
  6
CONTINUOUS
 10
19.73925852647308
 20
-0.0000871381807288
 30
0.0
 11
23.4103456646501
 21
3.670999999996297
 31
0.0
  0
LINE
  5
14EEF
  8
0
  6
CONTINUOUS
 10
24.0893285619448
 20
4.349982897290997
 30
0.0
 11
25.16502691791769
 21
5.42568125326388
 31
0.0
  0
LINE
  5
14EF0
  8
0
  6
CONTINUOUS
 10
20.41282099582748
 20
-0.0000438779065108
 30
0.0
 11
21.64944178675636
 21
1.236576913022366
 31
0.0
  0
LINE
  5
14EF1
  8
0
  6
CONTINUOUS
 10
22.78126487373161
 20
2.36839999999762
 30
0.0
 11
24.08386487373029
 21
3.670999999996297
 31
0.0
  0
LINE
  5
14EF2
  8
0
  6
CONTINUOUS
 10
24.29746741546646
 20
3.884602541732471
 30
0.0
 11
25.37320866973843
 21
4.960343796004441
 31
0.0
  0
LINE
  5
14EF3
  8
0
  6
CONTINUOUS
 10
21.08638346518189
 20
-0.0000006176322938
 30
0.0
 11
21.10379033335899
 21
0.0174062505448083
 31
0.0
  0
LINE
  5
14EF4
  8
0
  6
CONTINUOUS
 10
23.4547840828118
 20
2.36839999999762
 30
0.0
 11
25.58139042155918
 21
4.495006338745002
 31
0.0
  0
LINE
  5
14EF5
  8
0
  6
CONTINUOUS
 10
29.30199999996933
 20
8.215615917155148
 30
0.0
 11
29.84948408280543
 21
8.763099999991255
 31
0.0
  0
LINE
  5
14EF6
  8
0
  6
CONTINUOUS
 10
24.12830329189199
 20
2.36839999999762
 30
0.0
 11
25.78957217337993
 21
4.029668881485562
 31
0.0
  0
LINE
  5
14EF7
  8
0
  6
CONTINUOUS
 10
29.30199999996933
 20
7.54209670807496
 30
0.0
 11
30.52300329188562
 21
8.763099999991255
 31
0.0
  0
LINE
  5
14EF8
  8
0
  6
CONTINUOUS
 10
24.80182250097217
 20
2.36839999999762
 30
0.0
 11
25.99775392520067
 21
3.564331424226122
 31
0.0
  0
LINE
  5
14EF9
  8
0
  6
CONTINUOUS
 10
29.30199999996933
 20
6.868577498994774
 30
0.0
 11
30.74199999996926
 21
8.308577498994712
 31
0.0
  0
LINE
  5
14EFA
  8
0
  6
CONTINUOUS
 10
25.13028238392013
 20
2.023340673865392
 30
0.0
 11
26.20593567702142
 21
3.098993966966683
 31
0.0
  0
LINE
  5
14EFB
  8
0
  6
CONTINUOUS
 10
25.33838066033617
 20
1.557919741201244
 30
0.0
 11
26.41411742884217
 21
2.633656509707244
 31
0.0
  0
LINE
  5
14EFC
  8
0
  6
CONTINUOUS
 10
25.54647893675221
 20
1.092498808537098
 30
0.0
 11
26.62229918066291
 21
2.168319052447804
 31
0.0
  0
LINE
  5
14EFD
  8
0
  6
CONTINUOUS
 10
25.75457721316825
 20
0.62707787587295
 30
0.0
 11
26.83048093248366
 21
1.702981595188365
 31
0.0
  0
LINE
  5
14EFE
  8
0
  6
CONTINUOUS
 10
29.30199999996933
 20
6.195058289914587
 30
0.0
 11
30.74199999996926
 21
7.635058289914522
 31
0.0
  0
LINE
  5
14EFF
  8
0
  6
CONTINUOUS
 10
29.30199999996933
 20
5.521539080834401
 30
0.0
 11
30.74199999996926
 21
6.961539080834331
 31
0.0
  0
LINE
  5
14F00
  8
0
  6
CONTINUOUS
 10
29.30199999996933
 20
4.848019871754214
 30
0.0
 11
30.74199999996925
 21
6.288019871754143
 31
0.0
  0
LINE
  5
14F01
  8
0
  6
CONTINUOUS
 10
29.30199999996933
 20
4.174500662674028
 30
0.0
 11
30.74199999996925
 21
5.614500662673953
 31
0.0
  0
LINE
  5
14F02
  8
0
  6
CONTINUOUS
 10
25.96267548958429
 20
0.1616569432088024
 30
0.0
 11
27.18411854636669
 21
1.383099999991207
 31
0.0
  0
LINE
  5
14F03
  8
0
  6
CONTINUOUS
 10
29.30199999996933
 20
3.500981453593841
 30
0.0
 11
30.74199999996925
 21
4.940981453593762
 31
0.0
  0
LINE
  5
14F04
  8
0
  6
CONTINUOUS
 10
26.50763775544691
 20
0.0330999999912356
 30
0.0
 11
27.85763775544689
 21
1.383099999991223
 31
0.0
  0
LINE
  5
14F05
  8
0
  6
CONTINUOUS
 10
29.30199999996933
 20
2.827462244513656
 30
0.0
 11
30.74199999996925
 21
4.267462244513574
 31
0.0
  0
LINE
  5
14F06
  8
0
  6
CONTINUOUS
 10
27.18115696452709
 20
0.0330999999912356
 30
0.0
 11
28.6224847300034
 21
1.474427765467545
 31
0.0
  0
LINE
  5
14F07
  8
0
  6
CONTINUOUS
 10
29.21067223449293
 20
2.062615269957069
 30
0.0
 11
30.74199999996924
 21
3.593943035433383
 31
0.0
  0
LINE
  5
14F08
  8
0
  6
CONTINUOUS
 10
27.85467617360728
 20
0.0330999999912356
 30
0.0
 11
30.74199999996924
 21
2.920423826353195
 31
0.0
  0
LINE
  5
14F09
  8
0
  6
CONTINUOUS
 10
28.57438609860264
 20
0.0792907159064073
 30
0.0
 11
30.69580928405405
 21
2.200713901357819
 31
0.0
  0
LINE
  5
14F0A
  8
0
  6
CONTINUOUS
 10
29.49443044814297
 20
0.3258158563665496
 30
0.0
 11
30.44928414359389
 21
1.280669551817477
 31
0.0
  0
LINE
  5
14F0B
  8
0
  6
CONTINUOUS
 10
19.59027867740337
 20
-0.0000967065718083
 30
0.0
 11
19.55485265190471
 21
0.035329318926844
 31
0.0
  0
LINE
  5
14F0C
  8
0
  6
CONTINUOUS
 10
20.26375463176586
 20
-0.0000534518541091
 30
0.0
 11
19.76305575737534
 21
0.5006454225364014
 31
0.0
  0
LINE
  5
14F0D
  8
0
  6
CONTINUOUS
 10
20.93723058612834
 20
-0.0000101971364099
 30
0.0
 11
19.97125886284597
 21
0.965961526145958
 31
0.0
  0
LINE
  5
14F0E
  8
0
  6
CONTINUOUS
 10
21.25514828313686
 20
0.355591314935257
 30
0.0
 11
20.1794619683166
 21
1.431277629755512
 31
0.0
  0
LINE
  5
14F0F
  8
0
  6
CONTINUOUS
 10
21.46338838394921
 20
0.8208704232030986
 30
0.0
 11
20.38766507378723
 21
1.896593733365069
 31
0.0
  0
LINE
  5
14F10
  8
0
  6
CONTINUOUS
 10
21.67162848476155
 20
1.28614953147094
 30
0.0
 11
20.59586817925786
 21
2.361909836974626
 31
0.0
  0
LINE
  5
14F11
  8
0
  6
CONTINUOUS
 10
21.8798685855739
 20
1.751428639738782
 30
0.0
 11
20.80407128472849
 21
2.827225940584183
 31
0.0
  0
LINE
  5
14F12
  8
0
  6
CONTINUOUS
 10
22.08810868638624
 20
2.216707748006623
 30
0.0
 11
21.01227439019912
 21
3.292542044193739
 31
0.0
  0
LINE
  5
14F13
  8
0
  6
CONTINUOUS
 10
22.60993564347543
 20
2.36839999999762
 30
0.0
 11
21.22047749566975
 21
3.757858147803296
 31
0.0
  0
LINE
  5
14F14
  8
0
  6
CONTINUOUS
 10
23.28345485255561
 20
2.36839999999762
 30
0.0
 11
21.42868060114038
 21
4.223174251412853
 31
0.0
  0
LINE
  5
14F15
  8
0
  6
CONTINUOUS
 10
26.29227406164219
 20
0.0330999999912356
 30
0.0
 11
25.80009199592872
 21
0.5252820657046957
 31
0.0
  0
LINE
  5
14F16
  8
0
  6
CONTINUOUS
 10
23.9569740616358
 20
2.36839999999762
 30
0.0
 11
21.63688370661101
 21
4.688490355022409
 31
0.0
  0
LINE
  5
14F17
  8
0
  6
CONTINUOUS
 10
26.96579327072237
 20
0.0330999999912356
 30
0.0
 11
25.2554132311971
 21
1.743480039516508
 31
0.0
  0
LINE
  5
14F18
  8
0
  6
CONTINUOUS
 10
24.63049327071599
 20
2.36839999999762
 30
0.0
 11
23.32789327071731
 21
3.670999999996297
 31
0.0
  0
LINE
  5
14F19
  8
0
  6
CONTINUOUS
 10
22.92098674744635
 20
4.077906523267254
 30
0.0
 11
21.84508681208164
 21
5.153806458631966
 31
0.0
  0
LINE
  5
14F1A
  8
0
  6
CONTINUOUS
 10
27.63931247980256
 20
0.0330999999912356
 30
0.0
 11
24.0014124797975
 21
3.670999999996297
 31
0.0
  0
LINE
  5
14F1B
  8
0
  6
CONTINUOUS
 10
23.129125600968
 20
4.5432868788258
 30
0.0
 11
22.05328991755227
 21
5.619122562241522
 31
0.0
  0
LINE
  5
14F1C
  8
0
  6
CONTINUOUS
 10
28.31283168888275
 20
0.0330999999912356
 30
0.0
 11
24.16488385994816
 21
4.181047828925828
 31
0.0
  0
LINE
  5
14F1D
  8
0
  6
CONTINUOUS
 10
23.33726445448964
 20
5.008667234384345
 30
0.0
 11
22.2614930230229
 21
6.084438665851079
 31
0.0
  0
LINE
  5
14F1E
  8
0
  6
CONTINUOUS
 10
28.86286302309502
 20
0.1565878748591523
 30
0.0
 11
27.63635089796295
 21
1.383099999991217
 31
0.0
  0
LINE
  5
14F1F
  8
0
  6
CONTINUOUS
 10
26.43704649509776
 20
2.582404402856405
 30
0.0
 11
23.61992702019732
 21
5.399523877756844
 31
0.0
  0
LINE
  5
14F20
  8
0
  6
CONTINUOUS
 10
23.54540330801128
 20
5.47404758994289
 30
0.0
 11
22.46969612849353
 21
6.549754769460635
 31
0.0
  0
LINE
  5
14F21
  8
0
  6
CONTINUOUS
 10
29.39405087596853
 20
0.2989192310658284
 30
0.0
 11
28.30987010704312
 21
1.383099999991234
 31
0.0
  0
LINE
  5
14F22
  8
0
  6
CONTINUOUS
 10
25.89179548232307
 20
3.801174624711282
 30
0.0
 11
22.67789923396416
 21
7.015070873070191
 31
0.0
  0
LINE
  5
14F23
  8
0
  6
CONTINUOUS
 10
29.79594438047407
 20
0.570544935640473
 30
0.0
 11
28.81310432793121
 21
1.553384988183336
 31
0.0
  0
LINE
  5
14F24
  8
0
  6
CONTINUOUS
 10
25.34654446954838
 20
5.01994484656616
 30
0.0
 11
22.88610233943479
 21
7.480386976679748
 31
0.0
  0
LINE
  5
14F25
  8
0
  6
CONTINUOUS
 10
30.13270398501416
 20
0.9073045401805646
 30
0.0
 11
29.14234640337737
 21
1.897662121817355
 31
0.0
  0
LINE
  5
14F26
  8
0
  6
CONTINUOUS
 10
24.80129345677369
 20
6.238715068421037
 30
0.0
 11
23.09430544490542
 21
7.945703080289305
 31
0.0
  0
LINE
  5
14F27
  8
0
  6
CONTINUOUS
 10
30.44581292956759
 20
1.26771480470732
 30
0.0
 11
29.30199999996933
 21
2.411527734305588
 31
0.0
  0
LINE
  5
14F28
  8
0
  6
CONTINUOUS
 10
30.58814428577427
 20
1.798902657580827
 30
0.0
 11
29.30199999996933
 21
3.085046943385775
 31
0.0
  0
LINE
  5
14F29
  8
0
  6
CONTINUOUS
 10
24.256042443999
 20
7.457485290275915
 30
0.0
 11
23.30250855037605
 21
8.411019183898862
 31
0.0
  0
LINE
  5
14F2A
  8
0
  6
CONTINUOUS
 10
23.71079143122431
 20
8.676255512130794
 30
0.0
 11
23.51071165584668
 21
8.876335287508418
 31
0.0
  0
LINE
  5
14F2B
  8
0
  6
CONTINUOUS
 10
30.73047564198095
 20
2.330090510454333
 30
0.0
 11
29.30199999996933
 21
3.758566152465961
 31
0.0
  0
LINE
  5
14F2C
  8
0
  6
CONTINUOUS
 10
30.74199999996924
 20
2.992085361546236
 30
0.0
 11
29.30199999996933
 21
4.432085361546148
 31
0.0
  0
LINE
  5
14F2D
  8
0
  6
CONTINUOUS
 10
30.74199999996924
 20
3.665604570626419
 30
0.0
 11
29.30199999996933
 21
5.105604570626333
 31
0.0
  0
LINE
  5
14F2E
  8
0
  6
CONTINUOUS
 10
30.74199999996925
 20
4.339123779706602
 30
0.0
 11
29.30199999996933
 21
5.77912377970652
 31
0.0
  0
LINE
  5
14F2F
  8
0
  6
CONTINUOUS
 10
30.74199999996925
 20
5.012642988786785
 30
0.0
 11
29.30199999996933
 21
6.452642988786707
 31
0.0
  0
LINE
  5
14F30
  8
0
  6
CONTINUOUS
 10
30.74199999996925
 20
5.68616219786697
 30
0.0
 11
29.30199999996933
 21
7.126162197866894
 31
0.0
  0
LINE
  5
14F31
  8
0
  6
CONTINUOUS
 10
30.74199999996925
 20
6.359681406947153
 30
0.0
 11
29.30199999996933
 21
7.799681406947081
 31
0.0
  0
LINE
  5
14F32
  8
0
  6
CONTINUOUS
 10
30.74199999996926
 20
7.033200616027337
 30
0.0
 11
29.30199999996933
 21
8.473200616027269
 31
0.0
  0
LINE
  5
14F33
  8
0
  6
CONTINUOUS
 10
30.74199999996926
 20
7.706719825107518
 30
0.0
 11
29.68561982508552
 21
8.763099999991255
 31
0.0
  0
LINE
  5
14F34
  8
0
  6
CONTINUOUS
 10
30.74199999996926
 20
8.380239034187703
 30
0.0
 11
30.35913903416571
 21
8.763099999991255
 31
0.0
  0
ENDBLK
  5
14FD7
  8
0
  0
BLOCK
  8
0
  2
*X115
 70
     1
 10
0.0
 20
0.0
 30
0.0
  3
*X115
  1

  0
LINE
  5
14F36
  8
0
  6
CONTINUOUS
 10
31.64199999996833
 20
8.5350582899136
 30
0.0
 11
31.87004171004599
 21
8.763099999991255
 31
0.0
  0
LINE
  5
14F37
  8
0
  6
CONTINUOUS
 10
31.64199999996833
 20
7.861539080833413
 30
0.0
 11
32.54356091912618
 21
8.763099999991255
 31
0.0
  0
LINE
  5
14F38
  8
0
  6
CONTINUOUS
 10
31.64199999996833
 20
7.188019871753227
 30
0.0
 11
33.08199999996839
 21
8.628019871753281
 31
0.0
  0
LINE
  5
14F39
  8
0
  6
CONTINUOUS
 10
31.64199999996833
 20
6.514500662673041
 30
0.0
 11
33.08199999996839
 21
7.954500662673095
 31
0.0
  0
LINE
  5
14F3A
  8
0
  6
CONTINUOUS
 10
31.64199999996833
 20
5.840981453592855
 30
0.0
 11
33.08199999996839
 21
7.28098145359291
 31
0.0
  0
LINE
  5
14F3B
  8
0
  6
CONTINUOUS
 10
31.64199999996833
 20
5.167462244512668
 30
0.0
 11
33.08199999996839
 21
6.607462244512723
 31
0.0
  0
LINE
  5
14F3C
  8
0
  6
CONTINUOUS
 10
31.64199999996833
 20
4.493943035432482
 30
0.0
 11
33.08199999996839
 21
5.933943035432536
 31
0.0
  0
LINE
  5
14F3D
  8
0
  6
CONTINUOUS
 10
31.64199999996833
 20
3.820423826352294
 30
0.0
 11
33.08199999996839
 21
5.260423826352349
 31
0.0
  0
LINE
  5
14F3E
  8
0
  6
CONTINUOUS
 10
31.64199999996833
 20
3.146904617272108
 30
0.0
 11
33.08199999996839
 21
4.586904617272163
 31
0.0
  0
LINE
  5
14F3F
  8
0
  6
CONTINUOUS
 10
36.23199999996837
 20
8.410423826352327
 30
0.0
 11
36.58467617360729
 21
8.763099999991255
 31
0.0
  0
LINE
  5
14F40
  8
0
  6
CONTINUOUS
 10
36.23199999996837
 20
7.73690461727214
 30
0.0
 11
37.25819538268748
 21
8.763099999991255
 31
0.0
  0
LINE
  5
14F41
  8
0
  6
CONTINUOUS
 10
31.64323424774199
 20
2.474619655965573
 30
0.0
 11
33.08199999996839
 21
3.913385408191976
 31
0.0
  0
LINE
  5
14F42
  8
0
  6
CONTINUOUS
 10
31.74419223861915
 20
1.902058437762552
 30
0.0
 11
33.08199999996839
 21
3.239866199111789
 31
0.0
  0
LINE
  5
14F43
  8
0
  6
CONTINUOUS
 10
36.23199999996837
 20
7.063385408191953
 30
0.0
 11
37.67199999996831
 21
8.503385408191894
 31
0.0
  0
LINE
  5
14F44
  8
0
  6
CONTINUOUS
 10
36.23199999996837
 20
6.389866199111767
 30
0.0
 11
37.67199999996831
 21
7.829866199111708
 31
0.0
  0
LINE
  5
14F45
  8
0
  6
CONTINUOUS
 10
31.91111233414976
 20
1.39545932421297
 30
0.0
 11
33.08199999996839
 21
2.566346990031603
 31
0.0
  0
LINE
  5
14F46
  8
0
  6
CONTINUOUS
 10
36.23199999996837
 20
5.71634699003158
 30
0.0
 11
37.67199999996831
 21
7.156346990031522
 31
0.0
  0
LINE
  5
14F47
  8
0
  6
CONTINUOUS
 10
32.1576374746103
 20
0.9684652555933289
 30
0.0
 11
33.20642631446081
 21
2.017254095443838
 31
0.0
  0
LINE
  5
14F48
  8
0
  6
CONTINUOUS
 10
36.23199999996837
 20
5.042827780951393
 30
0.0
 11
37.67199999996831
 21
6.482827780951334
 31
0.0
  0
LINE
  5
14F49
  8
0
  6
CONTINUOUS
 10
32.47774023927325
 20
0.6150488111760914
 30
0.0
 11
33.49903056428258
 21
1.636339136185419
 31
0.0
  0
LINE
  5
14F4A
  8
0
  6
CONTINUOUS
 10
36.23199999996837
 20
4.369308571871207
 30
0.0
 11
37.67199999996831
 21
5.809308571871148
 31
0.0
  0
LINE
  5
14F4B
  8
0
  6
CONTINUOUS
 10
32.84396249154443
 20
0.3077518543670883
 30
0.0
 11
33.93324121824649
 21
1.397030581069146
 31
0.0
  0
LINE
  5
14F4C
  8
0
  6
CONTINUOUS
 10
36.23199999996837
 20
3.695789362791021
 30
0.0
 11
37.67199999996831
 21
5.135789362790963
 31
0.0
  0
LINE
  5
14F4D
  8
0
  6
CONTINUOUS
 10
33.30186329036846
 20
0.0921334441109263
 30
0.0
 11
34.46442907112041
 21
1.254699224862875
 31
0.0
  0
LINE
  5
14F4E
  8
0
  6
CONTINUOUS
 10
36.23199999996837
 20
3.022270153710834
 30
0.0
 11
37.67199999996831
 21
4.462270153710776
 31
0.0
  0
LINE
  5
14F4F
  8
0
  6
CONTINUOUS
 10
33.79565647746294
 20
-0.0875925778747773
 30
0.0
 11
35.24350171668284
 21
1.360252661345124
 31
0.0
  0
LINE
  5
14F50
  8
0
  6
CONTINUOUS
 10
36.18336676155003
 20
2.300117706212308
 30
0.0
 11
37.67199999996831
 21
3.788750944630589
 31
0.0
  0
LINE
  5
14F51
  8
0
  6
CONTINUOUS
 10
34.37182574910968
 20
-0.184942515308224
 30
0.0
 11
37.67199999996831
 21
3.115231735550402
 31
0.0
  0
LINE
  5
14F52
  8
0
  6
CONTINUOUS
 10
35.0453449581892
 20
-0.1849425153088955
 30
0.0
 11
37.66345697088136
 21
2.433169497383271
 31
0.0
  0
LINE
  5
14F53
  8
0
  6
CONTINUOUS
 10
35.98667157609191
 20
0.0828648935136398
 30
0.0
 11
37.51927401744566
 21
1.615467334867382
 31
0.0
  0
LINE
  5
14F54
  8
0
  6
CONTINUOUS
 10
32.27747408544484
 20
0.7830920669904482
 30
0.0
 11
32.24716210471949
 21
0.8134040477157893
 31
0.0
  0
LINE
  5
14F55
  8
0
  6
CONTINUOUS
 10
33.83656881101902
 20
-0.1024834495035494
 30
0.0
 11
31.72538911593758
 21
2.008696245577891
 31
0.0
  0
LINE
  5
14F56
  8
0
  6
CONTINUOUS
 10
34.5925470859041
 20
-0.1849425153084434
 30
0.0
 11
31.64199999996833
 21
2.765604570627322
 31
0.0
  0
LINE
  5
14F57
  8
0
  6
CONTINUOUS
 10
35.26201302775981
 20
-0.1808892480839752
 30
0.0
 11
31.64199999996833
 21
3.439123779707508
 31
0.0
  0
LINE
  5
14F58
  8
0
  6
CONTINUOUS
 10
35.75580621485512
 20
-0.0011632260990879
 30
0.0
 11
34.51294304365551
 21
1.241699945100514
 31
0.0
  0
LINE
  5
14F59
  8
0
  6
CONTINUOUS
 10
33.08199999996839
 20
2.672642988787641
 30
0.0
 11
31.64199999996833
 21
4.112642988787695
 31
0.0
  0
LINE
  5
14F5A
  8
0
  6
CONTINUOUS
 10
36.24959940195042
 20
0.1785627958857976
 30
0.0
 11
35.10501653033629
 21
1.323145667499924
 31
0.0
  0
LINE
  5
14F5B
  8
0
  6
CONTINUOUS
 10
33.08199999996839
 20
3.346162197867827
 30
0.0
 11
31.64199999996833
 21
4.786162197867881
 31
0.0
  0
LINE
  5
14F5C
  8
0
  6
CONTINUOUS
 10
36.64615197150552
 20
0.4555294354108876
 30
0.0
 11
35.6362043832099
 21
1.465477023706505
 31
0.0
  0
LINE
  5
14F5D
  8
0
  6
CONTINUOUS
 10
33.08199999996839
 20
4.019681406948013
 30
0.0
 11
31.64199999996833
 21
5.459681406948068
 31
0.0
  0
LINE
  5
14F5E
  8
0
  6
CONTINUOUS
 10
37.0123742237774
 20
0.7628263922191891
 30
0.0
 11
35.97691545773309
 21
1.798285158263504
 31
0.0
  0
LINE
  5
14F5F
  8
0
  6
CONTINUOUS
 10
33.08199999996839
 20
4.6932006160282
 30
0.0
 11
31.64199999996833
 21
6.133200616028255
 31
0.0
  0
LINE
  5
14F60
  8
0
  6
CONTINUOUS
 10
37.27491524157143
 20
1.173804583505349
 30
0.0
 11
36.17602012811361
 21
2.272699696963169
 31
0.0
  0
LINE
  5
14F61
  8
0
  6
CONTINUOUS
 10
33.08199999996839
 20
5.366719825108387
 30
0.0
 11
31.64199999996833
 21
6.806719825108441
 31
0.0
  0
LINE
  5
14F62
  8
0
  6
CONTINUOUS
 10
37.51739996707661
 20
1.604839067080355
 30
0.0
 11
36.23199999996837
 21
2.890239034188595
 31
0.0
  0
LINE
  5
14F63
  8
0
  6
CONTINUOUS
 10
37.6183579579535
 20
2.177400285283649
 30
0.0
 11
36.23199999996837
 21
3.563758243268782
 31
0.0
  0
LINE
  5
14F64
  8
0
  6
CONTINUOUS
 10
33.08199999996839
 20
6.040239034188573
 30
0.0
 11
31.64199999996833
 21
7.480239034188628
 31
0.0
  0
LINE
  5
14F65
  8
0
  6
CONTINUOUS
 10
33.08199999996839
 20
6.713758243268759
 30
0.0
 11
31.64199999996833
 21
8.153758243268815
 31
0.0
  0
LINE
  5
14F66
  8
0
  6
CONTINUOUS
 10
37.67199999996831
 20
2.797277452349027
 30
0.0
 11
36.23199999996837
 21
4.237277452348969
 31
0.0
  0
LINE
  5
14F67
  8
0
  6
CONTINUOUS
 10
37.67199999996831
 20
3.470796661429214
 30
0.0
 11
36.23199999996837
 21
4.910796661429155
 31
0.0
  0
LINE
  5
14F68
  8
0
  6
CONTINUOUS
 10
37.67199999996831
 20
4.1443158705094
 30
0.0
 11
36.23199999996837
 21
5.584315870509341
 31
0.0
  0
LINE
  5
14F69
  8
0
  6
CONTINUOUS
 10
33.08199999996839
 20
7.387277452348946
 30
0.0
 11
31.70617745232608
 21
8.763099999991255
 31
0.0
  0
LINE
  5
14F6A
  8
0
  6
CONTINUOUS
 10
33.08199999996839
 20
8.060796661429134
 30
0.0
 11
32.37969666140626
 21
8.763099999991255
 31
0.0
  0
LINE
  5
14F6B
  8
0
  6
CONTINUOUS
 10
33.08199999996839
 20
8.734315870509318
 30
0.0
 11
33.05321587048645
 21
8.763099999991255
 31
0.0
  0
LINE
  5
14F6C
  8
0
  6
CONTINUOUS
 10
37.67199999996831
 20
4.817835079589586
 30
0.0
 11
36.23199999996837
 21
6.257835079589528
 31
0.0
  0
LINE
  5
14F6D
  8
0
  6
CONTINUOUS
 10
37.67199999996831
 20
5.491354288669772
 30
0.0
 11
36.23199999996837
 21
6.931354288669715
 31
0.0
  0
LINE
  5
14F6E
  8
0
  6
CONTINUOUS
 10
37.67199999996831
 20
6.164873497749959
 30
0.0
 11
36.23199999996837
 21
7.6048734977499
 31
0.0
  0
LINE
  5
14F6F
  8
0
  6
CONTINUOUS
 10
37.67199999996831
 20
6.838392706830145
 30
0.0
 11
36.23199999996837
 21
8.278392706830086
 31
0.0
  0
LINE
  5
14F70
  8
0
  6
CONTINUOUS
 10
37.67199999996831
 20
7.511911915910333
 30
0.0
 11
36.42081191588738
 21
8.763099999991255
 31
0.0
  0
LINE
  5
14F71
  8
0
  6
CONTINUOUS
 10
37.67199999996831
 20
8.185431124990519
 30
0.0
 11
37.09433112496757
 21
8.763099999991255
 31
0.0
  0
ENDBLK
  5
14FD9
  8
0
  0
BLOCK
  8
0
  2
*X116
 70
     1
 10
0.0
 20
0.0
 30
0.0
  3
*X116
  1

  0
LINE
  5
14F73
  8
0
  6
CONTINUOUS
 10
38.60499999996136
 20
8.762866199104765
 30
0.0
 11
38.71672554182345
 21
8.874591740966855
 31
0.0
  0
LINE
  5
14F74
  8
0
  6
CONTINUOUS
 10
38.60499999996136
 20
8.089346990024577
 30
0.0
 11
39.03418785440363
 21
8.518534844466847
 31
0.0
  0
LINE
  5
14F75
  8
0
  6
CONTINUOUS
 10
38.60499999996136
 20
7.41582778094439
 30
0.0
 11
39.35165016698382
 21
8.16247794796684
 31
0.0
  0
LINE
  5
14F76
  8
0
  6
CONTINUOUS
 10
38.60499999996136
 20
6.742308571864204
 30
0.0
 11
39.66911247956399
 21
7.806421051466834
 31
0.0
  0
LINE
  5
14F77
  8
0
  6
CONTINUOUS
 10
38.60499999996136
 20
6.068789362784018
 30
0.0
 11
39.98657479214418
 21
7.450364154966827
 31
0.0
  0
LINE
  5
14F78
  8
0
  6
CONTINUOUS
 10
38.60499999996136
 20
5.395270153703832
 30
0.0
 11
40.30403710472435
 21
7.09430725846682
 31
0.0
  0
LINE
  5
14F79
  8
0
  6
CONTINUOUS
 10
38.60499999996136
 20
4.721750944623645
 30
0.0
 11
40.62149941730453
 21
6.738250361966813
 31
0.0
  0
LINE
  5
14F7A
  8
0
  6
CONTINUOUS
 10
38.60499999996136
 20
4.048231735543458
 30
0.0
 11
40.93896172988471
 21
6.382193465466806
 31
0.0
  0
LINE
  5
14F7B
  8
0
  6
CONTINUOUS
 10
38.60499999996136
 20
3.374712526463272
 30
0.0
 11
40.02599999995994
 21
4.795712526461843
 31
0.0
  0
LINE
  5
14F7C
  8
0
  6
CONTINUOUS
 10
38.60499999996136
 20
2.701193317383085
 30
0.0
 11
40.02599999995994
 21
4.122193317381657
 31
0.0
  0
LINE
  5
14F7D
  8
0
  6
CONTINUOUS
 10
40.28339754687704
 20
5.053110073378947
 30
0.0
 11
41.25642404246489
 21
6.026136568966799
 31
0.0
  0
LINE
  5
14F7E
  8
0
  6
CONTINUOUS
 10
40.60085985945722
 20
4.697053176878939
 30
0.0
 11
41.57388635504507
 21
5.670079672466793
 31
0.0
  0
LINE
  5
14F7F
  8
0
  6
CONTINUOUS
 10
43.57899999995641
 20
8.348712526458318
 30
0.0
 11
43.99338747348935
 21
8.763099999991255
 31
0.0
  0
LINE
  5
14F80
  8
0
  6
CONTINUOUS
 10
43.57899999995641
 20
7.675193317378131
 30
0.0
 11
44.66690668256953
 21
8.763099999991255
 31
0.0
  0
LINE
  5
14F81
  8
0
  6
CONTINUOUS
 10
38.60499999996136
 20
2.027674108302898
 30
0.0
 11
40.02599999995994
 21
3.44867410830147
 31
0.0
  0
LINE
  5
14F82
  8
0
  6
CONTINUOUS
 10
38.60499999996136
 20
1.354154899222712
 30
0.0
 11
40.02599999995994
 21
2.775154899221284
 31
0.0
  0
LINE
  5
14F83
  8
0
  6
CONTINUOUS
 10
38.60499999996136
 20
0.6806356901425255
 30
0.0
 11
40.02599999995994
 21
2.101635690141098
 31
0.0
  0
LINE
  5
14F84
  8
0
  6
CONTINUOUS
 10
38.60499999996136
 20
0.0071164810623383
 30
0.0
 11
40.02599999995994
 21
1.428116481060911
 31
0.0
  0
LINE
  5
14F85
  8
0
  6
CONTINUOUS
 10
40.9183221720374
 20
4.340996280378933
 30
0.0
 11
41.89134866762525
 21
5.314022775966786
 31
0.0
  0
LINE
  5
14F86
  8
0
  6
CONTINUOUS
 10
41.23578448461758
 20
3.984939383878926
 30
0.0
 11
42.20881098020543
 21
4.957965879466778
 31
0.0
  0
LINE
  5
14F87
  8
0
  6
CONTINUOUS
 10
41.55324679719776
 20
3.628882487378919
 30
0.0
 11
42.52627329278561
 21
4.601908982966772
 31
0.0
  0
LINE
  5
14F88
  8
0
  6
CONTINUOUS
 10
41.87070910977793
 20
3.272825590878912
 30
0.0
 11
42.84373560536579
 21
4.245852086466765
 31
0.0
  0
LINE
  5
14F89
  8
0
  6
CONTINUOUS
 10
43.57899999995641
 20
7.001674108297943
 30
0.0
 11
44.99999999995498
 21
8.422674108296516
 31
0.0
  0
LINE
  5
14F8A
  8
0
  6
CONTINUOUS
 10
43.57899999995641
 20
6.328154899217758
 30
0.0
 11
44.99999999995498
 21
7.749154899216329
 31
0.0
  0
LINE
  5
14F8B
  8
0
  6
CONTINUOUS
 10
43.57899999995641
 20
5.654635690137571
 30
0.0
 11
44.99999999995498
 21
7.075635690136142
 31
0.0
  0
LINE
  5
14F8C
  8
0
  6
CONTINUOUS
 10
43.57899999995641
 20
4.981116481057384
 30
0.0
 11
44.99999999995498
 21
6.402116481055955
 31
0.0
  0
LINE
  5
14F8D
  8
0
  6
CONTINUOUS
 10
39.27140272797921
 20
-0.0000000000000009
 30
0.0
 11
40.02599999995994
 21
0.7545972719807246
 31
0.0
  0
LINE
  5
14F8E
  8
0
  6
CONTINUOUS
 10
39.9449219370594
 20
-0.0000000000000009
 30
0.0
 11
40.02599999995994
 21
0.0810780629005379
 31
0.0
  0
LINE
  5
14F8F
  8
0
  6
CONTINUOUS
 10
42.18817142235812
 20
2.916768694378905
 30
0.0
 11
43.16119791794597
 21
3.889795189966758
 31
0.0
  0
LINE
  5
14F90
  8
0
  6
CONTINUOUS
 10
42.50563373493829
 20
2.560711797878898
 30
0.0
 11
43.47866023052615
 21
3.533738293466751
 31
0.0
  0
LINE
  5
14F91
  8
0
  6
CONTINUOUS
 10
43.57899999995641
 20
4.307597271977198
 30
0.0
 11
44.99999999995498
 21
5.728597271975769
 31
0.0
  0
LINE
  5
14F92
  8
0
  6
CONTINUOUS
 10
43.57899999995641
 20
3.634078062897011
 30
0.0
 11
44.99999999995498
 21
5.055078062895582
 31
0.0
  0
LINE
  5
14F93
  8
0
  6
CONTINUOUS
 10
42.82309604751848
 20
2.204654901378891
 30
0.0
 11
44.99999999995498
 21
4.381558853815395
 31
0.0
  0
LINE
  5
14F94
  8
0
  6
CONTINUOUS
 10
43.14055836009865
 20
1.848598004878885
 30
0.0
 11
44.99999999995498
 21
3.70803964473521
 31
0.0
  0
LINE
  5
14F95
  8
0
  6
CONTINUOUS
 10
43.45802067267883
 20
1.492541108378878
 30
0.0
 11
44.99999999995498
 21
3.034520435655023
 31
0.0
  0
LINE
  5
14F96
  8
0
  6
CONTINUOUS
 10
43.77548298525902
 20
1.136484211878871
 30
0.0
 11
44.99999999995498
 21
2.361001226574837
 31
0.0
  0
LINE
  5
14F97
  8
0
  6
CONTINUOUS
 10
44.09294529783919
 20
0.7804273153788639
 30
0.0
 11
44.99999999995498
 21
1.687482017494649
 31
0.0
  0
LINE
  5
14F98
  8
0
  6
CONTINUOUS
 10
44.41040761041938
 20
0.4243704188788566
 30
0.0
 11
44.99999999995498
 21
1.013962808414463
 31
0.0
  0
LINE
  5
14F99
  8
0
  6
CONTINUOUS
 10
44.72786992299955
 20
0.0683135223788494
 30
0.0
 11
44.99999999995498
 21
0.340443599334276
 31
0.0
  0
LINE
  5
14F9A
  8
0
  6
CONTINUOUS
 10
39.12223903415696
 20
-0.0000000000000009
 30
0.0
 11
38.60499999996136
 21
0.5172390341955961
 31
0.0
  0
LINE
  5
14F9B
  8
0
  6
CONTINUOUS
 10
39.79575824323715
 20
-0.0000000000000009
 30
0.0
 11
38.60499999996136
 21
1.190758243275783
 31
0.0
  0
LINE
  5
14F9C
  8
0
  6
CONTINUOUS
 10
40.02599999995994
 20
0.443277452357397
 30
0.0
 11
38.60499999996136
 21
1.864277452355969
 31
0.0
  0
LINE
  5
14F9D
  8
0
  6
CONTINUOUS
 10
40.02599999995994
 20
1.116796661437583
 30
0.0
 11
38.60499999996136
 21
2.537796661436155
 31
0.0
  0
LINE
  5
14F9E
  8
0
  6
CONTINUOUS
 10
40.02599999995994
 20
1.79031587051777
 30
0.0
 11
38.60499999996136
 21
3.211315870516341
 31
0.0
  0
LINE
  5
14F9F
  8
0
  6
CONTINUOUS
 10
40.02599999995994
 20
2.463835079597956
 30
0.0
 11
38.60499999996136
 21
3.884835079596527
 31
0.0
  0
LINE
  5
14FA0
  8
0
  6
CONTINUOUS
 10
40.02599999995994
 20
3.137354288678143
 30
0.0
 11
38.60499999996136
 21
4.558354288676714
 31
0.0
  0
LINE
  5
14FA1
  8
0
  6
CONTINUOUS
 10
40.02599999995994
 20
3.810873497758329
 30
0.0
 11
38.60499999996136
 21
5.2318734977569
 31
0.0
  0
LINE
  5
14FA2
  8
0
  6
CONTINUOUS
 10
40.02599999995994
 20
4.484392706838515
 30
0.0
 11
38.60499999996136
 21
5.905392706837086
 31
0.0
  0
LINE
  5
14FA3
  8
0
  6
CONTINUOUS
 10
44.99999999995498
 20
0.183911915923658
 30
0.0
 11
41.53858364506288
 21
3.64532827081576
 31
0.0
  0
LINE
  5
14FA4
  8
0
  6
CONTINUOUS
 10
40.02599999995994
 20
5.157911915918703
 30
0.0
 11
38.60499999996136
 21
6.578911915917274
 31
0.0
  0
LINE
  5
14FA5
  8
0
  6
CONTINUOUS
 10
44.99999999995498
 20
0.8574311250038447
 30
0.0
 11
38.60499999996136
 21
7.25243112499746
 31
0.0
  0
LINE
  5
14FA6
  8
0
  6
CONTINUOUS
 10
44.99999999995498
 20
1.530950334084031
 30
0.0
 11
38.60499999996136
 21
7.925950334077647
 31
0.0
  0
LINE
  5
14FA7
  8
0
  6
CONTINUOUS
 10
44.99999999995498
 20
2.204469543164218
 30
0.0
 11
43.57899999995641
 21
3.625469543162789
 31
0.0
  0
LINE
  5
14FA8
  8
0
  6
CONTINUOUS
 10
41.89876730984767
 20
5.305702233271528
 30
0.0
 11
38.60499999996136
 21
8.599469543157834
 31
0.0
  0
LINE
  5
14FA9
  8
0
  6
CONTINUOUS
 10
44.99999999995498
 20
2.877988752244405
 30
0.0
 11
43.57899999995641
 21
4.298988752242975
 31
0.0
  0
LINE
  5
14FAA
  8
0
  6
CONTINUOUS
 10
44.99999999995498
 20
3.551507961324591
 30
0.0
 11
43.57899999995641
 21
4.972507961323163
 31
0.0
  0
LINE
  5
14FAB
  8
0
  6
CONTINUOUS
 10
44.99999999995498
 20
4.225027170404777
 30
0.0
 11
43.57899999995641
 21
5.646027170403348
 31
0.0
  0
LINE
  5
14FAC
  8
0
  6
CONTINUOUS
 10
44.99999999995498
 20
4.898546379484964
 30
0.0
 11
43.57899999995641
 21
6.319546379483535
 31
0.0
  0
LINE
  5
14FAD
  8
0
  6
CONTINUOUS
 10
44.99999999995498
 20
5.572065588565151
 30
0.0
 11
43.57899999995641
 21
6.993065588563722
 31
0.0
  0
LINE
  5
14FAE
  8
0
  6
CONTINUOUS
 10
44.99999999995498
 20
6.245584797645336
 30
0.0
 11
43.57899999995641
 21
7.666584797643908
 31
0.0
  0
LINE
  5
14FAF
  8
0
  6
CONTINUOUS
 10
44.99999999995498
 20
6.919104006725522
 30
0.0
 11
43.57899999995641
 21
8.340104006724093
 31
0.0
  0
LINE
  5
14FB0
  8
0
  6
CONTINUOUS
 10
44.99999999995498
 20
7.592623215805709
 30
0.0
 11
43.82952321576943
 21
8.763099999991255
 31
0.0
  0
LINE
  5
14FB1
  8
0
  6
CONTINUOUS
 10
44.99999999995498
 20
8.266142424885896
 30
0.0
 11
44.50304242484962
 21
8.763099999991255
 31
0.0
  0
ENDBLK
  5
14FDB
  8
0
  0
BLOCK
  8
0
  2
*X117
 70
     1
 10
0.0
 20
0.0
 30
0.0
  3
*X117
  1

  0
LINE
  5
14FB3
  8
0
  6
CONTINUOUS
 10
0.0
 20
8.548461116714023
 30
0.0
 11
0.2146388832772324
 21
8.763099999991255
 31
0.0
  0
LINE
  5
14FB4
  8
0
  6
CONTINUOUS
 10
-0.0000000000000002
 20
7.874941907633837
 30
0.0
 11
0.8881580923574184
 21
8.763099999991255
 31
0.0
  0
LINE
  5
14FB5
  8
0
  6
CONTINUOUS
 10
0.0
 20
7.20142269855365
 30
0.0
 11
1.420999999998572
 21
8.622422698552223
 31
0.0
  0
LINE
  5
14FB6
  8
0
  6
CONTINUOUS
 10
-0.0000000000000001
 20
6.527903489473465
 30
0.0
 11
1.420999999998571
 21
7.948903489472036
 31
0.0
  0
LINE
  5
14FB7
  8
0
  6
CONTINUOUS
 10
-0.0000000000000002
 20
5.854384280393278
 30
0.0
 11
1.420999999998571
 21
7.275384280391849
 31
0.0
  0
LINE
  5
14FB8
  8
0
  6
CONTINUOUS
 10
-0.0000000000000002
 20
5.180865071313091
 30
0.0
 11
1.420999999998571
 21
6.601865071311663
 31
0.0
  0
LINE
  5
14FB9
  8
0
  6
CONTINUOUS
 10
0.0
 20
4.507345862232905
 30
0.0
 11
1.420999999998571
 21
5.928345862231477
 31
0.0
  0
LINE
  5
14FBA
  8
0
  6
CONTINUOUS
 10
-0.0000000000000003
 20
3.833826653152718
 30
0.0
 11
1.420999999998571
 21
5.25482665315129
 31
0.0
  0
LINE
  5
14FBB
  8
0
  6
CONTINUOUS
 10
-0.0000000000000002
 20
3.160307444072532
 30
0.0
 11
1.420999999998571
 21
4.581307444071103
 31
0.0
  0
LINE
  5
14FBC
  8
0
  6
CONTINUOUS
 10
-0.0000000000000001
 20
2.486788234992345
 30
0.0
 11
1.420999999998571
 21
3.907788234990917
 31
0.0
  0
LINE
  5
14FBD
  8
0
  6
CONTINUOUS
 10
-0.0000000000000006
 20
1.813269025912159
 30
0.0
 11
1.420999999998571
 21
3.234269025910731
 31
0.0
  0
LINE
  5
14FBE
  8
0
  6
CONTINUOUS
 10
0.0
 20
1.139749816831973
 30
0.0
 11
1.420999999998571
 21
2.560749816830544
 31
0.0
  0
LINE
  5
14FBF
  8
0
  6
CONTINUOUS
 10
0.0000000000000002
 20
0.466230607751787
 30
0.0
 11
1.420999999998571
 21
1.887230607750358
 31
0.0
  0
LINE
  5
14FC0
  8
0
  6
CONTINUOUS
 10
0.2072886013284003
 20
-0.0000000000000009
 30
0.0
 11
1.420999999998571
 21
1.213711398670171
 31
0.0
  0
LINE
  5
14FC1
  8
0
  6
CONTINUOUS
 10
0.8808078104085864
 20
-0.0000000000000009
 30
0.0
 11
1.420999999998571
 21
0.5401921895899839
 31
0.0
  0
LINE
  5
14FC2
  8
0
  6
CONTINUOUS
 10
0.0581249075061505
 20
-0.0000000000000009
 30
0.0
 11
-0.0000000000000002
 21
0.0581249075061496
 31
0.0
  0
LINE
  5
14FC3
  8
0
  6
CONTINUOUS
 10
0.7316441165863372
 20
-0.0000000000000009
 30
0.0
 11
-0.0000000000000002
 21
0.7316441165863363
 31
0.0
  0
LINE
  5
14FC4
  8
0
  6
CONTINUOUS
 10
1.405163325666523
 20
-0.0000000000000009
 30
0.0
 11
-0.0000000000000002
 21
1.405163325666523
 31
0.0
  0
LINE
  5
14FC5
  8
0
  6
CONTINUOUS
 10
1.420999999998572
 20
0.6576825347481381
 30
0.0
 11
-0.0000000000000001
 21
2.07868253474671
 31
0.0
  0
LINE
  5
14FC6
  8
0
  6
CONTINUOUS
 10
1.420999999998571
 20
1.331201743828324
 30
0.0
 11
-0.0000000000000001
 21
2.752201743826896
 31
0.0
  0
LINE
  5
14FC7
  8
0
  6
CONTINUOUS
 10
1.420999999998571
 20
2.004720952908511
 30
0.0
 11
-0.0000000000000002
 21
3.425720952907082
 31
0.0
  0
LINE
  5
14FC8
  8
0
  6
CONTINUOUS
 10
1.420999999998571
 20
2.678240161988697
 30
0.0
 11
-0.0000000000000001
 21
4.099240161987269
 31
0.0
  0
LINE
  5
14FC9
  8
0
  6
CONTINUOUS
 10
1.420999999998572
 20
3.351759371068884
 30
0.0
 11
0.0
 21
4.772759371067455
 31
0.0
  0
LINE
  5
14FCA
  8
0
  6
CONTINUOUS
 10
1.420999999998571
 20
4.02527858014907
 30
0.0
 11
-0.0000000000000003
 21
5.446278580147642
 31
0.0
  0
LINE
  5
14FCB
  8
0
  6
CONTINUOUS
 10
1.420999999998571
 20
4.698797789229257
 30
0.0
 11
0.0
 21
6.119797789227828
 31
0.0
  0
LINE
  5
14FCC
  8
0
  6
CONTINUOUS
 10
1.420999999998571
 20
5.372316998309444
 30
0.0
 11
-0.0000000000000001
 21
6.793316998308015
 31
0.0
  0
LINE
  5
14FCD
  8
0
  6
CONTINUOUS
 10
1.420999999998572
 20
6.045836207389629
 30
0.0
 11
-0.0000000000000004
 21
7.466836207388202
 31
0.0
  0
LINE
  5
14FCE
  8
0
  6
CONTINUOUS
 10
1.420999999998571
 20
6.719355416469816
 30
0.0
 11
0.0
 21
8.140355416468388
 31
0.0
  0
LINE
  5
14FCF
  8
0
  6
CONTINUOUS
 10
1.420999999998571
 20
7.392874625550003
 30
0.0
 11
0.0507746255573185
 21
8.763099999991255
 31
0.0
  0
LINE
  5
14FD0
  8
0
  6
CONTINUOUS
 10
1.420999999998571
 20
8.06639383463019
 30
0.0
 11
0.7242938346375052
 21
8.763099999991255
 31
0.0
  0
LINE
  5
14FD1
  8
0
  6
CONTINUOUS
 10
1.420999999998571
 20
8.739913043710375
 30
0.0
 11
1.397813043717691
 21
8.763099999991255
 31
0.0
  0
ENDBLK
  5
14FDD
  8
0
  0
ENDSEC
  0
SECTION
  2
ENTITIES
  0
LINE
  5
13378
  8
1PHANTOM
 10
-179.6312704693269
 20
32.48347818439912
 30
0.0000000000000006
 11
-180.6312701693269
 21
33.48347818439912
 31
0.0000000000000006
  0
LINE
  5
13379
  8
1PHANTOM
 10
-176.331270319327
 20
32.48347818439912
 30
0.0000000000000006
 11
-176.331270319327
 21
33.48347818439912
 31
0.0000000000000006
  0
LINE
  5
1337A
  8
1PHANTOM
 10
-176.331270319327
 20
33.48347818439912
 30
0.0000000000000006
 11
-183.9312703193269
 21
33.48347818439912
 31
0.0000000000000006
  0
LINE
  5
1337B
  8
1PHANTOM
 10
-176.331270319327
 20
32.48347818439912
 30
0.0000000000000006
 11
-183.9312703193269
 21
32.48347818439912
 31
0.0000000000000006
  0
LINE
  5
1337C
  8
1PHANTOM
 10
-183.9312703193269
 20
32.48347818439912
 30
0.0000000000000006
 11
-183.9312703193269
 21
33.48347818439912
 31
0.0000000000000006
  0
LINE
  5
1337E
  8
1PHANTOM
 10
-209.6312704693269
 20
32.48347818439912
 30
0.0000000000000006
 11
-210.6312701693269
 21
33.48347818439912
 31
0.0000000000000006
  0
LINE
  5
1337F
  8
1PHANTOM
 10
-206.331270319327
 20
32.48347818439912
 30
0.0000000000000006
 11
-206.331270319327
 21
33.48347818439912
 31
0.0000000000000006
  0
LINE
  5
13380
  8
1PHANTOM
 10
-206.331270319327
 20
33.48347818439912
 30
0.0000000000000006
 11
-213.9312703193269
 21
33.48347818439912
 31
0.0000000000000006
  0
LINE
  5
13381
  8
1PHANTOM
 10
-206.331270319327
 20
32.48347818439912
 30
0.0000000000000006
 11
-213.9312703193269
 21
32.48347818439912
 31
0.0000000000000006
  0
LINE
  5
13382
  8
1PHANTOM
 10
-213.9312703193269
 20
32.48347818439912
 30
0.0000000000000006
 11
-213.9312703193269
 21
33.48347818439912
 31
0.0000000000000006
  0
TEXT
  5
13B4F
  8
1TEXT
 10
-77.47522562886763
 20
15.66957356316442
 30
0.0
 40
4.0
  1
表面処理:カバー
 72
     1
 11
-60.60763303627505
 21
15.66957356316442
 31
0.0
  0
LINE
  5
13B50
  8
1DIM
 10
-83.00763303627514
 20
21.16957356316442
 30
0.0
 11
86.99236696372486
 21
21.16957356316442
 31
0.0
  0
LINE
  5
13B51
  8
1DIM
 10
-83.00763303627514
 20
7.16957356316442
 30
0.0
 11
14.99236696372465
 21
7.16957356316442
 31
0.0
  0
LINE
  5
13B52
  8
1DIM
 10
-83.00763303627514
 20
14.16957356316442
 30
0.0
 11
86.99236696372486
 21
14.16957356316442
 31
0.0
  0
TEXT
  5
13B53
  8
1TEXT
 10
59.02098735280459
 20
15.66957356316425
 30
0.0
 40
4.0
  1
コード
 72
     1
 11
65.88765401947126
 21
15.66957356316425
 31
0.0
  0
TEXT
  5
13B54
  8
1TEXT
 10
-73.00763303627514
 20
26.16957356316442
 30
0.0
 40
8.0
  1
SE-423-X
  0
TEXT
  5
13B55
  8
1TEXT
 10
-70.07429970294172
 20
8.834284903640139
 30
0.0
 40
4.0
  1
クローム
 72
     1
 11
-60.60763303627505
 21
8.834284903640139
 31
0.0
  0
TEXT
  5
13B56
  8
1TEXT
 10
52.36310937036127
 20
8.455216579514968
 30
0.0
 40
4.0
  1
SE-423-XC
 41
0.85
 72
     1
 11
67.0964427036946
 21
8.455216579514968
 31
0.0
  0
LINE
  5
13B57
  8
1DIM
 10
-83.00763303627514
 20
0.1695735631644197
 30
0.0
 11
14.99236696372465
 21
0.1695735631644197
 31
0.0
  0
TEXT
  5
13B58
  8
1TEXT
 10
-81.54096636960838
 20
1.834284903640139
 30
0.0
 40
4.0
  1
セラミックホワイト
 72
     1
 11
-60.60763303627505
 21
1.834284903640139
 31
0.0
  0
TEXT
  5
13B59
  8
1TEXT
 10
50.09644270369529
 20
1.455216579514968
 30
0.0
 40
4.0
  1
SE-423-001C
 41
0.85
 72
     1
 11
67.09644270369529
 21
1.455216579514968
 31
0.0
  0
LINE
  5
13B5A
  8
1DIM
 10
-83.00763303627514
 20
-6.83042643683558
 30
0.0
 11
86.99236696372395
 21
-6.83042643683558
 31
0.0
  0
TEXT
  5
13B5B
  8
1TEXT
 10
-76.87429970294171
 20
-5.165715096359861
 30
0.0
 40
4.0
  1
マットブラック
 72
     1
 11
-60.60763303627505
 21
-5.165715096359861
 31
0.0
  0
TEXT
  5
13B5C
  8
1TEXT
 10
49.52977603702863
 20
-5.544783420485032
 30
0.0
 40
4.0
  1
SE-423-003C
 41
0.85
 72
     1
 11
67.09644270369529
 21
-5.544783420485032
 31
0.0
  0
LINE
  5
13B5D
  8
1DIM
 10
-83.00763303627514
 20
-6.83042643683558
 30
0.0
 11
-83.00763303627514
 21
21.16957356316442
 31
0.0
  0
LINE
  5
13B5E
  8
1DIM
 10
-38.00763303627514
 20
21.16957356316442
 30
0.0
 11
-38.00763303627605
 21
-6.83042643683558
 31
0.0
  0
TEXT
  5
13B5F
  8
1TEXT
 10
15.76317500031615
 20
15.66957356316425
 30
0.0
 40
4.0
  1
表面処理:本体
 72
     1
 11
30.49743425957541
 21
15.66957356316425
 31
0.0
  0
TEXT
  5
13B60
  8
1TEXT
 10
20.88125128113072
 20
1.834284903639968
 30
0.0
 40
4.0
  1
クローム
 72
     1
 11
30.34791794779738
 21
1.834284903639968
 31
0.0
  0
LINE
  5
13B61
  8
1DIM
 10
46.99236696372441
 20
7.169573563164249
 30
0.0
 11
86.99236696372486
 21
7.169573563164249
 31
0.0
  0
LINE
  5
13B62
  8
1DIM
 10
46.99236696372418
 20
0.1695735631642492
 30
0.0
 11
86.99236696372486
 21
0.1695735631642492
 31
0.0
  0
LINE
  5
13B63
  8
1DIM
 10
86.99236696372395
 20
-6.830426436835864
 30
0.0
 11
86.99236696372486
 21
21.16957356316414
 31
0.0
  0
TEXT
  5
13B64
  8
1TEXT
 10
-31.28183761449292
 20
15.66957356316442
 30
0.0
 40
4.0
  1
表面処理:プレート
 72
     1
 11
-12.14757835523366
 21
15.66957356316442
 31
0.0
  0
LINE
  5
13B65
  8
1DIM
 10
14.99236696372486
 20
21.16957356316414
 30
0.0
 11
14.99236696372395
 21
-6.830426436835864
 31
0.0
  0
LINE
  5
13B66
  8
1DIM
 10
46.99236696372486
 20
21.16957356316431
 30
0.0
 11
46.99236696372395
 21
-6.830426436835694
 31
0.0
  0
TEXT
  5
13B67
  8
1TEXT
 10
-21.60970019217114
 20
1.834284903640139
 30
0.0
 40
4.0
  1
ホワイト
 72
     1
 11
-12.67636685883781
 21
1.834284903640139
 31
0.0
  0
TEXT
  5
13B68
  8
1TEXT
 10
-21.92435911779414
 20
-5.479652761871842
 30
0.0
 40
4.0
  1
ブラック
 72
     1
 11
-12.92435911779414
 21
-5.479652761871842
 31
0.0
  0
ARC
  5
13FBB
  8
01
 10
-126.6312702963542
 20
-47.51652181560089
 30
0.0
 40
1.0
 50
270.0
 51
0.0
  0
LINE
  5
13FBC
  8
01
 10
-125.6312702963542
 20
32.48347818439912
 30
0.0
 11
-125.6312702963542
 21
-47.51652181560088
 31
0.0
  0
ARC
  5
13FBD
  8
01
 10
-130.6312702963542
 20
32.48347818439912
 30
0.0
 40
5.0
 50
0.0
 51
90.0
  0
LINE
  5
13FBF
  8
01
 10
-126.6312702963542
 20
-48.51652181560089
 30
0.0
 11
-263.6312702963543
 21
-48.51652181560089
 31
0.0
  0
ARC
  5
13FC0
  8
01
 10
-133.231270296331
 20
-30.91652181562417
 30
0.0
 40
2.799999999999997
 50
270.0
 51
0.0
  0
LINE
  5
13FC1
  8
01
 10
-130.4312702963426
 20
-30.91652181562417
 30
0.0
 11
-130.4312702963426
 21
29.8834781843933
 31
0.0
  0
ARC
  5
13FC2
  8
01
 10
-133.231270296331
 20
29.8834781843933
 30
0.0
 40
2.799999999999997
 50
0.0
 51
90.0
  0
LINE
  5
13FC3
  8
01
 10
-259.6312702963543
 20
37.48347818439912
 30
0.0
 11
-130.6312702963542
 21
37.48347818439912
 31
0.0
  0
ARC
  5
13FC6
  8
01
 10
-257.0312702963193
 20
-30.91652181562417
 30
0.0
 40
2.800000000000011
 50
180.0
 51
270.0
  0
ARC
  5
13FC7
  8
01
 10
-257.0312702963193
 20
29.8834781843933
 30
0.0
 40
2.800000000000011
 50
90.0
 51
180.0
  0
ARC
  5
13FC8
  8
01
 10
-259.6312702963543
 20
32.48347818439912
 30
0.0
 40
5.0
 50
90.0
 51
180.0
  0
LINE
  5
13FC9
  8
01
 10
-259.8312702963368
 20
29.8834781843933
 30
0.0
 11
-259.8312702963368
 21
-30.91652181562417
 31
0.0
  0
LINE
  5
13FCA
  8
01
 10
-264.6312702963543
 20
-47.5165218156009
 30
0.0
 11
-264.6312702963543
 21
32.48347818439912
 31
0.0
  0
ARC
  5
13FCC
  8
01
 10
-263.6312702963543
 20
-47.51652181560089
 30
0.0
 40
1.0
 50
180.0
 51
270.0
  0
LINE
  5
13FCD
  8
01
 10
-257.0312702963193
 20
32.48347818438457
 30
0.0
 11
-133.231270296331
 21
32.48347818438457
 31
0.0
  0
LINE
  5
13FCE
  8
01
 10
-130.6312702963251
 20
29.88347818437875
 30
0.0
 11
-130.6312702963251
 21
-30.91652181560962
 31
0.0
  0
LINE
  5
13FD0
  8
01
 10
-259.6312702963252
 20
29.88347818437875
 30
0.0
 11
-259.6312702963252
 21
-30.91652181560962
 31
0.0
  0
LINE
  5
1413F
  8
01
 10
-133.231270296331
 20
32.68347818438166
 30
0.0
 11
-257.0312702963193
 21
32.68347818438166
 31
0.0
  0
LINE
  5
14141
  8
01
 10
-133.231270296331
 20
-33.51652181561544
 30
0.0
 11
-257.0312702963193
 21
-33.51652181561544
 31
0.0
  0
LINE
  5
14142
  8
01
 10
-133.231270296331
 20
-33.71652181560162
 30
0.0
 11
-257.0312702963193
 21
-33.71652181562708
 31
0.0
  0
LINE
  5
14143
  8
01
 10
-126.6312703224313
 20
-82.83042781522232
 30
0.0
 11
-263.6312703224313
 21
-82.83042781522232
 31
0.0
  0
LINE
  5
14144
  8
01
 10
-127.1312703224313
 20
-94.83042781522232
 30
0.0
 11
-263.1312703224313
 21
-94.83042781522232
 31
0.0
  0
ARC
  5
1414E
  8
01
 10
-126.6312703224313
 20
-83.83042781522232
 30
0.0
 40
1.0
 50
0.0
 51
90.0
  0
LINE
  5
1414F
  8
01
 10
-125.6312703224313
 20
-83.83042781522232
 30
0.0
 11
-125.6312703224313
 21
-89.83042781522232
 31
0.0
  0
POLYLINE
  5
14150
  8
01
 66
     1
 10
0.0
 20
0.0
 30
0.0
  0
VERTEX
  5
14D8E
  8
01
 10
-126.3812703224313
 20
-94.62946592089571
 30
0.0
  0
VERTEX
  5
14D8F
  8
01
 10
-126.3612143908285
 20
-94.61767987862184
 30
0.0
  0
VERTEX
  5
14D90
  8
01
 10
-126.3413961506511
 20
-94.60561914142039
 30
0.0
  0
VERTEX
  5
14D91
  8
01
 10
-126.3218163689472
 20
-94.59328649724215
 30
0.0
  0
VERTEX
  5
14D92
  8
01
 10
-126.3024758127652
 20
-94.58068473403786
 30
0.0
  0
VERTEX
  5
14D93
  8
01
 10
-126.2833752491533
 20
-94.56781663975835
 30
0.0
  0
VERTEX
  5
14D94
  8
01
 10
-126.2645154451597
 20
-94.55468500235435
 30
0.0
  0
VERTEX
  5
14D95
  8
01
 10
-126.2458971678326
 20
-94.54129260977665
 30
0.0
  0
VERTEX
  5
14D96
  8
01
 10
-126.2275211842202
 20
-94.52764224997604
 30
0.0
  0
VERTEX
  5
14D97
  8
01
 10
-126.2093882613709
 20
-94.51373671090329
 30
0.0
  0
VERTEX
  5
14D98
  8
01
 10
-126.1914991663328
 20
-94.49957878050917
 30
0.0
  0
VERTEX
  5
14D99
  8
01
 10
-126.1738546661542
 20
-94.48517124674446
 30
0.0
  0
VERTEX
  5
14D9A
  8
01
 10
-126.1564555278833
 20
-94.47051689755992
 30
0.0
  0
VERTEX
  5
14D9B
  8
01
 10
-126.1393025185683
 20
-94.45561852090636
 30
0.0
  0
VERTEX
  5
14D9C
  8
01
 10
-126.1223964052575
 20
-94.44047890473455
 30
0.0
  0
VERTEX
  5
14D9D
  8
01
 10
-126.1057379549991
 20
-94.42510083699523
 30
0.0
  0
VERTEX
  5
14D9E
  8
01
 10
-126.0893279348413
 20
-94.4094871056392
 30
0.0
  0
VERTEX
  5
14D9F
  8
01
 10
-126.0731671118324
 20
-94.39364049861726
 30
0.0
  0
VERTEX
  5
14DA0
  8
01
 10
-126.0572562530207
 20
-94.37756380388015
 30
0.0
  0
VERTEX
  5
14DA1
  8
01
 10
-126.0416220571784
 20
-94.36128908029838
 30
0.0
  0
VERTEX
  5
14DA2
  8
01
 10
-126.0262895913353
 20
-94.34484727579645
 30
0.0
  0
VERTEX
  5
14DA3
  8
01
 10
-126.011257174925
 20
-94.32823951190609
 30
0.0
  0
VERTEX
  5
14DA4
  8
01
 10
-125.9965231273816
 20
-94.31146691015904
 30
0.0
  0
VERTEX
  5
14DA5
  8
01
 10
-125.9820857681387
 20
-94.29453059208704
 30
0.0
  0
VERTEX
  5
14DA6
  8
01
 10
-125.9679434166303
 20
-94.27743167922186
 30
0.0
  0
VERTEX
  5
14DA7
  8
01
 10
-125.9540943922901
 20
-94.26017129309523
 30
0.0
  0
VERTEX
  5
14DA8
  8
01
 10
-125.9405370145522
 20
-94.24275055523887
 30
0.0
  0
VERTEX
  5
14DA9
  8
01
 10
-125.9272696028503
 20
-94.22517058718455
 30
0.0
  0
VERTEX
  5
14DAA
  8
01
 10
-125.9142904766182
 20
-94.20743251046402
 30
0.0
  0
VERTEX
  5
14DAB
  8
01
 10
-125.9015979552898
 20
-94.18953744660898
 30
0.0
  0
VERTEX
  5
14DAC
  8
01
 10
-125.8891903582989
 20
-94.17148651715124
 30
0.0
  0
VERTEX
  5
14DAD
  8
01
 10
-125.8770660050795
 20
-94.1532808436225
 30
0.0
  0
VERTEX
  5
14DAE
  8
01
 10
-125.8652232150653
 20
-94.13492154755451
 30
0.0
  0
VERTEX
  5
14DAF
  8
01
 10
-125.8536603076902
 20
-94.11640975047902
 30
0.0
  0
VERTEX
  5
14DB0
  8
01
 10
-125.842375602388
 20
-94.09774657392778
 30
0.0
  0
VERTEX
  5
14DB1
  8
01
 10
-125.8313674185927
 20
-94.07893313943251
 30
0.0
  0
VERTEX
  5
14DB2
  8
01
 10
-125.820634075738
 20
-94.05997056852499
 30
0.0
  0
VERTEX
  5
14DB3
  8
01
 10
-125.8101937795524
 20
-94.0408963199533
 30
0.0
  0
VERTEX
  5
14DB4
  8
01
 10
-125.8000646137156
 20
-94.02174698492259
 30
0.0
  0
VERTEX
  5
14DB5
  8
01
 10
-125.7902447145875
 20
-94.00252238365022
 30
0.0
  0
VERTEX
  5
14DB6
  8
01
 10
-125.7807322185285
 20
-93.98322233635349
 30
0.0
  0
VERTEX
  5
14DB7
  8
01
 10
-125.7715252618985
 20
-93.96384666324975
 30
0.0
  0
VERTEX
  5
14DB8
  8
01
 10
-125.7626219810578
 20
-93.94439518455633
 30
0.0
  0
VERTEX
  5
14DB9
  8
01
 10
-125.7540205123666
 20
-93.92486772049055
 30
0.0
  0
VERTEX
  5
14DBA
  8
01
 10
-125.7457189921849
 20
-93.90526409126974
 30
0.0
  0
VERTEX
  5
14DBB
  8
01
 10
-125.737715556873
 20
-93.88558411711125
 30
0.0
  0
VERTEX
  5
14DBC
  8
01
 10
-125.730008342791
 20
-93.86582761823239
 30
0.0
  0
VERTEX
  5
14DBD
  8
01
 10
-125.722595486299
 20
-93.8459944148505
 30
0.0
  0
VERTEX
  5
14DBE
  8
01
 10
-125.7154751237572
 20
-93.8260843271829
 30
0.0
  0
VERTEX
  5
14DBF
  8
01
 10
-125.7086453915258
 20
-93.80609717544694
 30
0.0
  0
VERTEX
  5
14DC0
  8
01
 10
-125.7021044259649
 20
-93.78603277985994
 30
0.0
  0
VERTEX
  5
14DC1
  8
01
 10
-125.6958503634347
 20
-93.76589096063923
 30
0.0
  0
VERTEX
  5
14DC2
  8
01
 10
-125.6898813402954
 20
-93.7456715380021
 30
0.0
  0
VERTEX
  5
14DC3
  8
01
 10
-125.684195492907
 20
-93.72537433216596
 30
0.0
  0
VERTEX
  5
14DC4
  8
01
 10
-125.6787909576297
 20
-93.70499916334808
 30
0.0
  0
VERTEX
  5
14DC5
  8
01
 10
-125.6736714438621
 20
-93.68454047869061
 30
0.0
  0
VERTEX
  5
14DC6
  8
01
 10
-125.668842095653
 20
-93.66399814232125
 30
0.0
  0
VERTEX
  5
14DC7
  8
01
 10
-125.6643032013385
 20
-93.64338009993557
 30
0.0
  0
VERTEX
  5
14DC8
  8
01
 10
-125.6600550492545
 20
-93.62269429722927
 30
0.0
  0
VERTEX
  5
14DC9
  8
01
 10
-125.6560979277371
 20
-93.6019486798979
 30
0.0
  0
VERTEX
  5
14DCA
  8
01
 10
-125.6524321251221
 20
-93.58115119363714
 30
0.0
  0
VERTEX
  5
14DCB
  8
01
 10
-125.6490579297456
 20
-93.56030978414259
 30
0.0
  0
VERTEX
  5
14DCC
  8
01
 10
-125.6459756299435
 20
-93.53943239710989
 30
0.0
  0
VERTEX
  5
14DCD
  8
01
 10
-125.6431855140519
 20
-93.51852697823466
 30
0.0
  0
VERTEX
  5
14DCE
  8
01
 10
-125.6406878704066
 20
-93.49760147321253
 30
0.0
  0
VERTEX
  5
14DCF
  8
01
 10
-125.6384829873437
 20
-93.47666382773913
 30
0.0
  0
VERTEX
  5
14DD0
  8
01
 10
-125.6365711531991
 20
-93.45572198751007
 30
0.0
  0
VERTEX
  5
14DD1
  8
01
 10
-125.6349526563088
 20
-93.43478389822101
 30
0.0
  0
VERTEX
  5
14DD2
  8
01
 10
-125.6336277850088
 20
-93.41385750556755
 30
0.0
  0
VERTEX
  5
14DD3
  8
01
 10
-125.6325968276351
 20
-93.39295075524534
 30
0.0
  0
VERTEX
  5
14DD4
  8
01
 10
-125.6318600725236
 20
-93.37207159294996
 30
0.0
  0
VERTEX
  5
14DD5
  8
01
 10
-125.6314178080104
 20
-93.35122796437709
 30
0.0
  0
VERTEX
  5
14DD6
  8
01
 10
-125.6312703224313
 20
-93.33042781522232
 30
0.0
  0
SEQEND
  5
14FDE
  8
01
  0
LINE
  5
14151
  8
01
 10
-125.6312703224313
 20
-89.83042781522232
 30
0.0
 11
-125.6312703224313
 21
-93.33042781522232
 31
0.0
  0
ARC
  5
14152
  8
01
 10
-127.1312703224313
 20
-93.33042781522232
 30
0.0
 40
1.500000000000028
 50
270.0
 51
300.0000000000595
  0
LINE
  5
14155
  8
01
 10
-264.6312702963543
 20
-180.8304288182276
 30
0.0000000000000006
 11
-264.6312702963543
 21
-94.97095078886782
 31
0.0000000000000006
  0
LINE
  5
14158
  8
01
 10
-125.6312702963542
 20
-94.97095078886782
 30
0.0000000000000006
 11
-125.6312702963542
 21
-180.8304288182276
 31
0.0000000000000006
  0
ARC
  5
14159
  8
01
 10
-126.6312703102085
 20
-94.97095078886784
 30
0.0000000000000003
 40
1.0
 50
0.0
 51
46.49052451815884
  0
ARC
  5
1415B
  8
01
 10
-263.6312703102085
 20
-94.97095078886784
 30
0.0000000000000003
 40
1.0
 50
133.5094765973265
 51
180.0
  0
ARC
  5
1415D
  8
01
 10
-263.6312703224313
 20
-83.83042781522232
 30
0.0
 40
1.0
 50
90.0
 51
180.0
  0
LINE
  5
1415E
  8
01
 10
-264.6312703224313
 20
-83.83042781522232
 30
0.0
 11
-264.6312703224313
 21
-89.83042781522232
 31
0.0
  0
POLYLINE
  5
1415F
  8
01
 66
     1
 10
0.0
 20
0.0
 30
0.0
  0
VERTEX
  5
14DD7
  8
01
 10
-263.8812703224313
 20
-94.62946592089571
 30
0.0
  0
VERTEX
  5
14DD8
  8
01
 10
-263.9013262540341
 20
-94.61767987862184
 30
0.0
  0
VERTEX
  5
14DD9
  8
01
 10
-263.9211444942115
 20
-94.60561914142039
 30
0.0
  0
VERTEX
  5
14DDA
  8
01
 10
-263.9407242759154
 20
-94.59328649724215
 30
0.0
  0
VERTEX
  5
14DDB
  8
01
 10
-263.9600648320974
 20
-94.58068473403786
 30
0.0
  0
VERTEX
  5
14DDC
  8
01
 10
-263.9791653957093
 20
-94.56781663975835
 30
0.0
  0
VERTEX
  5
14DDD
  8
01
 10
-263.9980251997029
 20
-94.55468500235435
 30
0.0
  0
VERTEX
  5
14DDE
  8
01
 10
-264.01664347703
 20
-94.54129260977665
 30
0.0
  0
VERTEX
  5
14DDF
  8
01
 10
-264.0350194606423
 20
-94.52764224997604
 30
0.0
  0
VERTEX
  5
14DE0
  8
01
 10
-264.0531523834917
 20
-94.51373671090329
 30
0.0
  0
VERTEX
  5
14DE1
  8
01
 10
-264.0710414785298
 20
-94.49957878050917
 30
0.0
  0
VERTEX
  5
14DE2
  8
01
 10
-264.0886859787084
 20
-94.48517124674446
 30
0.0
  0
VERTEX
  5
14DE3
  8
01
 10
-264.1060851169793
 20
-94.47051689755992
 30
0.0
  0
VERTEX
  5
14DE4
  8
01
 10
-264.1232381262944
 20
-94.45561852090636
 30
0.0
  0
VERTEX
  5
14DE5
  8
01
 10
-264.1401442396051
 20
-94.44047890473455
 30
0.0
  0
VERTEX
  5
14DE6
  8
01
 10
-264.1568026898635
 20
-94.42510083699523
 30
0.0
  0
VERTEX
  5
14DE7
  8
01
 10
-264.1732127100213
 20
-94.4094871056392
 30
0.0
  0
VERTEX
  5
14DE8
  8
01
 10
-264.1893735330302
 20
-94.39364049861726
 30
0.0
  0
VERTEX
  5
14DE9
  8
01
 10
-264.2052843918419
 20
-94.37756380388015
 30
0.0
  0
VERTEX
  5
14DEA
  8
01
 10
-264.2209185876842
 20
-94.36128908029838
 30
0.0
  0
VERTEX
  5
14DEB
  8
01
 10
-264.2362510535273
 20
-94.34484727579645
 30
0.0
  0
VERTEX
  5
14DEC
  8
01
 10
-264.2512834699376
 20
-94.32823951190609
 30
0.0
  0
VERTEX
  5
14DED
  8
01
 10
-264.266017517481
 20
-94.31146691015904
 30
0.0
  0
VERTEX
  5
14DEE
  8
01
 10
-264.2804548767239
 20
-94.29453059208704
 30
0.0
  0
VERTEX
  5
14DEF
  8
01
 10
-264.2945972282323
 20
-94.27743167922186
 30
0.0
  0
VERTEX
  5
14DF0
  8
01
 10
-264.3084462525724
 20
-94.26017129309523
 30
0.0
  0
VERTEX
  5
14DF1
  8
01
 10
-264.3220036303103
 20
-94.24275055523887
 30
0.0
  0
VERTEX
  5
14DF2
  8
01
 10
-264.3352710420123
 20
-94.22517058718455
 30
0.0
  0
VERTEX
  5
14DF3
  8
01
 10
-264.3482501682445
 20
-94.20743251046402
 30
0.0
  0
VERTEX
  5
14DF4
  8
01
 10
-264.3609426895728
 20
-94.18953744660898
 30
0.0
  0
VERTEX
  5
14DF5
  8
01
 10
-264.3733502865637
 20
-94.17148651715124
 30
0.0
  0
VERTEX
  5
14DF6
  8
01
 10
-264.3854746397831
 20
-94.1532808436225
 30
0.0
  0
VERTEX
  5
14DF7
  8
01
 10
-264.3973174297973
 20
-94.13492154755451
 30
0.0
  0
VERTEX
  5
14DF8
  8
01
 10
-264.4088803371724
 20
-94.11640975047902
 30
0.0
  0
VERTEX
  5
14DF9
  8
01
 10
-264.4201650424745
 20
-94.09774657392778
 30
0.0
  0
VERTEX
  5
14DFA
  8
01
 10
-264.4311732262698
 20
-94.07893313943251
 30
0.0
  0
VERTEX
  5
14DFB
  8
01
 10
-264.4419065691246
 20
-94.05997056852499
 30
0.0
  0
VERTEX
  5
14DFC
  8
01
 10
-264.4523468653102
 20
-94.0408963199533
 30
0.0
  0
VERTEX
  5
14DFD
  8
01
 10
-264.4624760311469
 20
-94.02174698492259
 30
0.0
  0
VERTEX
  5
14DFE
  8
01
 10
-264.472295930275
 20
-94.00252238365022
 30
0.0
  0
VERTEX
  5
14DFF
  8
01
 10
-264.4818084263341
 20
-93.98322233635349
 30
0.0
  0
VERTEX
  5
14E00
  8
01
 10
-264.4910153829641
 20
-93.96384666324975
 30
0.0
  0
VERTEX
  5
14E01
  8
01
 10
-264.4999186638047
 20
-93.94439518455633
 30
0.0
  0
VERTEX
  5
14E02
  8
01
 10
-264.508520132496
 20
-93.92486772049055
 30
0.0
  0
VERTEX
  5
14E03
  8
01
 10
-264.5168216526777
 20
-93.90526409126974
 30
0.0
  0
VERTEX
  5
14E04
  8
01
 10
-264.5248250879896
 20
-93.88558411711125
 30
0.0
  0
VERTEX
  5
14E05
  8
01
 10
-264.5325323020716
 20
-93.86582761823239
 30
0.0
  0
VERTEX
  5
14E06
  8
01
 10
-264.5399451585636
 20
-93.8459944148505
 30
0.0
  0
VERTEX
  5
14E07
  8
01
 10
-264.5470655211054
 20
-93.8260843271829
 30
0.0
  0
VERTEX
  5
14E08
  8
01
 10
-264.5538952533367
 20
-93.80609717544694
 30
0.0
  0
VERTEX
  5
14E09
  8
01
 10
-264.5604362188977
 20
-93.78603277985994
 30
0.0
  0
VERTEX
  5
14E0A
  8
01
 10
-264.5666902814278
 20
-93.76589096063923
 30
0.0
  0
VERTEX
  5
14E0B
  8
01
 10
-264.5726593045673
 20
-93.7456715380021
 30
0.0
  0
VERTEX
  5
14E0C
  8
01
 10
-264.5783451519556
 20
-93.72537433216596
 30
0.0
  0
VERTEX
  5
14E0D
  8
01
 10
-264.5837496872329
 20
-93.70499916334808
 30
0.0
  0
VERTEX
  5
14E0E
  8
01
 10
-264.5888692010005
 20
-93.68454047869061
 30
0.0
  0
VERTEX
  5
14E0F
  8
01
 10
-264.5936985492096
 20
-93.66399814232125
 30
0.0
  0
VERTEX
  5
14E10
  8
01
 10
-264.5982374435241
 20
-93.64338009993557
 30
0.0
  0
VERTEX
  5
14E11
  8
01
 10
-264.6024855956081
 20
-93.62269429722927
 30
0.0
  0
VERTEX
  5
14E12
  8
01
 10
-264.6064427171255
 20
-93.6019486798979
 30
0.0
  0
VERTEX
  5
14E13
  8
01
 10
-264.6101085197405
 20
-93.58115119363714
 30
0.0
  0
VERTEX
  5
14E14
  8
01
 10
-264.613482715117
 20
-93.56030978414259
 30
0.0
  0
VERTEX
  5
14E15
  8
01
 10
-264.616565014919
 20
-93.53943239710989
 30
0.0
  0
VERTEX
  5
14E16
  8
01
 10
-264.6193551308107
 20
-93.51852697823466
 30
0.0
  0
VERTEX
  5
14E17
  8
01
 10
-264.621852774456
 20
-93.49760147321253
 30
0.0
  0
VERTEX
  5
14E18
  8
01
 10
-264.6240576575189
 20
-93.47666382773913
 30
0.0
  0
VERTEX
  5
14E19
  8
01
 10
-264.6259694916635
 20
-93.45572198751007
 30
0.0
  0
VERTEX
  5
14E1A
  8
01
 10
-264.6275879885538
 20
-93.43478389822101
 30
0.0
  0
VERTEX
  5
14E1B
  8
01
 10
-264.6289128598538
 20
-93.41385750556755
 30
0.0
  0
VERTEX
  5
14E1C
  8
01
 10
-264.6299438172275
 20
-93.39295075524534
 30
0.0
  0
VERTEX
  5
14E1D
  8
01
 10
-264.6306805723389
 20
-93.37207159294996
 30
0.0
  0
VERTEX
  5
14E1E
  8
01
 10
-264.6311228368522
 20
-93.35122796437709
 30
0.0
  0
VERTEX
  5
14E1F
  8
01
 10
-264.6312703224313
 20
-93.33042781522232
 30
0.0
  0
SEQEND
  5
14FDF
  8
01
  0
LINE
  5
14160
  8
01
 10
-264.6312703224313
 20
-89.83042781522232
 30
0.0
 11
-264.6312703224313
 21
-93.33042781522232
 31
0.0
  0
ARC
  5
14161
  8
01
 10
-263.1312703224313
 20
-93.33042781522232
 30
0.0
 40
1.500000000000028
 50
239.9999999999405
 51
270.0
  0
ARC
  5
1424D
  8
01
 10
-133.231270296331
 20
29.88347818437875
 30
0.0
 40
2.6
 50
0.0
 51
90.0
  0
ARC
  5
1424E
  8
01
 10
-133.231270296331
 20
-30.91652181560962
 30
0.0
 40
2.6
 50
270.0
 51
0.0
  0
ARC
  5
1424F
  8
01
 10
-257.0312702963193
 20
-30.91652181560962
 30
0.0
 40
2.6
 50
180.0
 51
270.0
  0
ARC
  5
14250
  8
01
 10
-257.0312702963193
 20
29.88347818437875
 30
0.0
 40
2.6
 50
90.0
 51
180.0
  0
LINE
  5
142F3
  8
01
 10
-130.6312712686045
 20
-168.2301171583077
 30
0.0000000000025219
 11
-259.631269376258
 21
-168.2301171583077
 31
0.000000000000085
  0
LINE
  5
142F4
  8
01
 10
-130.6312712686045
 20
-166.8337698006029
 30
-0.0000000000000006
 11
-259.631269376258
 21
-166.8337698006029
 31
-0.0000000000000006
  0
POLYLINE
  5
142F5
  8
01
 66
     1
 10
0.0
 20
0.0
 30
-0.0000000000000006
  0
VERTEX
  5
14E20
  8
01
 10
-130.6312712686045
 20
-166.8337698006029
 30
-0.0000000000000006
  0
VERTEX
  5
14E21
  8
01
 10
-129.6558194739346
 20
-166.7588180829418
 30
-0.0000000000000006
  0
VERTEX
  5
14E22
  8
01
 10
-128.7178537446943
 20
-166.5368432824347
 30
-0.0000000000000006
  0
VERTEX
  5
14E23
  8
01
 10
-127.8534195778408
 20
-166.1763757661803
 30
-0.0000000000000006
  0
VERTEX
  5
14E24
  8
01
 10
-127.0957366936262
 20
-165.6912680986756
 30
-0.0000000000000006
  0
VERTEX
  5
14E25
  8
01
 10
-126.4739224203775
 20
-165.1001626955315
 30
-0.0000000000000006
  0
VERTEX
  5
14E26
  8
01
 10
-126.011872731898
 20
-164.4257754058949
 30
-0.0000000000000006
  0
VERTEX
  5
14E27
  8
01
 10
-125.7273439385955
 20
-163.6940225551058
 30
-0.0000000000000006
  0
VERTEX
  5
14E28
  8
01
 10
-125.6312703224312
 20
-162.9330249948484
 30
-0.0000000000000006
  0
SEQEND
  5
14FE0
  8
01
  0
POLYLINE
  5
142F6
  8
01
 66
     1
 10
0.0
 20
0.0
 30
-0.0000000000000006
  0
VERTEX
  5
14E29
  8
01
 10
-259.631269376258
 20
-166.8337698006029
 30
-0.0000000000000006
  0
VERTEX
  5
14E2A
  8
01
 10
-260.6067211709279
 20
-166.7588180829418
 30
-0.0000000000000006
  0
VERTEX
  5
14E2B
  8
01
 10
-261.5446869001684
 20
-166.5368432824347
 30
-0.0000000000000006
  0
VERTEX
  5
14E2C
  8
01
 10
-262.4091210670218
 20
-166.1763757661803
 30
-0.0000000000000006
  0
VERTEX
  5
14E2D
  8
01
 10
-263.1668039512363
 20
-165.6912680986756
 30
-0.0000000000000006
  0
VERTEX
  5
14E2E
  8
01
 10
-263.7886182244851
 20
-165.1001626955315
 30
-0.0000000000000006
  0
VERTEX
  5
14E2F
  8
01
 10
-264.2506679129646
 20
-164.4257754058949
 30
-0.0000000000000006
  0
VERTEX
  5
14E30
  8
01
 10
-264.535196706267
 20
-163.6940225551058
 30
-0.0000000000000006
  0
VERTEX
  5
14E31
  8
01
 10
-264.6312703224314
 20
-162.9330249948484
 30
-0.0000000000000006
  0
SEQEND
  5
14FE1
  8
01
  0
POLYLINE
  5
142F7
  8
01
 66
     1
 10
0.0
 20
0.0
 30
0.0000000000026069
  0
VERTEX
  5
14E32
  8
01
 10
-130.6312712686045
 20
-168.2301171583077
 30
0.0000000000026069
  0
VERTEX
  5
14E33
  8
01
 10
-129.6558194525135
 20
-168.1551654384458
 30
0.0000000000026069
  0
VERTEX
  5
14E34
  8
01
 10
-128.7178537037758
 20
-167.9331906315054
 30
0.0000000000026069
  0
VERTEX
  5
14E35
  8
01
 10
-127.8534195211567
 20
-167.5727231050829
 30
0.0000000000026069
  0
VERTEX
  5
14E36
  8
01
 10
-127.0957366264894
 20
-167.0876154244728
 30
0.0000000000026069
  0
VERTEX
  5
14E37
  8
01
 10
-126.4739223493574
 20
-166.496510006337
 30
0.0000000000026069
  0
VERTEX
  5
14E38
  8
01
 10
-126.0118726644152
 20
-165.8221227010657
 30
0.0000000000026069
  0
VERTEX
  5
14E39
  8
01
 10
-125.7273438824559
 20
-165.0903698353607
 30
0.0000000000026069
  0
VERTEX
  5
14E3A
  8
01
 10
-125.6312702853258
 20
-164.3293722623049
 30
0.0000000000026069
  0
SEQEND
  5
14FE2
  8
01
  0
POLYLINE
  5
142F8
  8
01
 66
     1
 10
0.0
 20
0.0
 30
0.0000000000026069
  0
VERTEX
  5
14E3B
  8
01
 10
-259.631269376258
 20
-168.2301171583077
 30
0.0000000000026069
  0
VERTEX
  5
14E3C
  8
01
 10
-260.6067211923491
 20
-168.1551654384458
 30
0.0000000000026069
  0
VERTEX
  5
14E3D
  8
01
 10
-261.5446869410868
 20
-167.9331906315054
 30
0.0000000000026069
  0
VERTEX
  5
14E3E
  8
01
 10
-262.4091211237059
 20
-167.5727231050829
 30
0.0000000000026069
  0
VERTEX
  5
14E3F
  8
01
 10
-263.1668040183732
 20
-167.0876154244728
 30
0.0000000000026069
  0
VERTEX
  5
14E40
  8
01
 10
-263.7886182955052
 20
-166.496510006337
 30
0.0000000000026069
  0
VERTEX
  5
14E41
  8
01
 10
-264.2506679804474
 20
-165.8221227010657
 30
0.0000000000026069
  0
VERTEX
  5
14E42
  8
01
 10
-264.5351967624067
 20
-165.0903698353607
 30
0.0000000000026069
  0
VERTEX
  5
14E43
  8
01
 10
-264.6312703595368
 20
-164.3293722623049
 30
0.0000000000026069
  0
SEQEND
  5
14FE3
  8
01
  0
LINE
  5
142FA
  8
01
 10
-133.6313014901493
 20
-173.5567133947784
 30
0.0000000000000004
 11
-133.6313014901493
 21
-168.2301171583077
 31
0.0000000000000004
  0
ARC
  5
142FB
  8
01
 10
-252.6313014901494
 20
-173.5567133947784
 30
0.0000000000000004
 40
2.0
 50
180.0
 51
270.0
  0
ARC
  5
142FC
  8
01
 10
-135.6313014901493
 20
-173.5567133947784
 30
0.0000000000000004
 40
2.0
 50
270.0
 51
0.0
  0
LINE
  5
142FD
  8
01
 10
-252.6313014901494
 20
-175.5567133947784
 30
0.0000000000000004
 11
-135.6313014901493
 21
-175.5567133947784
 31
0.0000000000000004
  0
LINE
  5
142FE
  8
01
 10
-254.6313014901494
 20
-168.2301171583077
 30
0.0000000000000004
 11
-254.6313014901494
 21
-173.5567133947784
 31
0.0000000000000004
  0
LINE
  5
14305
  8
1PHANTOM
 10
-137.1313014901498
 20
-134.056712016421
 30
0.0000000000000003
 11
-251.1313014901488
 21
-134.056712016421
 31
0.0000000000000006
  0
LINE
  5
14308
  8
1PHANTOM
 10
-137.1313014901498
 20
-254.056712016421
 30
0.0
 11
-251.1313014901488
 21
-254.056712016421
 31
0.0000000000000006
  0
LINE
  5
14311
  8
1PHANTOM
 10
-251.1313014901488
 20
-134.056712016421
 30
0.0000000000000006
 11
-251.1313014901488
 21
-254.056712016421
 31
0.0000000000000006
  0
LINE
  5
14312
  8
1PHANTOM
 10
-137.1313014901498
 20
-134.056712016421
 30
0.0000000000000003
 11
-137.1313014901498
 21
-254.056712016421
 31
0.0
  0
CIRCLE
  5
1431C
  8
1PHANTOM
 10
-210.1312703224313
 20
-119.8304278152223
 30
0.0000000000000006
 40
2.25
  0
CIRCLE
  5
1431D
  8
1PHANTOM
 10
-180.1312703224313
 20
-119.8304278152223
 30
0.0000000000000006
 40
2.25
  0
LINE
  5
146BE
  8
01
 10
47.04266883225267
 20
-76.60225560829758
 30
0.0000000000000006
 11
47.04266883225267
 21
-151.0586027788613
 31
0.0000000000000006
  0
LINE
  5
146BF
  8
01
 10
56.04266883225267
 20
-76.60225560829758
 30
0.0000000000000006
 11
56.04266883225267
 21
-151.0586027788613
 31
0.0000000000000006
  0
LINE
  5
146C0
  8
01
 10
34.54266883225267
 20
-76.60225560829758
 30
0.0000000000000006
 11
34.54266883225267
 21
-151.0586027788613
 31
0.0000000000000006
  0
LINE
  5
146C1
  8
1PHANTOM
 10
29.54266817660158
 20
-123.630429196684
 30
0.0000000000000006
 11
30.54266817660158
 21
-123.630429196684
 31
0.0000000000000006
  0
LINE
  5
146C2
  8
1PHANTOM
 10
30.54266817660158
 20
-123.630429196684
 30
0.0000000000000006
 11
30.54266817660158
 21
-116.0304291966841
 31
0.0000000000000006
  0
LINE
  5
146C3
  8
1PHANTOM
 10
29.54266817660158
 20
-123.630429196684
 30
0.0000000000000006
 11
29.54266817660158
 21
-116.0304291966841
 31
0.0000000000000006
  0
LINE
  5
146C4
  8
1PHANTOM
 10
29.54266817660158
 20
-116.0304291966841
 30
0.0000000000000006
 11
30.54266817660158
 21
-116.0304291966841
 31
0.0000000000000006
  0
LINE
  5
146C6
  8
01
 10
29.54266817660158
 20
-120.330429046684
 30
0.0000000000000006
 11
30.54266817660158
 21
-119.330429346684
 31
0.0000000000000006
  0
LINE
  5
146FF
  8
01
 10
-48.95733041896398
 20
-105.0696314970797
 30
0.0
 11
-48.95733041896398
 21
-106.9304288090366
 31
0.0
  0
ARC
  5
14700
  8
01
 10
-48.45733043456363
 20
-106.9304288189901
 30
0.0
 40
0.5
 50
180.0
 51
270.0
  0
LINE
  5
14701
  8
01
 10
-37.95733047856862
 20
-107.4304288182334
 30
0.0
 11
-48.45733033700759
 21
-107.4304288182334
 31
0.0
  0
LINE
  5
14702
  8
01
 10
34.54266883225279
 20
-86.83042919357966
 30
0.0
 11
34.54266883225279
 21
-144.8304278152223
 31
0.0
  0
LINE
  5
14703
  8
01
 10
-37.95733047856862
 20
-110.9304288244034
 30
0.0
 11
-37.95733047856862
 21
-107.4304288182334
 31
0.0
  0
ARC
  5
14704
  8
01
 10
-37.45733043456363
 20
-110.9304288189901
 30
0.0
 40
0.5
 50
180.0
 51
270.0
  0
LINE
  5
14705
  8
01
 10
-35.95733061640436
 20
-111.4304286735291
 30
0.0
 11
-37.45733039661224
 21
-111.4304286735291
 31
0.0
  0
LINE
  5
14706
  8
01
 10
-31.90737754314108
 20
-109.000457085685
 30
0.0
 11
-35.95733061640436
 21
-111.4304286735291
 31
0.0
  0
ARC
  5
14707
  8
01
 10
-29.84939457479999
 20
-112.4304288189901
 30
0.0
 40
4.0
 50
90.0
 51
120.9637565312516
  0
LINE
  5
14708
  8
01
 10
12.86469794602232
 20
-108.4304288220751
 30
0.0
 11
-29.84939493446512
 21
-108.4304288220751
 31
0.0
  0
ARC
  5
14709
  8
01
 10
12.8646990856119
 20
-112.4304288189901
 30
0.0
 40
4.000000000000008
 50
22.39596698810639
 51
90.0
  0
LINE
  5
1470A
  8
01
 10
17.92495347351866
 20
-114.2114342497821
 30
0.0
 11
16.56299106569128
 21
-110.9064076868976
 31
0.0
  0
ARC
  5
1470B
  8
01
 10
31.21216218536352
 20
-143.8304288190134
 30
0.0
 40
1.000000000000002
 50
202.3959669893456
 51
270.0
  0
LINE
  5
1470C
  8
01
 10
34.54266883225279
 20
-144.8304278152223
 30
0.0
 11
31.21216244788008
 21
-144.8304278152223
 31
0.0
  0
LINE
  5
1470D
  8
01
 10
30.28759009928541
 20
-144.2114335792298
 30
0.0
 11
22.87000812382536
 21
-126.2114343540902
 31
0.0
  0
LINE
  5
14712
  8
01
 10
-28.95733012547367
 20
-86.83042919357968
 30
0.0
 11
-39.45733049160714
 21
-97.93042925467444
 31
0.0
  0
LINE
  5
14715
  8
01
 10
-39.45733049160714
 20
-97.93042925467444
 30
0.0
 11
-41.8866157932361
 21
-97.93042925467444
 31
0.0
  0
LINE
  5
14716
  8
01
 10
-99.2019704658357
 20
-165.4856680107445
 30
0.0
 11
-47.9154893296589
 21
-94.59175534774784
 31
0.0
  0
ARC
  5
14717
  8
01
 10
-98.3917543211158
 20
-166.0717992237294
 30
0.0
 40
1.0
 50
144.1170547171014
 51
234.1170547171036
  0
LINE
  5
14718
  8
01
 10
-98.97788553410072
 20
-166.8820153684493
 30
0.0
 11
-97.11438840125427
 21
-168.2301171583077
 31
0.0
  0
LINE
  5
14719
  8
01
 10
-44.84870891947554
 20
-94.95898540569988
 30
0.0
 11
-45.82096829310177
 21
-94.25562795014525
 31
0.0
  0
ARC
  5
1471A
  8
01
 10
-45.02454828336414
 20
-95.20205024910638
 30
0.0
 40
0.2999999999999972
 50
324.1170547171269
 51
54.11705471711173
  0
ARC
  5
1471B
  8
01
 10
-46.70016511257899
 20
-95.47095216722516
 30
0.0
 40
1.5
 50
54.11705471710949
 51
144.1170547171095
  0
ARC
  5
1471C
  8
01
 10
-45.45733043456363
 20
-101.4304288189901
 30
0.0
 40
5.0
 50
44.42699700980307
 51
54.11705471710439
  0
LINE
  5
1471D
  8
01
 10
-42.52667436963912
 20
-97.37934809539024
 30
0.0
 11
-44.95732280379906
 21
-95.6209544564357
 31
0.0
  0
ARC
  5
1471F
  8
01
 10
-45.45733043456363
 20
-101.4304288189901
 30
0.0
 40
5.0
 50
234.1170547171062
 51
315.5729959991943
  0
LINE
  5
14720
  8
01
 10
-50.81863493364784
 20
-103.7231159036353
 30
0.0
 11
-48.38798649948791
 21
-105.4815095425899
 31
0.0
  0
LINE
  5
14721
  8
01
 10
-44.78148343991046
 20
-95.37788961302908
 30
0.0
 11
-91.49614111508805
 21
-159.9521163476012
 31
0.0
  0
LINE
  5
14722
  8
01
 10
-51.45732842593367
 20
-89.83042919357968
 30
0.0
 11
-51.45732842593367
 21
-94.33042919357968
 31
0.0
  0
ARC
  5
14723
  8
01
 10
-50.95732842593367
 20
-94.33042919357968
 30
0.0
 40
0.5
 50
180.0
 51
270.0
  0
LINE
  5
14724
  8
01
 10
-50.95732842593367
 20
-94.83042919357968
 30
0.0
 11
-50.81736573924223
 21
-94.83042919357968
 31
0.0
  0
ARC
  5
14725
  8
01
 10
-50.81736573924223
 20
-93.83042919357968
 30
0.0
 40
1.0
 50
270.0
 51
305.1940951021271
  0
ARC
  5
14726
  8
01
 10
-45.45732842593367
 20
-101.4304291935855
 30
0.0
 40
8.30000000000002
 50
108.8190633690647
 51
125.1940951004916
  0
ARC
  5
14727
  8
01
 10
-48.45732842593367
 20
-92.62758874292331
 30
0.0
 40
1.0
 50
288.8190633682822
 51
0.0
  0
ARC
  5
14728
  8
01
 10
-44.45732842593367
 20
-89.83042919357968
 30
0.0
 40
3.0
 50
90.0
 51
180.0
  0
ARC
  5
14729
  8
01
 10
-34.15732842594531
 20
-88.83042919357968
 30
0.0
 40
2.0
 50
0.0
 51
90.0
  0
LINE
  5
1472A
  8
01
 10
-32.1573284259452
 20
-88.83042919357968
 30
0.0
 11
-32.1573284259452
 21
-90.21328444045218
 31
0.0
  0
ARC
  5
1472B
  8
01
 10
34.04267157406645
 20
-86.33042919357968
 30
0.0
 40
0.5
 50
270.0
 51
0.0
  0
LINE
  5
1472C
  8
01
 10
34.54267157406645
 20
-86.33042919357968
 30
0.0
 11
34.54267157406645
 21
-83.83042919357968
 31
0.0
  0
ARC
  5
1472D
  8
01
 10
33.54267157406645
 20
-83.83042919357968
 30
0.0
 40
1.0
 50
0.0
 51
90.0
  0
LINE
  5
1472E
  8
01
 10
-47.45732842593367
 20
-92.62758874292331
 30
0.0
 11
-47.45732842593367
 21
-89.83042919357968
 31
0.0
  0
ARC
  5
1472F
  8
01
 10
-44.45732842593367
 20
-89.83042919357968
 30
0.0
 40
7.000000000000028
 50
90.0
 51
180.0
  0
LINE
  5
14730
  8
01
 10
33.54267157406645
 20
-82.83042919357968
 30
0.0
 11
-44.45732842593367
 21
-82.83042919357968
 31
0.0
  0
LINE
  5
14731
  8
01
 10
-44.45732842593367
 20
-86.83042919357968
 30
0.0
 11
34.54266883225279
 21
-86.83042919357968
 31
0.0
  0
ARC
  5
14732
  8
01
 10
-38.95733044166496
 20
-184.8304288182276
 30
0.0
 40
1.0
 50
270.0
 51
0.0
  0
ARC
  5
14733
  8
01
 10
-46.95733044166496
 20
-184.8304288182276
 30
0.0
 40
1.0
 50
180.0
 51
270.0
  0
LINE
  5
14734
  8
01
 10
-38.95733044166496
 20
-185.8304288182276
 30
0.0
 11
-46.95733044166496
 21
-185.8304288182276
 31
0.0
  0
ARC
  5
14737
  8
01
 10
-46.95733044166496
 20
-108.4304288182334
 30
0.0
 40
1.0
 50
90.0
 51
180.0
  0
ARC
  5
14738
  8
01
 10
-46.95733044166496
 20
-116.4304288182334
 30
0.0
 40
1.0
 50
180.0
 51
270.0
  0
LINE
  5
14739
  8
01
 10
-38.95733044166496
 20
-117.4304288182334
 30
0.0
 11
-46.95733044166496
 21
-117.4304288182334
 31
0.0
  0
ARC
  5
1473A
  8
01
 10
-38.95733044166496
 20
-108.4304288182334
 30
0.0
 40
1.0
 50
0.0
 51
90.0
  0
ARC
  5
1473B
  8
01
 10
-38.95733044166496
 20
-116.4304288182334
 30
0.0
 40
1.0
 50
270.0
 51
0.0
  0
LINE
  5
14742
  8
01
 10
-37.95733044166496
 20
-184.8304288182276
 30
0.0
 11
-37.95733044166496
 21
-110.9304288244034
 31
0.0
  0
LINE
  5
14743
  8
01
 10
-47.95733044166496
 20
-108.4304288182334
 30
0.0
 11
-47.95733044166496
 21
-184.8304288182276
 31
0.0
  0
ARC
  5
14744
  8
01
 10
-39.55733033809025
 20
-102.4549386220619
 30
0.0
 40
5.624509803848124
 50
79.26703502612965
 51
119.2610063923462
  0
CIRCLE
  5
14745
  8
1PHANTOM
 10
-42.95733044166496
 20
-194.0567133947784
 30
0.0
 40
18.5
  0
CIRCLE
  5
14746
  8
1PHANTOM
 10
-42.95733044166496
 20
-194.0567133947784
 30
0.0
 40
60.0
  0
LINE
  5
1475A
  8
01
 10
-91.49614111508805
 20
-159.9521163476012
 30
0.0
 11
-97.11438840125419
 21
-168.2301171583077
 31
0.0
  0
ARC
  5
147A6
  8
01
 10
-42.95733044166496
 20
-165.6304288182305
 30
0.0
 40
5.0
 50
0.0
 51
180.0
  0
LINE
  5
147AB
  8
01
 10
-31.45733043456363
 20
-105.4304288189901
 30
0.0
 11
-31.95733043456363
 21
-105.4304288189901
 31
0.0
  0
ARC
  5
147AC
  8
01
 10
-31.45733043456363
 20
-104.9304288189901
 30
0.0
 40
0.5
 50
270.0
 51
0.0
  0
LINE
  5
147AD
  8
01
 10
-31.95733043456363
 20
-105.4304288189901
 30
0.0
 11
-35.45733043456363
 21
-105.4304288189901
 31
0.0
  0
LINE
  5
147AE
  8
01
 10
-35.45733043456363
 20
-105.4304288189901
 30
0.0
 11
-35.95733043456363
 21
-104.9304288189901
 31
0.0
  0
LINE
  5
147AF
  8
01
 10
-30.95733043456363
 20
-97.9304288189901
 30
0.0
 11
-30.95733043456363
 21
-104.9304288189901
 31
0.0
  0
LINE
  5
147B0
  8
01
 10
-35.95733043456363
 20
-104.9304288189901
 30
0.0
 11
-45.45733043456363
 21
-104.9304288189901
 31
0.0
  0
ARC
  5
147B1
  8
01
 10
-45.45733043456363
 20
-101.4304288189901
 30
0.0
 40
3.5
 50
90.0
 51
113.11433558323
  0
LINE
  5
147B2
  8
01
 10
-45.45733043456363
 20
-97.9304288189901
 30
0.0
 11
-35.95733043456363
 21
-97.9304288189901
 31
0.0
  0
LINE
  5
147B3
  8
01
 10
-35.95733043456363
 20
-97.9304288189901
 30
0.0
 11
-35.45733043456363
 21
-97.4304288189901
 31
0.0
  0
LINE
  5
147B4
  8
01
 10
-31.95733043456363
 20
-97.4304288189901
 30
0.0
 11
-31.45733043456363
 21
-97.4304288189901
 31
0.0
  0
ARC
  5
147B5
  8
01
 10
-31.45733043456363
 20
-97.9304288189901
 30
0.0
 40
0.5
 50
0.0
 51
90.0
  0
LINE
  5
147B6
  8
01
 10
-35.45733043456363
 20
-97.4304288189901
 30
0.0
 11
-31.95733043456363
 21
-97.4304288189901
 31
0.0
  0
LINE
  5
147B7
  8
01
 10
-17.45733043456363
 20
-105.4304288189901
 30
0.0
 11
-18.95733043456363
 21
-105.4304288189901
 31
0.0
  0
ARC
  5
147B8
  8
01
 10
-18.95733043456363
 20
-104.9304288189901
 30
0.0
 40
0.5
 50
180.0
 51
270.0
  0
ARC
  5
147B9
  8
01
 10
-17.45733043456363
 20
-103.9304288189901
 30
0.0
 40
1.500000000000014
 50
270.0
 51
0.0
  0
ARC
  5
147BA
  8
01
 10
-23.45733043456363
 20
-101.4304288189901
 30
0.0
 40
5.199999999999998
 50
322.1363536383265
 51
37.86364636179898
  0
ARC
  5
147BB
  8
01
 10
-18.95733043456363
 20
-104.9289999558982
 30
0.0
 40
0.500000000000009
 50
142.1363536375909
 51
180.0
  0
LINE
  5
147BC
  8
01
 10
-19.45733043456363
 20
-104.9304288189901
 30
0.0
 11
-19.45733043456363
 21
-104.9289999558982
 31
0.0
  0
LINE
  5
147BD
  8
01
 10
-15.95733043456363
 20
-98.9304288189901
 30
0.0
 11
-15.95733043456363
 21
-103.9304288189901
 31
0.0
  0
ARC
  5
147BE
  8
01
 10
-17.45733043456363
 20
-98.9304288189901
 30
0.0
 40
1.500000000000014
 50
0.0
 51
90.0
  0
ARC
  5
147BF
  8
01
 10
-18.95733043456363
 20
-97.93185768208195
 30
0.0
 40
0.5000000000000264
 50
180.0
 51
217.86364636111
  0
LINE
  5
147C0
  8
01
 10
-19.45733043456363
 20
-97.93185768208195
 30
0.0
 11
-19.45733043456363
 21
-97.9304288189901
 31
0.0
  0
LINE
  5
147C1
  8
01
 10
-18.95733043456363
 20
-97.4304288189901
 30
0.0
 11
-17.45733043456363
 21
-97.4304288189901
 31
0.0
  0
ARC
  5
147C2
  8
01
 10
-18.95733043456363
 20
-97.9304288189901
 30
0.0
 40
0.5
 50
90.0
 51
180.0
  0
LINE
  5
147C3
  8
01
 10
-29.45733043456363
 20
-105.4304288189901
 30
0.0
 11
-31.45733043456363
 21
-105.4304288189901
 31
0.0
  0
LINE
  5
147C4
  8
01
 10
-31.45733043456363
 20
-97.4304288189901
 30
0.0
 11
-29.45733043456363
 21
-97.4304288189901
 31
0.0
  0
LINE
  5
147C5
  8
01
 10
-18.95733043456363
 20
-105.4304288189901
 30
0.0
 11
-29.45733043456363
 21
-105.4304288189901
 31
0.0
  0
LINE
  5
147C7
  8
01
 10
-29.45733043456363
 20
-97.4304288189901
 30
0.0
 11
-18.95733043456363
 21
-97.4304288189901
 31
0.0
  0
LINE
  5
14814
  8
01
 10
-130.6312703224313
 20
-185.8304288182276
 30
0.0
 11
-259.6312703224312
 21
-185.8304288182276
 31
0.0
  0
ARC
  5
149C8
  8
01
 10
-130.6312703224313
 20
-180.8304288182276
 30
0.0
 40
5.000000000000014
 50
270.0
 51
0.0
  0
ARC
  5
149CC
  8
01
 10
-259.6312703224312
 20
-180.8304288182276
 30
0.0
 40
5.000000000000012
 50
180.0
 51
270.0
  0
ARC
  5
149CD
  8
01
 10
-45.45733043456363
 20
-101.4304288189901
 30
0.0
 40
3.5
 50
175.1197738509793
 51
270.0
  0
TEXT
  5
14AD4
  8
1TEXT
 10
-21.92435911779368
 20
8.520347238128158
 30
0.0
 40
4.0
  1
ブラック
 72
     1
 11
-12.92435911779368
 21
8.520347238128158
 31
0.0
  0
LINE
  5
14BDA
  8
1CENTER
 10
-213.5063
 20
-119.8304
 30
0.0
 11
-206.7563
 21
-119.8304
 31
0.0
  0
LINE
  5
14BDB
  8
1CENTER
 10
-210.1313
 20
-123.2054
 30
0.0
 11
-210.1313
 21
-116.4554
 31
0.0
  0
LINE
  5
14BDC
  8
1CENTER
 10
-183.5063
 20
-119.8304
 30
0.0
 11
-176.7563
 21
-119.8304
 31
0.0
  0
LINE
  5
14BDD
  8
1CENTER
 10
-180.1313
 20
-123.2054
 30
0.0
 11
-180.1313
 21
-116.4554
 31
0.0
  0
TEXT
  5
14C07
  8
01
  6
CONTINUOUS
 10
41.28018434307518
 20
-69.39936014646025
 30
-0.0000000000026063
 40
3.5
  1
PB
  0
TEXT
  5
14C08
  8
01
  6
CONTINUOUS
 10
54.41560248824038
 20
-69.39936014646025
 30
-0.0000000000026063
 40
3.5
  1
合板9mm以上
  0
LINE
  5
14C09
  8
01
 10
17.92495347351866
 20
-114.2114342497821
 30
0.0
 11
17.93849490375356
 21
-114.2443029517467
 31
0.0
  0
LINE
  5
14C0A
  8
01
 10
17.93849490375356
 20
-114.2443029517467
 30
0.0
 11
17.97898135871725
 21
-114.3425486358042
 31
0.0
  0
LINE
  5
14C0B
  8
01
 10
17.97898135871725
 20
-114.3425486358042
 30
0.0
 11
18.04596580357389
 21
-114.5050951587195
 31
0.0
  0
LINE
  5
14C0C
  8
01
 10
18.04596580357389
 20
-114.5050951587195
 30
0.0
 11
18.1387143561347
 21
-114.7301613660688
 31
0.0
  0
LINE
  5
14C0D
  8
01
 10
18.1387143561347
 20
-114.7301613660688
 30
0.0
 11
18.25620628685789
 21
-115.0152815813358
 31
0.0
  0
LINE
  5
14C0E
  8
01
 10
18.25620628685789
 20
-115.0152815813358
 30
0.0
 11
18.39716382117109
 21
-115.3573326142664
 31
0.0
  0
LINE
  5
14C0F
  8
01
 10
18.39716382117109
 20
-115.3573326142664
 30
0.0
 11
18.56003351301985
 21
-115.7525654258366
 31
0.0
  0
LINE
  5
14C10
  8
01
 10
18.56003351301985
 20
-115.7525654258366
 30
0.0
 11
18.74303467364149
 21
-116.1966507630582
 31
0.0
  0
LINE
  5
14C11
  8
01
 10
18.74303467364149
 20
-116.1966507630582
 30
0.0
 11
18.94416309685545
 21
-116.6847224654789
 31
0.0
  0
LINE
  5
14C12
  8
01
 10
18.94416309685545
 20
-116.6847224654789
 30
0.0
 11
19.16121713609533
 21
-117.2114338101978
 31
0.0
  0
LINE
  5
14C13
  8
01
 10
19.16121713609533
 20
-117.2114338101978
 30
0.0
 11
19.39181260557012
 21
-117.7710143225427
 31
0.0
  0
LINE
  5
14C14
  8
01
 10
19.39181260557012
 20
-117.7710143225427
 30
0.0
 11
19.63342748374777
 21
-118.3573321746821
 31
0.0
  0
LINE
  5
14C15
  8
01
 10
19.63342748374777
 20
-118.3573321746821
 30
0.0
 11
19.88341308922605
 21
-118.9639640348191
 31
0.0
  0
LINE
  5
14C16
  8
01
 10
19.88341308922605
 20
-118.9639640348191
 30
0.0
 11
20.13903133363561
 21
-119.5842630537386
 31
0.0
  0
LINE
  5
14C17
  8
01
 10
20.13903133363561
 20
-119.5842630537386
 30
0.0
 11
20.39748079867201
 21
-120.2114343019362
 31
0.0
  0
LINE
  5
14C18
  8
01
 10
20.39748079867201
 20
-120.2114343019362
 30
0.0
 11
20.6559265384181
 21
-120.8386046188111
 31
0.0
  0
LINE
  5
14C19
  8
01
 10
20.6559265384181
 20
-120.8386046188111
 30
0.0
 11
20.91154850811796
 21
-121.4589045690532
 31
0.0
  0
LINE
  5
14C1A
  8
01
 10
20.91154850811796
 20
-121.4589045690532
 30
0.0
 11
21.16153038830595
 21
-122.0655364291902
 31
0.0
  0
LINE
  5
14C1B
  8
01
 10
21.16153038830595
 20
-122.0655364291902
 30
0.0
 11
21.40314526648359
 21
-122.6518542813296
 31
0.0
  0
LINE
  5
14C1C
  8
01
 10
21.40314526648359
 20
-122.6518542813296
 30
0.0
 11
21.63374073595838
 21
-123.2114338623519
 31
0.0
  0
LINE
  5
14C1D
  8
01
 10
21.63374073595838
 20
-123.2114338623519
 30
0.0
 11
21.85079104990797
 21
-123.7381452070708
 31
0.0
  0
LINE
  5
14C1E
  8
01
 10
21.85079104990797
 20
-123.7381452070708
 30
0.0
 11
22.05192692370252
 21
-124.2262178408141
 31
0.0
  0
LINE
  5
14C1F
  8
01
 10
22.05192692370252
 20
-124.2262178408141
 30
0.0
 11
22.23492808432417
 21
-124.6703022467132
 31
0.0
  0
LINE
  5
14C20
  8
01
 10
22.23492808432417
 20
-124.6703022467132
 30
0.0
 11
22.39779777617292
 21
-125.0655369209285
 31
0.0
  0
LINE
  5
14C21
  8
01
 10
22.39779777617292
 20
-125.0655369209285
 30
0.0
 11
22.53874785990553
 21
-125.4075856255527
 31
0.0
  0
LINE
  5
14C22
  8
01
 10
22.53874785990553
 20
-125.4075856255527
 30
0.0
 11
22.65624351591902
 21
-125.6927063064809
 31
0.0
  0
LINE
  5
14C23
  8
01
 10
22.65624351591902
 20
-125.6927063064809
 30
0.0
 11
22.74899579377012
 21
-125.9177734451528
 31
0.0
  0
LINE
  5
14C24
  8
01
 10
22.74899579377012
 20
-125.9177734451528
 30
0.0
 11
22.81597651333647
 21
-126.0803190367455
 31
0.0
  0
LINE
  5
14C25
  8
01
 10
22.81597651333647
 20
-126.0803190367455
 30
0.0
 11
22.85646296830015
 21
-126.1785661177869
 31
0.0
  0
LINE
  5
14C26
  8
01
 10
22.85646296830015
 20
-126.1785661177869
 30
0.0
 11
22.87000812382536
 21
-126.2114343540902
 31
0.0
  0
LINE
  5
14C28
  8
01
 10
-21.33113056603511
 20
-100.8033109858554
 30
0.0
 11
-22.83016693836223
 21
-100.803300522005
 31
0.0
  0
LINE
  5
14C29
  8
01
 10
-22.83017740215166
 20
-99.30427290475473
 30
0.0
 11
-24.08441729785795
 21
-99.30426414967792
 31
0.0
  0
LINE
  5
14C2A
  8
01
 10
-22.83017740215166
 20
-99.30427290475473
 30
0.0
 11
-22.83016693836223
 21
-100.803300522005
 31
0.0
  0
LINE
  5
14C2B
  8
01
 10
-21.33113932111209
 20
-102.0575508815618
 30
0.0
 11
-21.33113056603511
 21
-100.8033109858554
 31
0.0
  0
LINE
  5
14C2C
  8
01
 10
-21.33113932111209
 20
-102.0575508815618
 30
0.0
 11
-22.83015818313916
 21
-102.05756134529
 31
0.0
  0
LINE
  5
14C2D
  8
01
 10
-22.83015818313916
 20
-102.05756134529
 30
0.0
 11
-22.83014771928862
 21
-103.5565977178856
 31
0.0
  0
LINE
  5
14C2E
  8
01
 10
-24.08443651699264
 20
-102.0575701006353
 30
0.0
 11
-25.5834641342428
 21
-102.0575805644248
 31
0.0
  0
LINE
  5
14C2F
  8
01
 10
-24.08443651699264
 20
-102.0575701006353
 30
0.0
 11
-24.08444698072097
 21
-103.5565889623942
 31
0.0
  0
LINE
  5
14C30
  8
01
 10
-24.08444698072097
 20
-103.5565889623942
 30
0.0
 11
-22.83014771928862
 21
-103.5565977178856
 31
0.0
  0
LINE
  5
14C31
  8
01
 10
-24.08442776164739
 20
-100.803291766782
 30
0.0
 11
-25.58345537875144
 21
-100.8032813029924
 31
0.0
  0
LINE
  5
14C32
  8
01
 10
-25.58345537875144
 20
-100.8032813029924
 30
0.0
 11
-25.5834641342428
 21
-102.0575805644248
 31
0.0
  0
LINE
  5
14C33
  8
01
 10
-24.08441729785795
 20
-99.30426414967792
 30
0.0
 11
-24.08442776164739
 21
-100.803291766782
 31
0.0
  0
CIRCLE
  5
14C34
  8
01
 10
-23.45733043456363
 20
-101.4304288189901
 30
0.0
 40
4.0
  0
LINE
  5
14C35
  8
0
 10
-180.1312237865334
 20
67.48347818423674
 30
0.0000000000000006
 11
-181.6312237865334
 21
62.18348167437507
 31
0.0000000000000006
  0
LINE
  5
14C36
  8
0
 10
-181.6312237865334
 20
62.18348167437507
 30
0.0000000000000006
 11
-181.6312237865331
 21
32.4834816744832
 31
0.0000000000000006
  0
LINE
  5
14C37
  8
0
 10
-180.1312237865334
 20
67.48347818423674
 30
0.0000000000000006
 11
-178.6312237865332
 21
62.18347469399144
 31
0.0000000000000006
  0
LINE
  5
14C38
  8
0
 10
-183.6312703224312
 20
32.48348632818129
 30
0.0000000000000006
 11
-176.6312703224313
 21
32.48347004061695
 31
0.0000000000000006
  0
LINE
  5
14C39
  8
0
 10
-178.6312237865332
 20
62.18347469399144
 30
0.0000000000000006
 11
-178.6312237865331
 21
32.48347469409849
 31
0.0000000000000006
  0
LINE
  5
14C3A
  8
0
 10
-183.6312703224312
 20
32.48348632818129
 30
0.0000000000000006
 11
-183.6312703224313
 21
31.38348283798597
 31
0.0000000000000006
  0
ARC
  5
14C3B
  8
0
 10
-182.1312703224313
 20
31.38348283798597
 30
0.0000000000000006
 40
1.5
 50
180.0
 51
269.9998666844684
  0
LINE
  5
14C3C
  8
0
 10
-176.6312703224313
 20
32.48347004061695
 30
0.0000000000000006
 11
-176.6312703224313
 21
31.38347353080637
 31
0.0000000000000006
  0
LINE
  5
14C3D
  8
0
 10
-182.1312738126237
 20
29.88348283799003
 30
0.0000000000000006
 11
-178.1312738126237
 21
29.88347353081043
 31
0.0000000000000006
  0
ARC
  5
14C3E
  8
0
 10
-178.1312703224313
 20
31.38347353080637
 30
0.0000000000000006
 40
1.5
 50
269.9998666844684
 51
0.0
  0
LINE
  5
14C3F
  8
1CENTER
 10
-180.1312703224313
 20
68.9142731017022
 30
0.0000000000000006
 11
-180.1312703224313
 21
28.81320177509029
 31
0.0000000000000006
  0
LINE
  5
14C40
  8
0
 10
-181.2255941364263
 20
65.38348073055893
 30
0.0000000000000006
 11
-179.2632590475509
 21
66.1834761646099
 31
0.0000000000000006
  0
LINE
  5
14C41
  8
0
 10
-179.2632590475509
 20
66.1834761646099
 30
0.0000000000000006
 11
-179.8515356225933
 21
66.49524602086201
 31
0.0000000000000006
  0
LINE
  5
14C42
  8
0
 10
-182.1312237865334
 20
42.98348283776893
 30
0.0000000000000006
 11
-178.1312237865334
 21
43.78347353058719
 31
0.0000000000000006
  0
LINE
  5
14C43
  8
0
 10
-182.1312237865334
 20
54.1834828377733
 30
0.0000000000000006
 11
-178.1312237865334
 21
54.98347353059587
 31
0.0000000000000006
  0
LINE
  5
14C44
  8
0
 10
-182.1312237865334
 20
57.38348283777334
 30
0.0000000000000006
 11
-178.1312237865334
 21
58.18347353059592
 31
0.0000000000000006
  0
LINE
  5
14C45
  8
0
 10
-178.1312237865334
 20
58.18347353059592
 30
0.0000000000000006
 11
-178.6312237865334
 21
58.28347469399314
 31
0.0000000000000006
  0
LINE
  5
14C46
  8
0
 10
-181.6312237865334
 20
58.88348167437614
 30
0.0000000000000006
 11
-182.1312237865334
 21
58.98348283777337
 31
0.0000000000000006
  0
LINE
  5
14C47
  8
0
 10
-178.1312237865334
 20
54.98347353059587
 30
0.0000000000000006
 11
-178.6312237865334
 21
55.0834746939931
 31
0.0000000000000006
  0
LINE
  5
14C48
  8
0
 10
-178.1312237865334
 20
56.58347353059601
 30
0.0000000000000006
 11
-178.6312237865334
 21
56.68347469399312
 31
0.0000000000000006
  0
LINE
  5
14C49
  8
0
 10
-181.6312237865334
 20
57.28348167437623
 30
0.0000000000000006
 11
-182.1312237865334
 21
57.38348283777334
 31
0.0000000000000006
  0
LINE
  5
14C4A
  8
0
 10
-181.6312237865334
 20
55.68348167437632
 30
0.0000000000000006
 11
-182.1312237865334
 21
55.78348283777343
 31
0.0000000000000006
  0
LINE
  5
14C4B
  8
0
 10
-182.1312237865334
 20
55.78348283777343
 30
0.0000000000000006
 11
-178.1312237865334
 21
56.58347353059601
 31
0.0000000000000006
  0
LINE
  5
14C4C
  8
0
 10
-178.8104449431441
 20
64.58347511100426
 30
0.0000000000000006
 11
-179.3621944069474
 21
64.76623925363226
 31
0.0000000000000006
  0
LINE
  5
14C4D
  8
0
 10
-178.1312237865334
 20
61.38347353059596
 30
0.0000000000000006
 11
-178.6312237865334
 21
61.48347469399307
 31
0.0000000000000006
  0
LINE
  5
14C4E
  8
0
 10
-178.1312237865334
 20
59.78347353059594
 30
0.0000000000000006
 11
-178.6312237865334
 21
59.88347469399294
 31
0.0000000000000006
  0
LINE
  5
14C4F
  8
0
 10
-178.3576308387373
 20
62.98347405739862
 30
0.0000000000000006
 11
-178.8942245740085
 21
63.11274475502849
 31
0.0000000000000006
  0
LINE
  5
14C50
  8
0
 10
-181.2103091893246
 20
63.67071227181312
 30
0.0000000000000006
 11
-181.6784076444746
 21
63.78348178416316
 31
0.0000000000000006
  0
LINE
  5
14C51
  8
0
 10
-181.6312237865334
 20
60.48348167437628
 30
0.0000000000000006
 11
-182.1312237865334
 21
60.58348283777339
 31
0.0000000000000006
  0
LINE
  5
14C52
  8
0
 10
-181.6312237865334
 20
62.08348167437619
 30
0.0000000000000006
 11
-182.1312237865334
 21
62.1834828377733
 31
0.0000000000000006
  0
LINE
  5
14C53
  8
0
 10
-180.7684222957953
 20
65.23204493411852
 30
0.0000000000000006
 11
-181.2255941364263
 21
65.38348073055893
 31
0.0000000000000006
  0
LINE
  5
14C54
  8
0
 10
-181.6784076444746
 20
63.78348178416316
 30
0.0000000000000006
 11
-178.8104449431441
 21
64.58347511100426
 31
0.0000000000000006
  0
LINE
  5
14C55
  8
0
 10
-182.1312237865334
 20
60.58348283777339
 30
0.0000000000000006
 11
-178.1312237865334
 21
61.38347353059596
 31
0.0000000000000006
  0
LINE
  5
14C56
  8
0
 10
-182.1312237865334
 20
62.1834828377733
 30
0.0000000000000006
 11
-178.3576308387373
 21
62.98347405739862
 31
0.0000000000000006
  0
LINE
  5
14C57
  8
0
 10
-182.1312237865334
 20
58.98348283777337
 30
0.0000000000000006
 11
-178.1312237865334
 21
59.78347353059594
 31
0.0000000000000006
  0
LINE
  5
14C58
  8
0
 10
-182.1312237865334
 20
46.18348283776898
 30
0.0000000000000006
 11
-178.1312237865334
 21
46.98347353058723
 31
0.0000000000000006
  0
LINE
  5
14C59
  8
0
 10
-178.1312237865334
 20
46.98347353058723
 30
0.0000000000000006
 11
-178.6312237865334
 21
47.08347469398491
 31
0.0000000000000006
  0
LINE
  5
14C5A
  8
0
 10
-181.6312237865334
 20
47.68348167437564
 30
0.0000000000000006
 11
-182.1312237865334
 21
47.78348283777332
 31
0.0000000000000006
  0
LINE
  5
14C5B
  8
0
 10
-178.1312237865334
 20
45.3834735305871
 30
0.0000000000000006
 11
-178.6312237865334
 21
45.48347469398477
 31
0.0000000000000006
  0
LINE
  5
14C5C
  8
0
 10
-178.1312237865334
 20
43.78347353058719
 30
0.0000000000000006
 11
-178.6312237865334
 21
43.88347469398487
 31
0.0000000000000006
  0
LINE
  5
14C5D
  8
0
 10
-181.6312237865334
 20
46.0834816743713
 30
0.0000000000000006
 11
-182.1312237865334
 21
46.18348283776898
 31
0.0000000000000006
  0
LINE
  5
14C5E
  8
0
 10
-181.6312237865334
 20
44.48348167437116
 30
0.0000000000000006
 11
-182.1312237865334
 21
44.58348283776884
 31
0.0000000000000006
  0
LINE
  5
14C5F
  8
0
 10
-182.1312237865334
 20
44.58348283776884
 30
0.0000000000000006
 11
-178.1312237865334
 21
45.3834735305871
 31
0.0000000000000006
  0
LINE
  5
14C60
  8
0
 10
-178.1312237865334
 20
51.78347353059162
 30
0.0000000000000006
 11
-178.6312237865334
 21
51.8834746939893
 31
0.0000000000000006
  0
LINE
  5
14C61
  8
0
 10
-178.1312237865334
 20
53.38347353059596
 30
0.0000000000000006
 11
-178.6312237865334
 21
53.48347469399307
 31
0.0000000000000006
  0
LINE
  5
14C62
  8
0
 10
-178.1312237865334
 20
48.58347353059158
 30
0.0000000000000006
 11
-178.6312237865334
 21
48.68347469398925
 31
0.0000000000000006
  0
LINE
  5
14C63
  8
0
 10
-178.1312237865334
 20
50.18347353059148
 30
0.0000000000000006
 11
-178.6312237865334
 21
50.28347469398916
 31
0.0000000000000006
  0
LINE
  5
14C64
  8
0
 10
-181.6312237865334
 20
54.08348167437619
 30
0.0000000000000006
 11
-182.1312237865334
 21
54.1834828377733
 31
0.0000000000000006
  0
LINE
  5
14C65
  8
0
 10
-181.6312237865334
 20
52.4834816743756
 30
0.0000000000000006
 11
-182.1312237865334
 21
52.58348283777339
 31
0.0000000000000006
  0
LINE
  5
14C66
  8
0
 10
-181.6312237865334
 20
49.28348167437555
 30
0.0000000000000006
 11
-182.1312237865334
 21
49.38348283777323
 31
0.0000000000000006
  0
LINE
  5
14C67
  8
0
 10
-181.6312237865334
 20
50.88348167437569
 30
0.0000000000000006
 11
-182.1312237865334
 21
50.98348283777337
 31
0.0000000000000006
  0
LINE
  5
14C68
  8
0
 10
-182.1312237865334
 20
50.98348283777337
 30
0.0000000000000006
 11
-178.1312237865334
 21
51.78347353059162
 31
0.0000000000000006
  0
LINE
  5
14C69
  8
0
 10
-182.1312237865334
 20
52.58348283777339
 30
0.0000000000000006
 11
-178.1312237865334
 21
53.38347353059596
 31
0.0000000000000006
  0
LINE
  5
14C6A
  8
0
 10
-182.1312237865334
 20
49.38348283777323
 30
0.0000000000000006
 11
-178.1312237865334
 21
50.18347353059148
 31
0.0000000000000006
  0
LINE
  5
14C6B
  8
0
 10
-182.1312237865334
 20
47.78348283777332
 30
0.0000000000000006
 11
-178.1312237865334
 21
48.58347353059158
 31
0.0000000000000006
  0
LINE
  5
14C6C
  8
0
 10
-181.6312237865334
 20
38.08348167436709
 30
0.0000000000000006
 11
-182.1312237865334
 21
38.18348283776477
 31
0.0000000000000006
  0
LINE
  5
14C6D
  8
0
 10
-182.1312237865334
 20
38.18348283776477
 30
0.0000000000000006
 11
-178.1312237865334
 21
38.98347353058303
 31
0.0000000000000006
  0
LINE
  5
14C6E
  8
0
 10
-178.1312237865334
 20
38.98347353058303
 30
0.0000000000000006
 11
-178.6312237865334
 21
39.0834746939807
 31
0.0000000000000006
  0
LINE
  5
14C6F
  8
0
 10
-181.6312237865334
 20
39.683481674367
 30
0.0000000000000006
 11
-182.1312237865334
 21
39.78348283776468
 31
0.0000000000000006
  0
LINE
  5
14C70
  8
0
 10
-181.6312237865334
 20
41.28348167436691
 30
0.0000000000000006
 11
-182.1312237865334
 21
41.38348283776459
 31
0.0000000000000006
  0
LINE
  5
14C71
  8
0
 10
-182.1312237865334
 20
41.38348283776459
 30
0.0000000000000006
 11
-178.1312237865334
 21
42.18347353058284
 31
0.0000000000000006
  0
LINE
  5
14C72
  8
0
 10
-178.1312237865334
 20
40.58347353058294
 30
0.0000000000000006
 11
-178.6312237865334
 21
40.68347469398061
 31
0.0000000000000006
  0
LINE
  5
14C73
  8
0
 10
-178.1312237865334
 20
42.18347353058284
 30
0.0000000000000006
 11
-178.6312237865334
 21
42.28347469398052
 31
0.0000000000000006
  0
LINE
  5
14C74
  8
0
 10
-182.1312237865334
 20
39.78348283776468
 30
0.0000000000000006
 11
-178.1312237865334
 21
40.58347353058294
 31
0.0000000000000006
  0
LINE
  5
14C75
  8
0
 10
-181.6312237865334
 20
42.88348167437125
 30
0.0000000000000006
 11
-182.1312237865334
 21
42.98348283776893
 31
0.0000000000000006
  0
LINE
  5
14C76
  8
0
 10
-181.6312237865334
 20
36.48348167436718
 30
0.0000000000000006
 11
-182.1312237865334
 21
36.58348283776486
 31
0.0000000000000006
  0
LINE
  5
14C77
  8
0
 10
-182.1312237865334
 20
36.58348283776486
 30
0.0000000000000006
 11
-178.1312237865334
 21
37.38347353058312
 31
0.0000000000000006
  0
LINE
  5
14C78
  8
0
 10
-178.1312237865334
 20
37.38347353058312
 30
0.0000000000000006
 11
-178.6312237865334
 21
37.4834746939808
 31
0.0000000000000006
  0
LINE
  5
14C79
  8
0
 10
-181.6312237865334
 20
34.88348167436727
 30
0.0000000000000006
 11
-182.1312237865334
 21
34.98348283776495
 31
0.0000000000000006
  0
LINE
  5
14C7A
  8
0
 10
-182.1312237865334
 20
34.98348283776495
 30
0.0000000000000006
 11
-178.1312237865334
 21
35.78347353058321
 31
0.0000000000000006
  0
LINE
  5
14C7B
  8
0
 10
-178.1312237865334
 20
35.78347353058321
 30
0.0000000000000006
 11
-178.6312237865334
 21
35.88347469398089
 31
0.0000000000000006
  0
LINE
  5
14C7C
  8
0
 10
-181.6312237865334
 20
33.28348167436737
 30
0.0000000000000006
 11
-182.1312237865334
 21
33.38348283776504
 31
0.0000000000000006
  0
LINE
  5
14C7D
  8
0
 10
-182.1312237865334
 20
33.38348283776504
 30
0.0000000000000006
 11
-178.1312237865334
 21
34.1834735305833
 31
0.0000000000000006
  0
LINE
  5
14C7E
  8
0
 10
-178.1312237865334
 20
34.1834735305833
 30
0.0000000000000006
 11
-178.6312237865334
 21
34.28347469398098
 31
0.0000000000000006
  0
LINE
  5
14C7F
  8
0
 10
-210.1312237865334
 20
67.48347818423674
 30
0.0000000000000006
 11
-211.6312237865334
 21
62.18348167437507
 31
0.0000000000000006
  0
LINE
  5
14C80
  8
0
 10
-211.6312237865334
 20
62.18348167437507
 30
0.0000000000000006
 11
-211.6312237865331
 21
32.4834816744832
 31
0.0000000000000006
  0
LINE
  5
14C81
  8
0
 10
-210.1312237865334
 20
67.48347818423674
 30
0.0000000000000006
 11
-208.6312237865332
 21
62.18347469399144
 31
0.0000000000000006
  0
LINE
  5
14C82
  8
0
 10
-213.6312703224312
 20
32.48348632818129
 30
0.0000000000000006
 11
-206.6312703224313
 21
32.48347004061695
 31
0.0000000000000006
  0
LINE
  5
14C83
  8
0
 10
-208.6312237865332
 20
62.18347469399144
 30
0.0000000000000006
 11
-208.6312237865331
 21
32.48347469409849
 31
0.0000000000000006
  0
LINE
  5
14C84
  8
0
 10
-213.6312703224312
 20
32.48348632818129
 30
0.0000000000000006
 11
-213.6312703224313
 21
31.38348283798597
 31
0.0000000000000006
  0
ARC
  5
14C85
  8
0
 10
-212.1312703224313
 20
31.38348283798597
 30
0.0000000000000006
 40
1.5
 50
180.0
 51
269.9998666844684
  0
LINE
  5
14C86
  8
0
 10
-206.6312703224313
 20
32.48347004061695
 30
0.0000000000000006
 11
-206.6312703224313
 21
31.38347353080637
 31
0.0000000000000006
  0
LINE
  5
14C87
  8
0
 10
-212.1312738126237
 20
29.88348283799003
 30
0.0000000000000006
 11
-208.1312738126237
 21
29.88347353081043
 31
0.0000000000000006
  0
ARC
  5
14C88
  8
0
 10
-208.1312703224313
 20
31.38347353080637
 30
0.0000000000000006
 40
1.5
 50
269.9998666844684
 51
0.0
  0
LINE
  5
14C89
  8
1CENTER
 10
-210.1312703224313
 20
68.9142731017022
 30
0.0000000000000006
 11
-210.1312703224313
 21
28.81320177509029
 31
0.0000000000000006
  0
LINE
  5
14C8A
  8
0
 10
-211.2255941364263
 20
65.38348073055893
 30
0.0000000000000006
 11
-209.2632590475509
 21
66.1834761646099
 31
0.0000000000000006
  0
LINE
  5
14C8B
  8
0
 10
-209.2632590475509
 20
66.1834761646099
 30
0.0000000000000006
 11
-209.8515356225933
 21
66.49524602086201
 31
0.0000000000000006
  0
LINE
  5
14C8C
  8
0
 10
-212.1312237865334
 20
42.98348283776893
 30
0.0000000000000006
 11
-208.1312237865334
 21
43.78347353058719
 31
0.0000000000000006
  0
LINE
  5
14C8D
  8
0
 10
-212.1312237865334
 20
54.1834828377733
 30
0.0000000000000006
 11
-208.1312237865334
 21
54.98347353059587
 31
0.0000000000000006
  0
LINE
  5
14C8E
  8
0
 10
-212.1312237865334
 20
57.38348283777334
 30
0.0000000000000006
 11
-208.1312237865334
 21
58.18347353059592
 31
0.0000000000000006
  0
LINE
  5
14C8F
  8
0
 10
-208.1312237865334
 20
58.18347353059592
 30
0.0000000000000006
 11
-208.6312237865334
 21
58.28347469399314
 31
0.0000000000000006
  0
LINE
  5
14C90
  8
0
 10
-211.6312237865334
 20
58.88348167437614
 30
0.0000000000000006
 11
-212.1312237865334
 21
58.98348283777337
 31
0.0000000000000006
  0
LINE
  5
14C91
  8
0
 10
-208.1312237865334
 20
54.98347353059587
 30
0.0000000000000006
 11
-208.6312237865334
 21
55.0834746939931
 31
0.0000000000000006
  0
LINE
  5
14C92
  8
0
 10
-208.1312237865334
 20
56.58347353059601
 30
0.0000000000000006
 11
-208.6312237865334
 21
56.68347469399312
 31
0.0000000000000006
  0
LINE
  5
14C93
  8
0
 10
-211.6312237865334
 20
57.28348167437623
 30
0.0000000000000006
 11
-212.1312237865334
 21
57.38348283777334
 31
0.0000000000000006
  0
LINE
  5
14C94
  8
0
 10
-211.6312237865334
 20
55.68348167437632
 30
0.0000000000000006
 11
-212.1312237865334
 21
55.78348283777343
 31
0.0000000000000006
  0
LINE
  5
14C95
  8
0
 10
-212.1312237865334
 20
55.78348283777343
 30
0.0000000000000006
 11
-208.1312237865334
 21
56.58347353059601
 31
0.0000000000000006
  0
LINE
  5
14C96
  8
0
 10
-208.8104449431441
 20
64.58347511100426
 30
0.0000000000000006
 11
-209.3621944069474
 21
64.76623925363226
 31
0.0000000000000006
  0
LINE
  5
14C97
  8
0
 10
-208.1312237865334
 20
61.38347353059596
 30
0.0000000000000006
 11
-208.6312237865334
 21
61.48347469399307
 31
0.0000000000000006
  0
LINE
  5
14C98
  8
0
 10
-208.1312237865334
 20
59.78347353059594
 30
0.0000000000000006
 11
-208.6312237865334
 21
59.88347469399294
 31
0.0000000000000006
  0
LINE
  5
14C99
  8
0
 10
-208.3576308387373
 20
62.98347405739862
 30
0.0000000000000006
 11
-208.8942245740085
 21
63.11274475502849
 31
0.0000000000000006
  0
LINE
  5
14C9A
  8
0
 10
-211.2103091893246
 20
63.67071227181312
 30
0.0000000000000006
 11
-211.6784076444746
 21
63.78348178416316
 31
0.0000000000000006
  0
LINE
  5
14C9B
  8
0
 10
-211.6312237865334
 20
60.48348167437628
 30
0.0000000000000006
 11
-212.1312237865334
 21
60.58348283777339
 31
0.0000000000000006
  0
LINE
  5
14C9C
  8
0
 10
-211.6312237865334
 20
62.08348167437619
 30
0.0000000000000006
 11
-212.1312237865334
 21
62.1834828377733
 31
0.0000000000000006
  0
LINE
  5
14C9D
  8
0
 10
-210.7684222957953
 20
65.23204493411852
 30
0.0000000000000006
 11
-211.2255941364263
 21
65.38348073055893
 31
0.0000000000000006
  0
LINE
  5
14C9E
  8
0
 10
-211.6784076444746
 20
63.78348178416316
 30
0.0000000000000006
 11
-208.8104449431441
 21
64.58347511100426
 31
0.0000000000000006
  0
LINE
  5
14C9F
  8
0
 10
-212.1312237865334
 20
60.58348283777339
 30
0.0000000000000006
 11
-208.1312237865334
 21
61.38347353059596
 31
0.0000000000000006
  0
LINE
  5
14CA0
  8
0
 10
-212.1312237865334
 20
62.1834828377733
 30
0.0000000000000006
 11
-208.3576308387373
 21
62.98347405739862
 31
0.0000000000000006
  0
LINE
  5
14CA1
  8
0
 10
-212.1312237865334
 20
58.98348283777337
 30
0.0000000000000006
 11
-208.1312237865334
 21
59.78347353059594
 31
0.0000000000000006
  0
LINE
  5
14CA2
  8
0
 10
-212.1312237865334
 20
46.18348283776898
 30
0.0000000000000006
 11
-208.1312237865334
 21
46.98347353058723
 31
0.0000000000000006
  0
LINE
  5
14CA3
  8
0
 10
-208.1312237865334
 20
46.98347353058723
 30
0.0000000000000006
 11
-208.6312237865334
 21
47.08347469398491
 31
0.0000000000000006
  0
LINE
  5
14CA4
  8
0
 10
-211.6312237865334
 20
47.68348167437564
 30
0.0000000000000006
 11
-212.1312237865334
 21
47.78348283777332
 31
0.0000000000000006
  0
LINE
  5
14CA5
  8
0
 10
-208.1312237865334
 20
45.3834735305871
 30
0.0000000000000006
 11
-208.6312237865334
 21
45.48347469398477
 31
0.0000000000000006
  0
LINE
  5
14CA6
  8
0
 10
-208.1312237865334
 20
43.78347353058719
 30
0.0000000000000006
 11
-208.6312237865334
 21
43.88347469398487
 31
0.0000000000000006
  0
LINE
  5
14CA7
  8
0
 10
-211.6312237865334
 20
46.0834816743713
 30
0.0000000000000006
 11
-212.1312237865334
 21
46.18348283776898
 31
0.0000000000000006
  0
LINE
  5
14CA8
  8
0
 10
-211.6312237865334
 20
44.48348167437116
 30
0.0000000000000006
 11
-212.1312237865334
 21
44.58348283776884
 31
0.0000000000000006
  0
LINE
  5
14CA9
  8
0
 10
-212.1312237865334
 20
44.58348283776884
 30
0.0000000000000006
 11
-208.1312237865334
 21
45.3834735305871
 31
0.0000000000000006
  0
LINE
  5
14CAA
  8
0
 10
-208.1312237865334
 20
51.78347353059162
 30
0.0000000000000006
 11
-208.6312237865334
 21
51.8834746939893
 31
0.0000000000000006
  0
LINE
  5
14CAB
  8
0
 10
-208.1312237865334
 20
53.38347353059596
 30
0.0000000000000006
 11
-208.6312237865334
 21
53.48347469399307
 31
0.0000000000000006
  0
LINE
  5
14CAC
  8
0
 10
-208.1312237865334
 20
48.58347353059158
 30
0.0000000000000006
 11
-208.6312237865334
 21
48.68347469398925
 31
0.0000000000000006
  0
LINE
  5
14CAD
  8
0
 10
-208.1312237865334
 20
50.18347353059148
 30
0.0000000000000006
 11
-208.6312237865334
 21
50.28347469398916
 31
0.0000000000000006
  0
LINE
  5
14CAE
  8
0
 10
-211.6312237865334
 20
54.08348167437619
 30
0.0000000000000006
 11
-212.1312237865334
 21
54.1834828377733
 31
0.0000000000000006
  0
LINE
  5
14CAF
  8
0
 10
-211.6312237865334
 20
52.4834816743756
 30
0.0000000000000006
 11
-212.1312237865334
 21
52.58348283777339
 31
0.0000000000000006
  0
LINE
  5
14CB0
  8
0
 10
-211.6312237865334
 20
49.28348167437555
 30
0.0000000000000006
 11
-212.1312237865334
 21
49.38348283777323
 31
0.0000000000000006
  0
LINE
  5
14CB1
  8
0
 10
-211.6312237865334
 20
50.88348167437569
 30
0.0000000000000006
 11
-212.1312237865334
 21
50.98348283777337
 31
0.0000000000000006
  0
LINE
  5
14CB2
  8
0
 10
-212.1312237865334
 20
50.98348283777337
 30
0.0000000000000006
 11
-208.1312237865334
 21
51.78347353059162
 31
0.0000000000000006
  0
LINE
  5
14CB3
  8
0
 10
-212.1312237865334
 20
52.58348283777339
 30
0.0000000000000006
 11
-208.1312237865334
 21
53.38347353059596
 31
0.0000000000000006
  0
LINE
  5
14CB4
  8
0
 10
-212.1312237865334
 20
49.38348283777323
 30
0.0000000000000006
 11
-208.1312237865334
 21
50.18347353059148
 31
0.0000000000000006
  0
LINE
  5
14CB5
  8
0
 10
-212.1312237865334
 20
47.78348283777332
 30
0.0000000000000006
 11
-208.1312237865334
 21
48.58347353059158
 31
0.0000000000000006
  0
LINE
  5
14CB6
  8
0
 10
-211.6312237865334
 20
38.08348167436709
 30
0.0000000000000006
 11
-212.1312237865334
 21
38.18348283776477
 31
0.0000000000000006
  0
LINE
  5
14CB7
  8
0
 10
-212.1312237865334
 20
38.18348283776477
 30
0.0000000000000006
 11
-208.1312237865334
 21
38.98347353058303
 31
0.0000000000000006
  0
LINE
  5
14CB8
  8
0
 10
-208.1312237865334
 20
38.98347353058303
 30
0.0000000000000006
 11
-208.6312237865334
 21
39.0834746939807
 31
0.0000000000000006
  0
LINE
  5
14CB9
  8
0
 10
-211.6312237865334
 20
39.683481674367
 30
0.0000000000000006
 11
-212.1312237865334
 21
39.78348283776468
 31
0.0000000000000006
  0
LINE
  5
14CBA
  8
0
 10
-211.6312237865334
 20
41.28348167436691
 30
0.0000000000000006
 11
-212.1312237865334
 21
41.38348283776459
 31
0.0000000000000006
  0
LINE
  5
14CBB
  8
0
 10
-212.1312237865334
 20
41.38348283776459
 30
0.0000000000000006
 11
-208.1312237865334
 21
42.18347353058284
 31
0.0000000000000006
  0
LINE
  5
14CBC
  8
0
 10
-208.1312237865334
 20
40.58347353058294
 30
0.0000000000000006
 11
-208.6312237865334
 21
40.68347469398061
 31
0.0000000000000006
  0
LINE
  5
14CBD
  8
0
 10
-208.1312237865334
 20
42.18347353058284
 30
0.0000000000000006
 11
-208.6312237865334
 21
42.28347469398052
 31
0.0000000000000006
  0
LINE
  5
14CBE
  8
0
 10
-212.1312237865334
 20
39.78348283776468
 30
0.0000000000000006
 11
-208.1312237865334
 21
40.58347353058294
 31
0.0000000000000006
  0
LINE
  5
14CBF
  8
0
 10
-211.6312237865334
 20
42.88348167437125
 30
0.0000000000000006
 11
-212.1312237865334
 21
42.98348283776893
 31
0.0000000000000006
  0
LINE
  5
14CC0
  8
0
 10
-211.6312237865334
 20
36.48348167436718
 30
0.0000000000000006
 11
-212.1312237865334
 21
36.58348283776486
 31
0.0000000000000006
  0
LINE
  5
14CC1
  8
0
 10
-212.1312237865334
 20
36.58348283776486
 30
0.0000000000000006
 11
-208.1312237865334
 21
37.38347353058312
 31
0.0000000000000006
  0
LINE
  5
14CC2
  8
0
 10
-208.1312237865334
 20
37.38347353058312
 30
0.0000000000000006
 11
-208.6312237865334
 21
37.4834746939808
 31
0.0000000000000006
  0
LINE
  5
14CC3
  8
0
 10
-211.6312237865334
 20
34.88348167436727
 30
0.0000000000000006
 11
-212.1312237865334
 21
34.98348283776495
 31
0.0000000000000006
  0
LINE
  5
14CC4
  8
0
 10
-212.1312237865334
 20
34.98348283776495
 30
0.0000000000000006
 11
-208.1312237865334
 21
35.78347353058321
 31
0.0000000000000006
  0
LINE
  5
14CC5
  8
0
 10
-208.1312237865334
 20
35.78347353058321
 30
0.0000000000000006
 11
-208.6312237865334
 21
35.88347469398089
 31
0.0000000000000006
  0
LINE
  5
14CC6
  8
0
 10
-211.6312237865334
 20
33.28348167436737
 30
0.0000000000000006
 11
-212.1312237865334
 21
33.38348283776504
 31
0.0000000000000006
  0
LINE
  5
14CC7
  8
0
 10
-212.1312237865334
 20
33.38348283776504
 30
0.0000000000000006
 11
-208.1312237865334
 21
34.1834735305833
 31
0.0000000000000006
  0
LINE
  5
14CC8
  8
0
 10
-208.1312237865334
 20
34.1834735305833
 30
0.0000000000000006
 11
-208.6312237865334
 21
34.28347469398098
 31
0.0000000000000006
  0
SOLID
  5
14CC9
  8
1DIM
 10
-124.1510913363284
 20
-36.14930839343412
 30
0.0
 11
-125.8961290903914
 21
-35.1168577418261
 31
0.0
 12
-123.9105688414319
 22
-35.52754205959703
 32
0.0
 13
-123.9105688414319
 23
-35.52754205959703
 33
0.0
1001
ACAD
1000
DSTYLE
1002
{
1070
    45
1040
0.5
1002
}
  0
LINE
  5
14CCA
  8
1DIM
 10
-124.0308300888802
 20
-35.83842522651558
 30
0.0
 11
-103.7410076273799
 21
-43.68728814151151
 31
0.0
1001
ACAD
1000
DSTYLE
1002
{
1070
    45
1040
0.5
1002
}
  0
LINE
  5
14CCB
  8
1DIM
 10
-103.7410076273799
 20
-43.68728814151151
 30
0.0
 11
-56.47434096071321
 21
-43.68728814151151
 31
0.0
1001
ACAD
1000
DSTYLE
1002
{
1070
    45
1040
0.5
1002
}
  0
TEXT
  5
14CCC
  8
1DIM
  6
CONTINUOUS
 10
-102.2743409607132
 20
-36.15395480817817
 30
0.0
 40
3.5
  1
材質：亜鉛ダイキャスト
  0
TEXT
  5
14CCD
  8
1DIM
  6
CONTINUOUS
 10
-102.1576742940465
 20
-41.98728814151151
 30
0.0
 40
3.5
  1
仕上げ：各種仕上げ
  0
SOLID
  5
14CCE
  8
1DIM
 10
-169.615640747383
 20
-101.4209929226486
 30
0.0
 11
-170.5784995856285
 21
-103.2053734786746
 31
0.0
 12
-170.2464051892425
 22
-101.2051673835434
 32
0.0
 13
-170.2464051892425
 23
-101.2051673835434
 33
0.0
1001
ACAD
1000
DSTYLE
1002
{
1070
    45
1040
0.5
1002
}
  0
LINE
  5
14CCF
  8
1DIM
 10
-169.9310229683128
 20
-101.313080153096
 30
0.0
 11
-158.0233828649115
 21
-66.5122127727837
 31
0.0
1001
ACAD
1000
DSTYLE
1002
{
1070
    45
1040
0.5
1002
}
  0
LINE
  5
14CD0
  8
1DIM
 10
-158.0233828649115
 20
-66.5122127727837
 30
0.0
 11
-110.7567161982448
 21
-66.5122127727837
 31
0.0
1001
ACAD
1000
DSTYLE
1002
{
1070
    45
1040
0.5
1002
}
  0
TEXT
  5
14CD1
  8
1DIM
  6
CONTINUOUS
 10
-156.5567161982448
 20
-58.97887943945036
 30
0.0
 40
3.5
  1
材質：亜鉛ダイキャスト
  0
TEXT
  5
14CD2
  8
1DIM
  6
CONTINUOUS
 10
-156.4400495315782
 20
-64.8122127727837
 30
0.0
 40
3.5
  1
仕上げ：各種仕上げ
  0
SOLID
  5
14CD3
  8
1DIM
 10
-45.44925985153928
 20
-145.6242446375765
 30
0.0000000000026057
 11
-44.92816781483257
 21
-143.6647614913382
 31
0.0000000000026057
 12
-44.78558466699136
 22
-145.6873294523874
 32
0.0000000000026057
 13
-44.78558466699136
 23
-145.6873294523874
 33
0.0000000000026057
1001
ACAD
1000
DSTYLE
1002
{
1070
    45
1040
0.5
1002
}
  0
LINE
  5
14CD4
  8
1DIM
 10
-45.11742225926532
 20
-145.655787044982
 30
0.0000000000024702
 11
-48.5670741159017
 21
-181.9473786021792
 31
0.0
1001
ACAD
1000
DSTYLE
1002
{
1070
    45
1040
0.5
1002
}
  0
LINE
  5
14CD5
  8
1DIM
 10
-48.5670741159017
 20
-181.9473786021792
 30
0.0
 11
-95.83374078256838
 21
-181.9473786021792
 31
0.0
1001
ACAD
1000
DSTYLE
1002
{
1070
    45
1040
0.5
1002
}
  0
TEXT
  5
14CD6
  8
1DIM
  6
CONTINUOUS
 10
-97.06707411590172
 20
-174.4140452688459
 30
0.0
 40
3.5
  1
材質：亜鉛ダイキャスト
  0
TEXT
  5
14CD7
  8
1DIM
  6
CONTINUOUS
 10
-85.1670741159017
 20
-180.2473786021793
 30
0.0
 40
3.5
  1
仕上げ：クローム
  0
LINE
  5
14CD8
  8
1DIM
 10
-130.6312702963542
 20
37.48347818439912
 30
0.0
 11
-113.6312702963545
 21
37.48347818439912
 31
0.0
1001
ACAD
1000
DSTYLE
1002
{
1070
    45
1040
0.5
1070
   271
1070
     0
1002
}
  0
LINE
  5
14CD9
  8
1DIM
 10
-126.6312702963542
 20
-48.51652181560089
 30
0.0
 11
-113.6312702963545
 21
-48.51652181560089
 31
0.0
1001
ACAD
1000
DSTYLE
1002
{
1070
    45
1040
0.5
1070
   271
1070
     0
1002
}
  0
LINE
  5
14CDA
  8
1DIM
 10
-114.6312702963545
 20
35.48347818439912
 30
0.0
 11
-114.6312702963545
 21
-46.51652181560089
 31
0.0
1001
ACAD
1000
DSTYLE
1002
{
1070
    45
1040
0.5
1070
   271
1070
     0
1002
}
  0
LINE
  5
14CDE
  8
1DIM
 10
-264.6312703224313
 20
-83.83042781522232
 30
0.0
 11
-264.6312703224313
 21
-77.89720828922344
 31
0.0
1001
ACAD
1000
DSTYLE
1002
{
1070
    70
1070
     0
1070
    69
1070
     0
1070
    45
1040
0.5
1070
   271
1070
     0
1002
}
  0
LINE
  5
14CDF
  8
1DIM
 10
-125.6312703224313
 20
-83.83042781522232
 30
0.0
 11
-125.6312703224313
 21
-77.89720828922344
 31
0.0
1001
ACAD
1000
DSTYLE
1002
{
1070
    70
1070
     0
1070
    69
1070
     0
1070
    45
1040
0.5
1070
   271
1070
     0
1002
}
  0
LINE
  5
14CE0
  8
1DIM
 10
-262.6312703224313
 20
-78.89720828922344
 30
0.0
 11
-127.6312703224313
 21
-78.89720828922344
 31
0.0
1001
ACAD
1000
DSTYLE
1002
{
1070
    70
1070
     0
1070
    69
1070
     0
1070
    45
1040
0.5
1070
   271
1070
     0
1002
}
  0
LINE
  5
14CE4
  8
0
 10
64.54266817643921
 20
-119.8304757294776
 30
0.0000000000000006
 11
59.24267166657754
 21
-118.3304757294776
 31
0.0000000000000006
  0
LINE
  5
14CE5
  8
0
 10
59.24267166657754
 20
-118.3304757294776
 30
0.0000000000000006
 11
29.54267166668566
 21
-118.3304757294778
 31
0.0000000000000006
  0
LINE
  5
14CE6
  8
0
 10
64.54266817643921
 20
-119.8304757294776
 30
0.0000000000000006
 11
59.2426646861939
 21
-121.3304757294777
 31
0.0000000000000006
  0
LINE
  5
14CE7
  8
0
 10
29.54267632038375
 20
-116.3304291935798
 30
0.0000000000000006
 11
29.54266003281941
 21
-123.3304291935797
 31
0.0000000000000006
  0
LINE
  5
14CE8
  8
0
 10
59.2426646861939
 20
-121.3304757294777
 30
0.0000000000000006
 11
29.54266468630095
 21
-121.3304757294778
 31
0.0000000000000006
  0
LINE
  5
14CE9
  8
0
 10
29.54267632038375
 20
-116.3304291935798
 30
0.0000000000000006
 11
28.44267283018843
 21
-116.3304291935797
 31
0.0000000000000006
  0
ARC
  5
14CEA
  8
0
 10
28.44267283018843
 20
-117.8304291935797
 30
0.0000000000000006
 40
1.5
 50
90.0
 51
179.9998666844684
  0
LINE
  5
14CEB
  8
0
 10
29.54266003281941
 20
-123.3304291935797
 30
0.0000000000000006
 11
28.44266352300883
 21
-123.3304291935797
 31
0.0000000000000006
  0
LINE
  5
14CEC
  8
0
 10
26.94267283019249
 20
-117.8304257033873
 30
0.0000000000000006
 11
26.9426635230129
 21
-121.8304257033873
 31
0.0000000000000006
  0
ARC
  5
14CED
  8
0
 10
28.44266352300883
 20
-121.8304291935797
 30
0.0000000000000006
 40
1.5
 50
179.9998666844684
 51
270.0
  0
LINE
  5
14CEE
  8
1CENTER
 10
65.97346309390466
 20
-119.8304291935797
 30
0.0000000000000006
 11
25.87239176729275
 21
-119.8304291935797
 31
0.0000000000000006
  0
LINE
  5
14CEF
  8
0
 10
62.44267072276139
 20
-118.7361053795846
 30
0.0000000000000006
 11
63.24266615681236
 21
-120.69844046846
 31
0.0000000000000006
  0
LINE
  5
14CF0
  8
0
 10
63.24266615681236
 20
-120.69844046846
 30
0.0000000000000006
 11
63.55443601306447
 21
-120.1101638934176
 31
0.0000000000000006
  0
LINE
  5
14CF1
  8
0
 10
40.04267282997139
 20
-117.8304757294776
 30
0.0000000000000006
 11
40.84266352278965
 21
-121.8304757294776
 31
0.0000000000000006
  0
LINE
  5
14CF2
  8
0
 10
51.24267282997576
 20
-117.8304757294776
 30
0.0000000000000006
 11
52.04266352279834
 21
-121.8304757294776
 31
0.0000000000000006
  0
LINE
  5
14CF3
  8
0
 10
54.44267282997581
 20
-117.8304757294776
 30
0.0000000000000006
 11
55.24266352279838
 21
-121.8304757294776
 31
0.0000000000000006
  0
LINE
  5
14CF4
  8
0
 10
55.24266352279838
 20
-121.8304757294776
 30
0.0000000000000006
 11
55.3426646861956
 21
-121.3304757294776
 31
0.0000000000000006
  0
LINE
  5
14CF5
  8
0
 10
55.9426716665786
 20
-118.3304757294776
 30
0.0000000000000006
 11
56.04267282997583
 21
-117.8304757294776
 31
0.0000000000000006
  0
LINE
  5
14CF6
  8
0
 10
52.04266352279834
 20
-121.8304757294776
 30
0.0000000000000006
 11
52.14266468619556
 21
-121.3304757294776
 31
0.0000000000000006
  0
LINE
  5
14CF7
  8
0
 10
53.64266352279847
 20
-121.8304757294776
 30
0.0000000000000006
 11
53.74266468619558
 21
-121.3304757294776
 31
0.0000000000000006
  0
LINE
  5
14CF8
  8
0
 10
54.3426716665787
 20
-118.3304757294776
 30
0.0000000000000006
 11
54.44267282997581
 21
-117.8304757294776
 31
0.0000000000000006
  0
LINE
  5
14CF9
  8
0
 10
52.74267166657879
 20
-118.3304757294776
 30
0.0000000000000006
 11
52.8426728299759
 21
-117.8304757294776
 31
0.0000000000000006
  0
LINE
  5
14CFA
  8
0
 10
52.8426728299759
 20
-117.8304757294776
 30
0.0000000000000006
 11
53.64266352279847
 21
-121.8304757294776
 31
0.0000000000000006
  0
LINE
  5
14CFB
  8
0
 10
61.64266510320672
 20
-121.1512545728668
 30
0.0000000000000006
 11
61.82542924583473
 21
-120.5995051090636
 31
0.0000000000000006
  0
LINE
  5
14CFC
  8
0
 10
58.44266352279843
 20
-121.8304757294776
 30
0.0000000000000006
 11
58.54266468619554
 21
-121.3304757294776
 31
0.0000000000000006
  0
LINE
  5
14CFD
  8
0
 10
56.8426635227984
 20
-121.8304757294776
 30
0.0000000000000006
 11
56.9426646861954
 21
-121.3304757294776
 31
0.0000000000000006
  0
LINE
  5
14CFE
  8
0
 10
60.04266404960109
 20
-121.6040686772736
 30
0.0000000000000006
 11
60.17193474723095
 21
-121.0674749420025
 31
0.0000000000000006
  0
LINE
  5
14CFF
  8
0
 10
60.72990226401558
 20
-118.7513903266863
 30
0.0000000000000006
 11
60.84267177636562
 21
-118.2832918715363
 31
0.0000000000000006
  0
LINE
  5
14D00
  8
0
 10
57.54267166657874
 20
-118.3304757294776
 30
0.0000000000000006
 11
57.64267282997585
 21
-117.8304757294776
 31
0.0000000000000006
  0
LINE
  5
14D01
  8
0
 10
59.14267166657865
 20
-118.3304757294776
 30
0.0000000000000006
 11
59.24267282997576
 21
-117.8304757294776
 31
0.0000000000000006
  0
LINE
  5
14D02
  8
0
 10
62.29123492632098
 20
-119.1932772202157
 30
0.0000000000000006
 11
62.44267072276139
 21
-118.7361053795846
 31
0.0000000000000006
  0
LINE
  5
14D03
  8
0
 10
60.84267177636562
 20
-118.2832918715363
 30
0.0000000000000006
 11
61.64266510320672
 21
-121.1512545728668
 31
0.0000000000000006
  0
LINE
  5
14D04
  8
0
 10
57.64267282997585
 20
-117.8304757294776
 30
0.0000000000000006
 11
58.44266352279843
 21
-121.8304757294776
 31
0.0000000000000006
  0
LINE
  5
14D05
  8
0
 10
59.24267282997576
 20
-117.8304757294776
 30
0.0000000000000006
 11
60.04266404960109
 21
-121.6040686772736
 31
0.0000000000000006
  0
LINE
  5
14D06
  8
0
 10
56.04267282997583
 20
-117.8304757294776
 30
0.0000000000000006
 11
56.8426635227984
 21
-121.8304757294776
 31
0.0000000000000006
  0
LINE
  5
14D07
  8
0
 10
43.24267282997144
 20
-117.8304757294776
 30
0.0000000000000006
 11
44.0426635227897
 21
-121.8304757294776
 31
0.0000000000000006
  0
LINE
  5
14D08
  8
0
 10
44.0426635227897
 20
-121.8304757294776
 30
0.0000000000000006
 11
44.14266468618737
 21
-121.3304757294776
 31
0.0000000000000006
  0
LINE
  5
14D09
  8
0
 10
44.7426716665781
 20
-118.3304757294776
 30
0.0000000000000006
 11
44.84267282997578
 21
-117.8304757294776
 31
0.0000000000000006
  0
LINE
  5
14D0A
  8
0
 10
42.44266352278956
 20
-121.8304757294776
 30
0.0000000000000006
 11
42.54266468618724
 21
-121.3304757294776
 31
0.0000000000000006
  0
LINE
  5
14D0B
  8
0
 10
40.84266352278965
 20
-121.8304757294776
 30
0.0000000000000006
 11
40.94266468618733
 21
-121.3304757294776
 31
0.0000000000000006
  0
LINE
  5
14D0C
  8
0
 10
43.14267166657376
 20
-118.3304757294776
 30
0.0000000000000006
 11
43.24267282997144
 21
-117.8304757294776
 31
0.0000000000000006
  0
LINE
  5
14D0D
  8
0
 10
41.54267166657363
 20
-118.3304757294776
 30
0.0000000000000006
 11
41.6426728299713
 21
-117.8304757294776
 31
0.0000000000000006
  0
LINE
  5
14D0E
  8
0
 10
41.6426728299713
 20
-117.8304757294776
 30
0.0000000000000006
 11
42.44266352278956
 21
-121.8304757294776
 31
0.0000000000000006
  0
LINE
  5
14D0F
  8
0
 10
48.84266352279408
 20
-121.8304757294776
 30
0.0000000000000006
 11
48.94266468619176
 21
-121.3304757294776
 31
0.0000000000000006
  0
LINE
  5
14D10
  8
0
 10
50.44266352279843
 20
-121.8304757294776
 30
0.0000000000000006
 11
50.54266468619554
 21
-121.3304757294776
 31
0.0000000000000006
  0
LINE
  5
14D11
  8
0
 10
45.64266352279404
 20
-121.8304757294776
 30
0.0000000000000006
 11
45.74266468619172
 21
-121.3304757294776
 31
0.0000000000000006
  0
LINE
  5
14D12
  8
0
 10
47.24266352279395
 20
-121.8304757294776
 30
0.0000000000000006
 11
47.34266468619163
 21
-121.3304757294776
 31
0.0000000000000006
  0
LINE
  5
14D13
  8
0
 10
51.14267166657865
 20
-118.3304757294776
 30
0.0000000000000006
 11
51.24267282997576
 21
-117.8304757294776
 31
0.0000000000000006
  0
LINE
  5
14D14
  8
0
 10
49.54267166657806
 20
-118.3304757294776
 30
0.0000000000000006
 11
49.64267282997585
 21
-117.8304757294776
 31
0.0000000000000006
  0
LINE
  5
14D15
  8
0
 10
46.34267166657801
 20
-118.3304757294776
 30
0.0000000000000006
 11
46.44267282997569
 21
-117.8304757294776
 31
0.0000000000000006
  0
LINE
  5
14D16
  8
0
 10
47.94267166657815
 20
-118.3304757294776
 30
0.0000000000000006
 11
48.04267282997583
 21
-117.8304757294776
 31
0.0000000000000006
  0
LINE
  5
14D17
  8
0
 10
48.04267282997583
 20
-117.8304757294776
 30
0.0000000000000006
 11
48.84266352279408
 21
-121.8304757294776
 31
0.0000000000000006
  0
LINE
  5
14D18
  8
0
 10
49.64267282997585
 20
-117.8304757294776
 30
0.0000000000000006
 11
50.44266352279843
 21
-121.8304757294776
 31
0.0000000000000006
  0
LINE
  5
14D19
  8
0
 10
46.44267282997569
 20
-117.8304757294776
 30
0.0000000000000006
 11
47.24266352279395
 21
-121.8304757294776
 31
0.0000000000000006
  0
LINE
  5
14D1A
  8
0
 10
44.84267282997578
 20
-117.8304757294776
 30
0.0000000000000006
 11
45.64266352279404
 21
-121.8304757294776
 31
0.0000000000000006
  0
LINE
  5
14D1B
  8
0
 10
35.14267166656956
 20
-118.3304757294776
 30
0.0000000000000006
 11
35.24267282996723
 21
-117.8304757294776
 31
0.0000000000000006
  0
LINE
  5
14D1C
  8
0
 10
35.24267282996723
 20
-117.8304757294776
 30
0.0000000000000006
 11
36.04266352278549
 21
-121.8304757294776
 31
0.0000000000000006
  0
LINE
  5
14D1D
  8
0
 10
36.04266352278549
 20
-121.8304757294776
 30
0.0000000000000006
 11
36.14266468618317
 21
-121.3304757294776
 31
0.0000000000000006
  0
LINE
  5
14D1E
  8
0
 10
36.74267166656946
 20
-118.3304757294776
 30
0.0000000000000006
 11
36.84267282996714
 21
-117.8304757294776
 31
0.0000000000000006
  0
LINE
  5
14D1F
  8
0
 10
38.34267166656937
 20
-118.3304757294776
 30
0.0000000000000006
 11
38.44267282996705
 21
-117.8304757294776
 31
0.0000000000000006
  0
LINE
  5
14D20
  8
0
 10
38.44267282996705
 20
-117.8304757294776
 30
0.0000000000000006
 11
39.24266352278531
 21
-121.8304757294776
 31
0.0000000000000006
  0
LINE
  5
14D21
  8
0
 10
37.6426635227854
 20
-121.8304757294776
 30
0.0000000000000006
 11
37.74266468618308
 21
-121.3304757294776
 31
0.0000000000000006
  0
LINE
  5
14D22
  8
0
 10
39.24266352278531
 20
-121.8304757294776
 30
0.0000000000000006
 11
39.34266468618299
 21
-121.3304757294776
 31
0.0000000000000006
  0
LINE
  5
14D23
  8
0
 10
36.84267282996714
 20
-117.8304757294776
 30
0.0000000000000006
 11
37.6426635227854
 21
-121.8304757294776
 31
0.0000000000000006
  0
LINE
  5
14D24
  8
0
 10
39.94267166657372
 20
-118.3304757294776
 30
0.0000000000000006
 11
40.04267282997139
 21
-117.8304757294776
 31
0.0000000000000006
  0
LINE
  5
14D25
  8
0
 10
33.54267166656965
 20
-118.3304757294776
 30
0.0000000000000006
 11
33.64267282996732
 21
-117.8304757294776
 31
0.0000000000000006
  0
LINE
  5
14D26
  8
0
 10
33.64267282996732
 20
-117.8304757294776
 30
0.0000000000000006
 11
34.44266352278558
 21
-121.8304757294776
 31
0.0000000000000006
  0
LINE
  5
14D27
  8
0
 10
34.44266352278558
 20
-121.8304757294776
 30
0.0000000000000006
 11
34.54266468618326
 21
-121.3304757294776
 31
0.0000000000000006
  0
LINE
  5
14D28
  8
0
 10
31.94267166656974
 20
-118.3304757294776
 30
0.0000000000000006
 11
32.04267282996742
 21
-117.8304757294776
 31
0.0000000000000006
  0
LINE
  5
14D29
  8
0
 10
32.04267282996742
 20
-117.8304757294776
 30
0.0000000000000006
 11
32.84266352278567
 21
-121.8304757294776
 31
0.0000000000000006
  0
LINE
  5
14D2A
  8
0
 10
32.84266352278567
 20
-121.8304757294776
 30
0.0000000000000006
 11
32.94266468618335
 21
-121.3304757294776
 31
0.0000000000000006
  0
LINE
  5
14D2B
  8
0
 10
30.34267166656983
 20
-118.3304757294776
 30
0.0000000000000006
 11
30.44267282996751
 21
-117.8304757294776
 31
0.0000000000000006
  0
LINE
  5
14D2C
  8
0
 10
30.44267282996751
 20
-117.8304757294776
 30
0.0000000000000006
 11
31.24266352278576
 21
-121.8304757294776
 31
0.0000000000000006
  0
LINE
  5
14D2D
  8
0
 10
31.24266352278576
 20
-121.8304757294776
 30
0.0000000000000006
 11
31.34266468618344
 21
-121.3304757294776
 31
0.0000000000000006
  0
LINE
  5
14D2E
  8
1DIM
 10
65.97346309390463
 20
-119.8304291935797
 30
0.0
 11
72.84266883225274
 21
-119.8304291935797
 31
0.0
1001
ACAD
1000
DSTYLE
1002
{
1070
    45
1040
0.5
1070
   271
1070
     0
1002
}
  0
LINE
  5
14D2F
  8
1DIM
 10
33.54266959966247
 20
-82.83042919357968
 30
0.0
 11
72.84266883225274
 21
-82.83042919357968
 31
0.0
1001
ACAD
1000
DSTYLE
1002
{
1070
    45
1040
0.5
1070
   271
1070
     0
1002
}
  0
LINE
  5
14D30
  8
1DIM
 10
71.84266883225274
 20
-117.8304291935797
 30
0.0
 11
71.84266883225274
 21
-84.83042919357968
 31
0.0
1001
ACAD
1000
DSTYLE
1002
{
1070
    45
1040
0.5
1070
   271
1070
     0
1002
}
  0
LINE
  5
14D34
  8
1DIM
 10
-46.95733044166496
 20
-185.8304288182276
 30
0.0
 11
-108.8573291933434
 21
-185.8304288182276
 31
0.0
1001
ACAD
1000
DSTYLE
1002
{
1070
     3
1000
<>
1070
    45
1040
0.5
1002
}
  0
LINE
  5
14D35
  8
1DIM
 10
-44.45732842593367
 20
-82.83042919357968
 30
0.0
 11
-108.8573291933434
 21
-82.83042919357968
 31
0.0
1001
ACAD
1000
DSTYLE
1002
{
1070
     3
1000
<>
1070
    45
1040
0.5
1002
}
  0
LINE
  5
14D36
  8
1DIM
 10
-107.8573291933434
 20
-183.8304288182276
 30
0.0
 11
-107.8573291933434
 21
-84.83042919357968
 31
0.0
1001
ACAD
1000
DSTYLE
1002
{
1070
     3
1000
<>
1070
    45
1040
0.5
1002
}
  0
LINE
  5
14D3A
  8
1DIM
 10
-99.3917543211158
 20
-166.0717992237294
 30
0.0
 11
-99.3917543211158
 21
-62.83042919357933
 31
0.0
1001
ACAD
1000
DSTYLE
1002
{
1070
    45
1040
0.5
1070
   271
1070
     0
1002
}
  0
LINE
  5
14D3B
  8
1DIM
 10
34.54267080665664
 20
-76.60225560829758
 30
0.0
 11
34.54267080665664
 21
-62.83042919357933
 31
0.0
1001
ACAD
1000
DSTYLE
1002
{
1070
    45
1040
0.5
1070
   271
1070
     0
1002
}
  0
LINE
  5
14D3C
  8
1DIM
 10
-97.3917543211158
 20
-63.83042919357933
 30
0.0
 11
32.54267080665664
 21
-63.83042919357933
 31
0.0
1001
ACAD
1000
DSTYLE
1002
{
1070
    45
1040
0.5
1070
   271
1070
     0
1002
}
  0
SOLID
  5
14D40
  8
1DIM
 10
38.19727513665296
 20
-82.94452805614455
 30
-0.0000000000026063
 11
37.45634040996009
 21
-84.83188781037575
 31
-0.0000000000026063
 12
37.54510793383782
 22
-82.8062443477161
 32
-0.0000000000026063
 13
37.54510793383782
 23
-82.8062443477161
 33
-0.0000000000026063
1001
ACAD
1000
DSTYLE
1002
{
1070
    45
1040
0.5
1002
}
  0
LINE
  5
14D41
  8
1DIM
 10
37.87119153524539
 20
-82.87538620193033
 30
-0.0000000000026063
 11
40.58018434307517
 21
-70.09936014646026
 31
-0.0000000000026063
1001
ACAD
1000
DSTYLE
1002
{
1070
    45
1040
0.5
1002
}
  0
SOLID
  5
14D42
  8
1DIM
 10
51.33269328181817
 20
-82.94452805614455
 30
-0.0000000000026063
 11
50.5917585551253
 21
-84.83188781037575
 31
-0.0000000000026063
 12
50.68052607900302
 22
-82.8062443477161
 32
-0.0000000000026063
 13
50.68052607900302
 23
-82.8062443477161
 33
-0.0000000000026063
1001
ACAD
1000
DSTYLE
1002
{
1070
    45
1040
0.5
1002
}
  0
LINE
  5
14D43
  8
1DIM
 10
51.00660968041059
 20
-82.87538620193033
 30
-0.0000000000026063
 11
53.71560248824038
 21
-70.09936014646026
 31
-0.0000000000026063
1001
ACAD
1000
DSTYLE
1002
{
1070
    45
1040
0.5
1002
}
  0
TEXT
  5
14D44
  8
1DIM
  6
CONTINUOUS
 10
20.59926813715977
 20
-157.738559824442
 30
0.0000000000000006
 40
3.5
  1
材質：亜鉛ダイキャスト
  0
TEXT
  5
14D45
  8
1DIM
  6
CONTINUOUS
 10
20.71593480382644
 20
-163.5718931577753
 30
0.0000000000000006
 40
3.5
  1
仕上げ：クローム
  0
SOLID
  5
14D46
  8
1DIM
 10
0.1213590522277234
 20
-101.7409094960237
 30
0.0000000000000006
 11
-0.1225504934093919
 21
-99.72804605190777
 31
0.0000000000000006
 12
0.7609953289335833
 22
-101.553000268027
 32
0.0000000000000006
 13
0.7609953289335833
 23
-101.553000268027
 33
0.0000000000000006
1001
ACAD
1000
DSTYLE
1002
{
1070
    45
1040
0.5
1002
}
  0
LINE
  5
14D47
  8
1DIM
 10
0.4411771905806536
 20
-101.6469548820253
 30
0.0000000000000006
 11
19.1326014704931
 21
-165.2718931577753
 31
0.0000000000000006
1001
ACAD
1000
DSTYLE
1002
{
1070
    45
1040
0.5
1002
}
  0
LINE
  5
14D48
  8
1DIM
 10
19.1326014704931
 20
-165.2718931577753
 30
0.0000000000000006
 11
21.1326014704931
 21
-165.2718931577753
 31
0.0000000000000006
1001
ACAD
1000
DSTYLE
1002
{
1070
    45
1040
0.5
1002
}
  0
LINE
  5
14D49
  8
1DIM
 10
34.54266883225267
 20
-144.8304291935797
 30
0.0
 11
80.3926695996625
 21
-144.8304291935797
 31
0.0
1001
ACAD
1000
DSTYLE
1002
{
1070
     3
1000
<>
1070
    45
1040
0.5
1002
}
  0
LINE
  5
14D4A
  8
1DIM
 10
33.54266959966247
 20
-82.83042919357968
 30
0.0
 11
80.3926695996625
 21
-82.83042919357968
 31
0.0
1001
ACAD
1000
DSTYLE
1002
{
1070
     3
1000
<>
1070
    45
1040
0.5
1002
}
  0
LINE
  5
14D4B
  8
1DIM
 10
79.3926695996625
 20
-142.8304291935797
 30
0.0
 11
79.3926695996625
 21
-84.83042919357968
 31
0.0
1001
ACAD
1000
DSTYLE
1002
{
1070
     3
1000
<>
1070
    45
1040
0.5
1002
}
  0
SOLID
  5
14D4F
  8
1DIM
 10
-246.0647349826141
 20
-26.1758646926695
 30
0.0
 11
-246.1288151316189
 21
-24.14929003438162
 31
0.0
 12
-245.4109313177102
 22
-26.04553736551722
 32
0.0
 13
-245.4109313177102
 23
-26.04553736551722
 33
0.0
1001
ACAD
1000
DSTYLE
1002
{
1070
    45
1040
0.5
1002
}
  0
LINE
  5
14D50
  8
1DIM
 10
-245.7378331501621
 20
-26.11070102909336
 30
0.0
 11
-237.920398231706
 21
-65.32786071090355
 31
0.0
1001
ACAD
1000
DSTYLE
1002
{
1070
    45
1040
0.5
1002
}
  0
LINE
  5
14D51
  8
1DIM
 10
-237.920398231706
 20
-65.32786071090355
 30
0.0
 11
-198.2370648983726
 21
-65.32786071090355
 31
0.0
1001
ACAD
1000
DSTYLE
1002
{
1070
    45
1040
0.5
1002
}
  0
TEXT
  5
14D52
  8
1DIM
  6
CONTINUOUS
 10
-236.4537315650393
 20
-57.79452737757022
 30
0.0
 40
3.5
  1
材質：化粧合板
  0
TEXT
  5
14D53
  8
1DIM
  6
CONTINUOUS
 10
-236.3370648983727
 20
-63.62786071090355
 30
0.0
 40
3.5
  1
仕上げ：各種仕上げ
  0
LINE
  5
14D54
  8
1DIM
 10
-210.1313
 20
-123.2054
 30
0.0
 11
-210.1313
 21
-148.8294281201611
 31
0.0
1001
ACAD
1000
DSTYLE
1002
{
1070
    70
1070
     0
1070
    69
1070
     0
1070
    45
1040
0.5
1070
   271
1070
     0
1002
}
  0
LINE
  5
14D55
  8
1DIM
 10
-180.1313
 20
-123.2054
 30
0.0
 11
-180.1313
 21
-148.8294281201611
 31
0.0
1001
ACAD
1000
DSTYLE
1002
{
1070
    70
1070
     0
1070
    69
1070
     0
1070
    45
1040
0.5
1070
   271
1070
     0
1002
}
  0
LINE
  5
14D56
  8
1DIM
 10
-208.1313
 20
-147.8294281201611
 30
0.0
 11
-182.1313
 21
-147.8294281201611
 31
0.0
1001
ACAD
1000
DSTYLE
1002
{
1070
    70
1070
     0
1070
    69
1070
     0
1070
    45
1040
0.5
1070
   271
1070
     0
1002
}
  0
LINE
  5
14D5A
  8
0
  6
BYBLOCK
 10
-115.1671686763545
 20
35.48347818439912
 30
0.0
 11
-114.6312702963545
 21
37.48347818439912
 31
0.0
  0
LINE
  5
14D5B
  8
0
  6
BYBLOCK
 10
-114.6312702963545
 20
37.48347818439912
 30
0.0
 11
-114.0953719163545
 21
35.48347818439912
 31
0.0
  0
LINE
  5
14D5C
  8
0
  6
BYBLOCK
 10
-114.6312702963545
 20
37.48347818439912
 30
0.0
 11
-114.6312702963545
 21
35.48347818439912
 31
0.0
  0
LINE
  5
14D5D
  8
0
  6
BYBLOCK
 10
-114.0953719163545
 20
-46.51652181560089
 30
0.0
 11
-114.6312702963545
 21
-48.51652181560089
 31
0.0
  0
LINE
  5
14D5E
  8
0
  6
BYBLOCK
 10
-114.6312702963545
 20
-48.51652181560089
 30
0.0
 11
-115.1671686763545
 21
-46.51652181560089
 31
0.0
  0
LINE
  5
14D5F
  8
0
  6
BYBLOCK
 10
-114.6312702963545
 20
-48.51652181560089
 30
0.0
 11
-114.6312702963545
 21
-46.51652181560089
 31
0.0
  0
TEXT
  5
14D60
  8
1DIM
  6
CONTINUOUS
 10
-115.3312702963545
 20
-31.48700792671201
 30
0.0
 40
3.5
  1
86 （ペーパー無し最小値）
 50
90.0
1001
ACAD
1000
DSTYLE
1002
{
1070
    45
1040
0.5
1070
   271
1070
     0
1002
}
  0
LINE
  5
14D61
  8
0
  6
BYBLOCK
 10
-262.6312703224313
 20
-79.43310666922345
 30
0.0
 11
-264.6312703224313
 21
-78.89720828922344
 31
0.0
  0
LINE
  5
14D62
  8
0
  6
BYBLOCK
 10
-264.6312703224313
 20
-78.89720828922344
 30
0.0
 11
-262.6312703224313
 21
-78.36130990922344
 31
0.0
  0
LINE
  5
14D63
  8
0
  6
BYBLOCK
 10
-264.6312703224313
 20
-78.89720828922344
 30
0.0
 11
-262.6312703224313
 21
-78.89720828922344
 31
0.0
  0
LINE
  5
14D64
  8
0
  6
BYBLOCK
 10
-127.6312703224313
 20
-78.36130990922344
 30
0.0
 11
-125.6312703224313
 21
-78.89720828922344
 31
0.0
  0
LINE
  5
14D65
  8
0
  6
BYBLOCK
 10
-125.6312703224313
 20
-78.89720828922344
 30
0.0
 11
-127.6312703224313
 21
-79.43310666922345
 31
0.0
  0
LINE
  5
14D66
  8
0
  6
BYBLOCK
 10
-125.6312703224313
 20
-78.89720828922344
 30
0.0
 11
-127.6312703224313
 21
-78.89720828922344
 31
0.0
  0
TEXT
  5
14D67
  8
1DIM
  6
CONTINUOUS
 10
-199.2154138409498
 20
-78.19720828922344
 30
0.0
 40
3.5
  1
139
1001
ACAD
1000
DSTYLE
1002
{
1070
    70
1070
     0
1070
    69
1070
     0
1070
    45
1040
0.5
1070
   271
1070
     0
1002
}
  0
LINE
  5
14D68
  8
0
  6
BYBLOCK
 10
72.37856721225275
 20
-117.8304291935797
 30
0.0
 11
71.84266883225274
 21
-119.8304291935797
 31
0.0
  0
LINE
  5
14D69
  8
0
  6
BYBLOCK
 10
71.84266883225274
 20
-119.8304291935797
 30
0.0
 11
71.30677045225274
 21
-117.8304291935797
 31
0.0
  0
LINE
  5
14D6A
  8
0
  6
BYBLOCK
 10
71.84266883225274
 20
-119.8304291935797
 30
0.0
 11
71.84266883225274
 21
-117.8304291935797
 31
0.0
  0
LINE
  5
14D6B
  8
0
  6
BYBLOCK
 10
71.30677045225274
 20
-84.83042919357968
 30
0.0
 11
71.84266883225274
 21
-82.83042919357968
 31
0.0
  0
LINE
  5
14D6C
  8
0
  6
BYBLOCK
 10
71.84266883225274
 20
-82.83042919357968
 30
0.0
 11
72.37856721225275
 21
-84.83042919357968
 31
0.0
  0
LINE
  5
14D6D
  8
0
  6
BYBLOCK
 10
71.84266883225274
 20
-82.83042919357968
 30
0.0
 11
71.84266883225274
 21
-84.83042919357968
 31
0.0
  0
TEXT
  5
14D6E
  8
1DIM
  6
CONTINUOUS
 10
71.14266883225274
 20
-104.2470958602464
 30
0.0
 40
3.5
  1
37
 50
90.0
1001
ACAD
1000
DSTYLE
1002
{
1070
    45
1040
0.5
1070
   271
1070
     0
1002
}
  0
LINE
  5
14D6F
  8
0
  6
BYBLOCK
 10
-107.3214308133434
 20
-183.8304288182276
 30
0.0
 11
-107.8573291933434
 21
-185.8304288182276
 31
0.0
  0
LINE
  5
14D70
  8
0
  6
BYBLOCK
 10
-107.8573291933434
 20
-185.8304288182276
 30
0.0
 11
-108.3932275733434
 21
-183.8304288182276
 31
0.0
  0
LINE
  5
14D71
  8
0
  6
BYBLOCK
 10
-107.8573291933434
 20
-185.8304288182276
 30
0.0
 11
-107.8573291933434
 21
-183.8304288182276
 31
0.0
  0
LINE
  5
14D72
  8
0
  6
BYBLOCK
 10
-108.3932275733434
 20
-84.83042919357968
 30
0.0
 11
-107.8573291933434
 21
-82.83042919357968
 31
0.0
  0
LINE
  5
14D73
  8
0
  6
BYBLOCK
 10
-107.8573291933434
 20
-82.83042919357968
 30
0.0
 11
-107.3214308133434
 21
-84.83042919357968
 31
0.0
  0
LINE
  5
14D74
  8
0
  6
BYBLOCK
 10
-107.8573291933434
 20
-82.83042919357968
 30
0.0
 11
-107.8573291933434
 21
-84.83042919357968
 31
0.0
  0
TEXT
  5
14D75
  8
1DIM
  6
CONTINUOUS
 10
-108.5573291933434
 20
-138.1220956725703
 30
0.0
 40
3.5
  1
103
 50
90.0
1001
ACAD
1000
DSTYLE
1002
{
1070
     3
1000
<>
1070
    45
1040
0.5
1002
}
  0
LINE
  5
14D76
  8
0
  6
BYBLOCK
 10
-97.3917543211158
 20
-64.36632757357934
 30
0.0
 11
-99.3917543211158
 21
-63.83042919357933
 31
0.0
  0
LINE
  5
14D77
  8
0
  6
BYBLOCK
 10
-99.3917543211158
 20
-63.83042919357933
 30
0.0
 11
-97.3917543211158
 21
-63.29453081357934
 31
0.0
  0
LINE
  5
14D78
  8
0
  6
BYBLOCK
 10
-99.3917543211158
 20
-63.83042919357933
 30
0.0
 11
-97.3917543211158
 21
-63.83042919357933
 31
0.0
  0
LINE
  5
14D79
  8
0
  6
BYBLOCK
 10
32.54267080665664
 20
-63.29453081357934
 30
0.0
 11
34.54267080665664
 21
-63.83042919357933
 31
0.0
  0
LINE
  5
14D7A
  8
0
  6
BYBLOCK
 10
34.54267080665664
 20
-63.83042919357933
 30
0.0
 11
32.54267080665664
 21
-64.36632757357934
 31
0.0
  0
LINE
  5
14D7B
  8
0
  6
BYBLOCK
 10
34.54267080665664
 20
-63.83042919357933
 30
0.0
 11
32.54267080665664
 21
-63.83042919357933
 31
0.0
  0
TEXT
  5
14D7C
  8
1DIM
  6
CONTINUOUS
 10
-59.54954175722958
 20
-63.13042919357933
 30
0.0
 40
3.5
  1
134 （ペーパー付き最大値）
1001
ACAD
1000
DSTYLE
1002
{
1070
    45
1040
0.5
1070
   271
1070
     0
1002
}
  0
LINE
  5
14D7D
  8
0
  6
BYBLOCK
 10
79.9285679796625
 20
-142.8304291935797
 30
0.0
 11
79.3926695996625
 21
-144.8304291935797
 31
0.0
  0
LINE
  5
14D7E
  8
0
  6
BYBLOCK
 10
79.3926695996625
 20
-144.8304291935797
 30
0.0
 11
78.85677121966249
 21
-142.8304291935797
 31
0.0
  0
LINE
  5
14D7F
  8
0
  6
BYBLOCK
 10
79.3926695996625
 20
-144.8304291935797
 30
0.0
 11
79.3926695996625
 21
-142.8304291935797
 31
0.0
  0
LINE
  5
14D80
  8
0
  6
BYBLOCK
 10
78.85677121966249
 20
-84.83042919357968
 30
0.0
 11
79.3926695996625
 21
-82.83042919357968
 31
0.0
  0
LINE
  5
14D81
  8
0
  6
BYBLOCK
 10
79.3926695996625
 20
-82.83042919357968
 30
0.0
 11
79.9285679796625
 21
-84.83042919357968
 31
0.0
  0
LINE
  5
14D82
  8
0
  6
BYBLOCK
 10
79.3926695996625
 20
-82.83042919357968
 30
0.0
 11
79.3926695996625
 21
-84.83042919357968
 31
0.0
  0
TEXT
  5
14D83
  8
1DIM
  6
CONTINUOUS
 10
78.6926695996625
 20
-116.7592486380241
 30
0.0
 40
3.5
  1
62
 50
90.0
1001
ACAD
1000
DSTYLE
1002
{
1070
     3
1000
<>
1070
    45
1040
0.5
1002
}
  0
LINE
  5
14D84
  8
0
  6
BYBLOCK
 10
-208.1313
 20
-148.3653265001611
 30
0.0
 11
-210.1313
 21
-147.8294281201611
 31
0.0
  0
LINE
  5
14D85
  8
0
  6
BYBLOCK
 10
-210.1313
 20
-147.8294281201611
 30
0.0
 11
-208.1313
 21
-147.2935297401611
 31
0.0
  0
LINE
  5
14D86
  8
0
  6
BYBLOCK
 10
-210.1313
 20
-147.8294281201611
 30
0.0
 11
-208.1313
 21
-147.8294281201611
 31
0.0
  0
LINE
  5
14D87
  8
0
  6
BYBLOCK
 10
-182.1313
 20
-147.2935297401611
 30
0.0
 11
-180.1313
 21
-147.8294281201611
 31
0.0
  0
LINE
  5
14D88
  8
0
  6
BYBLOCK
 10
-180.1313
 20
-147.8294281201611
 30
0.0
 11
-182.1313
 21
-148.3653265001611
 31
0.0
  0
LINE
  5
14D89
  8
0
  6
BYBLOCK
 10
-180.1313
 20
-147.8294281201611
 30
0.0
 11
-182.1313
 21
-147.8294281201611
 31
0.0
  0
TEXT
  5
14D8A
  8
1DIM
  6
CONTINUOUS
 10
-199.7908440715582
 20
-147.1294281201611
 30
0.0
 40
3.5
  1
P30
1001
ACAD
1000
DSTYLE
1002
{
1070
    70
1070
     0
1070
    69
1070
     0
1070
    45
1040
0.5
1070
   271
1070
     0
1002
}
  0
VIEWPORT
  5
57
 67
     1
  8
0
 10
0.0
 20
0.0
 30
0.0
 40
554.37576499388
 41
297.0
 68
     1
 69
     1
1001
ACAD
1000
MVIEW
1002
{
1070
    16
1010
0.0
1020
0.0
1030
0.0
1010
0.0
1020
0.0
1030
1.0
1040
0.0
1040
297.0
1040
-4.171999999925276
1040
12.83903210976956
1040
50.0
1040
0.0
1040
0.0
1070
    16
1070
   100
1070
     0
1070
     1
1070
     0
1070
     0
1070
     0
1070
     0
1040
0.0
1040
0.0
1040
0.0
1040
10.0
1040
10.0
1040
10.0
1040
10.0
1070
     0
1002
{
1002
}
1002
}
  0
ENDSEC
  0
EOF
