  0
SECTION
  2
HEADER
  9
$ACADVER
  1
AC1009
  9
$DWGCODEPAGE
  3
ansi_932
  9
$INSBASE
 10
0.0
 20
0.0
 30
0.0
  9
$EXTMIN
 10
489.5314056632232
 20
-727.9776775249416
 30
0.0
  9
$EXTMAX
 10
723.8436125890394
 20
-522.8819677606265
 30
0.0000000000012213
  9
$LIMMIN
 10
0.0
 20
0.0
  9
$LIMMAX
 10
420.0
 20
297.0
  9
$ORTHOMODE
 70
     0
  9
$REGENMODE
 70
     1
  9
$FILLMODE
 70
     1
  9
$QTEXTMODE
 70
     0
  9
$MIRRTEXT
 70
     0
  9
$DRAGMODE
 70
     2
  9
$LTSCALE
 40
0.5
  9
$OSMODE
 70
 14591
  9
$ATTMODE
 70
     1
  9
$TEXTSIZE
 40
4.0
  9
$TRACEWID
 40
1.0
  9
$TEXTSTYLE
  7
STANDARD
  9
$CLAYER
  8
1TEXT
  9
$CELTYPE
  6
BYLAYER
  9
$CECOLOR
 62
   256
  9
$DIMSCALE
 40
1.0
  9
$DIMASZ
 40
2.0
  9
$DIMEXO
 40
0.0
  9
$DIMDLI
 40
7.0
  9
$DIMRND
 40
0.0
  9
$DIMDLE
 40
0.0
  9
$DIMEXE
 40
1.0
  9
$DIMTP
 40
0.0
  9
$DIMTM
 40
0.0
  9
$DIMTXT
 40
3.5
  9
$DIMCEN
 40
0.0
  9
$DIMTSZ
 40
0.0
  9
$DIMTOL
 70
     0
  9
$DIMLIM
 70
     0
  9
$DIMTIH
 70
     0
  9
$DIMTOH
 70
     0
  9
$DIMSE1
 70
     0
  9
$DIMSE2
 70
     0
  9
$DIMTAD
 70
     1
  9
$DIMZIN
 70
     8
  9
$DIMBLK
  1

  9
$DIMASO
 70
     1
  9
$DIMSHO
 70
     1
  9
$DIMPOST
  1
 
  9
$DIMAPOST
  1

  9
$DIMALT
 70
     0
  9
$DIMALTD
 70
     2
  9
$DIMALTF
 40
25.4
  9
$DIMLFAC
 40
1.0
  9
$DIMTOFL
 70
     1
  9
$DIMTVP
 40
0.0
  9
$DIMTIX
 70
     0
  9
$DIMSOXD
 70
     0
  9
$DIMSAH
 70
     1
  9
$DIMBLK1
  1
OPEN30
  9
$DIMBLK2
  1
OPEN30
  9
$DIMSTYLE
  2
NEWX10
  9
$DIMCLRD
 70
   256
  9
$DIMCLRE
 70
   256
  9
$DIMCLRT
 70
   201
  9
$DIMTFAC
 40
0.7
  9
$DIMGAP
 40
0.7
  9
$LUNITS
 70
     2
  9
$LUPREC
 70
     4
  9
$SKETCHINC
 40
1.0
  9
$FILLETRAD
 40
0.0
  9
$AUNITS
 70
     0
  9
$AUPREC
 70
     2
  9
$MENU
  1
acad
  9
$ELEVATION
 40
0.0
  9
$PELEVATION
 40
0.0
  9
$THICKNESS
 40
0.0
  9
$LIMCHECK
 70
     0
  9
$CHAMFERA
 40
1.0
  9
$CHAMFERB
 40
1.0
  9
$SKPOLY
 70
     0
  9
$TDCREATE
 40
2453033.732663484
  9
$TDUPDATE
 40
2459788.378961134
  9
$TDINDWG
 40
2.8652360185
  9
$TDUSRTIMER
 40
2.8652360185
  9
$USRTIMER
 70
     1
  9
$ANGBASE
 50
0.0
  9
$ANGDIR
 70
     0
  9
$PDMODE
 70
     0
  9
$PDSIZE
 40
0.0
  9
$PLINEWID
 40
0.0
  9
$COORDS
 70
     2
  9
$SPLFRAME
 70
     0
  9
$SPLINETYPE
 70
     6
  9
$SPLINESEGS
 70
     8
  9
$ATTDIA
 70
     0
  9
$ATTREQ
 70
     1
  9
$HANDLING
 70
     1
  9
$HANDSEED
  5
24ADA
  9
$SURFTAB1
 70
     6
  9
$SURFTAB2
 70
     6
  9
$SURFTYPE
 70
     6
  9
$SURFU
 70
     6
  9
$SURFV
 70
     6
  9
$UCSNAME
  2

  9
$UCSORG
 10
0.0
 20
0.0
 30
0.0
  9
$UCSXDIR
 10
1.0
 20
0.0
 30
0.0
  9
$UCSYDIR
 10
0.0
 20
1.0
 30
0.0
  9
$PUCSNAME
  2

  9
$PUCSORG
 10
0.0
 20
0.0
 30
0.0
  9
$PUCSXDIR
 10
1.0
 20
0.0
 30
0.0
  9
$PUCSYDIR
 10
0.0
 20
1.0
 30
0.0
  9
$USERI1
 70
     0
  9
$USERI2
 70
     0
  9
$USERI3
 70
     0
  9
$USERI4
 70
     0
  9
$USERI5
 70
     0
  9
$USERR1
 40
0.0
  9
$USERR2
 40
0.0
  9
$USERR3
 40
0.0
  9
$USERR4
 40
0.0
  9
$USERR5
 40
0.0
  9
$WORLDVIEW
 70
     1
  9
$SHADEDGE
 70
     3
  9
$SHADEDIF
 70
    70
  9
$TILEMODE
 70
     1
  9
$MAXACTVP
 70
    48
  9
$PLIMCHECK
 70
     0
  9
$PEXTMIN
 10
1.000000000000000E+20
 20
1.000000000000000E+20
 30
1.000000000000000E+20
  9
$PEXTMAX
 10
-1.000000000000000E+20
 20
-1.000000000000000E+20
 30
-1.000000000000000E+20
  9
$PLIMMIN
 10
0.0
 20
0.0
  9
$PLIMMAX
 10
420.0
 20
297.0
  9
$UNITMODE
 70
     0
  9
$VISRETAIN
 70
     1
  9
$PLINEGEN
 70
     0
  9
$PSLTSCALE
 70
     1
  0
ENDSEC
  0
SECTION
  2
TABLES
  0
TABLE
  2
VPORT
 70
     1
  0
VPORT
  2
*ACTIVE
 70
     0
 10
0.0
 20
0.0
 11
1.0
 21
1.0
 12
606.6875091261313
 22
-625.4298226427841
 13
0.0
 23
0.0
 14
10.0
 24
10.0
 15
10.0
 25
10.0
 16
0.0
 26
0.0
 36
1.0
 17
0.0
 27
0.0
 37
0.0
 40
220.2080252206331
 41
1.866585067319461
 42
50.0
 43
0.0
 44
0.0
 50
0.0
 51
0.0
 71
    16
 72
   100
 73
     1
 74
     1
 75
     0
 76
     0
 77
     0
 78
     0
  0
ENDTAB
  0
TABLE
  2
LTYPE
 70
    12
  0
LTYPE
  2
CONTINUOUS
 70
     0
  3
Solid line
 72
    65
 73
     0
 40
0.0
  0
LTYPE
  2
PHANTOM2
 70
     0
  3
Phantom (0.5x) ___ _ _ ___ _ _ ___ _ _ ___ _ _
 72
    65
 73
     6
 40
31.75
 49
15.875
 49
-3.175
 49
3.175
 49
-3.175
 49
3.175
 49
-3.175
  0
LTYPE
  2
CENTER2
 70
     0
  3
Center (.5x) ___ _ ___ _ ___ _ ___ _ ___ _ ___
 72
    65
 73
     4
 40
28.575
 49
19.05
 49
-3.175
 49
3.175
 49
-3.175
  0
ENDTAB
  0
TABLE
  2
LAYER
 70
    37
  0
LAYER
  2
0
 70
     0
 62
     7
  6
CONTINUOUS
  0
LAYER
  2
1CENTER
 70
     0
 62
     7
  6
CENTER2
  0
LAYER
  2
1TEXT
 70
     0
 62
     7
  6
CONTINUOUS
  0
LAYER
  2
1DIM
 70
     0
 62
     7
  6
CONTINUOUS
  0
LAYER
  2
1PHANTOM
 70
     0
 62
     7
  6
PHANTOM2
  0
LAYER
  2
01
 70
     0
 62
     1
  6
CONTINUOUS
  0
ENDTAB
  0
TABLE
  2
STYLE
 70
    18
  0
STYLE
  2
STANDARD
 70
     0
 40
0.0
 41
1.0
 50
0.0
 71
     0
 42
4.0
  3
txt.shx
  4
extfont.shx
  0
ENDTAB
  0
TABLE
  2
VIEW
 70
     0
  0
ENDTAB
  0
TABLE
  2
UCS
 70
     0
  0
ENDTAB
  0
TABLE
  2
APPID
 70
    31
  0
APPID
  2
ACAD
 70
     0
  0
APPID
  2
DRAWINGVARIABLESXDATA
 70
     0
  0
APPID
  2
CONTENTTABDATA
 70
     0
  0
APPID
  2
CONTENTCURRENTTAB
 70
     0
  0
APPID
  2
CONTENTBLOCKDESCRIPTION
 70
     0
  0
APPID
  2
CONTENTBLOCKICON
 70
     0
  0
APPID
  2
CONTENTLONGBLOCKNAME
 70
     0
  0
APPID
  2
ACAD_PSEXT
 70
     0
  0
APPID
  2
ACAD_DSTYLE_DIMTEXT_FILL
 70
     0
  0
APPID
  2
ACAD_MLEADERVER
 70
     0
  0
APPID
  2
ACAD_DSTYLE_DIMRADIAL_EXTE
 70
     0
  0
APPID
  2
ACADANNOTATIVE
 70
     0
  0
APPID
  2
ACAD_EXEMPT_FROM_CAD_STAND
 70
     0
  0
APPID
  2
ACDBBLOCKREPETAG
 70
     0
  0
APPID
  2
ACAD_OBJECT_CHANGE_GUID
 70
     0
  0
APPID
  2
ACLAYERTOOLS
 70
     0
  0
APPID
  2
ACAD_NAV_VCDISPLAY
 70
     0
  0
APPID
  2
ACAD_DSTYLE_DIMJOGGED_JOGA
 70
     0
  0
APPID
  2
ACAD_DSTYLE_DIM_LINETYPE
 70
     0
  0
APPID
  2
ACAD_DSTYLE_DIM_EXT1_LINET
 70
     0
  0
APPID
  2
ACAD_DSTYLE_DIM_EXT2_LINET
 70
     0
  0
APPID
  2
ACDBDYNAMICBLOCKTRUENAME
 70
     0
  0
APPID
  2
ACDBDYNAMICBLOCKGUID
 70
     0
  0
APPID
  2
ACDBBLOCKREPBTAG
 70
     0
  0
APPID
  2
ACAUTHENVIRON
 70
     0
  0
APPID
  2
ACADANNOPO
 70
     0
  0
APPID
  2
ACAECLAYERSTANDARD
 70
     0
  0
APPID
  2
ACAD_DIMASSOC_CALC_DIMLFAC
 70
     0
  0
APPID
  2
ACAD_DIMASSOC_DIMLFAC
 70
     0
  0
APPID
  2
ACAD_DIMASSOC_OVERRIDDEN_D
 70
     0
  0
APPID
  2
ACADANNOTATIVEDECOMPOSITIO
 70
     0
  0
ENDTAB
  0
TABLE
  2
DIMSTYLE
 70
     2
  0
DIMSTYLE
  2
NEWX10
 70
     0
  3
 
  4

  5

  6
OPEN30
  7
OPEN30
 40
1.0
 41
2.0
 42
0.0
 43
7.0
 44
1.0
 45
0.0
 46
0.0
 47
0.0
 48
0.0
140
3.5
141
0.0
142
0.0
143
25.4
144
1.0
145
0.0
146
0.7
147
0.7
 71
     0
 72
     0
 73
     0
 74
     0
 75
     0
 76
     0
 77
     1
 78
     8
170
     0
171
     2
172
     1
173
     1
174
     0
175
     0
176
   256
177
   256
178
   201
  0
DIMSTYLE
  2
ISO-25
 70
     0
  3

  4

  5

  6

  7

 40
1.0
 41
20.0
 42
3.0
 43
3.75
 44
2.0
 45
0.0
 46
0.0
 47
0.0
 48
0.0
140
30.0
141
5.0
142
0.0
143
0.03937
144
1.0
145
0.0
146
1.0
147
8.0
 71
     0
 72
     0
 73
     0
 74
     0
 75
     0
 76
     0
 77
     1
 78
     8
170
     0
171
     3
172
     1
173
     0
174
     0
175
     0
176
     1
177
     1
178
     1
  0
ENDTAB
  0
ENDSEC
  0
SECTION
  2
BLOCKS
  0
BLOCK
  8
0
  2
$MODEL_SPACE
 70
     0
 10
0.0
 20
0.0
 30
0.0
  3
$MODEL_SPACE
  1

  0
ENDBLK
  5
1A
  8
0
  0
BLOCK
 67
     1
  8
0
  2
$PAPER_SPACE
 70
     0
 10
0.0
 20
0.0
 30
0.0
  3
$PAPER_SPACE
  1

  0
ENDBLK
  5
17
 67
     1
  8
0
  0
BLOCK
  8
0
  2
_OPEN30
 70
     0
 10
0.0
 20
0.0
 30
0.0
  3
_OPEN30
  1

  0
LINE
  5
44
  8
0
  6
BYBLOCK
 62
     0
 10
-1.0
 20
0.26794919
 30
0.0
 11
0.0
 21
0.0
 31
0.0
  0
LINE
  5
45
  8
0
  6
BYBLOCK
 62
     0
 10
0.0
 20
0.0
 30
0.0
 11
-1.0
 21
-0.26794919
 31
0.0
  0
LINE
  5
46
  8
0
  6
BYBLOCK
 62
     0
 10
0.0
 20
0.0
 30
0.0
 11
-1.0
 21
0.0
 31
0.0
  0
ENDBLK
  5
47
  8
0
  0
BLOCK
  8
0
  2
A3WAKUKAWAJUN2017_HYOUDAI_
 70
     0
 10
0.0
 20
0.0
 30
0.0
  3
A3WAKUKAWAJUN2017_HYOUDAI_
  1

  0
LINE
  5
1FECB
  8
0
 10
13.26299999998673
 20
-0.0001000000000317
 30
0.0
 11
9.236999999990758
 21
8.999899999990987
 31
0.0
1001
ACAD
1000
ASC_BOUNDS
1002
{
1070
    19
1005
1FF0C
1002
}
  0
LINE
  5
1FECC
  8
0
 10
5.657999999994331
 20
0.9999999999989768
 30
0.0
 11
9.236999999990758
 21
8.999999999991019
 31
0.0
1001
ACAD
1000
ASC_BOUNDS
1002
{
1070
    19
1005
1FF0C
1002
}
  0
LINE
  5
1FECD
  8
0
 10
18.59199999998134
 20
-0.2368999999997641
 30
0.0
 11
16.46099999998353
 21
5.432899999994561
 31
0.0
1001
ACAD
1000
ASC_BOUNDS
1002
{
1070
    19
1005
1FF0D
1002
}
  0
LINE
  5
1FECE
  8
0
 10
18.59199999998134
 20
-0.2368999999997641
 30
0.0
 11
22.38199999997767
 21
8.763099999991255
 31
0.0
1001
ACAD
1000
ASC_BOUNDS
1002
{
1070
    19
1005
1FF0D
1002
}
  0
LINE
  5
1FECF
  8
0
 10
14.32899999998563
 20
-0.2368999999997641
 30
0.0
 11
16.46099999998353
 21
5.432899999994561
 31
0.0
1001
ACAD
1000
ASC_BOUNDS
1002
{
1070
    19
1005
1FF0D
1002
}
  0
LINE
  5
1FED0
  8
0
 10
14.32899999998563
 20
-0.2368999999997641
 30
0.0
 11
10.53899999998941
 21
8.763099999991255
 31
0.0
1001
ACAD
1000
ASC_BOUNDS
1002
{
1070
    19
1005
1FF0D
1002
}
  0
LINE
  5
1FED1
  8
0
 10
19.53899999998043
 20
-0.0001000000000317
 30
0.0
 11
23.56599999997638
 21
8.999899999990987
 31
0.0
1001
ACAD
1000
ASC_BOUNDS
1002
{
1070
    19
1005
1FF0E
1002
}
  0
LINE
  5
1FED2
  8
0
 10
26.97358892824991
 20
1.383099999991202
 30
0.0
 11
23.56599999997638
 21
8.999899999990987
 31
0.0
1001
ACAD
1000
ASC_BOUNDS
1002
{
1070
    19
1005
1FF0E
1002
}
  0
LINE
  5
1FED3
  8
0
 10
5.657999999994331
 20
0.9999999999989768
 30
0.0
 11
3.181999999996833
 21
4.668599999995308
 31
0.0
1001
ACAD
1000
ASC_BOUNDS
1002
{
1070
    19
1005
1FF0C
1002
}
  0
LINE
  5
1FED4
  8
0
 10
4.617999999995391
 20
-0.0001000000000317
 30
0.0
 11
1.420999999998571
 21
4.736799999995242
 31
0.0
1001
ACAD
1000
ASC_BOUNDS
1002
{
1070
    19
1005
1FF0C
1002
}
  0
LINE
  5
1FED5
  8
0
 10
1.420999999998571
 20
8.763099999991255
 30
0.0
 11
1.420999999998571
 21
0.0
 31
0.0
1001
ACAD
1000
ASC_BOUNDS
1002
{
1070
    19
1005
1FF11
1002
}
  0
LINE
  5
1FED6
  8
0
 10
0.0
 20
8.763099999991255
 30
0.0
 11
0.0
 21
0.0
 31
0.0
1001
ACAD
1000
ASC_BOUNDS
1002
{
1070
    19
1005
1FF11
1002
}
  0
LINE
  5
1FED7
  8
0
 10
6.766999999993232
 20
-0.0001000000000317
 30
0.0
 11
7.826999999992154
 21
2.368399999997621
 31
0.0
1001
ACAD
1000
ASC_BOUNDS
1002
{
1070
    19
1005
1FF0C
1002
}
  0
LINE
  5
1FED8
  8
0
 10
0.0
 20
0.0
 30
0.0
 11
1.420999999998571
 21
0.0
 31
0.0
1001
ACAD
1000
ASC_BOUNDS
1002
{
1070
    19
1005
1FF11
1002
}
  0
LINE
  5
1FED9
  8
0
 10
4.617999999995391
 20
0.0
 30
0.0
 11
6.766999999993232
 21
0.0
 31
0.0
1001
ACAD
1000
ASC_BOUNDS
1002
{
1070
    19
1005
1FF0C
1002
}
  0
LINE
  5
1FEDA
  8
0
 10
11.70599999998831
 20
-0.0001000000000317
 30
0.0
 11
10.64699999998936
 21
2.368399999997621
 31
0.0
1001
ACAD
1000
ASC_BOUNDS
1002
{
1070
    19
1005
1FF0C
1002
}
  0
LINE
  5
1FEDB
  8
0
 10
7.826999999992154
 20
2.368399999997621
 30
0.0
 11
10.64699999998936
 21
2.368399999997621
 31
0.0
1001
ACAD
1000
ASC_BOUNDS
1002
{
1070
    19
1005
1FF0C
1002
}
  0
LINE
  5
1FEDC
  8
0
 10
11.70599999998831
 20
0.0
 30
0.0
 11
13.26299999998673
 21
0.0
 31
0.0
1001
ACAD
1000
ASC_BOUNDS
1002
{
1070
    19
1005
1FF0C
1002
}
  0
LINE
  5
1FEDD
  8
0
 10
22.15599999997789
 20
2.368399999997621
 30
0.0
 11
24.97599999997499
 21
2.368399999997621
 31
0.0
1001
ACAD
1000
ASC_BOUNDS
1002
{
1070
    19
1005
1FF0E
1002
}
  0
LINE
  5
1FEDE
  8
0
 10
19.53899999998043
 20
0.0
 30
0.0
 11
21.09599999997886
 21
0.0
 31
0.0
1001
ACAD
1000
ASC_BOUNDS
1002
{
1070
    19
1005
1FF0E
1002
}
  0
LINE
  5
1FEDF
  8
0
 10
21.09599999997886
 20
-0.0001000000000317
 30
0.0
 11
22.15599999997789
 21
2.368399999997621
 31
0.0
1001
ACAD
1000
ASC_BOUNDS
1002
{
1070
    19
1005
1FF0E
1002
}
  0
LINE
  5
1FEE0
  8
0
 10
26.02015566812236
 20
0.0330999999912365
 30
0.0
 11
24.97599999997499
 21
2.368399999997621
 31
0.0
1001
ACAD
1000
ASC_BOUNDS
1002
{
1070
    19
1005
1FF0E
1002
}
  0
LINE
  5
1FEE1
  8
0
 10
14.32399999998563
 20
3.315799999996671
 30
0.0
 11
16.46099999998353
 21
8.999899999990987
 31
0.0
1001
ACAD
1000
ASC_BOUNDS
1002
{
1070
    19
1005
1FF0D
1002
}
  0
LINE
  5
1FEE2
  8
0
 10
6.432999999993513
 20
8.763099999991255
 30
0.0
 11
3.181999999996833
 21
4.668599999995308
 31
0.0
1001
ACAD
1000
ASC_BOUNDS
1002
{
1070
    19
1005
1FF0C
1002
}
  0
LINE
  5
1FEE3
  8
0
 10
4.617999999995391
 20
8.763099999991255
 30
0.0
 11
1.420999999998571
 21
4.736799999995242
 31
0.0
1001
ACAD
1000
ASC_BOUNDS
1002
{
1070
    19
1005
1FF0C
1002
}
  0
LINE
  5
1FEE4
  8
0
 10
0.0
 20
8.763099999991255
 30
0.0
 11
1.420999999998571
 21
8.763099999991255
 31
0.0
1001
ACAD
1000
ASC_BOUNDS
1002
{
1070
    19
1005
1FF11
1002
}
  0
LINE
  5
1FEE5
  8
0
 10
4.617999999995391
 20
8.763099999991255
 30
0.0
 11
6.432999999993513
 21
8.763099999991255
 31
0.0
1001
ACAD
1000
ASC_BOUNDS
1002
{
1070
    19
1005
1FF0C
1002
}
  0
LINE
  5
1FEE6
  8
0
 10
14.32399999998563
 20
3.315799999996671
 30
0.0
 11
12.02999999998792
 21
8.763099999991255
 31
0.0
1001
ACAD
1000
ASC_BOUNDS
1002
{
1070
    19
1005
1FF0D
1002
}
  0
LINE
  5
1FEE7
  8
0
 10
10.06399999998996
 20
3.670999999996297
 30
0.0
 11
9.236999999990758
 21
5.5200999999945
 31
0.0
1001
ACAD
1000
ASC_BOUNDS
1002
{
1070
    19
1005
1FF0C
1002
}
  0
LINE
  5
1FEE8
  8
0
 10
8.409999999991555
 20
3.670999999996297
 30
0.0
 11
9.236999999990758
 21
5.5200999999945
 31
0.0
1001
ACAD
1000
ASC_BOUNDS
1002
{
1070
    19
1005
1FF0C
1002
}
  0
LINE
  5
1FEE9
  8
0
 10
8.409999999991555
 20
3.670999999996297
 30
0.0
 11
10.06399999998996
 21
3.670999999996297
 31
0.0
1001
ACAD
1000
ASC_BOUNDS
1002
{
1070
    19
1005
1FF0C
1002
}
  0
LINE
  5
1FEEA
  8
0
 10
10.53899999998941
 20
8.763099999991255
 30
0.0
 11
12.02999999998792
 21
8.763099999991255
 31
0.0
1001
ACAD
1000
ASC_BOUNDS
1002
{
1070
    19
1005
1FF0D
1002
}
  0
LINE
  5
1FEEB
  8
0
 10
22.7389999999773
 20
3.670999999996297
 30
0.0
 11
23.56599999997638
 21
5.5200999999945
 31
0.0
1001
ACAD
1000
ASC_BOUNDS
1002
{
1070
    19
1005
1FF0E
1002
}
  0
LINE
  5
1FEEC
  8
0
 10
22.7389999999773
 20
3.670999999996297
 30
0.0
 11
24.39299999997559
 21
3.670999999996297
 31
0.0
1001
ACAD
1000
ASC_BOUNDS
1002
{
1070
    19
1005
1FF0E
1002
}
  0
LINE
  5
1FEED
  8
0
 10
18.59799999998143
 20
3.315799999996671
 30
0.0
 11
20.89099999997916
 21
8.763099999991255
 31
0.0
1001
ACAD
1000
ASC_BOUNDS
1002
{
1070
    19
1005
1FF0D
1002
}
  0
LINE
  5
1FEEE
  8
0
 10
18.59799999998143
 20
3.315799999996671
 30
0.0
 11
16.46099999998353
 21
8.999899999990987
 31
0.0
1001
ACAD
1000
ASC_BOUNDS
1002
{
1070
    19
1005
1FF0D
1002
}
  0
LINE
  5
1FEEF
  8
0
 10
20.89099999997916
 20
8.763099999991255
 30
0.0
 11
22.38199999997767
 21
8.763099999991255
 31
0.0
1001
ACAD
1000
ASC_BOUNDS
1002
{
1070
    19
1005
1FF0D
1002
}
  0
LINE
  5
1FEF0
  8
0
 10
24.39299999997559
 20
3.670999999996297
 30
0.0
 11
23.56599999997638
 21
5.5200999999945
 31
0.0
1001
ACAD
1000
ASC_BOUNDS
1002
{
1070
    19
1005
1FF0E
1002
}
  0
LINE
  5
1FEF1
  8
0
 10
44.99999999995498
 20
-0.2368999999997641
 30
0.0
 11
40.02599999995994
 21
5.341799999994635
 31
0.0
1001
ACAD
1000
ASC_BOUNDS
1002
{
1070
    19
1005
1FF10
1002
}
  0
LINE
  5
1FEF2
  8
0
 10
40.02599999995994
 20
5.341799999994635
 30
0.0
 11
40.02599999995994
 21
0.0
 31
0.0
1001
ACAD
1000
ASC_BOUNDS
1002
{
1070
    19
1005
1FF10
1002
}
  0
LINE
  5
1FEF3
  8
0
 10
38.60499999996136
 20
8.999999999991019
 30
0.0
 11
38.60499999996136
 21
0.0
 31
0.0
1001
ACAD
1000
ASC_BOUNDS
1002
{
1070
    19
1005
1FF10
1002
}
  0
LINE
  5
1FEF4
  8
0
 10
44.99999999995498
 20
8.763099999991255
 30
0.0
 11
44.99999999995498
 21
-0.2368999999997641
 31
0.0
1001
ACAD
1000
ASC_BOUNDS
1002
{
1070
    19
1005
1FF10
1002
}
  0
LINE
  5
1FEF5
  8
0
 10
38.60499999996136
 20
0.0
 30
0.0
 11
40.02599999995994
 21
0.0
 31
0.0
1001
ACAD
1000
ASC_BOUNDS
1002
{
1070
    19
1005
1FF10
1002
}
  0
LINE
  5
1FEF6
  8
0
 10
43.57899999995641
 20
3.421199999996588
 30
0.0
 11
38.60499999996136
 21
8.999899999990987
 31
0.0
1001
ACAD
1000
ASC_BOUNDS
1002
{
1070
    19
1005
1FF10
1002
}
  0
LINE
  5
1FEF7
  8
0
 10
43.57899999995641
 20
8.763099999991255
 30
0.0
 11
43.57899999995641
 21
3.421199999996588
 31
0.0
1001
ACAD
1000
ASC_BOUNDS
1002
{
1070
    19
1005
1FF10
1002
}
  0
LINE
  5
1FEF8
  8
0
 10
43.57899999995641
 20
8.763099999991255
 30
0.0
 11
44.99999999995498
 21
8.763099999991255
 31
0.0
1001
ACAD
1000
ASC_BOUNDS
1002
{
1070
    19
1005
1FF10
1002
}
  0
LINE
  5
1FEF9
  8
0
 10
37.67199999996831
 20
8.763099999991255
 30
0.0
 11
36.23199999996837
 21
8.763099999991255
 31
0.0
  0
LINE
  5
1FEFA
  8
0
 10
31.64199999996833
 20
8.763099999991255
 30
0.0
 11
31.64199999996833
 21
2.481619422925121
 31
0.0
  0
LINE
  5
1FEFB
  8
0
 10
37.67199999996831
 20
8.763099999991255
 30
0.0
 11
37.67199999996831
 21
2.481619422925121
 31
0.0
  0
LINE
  5
1FEFC
  8
0
 10
36.23199999996837
 20
8.763099999991255
 30
0.0
 11
36.23199999996837
 21
2.481619422925064
 31
0.0
  0
LINE
  5
1FEFD
  8
0
 10
33.08199999996839
 20
8.763099999991255
 30
0.0
 11
33.08199999996839
 21
2.481619422925121
 31
0.0
  0
ARC
  5
1FEFE
  8
0
 10
34.65699999996832
 20
3.183099999991214
 30
0.0
 40
3.420000000000007
 50
240.0000000000255
 51
299.9999999999766
  0
ARC
  5
1FEFF
  8
0
 10
34.65699999996832
 20
3.183099999991214
 30
0.0
 40
1.97999999999999
 50
240.000000000026
 51
299.9999999999703
  0
LINE
  5
1FF00
  8
0
 10
33.08199999996828
 20
8.763099999991255
 30
0.0
 11
31.64199999996833
 21
8.763099999991255
 31
0.0
  0
ARC
  5
1FF01
  8
0
 10
35.06199999996829
 20
2.481619422925064
 30
0.0
 40
1.17
 50
299.9999999999699
 51
0.0
  0
ARC
  5
1FF02
  8
0
 10
34.25199999996835
 20
2.481619422925121
 30
0.0
 40
1.17
 50
180.0
 51
240.0000000000238
  0
ARC
  5
1FF03
  8
0
 10
35.06199999996841
 20
2.481619422925121
 30
0.0
 40
2.61
 50
299.9999999999756
 51
0.0
  0
ARC
  5
1FF04
  8
0
 10
34.25199999996835
 20
2.481619422925121
 30
0.0
 40
2.61
 50
180.0
 51
240.0000000000244
  0
LINE
  5
1FF05
  8
0
 10
29.30199999996933
 20
8.763099999991255
 30
0.0
 11
30.74199999996927
 21
8.763099999991255
 31
0.0
1001
ACAD
1000
ASC_BOUNDS
1002
{
1070
    19
1005
1FF0E
1002
}
  0
LINE
  5
1FF06
  8
0
 10
30.74199999996927
 20
8.763099999991255
 30
0.0
 11
30.74199999996927
 21
2.373099999991211
 31
0.0
1001
ACAD
1000
ASC_BOUNDS
1002
{
1070
    19
1005
1FF0E
1002
}
  0
LINE
  5
1FF07
  8
0
 10
26.02015566812236
 20
0.0330999999912365
 30
0.0
 11
28.40199999996923
 21
0.0330999999912365
 31
0.0
1001
ACAD
1000
ASC_BOUNDS
1002
{
1070
    19
1005
1FF0E
1002
}
  0
LINE
  5
1FF08
  8
0
 10
29.30199999996933
 20
8.763099999991255
 30
0.0
 11
29.30199999996933
 21
2.283099999991236
 31
0.0
1001
ACAD
1000
ASC_BOUNDS
1002
{
1070
    19
1005
1FF0E
1002
}
  0
LINE
  5
1FF09
  8
0
 10
26.97358892824991
 20
1.383099999991202
 30
0.0
 11
28.40199999996923
 21
1.383099999991202
 31
0.0
1001
ACAD
1000
ASC_BOUNDS
1002
{
1070
    19
1005
1FF0E
1002
}
  0
ARC
  5
1FF0A
  8
0
 10
28.40199999996923
 20
2.283099999991236
 30
0.0
 40
0.9
 50
270.0
 51
0.0
1001
ACAD
1000
ASC_BOUNDS
1002
{
1070
    19
1005
1FF0E
1002
}
  0
ARC
  5
1FF0B
  8
0
 10
28.40199999996923
 20
2.373099999991211
 30
0.0
 40
2.34
 50
270.0
 51
0.0
1001
ACAD
1000
ASC_BOUNDS
1002
{
1070
    19
1005
1FF0E
1002
}
  0
INSERT
  5
1FF0C
  8
0
  2
*X170
 10
0.0
 20
0.0
 30
0.0
1001
ACAD
1000
HATCH
1002
{
1070
    19
1000
ANSI37
1040
0.15
1040
0.0
1000
ASC_BOUNDS
1070
     2
1070
     2
1070
    12
1005
1FECB
1005
1FECC
1005
1FED3
1005
1FEE2
1005
1FEE5
1005
1FEE3
1005
1FED4
1005
1FED9
1005
1FED7
1005
1FEDB
1005
1FEDA
1005
1FEDC
1070
     2
1070
     3
1005
1FEE7
1005
1FEE9
1005
1FEE8
1000
ASC_SEEDPOINT
1011
3.614004224891801
1021
2.996669441146025
1031
0.0
1021
2.996669441146025
1031
0.0
1000
R14_HATCH_DATA
1000
1FF0C
1011
1.0
1021
0.0
1031
0.0
1021
0.0
1031
0.0
1011
0.0
1021
1.0
1031
0.0
1021
1.0
1031
0.0
1011
0.0
1021
0.0
1031
1.0
1021
0.0
1031
1.0
1040
0.0
1010
0.0
1020
0.0
1030
1.0
1000
ANSI37
1070
     0
1070
     1
1071
        2
1071
        7
1070
     0
1070
     1
1071
       17
1040
13.26299999998673
1040
-0.0001000000000317
1040
9.236999999990758
1040
8.999899999990987
1040
9.236999999990758
1040
8.999999999991019
1040
5.657999999994331
1040
0.9999999999989768
1040
3.181999999996833
1040
4.668599999995308
1040
6.432999999993513
1040
8.763099999991255
1040
4.617999999995391
1040
8.763099999991255
1040
1.420999999998571
1040
4.736799999995242
1040
4.617999999995391
1040
-0.0001000000000317
1040
4.617999999995391
1040
0.0
1040
6.766999999993232
1040
0.0
1040
6.766999999993232
1040
-0.0001000000000317
1040
7.826999999992154
1040
2.368399999997621
1040
10.64699999998936
1040
2.368399999997621
1040
11.70599999998831
1040
-0.0001000000000317
1040
11.70599999998831
1040
0.0
1040
13.26299999998673
1040
0.0
1071
       12
1005
1FECB
1005
1FECC
1005
1FED3
1005
1FEE2
1005
1FEE5
1005
1FEE3
1005
1FED4
1005
1FED9
1005
1FED7
1005
1FEDB
1005
1FEDA
1005
1FEDC
1071
       22
1070
     0
1070
     1
1071
        3
1040
9.236999999990758
1040
5.5200999999945
1040
10.06399999998996
1040
3.670999999996297
1040
8.409999999991555
1040
3.670999999996297
1071
        3
1005
1FEE7
1005
1FEE9
1005
1FEE8
1070
     0
1070
     1
1040
0.0
1040
0.15
1070
     0
1070
     2
1040
0.7853981633974483
1040
49.29960901727088
1040
-10.17736998311392
1040
-0.3367596045400932
1040
0.3367596045400932
1070
     0
1040
2.356194490192345
1040
49.29960901727088
1040
-10.17736998311392
1040
-0.3367596045400932
1040
-0.3367596045400932
1070
     0
1040
0.0110235143455945
1071
        2
1040
3.614004224891801
1040
2.996669441146025
1040
0.0
1040
3.614004224891801
1040
2.996669441146025
1040
0.0
1002
}
  0
INSERT
  5
1FF0D
  8
0
  2
*X171
 10
0.0
 20
0.0
 30
0.0
1001
ACAD
1000
HATCH
1002
{
1070
    19
1000
ANSI37
1040
0.15
1040
0.0
1000
ASC_BOUNDS
1070
     1
1070
     2
1070
    10
1005
1FECD
1005
1FECE
1005
1FEEF
1005
1FEED
1005
1FEEE
1005
1FEE1
1005
1FEE6
1005
1FEEA
1005
1FED0
1005
1FECF
1000
ASC_SEEDPOINT
1011
14.73245321214324
1021
2.798246178283421
1031
0.0
1021
2.798246178283421
1031
0.0
1000
R14_HATCH_DATA
1000
1FF0D
1011
1.0
1021
0.0
1031
0.0
1021
0.0
1031
0.0
1011
0.0
1021
1.0
1031
0.0
1021
1.0
1031
0.0
1011
0.0
1021
0.0
1031
1.0
1021
0.0
1031
1.0
1040
0.0
1010
0.0
1020
0.0
1030
1.0
1000
ANSI37
1070
     0
1070
     1
1071
        1
1071
        7
1070
     0
1070
     1
1071
       10
1040
16.46099999998353
1040
5.432899999994561
1040
18.59199999998134
1040
-0.2368999999997641
1040
22.38199999997767
1040
8.763099999991255
1040
20.89099999997916
1040
8.763099999991255
1040
18.59799999998143
1040
3.315799999996671
1040
16.46099999998353
1040
8.999899999990987
1040
14.32399999998563
1040
3.315799999996671
1040
12.02999999998792
1040
8.763099999991255
1040
10.53899999998941
1040
8.763099999991255
1040
14.32899999998563
1040
-0.2368999999997641
1071
       10
1005
1FECD
1005
1FECE
1005
1FEEF
1005
1FEED
1005
1FEEE
1005
1FEE1
1005
1FEE6
1005
1FEEA
1005
1FED0
1005
1FECF
1070
     0
1070
     1
1040
0.0
1040
0.15
1070
     0
1070
     2
1040
0.7853981633974483
1040
49.29960901727088
1040
-10.17736998311392
1040
-0.3367596045400932
1040
0.3367596045400932
1070
     0
1040
2.356194490192345
1040
49.29960901727088
1040
-10.17736998311392
1040
-0.3367596045400932
1040
-0.3367596045400932
1070
     0
1040
0.0110235143455945
1071
        1
1040
14.73245321214324
1040
2.798246178283421
1040
0.0
1002
}
  0
INSERT
  5
1FF0E
  8
0
  2
*X172
 10
0.0
 20
0.0
 30
0.0
1001
ACAD
1000
HATCH
1002
{
1070
    19
1000
ANSI37
1040
0.15
1040
0.0
1000
ASC_BOUNDS
1070
     2
1070
     2
1070
    13
1005
1FED1
1005
1FEDE
1005
1FEDF
1005
1FEDD
1005
1FEE0
1005
1FF07
1005
1FF0B
1005
1FF06
1005
1FF05
1005
1FF08
1005
1FF0A
1005
1FF09
1005
1FED2
1070
     2
1070
     3
1005
1FEEB
1005
1FEF0
1005
1FEEC
1000
ASC_SEEDPOINT
1011
21.97929957367762
1021
3.294304244259308
1031
0.0
1021
3.294304244259308
1031
0.0
1000
R14_HATCH_DATA
1000
1FF0E
1011
1.0
1021
0.0
1031
0.0
1021
0.0
1031
0.0
1011
0.0
1021
1.0
1031
0.0
1021
1.0
1031
0.0
1011
0.0
1021
0.0
1031
1.0
1021
0.0
1031
1.0
1040
0.0
1010
0.0
1020
0.0
1030
1.0
1000
ANSI37
1070
     0
1070
     1
1071
        2
1071
        7
1070
     1
1070
     1
1071
       15
1040
23.56599999997638
1040
8.999899999990987
1040
0.0
1040
19.53899999998043
1040
-0.0001000000000317
1040
0.0
1040
19.53899999998043
1040
0.0
1040
0.0
1040
21.09599999997886
1040
0.0
1040
0.0
1040
21.09599999997886
1040
-0.0001000000000317
1040
0.0
1040
22.15599999997789
1040
2.368399999997621
1040
0.0
1040
24.97599999997499
1040
2.368399999997621
1040
0.0
1040
26.02015566812236
1040
0.0330999999912365
1040
0.0
1040
28.40199999996923
1040
0.0330999999912365
1040
0.414213562373095
1040
30.74199999996923
1040
2.373099999991211
1040
0.0
1040
30.74199999996927
1040
8.763099999991255
1040
0.0
1040
29.30199999996933
1040
8.763099999991255
1040
0.0
1040
29.30199999996933
1040
2.283099999991236
1040
-0.414213562373095
1040
28.40199999996923
1040
1.383099999991237
1040
0.0
1040
26.97358892824991
1040
1.383099999991202
1040
0.0
1071
       13
1005
1FED1
1005
1FEDE
1005
1FEDF
1005
1FEDD
1005
1FEE0
1005
1FF07
1005
1FF0B
1005
1FF06
1005
1FF05
1005
1FF08
1005
1FF0A
1005
1FF09
1005
1FED2
1071
       22
1070
     0
1070
     1
1071
        3
1040
22.7389999999773
1040
3.670999999996297
1040
23.56599999997638
1040
5.5200999999945
1040
24.39299999997559
1040
3.670999999996297
1071
        3
1005
1FEEB
1005
1FEF0
1005
1FEEC
1070
     0
1070
     1
1040
0.0
1040
0.15
1070
     0
1070
     2
1040
0.7853981633974483
1040
49.29960901727088
1040
-10.17736998311392
1040
-0.3367596045400932
1040
0.3367596045400932
1070
     0
1040
2.356194490192345
1040
49.29960901727088
1040
-10.17736998311392
1040
-0.3367596045400932
1040
-0.3367596045400932
1070
     0
1040
0.0110235143455945
1071
        2
1040
21.97929957367762
1040
3.294304244259308
1040
0.0
1040
21.97929957367762
1040
3.294304244259308
1040
0.0
1002
}
  0
INSERT
  5
1FF0F
  8
0
  2
*X173
 10
0.0
 20
0.0
 30
0.0
1001
ACAD
1000
HATCH
1002
{
1070
    19
1000
ANSI37
1040
0.15
1040
0.0
1000
R14_HATCH_DATA
1000
1FF0F
1011
1.0
1021
0.0
1031
0.0
1021
0.0
1031
0.0
1011
0.0
1021
1.0
1031
0.0
1021
1.0
1031
0.0
1011
0.0
1021
0.0
1031
1.0
1021
0.0
1031
1.0
1040
0.0
1010
0.0
1020
0.0
1030
1.0
1000
ANSI37
1070
     0
1070
     1
1071
        1
1071
        7
1070
     1
1070
     1
1071
       12
1040
31.64199999996833
1040
2.481619422925121
1040
0.2679491924310942
1040
32.94699999997067
1040
0.2212931190493919
1040
0.2679491924301353
1040
36.36699999995983
1040
0.2212931190459813
1040
0.2679491924321411
1040
37.67199999996831
1040
2.481619422928361
1040
0.0
1040
37.67199999996831
1040
8.763099999991255
1040
0.0
1040
36.23199999996837
1040
8.763099999991255
1040
0.0
1040
36.23199999996837
1040
2.481619422925064
1040
-0.2679491924310291
1040
35.64699999996708
1040
1.468369700498386
1040
-0.267949192430519
1040
33.66699999997093
1040
1.468369700497703
1040
-0.267949192431809
1040
33.08199999996839
1040
2.481619422926997
1040
0.0
1040
33.08199999996839
1040
8.763099999991255
1040
0.0
1040
31.64199999996833
1040
8.763099999991255
1040
0.0
1071
        0
1070
     0
1070
     1
1040
0.0
1040
0.15
1070
     0
1070
     2
1040
0.7853981633974483
1040
49.29960901727088
1040
-10.17736998311392
1040
-0.3367596045400932
1040
0.3367596045400932
1070
     0
1040
2.356194490192345
1040
49.29960901727088
1040
-10.17736998311392
1040
-0.3367596045400932
1040
-0.3367596045400932
1070
     0
1040
0.0110235143455945
1071
        1
1040
32.30357378967278
1040
3.988785755459219
1040
0.0
1002
}
  0
INSERT
  5
1FF10
  8
0
  2
*X174
 10
0.0
 20
0.0
 30
0.0
1001
ACAD
1000
HATCH
1002
{
1070
    19
1000
ANSI37
1040
0.15
1040
0.0
1000
ASC_BOUNDS
1070
     1
1070
     2
1070
     8
1005
1FEF1
1005
1FEF4
1005
1FEF8
1005
1FEF7
1005
1FEF6
1005
1FEF3
1005
1FEF5
1005
1FEF2
1000
ASC_SEEDPOINT
1011
39.74896370716704
1021
4.484843821435049
1031
0.0
1021
4.484843821435049
1031
0.0
1000
R14_HATCH_DATA
1000
1FF10
1011
1.0
1021
0.0
1031
0.0
1021
0.0
1031
0.0
1011
0.0
1021
1.0
1031
0.0
1021
1.0
1031
0.0
1011
0.0
1021
0.0
1031
1.0
1021
0.0
1031
1.0
1040
0.0
1010
0.0
1020
0.0
1030
1.0
1000
ANSI37
1070
     0
1070
     1
1071
        1
1071
        7
1070
     0
1070
     1
1071
        9
1040
40.02599999995994
1040
5.341799999994635
1040
44.99999999995498
1040
-0.2368999999997641
1040
44.99999999995498
1040
8.763099999991255
1040
43.57899999995641
1040
8.763099999991255
1040
43.57899999995641
1040
3.421199999996588
1040
38.60499999996136
1040
8.999899999990987
1040
38.60499999996136
1040
8.999999999991019
1040
38.60499999996136
1040
0.0
1040
40.02599999995994
1040
0.0
1071
        8
1005
1FEF1
1005
1FEF4
1005
1FEF8
1005
1FEF7
1005
1FEF6
1005
1FEF3
1005
1FEF5
1005
1FEF2
1070
     0
1070
     1
1040
0.0
1040
0.15
1070
     0
1070
     2
1040
0.7853981633974483
1040
49.29960901727088
1040
-10.17736998311392
1040
-0.3367596045400932
1040
0.3367596045400932
1070
     0
1040
2.356194490192345
1040
49.29960901727088
1040
-10.17736998311392
1040
-0.3367596045400932
1040
-0.3367596045400932
1070
     0
1040
0.0110235143455945
1071
        1
1040
39.74896370716704
1040
4.484843821435049
1040
0.0
1002
}
  0
INSERT
  5
1FF11
  8
0
  2
*X175
 10
0.0
 20
0.0
 30
0.0
1001
ACAD
1000
HATCH
1002
{
1070
    19
1000
ANSI37
1040
0.15
1040
0.0
1000
ASC_BOUNDS
1070
     1
1070
     2
1070
     4
1005
1FED5
1005
1FEE4
1005
1FED6
1005
1FED8
1000
ASC_SEEDPOINT
1011
1.079051535452663
1021
4.148538732891836
1031
0.0
1021
4.148538732891836
1031
0.0
1000
R14_HATCH_DATA
1000
1FF11
1011
1.0
1021
0.0
1031
0.0
1021
0.0
1031
0.0
1011
0.0
1021
1.0
1031
0.0
1021
1.0
1031
0.0
1011
0.0
1021
0.0
1031
1.0
1021
0.0
1031
1.0
1040
0.0
1010
0.0
1020
0.0
1030
1.0
1000
ANSI37
1070
     0
1070
     1
1071
        1
1071
        7
1070
     0
1070
     1
1071
        4
1040
1.420999999998571
1040
0.0
1040
1.420999999998571
1040
8.763099999991255
1040
0.0
1040
8.763099999991255
1040
0.0
1040
0.0
1071
        4
1005
1FED5
1005
1FEE4
1005
1FED6
1005
1FED8
1070
     0
1070
     1
1040
0.0
1040
0.15
1070
     0
1070
     2
1040
0.7853981633974483
1040
49.29960901727088
1040
-10.17736998311392
1040
-0.3367596045400932
1040
0.3367596045400932
1070
     0
1040
2.356194490192345
1040
49.29960901727088
1040
-10.17736998311392
1040
-0.3367596045400932
1040
-0.3367596045400932
1070
     0
1040
0.0053004257112761
1071
        1
1040
1.079051535452663
1040
4.148538732891836
1040
0.0
1002
}
  0
ENDBLK
  5
205D6
  8
0
  0
BLOCK
  8
0
  2
*X170
 70
     1
 10
0.0
 20
0.0
 30
0.0
  3
*X170
  1

  0
LINE
  5
24941
  8
0
  6
CONTINUOUS
 10
3.418023043697893
 20
7.251849696850613
 30
0.0
 11
4.929273346838536
 21
8.763099999991255
 31
0.0
  0
LINE
  5
24942
  8
0
  6
CONTINUOUS
 10
1.483656411257782
 20
4.643963855330318
 30
0.0
 11
5.60279255591872
 21
8.763099999991255
 31
0.0
  0
LINE
  5
24943
  8
0
  6
CONTINUOUS
 10
1.755053947328235
 20
4.241842182320584
 30
0.0
 11
6.276311764998907
 21
8.763099999991255
 31
0.0
  0
LINE
  5
24944
  8
0
  6
CONTINUOUS
 10
2.026451483398688
 20
3.839720509310849
 30
0.0
 11
4.441040904851878
 21
6.254309930764039
 31
0.0
  0
LINE
  5
24945
  8
0
  6
CONTINUOUS
 10
2.297849019469139
 20
3.437598836301114
 30
0.0
 11
3.321765168359338
 21
4.461514985191313
 31
0.0
  0
LINE
  5
24946
  8
0
  6
CONTINUOUS
 10
2.569246555539591
 20
3.03547716329138
 30
0.0
 11
3.593163397972743
 21
4.059394005724531
 31
0.0
  0
LINE
  5
24947
  8
0
  6
CONTINUOUS
 10
2.840644091610043
 20
2.633355490281646
 30
0.0
 11
3.864561627586149
 21
3.657273026257751
 31
0.0
  0
LINE
  5
24948
  8
0
  6
CONTINUOUS
 10
3.112041627680496
 20
2.231233817271911
 30
0.0
 11
4.135959857199554
 21
3.25515204679097
 31
0.0
  0
LINE
  5
24949
  8
0
  6
CONTINUOUS
 10
3.383439163750948
 20
1.829112144262177
 30
0.0
 11
4.40735808681296
 21
2.853031067324189
 31
0.0
  0
LINE
  5
2494A
  8
0
  6
CONTINUOUS
 10
3.654836699821399
 20
1.426990471252442
 30
0.0
 11
4.678756316426365
 21
2.450910087857407
 31
0.0
  0
LINE
  5
2494B
  8
0
  6
CONTINUOUS
 10
3.926234235891853
 20
1.024868798242709
 30
0.0
 11
4.95015454603977
 21
2.048789108390626
 31
0.0
  0
LINE
  5
2494C
  8
0
  6
CONTINUOUS
 10
4.197631771962304
 20
0.6227471252329737
 30
0.0
 11
5.221552775653176
 21
1.646668128923846
 31
0.0
  0
LINE
  5
2494D
  8
0
  6
CONTINUOUS
 10
8.715877546767851
 20
7.835069736359266
 30
0.0
 11
9.435953450375058
 21
8.555145639966472
 31
0.0
  0
LINE
  5
2494E
  8
0
  6
CONTINUOUS
 10
8.170620868422267
 20
6.616293848933497
 30
0.0
 11
9.644120833743461
 21
8.08979381425469
 31
0.0
  0
LINE
  5
2494F
  8
0
  6
CONTINUOUS
 10
7.625364190076684
 20
5.397517961507727
 30
0.0
 11
9.852288217111864
 21
7.624441988542907
 31
0.0
  0
LINE
  5
24950
  8
0
  6
CONTINUOUS
 10
7.080107511731101
 20
4.178742074081957
 30
0.0
 11
10.06045560048027
 21
7.159090162831124
 31
0.0
  0
LINE
  5
24951
  8
0
  6
CONTINUOUS
 10
6.534850833385518
 20
2.959966186656187
 30
0.0
 11
10.26862298384867
 21
6.693738337119342
 31
0.0
  0
LINE
  5
24952
  8
0
  6
CONTINUOUS
 10
4.469029308032756
 20
0.2206254522232385
 30
0.0
 11
5.492951005266582
 21
1.244547149457064
 31
0.0
  0
LINE
  5
24953
  8
0
  6
CONTINUOUS
 10
5.989594155039935
 20
1.741190299230417
 30
0.0
 11
8.806950407233131
 21
4.558546551423613
 31
0.0
  0
LINE
  5
24954
  8
0
  6
CONTINUOUS
 10
9.401251593263643
 20
5.152847737454126
 30
0.0
 11
10.47679036721708
 21
6.228386511407559
 31
0.0
  0
LINE
  5
24955
  8
0
  6
CONTINUOUS
 10
4.921837203428691
 20
-0.0000858614610131
 30
0.0
 11
8.592923064886001
 21
3.670999999996297
 31
0.0
  0
LINE
  5
24956
  8
0
  6
CONTINUOUS
 10
9.609390446785305
 20
4.6874673818956
 30
0.0
 11
10.68495775058548
 21
5.763034685695775
 31
0.0
  0
LINE
  5
24957
  8
0
  6
CONTINUOUS
 10
5.595387755019432
 20
-0.0000545189504582
 30
0.0
 11
7.716137258923768
 21
2.120694984953879
 31
0.0
  0
LINE
  5
24958
  8
0
  6
CONTINUOUS
 10
6.268938306610172
 20
-0.000023176439905
 30
0.0
 11
7.170485805526503
 21
0.9015243224764267
 31
0.0
  0
LINE
  5
24959
  8
0
  6
CONTINUOUS
 10
7.963842273967511
 20
2.368399999997621
 30
0.0
 11
9.266442273966188
 21
3.670999999996297
 31
0.0
  0
LINE
  5
2495A
  8
0
  6
CONTINUOUS
 10
8.637361483047696
 20
2.368399999997621
 30
0.0
 11
9.939961483046375
 21
3.670999999996297
 31
0.0
  0
LINE
  5
2495B
  8
0
  6
CONTINUOUS
 10
9.817529300306965
 20
4.222087026337075
 30
0.0
 11
10.89312513395388
 21
5.297682859983993
 31
0.0
  0
LINE
  5
2495C
  8
0
  6
CONTINUOUS
 10
10.02566815382863
 20
3.756706670778549
 30
0.0
 11
11.10129251732229
 21
4.832331034272211
 31
0.0
  0
LINE
  5
2495D
  8
0
  6
CONTINUOUS
 10
9.310880692127883
 20
2.368399999997621
 30
0.0
 11
11.30945990069069
 21
4.366979208560428
 31
0.0
  0
LINE
  5
2495E
  8
0
  6
CONTINUOUS
 10
9.98439990120807
 20
2.36839999999762
 30
0.0
 11
11.5176272840591
 21
3.901627382848645
 31
0.0
  0
LINE
  5
2495F
  8
0
  6
CONTINUOUS
 10
10.65037369446246
 20
2.36085458417182
 30
0.0
 11
11.7257946674275
 21
3.436275557136862
 31
0.0
  0
LINE
  5
24960
  8
0
  6
CONTINUOUS
 10
10.85847197087848
 20
1.895433651507656
 30
0.0
 11
11.9339620507959
 21
2.97092373142508
 31
0.0
  0
LINE
  5
24961
  8
0
  6
CONTINUOUS
 10
11.0665702472945
 20
1.430012718843491
 30
0.0
 11
12.14212943416431
 21
2.505571905713296
 31
0.0
  0
LINE
  5
24962
  8
0
  6
CONTINUOUS
 10
11.27466852371052
 20
0.9645917861793256
 30
0.0
 11
12.35029681753271
 21
2.040220080001513
 31
0.0
  0
LINE
  5
24963
  8
0
  6
CONTINUOUS
 10
11.48276680012654
 20
0.4991708535151611
 30
0.0
 11
12.55846420090111
 21
1.57486825428973
 31
0.0
  0
LINE
  5
24964
  8
0
  6
CONTINUOUS
 10
11.69086507654257
 20
0.0337499208509957
 30
0.0
 11
12.76663158426952
 21
1.109516428577947
 31
0.0
  0
LINE
  5
24965
  8
0
  6
CONTINUOUS
 10
12.33057447873954
 20
-0.0000598860322123
 30
0.0
 11
12.97479896763792
 21
0.6441646028661663
 31
0.0
  0
LINE
  5
24966
  8
0
  6
CONTINUOUS
 10
13.00413694809395
 20
-0.0000166257579952
 30
0.0
 11
13.18296635100632
 21
0.1788127771543824
 31
0.0
  0
LINE
  5
24967
  8
0
  6
CONTINUOUS
 10
4.772852165289667
 20
-0.000092794222212
 30
0.0
 11
4.296495091028902
 21
0.4762642800385528
 31
0.0
  0
LINE
  5
24968
  8
0
  6
CONTINUOUS
 10
5.446340034776103
 20
-0.0000614546284616
 30
0.0
 11
2.898195908335625
 21
2.548082671812017
 31
0.0
  0
LINE
  5
24969
  8
0
  6
CONTINUOUS
 10
6.119827904262539
 20
-0.0000301150347113
 30
0.0
 11
1.499896725642348
 21
4.61990106358548
 31
0.0
  0
LINE
  5
2496A
  8
0
  6
CONTINUOUS
 10
6.775136745476159
 20
0.0181802528318542
 30
0.0
 11
5.699826040202669
 21
1.093490958105344
 31
0.0
  0
LINE
  5
2496B
  8
0
  6
CONTINUOUS
 10
6.983376846288489
 20
0.4834593610997118
 30
0.0
 11
5.908008617934405
 21
1.558827589453796
 31
0.0
  0
LINE
  5
2496C
  8
0
  6
CONTINUOUS
 10
5.377063484962296
 20
1.416253513345719
 30
0.0
 11
1.702276957014131
 21
5.091040041293883
 31
0.0
  0
LINE
  5
2496D
  8
0
  6
CONTINUOUS
 10
3.978745891735324
 20
3.488090315652877
 30
0.0
 11
2.000373521109399
 21
5.466462686278803
 31
0.0
  0
LINE
  5
2496E
  8
0
  6
CONTINUOUS
 10
7.191616947100819
 20
0.948738469367568
 30
0.0
 11
6.11619119566614
 21
2.024164220802247
 31
0.0
  0
LINE
  5
2496F
  8
0
  6
CONTINUOUS
 10
7.399857047913149
 20
1.414017577635424
 30
0.0
 11
6.324373773397875
 21
2.489500852150698
 31
0.0
  0
LINE
  5
24970
  8
0
  6
CONTINUOUS
 10
7.608097148725479
 20
1.879296685903281
 30
0.0
 11
6.53255635112961
 21
2.95483748349915
 31
0.0
  0
LINE
  5
24971
  8
0
  6
CONTINUOUS
 10
7.816337249537808
 20
2.344575794171138
 30
0.0
 11
6.740738928861345
 21
3.420174114847601
 31
0.0
  0
LINE
  5
24972
  8
0
  6
CONTINUOUS
 10
3.310241080789734
 20
4.830114335678653
 30
0.0
 11
2.298470085204666
 21
5.84188533126372
 31
0.0
  0
LINE
  5
24973
  8
0
  6
CONTINUOUS
 10
3.60832983563551
 20
5.205544789913063
 30
0.0
 11
2.596566649299935
 21
6.217307976248638
 31
0.0
  0
LINE
  5
24974
  8
0
  6
CONTINUOUS
 10
3.906418590481286
 20
5.580975244147473
 30
0.0
 11
2.894663213395203
 21
6.592730621233557
 31
0.0
  0
LINE
  5
24975
  8
0
  6
CONTINUOUS
 10
4.204507345327062
 20
5.956405698381884
 30
0.0
 11
3.192759777490472
 21
6.968153266218474
 31
0.0
  0
LINE
  5
24976
  8
0
  6
CONTINUOUS
 10
8.466032252791512
 20
2.368399999997621
 30
0.0
 11
6.948921506593081
 21
3.885510746196053
 31
0.0
  0
LINE
  5
24977
  8
0
  6
CONTINUOUS
 10
9.139551461871699
 20
2.36839999999762
 30
0.0
 11
7.157104084324816
 21
4.350847377544504
 31
0.0
  0
LINE
  5
24978
  8
0
  6
CONTINUOUS
 10
4.502596100172839
 20
6.331836152616295
 30
0.0
 11
3.49085634158574
 21
7.343575911203393
 31
0.0
  0
LINE
  5
24979
  8
0
  6
CONTINUOUS
 10
4.800684855018615
 20
6.707266606850705
 30
0.0
 11
3.788952905681008
 21
7.718998556188312
 31
0.0
  0
LINE
  5
2497A
  8
0
  6
CONTINUOUS
 10
12.18154012887317
 20
-0.0000694579236642
 30
0.0
 11
11.32140332908496
 21
0.8600673418645499
 31
0.0
  0
LINE
  5
2497B
  8
0
  6
CONTINUOUS
 10
12.85501608323566
 20
-0.0000262032059659
 30
0.0
 11
10.77672456435345
 21
2.078265315676246
 31
0.0
  0
LINE
  5
2497C
  8
0
  6
CONTINUOUS
 10
9.813070670951886
 20
2.36839999999762
 30
0.0
 11
8.51047067095321
 21
3.670999999996297
 31
0.0
  0
LINE
  5
2497D
  8
0
  6
CONTINUOUS
 10
10.48658988003207
 20
2.36839999999762
 30
0.0
 11
9.183989880033396
 21
3.670999999996297
 31
0.0
  0
LINE
  5
2497E
  8
0
  6
CONTINUOUS
 10
8.441048632286794
 20
3.740422038662712
 30
0.0
 11
7.365286662056551
 21
4.816184008892956
 31
0.0
  0
LINE
  5
2497F
  8
0
  6
CONTINUOUS
 10
8.649187485808454
 20
4.205802394221237
 30
0.0
 11
7.573469239788285
 21
5.281520640241407
 31
0.0
  0
LINE
  5
24980
  8
0
  6
CONTINUOUS
 10
5.098773609864391
 20
7.082697061085115
 30
0.0
 11
4.087049469776277
 21
8.09442120117323
 31
0.0
  0
LINE
  5
24981
  8
0
  6
CONTINUOUS
 10
5.396862364710167
 20
7.458127515319526
 30
0.0
 11
4.385146033871544
 21
8.469843846158149
 31
0.0
  0
LINE
  5
24982
  8
0
  6
CONTINUOUS
 10
13.04801363231285
 20
0.4804954567970334
 30
0.0
 11
9.85750908911358
 21
3.670999999996297
 31
0.0
  0
LINE
  5
24983
  8
0
  6
CONTINUOUS
 10
8.857326339330116
 20
4.671182749779763
 30
0.0
 11
7.781651817520021
 21
5.746857271589858
 31
0.0
  0
LINE
  5
24984
  8
0
  6
CONTINUOUS
 10
5.694951119555943
 20
7.833557969553937
 30
0.0
 11
4.765409089118624
 21
8.763099999991255
 31
0.0
  0
LINE
  5
24985
  8
0
  6
CONTINUOUS
 10
12.50286117236978
 20
1.699167125820288
 30
0.0
 11
9.68611877250287
 21
4.515909525687196
 31
0.0
  0
LINE
  5
24986
  8
0
  6
CONTINUOUS
 10
9.065465192851777
 20
5.136563105338288
 30
0.0
 11
7.989834395251757
 21
6.21219390293831
 31
0.0
  0
LINE
  5
24987
  8
0
  6
CONTINUOUS
 10
5.993039874401719
 20
8.208988423788346
 30
0.0
 11
5.43892829819881
 21
8.763099999991255
 31
0.0
  0
LINE
  5
24988
  8
0
  6
CONTINUOUS
 10
11.95770871242671
 20
2.917838794843543
 30
0.0
 11
8.19801697298349
 21
6.677530534286761
 31
0.0
  0
LINE
  5
24989
  8
0
  6
CONTINUOUS
 10
6.291128629247495
 20
8.584418878022756
 30
0.0
 11
6.112447507278997
 21
8.763099999991255
 31
0.0
  0
LINE
  5
2498A
  8
0
  6
CONTINUOUS
 10
11.41255625248364
 20
4.136510463866797
 30
0.0
 11
8.406199550715227
 21
7.142867165635211
 31
0.0
  0
LINE
  5
2498B
  8
0
  6
CONTINUOUS
 10
10.86740379254057
 20
5.355182132890051
 30
0.0
 11
8.614382128446962
 21
7.608203796983664
 31
0.0
  0
LINE
  5
2498C
  8
0
  6
CONTINUOUS
 10
10.3222513325975
 20
6.573853801913305
 30
0.0
 11
8.822564706178696
 21
8.073540428332114
 31
0.0
  0
LINE
  5
2498D
  8
0
  6
CONTINUOUS
 10
9.777098872654436
 20
7.792525470936562
 30
0.0
 11
9.030747283910433
 21
8.538877059680566
 31
0.0
  0
ENDBLK
  5
24ACF
  8
0
  0
BLOCK
  8
0
  2
*X171
 70
     1
 10
0.0
 20
0.0
 30
0.0
  3
*X171
  1

  0
LINE
  5
2498F
  8
0
  6
CONTINUOUS
 10
10.67292308101235
 20
8.445076852443387
 30
0.0
 11
10.99094622856022
 21
8.763099999991255
 31
0.0
  0
LINE
  5
24990
  8
0
  6
CONTINUOUS
 10
10.87250383178748
 20
7.971138394138331
 30
0.0
 11
11.6644654376404
 21
8.763099999991255
 31
0.0
  0
LINE
  5
24991
  8
0
  6
CONTINUOUS
 10
11.07208458256261
 20
7.497199935833273
 30
0.0
 11
12.12126590876355
 21
8.546381262034211
 31
0.0
  0
LINE
  5
24992
  8
0
  6
CONTINUOUS
 10
11.27166533333774
 20
7.023261477528216
 30
0.0
 11
12.32085164573666
 21
8.072447789927136
 31
0.0
  0
LINE
  5
24993
  8
0
  6
CONTINUOUS
 10
11.47124608411287
 20
6.549323019223158
 30
0.0
 11
12.52043738270977
 21
7.59851431782006
 31
0.0
  0
LINE
  5
24994
  8
0
  6
CONTINUOUS
 10
11.670826834888
 20
6.075384560918101
 30
0.0
 11
12.72002311968288
 21
7.124580845712984
 31
0.0
  0
LINE
  5
24995
  8
0
  6
CONTINUOUS
 10
11.87040758566313
 20
5.601446102613043
 30
0.0
 11
12.91960885665599
 21
6.650647373605907
 31
0.0
  0
LINE
  5
24996
  8
0
  6
CONTINUOUS
 10
12.06998833643825
 20
5.127507644307986
 30
0.0
 11
13.1191945936291
 21
6.176713901498832
 31
0.0
  0
LINE
  5
24997
  8
0
  6
CONTINUOUS
 10
12.26956908721338
 20
4.65356918600293
 30
0.0
 11
13.31878033060221
 21
5.702780429391757
 31
0.0
  0
LINE
  5
24998
  8
0
  6
CONTINUOUS
 10
12.46914983798851
 20
4.179630727697873
 30
0.0
 11
13.51836606757532
 21
5.228846957284683
 31
0.0
  0
LINE
  5
24999
  8
0
  6
CONTINUOUS
 10
12.66873058876364
 20
3.705692269392816
 30
0.0
 11
13.71795180454843
 21
4.754913485177607
 31
0.0
  0
LINE
  5
2499A
  8
0
  6
CONTINUOUS
 10
12.86831133953877
 20
3.231753811087759
 30
0.0
 11
13.91753754152154
 21
4.280980013070531
 31
0.0
  0
LINE
  5
2499B
  8
0
  6
CONTINUOUS
 10
13.0678920903139
 20
2.757815352782702
 30
0.0
 11
14.11712327849465
 21
3.807046540963456
 31
0.0
  0
LINE
  5
2499C
  8
0
  6
CONTINUOUS
 10
13.26747284108903
 20
2.283876894477644
 30
0.0
 11
14.31670901546777
 21
3.333113068856379
 31
0.0
  0
LINE
  5
2499D
  8
0
  6
CONTINUOUS
 10
16.36767838827179
 20
8.751678487061342
 30
0.0
 11
16.50332410898388
 21
8.887324207773432
 31
0.0
  0
LINE
  5
2499E
  8
0
  6
CONTINUOUS
 10
15.96190732182191
 20
7.67238821153127
 30
0.0
 11
16.68735328004734
 21
8.397834169756699
 31
0.0
  0
LINE
  5
2499F
  8
0
  6
CONTINUOUS
 10
15.55613625537202
 20
6.593097936001196
 30
0.0
 11
16.87138245111079
 21
7.908344131739965
 31
0.0
  0
LINE
  5
249A0
  8
0
  6
CONTINUOUS
 10
15.15036518892213
 20
5.513807660471122
 30
0.0
 11
17.05541162217424
 21
7.418854093723231
 31
0.0
  0
LINE
  5
249A1
  8
0
  6
CONTINUOUS
 10
14.74459412247225
 20
4.434517384941048
 30
0.0
 11
17.2394407932377
 21
6.929364055706499
 31
0.0
  0
LINE
  5
249A2
  8
0
  6
CONTINUOUS
 10
14.33882305602236
 20
3.355227109410975
 30
0.0
 11
17.42346996430115
 21
6.439874017689766
 31
0.0
  0
LINE
  5
249A3
  8
0
  6
CONTINUOUS
 10
13.46705359186416
 20
1.809938436172586
 30
0.0
 11
16.0819338255367
 21
4.424818669845129
 31
0.0
  0
LINE
  5
249A4
  8
0
  6
CONTINUOUS
 10
16.63283254238972
 20
4.975717386698149
 30
0.0
 11
17.60749913536461
 21
5.950383979673033
 31
0.0
  0
LINE
  5
249A5
  8
0
  6
CONTINUOUS
 10
13.66663434263929
 20
1.335999977867529
 30
0.0
 11
15.67604797733754
 21
3.345413612565779
 31
0.0
  0
LINE
  5
249A6
  8
0
  6
CONTINUOUS
 10
13.86621509341442
 20
0.8620615195624723
 30
0.0
 11
15.27016212913838
 21
2.26600855528643
 31
0.0
  0
LINE
  5
249A7
  8
0
  6
CONTINUOUS
 10
16.81682257348267
 20
4.486188208710908
 30
0.0
 11
17.79152830642806
 21
5.460893941656299
 31
0.0
  0
LINE
  5
249A8
  8
0
  6
CONTINUOUS
 10
17.00081260457561
 20
3.996659030723667
 30
0.0
 11
17.97555747749151
 21
4.971403903639565
 31
0.0
  0
LINE
  5
249A9
  8
0
  6
CONTINUOUS
 10
20.74362343514722
 20
8.412989070375462
 30
0.0
 11
21.09373436476302
 21
8.763099999991256
 31
0.0
  0
LINE
  5
249AA
  8
0
  6
CONTINUOUS
 10
20.25401257174777
 20
7.249858997895826
 30
0.0
 11
21.7672535738432
 21
8.763099999991255
 31
0.0
  0
LINE
  5
249AB
  8
0
  6
CONTINUOUS
 10
14.06579584418955
 20
0.3881230612574149
 30
0.0
 11
14.86427628093921
 21
1.186603498007082
 31
0.0
  0
LINE
  5
249AC
  8
0
  6
CONTINUOUS
 10
14.26537659496467
 20
-0.0858153970476412
 30
0.0
 11
14.45839043274005
 21
0.1071984407277329
 31
0.0
  0
LINE
  5
249AD
  8
0
  6
CONTINUOUS
 10
17.18480263566856
 20
3.507129852736426
 30
0.0
 11
18.15958664855496
 21
4.481913865622833
 31
0.0
  0
LINE
  5
249AE
  8
0
  6
CONTINUOUS
 10
17.3687926667615
 20
3.017600674749186
 30
0.0
 11
18.34361581961842
 21
3.9924238276061
 31
0.0
  0
LINE
  5
249AF
  8
0
  6
CONTINUOUS
 10
19.76440170834832
 20
6.086728925416191
 30
0.0
 11
22.33924590259489
 21
8.661573119662755
 31
0.0
  0
LINE
  5
249B0
  8
0
  6
CONTINUOUS
 10
19.27479084494887
 20
4.923598852936555
 30
0.0
 11
21.84929622842713
 21
7.498104236414807
 31
0.0
  0
LINE
  5
249B1
  8
0
  6
CONTINUOUS
 10
17.55278269785445
 20
2.528071496761945
 30
0.0
 11
18.52764499068187
 21
3.502933789589366
 31
0.0
  0
LINE
  5
249B2
  8
0
  6
CONTINUOUS
 10
18.78517998154942
 20
3.760468780456919
 30
0.0
 11
21.35934655425936
 21
6.33463535316686
 31
0.0
  0
LINE
  5
249B3
  8
0
  6
CONTINUOUS
 10
17.73677272894739
 20
2.038542318774704
 30
0.0
 11
20.8693968800916
 21
5.171166469918914
 31
0.0
  0
LINE
  5
249B4
  8
0
  6
CONTINUOUS
 10
17.92076276004034
 20
1.549013140787464
 30
0.0
 11
20.37944720592384
 21
4.007697586670968
 31
0.0
  0
LINE
  5
249B5
  8
0
  6
CONTINUOUS
 10
18.10475279113329
 20
1.059483962800223
 30
0.0
 11
19.88949753175608
 21
2.84422870342302
 31
0.0
  0
LINE
  5
249B6
  8
0
  6
CONTINUOUS
 10
18.28874282222623
 20
0.5699547848129822
 30
0.0
 11
19.39954785758832
 21
1.680759820175074
 31
0.0
  0
LINE
  5
249B7
  8
0
  6
CONTINUOUS
 10
18.47273285331918
 20
0.0804256068257416
 30
0.0
 11
18.90959818342056
 21
0.517290936927127
 31
0.0
  0
LINE
  5
249B8
  8
0
  6
CONTINUOUS
 10
14.3590401358224
 20
-0.1570118376323384
 30
0.0
 11
14.24903296539946
 21
-0.0470046672093929
 31
0.0
  0
LINE
  5
249B9
  8
0
  6
CONTINUOUS
 10
14.54309291258661
 20
0.332454594683643
 30
0.0
 11
13.75908329123172
 21
1.116464216038529
 31
0.0
  0
LINE
  5
249BA
  8
0
  6
CONTINUOUS
 10
14.72714568935081
 20
0.8219210269996244
 30
0.0
 11
13.26913361706399
 21
2.27993309928645
 31
0.0
  0
LINE
  5
249BB
  8
0
  6
CONTINUOUS
 10
14.91119846611502
 20
1.311387459315606
 30
0.0
 11
12.77918394289625
 21
3.443401982534371
 31
0.0
  0
LINE
  5
249BC
  8
0
  6
CONTINUOUS
 10
15.09525124287922
 20
1.800853891631587
 30
0.0
 11
12.28923426872852
 21
4.606870865782293
 31
0.0
  0
LINE
  5
249BD
  8
0
  6
CONTINUOUS
 10
15.27930401964343
 20
2.290320323947569
 30
0.0
 11
11.79928459456078
 21
5.770339749030213
 31
0.0
  0
LINE
  5
249BE
  8
0
  6
CONTINUOUS
 10
15.46335679640763
 20
2.77978675626355
 30
0.0
 11
14.48885470994921
 21
3.754288842721972
 31
0.0
  0
LINE
  5
249BF
  8
0
  6
CONTINUOUS
 10
13.88507249233704
 20
4.358071060334137
 30
0.0
 11
11.30933492039305
 21
6.933808632278135
 31
0.0
  0
LINE
  5
249C0
  8
0
  6
CONTINUOUS
 10
18.75840522805855
 20
0.1582575336928151
 30
0.0
 11
18.25383727664818
 21
0.6628254851031863
 31
0.0
  0
LINE
  5
249C1
  8
0
  6
CONTINUOUS
 10
15.64740957317184
 20
3.269253188579531
 30
0.0
 11
14.67288388101266
 21
4.243778880738705
 31
0.0
  0
LINE
  5
249C2
  8
0
  6
CONTINUOUS
 10
13.39509276772158
 20
5.521569994029786
 30
0.0
 11
10.81938524622531
 21
8.097277515526056
 31
0.0
  0
LINE
  5
249C3
  8
0
  6
CONTINUOUS
 10
18.95798597883369
 20
0.6321959919978686
 30
0.0
 11
17.84825644852853
 21
1.741925522303024
 31
0.0
  0
LINE
  5
249C4
  8
0
  6
CONTINUOUS
 10
19.15756672960882
 20
1.106134450302922
 30
0.0
 11
17.44267562040888
 21
2.821025559502861
 31
0.0
  0
LINE
  5
249C5
  8
0
  6
CONTINUOUS
 10
15.83146234993604
 20
3.758719620895513
 30
0.0
 11
14.85691305207612
 21
4.733268918755439
 31
0.0
  0
LINE
  5
249C6
  8
0
  6
CONTINUOUS
 10
16.01551512670025
 20
4.248186053211494
 30
0.0
 11
15.04094222313957
 21
5.222758956772172
 31
0.0
  0
LINE
  5
249C7
  8
0
  6
CONTINUOUS
 10
12.90511304310612
 20
6.685068927725435
 30
0.0
 11
10.8270819708403
 21
8.763099999991255
 31
0.0
  0
LINE
  5
249C8
  8
0
  6
CONTINUOUS
 10
12.41513331849066
 20
7.848567861421083
 30
0.0
 11
11.50060117992049
 21
8.763099999991255
 31
0.0
  0
LINE
  5
249C9
  8
0
  6
CONTINUOUS
 10
19.35714748038395
 20
1.580072908607975
 30
0.0
 11
17.03709479228923
 21
3.900125596702697
 31
0.0
  0
LINE
  5
249CA
  8
0
  6
CONTINUOUS
 10
19.55672823115909
 20
2.054011366913028
 30
0.0
 11
16.63151396416958
 21
4.979225633902534
 31
0.0
  0
LINE
  5
249CB
  8
0
  6
CONTINUOUS
 10
16.19956790346445
 20
4.737652485527476
 30
0.0
 11
15.22497139420302
 21
5.712248994788904
 31
0.0
  0
LINE
  5
249CC
  8
0
  6
CONTINUOUS
 10
16.38362068022866
 20
5.227118917843457
 30
0.0
 11
15.40900056526648
 21
6.201739032805637
 31
0.0
  0
LINE
  5
249CD
  8
0
  6
CONTINUOUS
 10
19.75630898193422
 20
2.527949825218081
 30
0.0
 11
18.70774536448286
 21
3.576513442669441
 31
0.0
  0
LINE
  5
249CE
  8
0
  6
CONTINUOUS
 10
19.95588973270936
 20
3.001888283523134
 30
0.0
 11
18.90726987211446
 21
4.050508144118028
 31
0.0
  0
LINE
  5
249CF
  8
0
  6
CONTINUOUS
 10
20.15547048348449
 20
3.475826741828186
 30
0.0
 11
19.10679437974606
 21
4.524502845566614
 31
0.0
  0
LINE
  5
249D0
  8
0
  6
CONTINUOUS
 10
20.35505123425962
 20
3.94976520013324
 30
0.0
 11
19.30631888737766
 21
4.998497547015201
 31
0.0
  0
LINE
  5
249D1
  8
0
  6
CONTINUOUS
 10
20.55463198503475
 20
4.423703658438292
 30
0.0
 11
19.50584339500926
 21
5.472492248463787
 31
0.0
  0
LINE
  5
249D2
  8
0
  6
CONTINUOUS
 10
18.37481191085755
 20
3.909446896294752
 30
0.0
 11
15.59302973632993
 21
6.691229070822371
 31
0.0
  0
LINE
  5
249D3
  8
0
  6
CONTINUOUS
 10
17.96904084440766
 20
4.988737171824825
 30
0.0
 11
15.77705890739338
 21
7.180719108839104
 31
0.0
  0
LINE
  5
249D4
  8
0
  6
CONTINUOUS
 10
17.56326977795777
 20
6.068027447354899
 30
0.0
 11
15.96108807845684
 21
7.670209146855838
 31
0.0
  0
LINE
  5
249D5
  8
0
  6
CONTINUOUS
 10
17.15749871150789
 20
7.147317722884972
 30
0.0
 11
16.14511724952029
 21
8.15969918487257
 31
0.0
  0
LINE
  5
249D6
  8
0
  6
CONTINUOUS
 10
16.751727645058
 20
8.226607998415046
 30
0.0
 11
16.32914642058374
 21
8.649189222889303
 31
0.0
  0
LINE
  5
249D7
  8
0
  6
CONTINUOUS
 10
20.75421273580989
 20
4.897642116743345
 30
0.0
 11
19.70536790264086
 21
5.946486949912374
 31
0.0
  0
LINE
  5
249D8
  8
0
  6
CONTINUOUS
 10
20.95379348658502
 20
5.371580575048398
 30
0.0
 11
19.90489241027246
 21
6.42048165136096
 31
0.0
  0
LINE
  5
249D9
  8
0
  6
CONTINUOUS
 10
21.15337423736015
 20
5.845519033353452
 30
0.0
 11
20.10441691790406
 21
6.894476352809547
 31
0.0
  0
LINE
  5
249DA
  8
0
  6
CONTINUOUS
 10
21.35295498813529
 20
6.319457491658505
 30
0.0
 11
20.30394142553566
 21
7.368471054258134
 31
0.0
  0
LINE
  5
249DB
  8
0
  6
CONTINUOUS
 10
21.55253573891042
 20
6.793395949963558
 30
0.0
 11
20.50346593316726
 21
7.842465755706721
 31
0.0
  0
LINE
  5
249DC
  8
0
  6
CONTINUOUS
 10
21.75211648968556
 20
7.267334408268612
 30
0.0
 11
20.70299044079886
 21
8.316460457155308
 31
0.0
  0
LINE
  5
249DD
  8
0
  6
CONTINUOUS
 10
21.95169724046069
 20
7.741272866573663
 30
0.0
 11
20.9298701070431
 21
8.763099999991256
 31
0.0
  0
LINE
  5
249DE
  8
0
  6
CONTINUOUS
 10
22.15127799123582
 20
8.215211324878716
 30
0.0
 11
21.60338931612328
 21
8.763099999991256
 31
0.0
  0
LINE
  5
249DF
  8
0
  6
CONTINUOUS
 10
22.35085874201096
 20
8.689149783183769
 30
0.0
 11
22.27690852520347
 21
8.763099999991255
 31
0.0
  0
ENDBLK
  5
24AD1
  8
0
  0
BLOCK
  8
0
  2
*X172
 70
     1
 10
0.0
 20
0.0
 30
0.0
  3
*X172
  1

  0
LINE
  5
249E1
  8
0
  6
CONTINUOUS
 10
23.19462913593892
 20
8.169917934846424
 30
0.0
 11
23.70775465517246
 21
8.683043454079957
 31
0.0
  0
LINE
  5
249E2
  8
0
  6
CONTINUOUS
 10
22.64923161835078
 20
6.951001208178088
 30
0.0
 11
23.9159364069932
 21
8.217705996820516
 31
0.0
  0
LINE
  5
249E3
  8
0
  6
CONTINUOUS
 10
22.10383410076263
 20
5.732084481509751
 30
0.0
 11
24.12411815881395
 21
7.752368539561078
 31
0.0
  0
LINE
  5
249E4
  8
0
  6
CONTINUOUS
 10
21.55843658317447
 20
4.513167754841414
 30
0.0
 11
24.3322999106347
 21
7.287031082301639
 31
0.0
  0
LINE
  5
249E5
  8
0
  6
CONTINUOUS
 10
21.01303906558632
 20
3.294251028173077
 30
0.0
 11
24.54048166245544
 21
6.821693625042199
 31
0.0
  0
LINE
  5
249E6
  8
0
  6
CONTINUOUS
 10
20.46764154799817
 20
2.075334301504738
 30
0.0
 11
23.28571549467848
 21
4.89340824818505
 31
0.0
  0
LINE
  5
249E7
  8
0
  6
CONTINUOUS
 10
19.92224403041002
 20
0.8564175748364002
 30
0.0
 11
22.74075865492779
 21
3.674932199354171
 31
0.0
  0
LINE
  5
249E8
  8
0
  6
CONTINUOUS
 10
23.67305085490148
 20
5.280743608408048
 30
0.0
 11
24.74866341427619
 21
6.356356167782759
 31
0.0
  0
LINE
  5
249E9
  8
0
  6
CONTINUOUS
 10
23.88118970842314
 20
4.815363252849522
 30
0.0
 11
24.95684516609694
 21
5.89101871052332
 31
0.0
  0
LINE
  5
249EA
  8
0
  6
CONTINUOUS
 10
19.73925852647308
 20
-0.0000871381807288
 30
0.0
 11
23.4103456646501
 21
3.670999999996297
 31
0.0
  0
LINE
  5
249EB
  8
0
  6
CONTINUOUS
 10
24.0893285619448
 20
4.349982897290997
 30
0.0
 11
25.16502691791769
 21
5.42568125326388
 31
0.0
  0
LINE
  5
249EC
  8
0
  6
CONTINUOUS
 10
20.41282099582748
 20
-0.0000438779065108
 30
0.0
 11
21.64944178675636
 21
1.236576913022366
 31
0.0
  0
LINE
  5
249ED
  8
0
  6
CONTINUOUS
 10
22.78126487373161
 20
2.36839999999762
 30
0.0
 11
24.08386487373029
 21
3.670999999996297
 31
0.0
  0
LINE
  5
249EE
  8
0
  6
CONTINUOUS
 10
24.29746741546646
 20
3.884602541732471
 30
0.0
 11
25.37320866973843
 21
4.960343796004441
 31
0.0
  0
LINE
  5
249EF
  8
0
  6
CONTINUOUS
 10
21.08638346518189
 20
-0.0000006176322938
 30
0.0
 11
21.10379033335899
 21
0.0174062505448083
 31
0.0
  0
LINE
  5
249F0
  8
0
  6
CONTINUOUS
 10
23.4547840828118
 20
2.36839999999762
 30
0.0
 11
25.58139042155918
 21
4.495006338745002
 31
0.0
  0
LINE
  5
249F1
  8
0
  6
CONTINUOUS
 10
29.30199999996933
 20
8.215615917155148
 30
0.0
 11
29.84948408280543
 21
8.763099999991255
 31
0.0
  0
LINE
  5
249F2
  8
0
  6
CONTINUOUS
 10
24.12830329189199
 20
2.36839999999762
 30
0.0
 11
25.78957217337993
 21
4.029668881485562
 31
0.0
  0
LINE
  5
249F3
  8
0
  6
CONTINUOUS
 10
29.30199999996933
 20
7.54209670807496
 30
0.0
 11
30.52300329188562
 21
8.763099999991255
 31
0.0
  0
LINE
  5
249F4
  8
0
  6
CONTINUOUS
 10
24.80182250097217
 20
2.36839999999762
 30
0.0
 11
25.99775392520067
 21
3.564331424226122
 31
0.0
  0
LINE
  5
249F5
  8
0
  6
CONTINUOUS
 10
29.30199999996933
 20
6.868577498994774
 30
0.0
 11
30.74199999996926
 21
8.308577498994712
 31
0.0
  0
LINE
  5
249F6
  8
0
  6
CONTINUOUS
 10
25.13028238392013
 20
2.023340673865392
 30
0.0
 11
26.20593567702142
 21
3.098993966966683
 31
0.0
  0
LINE
  5
249F7
  8
0
  6
CONTINUOUS
 10
25.33838066033617
 20
1.557919741201244
 30
0.0
 11
26.41411742884217
 21
2.633656509707244
 31
0.0
  0
LINE
  5
249F8
  8
0
  6
CONTINUOUS
 10
25.54647893675221
 20
1.092498808537098
 30
0.0
 11
26.62229918066291
 21
2.168319052447804
 31
0.0
  0
LINE
  5
249F9
  8
0
  6
CONTINUOUS
 10
25.75457721316825
 20
0.62707787587295
 30
0.0
 11
26.83048093248366
 21
1.702981595188365
 31
0.0
  0
LINE
  5
249FA
  8
0
  6
CONTINUOUS
 10
29.30199999996933
 20
6.195058289914587
 30
0.0
 11
30.74199999996926
 21
7.635058289914522
 31
0.0
  0
LINE
  5
249FB
  8
0
  6
CONTINUOUS
 10
29.30199999996933
 20
5.521539080834401
 30
0.0
 11
30.74199999996926
 21
6.961539080834331
 31
0.0
  0
LINE
  5
249FC
  8
0
  6
CONTINUOUS
 10
29.30199999996933
 20
4.848019871754214
 30
0.0
 11
30.74199999996925
 21
6.288019871754143
 31
0.0
  0
LINE
  5
249FD
  8
0
  6
CONTINUOUS
 10
29.30199999996933
 20
4.174500662674028
 30
0.0
 11
30.74199999996925
 21
5.614500662673953
 31
0.0
  0
LINE
  5
249FE
  8
0
  6
CONTINUOUS
 10
25.96267548958429
 20
0.1616569432088024
 30
0.0
 11
27.18411854636669
 21
1.383099999991207
 31
0.0
  0
LINE
  5
249FF
  8
0
  6
CONTINUOUS
 10
29.30199999996933
 20
3.500981453593841
 30
0.0
 11
30.74199999996925
 21
4.940981453593762
 31
0.0
  0
LINE
  5
24A00
  8
0
  6
CONTINUOUS
 10
26.50763775544691
 20
0.0330999999912356
 30
0.0
 11
27.85763775544689
 21
1.383099999991223
 31
0.0
  0
LINE
  5
24A01
  8
0
  6
CONTINUOUS
 10
29.30199999996933
 20
2.827462244513656
 30
0.0
 11
30.74199999996925
 21
4.267462244513574
 31
0.0
  0
LINE
  5
24A02
  8
0
  6
CONTINUOUS
 10
27.18115696452709
 20
0.0330999999912356
 30
0.0
 11
28.6224847300034
 21
1.474427765467545
 31
0.0
  0
LINE
  5
24A03
  8
0
  6
CONTINUOUS
 10
29.21067223449293
 20
2.062615269957069
 30
0.0
 11
30.74199999996924
 21
3.593943035433383
 31
0.0
  0
LINE
  5
24A04
  8
0
  6
CONTINUOUS
 10
27.85467617360728
 20
0.0330999999912356
 30
0.0
 11
30.74199999996924
 21
2.920423826353195
 31
0.0
  0
LINE
  5
24A05
  8
0
  6
CONTINUOUS
 10
28.57438609860264
 20
0.0792907159064073
 30
0.0
 11
30.69580928405405
 21
2.200713901357819
 31
0.0
  0
LINE
  5
24A06
  8
0
  6
CONTINUOUS
 10
29.49443044814297
 20
0.3258158563665496
 30
0.0
 11
30.44928414359389
 21
1.280669551817477
 31
0.0
  0
LINE
  5
24A07
  8
0
  6
CONTINUOUS
 10
19.59027867740337
 20
-0.0000967065718083
 30
0.0
 11
19.55485265190471
 21
0.035329318926844
 31
0.0
  0
LINE
  5
24A08
  8
0
  6
CONTINUOUS
 10
20.26375463176586
 20
-0.0000534518541091
 30
0.0
 11
19.76305575737534
 21
0.5006454225364014
 31
0.0
  0
LINE
  5
24A09
  8
0
  6
CONTINUOUS
 10
20.93723058612834
 20
-0.0000101971364099
 30
0.0
 11
19.97125886284597
 21
0.965961526145958
 31
0.0
  0
LINE
  5
24A0A
  8
0
  6
CONTINUOUS
 10
21.25514828313686
 20
0.355591314935257
 30
0.0
 11
20.1794619683166
 21
1.431277629755512
 31
0.0
  0
LINE
  5
24A0B
  8
0
  6
CONTINUOUS
 10
21.46338838394921
 20
0.8208704232030986
 30
0.0
 11
20.38766507378723
 21
1.896593733365069
 31
0.0
  0
LINE
  5
24A0C
  8
0
  6
CONTINUOUS
 10
21.67162848476155
 20
1.28614953147094
 30
0.0
 11
20.59586817925786
 21
2.361909836974626
 31
0.0
  0
LINE
  5
24A0D
  8
0
  6
CONTINUOUS
 10
21.8798685855739
 20
1.751428639738782
 30
0.0
 11
20.80407128472849
 21
2.827225940584183
 31
0.0
  0
LINE
  5
24A0E
  8
0
  6
CONTINUOUS
 10
22.08810868638624
 20
2.216707748006623
 30
0.0
 11
21.01227439019912
 21
3.292542044193739
 31
0.0
  0
LINE
  5
24A0F
  8
0
  6
CONTINUOUS
 10
22.60993564347543
 20
2.36839999999762
 30
0.0
 11
21.22047749566975
 21
3.757858147803296
 31
0.0
  0
LINE
  5
24A10
  8
0
  6
CONTINUOUS
 10
23.28345485255561
 20
2.36839999999762
 30
0.0
 11
21.42868060114038
 21
4.223174251412853
 31
0.0
  0
LINE
  5
24A11
  8
0
  6
CONTINUOUS
 10
26.29227406164219
 20
0.0330999999912356
 30
0.0
 11
25.80009199592872
 21
0.5252820657046957
 31
0.0
  0
LINE
  5
24A12
  8
0
  6
CONTINUOUS
 10
23.9569740616358
 20
2.36839999999762
 30
0.0
 11
21.63688370661101
 21
4.688490355022409
 31
0.0
  0
LINE
  5
24A13
  8
0
  6
CONTINUOUS
 10
26.96579327072237
 20
0.0330999999912356
 30
0.0
 11
25.2554132311971
 21
1.743480039516508
 31
0.0
  0
LINE
  5
24A14
  8
0
  6
CONTINUOUS
 10
24.63049327071599
 20
2.36839999999762
 30
0.0
 11
23.32789327071731
 21
3.670999999996297
 31
0.0
  0
LINE
  5
24A15
  8
0
  6
CONTINUOUS
 10
22.92098674744635
 20
4.077906523267254
 30
0.0
 11
21.84508681208164
 21
5.153806458631966
 31
0.0
  0
LINE
  5
24A16
  8
0
  6
CONTINUOUS
 10
27.63931247980256
 20
0.0330999999912356
 30
0.0
 11
24.0014124797975
 21
3.670999999996297
 31
0.0
  0
LINE
  5
24A17
  8
0
  6
CONTINUOUS
 10
23.129125600968
 20
4.5432868788258
 30
0.0
 11
22.05328991755227
 21
5.619122562241522
 31
0.0
  0
LINE
  5
24A18
  8
0
  6
CONTINUOUS
 10
28.31283168888275
 20
0.0330999999912356
 30
0.0
 11
24.16488385994816
 21
4.181047828925828
 31
0.0
  0
LINE
  5
24A19
  8
0
  6
CONTINUOUS
 10
23.33726445448964
 20
5.008667234384345
 30
0.0
 11
22.2614930230229
 21
6.084438665851079
 31
0.0
  0
LINE
  5
24A1A
  8
0
  6
CONTINUOUS
 10
28.86286302309502
 20
0.1565878748591523
 30
0.0
 11
27.63635089796295
 21
1.383099999991217
 31
0.0
  0
LINE
  5
24A1B
  8
0
  6
CONTINUOUS
 10
26.43704649509776
 20
2.582404402856405
 30
0.0
 11
23.61992702019732
 21
5.399523877756844
 31
0.0
  0
LINE
  5
24A1C
  8
0
  6
CONTINUOUS
 10
23.54540330801128
 20
5.47404758994289
 30
0.0
 11
22.46969612849353
 21
6.549754769460635
 31
0.0
  0
LINE
  5
24A1D
  8
0
  6
CONTINUOUS
 10
29.39405087596853
 20
0.2989192310658284
 30
0.0
 11
28.30987010704312
 21
1.383099999991234
 31
0.0
  0
LINE
  5
24A1E
  8
0
  6
CONTINUOUS
 10
25.89179548232307
 20
3.801174624711282
 30
0.0
 11
22.67789923396416
 21
7.015070873070191
 31
0.0
  0
LINE
  5
24A1F
  8
0
  6
CONTINUOUS
 10
29.79594438047407
 20
0.570544935640473
 30
0.0
 11
28.81310432793121
 21
1.553384988183336
 31
0.0
  0
LINE
  5
24A20
  8
0
  6
CONTINUOUS
 10
25.34654446954838
 20
5.01994484656616
 30
0.0
 11
22.88610233943479
 21
7.480386976679748
 31
0.0
  0
LINE
  5
24A21
  8
0
  6
CONTINUOUS
 10
30.13270398501416
 20
0.9073045401805646
 30
0.0
 11
29.14234640337737
 21
1.897662121817355
 31
0.0
  0
LINE
  5
24A22
  8
0
  6
CONTINUOUS
 10
24.80129345677369
 20
6.238715068421037
 30
0.0
 11
23.09430544490542
 21
7.945703080289305
 31
0.0
  0
LINE
  5
24A23
  8
0
  6
CONTINUOUS
 10
30.44581292956759
 20
1.26771480470732
 30
0.0
 11
29.30199999996933
 21
2.411527734305588
 31
0.0
  0
LINE
  5
24A24
  8
0
  6
CONTINUOUS
 10
30.58814428577427
 20
1.798902657580827
 30
0.0
 11
29.30199999996933
 21
3.085046943385775
 31
0.0
  0
LINE
  5
24A25
  8
0
  6
CONTINUOUS
 10
24.256042443999
 20
7.457485290275915
 30
0.0
 11
23.30250855037605
 21
8.411019183898862
 31
0.0
  0
LINE
  5
24A26
  8
0
  6
CONTINUOUS
 10
23.71079143122431
 20
8.676255512130794
 30
0.0
 11
23.51071165584668
 21
8.876335287508418
 31
0.0
  0
LINE
  5
24A27
  8
0
  6
CONTINUOUS
 10
30.73047564198095
 20
2.330090510454333
 30
0.0
 11
29.30199999996933
 21
3.758566152465961
 31
0.0
  0
LINE
  5
24A28
  8
0
  6
CONTINUOUS
 10
30.74199999996924
 20
2.992085361546236
 30
0.0
 11
29.30199999996933
 21
4.432085361546148
 31
0.0
  0
LINE
  5
24A29
  8
0
  6
CONTINUOUS
 10
30.74199999996924
 20
3.665604570626419
 30
0.0
 11
29.30199999996933
 21
5.105604570626333
 31
0.0
  0
LINE
  5
24A2A
  8
0
  6
CONTINUOUS
 10
30.74199999996925
 20
4.339123779706602
 30
0.0
 11
29.30199999996933
 21
5.77912377970652
 31
0.0
  0
LINE
  5
24A2B
  8
0
  6
CONTINUOUS
 10
30.74199999996925
 20
5.012642988786785
 30
0.0
 11
29.30199999996933
 21
6.452642988786707
 31
0.0
  0
LINE
  5
24A2C
  8
0
  6
CONTINUOUS
 10
30.74199999996925
 20
5.68616219786697
 30
0.0
 11
29.30199999996933
 21
7.126162197866894
 31
0.0
  0
LINE
  5
24A2D
  8
0
  6
CONTINUOUS
 10
30.74199999996925
 20
6.359681406947153
 30
0.0
 11
29.30199999996933
 21
7.799681406947081
 31
0.0
  0
LINE
  5
24A2E
  8
0
  6
CONTINUOUS
 10
30.74199999996926
 20
7.033200616027337
 30
0.0
 11
29.30199999996933
 21
8.473200616027269
 31
0.0
  0
LINE
  5
24A2F
  8
0
  6
CONTINUOUS
 10
30.74199999996926
 20
7.706719825107518
 30
0.0
 11
29.68561982508552
 21
8.763099999991255
 31
0.0
  0
LINE
  5
24A30
  8
0
  6
CONTINUOUS
 10
30.74199999996926
 20
8.380239034187703
 30
0.0
 11
30.35913903416571
 21
8.763099999991255
 31
0.0
  0
ENDBLK
  5
24AD3
  8
0
  0
BLOCK
  8
0
  2
*X173
 70
     1
 10
0.0
 20
0.0
 30
0.0
  3
*X173
  1

  0
LINE
  5
24A32
  8
0
  6
CONTINUOUS
 10
31.64199999996833
 20
8.5350582899136
 30
0.0
 11
31.87004171004599
 21
8.763099999991255
 31
0.0
  0
LINE
  5
24A33
  8
0
  6
CONTINUOUS
 10
31.64199999996833
 20
7.861539080833413
 30
0.0
 11
32.54356091912618
 21
8.763099999991255
 31
0.0
  0
LINE
  5
24A34
  8
0
  6
CONTINUOUS
 10
31.64199999996833
 20
7.188019871753227
 30
0.0
 11
33.08199999996839
 21
8.628019871753281
 31
0.0
  0
LINE
  5
24A35
  8
0
  6
CONTINUOUS
 10
31.64199999996833
 20
6.514500662673041
 30
0.0
 11
33.08199999996839
 21
7.954500662673095
 31
0.0
  0
LINE
  5
24A36
  8
0
  6
CONTINUOUS
 10
31.64199999996833
 20
5.840981453592855
 30
0.0
 11
33.08199999996839
 21
7.28098145359291
 31
0.0
  0
LINE
  5
24A37
  8
0
  6
CONTINUOUS
 10
31.64199999996833
 20
5.167462244512668
 30
0.0
 11
33.08199999996839
 21
6.607462244512723
 31
0.0
  0
LINE
  5
24A38
  8
0
  6
CONTINUOUS
 10
31.64199999996833
 20
4.493943035432482
 30
0.0
 11
33.08199999996839
 21
5.933943035432536
 31
0.0
  0
LINE
  5
24A39
  8
0
  6
CONTINUOUS
 10
31.64199999996833
 20
3.820423826352294
 30
0.0
 11
33.08199999996839
 21
5.260423826352349
 31
0.0
  0
LINE
  5
24A3A
  8
0
  6
CONTINUOUS
 10
31.64199999996833
 20
3.146904617272108
 30
0.0
 11
33.08199999996839
 21
4.586904617272163
 31
0.0
  0
LINE
  5
24A3B
  8
0
  6
CONTINUOUS
 10
36.23199999996837
 20
8.410423826352327
 30
0.0
 11
36.58467617360729
 21
8.763099999991255
 31
0.0
  0
LINE
  5
24A3C
  8
0
  6
CONTINUOUS
 10
36.23199999996837
 20
7.73690461727214
 30
0.0
 11
37.25819538268748
 21
8.763099999991255
 31
0.0
  0
LINE
  5
24A3D
  8
0
  6
CONTINUOUS
 10
31.64323424774199
 20
2.474619655965573
 30
0.0
 11
33.08199999996839
 21
3.913385408191976
 31
0.0
  0
LINE
  5
24A3E
  8
0
  6
CONTINUOUS
 10
31.74419223861915
 20
1.902058437762552
 30
0.0
 11
33.08199999996839
 21
3.239866199111789
 31
0.0
  0
LINE
  5
24A3F
  8
0
  6
CONTINUOUS
 10
36.23199999996837
 20
7.063385408191953
 30
0.0
 11
37.67199999996831
 21
8.503385408191894
 31
0.0
  0
LINE
  5
24A40
  8
0
  6
CONTINUOUS
 10
36.23199999996837
 20
6.389866199111767
 30
0.0
 11
37.67199999996831
 21
7.829866199111708
 31
0.0
  0
LINE
  5
24A41
  8
0
  6
CONTINUOUS
 10
31.91111233414976
 20
1.39545932421297
 30
0.0
 11
33.08199999996839
 21
2.566346990031603
 31
0.0
  0
LINE
  5
24A42
  8
0
  6
CONTINUOUS
 10
36.23199999996837
 20
5.71634699003158
 30
0.0
 11
37.67199999996831
 21
7.156346990031522
 31
0.0
  0
LINE
  5
24A43
  8
0
  6
CONTINUOUS
 10
32.1576374746103
 20
0.9684652555933289
 30
0.0
 11
33.20642631446081
 21
2.017254095443838
 31
0.0
  0
LINE
  5
24A44
  8
0
  6
CONTINUOUS
 10
36.23199999996837
 20
5.042827780951393
 30
0.0
 11
37.67199999996831
 21
6.482827780951334
 31
0.0
  0
LINE
  5
24A45
  8
0
  6
CONTINUOUS
 10
32.47774023927325
 20
0.6150488111760914
 30
0.0
 11
33.49903056428258
 21
1.636339136185419
 31
0.0
  0
LINE
  5
24A46
  8
0
  6
CONTINUOUS
 10
36.23199999996837
 20
4.369308571871207
 30
0.0
 11
37.67199999996831
 21
5.809308571871148
 31
0.0
  0
LINE
  5
24A47
  8
0
  6
CONTINUOUS
 10
32.84396249154443
 20
0.3077518543670883
 30
0.0
 11
33.93324121824649
 21
1.397030581069146
 31
0.0
  0
LINE
  5
24A48
  8
0
  6
CONTINUOUS
 10
36.23199999996837
 20
3.695789362791021
 30
0.0
 11
37.67199999996831
 21
5.135789362790963
 31
0.0
  0
LINE
  5
24A49
  8
0
  6
CONTINUOUS
 10
33.30186329036846
 20
0.0921334441109263
 30
0.0
 11
34.46442907112041
 21
1.254699224862875
 31
0.0
  0
LINE
  5
24A4A
  8
0
  6
CONTINUOUS
 10
36.23199999996837
 20
3.022270153710834
 30
0.0
 11
37.67199999996831
 21
4.462270153710776
 31
0.0
  0
LINE
  5
24A4B
  8
0
  6
CONTINUOUS
 10
33.79565647746294
 20
-0.0875925778747773
 30
0.0
 11
35.24350171668284
 21
1.360252661345124
 31
0.0
  0
LINE
  5
24A4C
  8
0
  6
CONTINUOUS
 10
36.18336676155003
 20
2.300117706212308
 30
0.0
 11
37.67199999996831
 21
3.788750944630589
 31
0.0
  0
LINE
  5
24A4D
  8
0
  6
CONTINUOUS
 10
34.37182574910968
 20
-0.184942515308224
 30
0.0
 11
37.67199999996831
 21
3.115231735550402
 31
0.0
  0
LINE
  5
24A4E
  8
0
  6
CONTINUOUS
 10
35.0453449581892
 20
-0.1849425153088955
 30
0.0
 11
37.66345697088136
 21
2.433169497383271
 31
0.0
  0
LINE
  5
24A4F
  8
0
  6
CONTINUOUS
 10
35.98667157609191
 20
0.0828648935136398
 30
0.0
 11
37.51927401744566
 21
1.615467334867382
 31
0.0
  0
LINE
  5
24A50
  8
0
  6
CONTINUOUS
 10
32.27747408544484
 20
0.7830920669904482
 30
0.0
 11
32.24716210471949
 21
0.8134040477157893
 31
0.0
  0
LINE
  5
24A51
  8
0
  6
CONTINUOUS
 10
33.83656881101902
 20
-0.1024834495035494
 30
0.0
 11
31.72538911593758
 21
2.008696245577891
 31
0.0
  0
LINE
  5
24A52
  8
0
  6
CONTINUOUS
 10
34.5925470859041
 20
-0.1849425153084434
 30
0.0
 11
31.64199999996833
 21
2.765604570627322
 31
0.0
  0
LINE
  5
24A53
  8
0
  6
CONTINUOUS
 10
35.26201302775981
 20
-0.1808892480839752
 30
0.0
 11
31.64199999996833
 21
3.439123779707508
 31
0.0
  0
LINE
  5
24A54
  8
0
  6
CONTINUOUS
 10
35.75580621485512
 20
-0.0011632260990879
 30
0.0
 11
34.51294304365551
 21
1.241699945100514
 31
0.0
  0
LINE
  5
24A55
  8
0
  6
CONTINUOUS
 10
33.08199999996839
 20
2.672642988787641
 30
0.0
 11
31.64199999996833
 21
4.112642988787695
 31
0.0
  0
LINE
  5
24A56
  8
0
  6
CONTINUOUS
 10
36.24959940195042
 20
0.1785627958857976
 30
0.0
 11
35.10501653033629
 21
1.323145667499924
 31
0.0
  0
LINE
  5
24A57
  8
0
  6
CONTINUOUS
 10
33.08199999996839
 20
3.346162197867827
 30
0.0
 11
31.64199999996833
 21
4.786162197867881
 31
0.0
  0
LINE
  5
24A58
  8
0
  6
CONTINUOUS
 10
36.64615197150552
 20
0.4555294354108876
 30
0.0
 11
35.6362043832099
 21
1.465477023706505
 31
0.0
  0
LINE
  5
24A59
  8
0
  6
CONTINUOUS
 10
33.08199999996839
 20
4.019681406948013
 30
0.0
 11
31.64199999996833
 21
5.459681406948068
 31
0.0
  0
LINE
  5
24A5A
  8
0
  6
CONTINUOUS
 10
37.0123742237774
 20
0.7628263922191891
 30
0.0
 11
35.97691545773309
 21
1.798285158263504
 31
0.0
  0
LINE
  5
24A5B
  8
0
  6
CONTINUOUS
 10
33.08199999996839
 20
4.6932006160282
 30
0.0
 11
31.64199999996833
 21
6.133200616028255
 31
0.0
  0
LINE
  5
24A5C
  8
0
  6
CONTINUOUS
 10
37.27491524157143
 20
1.173804583505349
 30
0.0
 11
36.17602012811361
 21
2.272699696963169
 31
0.0
  0
LINE
  5
24A5D
  8
0
  6
CONTINUOUS
 10
33.08199999996839
 20
5.366719825108387
 30
0.0
 11
31.64199999996833
 21
6.806719825108441
 31
0.0
  0
LINE
  5
24A5E
  8
0
  6
CONTINUOUS
 10
37.51739996707661
 20
1.604839067080355
 30
0.0
 11
36.23199999996837
 21
2.890239034188595
 31
0.0
  0
LINE
  5
24A5F
  8
0
  6
CONTINUOUS
 10
37.6183579579535
 20
2.177400285283649
 30
0.0
 11
36.23199999996837
 21
3.563758243268782
 31
0.0
  0
LINE
  5
24A60
  8
0
  6
CONTINUOUS
 10
33.08199999996839
 20
6.040239034188573
 30
0.0
 11
31.64199999996833
 21
7.480239034188628
 31
0.0
  0
LINE
  5
24A61
  8
0
  6
CONTINUOUS
 10
33.08199999996839
 20
6.713758243268759
 30
0.0
 11
31.64199999996833
 21
8.153758243268815
 31
0.0
  0
LINE
  5
24A62
  8
0
  6
CONTINUOUS
 10
37.67199999996831
 20
2.797277452349027
 30
0.0
 11
36.23199999996837
 21
4.237277452348969
 31
0.0
  0
LINE
  5
24A63
  8
0
  6
CONTINUOUS
 10
37.67199999996831
 20
3.470796661429214
 30
0.0
 11
36.23199999996837
 21
4.910796661429155
 31
0.0
  0
LINE
  5
24A64
  8
0
  6
CONTINUOUS
 10
37.67199999996831
 20
4.1443158705094
 30
0.0
 11
36.23199999996837
 21
5.584315870509341
 31
0.0
  0
LINE
  5
24A65
  8
0
  6
CONTINUOUS
 10
33.08199999996839
 20
7.387277452348946
 30
0.0
 11
31.70617745232608
 21
8.763099999991255
 31
0.0
  0
LINE
  5
24A66
  8
0
  6
CONTINUOUS
 10
33.08199999996839
 20
8.060796661429134
 30
0.0
 11
32.37969666140626
 21
8.763099999991255
 31
0.0
  0
LINE
  5
24A67
  8
0
  6
CONTINUOUS
 10
33.08199999996839
 20
8.734315870509318
 30
0.0
 11
33.05321587048645
 21
8.763099999991255
 31
0.0
  0
LINE
  5
24A68
  8
0
  6
CONTINUOUS
 10
37.67199999996831
 20
4.817835079589586
 30
0.0
 11
36.23199999996837
 21
6.257835079589528
 31
0.0
  0
LINE
  5
24A69
  8
0
  6
CONTINUOUS
 10
37.67199999996831
 20
5.491354288669772
 30
0.0
 11
36.23199999996837
 21
6.931354288669715
 31
0.0
  0
LINE
  5
24A6A
  8
0
  6
CONTINUOUS
 10
37.67199999996831
 20
6.164873497749959
 30
0.0
 11
36.23199999996837
 21
7.6048734977499
 31
0.0
  0
LINE
  5
24A6B
  8
0
  6
CONTINUOUS
 10
37.67199999996831
 20
6.838392706830145
 30
0.0
 11
36.23199999996837
 21
8.278392706830086
 31
0.0
  0
LINE
  5
24A6C
  8
0
  6
CONTINUOUS
 10
37.67199999996831
 20
7.511911915910333
 30
0.0
 11
36.42081191588738
 21
8.763099999991255
 31
0.0
  0
LINE
  5
24A6D
  8
0
  6
CONTINUOUS
 10
37.67199999996831
 20
8.185431124990519
 30
0.0
 11
37.09433112496757
 21
8.763099999991255
 31
0.0
  0
ENDBLK
  5
24AD5
  8
0
  0
BLOCK
  8
0
  2
*X174
 70
     1
 10
0.0
 20
0.0
 30
0.0
  3
*X174
  1

  0
LINE
  5
24A6F
  8
0
  6
CONTINUOUS
 10
38.60499999996136
 20
8.762866199104765
 30
0.0
 11
38.71672554182345
 21
8.874591740966855
 31
0.0
  0
LINE
  5
24A70
  8
0
  6
CONTINUOUS
 10
38.60499999996136
 20
8.089346990024577
 30
0.0
 11
39.03418785440363
 21
8.518534844466847
 31
0.0
  0
LINE
  5
24A71
  8
0
  6
CONTINUOUS
 10
38.60499999996136
 20
7.41582778094439
 30
0.0
 11
39.35165016698382
 21
8.16247794796684
 31
0.0
  0
LINE
  5
24A72
  8
0
  6
CONTINUOUS
 10
38.60499999996136
 20
6.742308571864204
 30
0.0
 11
39.66911247956399
 21
7.806421051466834
 31
0.0
  0
LINE
  5
24A73
  8
0
  6
CONTINUOUS
 10
38.60499999996136
 20
6.068789362784018
 30
0.0
 11
39.98657479214418
 21
7.450364154966827
 31
0.0
  0
LINE
  5
24A74
  8
0
  6
CONTINUOUS
 10
38.60499999996136
 20
5.395270153703832
 30
0.0
 11
40.30403710472435
 21
7.09430725846682
 31
0.0
  0
LINE
  5
24A75
  8
0
  6
CONTINUOUS
 10
38.60499999996136
 20
4.721750944623645
 30
0.0
 11
40.62149941730453
 21
6.738250361966813
 31
0.0
  0
LINE
  5
24A76
  8
0
  6
CONTINUOUS
 10
38.60499999996136
 20
4.048231735543458
 30
0.0
 11
40.93896172988471
 21
6.382193465466806
 31
0.0
  0
LINE
  5
24A77
  8
0
  6
CONTINUOUS
 10
38.60499999996136
 20
3.374712526463272
 30
0.0
 11
40.02599999995994
 21
4.795712526461843
 31
0.0
  0
LINE
  5
24A78
  8
0
  6
CONTINUOUS
 10
38.60499999996136
 20
2.701193317383085
 30
0.0
 11
40.02599999995994
 21
4.122193317381657
 31
0.0
  0
LINE
  5
24A79
  8
0
  6
CONTINUOUS
 10
40.28339754687704
 20
5.053110073378947
 30
0.0
 11
41.25642404246489
 21
6.026136568966799
 31
0.0
  0
LINE
  5
24A7A
  8
0
  6
CONTINUOUS
 10
40.60085985945722
 20
4.697053176878939
 30
0.0
 11
41.57388635504507
 21
5.670079672466793
 31
0.0
  0
LINE
  5
24A7B
  8
0
  6
CONTINUOUS
 10
43.57899999995641
 20
8.348712526458318
 30
0.0
 11
43.99338747348935
 21
8.763099999991255
 31
0.0
  0
LINE
  5
24A7C
  8
0
  6
CONTINUOUS
 10
43.57899999995641
 20
7.675193317378131
 30
0.0
 11
44.66690668256953
 21
8.763099999991255
 31
0.0
  0
LINE
  5
24A7D
  8
0
  6
CONTINUOUS
 10
38.60499999996136
 20
2.027674108302898
 30
0.0
 11
40.02599999995994
 21
3.44867410830147
 31
0.0
  0
LINE
  5
24A7E
  8
0
  6
CONTINUOUS
 10
38.60499999996136
 20
1.354154899222712
 30
0.0
 11
40.02599999995994
 21
2.775154899221284
 31
0.0
  0
LINE
  5
24A7F
  8
0
  6
CONTINUOUS
 10
38.60499999996136
 20
0.6806356901425255
 30
0.0
 11
40.02599999995994
 21
2.101635690141098
 31
0.0
  0
LINE
  5
24A80
  8
0
  6
CONTINUOUS
 10
38.60499999996136
 20
0.0071164810623383
 30
0.0
 11
40.02599999995994
 21
1.428116481060911
 31
0.0
  0
LINE
  5
24A81
  8
0
  6
CONTINUOUS
 10
40.9183221720374
 20
4.340996280378933
 30
0.0
 11
41.89134866762525
 21
5.314022775966786
 31
0.0
  0
LINE
  5
24A82
  8
0
  6
CONTINUOUS
 10
41.23578448461758
 20
3.984939383878926
 30
0.0
 11
42.20881098020543
 21
4.957965879466778
 31
0.0
  0
LINE
  5
24A83
  8
0
  6
CONTINUOUS
 10
41.55324679719776
 20
3.628882487378919
 30
0.0
 11
42.52627329278561
 21
4.601908982966772
 31
0.0
  0
LINE
  5
24A84
  8
0
  6
CONTINUOUS
 10
41.87070910977793
 20
3.272825590878912
 30
0.0
 11
42.84373560536579
 21
4.245852086466765
 31
0.0
  0
LINE
  5
24A85
  8
0
  6
CONTINUOUS
 10
43.57899999995641
 20
7.001674108297943
 30
0.0
 11
44.99999999995498
 21
8.422674108296516
 31
0.0
  0
LINE
  5
24A86
  8
0
  6
CONTINUOUS
 10
43.57899999995641
 20
6.328154899217758
 30
0.0
 11
44.99999999995498
 21
7.749154899216329
 31
0.0
  0
LINE
  5
24A87
  8
0
  6
CONTINUOUS
 10
43.57899999995641
 20
5.654635690137571
 30
0.0
 11
44.99999999995498
 21
7.075635690136142
 31
0.0
  0
LINE
  5
24A88
  8
0
  6
CONTINUOUS
 10
43.57899999995641
 20
4.981116481057384
 30
0.0
 11
44.99999999995498
 21
6.402116481055955
 31
0.0
  0
LINE
  5
24A89
  8
0
  6
CONTINUOUS
 10
39.27140272797921
 20
-0.0000000000000009
 30
0.0
 11
40.02599999995994
 21
0.7545972719807246
 31
0.0
  0
LINE
  5
24A8A
  8
0
  6
CONTINUOUS
 10
39.9449219370594
 20
-0.0000000000000009
 30
0.0
 11
40.02599999995994
 21
0.0810780629005379
 31
0.0
  0
LINE
  5
24A8B
  8
0
  6
CONTINUOUS
 10
42.18817142235812
 20
2.916768694378905
 30
0.0
 11
43.16119791794597
 21
3.889795189966758
 31
0.0
  0
LINE
  5
24A8C
  8
0
  6
CONTINUOUS
 10
42.50563373493829
 20
2.560711797878898
 30
0.0
 11
43.47866023052615
 21
3.533738293466751
 31
0.0
  0
LINE
  5
24A8D
  8
0
  6
CONTINUOUS
 10
43.57899999995641
 20
4.307597271977198
 30
0.0
 11
44.99999999995498
 21
5.728597271975769
 31
0.0
  0
LINE
  5
24A8E
  8
0
  6
CONTINUOUS
 10
43.57899999995641
 20
3.634078062897011
 30
0.0
 11
44.99999999995498
 21
5.055078062895582
 31
0.0
  0
LINE
  5
24A8F
  8
0
  6
CONTINUOUS
 10
42.82309604751848
 20
2.204654901378891
 30
0.0
 11
44.99999999995498
 21
4.381558853815395
 31
0.0
  0
LINE
  5
24A90
  8
0
  6
CONTINUOUS
 10
43.14055836009865
 20
1.848598004878885
 30
0.0
 11
44.99999999995498
 21
3.70803964473521
 31
0.0
  0
LINE
  5
24A91
  8
0
  6
CONTINUOUS
 10
43.45802067267883
 20
1.492541108378878
 30
0.0
 11
44.99999999995498
 21
3.034520435655023
 31
0.0
  0
LINE
  5
24A92
  8
0
  6
CONTINUOUS
 10
43.77548298525902
 20
1.136484211878871
 30
0.0
 11
44.99999999995498
 21
2.361001226574837
 31
0.0
  0
LINE
  5
24A93
  8
0
  6
CONTINUOUS
 10
44.09294529783919
 20
0.7804273153788639
 30
0.0
 11
44.99999999995498
 21
1.687482017494649
 31
0.0
  0
LINE
  5
24A94
  8
0
  6
CONTINUOUS
 10
44.41040761041938
 20
0.4243704188788566
 30
0.0
 11
44.99999999995498
 21
1.013962808414463
 31
0.0
  0
LINE
  5
24A95
  8
0
  6
CONTINUOUS
 10
44.72786992299955
 20
0.0683135223788494
 30
0.0
 11
44.99999999995498
 21
0.340443599334276
 31
0.0
  0
LINE
  5
24A96
  8
0
  6
CONTINUOUS
 10
39.12223903415696
 20
-0.0000000000000009
 30
0.0
 11
38.60499999996136
 21
0.5172390341955961
 31
0.0
  0
LINE
  5
24A97
  8
0
  6
CONTINUOUS
 10
39.79575824323715
 20
-0.0000000000000009
 30
0.0
 11
38.60499999996136
 21
1.190758243275783
 31
0.0
  0
LINE
  5
24A98
  8
0
  6
CONTINUOUS
 10
40.02599999995994
 20
0.443277452357397
 30
0.0
 11
38.60499999996136
 21
1.864277452355969
 31
0.0
  0
LINE
  5
24A99
  8
0
  6
CONTINUOUS
 10
40.02599999995994
 20
1.116796661437583
 30
0.0
 11
38.60499999996136
 21
2.537796661436155
 31
0.0
  0
LINE
  5
24A9A
  8
0
  6
CONTINUOUS
 10
40.02599999995994
 20
1.79031587051777
 30
0.0
 11
38.60499999996136
 21
3.211315870516341
 31
0.0
  0
LINE
  5
24A9B
  8
0
  6
CONTINUOUS
 10
40.02599999995994
 20
2.463835079597956
 30
0.0
 11
38.60499999996136
 21
3.884835079596527
 31
0.0
  0
LINE
  5
24A9C
  8
0
  6
CONTINUOUS
 10
40.02599999995994
 20
3.137354288678143
 30
0.0
 11
38.60499999996136
 21
4.558354288676714
 31
0.0
  0
LINE
  5
24A9D
  8
0
  6
CONTINUOUS
 10
40.02599999995994
 20
3.810873497758329
 30
0.0
 11
38.60499999996136
 21
5.2318734977569
 31
0.0
  0
LINE
  5
24A9E
  8
0
  6
CONTINUOUS
 10
40.02599999995994
 20
4.484392706838515
 30
0.0
 11
38.60499999996136
 21
5.905392706837086
 31
0.0
  0
LINE
  5
24A9F
  8
0
  6
CONTINUOUS
 10
44.99999999995498
 20
0.183911915923658
 30
0.0
 11
41.53858364506288
 21
3.64532827081576
 31
0.0
  0
LINE
  5
24AA0
  8
0
  6
CONTINUOUS
 10
40.02599999995994
 20
5.157911915918703
 30
0.0
 11
38.60499999996136
 21
6.578911915917274
 31
0.0
  0
LINE
  5
24AA1
  8
0
  6
CONTINUOUS
 10
44.99999999995498
 20
0.8574311250038447
 30
0.0
 11
38.60499999996136
 21
7.25243112499746
 31
0.0
  0
LINE
  5
24AA2
  8
0
  6
CONTINUOUS
 10
44.99999999995498
 20
1.530950334084031
 30
0.0
 11
38.60499999996136
 21
7.925950334077647
 31
0.0
  0
LINE
  5
24AA3
  8
0
  6
CONTINUOUS
 10
44.99999999995498
 20
2.204469543164218
 30
0.0
 11
43.57899999995641
 21
3.625469543162789
 31
0.0
  0
LINE
  5
24AA4
  8
0
  6
CONTINUOUS
 10
41.89876730984767
 20
5.305702233271528
 30
0.0
 11
38.60499999996136
 21
8.599469543157834
 31
0.0
  0
LINE
  5
24AA5
  8
0
  6
CONTINUOUS
 10
44.99999999995498
 20
2.877988752244405
 30
0.0
 11
43.57899999995641
 21
4.298988752242975
 31
0.0
  0
LINE
  5
24AA6
  8
0
  6
CONTINUOUS
 10
44.99999999995498
 20
3.551507961324591
 30
0.0
 11
43.57899999995641
 21
4.972507961323163
 31
0.0
  0
LINE
  5
24AA7
  8
0
  6
CONTINUOUS
 10
44.99999999995498
 20
4.225027170404777
 30
0.0
 11
43.57899999995641
 21
5.646027170403348
 31
0.0
  0
LINE
  5
24AA8
  8
0
  6
CONTINUOUS
 10
44.99999999995498
 20
4.898546379484964
 30
0.0
 11
43.57899999995641
 21
6.319546379483535
 31
0.0
  0
LINE
  5
24AA9
  8
0
  6
CONTINUOUS
 10
44.99999999995498
 20
5.572065588565151
 30
0.0
 11
43.57899999995641
 21
6.993065588563722
 31
0.0
  0
LINE
  5
24AAA
  8
0
  6
CONTINUOUS
 10
44.99999999995498
 20
6.245584797645336
 30
0.0
 11
43.57899999995641
 21
7.666584797643908
 31
0.0
  0
LINE
  5
24AAB
  8
0
  6
CONTINUOUS
 10
44.99999999995498
 20
6.919104006725522
 30
0.0
 11
43.57899999995641
 21
8.340104006724093
 31
0.0
  0
LINE
  5
24AAC
  8
0
  6
CONTINUOUS
 10
44.99999999995498
 20
7.592623215805709
 30
0.0
 11
43.82952321576943
 21
8.763099999991255
 31
0.0
  0
LINE
  5
24AAD
  8
0
  6
CONTINUOUS
 10
44.99999999995498
 20
8.266142424885896
 30
0.0
 11
44.50304242484962
 21
8.763099999991255
 31
0.0
  0
ENDBLK
  5
24AD7
  8
0
  0
BLOCK
  8
0
  2
*X175
 70
     1
 10
0.0
 20
0.0
 30
0.0
  3
*X175
  1

  0
LINE
  5
24AAF
  8
0
  6
CONTINUOUS
 10
0.0
 20
8.548461116714023
 30
0.0
 11
0.2146388832772324
 21
8.763099999991255
 31
0.0
  0
LINE
  5
24AB0
  8
0
  6
CONTINUOUS
 10
-0.0000000000000002
 20
7.874941907633837
 30
0.0
 11
0.8881580923574184
 21
8.763099999991255
 31
0.0
  0
LINE
  5
24AB1
  8
0
  6
CONTINUOUS
 10
0.0
 20
7.20142269855365
 30
0.0
 11
1.420999999998572
 21
8.622422698552223
 31
0.0
  0
LINE
  5
24AB2
  8
0
  6
CONTINUOUS
 10
-0.0000000000000001
 20
6.527903489473465
 30
0.0
 11
1.420999999998571
 21
7.948903489472036
 31
0.0
  0
LINE
  5
24AB3
  8
0
  6
CONTINUOUS
 10
-0.0000000000000002
 20
5.854384280393278
 30
0.0
 11
1.420999999998571
 21
7.275384280391849
 31
0.0
  0
LINE
  5
24AB4
  8
0
  6
CONTINUOUS
 10
-0.0000000000000002
 20
5.180865071313091
 30
0.0
 11
1.420999999998571
 21
6.601865071311663
 31
0.0
  0
LINE
  5
24AB5
  8
0
  6
CONTINUOUS
 10
0.0
 20
4.507345862232905
 30
0.0
 11
1.420999999998571
 21
5.928345862231477
 31
0.0
  0
LINE
  5
24AB6
  8
0
  6
CONTINUOUS
 10
-0.0000000000000003
 20
3.833826653152718
 30
0.0
 11
1.420999999998571
 21
5.25482665315129
 31
0.0
  0
LINE
  5
24AB7
  8
0
  6
CONTINUOUS
 10
-0.0000000000000002
 20
3.160307444072532
 30
0.0
 11
1.420999999998571
 21
4.581307444071103
 31
0.0
  0
LINE
  5
24AB8
  8
0
  6
CONTINUOUS
 10
-0.0000000000000001
 20
2.486788234992345
 30
0.0
 11
1.420999999998571
 21
3.907788234990917
 31
0.0
  0
LINE
  5
24AB9
  8
0
  6
CONTINUOUS
 10
-0.0000000000000006
 20
1.813269025912159
 30
0.0
 11
1.420999999998571
 21
3.234269025910731
 31
0.0
  0
LINE
  5
24ABA
  8
0
  6
CONTINUOUS
 10
0.0
 20
1.139749816831973
 30
0.0
 11
1.420999999998571
 21
2.560749816830544
 31
0.0
  0
LINE
  5
24ABB
  8
0
  6
CONTINUOUS
 10
0.0000000000000002
 20
0.466230607751787
 30
0.0
 11
1.420999999998571
 21
1.887230607750358
 31
0.0
  0
LINE
  5
24ABC
  8
0
  6
CONTINUOUS
 10
0.2072886013284003
 20
-0.0000000000000009
 30
0.0
 11
1.420999999998571
 21
1.213711398670171
 31
0.0
  0
LINE
  5
24ABD
  8
0
  6
CONTINUOUS
 10
0.8808078104085864
 20
-0.0000000000000009
 30
0.0
 11
1.420999999998571
 21
0.5401921895899839
 31
0.0
  0
LINE
  5
24ABE
  8
0
  6
CONTINUOUS
 10
0.0581249075061505
 20
-0.0000000000000009
 30
0.0
 11
-0.0000000000000002
 21
0.0581249075061496
 31
0.0
  0
LINE
  5
24ABF
  8
0
  6
CONTINUOUS
 10
0.7316441165863372
 20
-0.0000000000000009
 30
0.0
 11
-0.0000000000000002
 21
0.7316441165863363
 31
0.0
  0
LINE
  5
24AC0
  8
0
  6
CONTINUOUS
 10
1.405163325666523
 20
-0.0000000000000009
 30
0.0
 11
-0.0000000000000002
 21
1.405163325666523
 31
0.0
  0
LINE
  5
24AC1
  8
0
  6
CONTINUOUS
 10
1.420999999998572
 20
0.6576825347481381
 30
0.0
 11
-0.0000000000000001
 21
2.07868253474671
 31
0.0
  0
LINE
  5
24AC2
  8
0
  6
CONTINUOUS
 10
1.420999999998571
 20
1.331201743828324
 30
0.0
 11
-0.0000000000000001
 21
2.752201743826896
 31
0.0
  0
LINE
  5
24AC3
  8
0
  6
CONTINUOUS
 10
1.420999999998571
 20
2.004720952908511
 30
0.0
 11
-0.0000000000000002
 21
3.425720952907082
 31
0.0
  0
LINE
  5
24AC4
  8
0
  6
CONTINUOUS
 10
1.420999999998571
 20
2.678240161988697
 30
0.0
 11
-0.0000000000000001
 21
4.099240161987269
 31
0.0
  0
LINE
  5
24AC5
  8
0
  6
CONTINUOUS
 10
1.420999999998572
 20
3.351759371068884
 30
0.0
 11
0.0
 21
4.772759371067455
 31
0.0
  0
LINE
  5
24AC6
  8
0
  6
CONTINUOUS
 10
1.420999999998571
 20
4.02527858014907
 30
0.0
 11
-0.0000000000000003
 21
5.446278580147642
 31
0.0
  0
LINE
  5
24AC7
  8
0
  6
CONTINUOUS
 10
1.420999999998571
 20
4.698797789229257
 30
0.0
 11
0.0
 21
6.119797789227828
 31
0.0
  0
LINE
  5
24AC8
  8
0
  6
CONTINUOUS
 10
1.420999999998571
 20
5.372316998309444
 30
0.0
 11
-0.0000000000000001
 21
6.793316998308015
 31
0.0
  0
LINE
  5
24AC9
  8
0
  6
CONTINUOUS
 10
1.420999999998572
 20
6.045836207389629
 30
0.0
 11
-0.0000000000000004
 21
7.466836207388202
 31
0.0
  0
LINE
  5
24ACA
  8
0
  6
CONTINUOUS
 10
1.420999999998571
 20
6.719355416469816
 30
0.0
 11
0.0
 21
8.140355416468388
 31
0.0
  0
LINE
  5
24ACB
  8
0
  6
CONTINUOUS
 10
1.420999999998571
 20
7.392874625550003
 30
0.0
 11
0.0507746255573185
 21
8.763099999991255
 31
0.0
  0
LINE
  5
24ACC
  8
0
  6
CONTINUOUS
 10
1.420999999998571
 20
8.06639383463019
 30
0.0
 11
0.7242938346375052
 21
8.763099999991255
 31
0.0
  0
LINE
  5
24ACD
  8
0
  6
CONTINUOUS
 10
1.420999999998571
 20
8.739913043710375
 30
0.0
 11
1.397813043717691
 21
8.763099999991255
 31
0.0
  0
ENDBLK
  5
24AD9
  8
0
  0
ENDSEC
  0
SECTION
  2
ENTITIES
  0
LINE
  5
2356E
  8
01
 10
638.5162416153652
 20
-643.0495039365483
 30
0.0
 11
638.5162416153652
 21
-717.505851107112
 31
0.0
  0
LINE
  5
2356F
  8
01
 10
647.5162416153652
 20
-643.0495039365483
 30
0.0
 11
647.5162416153652
 21
-717.505851107112
 31
0.0
  0
LINE
  5
23570
  8
01
 10
626.0162416153652
 20
-643.0495039365483
 30
0.0
 11
626.0162416153652
 21
-717.505851107112
 31
0.0
  0
TEXT
  5
23E06
  8
1TEXT
 10
609.3760199964469
 20
-556.3213303512664
 30
0.0
 40
4.0
  1
表面処理:カバー
 72
     1
 11
626.2436125890395
 21
-556.3213303512664
 31
0.0
  0
LINE
  5
23E07
  8
1DIM
 10
603.8436125890394
 20
-550.8213303512664
 30
0.0
 11
723.8436125890394
 21
-550.8213303512664
 31
0.0
  0
LINE
  5
23E08
  8
1DIM
 10
603.8436125890394
 20
-564.8213303512664
 30
0.0
 11
648.8436125890389
 21
-564.8213303512664
 31
0.0
  0
LINE
  5
23E09
  8
1DIM
 10
603.8436125890394
 20
-557.8213303512664
 30
0.0
 11
723.8436125890394
 21
-557.8213303512664
 31
0.0
  0
LINE
  5
23E0A
  8
1DIM
 10
683.8436125890394
 20
-550.8213303512664
 30
0.0
 11
683.8436125890385
 21
-578.8213303512664
 31
0.0
  0
TEXT
  5
23E0B
  8
1TEXT
 10
695.8722329781191
 20
-556.3213303512664
 30
0.0
 40
4.0
  1
コード
 72
     1
 11
702.7388996447858
 21
-556.3213303512664
 31
0.0
  0
TEXT
  5
23E0C
  8
1TEXT
 10
613.8436125890394
 20
-545.8213303512664
 30
0.0
 40
8.0
  1
SE-425-X
  0
TEXT
  5
23E0D
  8
1TEXT
 10
616.7769459223728
 20
-563.1566190107907
 30
0.0
 40
4.0
  1
クローム
 72
     1
 11
626.2436125890395
 21
-563.1566190107907
 31
0.0
  0
TEXT
  5
23E0E
  8
1TEXT
 10
689.202549440121
 20
-563.5356873349157
 30
0.0
 40
4.0
  1
SE-425-XC
 41
0.85
 72
     1
 11
703.9476883290098
 21
-563.5356873349157
 31
0.0
  0
LINE
  5
23E23
  8
1DIM
 10
603.8436125890394
 20
-571.8213303512664
 30
0.0
 11
648.8436125890387
 21
-571.8213303512664
 31
0.0
  0
TEXT
  5
23E24
  8
1TEXT
 10
605.3102792557062
 20
-570.1566190107907
 30
0.0
 40
4.0
  1
セラミックホワイト
 72
     1
 11
626.2436125890395
 21
-570.1566190107907
 31
0.0
  0
TEXT
  5
23E25
  8
1TEXT
 10
686.9358827734543
 20
-570.5356873349157
 30
0.0
 40
4.0
  1
SE-425-001C
 41
0.85
 72
     1
 11
703.9476883290098
 21
-570.5356873349157
 31
0.0
  0
LINE
  5
23E26
  8
1DIM
 10
603.8436125890394
 20
-578.8213303512664
 30
0.0
 11
723.8436125890394
 21
-578.8213303512664
 31
0.0
  0
TEXT
  5
23E27
  8
1TEXT
 10
609.9769459223728
 20
-577.1566190107907
 30
0.0
 40
4.0
  1
マットブラック
 72
     1
 11
626.2436125890395
 21
-577.1566190107907
 31
0.0
  0
TEXT
  5
23E28
  8
1TEXT
 10
686.3692161067876
 20
-577.5356873349157
 30
0.0
 40
4.0
  1
SE-425-003C
 41
0.85
 72
     1
 11
703.9476883290098
 21
-577.5356873349157
 31
0.0
  0
LINE
  5
23E29
  8
1DIM
 10
603.8436125890394
 20
-578.8213303512664
 30
0.0
 11
603.8436125890394
 21
-550.8213303512664
 31
0.0
  0
LINE
  5
23E2A
  8
1DIM
 10
648.8436125890394
 20
-550.8213303512664
 30
0.0
 11
648.8436125890385
 21
-578.8213303512664
 31
0.0
  0
TEXT
  5
23E2B
  8
1TEXT
 10
651.6177178112566
 20
-556.3213303512664
 30
0.0
 40
4.0
  1
表面処理:本体
 72
     1
 11
666.3519770705159
 21
-556.3213303512664
 31
0.0
  0
TEXT
  5
23E2C
  8
1TEXT
 10
656.7357940920712
 20
-570.1566190107907
 30
0.0
 40
4.0
  1
クローム
 72
     1
 11
666.2024607587379
 21
-570.1566190107907
 31
0.0
  0
LINE
  5
23E2D
  8
1DIM
 10
683.8436125890389
 20
-564.8213303512664
 30
0.0
 11
723.8436125890394
 21
-564.8213303512664
 31
0.0
  0
LINE
  5
23E2E
  8
1DIM
 10
683.8436125890387
 20
-571.8213303512664
 30
0.0
 11
723.8436125890394
 21
-571.8213303512664
 31
0.0
  0
LINE
  5
23E2F
  8
1DIM
 10
723.8436125890385
 20
-578.8213303512665
 30
0.0
 11
723.8436125890394
 21
-550.8213303512665
 31
0.0
  0
ARC
  5
243D0
  8
01
  6
CONTINUOUS
 10
490.5314056633396
 20
-705.2776774268352
 30
0.0000000000000019
 40
1.0
 50
180.0
 51
270.0
  0
ARC
  5
243D1
  8
01
  6
CONTINUOUS
 10
490.5314056633396
 20
-691.2776774268352
 30
0.0000000000000019
 40
1.0
 50
90.0
 51
180.0
  0
LINE
  5
243D2
  8
01
  6
CONTINUOUS
 10
489.5314056633396
 20
-705.2776774268352
 30
0.0000000000000019
 11
489.5314056633396
 21
-691.2776774268352
 31
0.0000000000000019
  0
LINE
  5
243D6
  8
01
  6
CONTINUOUS
 10
490.5314056633396
 20
-690.2776774268352
 30
0.0000000000000019
 11
497.0314056633396
 21
-690.2776774268352
 31
0.0000000000000019
  0
ARC
  5
243D8
  8
01
  6
CONTINUOUS
 10
497.0314056633396
 20
-705.2776774268352
 30
0.0000000000000019
 40
1.0
 50
270.0
 51
0.0
  0
ARC
  5
243D9
  8
01
  6
CONTINUOUS
 10
497.0314056633396
 20
-691.2776774268352
 30
0.0000000000000019
 40
1.0
 50
0.0
 51
90.0
  0
LINE
  5
243DA
  8
01
  6
CONTINUOUS
 10
498.0314056633396
 20
-691.2776774268352
 30
0.0000000000000019
 11
498.0314056633396
 21
-705.2776774268352
 31
0.0000000000000019
  0
ARC
  5
243DB
  8
01
  6
CONTINUOUS
 10
510.0314056633396
 20
-705.2776774268352
 30
0.0000000000000019
 40
1.0
 50
180.0
 51
270.0
  0
ARC
  5
243DC
  8
01
  6
CONTINUOUS
 10
510.0314056633396
 20
-691.2776774268352
 30
0.0000000000000019
 40
1.0
 50
90.0
 51
180.0
  0
LINE
  5
243DD
  8
01
  6
CONTINUOUS
 10
509.0314056633396
 20
-705.2776774268352
 30
0.0000000000000019
 11
509.0314056633396
 21
-691.2776774268352
 31
0.0000000000000019
  0
ARC
  5
243E1
  8
01
  6
CONTINUOUS
 10
516.5314056633396
 20
-691.2776774268352
 30
0.0000000000000019
 40
1.0
 50
0.0
 51
90.0
  0
ARC
  5
243E2
  8
01
  6
CONTINUOUS
 10
516.5314056633396
 20
-705.2776774268352
 30
0.0000000000000019
 40
1.0
 50
270.0
 51
0.0
  0
LINE
  5
243E3
  8
01
  6
CONTINUOUS
 10
517.5314056633396
 20
-691.2776774268352
 30
0.0000000000000019
 11
517.5314056633396
 21
-705.2776774268352
 31
0.0000000000000019
  0
LINE
  5
243E4
  8
01
  6
CONTINUOUS
 10
516.5314056633396
 20
-706.2776774268352
 30
0.0000000000000019
 11
490.5314056633396
 21
-706.2776774268352
 31
0.0000000000000019
  0
LINE
  5
243E7
  8
01
  6
CONTINUOUS
 10
498.0314056633396
 20
-699.2776774268352
 30
0.0000000000000019
 11
503.5314056633396
 21
-699.2776774268352
 31
0.0000000000000019
  0
LINE
  5
243E8
  8
01
  6
CONTINUOUS
 10
503.5314056633396
 20
-699.2776774268352
 30
0.0000000000000019
 11
509.0314056633396
 21
-699.2776774268352
 31
0.0000000000000019
  0
CIRCLE
  5
243FB
  8
1PHANTOM
 10
503.5314056633396
 20
-665.2776774268352
 30
0.0000000000000019
 40
2.249999999999986
  0
LINE
  5
24404
  8
01
  6
CONTINUOUS
 10
509.317262820481
 20
-690.5776774268381
 30
0.0000000000000019
 11
497.7455485061981
 21
-690.5776774268381
 31
0.0000000000000019
  0
LINE
  5
24407
  8
1CENTER
 10
503.5314056633396
 20
-688.7234947707318
 30
0.0000000000000019
 11
503.5314056633396
 21
-681.7276774268353
 31
0.0000000000000019
  0
LINE
  5
24408
  8
1CENTER
 10
500.2314056633279
 20
-665.2776774268352
 30
0.0000000000000019
 11
506.6975855060801
 21
-665.2776774268352
 31
0.0000000000000019
  0
LINE
  5
24409
  8
1CENTER
 10
499.8314056633279
 20
-685.2776774268352
 30
0.0000000000000019
 11
507.1975855060801
 21
-685.2776774268352
 31
0.0000000000000019
  0
CIRCLE
  5
2440A
  8
1PHANTOM
 10
503.5314056633396
 20
-685.2776774268352
 30
0.0000000000000019
 40
2.5
  0
LINE
  5
2440B
  8
01
  6
CONTINUOUS
 10
510.0314056633396
 20
-690.2776774268352
 30
0.0000000000000019
 11
516.5314056633396
 21
-690.2776774268352
 31
0.0000000000000019
  0
LINE
  5
2440D
  8
01
  6
CONTINUOUS
 10
497.0314056633396
 20
-690.2776774268352
 30
0.0000000000000019
 11
510.0314056633396
 21
-690.2776774268352
 31
0.0000000000000019
  0
ARC
  5
2441D
  8
01
  6
CONTINUOUS
 10
594.0162416153652
 20
-691.2776775249343
 30
0.0
 40
1.0
 50
90.0
 51
180.0
  0
ARC
  5
2441E
  8
01
  6
CONTINUOUS
 10
594.0162416153652
 20
-705.2776775249343
 30
0.0
 40
1.0
 50
180.0
 51
270.0
  0
LINE
  5
2441F
  8
01
  6
CONTINUOUS
 10
593.0162416153652
 20
-705.2776775249343
 30
0.0
 11
593.0162416153652
 21
-691.2776775249343
 31
0.0
  0
LINE
  5
24420
  8
01
  6
CONTINUOUS
 10
616.8162416153535
 20
-696.2776775249343
 30
0.0
 11
616.8162416153535
 21
-690.5776775249227
 31
0.0
  0
LINE
  5
24421
  8
01
  6
CONTINUOUS
 10
599.5162416153652
 20
-691.7776775249343
 30
0.0
 11
599.5162416153652
 21
-696.2776775249343
 31
0.0
  0
ARC
  5
24422
  8
01
  6
CONTINUOUS
 10
613.8162416153535
 20
-696.2776775249343
 30
0.0
 40
2.999999999999972
 50
270.0
 51
0.0
  0
LINE
  5
24423
  8
01
  6
CONTINUOUS
 10
602.5162416153652
 20
-699.2776775249343
 30
0.0
 11
613.8162416153535
 21
-699.2776775249343
 31
0.0
  0
ARC
  5
24424
  8
01
  6
CONTINUOUS
 10
602.5162416153652
 20
-696.2776775249343
 30
0.0
 40
3.0
 50
180.0
 51
270.0
  0
ARC
  5
24425
  8
01
  6
CONTINUOUS
 10
617.1162416153419
 20
-690.5776775249227
 30
0.0
 40
0.3000000000000114
 50
90.0
 51
180.0
  0
LINE
  5
24426
  8
01
  6
CONTINUOUS
 10
626.0162416153652
 20
-706.2776775249343
 30
0.0
 11
594.0162416153652
 21
-706.2776775249343
 31
0.0
  0
ARC
  5
24427
  8
01
  6
CONTINUOUS
 10
598.0162416153652
 20
-691.7776775249343
 30
0.0
 40
1.500000000000014
 50
0.0
 51
90.0
  0
LINE
  5
24428
  8
01
  6
CONTINUOUS
 10
594.0162416153652
 20
-690.2776775249343
 30
0.0
 11
598.0162416153652
 21
-690.2776775249343
 31
0.0
  0
LINE
  5
24429
  8
01
  6
CONTINUOUS
 10
617.1162416153419
 20
-690.2776775249343
 30
0.0
 11
626.0162416153652
 21
-690.2776775249343
 31
0.0
  0
LINE
  5
24438
  8
01
  6
CONTINUOUS
 10
626.0162416153652
 20
-706.2776775249343
 30
0.0
 11
626.0162416153652
 21
-656.2776779812824
 31
0.0
  0
ARC
  5
24452
  8
01
  6
CONTINUOUS
 10
511.0314056632232
 20
-586.8127626779295
 30
0.0000000000000019
 40
2.0
 50
180.0
 51
270.0
  0
ARC
  5
24454
  8
01
  6
CONTINUOUS
 10
515.5314056632232
 20
-586.8127626779295
 30
0.0000000000000019
 40
2.000000000000028
 50
270.0
 51
0.0
  0
ARC
  5
24456
  8
01
  6
CONTINUOUS
 10
496.0314056632232
 20
-586.8127626779295
 30
0.0000000000000019
 40
2.0
 50
270.0
 51
0.0
  0
LINE
  5
24458
  8
01
  6
CONTINUOUS
 10
515.5314056632232
 20
-588.8127626779295
 30
0.0000000000000019
 11
511.0314056632232
 21
-588.8127626779295
 31
0.0000000000000019
  0
ARC
  5
2445A
  8
01
  6
CONTINUOUS
 10
491.5314056632232
 20
-586.8127626779295
 30
0.0000000000000019
 40
2.0
 50
180.0
 51
270.0
  0
LINE
  5
2445C
  8
01
  6
CONTINUOUS
 10
496.0314056632232
 20
-588.8127626779295
 30
0.0000000000000019
 11
491.5314056632232
 21
-588.8127626779295
 31
0.0000000000000019
  0
LINE
  5
24465
  8
01
  6
CONTINUOUS
 10
510.0314056632232
 20
-582.3127626779295
 30
0.0000000000000019
 11
516.5314056632232
 21
-582.3127626779295
 31
0.0000000000000019
  0
LINE
  5
24467
  8
01
  6
CONTINUOUS
 10
490.5314056632232
 20
-582.3127626779295
 30
0.0000000000000019
 11
497.0314056632232
 21
-582.3127626779295
 31
0.0000000000000019
  0
ARC
  5
24468
  8
01
  6
CONTINUOUS
 10
516.5314056632232
 20
-583.3127626779295
 30
0.0000000000000019
 40
1.0
 50
0.0
 51
90.0
  0
ARC
  5
24469
  8
01
  6
CONTINUOUS
 10
497.0314056632232
 20
-583.3127626779295
 30
0.0000000000000019
 40
1.0
 50
0.0
 51
90.0
  0
ARC
  5
2446A
  8
01
  6
CONTINUOUS
 10
490.5314056632232
 20
-583.3127626779295
 30
0.0000000000000019
 40
1.0
 50
90.0
 51
180.0
  0
ARC
  5
2446B
  8
01
  6
CONTINUOUS
 10
510.0314056632232
 20
-583.3127626779295
 30
0.0000000000000019
 40
1.0
 50
90.0
 51
180.0
  0
LINE
  5
24470
  8
01
  6
CONTINUOUS
 10
517.5314056632232
 20
-555.8127626779295
 30
0.0000000000000019
 11
517.5314056632232
 21
-586.8127626779295
 31
0.0000000000000019
  0
ARC
  5
24471
  8
01
  6
CONTINUOUS
 10
503.5314056632232
 20
-580.8127626779295
 30
0.0000000000000019
 40
5.5
 50
0.0
 51
90.0
  0
ARC
  5
24472
  8
01
  6
CONTINUOUS
 10
503.5314056632232
 20
-580.8127626779295
 30
0.0000000000000019
 40
5.5
 50
90.0
 51
180.0
  0
LINE
  5
24473
  8
01
  6
CONTINUOUS
 10
489.5314056632232
 20
-586.8127626779295
 30
0.0000000000000019
 11
489.5314056632232
 21
-555.8127626779295
 31
0.0000000000000019
  0
LINE
  5
24474
  8
01
 10
498.0314056632232
 20
-586.8127626779295
 30
0.0000000000000019
 11
498.0314056632232
 21
-580.8127626779295
 31
0.0000000000000019
  0
LINE
  5
24475
  8
01
 10
509.0314056632232
 20
-586.8127626779295
 30
0.0000000000000019
 11
509.0314056632232
 21
-580.8127626779295
 31
0.0000000000000019
  0
LINE
  5
2447A
  8
01
  6
CONTINUOUS
 10
516.5314056632232
 20
-565.0127626779412
 30
0.0000000000000019
 11
490.5314056632232
 21
-565.0127626779412
 31
0.0000000000000019
  0
ARC
  5
2447B
  8
01
  6
CONTINUOUS
 10
490.5314056632232
 20
-564.0127626779412
 30
0.0000000000000019
 40
1.0
 50
180.0
 51
270.0
  0
ARC
  5
2447C
  8
01
  6
CONTINUOUS
 10
516.5314056632232
 20
-564.0127626779412
 30
0.0000000000000019
 40
1.0
 50
270.0
 51
0.0
  0
LINE
  5
24481
  8
1CENTER
 10
503.5314056632232
 20
-568.8127626779295
 30
0.0000000000000019
 11
503.5314056632232
 21
-553.4234093833055
 31
0.0000000000000019
  0
LINE
  5
24484
  8
01
 10
517.5314056632232
 20
-563.8127626779295
 30
0.0000000000000019
 11
517.5314056632232
 21
-555.8127626779295
 31
0.0000000000000019
  0
ARC
  5
24485
  8
01
 10
516.5314056632232
 20
-563.8127626779295
 30
0.0000000000000019
 40
1.0
 50
270.0
 51
0.0
  0
LINE
  5
24486
  8
01
 10
490.5314056632232
 20
-564.8127626779295
 30
0.0000000000000019
 11
516.5314056632232
 21
-564.8127626779295
 31
0.0000000000000019
  0
ARC
  5
24487
  8
01
 10
490.5314056632232
 20
-563.8127626779295
 30
0.0000000000000019
 40
1.0
 50
180.0
 51
270.0
  0
LINE
  5
24488
  8
01
 10
489.5314056632232
 20
-555.8127626779295
 30
0.0000000000000019
 11
489.5314056632232
 21
-563.8127626779295
 31
0.0000000000000019
  0
LINE
  5
24492
  8
01
 10
489.5314056632232
 20
-555.8127626779295
 30
0.0000000000000019
 11
517.5314056632232
 21
-555.8127626779295
 31
0.0000000000000019
  0
LINE
  5
2449A
  8
01
 10
516.5314056633396
 20
-656.2776778831833
 30
0.0000000000000019
 11
490.5314056633396
 21
-656.2776778831833
 31
0.0000000000000019
  0
ARC
  5
2449B
  8
01
 10
516.5314056633396
 20
-657.2776778831833
 30
0.0000000000000019
 40
1.0
 50
0.0
 51
90.0
  0
LINE
  5
2449C
  8
01
 10
517.5314056633396
 20
-689.7776778831833
 30
0.0000000000000019
 11
517.5314056633396
 21
-657.2776778831833
 31
0.0000000000000019
  0
LINE
  5
244A7
  8
01
 10
489.5314056633396
 20
-689.7776778831833
 30
0.0000000000000019
 11
489.5314056633396
 21
-657.2776778831833
 31
0.0000000000000019
  0
ARC
  5
244A8
  8
01
 10
490.5314056633396
 20
-657.2776778831833
 30
0.0000000000000019
 40
1.0
 50
90.0
 51
180.0
  0
LINE
  5
244B5
  8
01
 10
517.0314056633396
 20
-690.2776778831833
 30
0.0000000000000019
 11
490.0314056633396
 21
-690.2776778831833
 31
0.0000000000000019
  0
ARC
  5
244B6
  8
01
 10
490.0314056633396
 20
-689.7776778831833
 30
0.0000000000000019
 40
0.5
 50
180.0
 51
270.0
  0
ARC
  5
244B7
  8
01
 10
517.0314056633396
 20
-689.7776778831833
 30
0.0000000000000019
 40
0.5
 50
270.0
 51
0.0
  0
LINE
  5
244FB
  8
01
 10
617.0162416153652
 20
-658.2776779812824
 30
0.0
 11
617.0162416153652
 21
-689.7776779812824
 31
0.0
  0
ARC
  5
244FC
  8
01
 10
619.0162416153652
 20
-658.2776779812824
 30
0.0
 40
2.0
 50
90.0
 51
180.0
  0
LINE
  5
244FD
  8
01
 10
619.0162416153652
 20
-656.2776779812824
 30
0.0
 11
626.0162416153652
 21
-656.2776779812824
 31
0.0
  0
ARC
  5
2450B
  8
01
 10
617.5162416153652
 20
-689.7776779812824
 30
0.0
 40
0.5
 50
180.0
 51
270.0
  0
LINE
  5
2457C
  8
01
 10
622.5162416153652
 20
-665.7776773749343
 30
0.0
 11
623.5162416153652
 21
-664.7776776749344
 31
0.0
  0
LINE
  5
24580
  8
01
 10
622.5162416153652
 20
-685.7776773749343
 30
0.0
 11
623.5162416153652
 21
-684.7776776749344
 31
0.0
  0
LINE
  5
24584
  8
1CENTER
 10
503.5314056633396
 20
-668.8276774268352
 30
0.0000000000000019
 11
503.5314056633396
 21
-662.1944881887512
 31
0.0000000000000019
  0
LINE
  5
24585
  8
01
 10
504.0314055132231
 20
-559.3127626779295
 30
0.0000000000012213
 11
503.0314058132232
 21
-558.3127626779295
 31
0.0000000000012213
  0
LINE
  5
247C8
  8
1DIM
 10
658.9470365326682
 20
-665.27767752183
 30
0.0
 11
669.8854466978997
 21
-665.27767752183
 31
0.0
1001
ACAD
1000
DSTYLE
1002
{
1070
    45
1040
0.5
1070
   271
1070
     0
1002
}
  0
LINE
  5
247C9
  8
1DIM
 10
647.5162416153652
 20
-656.2776779812824
 30
0.0
 11
669.8854466978997
 21
-656.2776779812824
 31
0.0
1001
ACAD
1000
DSTYLE
1002
{
1070
    45
1040
0.5
1070
   271
1070
     0
1002
}
  0
LINE
  5
247CA
  8
1DIM
 10
668.8854466978997
 20
-656.2776779812824
 30
0.0
 11
668.8854466978997
 21
-648.2110573910611
 31
0.0
1001
ACAD
1000
DSTYLE
1002
{
1070
    45
1040
0.5
1070
   271
1070
     0
1002
}
  0
LINE
  5
247CB
  8
1DIM
 10
668.8854466978997
 20
-663.27767752183
 30
0.0
 11
668.8854466978997
 21
-658.2776779812824
 31
0.0
1001
ACAD
1000
DSTYLE
1002
{
1070
    45
1040
0.5
1070
   271
1070
     0
1002
}
  0
LINE
  5
247CF
  8
1DIM
 10
626.0162416153652
 20
-706.2776775249343
 30
0.0
 11
678.3854466978997
 21
-706.2776775249343
 31
0.0
1001
ACAD
1000
DSTYLE
1002
{
1070
     3
1000
<>
1070
    45
1040
0.5
1002
}
  0
LINE
  5
247D0
  8
1DIM
 10
626.0162416153652
 20
-656.2776779812824
 30
0.0
 11
678.3854466978997
 21
-656.2776779812824
 31
0.0
1001
ACAD
1000
DSTYLE
1002
{
1070
     3
1000
<>
1070
    45
1040
0.5
1002
}
  0
LINE
  5
247D1
  8
1DIM
 10
677.3854466978997
 20
-704.2776775249343
 30
0.0
 11
677.3854466978997
 21
-658.2776779812824
 31
0.0
1001
ACAD
1000
DSTYLE
1002
{
1070
     3
1000
<>
1070
    45
1040
0.5
1002
}
  0
LINE
  5
247D6
  8
1DIM
  6
BYBLOCK
 10
627.5000000000002
 20
-629.7281735852819
 30
0.0
 11
619.6666666666669
 21
-629.7281735852819
 31
0.0
  0
LINE
  5
247D8
  8
1DIM
  6
BYBLOCK
 10
631.116979281161
 20
-648.2651924012305
 30
0.0
 11
627.5000000000002
 21
-629.7281735852819
 31
0.0
  0
LINE
  5
247DA
  8
1DIM
  6
BYBLOCK
 10
635.793017054903
 20
-612.2281735852819
 30
0.0
 11
605.7913966845326
 21
-612.2281735852819
 31
0.0
  0
LINE
  5
247DC
  8
1DIM
  6
BYBLOCK
 10
642.9057509911097
 20
-648.2660255287291
 30
0.0
 11
635.793017054903
 21
-612.2281735852819
 31
0.0
  0
LINE
  5
247DD
  8
1DIM
 10
489.5314056633396
 20
-657.2776778831833
 30
0.0
 11
489.5314056633396
 21
-647.5456271712824
 31
0.0
1001
ACAD
1000
DSTYLE
1002
{
1070
    45
1040
0.5
1002
}
  0
LINE
  5
247DE
  8
1DIM
 10
517.5314056633396
 20
-657.2776778831833
 30
0.0
 11
517.5314056633396
 21
-647.5456271712824
 31
0.0
1001
ACAD
1000
DSTYLE
1002
{
1070
    45
1040
0.5
1002
}
  0
LINE
  5
247DF
  8
1DIM
 10
491.5314056633396
 20
-648.5456271712824
 30
0.0
 11
515.5314056633396
 21
-648.5456271712824
 31
0.0
1001
ACAD
1000
DSTYLE
1002
{
1070
    45
1040
0.5
1002
}
  0
LINE
  5
247E3
  8
1DIM
 10
626.0162416153652
 20
-706.2776775249343
 30
0.0
 11
626.0162416153652
 21
-727.9776775249416
 31
0.0
1001
ACAD
1000
DSTYLE
1002
{
1070
    45
1040
0.5
1002
}
  0
LINE
  5
247E4
  8
1DIM
 10
593.0162416153652
 20
-705.2776775249343
 30
0.0
 11
593.0162416153652
 21
-727.9776775249416
 31
0.0
1001
ACAD
1000
DSTYLE
1002
{
1070
    45
1040
0.5
1002
}
  0
LINE
  5
247E5
  8
1DIM
 10
624.0162416153652
 20
-726.9776775249416
 30
0.0
 11
595.0162416153652
 21
-726.9776775249416
 31
0.0
1001
ACAD
1000
DSTYLE
1002
{
1070
    45
1040
0.5
1002
}
  0
LINE
  5
247EA
  8
1DIM
  6
BYBLOCK
 10
589.9736060881953
 20
-681.2011927266375
 30
0.0000000000000132
 11
543.4069394215286
 21
-681.2011927266375
 31
0.0000000000000132
  0
LINE
  5
247EC
  8
1DIM
  6
BYBLOCK
 10
595.562823660813
 20
-692.2366142676536
 30
0.0000000000000132
 11
589.9736060881953
 21
-681.2011927266375
 31
0.0000000000000132
  0
LINE
  5
247EE
  8
1DIM
  6
BYBLOCK
 10
602.6987663078559
 20
-637.9524744748418
 30
0.0
 11
556.1320996411891
 21
-637.9524744748418
 31
0.0
  0
LINE
  5
247F0
  8
1DIM
  6
BYBLOCK
 10
616.0829007089238
 20
-666.4917118803974
 30
0.0
 11
602.6987663078559
 21
-637.9524744748418
 31
0.0
  0
LINE
  5
247F1
  8
0
 10
657.5162416152028
 20
-665.2777240577279
 30
0.0
 11
652.2162451053412
 21
-663.7777240577279
 31
0.0
  0
LINE
  5
247F2
  8
0
 10
652.2162451053412
 20
-663.7777240577279
 30
0.0
 11
622.5162451054492
 21
-663.7777240577282
 31
0.0
  0
LINE
  5
247F3
  8
0
 10
657.5162416152028
 20
-665.2777240577279
 30
0.0
 11
652.2162381249575
 21
-666.777724057728
 31
0.0
  0
LINE
  5
247F4
  8
0
 10
622.5162497591474
 20
-661.7776775218301
 30
0.0
 11
622.516233471583
 21
-668.77767752183
 31
0.0
  0
LINE
  5
247F5
  8
0
 10
652.2162381249575
 20
-666.777724057728
 30
0.0
 11
622.5162381250645
 21
-666.7777240577282
 31
0.0
  0
LINE
  5
247F6
  8
0
 10
622.5162497591474
 20
-661.7776775218301
 30
0.0
 11
621.416246268952
 21
-661.77767752183
 31
0.0
  0
ARC
  5
247F7
  8
0
 10
621.416246268952
 20
-663.27767752183
 30
0.0
 40
1.5
 50
90.0
 51
179.9998666844663
  0
LINE
  5
247F8
  8
0
 10
622.516233471583
 20
-668.77767752183
 30
0.0
 11
621.4162369617724
 21
-668.77767752183
 31
0.0
  0
LINE
  5
247F9
  8
0
 10
619.9162462689561
 20
-663.2776740316376
 30
0.0
 11
619.9162369617765
 21
-667.2776740316376
 31
0.0
  0
ARC
  5
247FA
  8
0
 10
621.4162369617724
 20
-667.27767752183
 30
0.0
 40
1.5
 50
179.9998666844663
 51
270.0
  0
LINE
  5
247FB
  8
1CENTER
 10
658.9470365326682
 20
-665.27767752183
 30
0.0
 11
618.8459652060563
 21
-665.27767752183
 31
0.0
  0
LINE
  5
247FC
  8
0
 10
655.416244161525
 20
-664.183353707835
 30
0.0
 11
656.216239595576
 21
-666.1456887967104
 31
0.0
  0
LINE
  5
247FD
  8
0
 10
656.216239595576
 20
-666.1456887967104
 30
0.0
 11
656.5280094518281
 21
-665.557412221668
 31
0.0
  0
LINE
  5
247FE
  8
0
 10
633.016246268735
 20
-663.2777240577279
 30
0.0
 11
633.8162369615533
 21
-667.2777240577279
 31
0.0
  0
LINE
  5
247FF
  8
0
 10
644.2162462687394
 20
-663.2777240577279
 30
0.0
 11
645.016236961562
 21
-667.2777240577279
 31
0.0
  0
LINE
  5
24800
  8
0
 10
647.4162462687394
 20
-663.2777240577279
 30
0.0
 11
648.216236961562
 21
-667.2777240577279
 31
0.0
  0
LINE
  5
24801
  8
0
 10
648.216236961562
 20
-667.2777240577279
 30
0.0
 11
648.3162381249592
 21
-666.7777240577279
 31
0.0
  0
LINE
  5
24802
  8
0
 10
648.9162451053422
 20
-663.7777240577279
 30
0.0
 11
649.0162462687395
 21
-663.2777240577279
 31
0.0
  0
LINE
  5
24803
  8
0
 10
645.016236961562
 20
-667.2777240577279
 30
0.0
 11
645.1162381249592
 21
-666.7777240577279
 31
0.0
  0
LINE
  5
24804
  8
0
 10
646.6162369615621
 20
-667.2777240577279
 30
0.0
 11
646.7162381249592
 21
-666.7777240577279
 31
0.0
  0
LINE
  5
24805
  8
0
 10
647.3162451053423
 20
-663.7777240577279
 30
0.0
 11
647.4162462687394
 21
-663.2777240577279
 31
0.0
  0
LINE
  5
24806
  8
0
 10
645.7162451053424
 20
-663.7777240577279
 30
0.0
 11
645.8162462687395
 21
-663.2777240577279
 31
0.0
  0
LINE
  5
24807
  8
0
 10
645.8162462687395
 20
-663.2777240577279
 30
0.0
 11
646.6162369615621
 21
-667.2777240577279
 31
0.0
  0
LINE
  5
24808
  8
0
 10
654.6162385419703
 20
-666.5985029011172
 30
0.0
 11
654.7990026845983
 21
-666.0467534373139
 31
0.0
  0
LINE
  5
24809
  8
0
 10
651.416236961562
 20
-667.2777240577279
 30
0.0
 11
651.5162381249592
 21
-666.7777240577279
 31
0.0
  0
LINE
  5
2480A
  8
0
 10
649.816236961562
 20
-667.2777240577279
 30
0.0
 11
649.916238124959
 21
-666.7777240577279
 31
0.0
  0
LINE
  5
2480B
  8
0
 10
653.0162374883647
 20
-667.051317005524
 30
0.0
 11
653.1455081859946
 21
-666.5147232702528
 31
0.0
  0
LINE
  5
2480C
  8
0
 10
653.7034757027792
 20
-664.1986386549366
 30
0.0
 11
653.8162452151292
 21
-663.7305401997867
 31
0.0
  0
LINE
  5
2480D
  8
0
 10
650.5162451053424
 20
-663.7777240577279
 30
0.0
 11
650.6162462687395
 21
-663.2777240577279
 31
0.0
  0
LINE
  5
2480E
  8
0
 10
652.1162451053423
 20
-663.7777240577279
 30
0.0
 11
652.2162462687394
 21
-663.2777240577279
 31
0.0
  0
LINE
  5
2480F
  8
0
 10
655.2648083650846
 20
-664.640525548466
 30
0.0
 11
655.416244161525
 21
-664.183353707835
 31
0.0
  0
LINE
  5
24810
  8
0
 10
653.8162452151292
 20
-663.7305401997867
 30
0.0
 11
654.6162385419703
 21
-666.5985029011172
 31
0.0
  0
LINE
  5
24811
  8
0
 10
650.6162462687395
 20
-663.2777240577279
 30
0.0
 11
651.416236961562
 21
-667.2777240577279
 31
0.0
  0
LINE
  5
24812
  8
0
 10
652.2162462687394
 20
-663.2777240577279
 30
0.0
 11
653.0162374883647
 21
-667.051317005524
 31
0.0
  0
LINE
  5
24813
  8
0
 10
649.0162462687395
 20
-663.2777240577279
 30
0.0
 11
649.816236961562
 21
-667.2777240577279
 31
0.0
  0
LINE
  5
24814
  8
0
 10
636.2162462687351
 20
-663.2777240577279
 30
0.0
 11
637.0162369615533
 21
-667.2777240577279
 31
0.0
  0
LINE
  5
24815
  8
0
 10
637.0162369615533
 20
-667.2777240577279
 30
0.0
 11
637.116238124951
 21
-666.7777240577279
 31
0.0
  0
LINE
  5
24816
  8
0
 10
637.7162451053417
 20
-663.7777240577279
 30
0.0
 11
637.8162462687394
 21
-663.2777240577279
 31
0.0
  0
LINE
  5
24817
  8
0
 10
635.4162369615532
 20
-667.2777240577279
 30
0.0
 11
635.5162381249509
 21
-666.7777240577279
 31
0.0
  0
LINE
  5
24818
  8
0
 10
633.8162369615533
 20
-667.2777240577279
 30
0.0
 11
633.916238124951
 21
-666.7777240577279
 31
0.0
  0
LINE
  5
24819
  8
0
 10
636.1162451053374
 20
-663.7777240577279
 30
0.0
 11
636.2162462687351
 21
-663.2777240577279
 31
0.0
  0
LINE
  5
2481A
  8
0
 10
634.5162451053372
 20
-663.7777240577279
 30
0.0
 11
634.6162462687349
 21
-663.2777240577279
 31
0.0
  0
LINE
  5
2481B
  8
0
 10
634.6162462687349
 20
-663.2777240577279
 30
0.0
 11
635.4162369615532
 21
-667.2777240577279
 31
0.0
  0
LINE
  5
2481C
  8
0
 10
641.8162369615577
 20
-667.2777240577279
 30
0.0
 11
641.9162381249554
 21
-666.7777240577279
 31
0.0
  0
LINE
  5
2481D
  8
0
 10
643.416236961562
 20
-667.2777240577279
 30
0.0
 11
643.5162381249592
 21
-666.7777240577279
 31
0.0
  0
LINE
  5
2481E
  8
0
 10
638.6162369615577
 20
-667.2777240577279
 30
0.0
 11
638.7162381249553
 21
-666.7777240577279
 31
0.0
  0
LINE
  5
2481F
  8
0
 10
640.2162369615576
 20
-667.2777240577279
 30
0.0
 11
640.3162381249552
 21
-666.7777240577279
 31
0.0
  0
LINE
  5
24820
  8
0
 10
644.1162451053423
 20
-663.7777240577279
 30
0.0
 11
644.2162462687394
 21
-663.2777240577279
 31
0.0
  0
LINE
  5
24821
  8
0
 10
642.5162451053417
 20
-663.7777240577279
 30
0.0
 11
642.6162462687395
 21
-663.2777240577279
 31
0.0
  0
LINE
  5
24822
  8
0
 10
639.3162451053416
 20
-663.7777240577279
 30
0.0
 11
639.4162462687393
 21
-663.2777240577279
 31
0.0
  0
LINE
  5
24823
  8
0
 10
640.9162451053418
 20
-663.7777240577279
 30
0.0
 11
641.0162462687395
 21
-663.2777240577279
 31
0.0
  0
LINE
  5
24824
  8
0
 10
641.0162462687395
 20
-663.2777240577279
 30
0.0
 11
641.8162369615577
 21
-667.2777240577279
 31
0.0
  0
LINE
  5
24825
  8
0
 10
642.6162462687395
 20
-663.2777240577279
 30
0.0
 11
643.416236961562
 21
-667.2777240577279
 31
0.0
  0
LINE
  5
24826
  8
0
 10
639.4162462687393
 20
-663.2777240577279
 30
0.0
 11
640.2162369615576
 21
-667.2777240577279
 31
0.0
  0
LINE
  5
24827
  8
0
 10
637.8162462687394
 20
-663.2777240577279
 30
0.0
 11
638.6162369615577
 21
-667.2777240577279
 31
0.0
  0
LINE
  5
24828
  8
0
 10
628.1162451053332
 20
-663.7777240577279
 30
0.0
 11
628.2162462687309
 21
-663.2777240577279
 31
0.0
  0
LINE
  5
24829
  8
0
 10
628.2162462687309
 20
-663.2777240577279
 30
0.0
 11
629.0162369615491
 21
-667.2777240577279
 31
0.0
  0
LINE
  5
2482A
  8
0
 10
629.0162369615491
 20
-667.2777240577279
 30
0.0
 11
629.1162381249468
 21
-666.7777240577279
 31
0.0
  0
LINE
  5
2482B
  8
0
 10
629.7162451053331
 20
-663.7777240577279
 30
0.0
 11
629.8162462687308
 21
-663.2777240577279
 31
0.0
  0
LINE
  5
2482C
  8
0
 10
631.316245105333
 20
-663.7777240577279
 30
0.0
 11
631.4162462687307
 21
-663.2777240577279
 31
0.0
  0
LINE
  5
2482D
  8
0
 10
631.4162462687307
 20
-663.2777240577279
 30
0.0
 11
632.2162369615489
 21
-667.2777240577279
 31
0.0
  0
LINE
  5
2482E
  8
0
 10
630.616236961549
 20
-667.2777240577279
 30
0.0
 11
630.7162381249467
 21
-666.7777240577279
 31
0.0
  0
LINE
  5
2482F
  8
0
 10
632.2162369615489
 20
-667.2777240577279
 30
0.0
 11
632.3162381249466
 21
-666.7777240577279
 31
0.0
  0
LINE
  5
24830
  8
0
 10
629.8162462687308
 20
-663.2777240577279
 30
0.0
 11
630.616236961549
 21
-667.2777240577279
 31
0.0
  0
LINE
  5
24831
  8
0
 10
632.9162451053373
 20
-663.7777240577279
 30
0.0
 11
633.016246268735
 21
-663.2777240577279
 31
0.0
  0
LINE
  5
24832
  8
0
 10
626.5162451053333
 20
-663.7777240577279
 30
0.0
 11
626.616246268731
 21
-663.2777240577279
 31
0.0
  0
LINE
  5
24833
  8
0
 10
626.616246268731
 20
-663.2777240577279
 30
0.0
 11
627.4162369615492
 21
-667.2777240577279
 31
0.0
  0
LINE
  5
24834
  8
0
 10
627.4162369615492
 20
-667.2777240577279
 30
0.0
 11
627.5162381249469
 21
-666.7777240577279
 31
0.0
  0
LINE
  5
24835
  8
0
 10
624.9162451053334
 20
-663.7777240577279
 30
0.0
 11
625.016246268731
 21
-663.2777240577279
 31
0.0
  0
LINE
  5
24836
  8
0
 10
625.016246268731
 20
-663.2777240577279
 30
0.0
 11
625.8162369615493
 21
-667.2777240577279
 31
0.0
  0
LINE
  5
24837
  8
0
 10
625.8162369615493
 20
-667.2777240577279
 30
0.0
 11
625.916238124947
 21
-666.7777240577279
 31
0.0
  0
LINE
  5
24838
  8
0
 10
623.3162451053335
 20
-663.7777240577279
 30
0.0
 11
623.4162462687311
 21
-663.2777240577279
 31
0.0
  0
LINE
  5
24839
  8
0
 10
623.4162462687311
 20
-663.2777240577279
 30
0.0
 11
624.2162369615494
 21
-667.2777240577279
 31
0.0
  0
LINE
  5
2483A
  8
0
 10
624.2162369615494
 20
-667.2777240577279
 30
0.0
 11
624.3162381249471
 21
-666.7777240577279
 31
0.0
  0
LINE
  5
2483B
  8
1PHANTOM
 10
622.5162416153652
 20
-669.0776775249343
 30
0.0
 11
622.5162416153652
 21
-661.4776775249344
 31
0.0
  0
LINE
  5
2483C
  8
1PHANTOM
 10
622.5162416153652
 20
-661.4776775249344
 30
0.0
 11
623.5162416153652
 21
-661.4776775249344
 31
0.0
  0
LINE
  5
2483D
  8
1PHANTOM
 10
623.5162416153652
 20
-661.4776775249344
 30
0.0
 11
623.5162416153652
 21
-669.0776775249343
 31
0.0
  0
LINE
  5
2483E
  8
1PHANTOM
 10
623.5162416153652
 20
-669.0776775249343
 30
0.0
 11
622.5162416153652
 21
-669.0776775249343
 31
0.0
  0
LINE
  5
2483F
  8
0
 10
657.5162416152028
 20
-685.2777240577279
 30
0.0
 11
652.2162451053412
 21
-683.7777240577279
 31
0.0
  0
LINE
  5
24840
  8
0
 10
652.2162451053412
 20
-683.7777240577279
 30
0.0
 11
622.5162451054492
 21
-683.7777240577282
 31
0.0
  0
LINE
  5
24841
  8
0
 10
657.5162416152028
 20
-685.2777240577279
 30
0.0
 11
652.2162381249575
 21
-686.777724057728
 31
0.0
  0
LINE
  5
24842
  8
0
 10
622.5162497591474
 20
-681.7776775218301
 30
0.0
 11
622.516233471583
 21
-688.77767752183
 31
0.0
  0
LINE
  5
24843
  8
0
 10
652.2162381249575
 20
-686.777724057728
 30
0.0
 11
622.5162381250645
 21
-686.7777240577282
 31
0.0
  0
LINE
  5
24844
  8
0
 10
622.5162497591474
 20
-681.7776775218301
 30
0.0
 11
621.416246268952
 21
-681.77767752183
 31
0.0
  0
ARC
  5
24845
  8
0
 10
621.416246268952
 20
-683.27767752183
 30
0.0
 40
1.5
 50
90.0
 51
179.9998666844663
  0
LINE
  5
24846
  8
0
 10
622.516233471583
 20
-688.77767752183
 30
0.0
 11
621.4162369617724
 21
-688.77767752183
 31
0.0
  0
LINE
  5
24847
  8
0
 10
619.9162462689561
 20
-683.2776740316376
 30
0.0
 11
619.9162369617765
 21
-687.2776740316376
 31
0.0
  0
ARC
  5
24848
  8
0
 10
621.4162369617724
 20
-687.27767752183
 30
0.0
 40
1.5
 50
179.9998666844663
 51
270.0
  0
LINE
  5
24849
  8
1CENTER
 10
658.9470365326682
 20
-685.27767752183
 30
0.0
 11
618.8459652060563
 21
-685.27767752183
 31
0.0
  0
LINE
  5
2484A
  8
0
 10
655.416244161525
 20
-684.183353707835
 30
0.0
 11
656.216239595576
 21
-686.1456887967104
 31
0.0
  0
LINE
  5
2484B
  8
0
 10
656.216239595576
 20
-686.1456887967104
 30
0.0
 11
656.5280094518281
 21
-685.557412221668
 31
0.0
  0
LINE
  5
2484C
  8
0
 10
633.016246268735
 20
-683.2777240577279
 30
0.0
 11
633.8162369615533
 21
-687.2777240577279
 31
0.0
  0
LINE
  5
2484D
  8
0
 10
644.2162462687394
 20
-683.2777240577279
 30
0.0
 11
645.016236961562
 21
-687.2777240577279
 31
0.0
  0
LINE
  5
2484E
  8
0
 10
647.4162462687394
 20
-683.2777240577279
 30
0.0
 11
648.216236961562
 21
-687.2777240577279
 31
0.0
  0
LINE
  5
2484F
  8
0
 10
648.216236961562
 20
-687.2777240577279
 30
0.0
 11
648.3162381249592
 21
-686.7777240577279
 31
0.0
  0
LINE
  5
24850
  8
0
 10
648.9162451053422
 20
-683.7777240577279
 30
0.0
 11
649.0162462687395
 21
-683.2777240577279
 31
0.0
  0
LINE
  5
24851
  8
0
 10
645.016236961562
 20
-687.2777240577279
 30
0.0
 11
645.1162381249592
 21
-686.7777240577279
 31
0.0
  0
LINE
  5
24852
  8
0
 10
646.6162369615621
 20
-687.2777240577279
 30
0.0
 11
646.7162381249592
 21
-686.7777240577279
 31
0.0
  0
LINE
  5
24853
  8
0
 10
647.3162451053423
 20
-683.7777240577279
 30
0.0
 11
647.4162462687394
 21
-683.2777240577279
 31
0.0
  0
LINE
  5
24854
  8
0
 10
645.7162451053424
 20
-683.7777240577279
 30
0.0
 11
645.8162462687395
 21
-683.2777240577279
 31
0.0
  0
LINE
  5
24855
  8
0
 10
645.8162462687395
 20
-683.2777240577279
 30
0.0
 11
646.6162369615621
 21
-687.2777240577279
 31
0.0
  0
LINE
  5
24856
  8
0
 10
654.6162385419703
 20
-686.5985029011172
 30
0.0
 11
654.7990026845983
 21
-686.0467534373139
 31
0.0
  0
LINE
  5
24857
  8
0
 10
651.416236961562
 20
-687.2777240577279
 30
0.0
 11
651.5162381249592
 21
-686.7777240577279
 31
0.0
  0
LINE
  5
24858
  8
0
 10
649.816236961562
 20
-687.2777240577279
 30
0.0
 11
649.916238124959
 21
-686.7777240577279
 31
0.0
  0
LINE
  5
24859
  8
0
 10
653.0162374883647
 20
-687.051317005524
 30
0.0
 11
653.1455081859946
 21
-686.5147232702528
 31
0.0
  0
LINE
  5
2485A
  8
0
 10
653.7034757027792
 20
-684.1986386549366
 30
0.0
 11
653.8162452151292
 21
-683.7305401997867
 31
0.0
  0
LINE
  5
2485B
  8
0
 10
650.5162451053424
 20
-683.7777240577279
 30
0.0
 11
650.6162462687395
 21
-683.2777240577279
 31
0.0
  0
LINE
  5
2485C
  8
0
 10
652.1162451053423
 20
-683.7777240577279
 30
0.0
 11
652.2162462687394
 21
-683.2777240577279
 31
0.0
  0
LINE
  5
2485D
  8
0
 10
655.2648083650846
 20
-684.640525548466
 30
0.0
 11
655.416244161525
 21
-684.183353707835
 31
0.0
  0
LINE
  5
2485E
  8
0
 10
653.8162452151292
 20
-683.7305401997867
 30
0.0
 11
654.6162385419703
 21
-686.5985029011172
 31
0.0
  0
LINE
  5
2485F
  8
0
 10
650.6162462687395
 20
-683.2777240577279
 30
0.0
 11
651.416236961562
 21
-687.2777240577279
 31
0.0
  0
LINE
  5
24860
  8
0
 10
652.2162462687394
 20
-683.2777240577279
 30
0.0
 11
653.0162374883647
 21
-687.051317005524
 31
0.0
  0
LINE
  5
24861
  8
0
 10
649.0162462687395
 20
-683.2777240577279
 30
0.0
 11
649.816236961562
 21
-687.2777240577279
 31
0.0
  0
LINE
  5
24862
  8
0
 10
636.2162462687351
 20
-683.2777240577279
 30
0.0
 11
637.0162369615533
 21
-687.2777240577279
 31
0.0
  0
LINE
  5
24863
  8
0
 10
637.0162369615533
 20
-687.2777240577279
 30
0.0
 11
637.116238124951
 21
-686.7777240577279
 31
0.0
  0
LINE
  5
24864
  8
0
 10
637.7162451053417
 20
-683.7777240577279
 30
0.0
 11
637.8162462687394
 21
-683.2777240577279
 31
0.0
  0
LINE
  5
24865
  8
0
 10
635.4162369615532
 20
-687.2777240577279
 30
0.0
 11
635.5162381249509
 21
-686.7777240577279
 31
0.0
  0
LINE
  5
24866
  8
0
 10
633.8162369615533
 20
-687.2777240577279
 30
0.0
 11
633.916238124951
 21
-686.7777240577279
 31
0.0
  0
LINE
  5
24867
  8
0
 10
636.1162451053374
 20
-683.7777240577279
 30
0.0
 11
636.2162462687351
 21
-683.2777240577279
 31
0.0
  0
LINE
  5
24868
  8
0
 10
634.5162451053372
 20
-683.7777240577279
 30
0.0
 11
634.6162462687349
 21
-683.2777240577279
 31
0.0
  0
LINE
  5
24869
  8
0
 10
634.6162462687349
 20
-683.2777240577279
 30
0.0
 11
635.4162369615532
 21
-687.2777240577279
 31
0.0
  0
LINE
  5
2486A
  8
0
 10
641.8162369615577
 20
-687.2777240577279
 30
0.0
 11
641.9162381249554
 21
-686.7777240577279
 31
0.0
  0
LINE
  5
2486B
  8
0
 10
643.416236961562
 20
-687.2777240577279
 30
0.0
 11
643.5162381249592
 21
-686.7777240577279
 31
0.0
  0
LINE
  5
2486C
  8
0
 10
638.6162369615577
 20
-687.2777240577279
 30
0.0
 11
638.7162381249553
 21
-686.7777240577279
 31
0.0
  0
LINE
  5
2486D
  8
0
 10
640.2162369615576
 20
-687.2777240577279
 30
0.0
 11
640.3162381249552
 21
-686.7777240577279
 31
0.0
  0
LINE
  5
2486E
  8
0
 10
644.1162451053423
 20
-683.7777240577279
 30
0.0
 11
644.2162462687394
 21
-683.2777240577279
 31
0.0
  0
LINE
  5
2486F
  8
0
 10
642.5162451053417
 20
-683.7777240577279
 30
0.0
 11
642.6162462687395
 21
-683.2777240577279
 31
0.0
  0
LINE
  5
24870
  8
0
 10
639.3162451053416
 20
-683.7777240577279
 30
0.0
 11
639.4162462687393
 21
-683.2777240577279
 31
0.0
  0
LINE
  5
24871
  8
0
 10
640.9162451053418
 20
-683.7777240577279
 30
0.0
 11
641.0162462687395
 21
-683.2777240577279
 31
0.0
  0
LINE
  5
24872
  8
0
 10
641.0162462687395
 20
-683.2777240577279
 30
0.0
 11
641.8162369615577
 21
-687.2777240577279
 31
0.0
  0
LINE
  5
24873
  8
0
 10
642.6162462687395
 20
-683.2777240577279
 30
0.0
 11
643.416236961562
 21
-687.2777240577279
 31
0.0
  0
LINE
  5
24874
  8
0
 10
639.4162462687393
 20
-683.2777240577279
 30
0.0
 11
640.2162369615576
 21
-687.2777240577279
 31
0.0
  0
LINE
  5
24875
  8
0
 10
637.8162462687394
 20
-683.2777240577279
 30
0.0
 11
638.6162369615577
 21
-687.2777240577279
 31
0.0
  0
LINE
  5
24876
  8
0
 10
628.1162451053332
 20
-683.7777240577279
 30
0.0
 11
628.2162462687309
 21
-683.2777240577279
 31
0.0
  0
LINE
  5
24877
  8
0
 10
628.2162462687309
 20
-683.2777240577279
 30
0.0
 11
629.0162369615491
 21
-687.2777240577279
 31
0.0
  0
LINE
  5
24878
  8
0
 10
629.0162369615491
 20
-687.2777240577279
 30
0.0
 11
629.1162381249468
 21
-686.7777240577279
 31
0.0
  0
LINE
  5
24879
  8
0
 10
629.7162451053331
 20
-683.7777240577279
 30
0.0
 11
629.8162462687308
 21
-683.2777240577279
 31
0.0
  0
LINE
  5
2487A
  8
0
 10
631.316245105333
 20
-683.7777240577279
 30
0.0
 11
631.4162462687307
 21
-683.2777240577279
 31
0.0
  0
LINE
  5
2487B
  8
0
 10
631.4162462687307
 20
-683.2777240577279
 30
0.0
 11
632.2162369615489
 21
-687.2777240577279
 31
0.0
  0
LINE
  5
2487C
  8
0
 10
630.616236961549
 20
-687.2777240577279
 30
0.0
 11
630.7162381249467
 21
-686.7777240577279
 31
0.0
  0
LINE
  5
2487D
  8
0
 10
632.2162369615489
 20
-687.2777240577279
 30
0.0
 11
632.3162381249466
 21
-686.7777240577279
 31
0.0
  0
LINE
  5
2487E
  8
0
 10
629.8162462687308
 20
-683.2777240577279
 30
0.0
 11
630.616236961549
 21
-687.2777240577279
 31
0.0
  0
LINE
  5
2487F
  8
0
 10
632.9162451053373
 20
-683.7777240577279
 30
0.0
 11
633.016246268735
 21
-683.2777240577279
 31
0.0
  0
LINE
  5
24880
  8
0
 10
626.5162451053333
 20
-683.7777240577279
 30
0.0
 11
626.616246268731
 21
-683.2777240577279
 31
0.0
  0
LINE
  5
24881
  8
0
 10
626.616246268731
 20
-683.2777240577279
 30
0.0
 11
627.4162369615492
 21
-687.2777240577279
 31
0.0
  0
LINE
  5
24882
  8
0
 10
627.4162369615492
 20
-687.2777240577279
 30
0.0
 11
627.5162381249469
 21
-686.7777240577279
 31
0.0
  0
LINE
  5
24883
  8
0
 10
624.9162451053334
 20
-683.7777240577279
 30
0.0
 11
625.016246268731
 21
-683.2777240577279
 31
0.0
  0
LINE
  5
24884
  8
0
 10
625.016246268731
 20
-683.2777240577279
 30
0.0
 11
625.8162369615493
 21
-687.2777240577279
 31
0.0
  0
LINE
  5
24885
  8
0
 10
625.8162369615493
 20
-687.2777240577279
 30
0.0
 11
625.916238124947
 21
-686.7777240577279
 31
0.0
  0
LINE
  5
24886
  8
0
 10
623.3162451053335
 20
-683.7777240577279
 30
0.0
 11
623.4162462687311
 21
-683.2777240577279
 31
0.0
  0
LINE
  5
24887
  8
0
 10
623.4162462687311
 20
-683.2777240577279
 30
0.0
 11
624.2162369615494
 21
-687.2777240577279
 31
0.0
  0
LINE
  5
24888
  8
0
 10
624.2162369615494
 20
-687.2777240577279
 30
0.0
 11
624.3162381249471
 21
-686.7777240577279
 31
0.0
  0
LINE
  5
24889
  8
1PHANTOM
 10
622.5162416153652
 20
-689.0776775249343
 30
0.0
 11
622.5162416153652
 21
-681.4776775249344
 31
0.0
  0
LINE
  5
2488A
  8
1PHANTOM
 10
622.5162416153652
 20
-681.4776775249344
 30
0.0
 11
623.5162416153652
 21
-681.4776775249344
 31
0.0
  0
LINE
  5
2488B
  8
1PHANTOM
 10
623.5162416153652
 20
-681.4776775249344
 30
0.0
 11
623.5162416153652
 21
-689.0776775249343
 31
0.0
  0
LINE
  5
2488C
  8
1PHANTOM
 10
623.5162416153652
 20
-689.0776775249343
 30
0.0
 11
622.5162416153652
 21
-689.0776775249343
 31
0.0
  0
LINE
  5
2488D
  8
0
 10
503.5314521960167
 20
-524.3127626780919
 30
0.0000000000012213
 11
502.0314521960167
 21
-529.6127591879535
 31
0.0000000000012213
  0
LINE
  5
2488E
  8
0
 10
502.0314521960167
 20
-529.6127591879535
 30
0.0000000000012213
 11
502.031452196017
 21
-559.3127591878455
 31
0.0000000000012213
  0
LINE
  5
2488F
  8
0
 10
503.5314521960167
 20
-524.3127626780919
 30
0.0000000000012213
 11
505.0314521960169
 21
-529.6127661683372
 31
0.0000000000012213
  0
LINE
  5
24890
  8
0
 10
500.0314056601189
 20
-559.3127545341473
 30
0.0000000000012213
 11
507.0314056601188
 21
-559.3127708217118
 31
0.0000000000012213
  0
LINE
  5
24891
  8
0
 10
505.0314521960169
 20
-529.6127661683372
 30
0.0000000000012213
 11
505.031452196017
 21
-559.3127661682302
 31
0.0000000000012213
  0
LINE
  5
24892
  8
0
 10
500.0314056601189
 20
-559.3127545341473
 30
0.0000000000012213
 11
500.0314056601188
 21
-560.4127580243427
 31
0.0000000000012213
  0
ARC
  5
24893
  8
0
 10
501.5314056601188
 20
-560.4127580243427
 30
0.0000000000012213
 40
1.5
 50
180.0
 51
269.9998666844684
  0
LINE
  5
24894
  8
0
 10
507.0314056601188
 20
-559.3127708217118
 30
0.0000000000012213
 11
507.0314056601188
 21
-560.4127673315223
 31
0.0000000000012213
  0
LINE
  5
24895
  8
0
 10
501.5314021699264
 20
-561.9127580243386
 30
0.0000000000012213
 11
505.5314021699264
 21
-561.9127673315182
 31
0.0000000000012213
  0
ARC
  5
24896
  8
0
 10
505.5314056601188
 20
-560.4127673315223
 30
0.0000000000012213
 40
1.5
 50
269.9998666844684
 51
0.0
  0
LINE
  5
24897
  8
1CENTER
 10
503.5314056601188
 20
-522.8819677606265
 30
0.0000000000012213
 11
503.5314056601188
 21
-562.9830390872384
 31
0.0000000000012213
  0
LINE
  5
24898
  8
0
 10
502.4370818461238
 20
-526.4127601317697
 30
0.0000000000012213
 11
504.3994169349992
 21
-525.6127646977187
 31
0.0000000000012213
  0
LINE
  5
24899
  8
0
 10
504.3994169349992
 20
-525.6127646977187
 30
0.0000000000012213
 11
503.8111403599568
 21
-525.3009948414666
 31
0.0000000000012213
  0
LINE
  5
2489A
  8
0
 10
501.5314521960167
 20
-548.8127580245597
 30
0.0000000000012213
 11
505.5314521960167
 21
-548.0127673317414
 31
0.0000000000012213
  0
LINE
  5
2489B
  8
0
 10
501.5314521960167
 20
-537.6127580245553
 30
0.0000000000012213
 11
505.5314521960167
 21
-536.8127673317327
 31
0.0000000000012213
  0
LINE
  5
2489C
  8
0
 10
501.5314521960167
 20
-534.4127580245553
 30
0.0000000000012213
 11
505.5314521960167
 21
-533.6127673317327
 31
0.0000000000012213
  0
LINE
  5
2489D
  8
0
 10
505.5314521960167
 20
-533.6127673317327
 30
0.0000000000012213
 11
505.0314521960167
 21
-533.5127661683355
 31
0.0000000000012213
  0
LINE
  5
2489E
  8
0
 10
502.0314521960167
 20
-532.9127591879525
 30
0.0000000000012213
 11
501.5314521960167
 21
-532.8127580245553
 31
0.0000000000012213
  0
LINE
  5
2489F
  8
0
 10
505.5314521960167
 20
-536.8127673317327
 30
0.0000000000012213
 11
505.0314521960167
 21
-536.7127661683355
 31
0.0000000000012213
  0
LINE
  5
248A0
  8
0
 10
505.5314521960167
 20
-535.2127673317326
 30
0.0000000000012213
 11
505.0314521960167
 21
-535.1127661683355
 31
0.0000000000012213
  0
LINE
  5
248A1
  8
0
 10
502.0314521960167
 20
-534.5127591879524
 30
0.0000000000012213
 11
501.5314521960167
 21
-534.4127580245553
 31
0.0000000000012213
  0
LINE
  5
248A2
  8
0
 10
502.0314521960167
 20
-536.1127591879523
 30
0.0000000000012213
 11
501.5314521960167
 21
-536.0127580245552
 31
0.0000000000012213
  0
LINE
  5
248A3
  8
0
 10
501.5314521960167
 20
-536.0127580245552
 30
0.0000000000012213
 11
505.5314521960167
 21
-535.2127673317326
 31
0.0000000000012213
  0
LINE
  5
248A4
  8
0
 10
504.852231039406
 20
-527.2127657513244
 30
0.0000000000012213
 11
504.3004815756027
 21
-527.0300016086964
 31
0.0000000000012213
  0
LINE
  5
248A5
  8
0
 10
505.5314521960167
 20
-530.4127673317327
 30
0.0000000000012213
 11
505.0314521960167
 21
-530.3127661683355
 31
0.0000000000012213
  0
LINE
  5
248A6
  8
0
 10
505.5314521960167
 20
-532.0127673317327
 30
0.0000000000012213
 11
505.0314521960167
 21
-531.9127661683357
 31
0.0000000000012213
  0
LINE
  5
248A7
  8
0
 10
505.3050451438128
 20
-528.81276680493
 30
0.0000000000012213
 11
504.7684514085416
 21
-528.6834961073001
 31
0.0000000000012213
  0
LINE
  5
248A8
  8
0
 10
502.4523667932255
 20
-528.1255285905155
 30
0.0000000000012213
 11
501.9842683380755
 21
-528.0127590781655
 31
0.0000000000012213
  0
LINE
  5
248A9
  8
0
 10
502.0314521960167
 20
-531.3127591879523
 30
0.0000000000012213
 11
501.5314521960167
 21
-531.2127580245552
 31
0.0000000000012213
  0
LINE
  5
248AA
  8
0
 10
502.0314521960167
 20
-529.7127591879524
 30
0.0000000000012213
 11
501.5314521960167
 21
-529.6127580245553
 31
0.0000000000012213
  0
LINE
  5
248AB
  8
0
 10
502.8942536867548
 20
-526.5641959282101
 30
0.0000000000012213
 11
502.4370818461238
 21
-526.4127601317697
 31
0.0000000000012213
  0
LINE
  5
248AC
  8
0
 10
501.9842683380755
 20
-528.0127590781655
 30
0.0000000000012213
 11
504.852231039406
 21
-527.2127657513244
 31
0.0000000000012213
  0
LINE
  5
248AD
  8
0
 10
501.5314521960167
 20
-531.2127580245552
 30
0.0000000000012213
 11
505.5314521960167
 21
-530.4127673317327
 31
0.0000000000012213
  0
LINE
  5
248AE
  8
0
 10
501.5314521960167
 20
-529.6127580245553
 30
0.0000000000012213
 11
505.3050451438128
 21
-528.81276680493
 31
0.0000000000012213
  0
LINE
  5
248AF
  8
0
 10
501.5314521960167
 20
-532.8127580245553
 30
0.0000000000012213
 11
505.5314521960167
 21
-532.0127673317327
 31
0.0000000000012213
  0
LINE
  5
248B0
  8
0
 10
501.5314521960167
 20
-545.6127580245596
 30
0.0000000000012213
 11
505.5314521960167
 21
-544.8127673317414
 31
0.0000000000012213
  0
LINE
  5
248B1
  8
0
 10
505.5314521960167
 20
-544.8127673317414
 30
0.0000000000012213
 11
505.0314521960167
 21
-544.7127661683437
 31
0.0000000000012213
  0
LINE
  5
248B2
  8
0
 10
502.0314521960167
 20
-544.112759187953
 30
0.0000000000012213
 11
501.5314521960167
 21
-544.0127580245553
 31
0.0000000000012213
  0
LINE
  5
248B3
  8
0
 10
505.5314521960167
 20
-546.4127673317415
 30
0.0000000000012213
 11
505.0314521960167
 21
-546.3127661683438
 31
0.0000000000012213
  0
LINE
  5
248B4
  8
0
 10
505.5314521960167
 20
-548.0127673317414
 30
0.0000000000012213
 11
505.0314521960167
 21
-547.9127661683438
 31
0.0000000000012213
  0
LINE
  5
248B5
  8
0
 10
502.0314521960167
 20
-545.7127591879573
 30
0.0000000000012213
 11
501.5314521960167
 21
-545.6127580245596
 31
0.0000000000012213
  0
LINE
  5
248B6
  8
0
 10
502.0314521960167
 20
-547.3127591879575
 30
0.0000000000012213
 11
501.5314521960167
 21
-547.2127580245598
 31
0.0000000000012213
  0
LINE
  5
248B7
  8
0
 10
501.5314521960167
 20
-547.2127580245598
 30
0.0000000000012213
 11
505.5314521960167
 21
-546.4127673317415
 31
0.0000000000012213
  0
LINE
  5
248B8
  8
0
 10
505.5314521960167
 20
-540.012767331737
 30
0.0000000000012213
 11
505.0314521960167
 21
-539.9127661683393
 31
0.0000000000012213
  0
LINE
  5
248B9
  8
0
 10
505.5314521960167
 20
-538.4127673317327
 30
0.0000000000012213
 11
505.0314521960167
 21
-538.3127661683355
 31
0.0000000000012213
  0
LINE
  5
248BA
  8
0
 10
505.5314521960167
 20
-543.212767331737
 30
0.0000000000012213
 11
505.0314521960167
 21
-543.1127661683394
 31
0.0000000000012213
  0
LINE
  5
248BB
  8
0
 10
505.5314521960167
 20
-541.6127673317371
 30
0.0000000000012213
 11
505.0314521960167
 21
-541.5127661683395
 31
0.0000000000012213
  0
LINE
  5
248BC
  8
0
 10
502.0314521960167
 20
-537.7127591879524
 30
0.0000000000012213
 11
501.5314521960167
 21
-537.6127580245553
 31
0.0000000000012213
  0
LINE
  5
248BD
  8
0
 10
502.0314521960167
 20
-539.312759187953
 30
0.0000000000012213
 11
501.5314521960167
 21
-539.2127580245552
 31
0.0000000000012213
  0
LINE
  5
248BE
  8
0
 10
502.0314521960167
 20
-542.5127591879531
 30
0.0000000000012213
 11
501.5314521960167
 21
-542.4127580245554
 31
0.0000000000012213
  0
LINE
  5
248BF
  8
0
 10
502.0314521960167
 20
-540.9127591879529
 30
0.0000000000012213
 11
501.5314521960167
 21
-540.8127580245553
 31
0.0000000000012213
  0
LINE
  5
248C0
  8
0
 10
501.5314521960167
 20
-540.8127580245553
 30
0.0000000000012213
 11
505.5314521960167
 21
-540.012767331737
 31
0.0000000000012213
  0
LINE
  5
248C1
  8
0
 10
501.5314521960167
 20
-539.2127580245552
 30
0.0000000000012213
 11
505.5314521960167
 21
-538.4127673317327
 31
0.0000000000012213
  0
LINE
  5
248C2
  8
0
 10
501.5314521960167
 20
-542.4127580245554
 30
0.0000000000012213
 11
505.5314521960167
 21
-541.6127673317371
 31
0.0000000000012213
  0
LINE
  5
248C3
  8
0
 10
501.5314521960167
 20
-544.0127580245553
 30
0.0000000000012213
 11
505.5314521960167
 21
-543.212767331737
 31
0.0000000000012213
  0
LINE
  5
248C4
  8
0
 10
502.0314521960167
 20
-553.7127591879615
 30
0.0000000000012213
 11
501.5314521960167
 21
-553.6127580245638
 31
0.0000000000012213
  0
LINE
  5
248C5
  8
0
 10
501.5314521960167
 20
-553.6127580245638
 30
0.0000000000012213
 11
505.5314521960167
 21
-552.8127673317456
 31
0.0000000000012213
  0
LINE
  5
248C6
  8
0
 10
505.5314521960167
 20
-552.8127673317456
 30
0.0000000000012213
 11
505.0314521960167
 21
-552.7127661683479
 31
0.0000000000012213
  0
LINE
  5
248C7
  8
0
 10
502.0314521960167
 20
-552.1127591879616
 30
0.0000000000012213
 11
501.5314521960167
 21
-552.0127580245639
 31
0.0000000000012213
  0
LINE
  5
248C8
  8
0
 10
502.0314521960167
 20
-550.5127591879617
 30
0.0000000000012213
 11
501.5314521960167
 21
-550.412758024564
 31
0.0000000000012213
  0
LINE
  5
248C9
  8
0
 10
501.5314521960167
 20
-550.412758024564
 30
0.0000000000012213
 11
505.5314521960167
 21
-549.6127673317458
 31
0.0000000000012213
  0
LINE
  5
248CA
  8
0
 10
505.5314521960167
 20
-551.2127673317457
 30
0.0000000000012213
 11
505.0314521960167
 21
-551.112766168348
 31
0.0000000000012213
  0
LINE
  5
248CB
  8
0
 10
505.5314521960167
 20
-549.6127673317458
 30
0.0000000000012213
 11
505.0314521960167
 21
-549.5127661683481
 31
0.0000000000012213
  0
LINE
  5
248CC
  8
0
 10
501.5314521960167
 20
-552.0127580245639
 30
0.0000000000012213
 11
505.5314521960167
 21
-551.2127673317457
 31
0.0000000000012213
  0
LINE
  5
248CD
  8
0
 10
502.0314521960167
 20
-548.9127591879574
 30
0.0000000000012213
 11
501.5314521960167
 21
-548.8127580245597
 31
0.0000000000012213
  0
LINE
  5
248CE
  8
0
 10
502.0314521960167
 20
-555.3127591879614
 30
0.0000000000012213
 11
501.5314521960167
 21
-555.2127580245638
 31
0.0000000000012213
  0
LINE
  5
248CF
  8
0
 10
501.5314521960167
 20
-555.2127580245638
 30
0.0000000000012213
 11
505.5314521960167
 21
-554.4127673317455
 31
0.0000000000012213
  0
LINE
  5
248D0
  8
0
 10
505.5314521960167
 20
-554.4127673317455
 30
0.0000000000012213
 11
505.0314521960167
 21
-554.3127661683478
 31
0.0000000000012213
  0
LINE
  5
248D1
  8
0
 10
502.0314521960167
 20
-556.9127591879613
 30
0.0000000000012213
 11
501.5314521960167
 21
-556.8127580245637
 31
0.0000000000012213
  0
LINE
  5
248D2
  8
0
 10
501.5314521960167
 20
-556.8127580245637
 30
0.0000000000012213
 11
505.5314521960167
 21
-556.0127673317454
 31
0.0000000000012213
  0
LINE
  5
248D3
  8
0
 10
505.5314521960167
 20
-556.0127673317454
 30
0.0000000000012213
 11
505.0314521960167
 21
-555.9127661683477
 31
0.0000000000012213
  0
LINE
  5
248D4
  8
0
 10
502.0314521960167
 20
-558.5127591879613
 30
0.0000000000012213
 11
501.5314521960167
 21
-558.4127580245636
 31
0.0000000000012213
  0
LINE
  5
248D5
  8
0
 10
501.5314521960167
 20
-558.4127580245636
 30
0.0000000000012213
 11
505.5314521960167
 21
-557.6127673317453
 31
0.0000000000012213
  0
LINE
  5
248D6
  8
0
 10
505.5314521960167
 20
-557.6127673317453
 30
0.0000000000012213
 11
505.0314521960167
 21
-557.5127661683476
 31
0.0000000000012213
  0
LINE
  5
248D7
  8
1PHANTOM
 10
507.3314056632231
 20
-559.3127626779295
 30
0.0
 11
499.7314056632232
 21
-559.3127626779295
 31
0.0
  0
LINE
  5
248D8
  8
1PHANTOM
 10
499.7314056632232
 20
-559.3127626779295
 30
0.0
 11
499.7314056632232
 21
-558.3127626779295
 31
0.0
  0
LINE
  5
248D9
  8
1PHANTOM
 10
499.7314056632232
 20
-558.3127626779295
 30
0.0
 11
507.3314056632231
 21
-558.3127626779295
 31
0.0
  0
LINE
  5
248DA
  8
1PHANTOM
 10
507.3314056632231
 20
-558.3127626779295
 30
0.0
 11
507.3314056632231
 21
-559.3127626779295
 31
0.0
  0
LINE
  5
248DB
  8
1DIM
 10
658.9470365326682
 20
-685.27767752183
 30
0.0
 11
669.8854466978997
 21
-685.27767752183
 31
0.0
1001
ACAD
1000
DSTYLE
1002
{
1070
    70
1070
     0
1070
    69
1070
     0
1070
    45
1040
0.5
1070
   271
1070
     0
1002
}
  0
LINE
  5
248DC
  8
1DIM
 10
658.9470365326682
 20
-665.27767752183
 30
0.0
 11
669.8854466978997
 21
-665.27767752183
 31
0.0
1001
ACAD
1000
DSTYLE
1002
{
1070
    70
1070
     0
1070
    69
1070
     0
1070
    45
1040
0.5
1070
   271
1070
     0
1002
}
  0
LINE
  5
248DD
  8
1DIM
 10
668.8854466978997
 20
-683.27767752183
 30
0.0
 11
668.8854466978997
 21
-667.27767752183
 31
0.0
1001
ACAD
1000
DSTYLE
1002
{
1070
    70
1070
     0
1070
    69
1070
     0
1070
    45
1040
0.5
1070
   271
1070
     0
1002
}
  0
LINE
  5
248E1
  8
1DIM
 10
498.0314056632232
 20
-586.8127626779295
 30
0.0
 11
498.0314056632232
 21
-601.892060131501
 31
0.0
  0
LINE
  5
248E2
  8
1DIM
 10
509.0314056632232
 20
-586.8127626779295
 30
0.0
 11
509.0314056632232
 21
-601.892060131501
 31
0.0
  0
LINE
  5
248E3
  8
1DIM
 10
500.0314056632232
 20
-600.892060131501
 30
0.0
 11
507.0314056632232
 21
-600.892060131501
 31
0.0
  0
LINE
  5
248E7
  8
1DIM
 10
616.8162416153535
 20
-696.2776775249343
 30
0.0
 11
616.8162416153535
 21
-720.0249563333963
 31
0.0
1001
ACAD
1000
DSTYLE
1002
{
1070
    45
1040
0.5
1002
}
  0
LINE
  5
248E8
  8
1DIM
 10
626.0162416153652
 20
-706.2776775249343
 30
0.0
 11
626.0162416153652
 21
-720.0249563333963
 31
0.0
1001
ACAD
1000
DSTYLE
1002
{
1070
    45
1040
0.5
1002
}
  0
LINE
  5
248E9
  8
1DIM
 10
618.8162416153535
 20
-719.0249563333963
 30
0.0
 11
624.0162416153652
 21
-719.0249563333963
 31
0.0
1001
ACAD
1000
DSTYLE
1002
{
1070
    45
1040
0.5
1002
}
  0
LINE
  5
248ED
  8
1DIM
 10
616.8162416153535
 20
-696.2776775249343
 30
0.0
 11
616.8162416153535
 21
-720.0374014905614
 31
0.0
1001
ACAD
1000
DSTYLE
1002
{
1070
    45
1040
0.5
1002
}
  0
LINE
  5
248EE
  8
1DIM
 10
599.5162416153652
 20
-696.2776775249343
 30
0.0
 11
599.5162416153652
 21
-720.0374014905614
 31
0.0
1001
ACAD
1000
DSTYLE
1002
{
1070
    45
1040
0.5
1002
}
  0
LINE
  5
248EF
  8
1DIM
 10
614.8162416153535
 20
-719.0374014905614
 30
0.0
 11
601.5162416153652
 21
-719.0374014905614
 31
0.0
1001
ACAD
1000
DSTYLE
1002
{
1070
    45
1040
0.5
1002
}
  0
LINE
  5
248F3
  8
0
  6
BYBLOCK
 10
669.4213450778998
 20
-663.27767752183
 30
0.0
 11
668.8854466978997
 21
-665.27767752183
 31
0.0
  0
LINE
  5
248F4
  8
0
  6
BYBLOCK
 10
668.8854466978997
 20
-665.27767752183
 30
0.0
 11
668.3495483178997
 21
-663.27767752183
 31
0.0
  0
LINE
  5
248F5
  8
0
  6
BYBLOCK
 10
668.8854466978997
 20
-665.27767752183
 30
0.0
 11
668.8854466978997
 21
-663.27767752183
 31
0.0
  0
LINE
  5
248F6
  8
0
  6
BYBLOCK
 10
668.3495483178997
 20
-658.2776779812824
 30
0.0
 11
668.8854466978997
 21
-656.2776779812824
 31
0.0
  0
LINE
  5
248F7
  8
0
  6
BYBLOCK
 10
668.8854466978997
 20
-656.2776779812824
 30
0.0
 11
669.4213450778998
 21
-658.2776779812824
 31
0.0
  0
LINE
  5
248F8
  8
0
  6
BYBLOCK
 10
668.8854466978997
 20
-656.2776779812824
 30
0.0
 11
668.8854466978997
 21
-658.2776779812824
 31
0.0
  0
TEXT
  5
248F9
  8
1DIM
  6
CONTINUOUS
 10
668.1854466978997
 20
-651.1626777614315
 30
0.0
 40
3.5
  1
9
 50
90.0
1001
ACAD
1000
DSTYLE
1002
{
1070
    45
1040
0.5
1070
   271
1070
     0
1002
}
  0
LINE
  5
248FA
  8
0
  6
BYBLOCK
 10
677.9213450778998
 20
-704.2776775249343
 30
0.0
 11
677.3854466978997
 21
-706.2776775249343
 31
0.0
  0
LINE
  5
248FB
  8
0
  6
BYBLOCK
 10
677.3854466978997
 20
-706.2776775249343
 30
0.0
 11
676.8495483178997
 21
-704.2776775249343
 31
0.0
  0
LINE
  5
248FC
  8
0
  6
BYBLOCK
 10
677.3854466978997
 20
-706.2776775249343
 30
0.0
 11
677.3854466978997
 21
-704.2776775249343
 31
0.0
  0
LINE
  5
248FD
  8
0
  6
BYBLOCK
 10
676.8495483178997
 20
-658.2776779812824
 30
0.0
 11
677.3854466978997
 21
-656.2776779812824
 31
0.0
  0
LINE
  5
248FE
  8
0
  6
BYBLOCK
 10
677.3854466978997
 20
-656.2776779812824
 30
0.0
 11
677.9213450778998
 21
-658.2776779812824
 31
0.0
  0
LINE
  5
248FF
  8
0
  6
BYBLOCK
 10
677.3854466978997
 20
-656.2776779812824
 30
0.0
 11
677.3854466978997
 21
-658.2776779812824
 31
0.0
  0
TEXT
  5
24900
  8
1DIM
  6
CONTINUOUS
 10
676.6854466978998
 20
-682.4877469662745
 30
0.0
 40
3.5
  1
50
 50
90.0
1001
ACAD
1000
DSTYLE
1002
{
1070
     3
1000
<>
1070
    45
1040
0.5
1002
}
  0
TEXT
  5
24901
  8
1DIM
  6
CONTINUOUS
 10
619.6666666666669
 20
-629.0281735852818
 30
0.0
 40
3.5
  1
PB
  0
LINE
  5
24902
  8
0
  6
BYBLOCK
 10
631.6429584994128
 20
-648.1625623098643
 30
0.0
 11
631.5000000000002
 21
-650.2281735852819
 31
0.0
  0
LINE
  5
24903
  8
0
  6
BYBLOCK
 10
631.5000000000002
 20
-650.2281735852819
 30
0.0
 11
630.5910000629091
 21
-648.3678224925967
 31
0.0
  0
LINE
  5
24904
  8
0
  6
BYBLOCK
 10
631.5000000000002
 20
-650.2281735852819
 30
0.0
 11
631.116979281161
 21
-648.2651924012305
 31
0.0
  0
TEXT
  5
24905
  8
1DIM
  6
CONTINUOUS
 10
605.7913966845326
 20
-611.5281735852818
 30
0.0
 40
3.5
  1
合板9ｍｍ以上
  0
LINE
  5
24906
  8
0
  6
BYBLOCK
 10
643.431506973523
 20
-648.1622579006212
 30
0.0
 11
643.293017054903
 21
-650.2281735852819
 31
0.0
  0
LINE
  5
24907
  8
0
  6
BYBLOCK
 10
643.293017054903
 20
-650.2281735852819
 30
0.0
 11
642.3799950086963
 21
-648.369793156837
 31
0.0
  0
LINE
  5
24908
  8
0
  6
BYBLOCK
 10
643.293017054903
 20
-650.2281735852819
 30
0.0
 11
642.9057509911097
 21
-648.2660255287291
 31
0.0
  0
LINE
  5
24909
  8
0
  6
BYBLOCK
 10
491.5314056633396
 20
-649.0815255512824
 30
0.0
 11
489.5314056633396
 21
-648.5456271712824
 31
0.0
  0
LINE
  5
2490A
  8
0
  6
BYBLOCK
 10
489.5314056633396
 20
-648.5456271712824
 30
0.0
 11
491.5314056633396
 21
-648.0097287912823
 31
0.0
  0
LINE
  5
2490B
  8
0
  6
BYBLOCK
 10
489.5314056633396
 20
-648.5456271712824
 30
0.0
 11
491.5314056633396
 21
-648.5456271712824
 31
0.0
  0
LINE
  5
2490C
  8
0
  6
BYBLOCK
 10
515.5314056633396
 20
-648.0097287912823
 30
0.0
 11
517.5314056633396
 21
-648.5456271712824
 31
0.0
  0
LINE
  5
2490D
  8
0
  6
BYBLOCK
 10
517.5314056633396
 20
-648.5456271712824
 30
0.0
 11
515.5314056633396
 21
-649.0815255512824
 31
0.0
  0
LINE
  5
2490E
  8
0
  6
BYBLOCK
 10
517.5314056633396
 20
-648.5456271712824
 30
0.0
 11
515.5314056633396
 21
-648.5456271712824
 31
0.0
  0
TEXT
  5
2490F
  8
1DIM
  6
CONTINUOUS
 10
500.6147389966729
 20
-647.8456271712823
 30
0.0
 40
3.5
  1
28
1001
ACAD
1000
DSTYLE
1002
{
1070
    45
1040
0.5
1002
}
  0
LINE
  5
24910
  8
0
  6
BYBLOCK
 10
624.0162416153652
 20
-726.4417791449415
 30
0.0
 11
626.0162416153652
 21
-726.9776775249416
 31
0.0
  0
LINE
  5
24911
  8
0
  6
BYBLOCK
 10
626.0162416153652
 20
-726.9776775249416
 30
0.0
 11
624.0162416153652
 21
-727.5135759049416
 31
0.0
  0
LINE
  5
24912
  8
0
  6
BYBLOCK
 10
626.0162416153652
 20
-726.9776775249416
 30
0.0
 11
624.0162416153652
 21
-726.9776775249416
 31
0.0
  0
LINE
  5
24913
  8
0
  6
BYBLOCK
 10
595.0162416153652
 20
-727.5135759049416
 30
0.0
 11
593.0162416153652
 21
-726.9776775249416
 31
0.0
  0
LINE
  5
24914
  8
0
  6
BYBLOCK
 10
593.0162416153652
 20
-726.9776775249416
 30
0.0
 11
595.0162416153652
 21
-726.4417791449415
 31
0.0
  0
LINE
  5
24915
  8
0
  6
BYBLOCK
 10
593.0162416153652
 20
-726.9776775249416
 30
0.0
 11
595.0162416153652
 21
-726.9776775249416
 31
0.0
  0
TEXT
  5
24916
  8
1DIM
  6
CONTINUOUS
 10
606.5995749486985
 20
-726.2776775249415
 30
0.0
 40
3.5
  1
33
1001
ACAD
1000
DSTYLE
1002
{
1070
    45
1040
0.5
1002
}
  0
TEXT
  5
24917
  8
1DIM
  6
CONTINUOUS
 10
543.1736060881952
 20
-674.6678593933042
 30
0.0000000000000132
 40
3.5
  1
材質：亜鉛ダイキャスト
  0
TEXT
  5
24918
  8
1DIM
  6
CONTINUOUS
 10
543.2902727548619
 20
-680.5011927266376
 30
0.0000000000000132
 40
3.5
  1
仕上げ：クローム
  0
LINE
  5
24919
  8
0
  6
BYBLOCK
 10
596.0409002096407
 20
-691.9944781754499
 30
0.0000000000000132
 11
596.4664878674629
 21
-694.0208202539736
 31
0.0000000000000132
  0
LINE
  5
2491A
  8
0
  6
BYBLOCK
 10
596.4664878674629
 20
-694.0208202539736
 30
0.0000000000000132
 11
595.0847471119855
 21
-692.4787503598575
 31
0.0000000000000132
  0
LINE
  5
2491B
  8
0
  6
BYBLOCK
 10
596.4664878674629
 20
-694.0208202539736
 30
0.0000000000000132
 11
595.562823660813
 21
-692.2366142676536
 31
0.0000000000000132
  0
TEXT
  5
2491C
  8
1DIM
  6
CONTINUOUS
 10
555.8987663078558
 20
-631.4191411415085
 30
0.0
 40
3.5
  1
材質：亜鉛ダイキャスト
  0
TEXT
  5
2491D
  8
1DIM
  6
CONTINUOUS
 10
556.0154329745225
 20
-637.2524744748418
 30
0.0
 40
3.5
  1
仕上げ：各種仕上げ
  0
LINE
  5
2491E
  8
0
  6
BYBLOCK
 10
616.5680930793875
 20
-666.264169714348
 30
0.0
 11
616.9320996411893
 21
-668.3024744748418
 31
0.0
  0
LINE
  5
2491F
  8
0
  6
BYBLOCK
 10
616.9320996411893
 20
-668.3024744748418
 30
0.0
 11
615.5977083384602
 21
-666.7192540464468
 31
0.0
  0
LINE
  5
24920
  8
0
  6
BYBLOCK
 10
616.9320996411893
 20
-668.3024744748418
 30
0.0
 11
616.0829007089238
 21
-666.4917118803974
 31
0.0
  0
LINE
  5
24921
  8
0
  6
BYBLOCK
 10
669.4213450778998
 20
-683.27767752183
 30
0.0
 11
668.8854466978997
 21
-685.27767752183
 31
0.0
  0
LINE
  5
24922
  8
0
  6
BYBLOCK
 10
668.8854466978997
 20
-685.27767752183
 30
0.0
 11
668.3495483178997
 21
-683.27767752183
 31
0.0
  0
LINE
  5
24923
  8
0
  6
BYBLOCK
 10
668.8854466978997
 20
-685.27767752183
 30
0.0
 11
668.8854466978997
 21
-683.27767752183
 31
0.0
  0
LINE
  5
24924
  8
0
  6
BYBLOCK
 10
668.3495483178997
 20
-667.27767752183
 30
0.0
 11
668.8854466978997
 21
-665.27767752183
 31
0.0
  0
LINE
  5
24925
  8
0
  6
BYBLOCK
 10
668.8854466978997
 20
-665.27767752183
 30
0.0
 11
669.4213450778998
 21
-667.27767752183
 31
0.0
  0
LINE
  5
24926
  8
0
  6
BYBLOCK
 10
668.8854466978997
 20
-665.27767752183
 30
0.0
 11
668.8854466978997
 21
-667.27767752183
 31
0.0
  0
TEXT
  5
24927
  8
1DIM
  6
CONTINUOUS
 10
668.1854466978997
 20
-679.4423069316088
 30
0.0
 40
3.5
  1
P20
 50
90.0
1001
ACAD
1000
DSTYLE
1002
{
1070
    70
1070
     0
1070
    69
1070
     0
1070
    45
1040
0.5
1070
   271
1070
     0
1002
}
  0
LINE
  5
24928
  8
0
  6
BYBLOCK
 10
500.0314056632232
 20
-601.4279585115011
 30
0.0
 11
498.0314056632232
 21
-600.892060131501
 31
0.0
  0
LINE
  5
24929
  8
0
  6
BYBLOCK
 10
498.0314056632232
 20
-600.892060131501
 30
0.0
 11
500.0314056632232
 21
-600.356161751501
 31
0.0
  0
LINE
  5
2492A
  8
0
  6
BYBLOCK
 10
498.0314056632232
 20
-600.892060131501
 30
0.0
 11
500.0314056632232
 21
-600.892060131501
 31
0.0
  0
LINE
  5
2492B
  8
0
  6
BYBLOCK
 10
507.0314056632232
 20
-600.356161751501
 30
0.0
 11
509.0314056632232
 21
-600.892060131501
 31
0.0
  0
LINE
  5
2492C
  8
0
  6
BYBLOCK
 10
509.0314056632232
 20
-600.892060131501
 30
0.0
 11
507.0314056632232
 21
-601.4279585115011
 31
0.0
  0
LINE
  5
2492D
  8
0
  6
BYBLOCK
 10
509.0314056632232
 20
-600.892060131501
 30
0.0
 11
507.0314056632232
 21
-600.892060131501
 31
0.0
  0
TEXT
  5
2492E
  8
1DIM
  6
CONTINUOUS
 10
501.7814056632232
 20
-600.192060131501
 30
0.0
 40
3.5
  1
11
  0
LINE
  5
2492F
  8
0
  6
BYBLOCK
 10
618.8162416153535
 20
-719.5608547133963
 30
0.0
 11
616.8162416153535
 21
-719.0249563333963
 31
0.0
  0
LINE
  5
24930
  8
0
  6
BYBLOCK
 10
616.8162416153535
 20
-719.0249563333963
 30
0.0
 11
618.8162416153535
 21
-718.4890579533962
 31
0.0
  0
LINE
  5
24931
  8
0
  6
BYBLOCK
 10
616.8162416153535
 20
-719.0249563333963
 30
0.0
 11
618.8162416153535
 21
-719.0249563333963
 31
0.0
  0
LINE
  5
24932
  8
0
  6
BYBLOCK
 10
624.0162416153652
 20
-718.4890579533962
 30
0.0
 11
626.0162416153652
 21
-719.0249563333963
 31
0.0
  0
LINE
  5
24933
  8
0
  6
BYBLOCK
 10
626.0162416153652
 20
-719.0249563333963
 30
0.0
 11
624.0162416153652
 21
-719.5608547133963
 31
0.0
  0
LINE
  5
24934
  8
0
  6
BYBLOCK
 10
626.0162416153652
 20
-719.0249563333963
 30
0.0
 11
624.0162416153652
 21
-719.0249563333963
 31
0.0
  0
TEXT
  5
24935
  8
1DIM
  6
CONTINUOUS
 10
620.2479545783224
 20
-718.3249563333962
 30
0.0
 40
3.5
  1
9
1001
ACAD
1000
DSTYLE
1002
{
1070
    45
1040
0.5
1002
}
  0
LINE
  5
24936
  8
0
  6
BYBLOCK
 10
614.8162416153535
 20
-718.5015031105613
 30
0.0
 11
616.8162416153535
 21
-719.0374014905614
 31
0.0
  0
LINE
  5
24937
  8
0
  6
BYBLOCK
 10
616.8162416153535
 20
-719.0374014905614
 30
0.0
 11
614.8162416153535
 21
-719.5732998705614
 31
0.0
  0
LINE
  5
24938
  8
0
  6
BYBLOCK
 10
616.8162416153535
 20
-719.0374014905614
 30
0.0
 11
614.8162416153535
 21
-719.0374014905614
 31
0.0
  0
LINE
  5
24939
  8
0
  6
BYBLOCK
 10
601.5162416153652
 20
-719.5732998705614
 30
0.0
 11
599.5162416153652
 21
-719.0374014905614
 31
0.0
  0
LINE
  5
2493A
  8
0
  6
BYBLOCK
 10
599.5162416153652
 20
-719.0374014905614
 30
0.0
 11
601.5162416153652
 21
-718.5015031105613
 31
0.0
  0
LINE
  5
2493B
  8
0
  6
BYBLOCK
 10
599.5162416153652
 20
-719.0374014905614
 30
0.0
 11
601.5162416153652
 21
-719.0374014905614
 31
0.0
  0
TEXT
  5
2493C
  8
1DIM
  6
CONTINUOUS
 10
603.4995749486927
 20
-718.3349709350059
 30
0.0
 40
3.5
  1
17.5
1001
ACAD
1000
DSTYLE
1002
{
1070
    45
1040
0.5
1002
}
  0
VIEWPORT
  5
57
 67
     1
  8
0
 10
0.0
 20
0.0
 30
0.0
 40
554.37576499388
 41
297.0
 68
     1
 69
     1
1001
ACAD
1000
MVIEW
1002
{
1070
    16
1010
0.0
1020
0.0
1030
0.0
1010
0.0
1020
0.0
1030
1.0
1040
0.0
1040
297.0
1040
-4.171999999925333
1040
12.83903210976956
1040
50.0
1040
0.0
1040
0.0
1070
    16
1070
   100
1070
     0
1070
     1
1070
     0
1070
     0
1070
     0
1070
     0
1040
0.0
1040
0.0
1040
0.0
1040
10.0
1040
10.0
1040
10.0
1040
10.0
1070
     0
1002
{
1002
}
1002
}
  0
ENDSEC
  0
EOF
