  0
SECTION
  2
HEADER
  9
$ACADVER
  1
AC1009
  9
$DWGCODEPAGE
  3
ansi_932
  9
$INSBASE
 10
0.0
 20
0.0
 30
0.0
  9
$EXTMIN
 10
-556.7633612526263
 20
-254.0567149796672
 30
-0.0000000000026076
  9
$EXTMAX
 10
131.5503512528378
 20
200.0233349718597
 30
0.0000000000026063
  9
$LIMMIN
 10
0.0
 20
0.0
  9
$LIMMAX
 10
420.0
 20
297.0
  9
$ORTHOMODE
 70
     0
  9
$REGENMODE
 70
     1
  9
$FILLMODE
 70
     1
  9
$QTEXTMODE
 70
     0
  9
$MIRRTEXT
 70
     0
  9
$DRAGMODE
 70
     2
  9
$LTSCALE
 40
0.5
  9
$OSMODE
 70
 14591
  9
$ATTMODE
 70
     1
  9
$TEXTSIZE
 40
4.0
  9
$TRACEWID
 40
1.0
  9
$TEXTSTYLE
  7
STANDARD
  9
$CLAYER
  8
1TEXT
  9
$CELTYPE
  6
BYLAYER
  9
$CECOLOR
 62
   256
  9
$DIMSCALE
 40
1.0
  9
$DIMASZ
 40
2.0
  9
$DIMEXO
 40
0.0
  9
$DIMDLI
 40
7.0
  9
$DIMRND
 40
0.0
  9
$DIMDLE
 40
0.0
  9
$DIMEXE
 40
1.0
  9
$DIMTP
 40
0.0
  9
$DIMTM
 40
0.0
  9
$DIMTXT
 40
3.5
  9
$DIMCEN
 40
0.0
  9
$DIMTSZ
 40
0.0
  9
$DIMTOL
 70
     0
  9
$DIMLIM
 70
     0
  9
$DIMTIH
 70
     0
  9
$DIMTOH
 70
     0
  9
$DIMSE1
 70
     0
  9
$DIMSE2
 70
     0
  9
$DIMTAD
 70
     1
  9
$DIMZIN
 70
     8
  9
$DIMBLK
  1

  9
$DIMASO
 70
     1
  9
$DIMSHO
 70
     1
  9
$DIMPOST
  1
 
  9
$DIMAPOST
  1

  9
$DIMALT
 70
     0
  9
$DIMALTD
 70
     2
  9
$DIMALTF
 40
25.4
  9
$DIMLFAC
 40
1.0
  9
$DIMTOFL
 70
     1
  9
$DIMTVP
 40
0.0
  9
$DIMTIX
 70
     0
  9
$DIMSOXD
 70
     0
  9
$DIMSAH
 70
     1
  9
$DIMBLK1
  1
OPEN30
  9
$DIMBLK2
  1
OPEN30
  9
$DIMSTYLE
  2
NEWX10
  9
$DIMCLRD
 70
   256
  9
$DIMCLRE
 70
   256
  9
$DIMCLRT
 70
   201
  9
$DIMTFAC
 40
0.7
  9
$DIMGAP
 40
0.7
  9
$LUNITS
 70
     2
  9
$LUPREC
 70
     4
  9
$SKETCHINC
 40
1.0
  9
$FILLETRAD
 40
0.0
  9
$AUNITS
 70
     0
  9
$AUPREC
 70
     2
  9
$MENU
  1
acad
  9
$ELEVATION
 40
0.0
  9
$PELEVATION
 40
0.0
  9
$THICKNESS
 40
0.0
  9
$LIMCHECK
 70
     0
  9
$CHAMFERA
 40
10.0
  9
$CHAMFERB
 40
10.0
  9
$SKPOLY
 70
     0
  9
$TDCREATE
 40
2451318.621352917
  9
$TDUPDATE
 40
2459810.49934191
  9
$TDINDWG
 40
1.5144713657
  9
$TDUSRTIMER
 40
1.5144713657
  9
$USRTIMER
 70
     1
  9
$ANGBASE
 50
0.0
  9
$ANGDIR
 70
     0
  9
$PDMODE
 70
     0
  9
$PDSIZE
 40
0.0
  9
$PLINEWID
 40
0.0
  9
$COORDS
 70
     2
  9
$SPLFRAME
 70
     0
  9
$SPLINETYPE
 70
     6
  9
$SPLINESEGS
 70
     8
  9
$ATTDIA
 70
     0
  9
$ATTREQ
 70
     1
  9
$HANDLING
 70
     1
  9
$HANDSEED
  5
1785F
  9
$SURFTAB1
 70
     6
  9
$SURFTAB2
 70
     6
  9
$SURFTYPE
 70
     6
  9
$SURFU
 70
     6
  9
$SURFV
 70
     6
  9
$UCSNAME
  2

  9
$UCSORG
 10
0.0
 20
0.0
 30
0.0
  9
$UCSXDIR
 10
1.0
 20
0.0
 30
0.0
  9
$UCSYDIR
 10
0.0
 20
1.0
 30
0.0
  9
$PUCSNAME
  2

  9
$PUCSORG
 10
0.0
 20
0.0
 30
0.0
  9
$PUCSXDIR
 10
1.0
 20
0.0
 30
0.0
  9
$PUCSYDIR
 10
0.0
 20
1.0
 30
0.0
  9
$USERI1
 70
     0
  9
$USERI2
 70
     0
  9
$USERI3
 70
     0
  9
$USERI4
 70
     0
  9
$USERI5
 70
     0
  9
$USERR1
 40
0.0
  9
$USERR2
 40
0.0
  9
$USERR3
 40
0.0
  9
$USERR4
 40
0.0
  9
$USERR5
 40
0.0
  9
$WORLDVIEW
 70
     1
  9
$SHADEDGE
 70
     3
  9
$SHADEDIF
 70
    70
  9
$TILEMODE
 70
     1
  9
$MAXACTVP
 70
    48
  9
$PLIMCHECK
 70
     0
  9
$PEXTMIN
 10
1.000000000000000E+20
 20
1.000000000000000E+20
 30
1.000000000000000E+20
  9
$PEXTMAX
 10
-1.000000000000000E+20
 20
-1.000000000000000E+20
 30
-1.000000000000000E+20
  9
$PLIMMIN
 10
0.0
 20
0.0
  9
$PLIMMAX
 10
420.0
 20
297.0
  9
$UNITMODE
 70
     0
  9
$VISRETAIN
 70
     1
  9
$PLINEGEN
 70
     0
  9
$PSLTSCALE
 70
     1
  0
ENDSEC
  0
SECTION
  2
TABLES
  0
TABLE
  2
VPORT
 70
     1
  0
VPORT
  2
*ACTIVE
 70
     0
 10
0.0
 20
0.0
 11
1.0
 21
1.0
 12
-212.6065049998942
 22
-27.01669000390375
 13
0.0
 23
0.0
 14
10.0
 24
10.0
 15
10.0
 25
10.0
 16
0.0
 26
0.0
 36
1.0
 17
0.0
 27
0.0
 37
0.0
 40
487.5385799479552
 41
1.866585067319461
 42
50.0
 43
0.0
 44
0.0
 50
0.0
 51
0.0
 71
    16
 72
   100
 73
     1
 74
     1
 75
     0
 76
     0
 77
     0
 78
     0
  0
ENDTAB
  0
TABLE
  2
LTYPE
 70
    12
  0
LTYPE
  2
CONTINUOUS
 70
     0
  3
Solid line
 72
    65
 73
     0
 40
0.0
  0
LTYPE
  2
PHANTOM2
 70
     0
  3
Phantom (0.5x) ___ _ _ ___ _ _ ___ _ _ ___ _ _
 72
    65
 73
     6
 40
31.75
 49
15.875
 49
-3.175
 49
3.175
 49
-3.175
 49
3.175
 49
-3.175
  0
LTYPE
  2
CENTER2
 70
     0
  3
Center (.5x) ___ _ ___ _ ___ _ ___ _ ___ _ ___
 72
    65
 73
     4
 40
28.575
 49
19.05
 49
-3.175
 49
3.175
 49
-3.175
  0
ENDTAB
  0
TABLE
  2
LAYER
 70
    37
  0
LAYER
  2
0
 70
     0
 62
     7
  6
CONTINUOUS
  0
LAYER
  2
1CENTER
 70
     0
 62
     7
  6
CENTER2
  0
LAYER
  2
1TEXT
 70
     0
 62
     7
  6
CONTINUOUS
  0
LAYER
  2
1DIM
 70
     0
 62
     7
  6
CONTINUOUS
  0
LAYER
  2
1PHANTOM
 70
     0
 62
     7
  6
PHANTOM2
  0
LAYER
  2
01
 70
     0
 62
     1
  6
CONTINUOUS
  0
ENDTAB
  0
TABLE
  2
STYLE
 70
    18
  0
STYLE
  2
STANDARD
 70
     0
 40
0.0
 41
1.0
 50
0.0
 71
     0
 42
4.0
  3
txt.shx
  4
extfont.shx
  0
ENDTAB
  0
TABLE
  2
VIEW
 70
     0
  0
ENDTAB
  0
TABLE
  2
UCS
 70
     0
  0
ENDTAB
  0
TABLE
  2
APPID
 70
    21
  0
APPID
  2
ACAD
 70
     0
  0
APPID
  2
DRAWINGVARIABLESXDATA
 70
     0
  0
APPID
  2
CONTENTTABDATA
 70
     0
  0
APPID
  2
CONTENTCURRENTTAB
 70
     0
  0
APPID
  2
CONTENTBLOCKDESCRIPTION
 70
     0
  0
APPID
  2
CONTENTBLOCKICON
 70
     0
  0
APPID
  2
CONTENTLONGBLOCKNAME
 70
     0
  0
APPID
  2
ACAD_PSEXT
 70
     0
  0
APPID
  2
ACAD_MLEADERVER
 70
     0
  0
APPID
  2
ACAD_EXEMPT_FROM_CAD_STAND
 70
     0
  0
APPID
  2
ACAECLAYERSTANDARD
 70
     0
  0
APPID
  2
ACADANNOTATIVE
 70
     0
  0
APPID
  2
ACDBBLOCKREPETAG
 70
     0
  0
APPID
  2
ACAD_OBJECT_CHANGE_GUID
 70
     0
  0
APPID
  2
ACLAYERTOOLS
 70
     0
  0
APPID
  2
ACAD_NAV_VCDISPLAY
 70
     0
  0
APPID
  2
ACAD_DSTYLE_DIMJOGGED_JOGA
 70
     0
  0
APPID
  2
ACAD_DSTYLE_DIM_LINETYPE
 70
     0
  0
APPID
  2
ACAD_DSTYLE_DIM_EXT1_LINET
 70
     0
  0
APPID
  2
ACAD_DSTYLE_DIM_EXT2_LINET
 70
     0
  0
APPID
  2
ACAD_DSTYLE_DIMRADIAL_EXTE
 70
     0
  0
ENDTAB
  0
TABLE
  2
DIMSTYLE
 70
     3
  0
DIMSTYLE
  2
NEWX10
 70
     0
  3
 
  4

  5

  6
OPEN30
  7
OPEN30
 40
1.0
 41
2.0
 42
0.0
 43
7.0
 44
1.0
 45
0.0
 46
0.0
 47
0.0
 48
0.0
140
3.5
141
0.0
142
0.0
143
25.4
144
1.0
145
0.0
146
0.7
147
0.7
 71
     0
 72
     0
 73
     0
 74
     0
 75
     0
 76
     0
 77
     1
 78
     8
170
     0
171
     2
172
     1
173
     1
174
     0
175
     0
176
   256
177
   256
178
   201
  0
DIMSTYLE
  2
ISO-25
 70
     0
  3

  4

  5

  6

  7

 40
1.0
 41
20.0
 42
3.0
 43
3.75
 44
2.0
 45
0.0
 46
0.0
 47
0.0
 48
0.0
140
30.0
141
5.0
142
0.0
143
0.03937
144
1.0
145
0.0
146
1.0
147
8.0
 71
     0
 72
     0
 73
     0
 74
     0
 75
     0
 76
     0
 77
     1
 78
     8
170
     0
171
     3
172
     1
173
     0
174
     0
175
     0
176
     1
177
     1
178
     1
  0
ENDTAB
  0
ENDSEC
  0
SECTION
  2
BLOCKS
  0
BLOCK
  8
0
  2
$MODEL_SPACE
 70
     0
 10
0.0
 20
0.0
 30
0.0
  3
$MODEL_SPACE
  1

  0
ENDBLK
  5
1A
  8
0
  0
BLOCK
 67
     1
  8
0
  2
$PAPER_SPACE
 70
     0
 10
0.0
 20
0.0
 30
0.0
  3
$PAPER_SPACE
  1

  0
ENDBLK
  5
17
 67
     1
  8
0
  0
BLOCK
  8
0
  2
_OPEN30
 70
     0
 10
0.0
 20
0.0
 30
0.0
  3
_OPEN30
  1

  0
LINE
  5
44
  8
0
  6
BYBLOCK
 62
     0
 10
-1.0
 20
0.26794919
 30
0.0
 11
0.0
 21
0.0
 31
0.0
  0
LINE
  5
45
  8
0
  6
BYBLOCK
 62
     0
 10
0.0
 20
0.0
 30
0.0
 11
-1.0
 21
-0.26794919
 31
0.0
  0
LINE
  5
46
  8
0
  6
BYBLOCK
 62
     0
 10
0.0
 20
0.0
 30
0.0
 11
-1.0
 21
0.0
 31
0.0
  0
ENDBLK
  5
47
  8
0
  0
BLOCK
  8
0
  2
A3WAKUKAWAJUN2017_HYOUDAI_
 70
     0
 10
0.0
 20
0.0
 30
0.0
  3
A3WAKUKAWAJUN2017_HYOUDAI_
  1

  0
LINE
  5
1057F
  8
0
 10
13.26299999998673
 20
-0.0001000000000317
 30
0.0
 11
9.236999999990758
 21
8.999899999990987
 31
0.0
1001
ACAD
1000
ASC_BOUNDS
1002
{
1070
    19
1005
105C0
1002
}
  0
LINE
  5
10580
  8
0
 10
5.657999999994331
 20
0.9999999999989768
 30
0.0
 11
9.236999999990758
 21
8.999999999991019
 31
0.0
1001
ACAD
1000
ASC_BOUNDS
1002
{
1070
    19
1005
105C0
1002
}
  0
LINE
  5
10581
  8
0
 10
18.59199999998134
 20
-0.2368999999997641
 30
0.0
 11
16.46099999998353
 21
5.432899999994561
 31
0.0
1001
ACAD
1000
ASC_BOUNDS
1002
{
1070
    19
1005
105C1
1002
}
  0
LINE
  5
10582
  8
0
 10
18.59199999998134
 20
-0.2368999999997641
 30
0.0
 11
22.38199999997767
 21
8.763099999991255
 31
0.0
1001
ACAD
1000
ASC_BOUNDS
1002
{
1070
    19
1005
105C1
1002
}
  0
LINE
  5
10583
  8
0
 10
14.32899999998563
 20
-0.2368999999997641
 30
0.0
 11
16.46099999998353
 21
5.432899999994561
 31
0.0
1001
ACAD
1000
ASC_BOUNDS
1002
{
1070
    19
1005
105C1
1002
}
  0
LINE
  5
10584
  8
0
 10
14.32899999998563
 20
-0.2368999999997641
 30
0.0
 11
10.53899999998941
 21
8.763099999991255
 31
0.0
1001
ACAD
1000
ASC_BOUNDS
1002
{
1070
    19
1005
105C1
1002
}
  0
LINE
  5
10585
  8
0
 10
19.53899999998043
 20
-0.0001000000000317
 30
0.0
 11
23.56599999997638
 21
8.999899999990987
 31
0.0
1001
ACAD
1000
ASC_BOUNDS
1002
{
1070
    19
1005
105C2
1002
}
  0
LINE
  5
10586
  8
0
 10
26.97358892824991
 20
1.383099999991202
 30
0.0
 11
23.56599999997638
 21
8.999899999990987
 31
0.0
1001
ACAD
1000
ASC_BOUNDS
1002
{
1070
    19
1005
105C2
1002
}
  0
LINE
  5
10587
  8
0
 10
5.657999999994331
 20
0.9999999999989768
 30
0.0
 11
3.181999999996833
 21
4.668599999995308
 31
0.0
1001
ACAD
1000
ASC_BOUNDS
1002
{
1070
    19
1005
105C0
1002
}
  0
LINE
  5
10588
  8
0
 10
4.617999999995391
 20
-0.0001000000000317
 30
0.0
 11
1.420999999998571
 21
4.736799999995242
 31
0.0
1001
ACAD
1000
ASC_BOUNDS
1002
{
1070
    19
1005
105C0
1002
}
  0
LINE
  5
10589
  8
0
 10
1.420999999998571
 20
8.763099999991255
 30
0.0
 11
1.420999999998571
 21
0.0
 31
0.0
1001
ACAD
1000
ASC_BOUNDS
1002
{
1070
    19
1005
105C5
1002
}
  0
LINE
  5
1058A
  8
0
 10
0.0
 20
8.763099999991255
 30
0.0
 11
0.0
 21
0.0
 31
0.0
1001
ACAD
1000
ASC_BOUNDS
1002
{
1070
    19
1005
105C5
1002
}
  0
LINE
  5
1058B
  8
0
 10
6.766999999993232
 20
-0.0001000000000317
 30
0.0
 11
7.826999999992154
 21
2.368399999997621
 31
0.0
1001
ACAD
1000
ASC_BOUNDS
1002
{
1070
    19
1005
105C0
1002
}
  0
LINE
  5
1058C
  8
0
 10
0.0
 20
0.0
 30
0.0
 11
1.420999999998571
 21
0.0
 31
0.0
1001
ACAD
1000
ASC_BOUNDS
1002
{
1070
    19
1005
105C5
1002
}
  0
LINE
  5
1058D
  8
0
 10
4.617999999995391
 20
0.0
 30
0.0
 11
6.766999999993232
 21
0.0
 31
0.0
1001
ACAD
1000
ASC_BOUNDS
1002
{
1070
    19
1005
105C0
1002
}
  0
LINE
  5
1058E
  8
0
 10
11.70599999998831
 20
-0.0001000000000317
 30
0.0
 11
10.64699999998936
 21
2.368399999997621
 31
0.0
1001
ACAD
1000
ASC_BOUNDS
1002
{
1070
    19
1005
105C0
1002
}
  0
LINE
  5
1058F
  8
0
 10
7.826999999992154
 20
2.368399999997621
 30
0.0
 11
10.64699999998936
 21
2.368399999997621
 31
0.0
1001
ACAD
1000
ASC_BOUNDS
1002
{
1070
    19
1005
105C0
1002
}
  0
LINE
  5
10590
  8
0
 10
11.70599999998831
 20
0.0
 30
0.0
 11
13.26299999998673
 21
0.0
 31
0.0
1001
ACAD
1000
ASC_BOUNDS
1002
{
1070
    19
1005
105C0
1002
}
  0
LINE
  5
10591
  8
0
 10
22.15599999997789
 20
2.368399999997621
 30
0.0
 11
24.97599999997499
 21
2.368399999997621
 31
0.0
1001
ACAD
1000
ASC_BOUNDS
1002
{
1070
    19
1005
105C2
1002
}
  0
LINE
  5
10592
  8
0
 10
19.53899999998043
 20
0.0
 30
0.0
 11
21.09599999997886
 21
0.0
 31
0.0
1001
ACAD
1000
ASC_BOUNDS
1002
{
1070
    19
1005
105C2
1002
}
  0
LINE
  5
10593
  8
0
 10
21.09599999997886
 20
-0.0001000000000317
 30
0.0
 11
22.15599999997789
 21
2.368399999997621
 31
0.0
1001
ACAD
1000
ASC_BOUNDS
1002
{
1070
    19
1005
105C2
1002
}
  0
LINE
  5
10594
  8
0
 10
26.02015566812236
 20
0.0330999999912365
 30
0.0
 11
24.97599999997499
 21
2.368399999997621
 31
0.0
1001
ACAD
1000
ASC_BOUNDS
1002
{
1070
    19
1005
105C2
1002
}
  0
LINE
  5
10595
  8
0
 10
14.32399999998563
 20
3.315799999996671
 30
0.0
 11
16.46099999998353
 21
8.999899999990987
 31
0.0
1001
ACAD
1000
ASC_BOUNDS
1002
{
1070
    19
1005
105C1
1002
}
  0
LINE
  5
10596
  8
0
 10
6.432999999993513
 20
8.763099999991255
 30
0.0
 11
3.181999999996833
 21
4.668599999995308
 31
0.0
1001
ACAD
1000
ASC_BOUNDS
1002
{
1070
    19
1005
105C0
1002
}
  0
LINE
  5
10597
  8
0
 10
4.617999999995391
 20
8.763099999991255
 30
0.0
 11
1.420999999998571
 21
4.736799999995242
 31
0.0
1001
ACAD
1000
ASC_BOUNDS
1002
{
1070
    19
1005
105C0
1002
}
  0
LINE
  5
10598
  8
0
 10
0.0
 20
8.763099999991255
 30
0.0
 11
1.420999999998571
 21
8.763099999991255
 31
0.0
1001
ACAD
1000
ASC_BOUNDS
1002
{
1070
    19
1005
105C5
1002
}
  0
LINE
  5
10599
  8
0
 10
4.617999999995391
 20
8.763099999991255
 30
0.0
 11
6.432999999993513
 21
8.763099999991255
 31
0.0
1001
ACAD
1000
ASC_BOUNDS
1002
{
1070
    19
1005
105C0
1002
}
  0
LINE
  5
1059A
  8
0
 10
14.32399999998563
 20
3.315799999996671
 30
0.0
 11
12.02999999998792
 21
8.763099999991255
 31
0.0
1001
ACAD
1000
ASC_BOUNDS
1002
{
1070
    19
1005
105C1
1002
}
  0
LINE
  5
1059B
  8
0
 10
10.06399999998996
 20
3.670999999996297
 30
0.0
 11
9.236999999990758
 21
5.5200999999945
 31
0.0
1001
ACAD
1000
ASC_BOUNDS
1002
{
1070
    19
1005
105C0
1002
}
  0
LINE
  5
1059C
  8
0
 10
8.409999999991555
 20
3.670999999996297
 30
0.0
 11
9.236999999990758
 21
5.5200999999945
 31
0.0
1001
ACAD
1000
ASC_BOUNDS
1002
{
1070
    19
1005
105C0
1002
}
  0
LINE
  5
1059D
  8
0
 10
8.409999999991555
 20
3.670999999996297
 30
0.0
 11
10.06399999998996
 21
3.670999999996297
 31
0.0
1001
ACAD
1000
ASC_BOUNDS
1002
{
1070
    19
1005
105C0
1002
}
  0
LINE
  5
1059E
  8
0
 10
10.53899999998941
 20
8.763099999991255
 30
0.0
 11
12.02999999998792
 21
8.763099999991255
 31
0.0
1001
ACAD
1000
ASC_BOUNDS
1002
{
1070
    19
1005
105C1
1002
}
  0
LINE
  5
1059F
  8
0
 10
22.7389999999773
 20
3.670999999996297
 30
0.0
 11
23.56599999997638
 21
5.5200999999945
 31
0.0
1001
ACAD
1000
ASC_BOUNDS
1002
{
1070
    19
1005
105C2
1002
}
  0
LINE
  5
105A0
  8
0
 10
22.7389999999773
 20
3.670999999996297
 30
0.0
 11
24.39299999997559
 21
3.670999999996297
 31
0.0
1001
ACAD
1000
ASC_BOUNDS
1002
{
1070
    19
1005
105C2
1002
}
  0
LINE
  5
105A1
  8
0
 10
18.59799999998143
 20
3.315799999996671
 30
0.0
 11
20.89099999997916
 21
8.763099999991255
 31
0.0
1001
ACAD
1000
ASC_BOUNDS
1002
{
1070
    19
1005
105C1
1002
}
  0
LINE
  5
105A2
  8
0
 10
18.59799999998143
 20
3.315799999996671
 30
0.0
 11
16.46099999998353
 21
8.999899999990987
 31
0.0
1001
ACAD
1000
ASC_BOUNDS
1002
{
1070
    19
1005
105C1
1002
}
  0
LINE
  5
105A3
  8
0
 10
20.89099999997916
 20
8.763099999991255
 30
0.0
 11
22.38199999997767
 21
8.763099999991255
 31
0.0
1001
ACAD
1000
ASC_BOUNDS
1002
{
1070
    19
1005
105C1
1002
}
  0
LINE
  5
105A4
  8
0
 10
24.39299999997559
 20
3.670999999996297
 30
0.0
 11
23.56599999997638
 21
5.5200999999945
 31
0.0
1001
ACAD
1000
ASC_BOUNDS
1002
{
1070
    19
1005
105C2
1002
}
  0
LINE
  5
105A5
  8
0
 10
44.99999999995498
 20
-0.2368999999997641
 30
0.0
 11
40.02599999995994
 21
5.341799999994635
 31
0.0
1001
ACAD
1000
ASC_BOUNDS
1002
{
1070
    19
1005
105C4
1002
}
  0
LINE
  5
105A6
  8
0
 10
40.02599999995994
 20
5.341799999994635
 30
0.0
 11
40.02599999995994
 21
0.0
 31
0.0
1001
ACAD
1000
ASC_BOUNDS
1002
{
1070
    19
1005
105C4
1002
}
  0
LINE
  5
105A7
  8
0
 10
38.60499999996136
 20
8.999999999991019
 30
0.0
 11
38.60499999996136
 21
0.0
 31
0.0
1001
ACAD
1000
ASC_BOUNDS
1002
{
1070
    19
1005
105C4
1002
}
  0
LINE
  5
105A8
  8
0
 10
44.99999999995498
 20
8.763099999991255
 30
0.0
 11
44.99999999995498
 21
-0.2368999999997641
 31
0.0
1001
ACAD
1000
ASC_BOUNDS
1002
{
1070
    19
1005
105C4
1002
}
  0
LINE
  5
105A9
  8
0
 10
38.60499999996136
 20
0.0
 30
0.0
 11
40.02599999995994
 21
0.0
 31
0.0
1001
ACAD
1000
ASC_BOUNDS
1002
{
1070
    19
1005
105C4
1002
}
  0
LINE
  5
105AA
  8
0
 10
43.57899999995641
 20
3.421199999996588
 30
0.0
 11
38.60499999996136
 21
8.999899999990987
 31
0.0
1001
ACAD
1000
ASC_BOUNDS
1002
{
1070
    19
1005
105C4
1002
}
  0
LINE
  5
105AB
  8
0
 10
43.57899999995641
 20
8.763099999991255
 30
0.0
 11
43.57899999995641
 21
3.421199999996588
 31
0.0
1001
ACAD
1000
ASC_BOUNDS
1002
{
1070
    19
1005
105C4
1002
}
  0
LINE
  5
105AC
  8
0
 10
43.57899999995641
 20
8.763099999991255
 30
0.0
 11
44.99999999995498
 21
8.763099999991255
 31
0.0
1001
ACAD
1000
ASC_BOUNDS
1002
{
1070
    19
1005
105C4
1002
}
  0
LINE
  5
105AD
  8
0
 10
37.67199999996831
 20
8.763099999991255
 30
0.0
 11
36.23199999996837
 21
8.763099999991255
 31
0.0
  0
LINE
  5
105AE
  8
0
 10
31.64199999996833
 20
8.763099999991255
 30
0.0
 11
31.64199999996833
 21
2.481619422925121
 31
0.0
  0
LINE
  5
105AF
  8
0
 10
37.67199999996831
 20
8.763099999991255
 30
0.0
 11
37.67199999996831
 21
2.481619422925121
 31
0.0
  0
LINE
  5
105B0
  8
0
 10
36.23199999996837
 20
8.763099999991255
 30
0.0
 11
36.23199999996837
 21
2.481619422925064
 31
0.0
  0
LINE
  5
105B1
  8
0
 10
33.08199999996839
 20
8.763099999991255
 30
0.0
 11
33.08199999996839
 21
2.481619422925121
 31
0.0
  0
ARC
  5
105B2
  8
0
 10
34.65699999996832
 20
3.183099999991214
 30
0.0
 40
3.420000000000007
 50
240.0000000000255
 51
299.9999999999766
  0
ARC
  5
105B3
  8
0
 10
34.65699999996832
 20
3.183099999991214
 30
0.0
 40
1.97999999999999
 50
240.000000000026
 51
299.9999999999703
  0
LINE
  5
105B4
  8
0
 10
33.08199999996828
 20
8.763099999991255
 30
0.0
 11
31.64199999996833
 21
8.763099999991255
 31
0.0
  0
ARC
  5
105B5
  8
0
 10
35.06199999996829
 20
2.481619422925064
 30
0.0
 40
1.17
 50
299.9999999999699
 51
0.0
  0
ARC
  5
105B6
  8
0
 10
34.25199999996835
 20
2.481619422925121
 30
0.0
 40
1.17
 50
180.0
 51
240.0000000000238
  0
ARC
  5
105B7
  8
0
 10
35.06199999996841
 20
2.481619422925121
 30
0.0
 40
2.61
 50
299.9999999999756
 51
0.0
  0
ARC
  5
105B8
  8
0
 10
34.25199999996835
 20
2.481619422925121
 30
0.0
 40
2.61
 50
180.0
 51
240.0000000000244
  0
LINE
  5
105B9
  8
0
 10
29.30199999996933
 20
8.763099999991255
 30
0.0
 11
30.74199999996927
 21
8.763099999991255
 31
0.0
1001
ACAD
1000
ASC_BOUNDS
1002
{
1070
    19
1005
105C2
1002
}
  0
LINE
  5
105BA
  8
0
 10
30.74199999996927
 20
8.763099999991255
 30
0.0
 11
30.74199999996927
 21
2.373099999991211
 31
0.0
1001
ACAD
1000
ASC_BOUNDS
1002
{
1070
    19
1005
105C2
1002
}
  0
LINE
  5
105BB
  8
0
 10
26.02015566812236
 20
0.0330999999912365
 30
0.0
 11
28.40199999996923
 21
0.0330999999912365
 31
0.0
1001
ACAD
1000
ASC_BOUNDS
1002
{
1070
    19
1005
105C2
1002
}
  0
LINE
  5
105BC
  8
0
 10
29.30199999996933
 20
8.763099999991255
 30
0.0
 11
29.30199999996933
 21
2.283099999991236
 31
0.0
1001
ACAD
1000
ASC_BOUNDS
1002
{
1070
    19
1005
105C2
1002
}
  0
LINE
  5
105BD
  8
0
 10
26.97358892824991
 20
1.383099999991202
 30
0.0
 11
28.40199999996923
 21
1.383099999991202
 31
0.0
1001
ACAD
1000
ASC_BOUNDS
1002
{
1070
    19
1005
105C2
1002
}
  0
ARC
  5
105BE
  8
0
 10
28.40199999996923
 20
2.283099999991236
 30
0.0
 40
0.9
 50
270.0
 51
0.0
1001
ACAD
1000
ASC_BOUNDS
1002
{
1070
    19
1005
105C2
1002
}
  0
ARC
  5
105BF
  8
0
 10
28.40199999996923
 20
2.373099999991211
 30
0.0
 40
2.34
 50
270.0
 51
0.0
1001
ACAD
1000
ASC_BOUNDS
1002
{
1070
    19
1005
105C2
1002
}
  0
INSERT
  5
105C0
  8
0
  2
*X250
 10
0.0
 20
0.0
 30
0.0
1001
ACAD
1000
HATCH
1002
{
1070
    19
1000
ANSI37
1040
0.15
1040
0.0
1000
ASC_BOUNDS
1070
     2
1070
     2
1070
    12
1005
1057F
1005
10580
1005
10587
1005
10596
1005
10599
1005
10597
1005
10588
1005
1058D
1005
1058B
1005
1058F
1005
1058E
1005
10590
1070
     2
1070
     3
1005
1059B
1005
1059D
1005
1059C
1000
ASC_SEEDPOINT
1011
3.614004224891801
1021
2.996669441146025
1031
0.0
1021
2.996669441146025
1031
0.0
1000
R14_HATCH_DATA
1000
105C0
1011
1.0
1021
0.0
1031
0.0
1021
0.0
1031
0.0
1011
0.0
1021
1.0
1031
0.0
1021
1.0
1031
0.0
1011
0.0
1021
0.0
1031
1.0
1021
0.0
1031
1.0
1040
0.0
1010
0.0
1020
0.0
1030
1.0
1000
ANSI37
1070
     0
1070
     1
1071
        2
1071
        7
1070
     0
1070
     1
1071
       17
1040
13.26299999998673
1040
-0.0001000000000317
1040
9.236999999990758
1040
8.999899999990987
1040
9.236999999990758
1040
8.999999999991019
1040
5.657999999994331
1040
0.9999999999989768
1040
3.181999999996833
1040
4.668599999995308
1040
6.432999999993513
1040
8.763099999991255
1040
4.617999999995391
1040
8.763099999991255
1040
1.420999999998571
1040
4.736799999995242
1040
4.617999999995391
1040
-0.0001000000000317
1040
4.617999999995391
1040
0.0
1040
6.766999999993232
1040
0.0
1040
6.766999999993232
1040
-0.0001000000000317
1040
7.826999999992154
1040
2.368399999997621
1040
10.64699999998936
1040
2.368399999997621
1040
11.70599999998831
1040
-0.0001000000000317
1040
11.70599999998831
1040
0.0
1040
13.26299999998673
1040
0.0
1071
       12
1005
1057F
1005
10580
1005
10587
1005
10596
1005
10599
1005
10597
1005
10588
1005
1058D
1005
1058B
1005
1058F
1005
1058E
1005
10590
1071
       22
1070
     0
1070
     1
1071
        3
1040
9.236999999990758
1040
5.5200999999945
1040
10.06399999998996
1040
3.670999999996297
1040
8.409999999991555
1040
3.670999999996297
1071
        3
1005
1059B
1005
1059D
1005
1059C
1070
     0
1070
     1
1040
0.0
1040
0.15
1070
     0
1070
     2
1040
0.7853981633974483
1040
49.29960901727088
1040
-10.17736998311392
1040
-0.3367596045400932
1040
0.3367596045400932
1070
     0
1040
2.356194490192345
1040
49.29960901727088
1040
-10.17736998311392
1040
-0.3367596045400932
1040
-0.3367596045400932
1070
     0
1040
0.0110235143455945
1071
        2
1040
3.614004224891801
1040
2.996669441146025
1040
0.0
1040
3.614004224891801
1040
2.996669441146025
1040
0.0
1002
}
  0
INSERT
  5
105C1
  8
0
  2
*X251
 10
0.0
 20
0.0
 30
0.0
1001
ACAD
1000
HATCH
1002
{
1070
    19
1000
ANSI37
1040
0.15
1040
0.0
1000
ASC_BOUNDS
1070
     1
1070
     2
1070
    10
1005
10581
1005
10582
1005
105A3
1005
105A1
1005
105A2
1005
10595
1005
1059A
1005
1059E
1005
10584
1005
10583
1000
ASC_SEEDPOINT
1011
14.73245321214324
1021
2.798246178283421
1031
0.0
1021
2.798246178283421
1031
0.0
1000
R14_HATCH_DATA
1000
105C1
1011
1.0
1021
0.0
1031
0.0
1021
0.0
1031
0.0
1011
0.0
1021
1.0
1031
0.0
1021
1.0
1031
0.0
1011
0.0
1021
0.0
1031
1.0
1021
0.0
1031
1.0
1040
0.0
1010
0.0
1020
0.0
1030
1.0
1000
ANSI37
1070
     0
1070
     1
1071
        1
1071
        7
1070
     0
1070
     1
1071
       10
1040
16.46099999998353
1040
5.432899999994561
1040
18.59199999998134
1040
-0.2368999999997641
1040
22.38199999997767
1040
8.763099999991255
1040
20.89099999997916
1040
8.763099999991255
1040
18.59799999998143
1040
3.315799999996671
1040
16.46099999998353
1040
8.999899999990987
1040
14.32399999998563
1040
3.315799999996671
1040
12.02999999998792
1040
8.763099999991255
1040
10.53899999998941
1040
8.763099999991255
1040
14.32899999998563
1040
-0.2368999999997641
1071
       10
1005
10581
1005
10582
1005
105A3
1005
105A1
1005
105A2
1005
10595
1005
1059A
1005
1059E
1005
10584
1005
10583
1070
     0
1070
     1
1040
0.0
1040
0.15
1070
     0
1070
     2
1040
0.7853981633974483
1040
49.29960901727088
1040
-10.17736998311392
1040
-0.3367596045400932
1040
0.3367596045400932
1070
     0
1040
2.356194490192345
1040
49.29960901727088
1040
-10.17736998311392
1040
-0.3367596045400932
1040
-0.3367596045400932
1070
     0
1040
0.0110235143455945
1071
        1
1040
14.73245321214324
1040
2.798246178283421
1040
0.0
1002
}
  0
INSERT
  5
105C2
  8
0
  2
*X252
 10
0.0
 20
0.0
 30
0.0
1001
ACAD
1000
HATCH
1002
{
1070
    19
1000
ANSI37
1040
0.15
1040
0.0
1000
ASC_BOUNDS
1070
     2
1070
     2
1070
    13
1005
10585
1005
10592
1005
10593
1005
10591
1005
10594
1005
105BB
1005
105BF
1005
105BA
1005
105B9
1005
105BC
1005
105BE
1005
105BD
1005
10586
1070
     2
1070
     3
1005
1059F
1005
105A4
1005
105A0
1000
ASC_SEEDPOINT
1011
21.97929957367762
1021
3.294304244259308
1031
0.0
1021
3.294304244259308
1031
0.0
1000
R14_HATCH_DATA
1000
105C2
1011
1.0
1021
0.0
1031
0.0
1021
0.0
1031
0.0
1011
0.0
1021
1.0
1031
0.0
1021
1.0
1031
0.0
1011
0.0
1021
0.0
1031
1.0
1021
0.0
1031
1.0
1040
0.0
1010
0.0
1020
0.0
1030
1.0
1000
ANSI37
1070
     0
1070
     1
1071
        2
1071
        7
1070
     1
1070
     1
1071
       15
1040
23.56599999997638
1040
8.999899999990987
1040
0.0
1040
19.53899999998043
1040
-0.0001000000000317
1040
0.0
1040
19.53899999998043
1040
0.0
1040
0.0
1040
21.09599999997886
1040
0.0
1040
0.0
1040
21.09599999997886
1040
-0.0001000000000317
1040
0.0
1040
22.15599999997789
1040
2.368399999997621
1040
0.0
1040
24.97599999997499
1040
2.368399999997621
1040
0.0
1040
26.02015566812236
1040
0.0330999999912365
1040
0.0
1040
28.40199999996923
1040
0.0330999999912365
1040
0.414213562373095
1040
30.74199999996923
1040
2.373099999991211
1040
0.0
1040
30.74199999996927
1040
8.763099999991255
1040
0.0
1040
29.30199999996933
1040
8.763099999991255
1040
0.0
1040
29.30199999996933
1040
2.283099999991236
1040
-0.414213562373095
1040
28.40199999996923
1040
1.383099999991237
1040
0.0
1040
26.97358892824991
1040
1.383099999991202
1040
0.0
1071
       13
1005
10585
1005
10592
1005
10593
1005
10591
1005
10594
1005
105BB
1005
105BF
1005
105BA
1005
105B9
1005
105BC
1005
105BE
1005
105BD
1005
10586
1071
       22
1070
     0
1070
     1
1071
        3
1040
22.7389999999773
1040
3.670999999996297
1040
23.56599999997638
1040
5.5200999999945
1040
24.39299999997559
1040
3.670999999996297
1071
        3
1005
1059F
1005
105A4
1005
105A0
1070
     0
1070
     1
1040
0.0
1040
0.15
1070
     0
1070
     2
1040
0.7853981633974483
1040
49.29960901727088
1040
-10.17736998311392
1040
-0.3367596045400932
1040
0.3367596045400932
1070
     0
1040
2.356194490192345
1040
49.29960901727088
1040
-10.17736998311392
1040
-0.3367596045400932
1040
-0.3367596045400932
1070
     0
1040
0.0110235143455945
1071
        2
1040
21.97929957367762
1040
3.294304244259308
1040
0.0
1040
21.97929957367762
1040
3.294304244259308
1040
0.0
1002
}
  0
INSERT
  5
105C3
  8
0
  2
*X253
 10
0.0
 20
0.0
 30
0.0
1001
ACAD
1000
HATCH
1002
{
1070
    19
1000
ANSI37
1040
0.15
1040
0.0
1000
R14_HATCH_DATA
1000
105C3
1011
1.0
1021
0.0
1031
0.0
1021
0.0
1031
0.0
1011
0.0
1021
1.0
1031
0.0
1021
1.0
1031
0.0
1011
0.0
1021
0.0
1031
1.0
1021
0.0
1031
1.0
1040
0.0
1010
0.0
1020
0.0
1030
1.0
1000
ANSI37
1070
     0
1070
     1
1071
        1
1071
        7
1070
     1
1070
     1
1071
       12
1040
31.64199999996833
1040
2.481619422925121
1040
0.2679491924310942
1040
32.94699999997067
1040
0.2212931190493919
1040
0.2679491924301353
1040
36.36699999995983
1040
0.2212931190459813
1040
0.2679491924321411
1040
37.67199999996831
1040
2.481619422928361
1040
0.0
1040
37.67199999996831
1040
8.763099999991255
1040
0.0
1040
36.23199999996837
1040
8.763099999991255
1040
0.0
1040
36.23199999996837
1040
2.481619422925064
1040
-0.2679491924310291
1040
35.64699999996708
1040
1.468369700498386
1040
-0.267949192430519
1040
33.66699999997093
1040
1.468369700497703
1040
-0.267949192431809
1040
33.08199999996839
1040
2.481619422926997
1040
0.0
1040
33.08199999996839
1040
8.763099999991255
1040
0.0
1040
31.64199999996833
1040
8.763099999991255
1040
0.0
1071
        0
1070
     0
1070
     1
1040
0.0
1040
0.15
1070
     0
1070
     2
1040
0.7853981633974483
1040
49.29960901727088
1040
-10.17736998311392
1040
-0.3367596045400932
1040
0.3367596045400932
1070
     0
1040
2.356194490192345
1040
49.29960901727088
1040
-10.17736998311392
1040
-0.3367596045400932
1040
-0.3367596045400932
1070
     0
1040
0.0110235143455945
1071
        1
1040
32.30357378967278
1040
3.988785755459219
1040
0.0
1002
}
  0
INSERT
  5
105C4
  8
0
  2
*X254
 10
0.0
 20
0.0
 30
0.0
1001
ACAD
1000
HATCH
1002
{
1070
    19
1000
ANSI37
1040
0.15
1040
0.0
1000
ASC_BOUNDS
1070
     1
1070
     2
1070
     8
1005
105A5
1005
105A8
1005
105AC
1005
105AB
1005
105AA
1005
105A7
1005
105A9
1005
105A6
1000
ASC_SEEDPOINT
1011
39.74896370716704
1021
4.484843821435049
1031
0.0
1021
4.484843821435049
1031
0.0
1000
R14_HATCH_DATA
1000
105C4
1011
1.0
1021
0.0
1031
0.0
1021
0.0
1031
0.0
1011
0.0
1021
1.0
1031
0.0
1021
1.0
1031
0.0
1011
0.0
1021
0.0
1031
1.0
1021
0.0
1031
1.0
1040
0.0
1010
0.0
1020
0.0
1030
1.0
1000
ANSI37
1070
     0
1070
     1
1071
        1
1071
        7
1070
     0
1070
     1
1071
        9
1040
40.02599999995994
1040
5.341799999994635
1040
44.99999999995498
1040
-0.2368999999997641
1040
44.99999999995498
1040
8.763099999991255
1040
43.57899999995641
1040
8.763099999991255
1040
43.57899999995641
1040
3.421199999996588
1040
38.60499999996136
1040
8.999899999990987
1040
38.60499999996136
1040
8.999999999991019
1040
38.60499999996136
1040
0.0
1040
40.02599999995994
1040
0.0
1071
        8
1005
105A5
1005
105A8
1005
105AC
1005
105AB
1005
105AA
1005
105A7
1005
105A9
1005
105A6
1070
     0
1070
     1
1040
0.0
1040
0.15
1070
     0
1070
     2
1040
0.7853981633974483
1040
49.29960901727088
1040
-10.17736998311392
1040
-0.3367596045400932
1040
0.3367596045400932
1070
     0
1040
2.356194490192345
1040
49.29960901727088
1040
-10.17736998311392
1040
-0.3367596045400932
1040
-0.3367596045400932
1070
     0
1040
0.0110235143455945
1071
        1
1040
39.74896370716704
1040
4.484843821435049
1040
0.0
1002
}
  0
INSERT
  5
105C5
  8
0
  2
*X255
 10
0.0
 20
0.0
 30
0.0
1001
ACAD
1000
HATCH
1002
{
1070
    19
1000
ANSI37
1040
0.15
1040
0.0
1000
ASC_BOUNDS
1070
     1
1070
     2
1070
     4
1005
10589
1005
10598
1005
1058A
1005
1058C
1000
ASC_SEEDPOINT
1011
1.079051535452663
1021
4.148538732891836
1031
0.0
1021
4.148538732891836
1031
0.0
1000
R14_HATCH_DATA
1000
105C5
1011
1.0
1021
0.0
1031
0.0
1021
0.0
1031
0.0
1011
0.0
1021
1.0
1031
0.0
1021
1.0
1031
0.0
1011
0.0
1021
0.0
1031
1.0
1021
0.0
1031
1.0
1040
0.0
1010
0.0
1020
0.0
1030
1.0
1000
ANSI37
1070
     0
1070
     1
1071
        1
1071
        7
1070
     0
1070
     1
1071
        4
1040
1.420999999998571
1040
0.0
1040
1.420999999998571
1040
8.763099999991255
1040
0.0
1040
8.763099999991255
1040
0.0
1040
0.0
1071
        4
1005
10589
1005
10598
1005
1058A
1005
1058C
1070
     0
1070
     1
1040
0.0
1040
0.15
1070
     0
1070
     2
1040
0.7853981633974483
1040
49.29960901727088
1040
-10.17736998311392
1040
-0.3367596045400932
1040
0.3367596045400932
1070
     0
1040
2.356194490192345
1040
49.29960901727088
1040
-10.17736998311392
1040
-0.3367596045400932
1040
-0.3367596045400932
1070
     0
1040
0.0053004257112761
1071
        1
1040
1.079051535452663
1040
4.148538732891836
1040
0.0
1002
}
  0
ENDBLK
  5
10C7D
  8
0
  0
BLOCK
  8
0
  2
*X250
 70
     1
 10
0.0
 20
0.0
 30
0.0
  3
*X250
  1

  0
LINE
  5
176BC
  8
0
  6
CONTINUOUS
 10
3.418023043697893
 20
7.251849696850613
 30
0.0
 11
4.929273346838536
 21
8.763099999991255
 31
0.0
  0
LINE
  5
176BD
  8
0
  6
CONTINUOUS
 10
1.483656411257782
 20
4.643963855330318
 30
0.0
 11
5.60279255591872
 21
8.763099999991255
 31
0.0
  0
LINE
  5
176BE
  8
0
  6
CONTINUOUS
 10
1.755053947328235
 20
4.241842182320584
 30
0.0
 11
6.276311764998907
 21
8.763099999991255
 31
0.0
  0
LINE
  5
176BF
  8
0
  6
CONTINUOUS
 10
2.026451483398688
 20
3.839720509310849
 30
0.0
 11
4.441040904851878
 21
6.254309930764039
 31
0.0
  0
LINE
  5
176C0
  8
0
  6
CONTINUOUS
 10
2.297849019469139
 20
3.437598836301114
 30
0.0
 11
3.321765168359338
 21
4.461514985191313
 31
0.0
  0
LINE
  5
176C1
  8
0
  6
CONTINUOUS
 10
2.569246555539591
 20
3.03547716329138
 30
0.0
 11
3.593163397972743
 21
4.059394005724531
 31
0.0
  0
LINE
  5
176C2
  8
0
  6
CONTINUOUS
 10
2.840644091610043
 20
2.633355490281646
 30
0.0
 11
3.864561627586149
 21
3.657273026257751
 31
0.0
  0
LINE
  5
176C3
  8
0
  6
CONTINUOUS
 10
3.112041627680496
 20
2.231233817271911
 30
0.0
 11
4.135959857199554
 21
3.25515204679097
 31
0.0
  0
LINE
  5
176C4
  8
0
  6
CONTINUOUS
 10
3.383439163750948
 20
1.829112144262177
 30
0.0
 11
4.40735808681296
 21
2.853031067324189
 31
0.0
  0
LINE
  5
176C5
  8
0
  6
CONTINUOUS
 10
3.654836699821399
 20
1.426990471252442
 30
0.0
 11
4.678756316426365
 21
2.450910087857407
 31
0.0
  0
LINE
  5
176C6
  8
0
  6
CONTINUOUS
 10
3.926234235891853
 20
1.024868798242709
 30
0.0
 11
4.95015454603977
 21
2.048789108390626
 31
0.0
  0
LINE
  5
176C7
  8
0
  6
CONTINUOUS
 10
4.197631771962304
 20
0.6227471252329737
 30
0.0
 11
5.221552775653176
 21
1.646668128923846
 31
0.0
  0
LINE
  5
176C8
  8
0
  6
CONTINUOUS
 10
8.715877546767851
 20
7.835069736359266
 30
0.0
 11
9.435953450375058
 21
8.555145639966472
 31
0.0
  0
LINE
  5
176C9
  8
0
  6
CONTINUOUS
 10
8.170620868422267
 20
6.616293848933497
 30
0.0
 11
9.644120833743461
 21
8.08979381425469
 31
0.0
  0
LINE
  5
176CA
  8
0
  6
CONTINUOUS
 10
7.625364190076684
 20
5.397517961507727
 30
0.0
 11
9.852288217111864
 21
7.624441988542907
 31
0.0
  0
LINE
  5
176CB
  8
0
  6
CONTINUOUS
 10
7.080107511731101
 20
4.178742074081957
 30
0.0
 11
10.06045560048027
 21
7.159090162831124
 31
0.0
  0
LINE
  5
176CC
  8
0
  6
CONTINUOUS
 10
6.534850833385518
 20
2.959966186656187
 30
0.0
 11
10.26862298384867
 21
6.693738337119342
 31
0.0
  0
LINE
  5
176CD
  8
0
  6
CONTINUOUS
 10
4.469029308032756
 20
0.2206254522232385
 30
0.0
 11
5.492951005266582
 21
1.244547149457064
 31
0.0
  0
LINE
  5
176CE
  8
0
  6
CONTINUOUS
 10
5.989594155039935
 20
1.741190299230417
 30
0.0
 11
8.806950407233131
 21
4.558546551423613
 31
0.0
  0
LINE
  5
176CF
  8
0
  6
CONTINUOUS
 10
9.401251593263643
 20
5.152847737454126
 30
0.0
 11
10.47679036721708
 21
6.228386511407559
 31
0.0
  0
LINE
  5
176D0
  8
0
  6
CONTINUOUS
 10
4.921837203428691
 20
-0.0000858614610131
 30
0.0
 11
8.592923064886001
 21
3.670999999996297
 31
0.0
  0
LINE
  5
176D1
  8
0
  6
CONTINUOUS
 10
9.609390446785305
 20
4.6874673818956
 30
0.0
 11
10.68495775058548
 21
5.763034685695775
 31
0.0
  0
LINE
  5
176D2
  8
0
  6
CONTINUOUS
 10
5.595387755019432
 20
-0.0000545189504582
 30
0.0
 11
7.716137258923768
 21
2.120694984953879
 31
0.0
  0
LINE
  5
176D3
  8
0
  6
CONTINUOUS
 10
6.268938306610172
 20
-0.000023176439905
 30
0.0
 11
7.170485805526503
 21
0.9015243224764267
 31
0.0
  0
LINE
  5
176D4
  8
0
  6
CONTINUOUS
 10
7.963842273967511
 20
2.368399999997621
 30
0.0
 11
9.266442273966188
 21
3.670999999996297
 31
0.0
  0
LINE
  5
176D5
  8
0
  6
CONTINUOUS
 10
8.637361483047696
 20
2.368399999997621
 30
0.0
 11
9.939961483046375
 21
3.670999999996297
 31
0.0
  0
LINE
  5
176D6
  8
0
  6
CONTINUOUS
 10
9.817529300306965
 20
4.222087026337075
 30
0.0
 11
10.89312513395388
 21
5.297682859983993
 31
0.0
  0
LINE
  5
176D7
  8
0
  6
CONTINUOUS
 10
10.02566815382863
 20
3.756706670778549
 30
0.0
 11
11.10129251732229
 21
4.832331034272211
 31
0.0
  0
LINE
  5
176D8
  8
0
  6
CONTINUOUS
 10
9.310880692127883
 20
2.368399999997621
 30
0.0
 11
11.30945990069069
 21
4.366979208560428
 31
0.0
  0
LINE
  5
176D9
  8
0
  6
CONTINUOUS
 10
9.98439990120807
 20
2.36839999999762
 30
0.0
 11
11.5176272840591
 21
3.901627382848645
 31
0.0
  0
LINE
  5
176DA
  8
0
  6
CONTINUOUS
 10
10.65037369446246
 20
2.36085458417182
 30
0.0
 11
11.7257946674275
 21
3.436275557136862
 31
0.0
  0
LINE
  5
176DB
  8
0
  6
CONTINUOUS
 10
10.85847197087848
 20
1.895433651507656
 30
0.0
 11
11.9339620507959
 21
2.97092373142508
 31
0.0
  0
LINE
  5
176DC
  8
0
  6
CONTINUOUS
 10
11.0665702472945
 20
1.430012718843491
 30
0.0
 11
12.14212943416431
 21
2.505571905713296
 31
0.0
  0
LINE
  5
176DD
  8
0
  6
CONTINUOUS
 10
11.27466852371052
 20
0.9645917861793256
 30
0.0
 11
12.35029681753271
 21
2.040220080001513
 31
0.0
  0
LINE
  5
176DE
  8
0
  6
CONTINUOUS
 10
11.48276680012654
 20
0.4991708535151611
 30
0.0
 11
12.55846420090111
 21
1.57486825428973
 31
0.0
  0
LINE
  5
176DF
  8
0
  6
CONTINUOUS
 10
11.69086507654257
 20
0.0337499208509957
 30
0.0
 11
12.76663158426952
 21
1.109516428577947
 31
0.0
  0
LINE
  5
176E0
  8
0
  6
CONTINUOUS
 10
12.33057447873954
 20
-0.0000598860322123
 30
0.0
 11
12.97479896763792
 21
0.6441646028661663
 31
0.0
  0
LINE
  5
176E1
  8
0
  6
CONTINUOUS
 10
13.00413694809395
 20
-0.0000166257579952
 30
0.0
 11
13.18296635100632
 21
0.1788127771543824
 31
0.0
  0
LINE
  5
176E2
  8
0
  6
CONTINUOUS
 10
4.772852165289667
 20
-0.000092794222212
 30
0.0
 11
4.296495091028902
 21
0.4762642800385528
 31
0.0
  0
LINE
  5
176E3
  8
0
  6
CONTINUOUS
 10
5.446340034776103
 20
-0.0000614546284616
 30
0.0
 11
2.898195908335625
 21
2.548082671812017
 31
0.0
  0
LINE
  5
176E4
  8
0
  6
CONTINUOUS
 10
6.119827904262539
 20
-0.0000301150347113
 30
0.0
 11
1.499896725642348
 21
4.61990106358548
 31
0.0
  0
LINE
  5
176E5
  8
0
  6
CONTINUOUS
 10
6.775136745476159
 20
0.0181802528318542
 30
0.0
 11
5.699826040202669
 21
1.093490958105344
 31
0.0
  0
LINE
  5
176E6
  8
0
  6
CONTINUOUS
 10
6.983376846288489
 20
0.4834593610997118
 30
0.0
 11
5.908008617934405
 21
1.558827589453796
 31
0.0
  0
LINE
  5
176E7
  8
0
  6
CONTINUOUS
 10
5.377063484962296
 20
1.416253513345719
 30
0.0
 11
1.702276957014131
 21
5.091040041293883
 31
0.0
  0
LINE
  5
176E8
  8
0
  6
CONTINUOUS
 10
3.978745891735324
 20
3.488090315652877
 30
0.0
 11
2.000373521109399
 21
5.466462686278803
 31
0.0
  0
LINE
  5
176E9
  8
0
  6
CONTINUOUS
 10
7.191616947100819
 20
0.948738469367568
 30
0.0
 11
6.11619119566614
 21
2.024164220802247
 31
0.0
  0
LINE
  5
176EA
  8
0
  6
CONTINUOUS
 10
7.399857047913149
 20
1.414017577635424
 30
0.0
 11
6.324373773397875
 21
2.489500852150698
 31
0.0
  0
LINE
  5
176EB
  8
0
  6
CONTINUOUS
 10
7.608097148725479
 20
1.879296685903281
 30
0.0
 11
6.53255635112961
 21
2.95483748349915
 31
0.0
  0
LINE
  5
176EC
  8
0
  6
CONTINUOUS
 10
7.816337249537808
 20
2.344575794171138
 30
0.0
 11
6.740738928861345
 21
3.420174114847601
 31
0.0
  0
LINE
  5
176ED
  8
0
  6
CONTINUOUS
 10
3.310241080789734
 20
4.830114335678653
 30
0.0
 11
2.298470085204666
 21
5.84188533126372
 31
0.0
  0
LINE
  5
176EE
  8
0
  6
CONTINUOUS
 10
3.60832983563551
 20
5.205544789913063
 30
0.0
 11
2.596566649299935
 21
6.217307976248638
 31
0.0
  0
LINE
  5
176EF
  8
0
  6
CONTINUOUS
 10
3.906418590481286
 20
5.580975244147473
 30
0.0
 11
2.894663213395203
 21
6.592730621233557
 31
0.0
  0
LINE
  5
176F0
  8
0
  6
CONTINUOUS
 10
4.204507345327062
 20
5.956405698381884
 30
0.0
 11
3.192759777490472
 21
6.968153266218474
 31
0.0
  0
LINE
  5
176F1
  8
0
  6
CONTINUOUS
 10
8.466032252791512
 20
2.368399999997621
 30
0.0
 11
6.948921506593081
 21
3.885510746196053
 31
0.0
  0
LINE
  5
176F2
  8
0
  6
CONTINUOUS
 10
9.139551461871699
 20
2.36839999999762
 30
0.0
 11
7.157104084324816
 21
4.350847377544504
 31
0.0
  0
LINE
  5
176F3
  8
0
  6
CONTINUOUS
 10
4.502596100172839
 20
6.331836152616295
 30
0.0
 11
3.49085634158574
 21
7.343575911203393
 31
0.0
  0
LINE
  5
176F4
  8
0
  6
CONTINUOUS
 10
4.800684855018615
 20
6.707266606850705
 30
0.0
 11
3.788952905681008
 21
7.718998556188312
 31
0.0
  0
LINE
  5
176F5
  8
0
  6
CONTINUOUS
 10
12.18154012887317
 20
-0.0000694579236642
 30
0.0
 11
11.32140332908496
 21
0.8600673418645499
 31
0.0
  0
LINE
  5
176F6
  8
0
  6
CONTINUOUS
 10
12.85501608323566
 20
-0.0000262032059659
 30
0.0
 11
10.77672456435345
 21
2.078265315676246
 31
0.0
  0
LINE
  5
176F7
  8
0
  6
CONTINUOUS
 10
9.813070670951886
 20
2.36839999999762
 30
0.0
 11
8.51047067095321
 21
3.670999999996297
 31
0.0
  0
LINE
  5
176F8
  8
0
  6
CONTINUOUS
 10
10.48658988003207
 20
2.36839999999762
 30
0.0
 11
9.183989880033396
 21
3.670999999996297
 31
0.0
  0
LINE
  5
176F9
  8
0
  6
CONTINUOUS
 10
8.441048632286794
 20
3.740422038662712
 30
0.0
 11
7.365286662056551
 21
4.816184008892956
 31
0.0
  0
LINE
  5
176FA
  8
0
  6
CONTINUOUS
 10
8.649187485808454
 20
4.205802394221237
 30
0.0
 11
7.573469239788285
 21
5.281520640241407
 31
0.0
  0
LINE
  5
176FB
  8
0
  6
CONTINUOUS
 10
5.098773609864391
 20
7.082697061085115
 30
0.0
 11
4.087049469776277
 21
8.09442120117323
 31
0.0
  0
LINE
  5
176FC
  8
0
  6
CONTINUOUS
 10
5.396862364710167
 20
7.458127515319526
 30
0.0
 11
4.385146033871544
 21
8.469843846158149
 31
0.0
  0
LINE
  5
176FD
  8
0
  6
CONTINUOUS
 10
13.04801363231285
 20
0.4804954567970334
 30
0.0
 11
9.85750908911358
 21
3.670999999996297
 31
0.0
  0
LINE
  5
176FE
  8
0
  6
CONTINUOUS
 10
8.857326339330116
 20
4.671182749779763
 30
0.0
 11
7.781651817520021
 21
5.746857271589858
 31
0.0
  0
LINE
  5
176FF
  8
0
  6
CONTINUOUS
 10
5.694951119555943
 20
7.833557969553937
 30
0.0
 11
4.765409089118624
 21
8.763099999991255
 31
0.0
  0
LINE
  5
17700
  8
0
  6
CONTINUOUS
 10
12.50286117236978
 20
1.699167125820288
 30
0.0
 11
9.68611877250287
 21
4.515909525687196
 31
0.0
  0
LINE
  5
17701
  8
0
  6
CONTINUOUS
 10
9.065465192851777
 20
5.136563105338288
 30
0.0
 11
7.989834395251757
 21
6.21219390293831
 31
0.0
  0
LINE
  5
17702
  8
0
  6
CONTINUOUS
 10
5.993039874401719
 20
8.208988423788346
 30
0.0
 11
5.43892829819881
 21
8.763099999991255
 31
0.0
  0
LINE
  5
17703
  8
0
  6
CONTINUOUS
 10
11.95770871242671
 20
2.917838794843543
 30
0.0
 11
8.19801697298349
 21
6.677530534286761
 31
0.0
  0
LINE
  5
17704
  8
0
  6
CONTINUOUS
 10
6.291128629247495
 20
8.584418878022756
 30
0.0
 11
6.112447507278997
 21
8.763099999991255
 31
0.0
  0
LINE
  5
17705
  8
0
  6
CONTINUOUS
 10
11.41255625248364
 20
4.136510463866797
 30
0.0
 11
8.406199550715227
 21
7.142867165635211
 31
0.0
  0
LINE
  5
17706
  8
0
  6
CONTINUOUS
 10
10.86740379254057
 20
5.355182132890051
 30
0.0
 11
8.614382128446962
 21
7.608203796983664
 31
0.0
  0
LINE
  5
17707
  8
0
  6
CONTINUOUS
 10
10.3222513325975
 20
6.573853801913305
 30
0.0
 11
8.822564706178696
 21
8.073540428332114
 31
0.0
  0
LINE
  5
17708
  8
0
  6
CONTINUOUS
 10
9.777098872654436
 20
7.792525470936562
 30
0.0
 11
9.030747283910433
 21
8.538877059680566
 31
0.0
  0
ENDBLK
  5
1784A
  8
0
  0
BLOCK
  8
0
  2
*X251
 70
     1
 10
0.0
 20
0.0
 30
0.0
  3
*X251
  1

  0
LINE
  5
1770A
  8
0
  6
CONTINUOUS
 10
10.67292308101235
 20
8.445076852443387
 30
0.0
 11
10.99094622856022
 21
8.763099999991255
 31
0.0
  0
LINE
  5
1770B
  8
0
  6
CONTINUOUS
 10
10.87250383178748
 20
7.971138394138331
 30
0.0
 11
11.6644654376404
 21
8.763099999991255
 31
0.0
  0
LINE
  5
1770C
  8
0
  6
CONTINUOUS
 10
11.07208458256261
 20
7.497199935833273
 30
0.0
 11
12.12126590876355
 21
8.546381262034211
 31
0.0
  0
LINE
  5
1770D
  8
0
  6
CONTINUOUS
 10
11.27166533333774
 20
7.023261477528216
 30
0.0
 11
12.32085164573666
 21
8.072447789927136
 31
0.0
  0
LINE
  5
1770E
  8
0
  6
CONTINUOUS
 10
11.47124608411287
 20
6.549323019223158
 30
0.0
 11
12.52043738270977
 21
7.59851431782006
 31
0.0
  0
LINE
  5
1770F
  8
0
  6
CONTINUOUS
 10
11.670826834888
 20
6.075384560918101
 30
0.0
 11
12.72002311968288
 21
7.124580845712984
 31
0.0
  0
LINE
  5
17710
  8
0
  6
CONTINUOUS
 10
11.87040758566313
 20
5.601446102613043
 30
0.0
 11
12.91960885665599
 21
6.650647373605907
 31
0.0
  0
LINE
  5
17711
  8
0
  6
CONTINUOUS
 10
12.06998833643825
 20
5.127507644307986
 30
0.0
 11
13.1191945936291
 21
6.176713901498832
 31
0.0
  0
LINE
  5
17712
  8
0
  6
CONTINUOUS
 10
12.26956908721338
 20
4.65356918600293
 30
0.0
 11
13.31878033060221
 21
5.702780429391757
 31
0.0
  0
LINE
  5
17713
  8
0
  6
CONTINUOUS
 10
12.46914983798851
 20
4.179630727697873
 30
0.0
 11
13.51836606757532
 21
5.228846957284683
 31
0.0
  0
LINE
  5
17714
  8
0
  6
CONTINUOUS
 10
12.66873058876364
 20
3.705692269392816
 30
0.0
 11
13.71795180454843
 21
4.754913485177607
 31
0.0
  0
LINE
  5
17715
  8
0
  6
CONTINUOUS
 10
12.86831133953877
 20
3.231753811087759
 30
0.0
 11
13.91753754152154
 21
4.280980013070531
 31
0.0
  0
LINE
  5
17716
  8
0
  6
CONTINUOUS
 10
13.0678920903139
 20
2.757815352782702
 30
0.0
 11
14.11712327849465
 21
3.807046540963456
 31
0.0
  0
LINE
  5
17717
  8
0
  6
CONTINUOUS
 10
13.26747284108903
 20
2.283876894477644
 30
0.0
 11
14.31670901546777
 21
3.333113068856379
 31
0.0
  0
LINE
  5
17718
  8
0
  6
CONTINUOUS
 10
16.36767838827179
 20
8.751678487061342
 30
0.0
 11
16.50332410898388
 21
8.887324207773432
 31
0.0
  0
LINE
  5
17719
  8
0
  6
CONTINUOUS
 10
15.96190732182191
 20
7.67238821153127
 30
0.0
 11
16.68735328004734
 21
8.397834169756699
 31
0.0
  0
LINE
  5
1771A
  8
0
  6
CONTINUOUS
 10
15.55613625537202
 20
6.593097936001196
 30
0.0
 11
16.87138245111079
 21
7.908344131739965
 31
0.0
  0
LINE
  5
1771B
  8
0
  6
CONTINUOUS
 10
15.15036518892213
 20
5.513807660471122
 30
0.0
 11
17.05541162217424
 21
7.418854093723231
 31
0.0
  0
LINE
  5
1771C
  8
0
  6
CONTINUOUS
 10
14.74459412247225
 20
4.434517384941048
 30
0.0
 11
17.2394407932377
 21
6.929364055706499
 31
0.0
  0
LINE
  5
1771D
  8
0
  6
CONTINUOUS
 10
14.33882305602236
 20
3.355227109410975
 30
0.0
 11
17.42346996430115
 21
6.439874017689766
 31
0.0
  0
LINE
  5
1771E
  8
0
  6
CONTINUOUS
 10
13.46705359186416
 20
1.809938436172586
 30
0.0
 11
16.0819338255367
 21
4.424818669845129
 31
0.0
  0
LINE
  5
1771F
  8
0
  6
CONTINUOUS
 10
16.63283254238972
 20
4.975717386698149
 30
0.0
 11
17.60749913536461
 21
5.950383979673033
 31
0.0
  0
LINE
  5
17720
  8
0
  6
CONTINUOUS
 10
13.66663434263929
 20
1.335999977867529
 30
0.0
 11
15.67604797733754
 21
3.345413612565779
 31
0.0
  0
LINE
  5
17721
  8
0
  6
CONTINUOUS
 10
13.86621509341442
 20
0.8620615195624723
 30
0.0
 11
15.27016212913838
 21
2.26600855528643
 31
0.0
  0
LINE
  5
17722
  8
0
  6
CONTINUOUS
 10
16.81682257348267
 20
4.486188208710908
 30
0.0
 11
17.79152830642806
 21
5.460893941656299
 31
0.0
  0
LINE
  5
17723
  8
0
  6
CONTINUOUS
 10
17.00081260457561
 20
3.996659030723667
 30
0.0
 11
17.97555747749151
 21
4.971403903639565
 31
0.0
  0
LINE
  5
17724
  8
0
  6
CONTINUOUS
 10
20.74362343514722
 20
8.412989070375462
 30
0.0
 11
21.09373436476302
 21
8.763099999991256
 31
0.0
  0
LINE
  5
17725
  8
0
  6
CONTINUOUS
 10
20.25401257174777
 20
7.249858997895826
 30
0.0
 11
21.7672535738432
 21
8.763099999991255
 31
0.0
  0
LINE
  5
17726
  8
0
  6
CONTINUOUS
 10
14.06579584418955
 20
0.3881230612574149
 30
0.0
 11
14.86427628093921
 21
1.186603498007082
 31
0.0
  0
LINE
  5
17727
  8
0
  6
CONTINUOUS
 10
14.26537659496467
 20
-0.0858153970476412
 30
0.0
 11
14.45839043274005
 21
0.1071984407277329
 31
0.0
  0
LINE
  5
17728
  8
0
  6
CONTINUOUS
 10
17.18480263566856
 20
3.507129852736426
 30
0.0
 11
18.15958664855496
 21
4.481913865622833
 31
0.0
  0
LINE
  5
17729
  8
0
  6
CONTINUOUS
 10
17.3687926667615
 20
3.017600674749186
 30
0.0
 11
18.34361581961842
 21
3.9924238276061
 31
0.0
  0
LINE
  5
1772A
  8
0
  6
CONTINUOUS
 10
19.76440170834832
 20
6.086728925416191
 30
0.0
 11
22.33924590259489
 21
8.661573119662755
 31
0.0
  0
LINE
  5
1772B
  8
0
  6
CONTINUOUS
 10
19.27479084494887
 20
4.923598852936555
 30
0.0
 11
21.84929622842713
 21
7.498104236414807
 31
0.0
  0
LINE
  5
1772C
  8
0
  6
CONTINUOUS
 10
17.55278269785445
 20
2.528071496761945
 30
0.0
 11
18.52764499068187
 21
3.502933789589366
 31
0.0
  0
LINE
  5
1772D
  8
0
  6
CONTINUOUS
 10
18.78517998154942
 20
3.760468780456919
 30
0.0
 11
21.35934655425936
 21
6.33463535316686
 31
0.0
  0
LINE
  5
1772E
  8
0
  6
CONTINUOUS
 10
17.73677272894739
 20
2.038542318774704
 30
0.0
 11
20.8693968800916
 21
5.171166469918914
 31
0.0
  0
LINE
  5
1772F
  8
0
  6
CONTINUOUS
 10
17.92076276004034
 20
1.549013140787464
 30
0.0
 11
20.37944720592384
 21
4.007697586670968
 31
0.0
  0
LINE
  5
17730
  8
0
  6
CONTINUOUS
 10
18.10475279113329
 20
1.059483962800223
 30
0.0
 11
19.88949753175608
 21
2.84422870342302
 31
0.0
  0
LINE
  5
17731
  8
0
  6
CONTINUOUS
 10
18.28874282222623
 20
0.5699547848129822
 30
0.0
 11
19.39954785758832
 21
1.680759820175074
 31
0.0
  0
LINE
  5
17732
  8
0
  6
CONTINUOUS
 10
18.47273285331918
 20
0.0804256068257416
 30
0.0
 11
18.90959818342056
 21
0.517290936927127
 31
0.0
  0
LINE
  5
17733
  8
0
  6
CONTINUOUS
 10
14.3590401358224
 20
-0.1570118376323384
 30
0.0
 11
14.24903296539946
 21
-0.0470046672093929
 31
0.0
  0
LINE
  5
17734
  8
0
  6
CONTINUOUS
 10
14.54309291258661
 20
0.332454594683643
 30
0.0
 11
13.75908329123172
 21
1.116464216038529
 31
0.0
  0
LINE
  5
17735
  8
0
  6
CONTINUOUS
 10
14.72714568935081
 20
0.8219210269996244
 30
0.0
 11
13.26913361706399
 21
2.27993309928645
 31
0.0
  0
LINE
  5
17736
  8
0
  6
CONTINUOUS
 10
14.91119846611502
 20
1.311387459315606
 30
0.0
 11
12.77918394289625
 21
3.443401982534371
 31
0.0
  0
LINE
  5
17737
  8
0
  6
CONTINUOUS
 10
15.09525124287922
 20
1.800853891631587
 30
0.0
 11
12.28923426872852
 21
4.606870865782293
 31
0.0
  0
LINE
  5
17738
  8
0
  6
CONTINUOUS
 10
15.27930401964343
 20
2.290320323947569
 30
0.0
 11
11.79928459456078
 21
5.770339749030213
 31
0.0
  0
LINE
  5
17739
  8
0
  6
CONTINUOUS
 10
15.46335679640763
 20
2.77978675626355
 30
0.0
 11
14.48885470994921
 21
3.754288842721972
 31
0.0
  0
LINE
  5
1773A
  8
0
  6
CONTINUOUS
 10
13.88507249233704
 20
4.358071060334137
 30
0.0
 11
11.30933492039305
 21
6.933808632278135
 31
0.0
  0
LINE
  5
1773B
  8
0
  6
CONTINUOUS
 10
18.75840522805855
 20
0.1582575336928151
 30
0.0
 11
18.25383727664818
 21
0.6628254851031863
 31
0.0
  0
LINE
  5
1773C
  8
0
  6
CONTINUOUS
 10
15.64740957317184
 20
3.269253188579531
 30
0.0
 11
14.67288388101266
 21
4.243778880738705
 31
0.0
  0
LINE
  5
1773D
  8
0
  6
CONTINUOUS
 10
13.39509276772158
 20
5.521569994029786
 30
0.0
 11
10.81938524622531
 21
8.097277515526056
 31
0.0
  0
LINE
  5
1773E
  8
0
  6
CONTINUOUS
 10
18.95798597883369
 20
0.6321959919978686
 30
0.0
 11
17.84825644852853
 21
1.741925522303024
 31
0.0
  0
LINE
  5
1773F
  8
0
  6
CONTINUOUS
 10
19.15756672960882
 20
1.106134450302922
 30
0.0
 11
17.44267562040888
 21
2.821025559502861
 31
0.0
  0
LINE
  5
17740
  8
0
  6
CONTINUOUS
 10
15.83146234993604
 20
3.758719620895513
 30
0.0
 11
14.85691305207612
 21
4.733268918755439
 31
0.0
  0
LINE
  5
17741
  8
0
  6
CONTINUOUS
 10
16.01551512670025
 20
4.248186053211494
 30
0.0
 11
15.04094222313957
 21
5.222758956772172
 31
0.0
  0
LINE
  5
17742
  8
0
  6
CONTINUOUS
 10
12.90511304310612
 20
6.685068927725435
 30
0.0
 11
10.8270819708403
 21
8.763099999991255
 31
0.0
  0
LINE
  5
17743
  8
0
  6
CONTINUOUS
 10
12.41513331849066
 20
7.848567861421083
 30
0.0
 11
11.50060117992049
 21
8.763099999991255
 31
0.0
  0
LINE
  5
17744
  8
0
  6
CONTINUOUS
 10
19.35714748038395
 20
1.580072908607975
 30
0.0
 11
17.03709479228923
 21
3.900125596702697
 31
0.0
  0
LINE
  5
17745
  8
0
  6
CONTINUOUS
 10
19.55672823115909
 20
2.054011366913028
 30
0.0
 11
16.63151396416958
 21
4.979225633902534
 31
0.0
  0
LINE
  5
17746
  8
0
  6
CONTINUOUS
 10
16.19956790346445
 20
4.737652485527476
 30
0.0
 11
15.22497139420302
 21
5.712248994788904
 31
0.0
  0
LINE
  5
17747
  8
0
  6
CONTINUOUS
 10
16.38362068022866
 20
5.227118917843457
 30
0.0
 11
15.40900056526648
 21
6.201739032805637
 31
0.0
  0
LINE
  5
17748
  8
0
  6
CONTINUOUS
 10
19.75630898193422
 20
2.527949825218081
 30
0.0
 11
18.70774536448286
 21
3.576513442669441
 31
0.0
  0
LINE
  5
17749
  8
0
  6
CONTINUOUS
 10
19.95588973270936
 20
3.001888283523134
 30
0.0
 11
18.90726987211446
 21
4.050508144118028
 31
0.0
  0
LINE
  5
1774A
  8
0
  6
CONTINUOUS
 10
20.15547048348449
 20
3.475826741828186
 30
0.0
 11
19.10679437974606
 21
4.524502845566614
 31
0.0
  0
LINE
  5
1774B
  8
0
  6
CONTINUOUS
 10
20.35505123425962
 20
3.94976520013324
 30
0.0
 11
19.30631888737766
 21
4.998497547015201
 31
0.0
  0
LINE
  5
1774C
  8
0
  6
CONTINUOUS
 10
20.55463198503475
 20
4.423703658438292
 30
0.0
 11
19.50584339500926
 21
5.472492248463787
 31
0.0
  0
LINE
  5
1774D
  8
0
  6
CONTINUOUS
 10
18.37481191085755
 20
3.909446896294752
 30
0.0
 11
15.59302973632993
 21
6.691229070822371
 31
0.0
  0
LINE
  5
1774E
  8
0
  6
CONTINUOUS
 10
17.96904084440766
 20
4.988737171824825
 30
0.0
 11
15.77705890739338
 21
7.180719108839104
 31
0.0
  0
LINE
  5
1774F
  8
0
  6
CONTINUOUS
 10
17.56326977795777
 20
6.068027447354899
 30
0.0
 11
15.96108807845684
 21
7.670209146855838
 31
0.0
  0
LINE
  5
17750
  8
0
  6
CONTINUOUS
 10
17.15749871150789
 20
7.147317722884972
 30
0.0
 11
16.14511724952029
 21
8.15969918487257
 31
0.0
  0
LINE
  5
17751
  8
0
  6
CONTINUOUS
 10
16.751727645058
 20
8.226607998415046
 30
0.0
 11
16.32914642058374
 21
8.649189222889303
 31
0.0
  0
LINE
  5
17752
  8
0
  6
CONTINUOUS
 10
20.75421273580989
 20
4.897642116743345
 30
0.0
 11
19.70536790264086
 21
5.946486949912374
 31
0.0
  0
LINE
  5
17753
  8
0
  6
CONTINUOUS
 10
20.95379348658502
 20
5.371580575048398
 30
0.0
 11
19.90489241027246
 21
6.42048165136096
 31
0.0
  0
LINE
  5
17754
  8
0
  6
CONTINUOUS
 10
21.15337423736015
 20
5.845519033353452
 30
0.0
 11
20.10441691790406
 21
6.894476352809547
 31
0.0
  0
LINE
  5
17755
  8
0
  6
CONTINUOUS
 10
21.35295498813529
 20
6.319457491658505
 30
0.0
 11
20.30394142553566
 21
7.368471054258134
 31
0.0
  0
LINE
  5
17756
  8
0
  6
CONTINUOUS
 10
21.55253573891042
 20
6.793395949963558
 30
0.0
 11
20.50346593316726
 21
7.842465755706721
 31
0.0
  0
LINE
  5
17757
  8
0
  6
CONTINUOUS
 10
21.75211648968556
 20
7.267334408268612
 30
0.0
 11
20.70299044079886
 21
8.316460457155308
 31
0.0
  0
LINE
  5
17758
  8
0
  6
CONTINUOUS
 10
21.95169724046069
 20
7.741272866573663
 30
0.0
 11
20.9298701070431
 21
8.763099999991256
 31
0.0
  0
LINE
  5
17759
  8
0
  6
CONTINUOUS
 10
22.15127799123582
 20
8.215211324878716
 30
0.0
 11
21.60338931612328
 21
8.763099999991256
 31
0.0
  0
LINE
  5
1775A
  8
0
  6
CONTINUOUS
 10
22.35085874201096
 20
8.689149783183769
 30
0.0
 11
22.27690852520347
 21
8.763099999991255
 31
0.0
  0
ENDBLK
  5
1784C
  8
0
  0
BLOCK
  8
0
  2
*X252
 70
     1
 10
0.0
 20
0.0
 30
0.0
  3
*X252
  1

  0
LINE
  5
1775C
  8
0
  6
CONTINUOUS
 10
23.19462913593892
 20
8.169917934846424
 30
0.0
 11
23.70775465517246
 21
8.683043454079957
 31
0.0
  0
LINE
  5
1775D
  8
0
  6
CONTINUOUS
 10
22.64923161835078
 20
6.951001208178088
 30
0.0
 11
23.9159364069932
 21
8.217705996820516
 31
0.0
  0
LINE
  5
1775E
  8
0
  6
CONTINUOUS
 10
22.10383410076263
 20
5.732084481509751
 30
0.0
 11
24.12411815881395
 21
7.752368539561078
 31
0.0
  0
LINE
  5
1775F
  8
0
  6
CONTINUOUS
 10
21.55843658317447
 20
4.513167754841414
 30
0.0
 11
24.3322999106347
 21
7.287031082301639
 31
0.0
  0
LINE
  5
17760
  8
0
  6
CONTINUOUS
 10
21.01303906558632
 20
3.294251028173077
 30
0.0
 11
24.54048166245544
 21
6.821693625042199
 31
0.0
  0
LINE
  5
17761
  8
0
  6
CONTINUOUS
 10
20.46764154799817
 20
2.075334301504738
 30
0.0
 11
23.28571549467848
 21
4.89340824818505
 31
0.0
  0
LINE
  5
17762
  8
0
  6
CONTINUOUS
 10
19.92224403041002
 20
0.8564175748364002
 30
0.0
 11
22.74075865492779
 21
3.674932199354171
 31
0.0
  0
LINE
  5
17763
  8
0
  6
CONTINUOUS
 10
23.67305085490148
 20
5.280743608408048
 30
0.0
 11
24.74866341427619
 21
6.356356167782759
 31
0.0
  0
LINE
  5
17764
  8
0
  6
CONTINUOUS
 10
23.88118970842314
 20
4.815363252849522
 30
0.0
 11
24.95684516609694
 21
5.89101871052332
 31
0.0
  0
LINE
  5
17765
  8
0
  6
CONTINUOUS
 10
19.73925852647308
 20
-0.0000871381807288
 30
0.0
 11
23.4103456646501
 21
3.670999999996297
 31
0.0
  0
LINE
  5
17766
  8
0
  6
CONTINUOUS
 10
24.0893285619448
 20
4.349982897290997
 30
0.0
 11
25.16502691791769
 21
5.42568125326388
 31
0.0
  0
LINE
  5
17767
  8
0
  6
CONTINUOUS
 10
20.41282099582748
 20
-0.0000438779065108
 30
0.0
 11
21.64944178675636
 21
1.236576913022366
 31
0.0
  0
LINE
  5
17768
  8
0
  6
CONTINUOUS
 10
22.78126487373161
 20
2.36839999999762
 30
0.0
 11
24.08386487373029
 21
3.670999999996297
 31
0.0
  0
LINE
  5
17769
  8
0
  6
CONTINUOUS
 10
24.29746741546646
 20
3.884602541732471
 30
0.0
 11
25.37320866973843
 21
4.960343796004441
 31
0.0
  0
LINE
  5
1776A
  8
0
  6
CONTINUOUS
 10
21.08638346518189
 20
-0.0000006176322938
 30
0.0
 11
21.10379033335899
 21
0.0174062505448083
 31
0.0
  0
LINE
  5
1776B
  8
0
  6
CONTINUOUS
 10
23.4547840828118
 20
2.36839999999762
 30
0.0
 11
25.58139042155918
 21
4.495006338745002
 31
0.0
  0
LINE
  5
1776C
  8
0
  6
CONTINUOUS
 10
29.30199999996933
 20
8.215615917155148
 30
0.0
 11
29.84948408280543
 21
8.763099999991255
 31
0.0
  0
LINE
  5
1776D
  8
0
  6
CONTINUOUS
 10
24.12830329189199
 20
2.36839999999762
 30
0.0
 11
25.78957217337993
 21
4.029668881485562
 31
0.0
  0
LINE
  5
1776E
  8
0
  6
CONTINUOUS
 10
29.30199999996933
 20
7.54209670807496
 30
0.0
 11
30.52300329188562
 21
8.763099999991255
 31
0.0
  0
LINE
  5
1776F
  8
0
  6
CONTINUOUS
 10
24.80182250097217
 20
2.36839999999762
 30
0.0
 11
25.99775392520067
 21
3.564331424226122
 31
0.0
  0
LINE
  5
17770
  8
0
  6
CONTINUOUS
 10
29.30199999996933
 20
6.868577498994774
 30
0.0
 11
30.74199999996926
 21
8.308577498994712
 31
0.0
  0
LINE
  5
17771
  8
0
  6
CONTINUOUS
 10
25.13028238392013
 20
2.023340673865392
 30
0.0
 11
26.20593567702142
 21
3.098993966966683
 31
0.0
  0
LINE
  5
17772
  8
0
  6
CONTINUOUS
 10
25.33838066033617
 20
1.557919741201244
 30
0.0
 11
26.41411742884217
 21
2.633656509707244
 31
0.0
  0
LINE
  5
17773
  8
0
  6
CONTINUOUS
 10
25.54647893675221
 20
1.092498808537098
 30
0.0
 11
26.62229918066291
 21
2.168319052447804
 31
0.0
  0
LINE
  5
17774
  8
0
  6
CONTINUOUS
 10
25.75457721316825
 20
0.62707787587295
 30
0.0
 11
26.83048093248366
 21
1.702981595188365
 31
0.0
  0
LINE
  5
17775
  8
0
  6
CONTINUOUS
 10
29.30199999996933
 20
6.195058289914587
 30
0.0
 11
30.74199999996926
 21
7.635058289914522
 31
0.0
  0
LINE
  5
17776
  8
0
  6
CONTINUOUS
 10
29.30199999996933
 20
5.521539080834401
 30
0.0
 11
30.74199999996926
 21
6.961539080834331
 31
0.0
  0
LINE
  5
17777
  8
0
  6
CONTINUOUS
 10
29.30199999996933
 20
4.848019871754214
 30
0.0
 11
30.74199999996925
 21
6.288019871754143
 31
0.0
  0
LINE
  5
17778
  8
0
  6
CONTINUOUS
 10
29.30199999996933
 20
4.174500662674028
 30
0.0
 11
30.74199999996925
 21
5.614500662673953
 31
0.0
  0
LINE
  5
17779
  8
0
  6
CONTINUOUS
 10
25.96267548958429
 20
0.1616569432088024
 30
0.0
 11
27.18411854636669
 21
1.383099999991207
 31
0.0
  0
LINE
  5
1777A
  8
0
  6
CONTINUOUS
 10
29.30199999996933
 20
3.500981453593841
 30
0.0
 11
30.74199999996925
 21
4.940981453593762
 31
0.0
  0
LINE
  5
1777B
  8
0
  6
CONTINUOUS
 10
26.50763775544691
 20
0.0330999999912356
 30
0.0
 11
27.85763775544689
 21
1.383099999991223
 31
0.0
  0
LINE
  5
1777C
  8
0
  6
CONTINUOUS
 10
29.30199999996933
 20
2.827462244513656
 30
0.0
 11
30.74199999996925
 21
4.267462244513574
 31
0.0
  0
LINE
  5
1777D
  8
0
  6
CONTINUOUS
 10
27.18115696452709
 20
0.0330999999912356
 30
0.0
 11
28.6224847300034
 21
1.474427765467545
 31
0.0
  0
LINE
  5
1777E
  8
0
  6
CONTINUOUS
 10
29.21067223449293
 20
2.062615269957069
 30
0.0
 11
30.74199999996924
 21
3.593943035433383
 31
0.0
  0
LINE
  5
1777F
  8
0
  6
CONTINUOUS
 10
27.85467617360728
 20
0.0330999999912356
 30
0.0
 11
30.74199999996924
 21
2.920423826353195
 31
0.0
  0
LINE
  5
17780
  8
0
  6
CONTINUOUS
 10
28.57438609860264
 20
0.0792907159064073
 30
0.0
 11
30.69580928405405
 21
2.200713901357819
 31
0.0
  0
LINE
  5
17781
  8
0
  6
CONTINUOUS
 10
29.49443044814297
 20
0.3258158563665496
 30
0.0
 11
30.44928414359389
 21
1.280669551817477
 31
0.0
  0
LINE
  5
17782
  8
0
  6
CONTINUOUS
 10
19.59027867740337
 20
-0.0000967065718083
 30
0.0
 11
19.55485265190471
 21
0.035329318926844
 31
0.0
  0
LINE
  5
17783
  8
0
  6
CONTINUOUS
 10
20.26375463176586
 20
-0.0000534518541091
 30
0.0
 11
19.76305575737534
 21
0.5006454225364014
 31
0.0
  0
LINE
  5
17784
  8
0
  6
CONTINUOUS
 10
20.93723058612834
 20
-0.0000101971364099
 30
0.0
 11
19.97125886284597
 21
0.965961526145958
 31
0.0
  0
LINE
  5
17785
  8
0
  6
CONTINUOUS
 10
21.25514828313686
 20
0.355591314935257
 30
0.0
 11
20.1794619683166
 21
1.431277629755512
 31
0.0
  0
LINE
  5
17786
  8
0
  6
CONTINUOUS
 10
21.46338838394921
 20
0.8208704232030986
 30
0.0
 11
20.38766507378723
 21
1.896593733365069
 31
0.0
  0
LINE
  5
17787
  8
0
  6
CONTINUOUS
 10
21.67162848476155
 20
1.28614953147094
 30
0.0
 11
20.59586817925786
 21
2.361909836974626
 31
0.0
  0
LINE
  5
17788
  8
0
  6
CONTINUOUS
 10
21.8798685855739
 20
1.751428639738782
 30
0.0
 11
20.80407128472849
 21
2.827225940584183
 31
0.0
  0
LINE
  5
17789
  8
0
  6
CONTINUOUS
 10
22.08810868638624
 20
2.216707748006623
 30
0.0
 11
21.01227439019912
 21
3.292542044193739
 31
0.0
  0
LINE
  5
1778A
  8
0
  6
CONTINUOUS
 10
22.60993564347543
 20
2.36839999999762
 30
0.0
 11
21.22047749566975
 21
3.757858147803296
 31
0.0
  0
LINE
  5
1778B
  8
0
  6
CONTINUOUS
 10
23.28345485255561
 20
2.36839999999762
 30
0.0
 11
21.42868060114038
 21
4.223174251412853
 31
0.0
  0
LINE
  5
1778C
  8
0
  6
CONTINUOUS
 10
26.29227406164219
 20
0.0330999999912356
 30
0.0
 11
25.80009199592872
 21
0.5252820657046957
 31
0.0
  0
LINE
  5
1778D
  8
0
  6
CONTINUOUS
 10
23.9569740616358
 20
2.36839999999762
 30
0.0
 11
21.63688370661101
 21
4.688490355022409
 31
0.0
  0
LINE
  5
1778E
  8
0
  6
CONTINUOUS
 10
26.96579327072237
 20
0.0330999999912356
 30
0.0
 11
25.2554132311971
 21
1.743480039516508
 31
0.0
  0
LINE
  5
1778F
  8
0
  6
CONTINUOUS
 10
24.63049327071599
 20
2.36839999999762
 30
0.0
 11
23.32789327071731
 21
3.670999999996297
 31
0.0
  0
LINE
  5
17790
  8
0
  6
CONTINUOUS
 10
22.92098674744635
 20
4.077906523267254
 30
0.0
 11
21.84508681208164
 21
5.153806458631966
 31
0.0
  0
LINE
  5
17791
  8
0
  6
CONTINUOUS
 10
27.63931247980256
 20
0.0330999999912356
 30
0.0
 11
24.0014124797975
 21
3.670999999996297
 31
0.0
  0
LINE
  5
17792
  8
0
  6
CONTINUOUS
 10
23.129125600968
 20
4.5432868788258
 30
0.0
 11
22.05328991755227
 21
5.619122562241522
 31
0.0
  0
LINE
  5
17793
  8
0
  6
CONTINUOUS
 10
28.31283168888275
 20
0.0330999999912356
 30
0.0
 11
24.16488385994816
 21
4.181047828925828
 31
0.0
  0
LINE
  5
17794
  8
0
  6
CONTINUOUS
 10
23.33726445448964
 20
5.008667234384345
 30
0.0
 11
22.2614930230229
 21
6.084438665851079
 31
0.0
  0
LINE
  5
17795
  8
0
  6
CONTINUOUS
 10
28.86286302309502
 20
0.1565878748591523
 30
0.0
 11
27.63635089796295
 21
1.383099999991217
 31
0.0
  0
LINE
  5
17796
  8
0
  6
CONTINUOUS
 10
26.43704649509776
 20
2.582404402856405
 30
0.0
 11
23.61992702019732
 21
5.399523877756844
 31
0.0
  0
LINE
  5
17797
  8
0
  6
CONTINUOUS
 10
23.54540330801128
 20
5.47404758994289
 30
0.0
 11
22.46969612849353
 21
6.549754769460635
 31
0.0
  0
LINE
  5
17798
  8
0
  6
CONTINUOUS
 10
29.39405087596853
 20
0.2989192310658284
 30
0.0
 11
28.30987010704312
 21
1.383099999991234
 31
0.0
  0
LINE
  5
17799
  8
0
  6
CONTINUOUS
 10
25.89179548232307
 20
3.801174624711282
 30
0.0
 11
22.67789923396416
 21
7.015070873070191
 31
0.0
  0
LINE
  5
1779A
  8
0
  6
CONTINUOUS
 10
29.79594438047407
 20
0.570544935640473
 30
0.0
 11
28.81310432793121
 21
1.553384988183336
 31
0.0
  0
LINE
  5
1779B
  8
0
  6
CONTINUOUS
 10
25.34654446954838
 20
5.01994484656616
 30
0.0
 11
22.88610233943479
 21
7.480386976679748
 31
0.0
  0
LINE
  5
1779C
  8
0
  6
CONTINUOUS
 10
30.13270398501416
 20
0.9073045401805646
 30
0.0
 11
29.14234640337737
 21
1.897662121817355
 31
0.0
  0
LINE
  5
1779D
  8
0
  6
CONTINUOUS
 10
24.80129345677369
 20
6.238715068421037
 30
0.0
 11
23.09430544490542
 21
7.945703080289305
 31
0.0
  0
LINE
  5
1779E
  8
0
  6
CONTINUOUS
 10
30.44581292956759
 20
1.26771480470732
 30
0.0
 11
29.30199999996933
 21
2.411527734305588
 31
0.0
  0
LINE
  5
1779F
  8
0
  6
CONTINUOUS
 10
30.58814428577427
 20
1.798902657580827
 30
0.0
 11
29.30199999996933
 21
3.085046943385775
 31
0.0
  0
LINE
  5
177A0
  8
0
  6
CONTINUOUS
 10
24.256042443999
 20
7.457485290275915
 30
0.0
 11
23.30250855037605
 21
8.411019183898862
 31
0.0
  0
LINE
  5
177A1
  8
0
  6
CONTINUOUS
 10
23.71079143122431
 20
8.676255512130794
 30
0.0
 11
23.51071165584668
 21
8.876335287508418
 31
0.0
  0
LINE
  5
177A2
  8
0
  6
CONTINUOUS
 10
30.73047564198095
 20
2.330090510454333
 30
0.0
 11
29.30199999996933
 21
3.758566152465961
 31
0.0
  0
LINE
  5
177A3
  8
0
  6
CONTINUOUS
 10
30.74199999996924
 20
2.992085361546236
 30
0.0
 11
29.30199999996933
 21
4.432085361546148
 31
0.0
  0
LINE
  5
177A4
  8
0
  6
CONTINUOUS
 10
30.74199999996924
 20
3.665604570626419
 30
0.0
 11
29.30199999996933
 21
5.105604570626333
 31
0.0
  0
LINE
  5
177A5
  8
0
  6
CONTINUOUS
 10
30.74199999996925
 20
4.339123779706602
 30
0.0
 11
29.30199999996933
 21
5.77912377970652
 31
0.0
  0
LINE
  5
177A6
  8
0
  6
CONTINUOUS
 10
30.74199999996925
 20
5.012642988786785
 30
0.0
 11
29.30199999996933
 21
6.452642988786707
 31
0.0
  0
LINE
  5
177A7
  8
0
  6
CONTINUOUS
 10
30.74199999996925
 20
5.68616219786697
 30
0.0
 11
29.30199999996933
 21
7.126162197866894
 31
0.0
  0
LINE
  5
177A8
  8
0
  6
CONTINUOUS
 10
30.74199999996925
 20
6.359681406947153
 30
0.0
 11
29.30199999996933
 21
7.799681406947081
 31
0.0
  0
LINE
  5
177A9
  8
0
  6
CONTINUOUS
 10
30.74199999996926
 20
7.033200616027337
 30
0.0
 11
29.30199999996933
 21
8.473200616027269
 31
0.0
  0
LINE
  5
177AA
  8
0
  6
CONTINUOUS
 10
30.74199999996926
 20
7.706719825107518
 30
0.0
 11
29.68561982508552
 21
8.763099999991255
 31
0.0
  0
LINE
  5
177AB
  8
0
  6
CONTINUOUS
 10
30.74199999996926
 20
8.380239034187703
 30
0.0
 11
30.35913903416571
 21
8.763099999991255
 31
0.0
  0
ENDBLK
  5
1784E
  8
0
  0
BLOCK
  8
0
  2
*X253
 70
     1
 10
0.0
 20
0.0
 30
0.0
  3
*X253
  1

  0
LINE
  5
177AD
  8
0
  6
CONTINUOUS
 10
31.64199999996833
 20
8.5350582899136
 30
0.0
 11
31.87004171004599
 21
8.763099999991255
 31
0.0
  0
LINE
  5
177AE
  8
0
  6
CONTINUOUS
 10
31.64199999996833
 20
7.861539080833413
 30
0.0
 11
32.54356091912618
 21
8.763099999991255
 31
0.0
  0
LINE
  5
177AF
  8
0
  6
CONTINUOUS
 10
31.64199999996833
 20
7.188019871753227
 30
0.0
 11
33.08199999996839
 21
8.628019871753281
 31
0.0
  0
LINE
  5
177B0
  8
0
  6
CONTINUOUS
 10
31.64199999996833
 20
6.514500662673041
 30
0.0
 11
33.08199999996839
 21
7.954500662673095
 31
0.0
  0
LINE
  5
177B1
  8
0
  6
CONTINUOUS
 10
31.64199999996833
 20
5.840981453592855
 30
0.0
 11
33.08199999996839
 21
7.28098145359291
 31
0.0
  0
LINE
  5
177B2
  8
0
  6
CONTINUOUS
 10
31.64199999996833
 20
5.167462244512668
 30
0.0
 11
33.08199999996839
 21
6.607462244512723
 31
0.0
  0
LINE
  5
177B3
  8
0
  6
CONTINUOUS
 10
31.64199999996833
 20
4.493943035432482
 30
0.0
 11
33.08199999996839
 21
5.933943035432536
 31
0.0
  0
LINE
  5
177B4
  8
0
  6
CONTINUOUS
 10
31.64199999996833
 20
3.820423826352294
 30
0.0
 11
33.08199999996839
 21
5.260423826352349
 31
0.0
  0
LINE
  5
177B5
  8
0
  6
CONTINUOUS
 10
31.64199999996833
 20
3.146904617272108
 30
0.0
 11
33.08199999996839
 21
4.586904617272163
 31
0.0
  0
LINE
  5
177B6
  8
0
  6
CONTINUOUS
 10
36.23199999996837
 20
8.410423826352327
 30
0.0
 11
36.58467617360729
 21
8.763099999991255
 31
0.0
  0
LINE
  5
177B7
  8
0
  6
CONTINUOUS
 10
36.23199999996837
 20
7.73690461727214
 30
0.0
 11
37.25819538268748
 21
8.763099999991255
 31
0.0
  0
LINE
  5
177B8
  8
0
  6
CONTINUOUS
 10
31.64323424774199
 20
2.474619655965573
 30
0.0
 11
33.08199999996839
 21
3.913385408191976
 31
0.0
  0
LINE
  5
177B9
  8
0
  6
CONTINUOUS
 10
31.74419223861915
 20
1.902058437762552
 30
0.0
 11
33.08199999996839
 21
3.239866199111789
 31
0.0
  0
LINE
  5
177BA
  8
0
  6
CONTINUOUS
 10
36.23199999996837
 20
7.063385408191953
 30
0.0
 11
37.67199999996831
 21
8.503385408191894
 31
0.0
  0
LINE
  5
177BB
  8
0
  6
CONTINUOUS
 10
36.23199999996837
 20
6.389866199111767
 30
0.0
 11
37.67199999996831
 21
7.829866199111708
 31
0.0
  0
LINE
  5
177BC
  8
0
  6
CONTINUOUS
 10
31.91111233414976
 20
1.39545932421297
 30
0.0
 11
33.08199999996839
 21
2.566346990031603
 31
0.0
  0
LINE
  5
177BD
  8
0
  6
CONTINUOUS
 10
36.23199999996837
 20
5.71634699003158
 30
0.0
 11
37.67199999996831
 21
7.156346990031522
 31
0.0
  0
LINE
  5
177BE
  8
0
  6
CONTINUOUS
 10
32.1576374746103
 20
0.9684652555933289
 30
0.0
 11
33.20642631446081
 21
2.017254095443838
 31
0.0
  0
LINE
  5
177BF
  8
0
  6
CONTINUOUS
 10
36.23199999996837
 20
5.042827780951393
 30
0.0
 11
37.67199999996831
 21
6.482827780951334
 31
0.0
  0
LINE
  5
177C0
  8
0
  6
CONTINUOUS
 10
32.47774023927325
 20
0.6150488111760914
 30
0.0
 11
33.49903056428258
 21
1.636339136185419
 31
0.0
  0
LINE
  5
177C1
  8
0
  6
CONTINUOUS
 10
36.23199999996837
 20
4.369308571871207
 30
0.0
 11
37.67199999996831
 21
5.809308571871148
 31
0.0
  0
LINE
  5
177C2
  8
0
  6
CONTINUOUS
 10
32.84396249154443
 20
0.3077518543670883
 30
0.0
 11
33.93324121824649
 21
1.397030581069146
 31
0.0
  0
LINE
  5
177C3
  8
0
  6
CONTINUOUS
 10
36.23199999996837
 20
3.695789362791021
 30
0.0
 11
37.67199999996831
 21
5.135789362790963
 31
0.0
  0
LINE
  5
177C4
  8
0
  6
CONTINUOUS
 10
33.30186329036846
 20
0.0921334441109263
 30
0.0
 11
34.46442907112041
 21
1.254699224862875
 31
0.0
  0
LINE
  5
177C5
  8
0
  6
CONTINUOUS
 10
36.23199999996837
 20
3.022270153710834
 30
0.0
 11
37.67199999996831
 21
4.462270153710776
 31
0.0
  0
LINE
  5
177C6
  8
0
  6
CONTINUOUS
 10
33.79565647746294
 20
-0.0875925778747773
 30
0.0
 11
35.24350171668284
 21
1.360252661345124
 31
0.0
  0
LINE
  5
177C7
  8
0
  6
CONTINUOUS
 10
36.18336676155003
 20
2.300117706212308
 30
0.0
 11
37.67199999996831
 21
3.788750944630589
 31
0.0
  0
LINE
  5
177C8
  8
0
  6
CONTINUOUS
 10
34.37182574910968
 20
-0.184942515308224
 30
0.0
 11
37.67199999996831
 21
3.115231735550402
 31
0.0
  0
LINE
  5
177C9
  8
0
  6
CONTINUOUS
 10
35.0453449581892
 20
-0.1849425153088955
 30
0.0
 11
37.66345697088136
 21
2.433169497383271
 31
0.0
  0
LINE
  5
177CA
  8
0
  6
CONTINUOUS
 10
35.98667157609191
 20
0.0828648935136398
 30
0.0
 11
37.51927401744566
 21
1.615467334867382
 31
0.0
  0
LINE
  5
177CB
  8
0
  6
CONTINUOUS
 10
32.27747408544484
 20
0.7830920669904482
 30
0.0
 11
32.24716210471949
 21
0.8134040477157893
 31
0.0
  0
LINE
  5
177CC
  8
0
  6
CONTINUOUS
 10
33.83656881101902
 20
-0.1024834495035494
 30
0.0
 11
31.72538911593758
 21
2.008696245577891
 31
0.0
  0
LINE
  5
177CD
  8
0
  6
CONTINUOUS
 10
34.5925470859041
 20
-0.1849425153084434
 30
0.0
 11
31.64199999996833
 21
2.765604570627322
 31
0.0
  0
LINE
  5
177CE
  8
0
  6
CONTINUOUS
 10
35.26201302775981
 20
-0.1808892480839752
 30
0.0
 11
31.64199999996833
 21
3.439123779707508
 31
0.0
  0
LINE
  5
177CF
  8
0
  6
CONTINUOUS
 10
35.75580621485512
 20
-0.0011632260990879
 30
0.0
 11
34.51294304365551
 21
1.241699945100514
 31
0.0
  0
LINE
  5
177D0
  8
0
  6
CONTINUOUS
 10
33.08199999996839
 20
2.672642988787641
 30
0.0
 11
31.64199999996833
 21
4.112642988787695
 31
0.0
  0
LINE
  5
177D1
  8
0
  6
CONTINUOUS
 10
36.24959940195042
 20
0.1785627958857976
 30
0.0
 11
35.10501653033629
 21
1.323145667499924
 31
0.0
  0
LINE
  5
177D2
  8
0
  6
CONTINUOUS
 10
33.08199999996839
 20
3.346162197867827
 30
0.0
 11
31.64199999996833
 21
4.786162197867881
 31
0.0
  0
LINE
  5
177D3
  8
0
  6
CONTINUOUS
 10
36.64615197150552
 20
0.4555294354108876
 30
0.0
 11
35.6362043832099
 21
1.465477023706505
 31
0.0
  0
LINE
  5
177D4
  8
0
  6
CONTINUOUS
 10
33.08199999996839
 20
4.019681406948013
 30
0.0
 11
31.64199999996833
 21
5.459681406948068
 31
0.0
  0
LINE
  5
177D5
  8
0
  6
CONTINUOUS
 10
37.0123742237774
 20
0.7628263922191891
 30
0.0
 11
35.97691545773309
 21
1.798285158263504
 31
0.0
  0
LINE
  5
177D6
  8
0
  6
CONTINUOUS
 10
33.08199999996839
 20
4.6932006160282
 30
0.0
 11
31.64199999996833
 21
6.133200616028255
 31
0.0
  0
LINE
  5
177D7
  8
0
  6
CONTINUOUS
 10
37.27491524157143
 20
1.173804583505349
 30
0.0
 11
36.17602012811361
 21
2.272699696963169
 31
0.0
  0
LINE
  5
177D8
  8
0
  6
CONTINUOUS
 10
33.08199999996839
 20
5.366719825108387
 30
0.0
 11
31.64199999996833
 21
6.806719825108441
 31
0.0
  0
LINE
  5
177D9
  8
0
  6
CONTINUOUS
 10
37.51739996707661
 20
1.604839067080355
 30
0.0
 11
36.23199999996837
 21
2.890239034188595
 31
0.0
  0
LINE
  5
177DA
  8
0
  6
CONTINUOUS
 10
37.6183579579535
 20
2.177400285283649
 30
0.0
 11
36.23199999996837
 21
3.563758243268782
 31
0.0
  0
LINE
  5
177DB
  8
0
  6
CONTINUOUS
 10
33.08199999996839
 20
6.040239034188573
 30
0.0
 11
31.64199999996833
 21
7.480239034188628
 31
0.0
  0
LINE
  5
177DC
  8
0
  6
CONTINUOUS
 10
33.08199999996839
 20
6.713758243268759
 30
0.0
 11
31.64199999996833
 21
8.153758243268815
 31
0.0
  0
LINE
  5
177DD
  8
0
  6
CONTINUOUS
 10
37.67199999996831
 20
2.797277452349027
 30
0.0
 11
36.23199999996837
 21
4.237277452348969
 31
0.0
  0
LINE
  5
177DE
  8
0
  6
CONTINUOUS
 10
37.67199999996831
 20
3.470796661429214
 30
0.0
 11
36.23199999996837
 21
4.910796661429155
 31
0.0
  0
LINE
  5
177DF
  8
0
  6
CONTINUOUS
 10
37.67199999996831
 20
4.1443158705094
 30
0.0
 11
36.23199999996837
 21
5.584315870509341
 31
0.0
  0
LINE
  5
177E0
  8
0
  6
CONTINUOUS
 10
33.08199999996839
 20
7.387277452348946
 30
0.0
 11
31.70617745232608
 21
8.763099999991255
 31
0.0
  0
LINE
  5
177E1
  8
0
  6
CONTINUOUS
 10
33.08199999996839
 20
8.060796661429134
 30
0.0
 11
32.37969666140626
 21
8.763099999991255
 31
0.0
  0
LINE
  5
177E2
  8
0
  6
CONTINUOUS
 10
33.08199999996839
 20
8.734315870509318
 30
0.0
 11
33.05321587048645
 21
8.763099999991255
 31
0.0
  0
LINE
  5
177E3
  8
0
  6
CONTINUOUS
 10
37.67199999996831
 20
4.817835079589586
 30
0.0
 11
36.23199999996837
 21
6.257835079589528
 31
0.0
  0
LINE
  5
177E4
  8
0
  6
CONTINUOUS
 10
37.67199999996831
 20
5.491354288669772
 30
0.0
 11
36.23199999996837
 21
6.931354288669715
 31
0.0
  0
LINE
  5
177E5
  8
0
  6
CONTINUOUS
 10
37.67199999996831
 20
6.164873497749959
 30
0.0
 11
36.23199999996837
 21
7.6048734977499
 31
0.0
  0
LINE
  5
177E6
  8
0
  6
CONTINUOUS
 10
37.67199999996831
 20
6.838392706830145
 30
0.0
 11
36.23199999996837
 21
8.278392706830086
 31
0.0
  0
LINE
  5
177E7
  8
0
  6
CONTINUOUS
 10
37.67199999996831
 20
7.511911915910333
 30
0.0
 11
36.42081191588738
 21
8.763099999991255
 31
0.0
  0
LINE
  5
177E8
  8
0
  6
CONTINUOUS
 10
37.67199999996831
 20
8.185431124990519
 30
0.0
 11
37.09433112496757
 21
8.763099999991255
 31
0.0
  0
ENDBLK
  5
17850
  8
0
  0
BLOCK
  8
0
  2
*X254
 70
     1
 10
0.0
 20
0.0
 30
0.0
  3
*X254
  1

  0
LINE
  5
177EA
  8
0
  6
CONTINUOUS
 10
38.60499999996136
 20
8.762866199104765
 30
0.0
 11
38.71672554182345
 21
8.874591740966855
 31
0.0
  0
LINE
  5
177EB
  8
0
  6
CONTINUOUS
 10
38.60499999996136
 20
8.089346990024577
 30
0.0
 11
39.03418785440363
 21
8.518534844466847
 31
0.0
  0
LINE
  5
177EC
  8
0
  6
CONTINUOUS
 10
38.60499999996136
 20
7.41582778094439
 30
0.0
 11
39.35165016698382
 21
8.16247794796684
 31
0.0
  0
LINE
  5
177ED
  8
0
  6
CONTINUOUS
 10
38.60499999996136
 20
6.742308571864204
 30
0.0
 11
39.66911247956399
 21
7.806421051466834
 31
0.0
  0
LINE
  5
177EE
  8
0
  6
CONTINUOUS
 10
38.60499999996136
 20
6.068789362784018
 30
0.0
 11
39.98657479214418
 21
7.450364154966827
 31
0.0
  0
LINE
  5
177EF
  8
0
  6
CONTINUOUS
 10
38.60499999996136
 20
5.395270153703832
 30
0.0
 11
40.30403710472435
 21
7.09430725846682
 31
0.0
  0
LINE
  5
177F0
  8
0
  6
CONTINUOUS
 10
38.60499999996136
 20
4.721750944623645
 30
0.0
 11
40.62149941730453
 21
6.738250361966813
 31
0.0
  0
LINE
  5
177F1
  8
0
  6
CONTINUOUS
 10
38.60499999996136
 20
4.048231735543458
 30
0.0
 11
40.93896172988471
 21
6.382193465466806
 31
0.0
  0
LINE
  5
177F2
  8
0
  6
CONTINUOUS
 10
38.60499999996136
 20
3.374712526463272
 30
0.0
 11
40.02599999995994
 21
4.795712526461843
 31
0.0
  0
LINE
  5
177F3
  8
0
  6
CONTINUOUS
 10
38.60499999996136
 20
2.701193317383085
 30
0.0
 11
40.02599999995994
 21
4.122193317381657
 31
0.0
  0
LINE
  5
177F4
  8
0
  6
CONTINUOUS
 10
40.28339754687704
 20
5.053110073378947
 30
0.0
 11
41.25642404246489
 21
6.026136568966799
 31
0.0
  0
LINE
  5
177F5
  8
0
  6
CONTINUOUS
 10
40.60085985945722
 20
4.697053176878939
 30
0.0
 11
41.57388635504507
 21
5.670079672466793
 31
0.0
  0
LINE
  5
177F6
  8
0
  6
CONTINUOUS
 10
43.57899999995641
 20
8.348712526458318
 30
0.0
 11
43.99338747348935
 21
8.763099999991255
 31
0.0
  0
LINE
  5
177F7
  8
0
  6
CONTINUOUS
 10
43.57899999995641
 20
7.675193317378131
 30
0.0
 11
44.66690668256953
 21
8.763099999991255
 31
0.0
  0
LINE
  5
177F8
  8
0
  6
CONTINUOUS
 10
38.60499999996136
 20
2.027674108302898
 30
0.0
 11
40.02599999995994
 21
3.44867410830147
 31
0.0
  0
LINE
  5
177F9
  8
0
  6
CONTINUOUS
 10
38.60499999996136
 20
1.354154899222712
 30
0.0
 11
40.02599999995994
 21
2.775154899221284
 31
0.0
  0
LINE
  5
177FA
  8
0
  6
CONTINUOUS
 10
38.60499999996136
 20
0.6806356901425255
 30
0.0
 11
40.02599999995994
 21
2.101635690141098
 31
0.0
  0
LINE
  5
177FB
  8
0
  6
CONTINUOUS
 10
38.60499999996136
 20
0.0071164810623383
 30
0.0
 11
40.02599999995994
 21
1.428116481060911
 31
0.0
  0
LINE
  5
177FC
  8
0
  6
CONTINUOUS
 10
40.9183221720374
 20
4.340996280378933
 30
0.0
 11
41.89134866762525
 21
5.314022775966786
 31
0.0
  0
LINE
  5
177FD
  8
0
  6
CONTINUOUS
 10
41.23578448461758
 20
3.984939383878926
 30
0.0
 11
42.20881098020543
 21
4.957965879466778
 31
0.0
  0
LINE
  5
177FE
  8
0
  6
CONTINUOUS
 10
41.55324679719776
 20
3.628882487378919
 30
0.0
 11
42.52627329278561
 21
4.601908982966772
 31
0.0
  0
LINE
  5
177FF
  8
0
  6
CONTINUOUS
 10
41.87070910977793
 20
3.272825590878912
 30
0.0
 11
42.84373560536579
 21
4.245852086466765
 31
0.0
  0
LINE
  5
17800
  8
0
  6
CONTINUOUS
 10
43.57899999995641
 20
7.001674108297943
 30
0.0
 11
44.99999999995498
 21
8.422674108296516
 31
0.0
  0
LINE
  5
17801
  8
0
  6
CONTINUOUS
 10
43.57899999995641
 20
6.328154899217758
 30
0.0
 11
44.99999999995498
 21
7.749154899216329
 31
0.0
  0
LINE
  5
17802
  8
0
  6
CONTINUOUS
 10
43.57899999995641
 20
5.654635690137571
 30
0.0
 11
44.99999999995498
 21
7.075635690136142
 31
0.0
  0
LINE
  5
17803
  8
0
  6
CONTINUOUS
 10
43.57899999995641
 20
4.981116481057384
 30
0.0
 11
44.99999999995498
 21
6.402116481055955
 31
0.0
  0
LINE
  5
17804
  8
0
  6
CONTINUOUS
 10
39.27140272797921
 20
-0.0000000000000009
 30
0.0
 11
40.02599999995994
 21
0.7545972719807246
 31
0.0
  0
LINE
  5
17805
  8
0
  6
CONTINUOUS
 10
39.9449219370594
 20
-0.0000000000000009
 30
0.0
 11
40.02599999995994
 21
0.0810780629005379
 31
0.0
  0
LINE
  5
17806
  8
0
  6
CONTINUOUS
 10
42.18817142235812
 20
2.916768694378905
 30
0.0
 11
43.16119791794597
 21
3.889795189966758
 31
0.0
  0
LINE
  5
17807
  8
0
  6
CONTINUOUS
 10
42.50563373493829
 20
2.560711797878898
 30
0.0
 11
43.47866023052615
 21
3.533738293466751
 31
0.0
  0
LINE
  5
17808
  8
0
  6
CONTINUOUS
 10
43.57899999995641
 20
4.307597271977198
 30
0.0
 11
44.99999999995498
 21
5.728597271975769
 31
0.0
  0
LINE
  5
17809
  8
0
  6
CONTINUOUS
 10
43.57899999995641
 20
3.634078062897011
 30
0.0
 11
44.99999999995498
 21
5.055078062895582
 31
0.0
  0
LINE
  5
1780A
  8
0
  6
CONTINUOUS
 10
42.82309604751848
 20
2.204654901378891
 30
0.0
 11
44.99999999995498
 21
4.381558853815395
 31
0.0
  0
LINE
  5
1780B
  8
0
  6
CONTINUOUS
 10
43.14055836009865
 20
1.848598004878885
 30
0.0
 11
44.99999999995498
 21
3.70803964473521
 31
0.0
  0
LINE
  5
1780C
  8
0
  6
CONTINUOUS
 10
43.45802067267883
 20
1.492541108378878
 30
0.0
 11
44.99999999995498
 21
3.034520435655023
 31
0.0
  0
LINE
  5
1780D
  8
0
  6
CONTINUOUS
 10
43.77548298525902
 20
1.136484211878871
 30
0.0
 11
44.99999999995498
 21
2.361001226574837
 31
0.0
  0
LINE
  5
1780E
  8
0
  6
CONTINUOUS
 10
44.09294529783919
 20
0.7804273153788639
 30
0.0
 11
44.99999999995498
 21
1.687482017494649
 31
0.0
  0
LINE
  5
1780F
  8
0
  6
CONTINUOUS
 10
44.41040761041938
 20
0.4243704188788566
 30
0.0
 11
44.99999999995498
 21
1.013962808414463
 31
0.0
  0
LINE
  5
17810
  8
0
  6
CONTINUOUS
 10
44.72786992299955
 20
0.0683135223788494
 30
0.0
 11
44.99999999995498
 21
0.340443599334276
 31
0.0
  0
LINE
  5
17811
  8
0
  6
CONTINUOUS
 10
39.12223903415696
 20
-0.0000000000000009
 30
0.0
 11
38.60499999996136
 21
0.5172390341955961
 31
0.0
  0
LINE
  5
17812
  8
0
  6
CONTINUOUS
 10
39.79575824323715
 20
-0.0000000000000009
 30
0.0
 11
38.60499999996136
 21
1.190758243275783
 31
0.0
  0
LINE
  5
17813
  8
0
  6
CONTINUOUS
 10
40.02599999995994
 20
0.443277452357397
 30
0.0
 11
38.60499999996136
 21
1.864277452355969
 31
0.0
  0
LINE
  5
17814
  8
0
  6
CONTINUOUS
 10
40.02599999995994
 20
1.116796661437583
 30
0.0
 11
38.60499999996136
 21
2.537796661436155
 31
0.0
  0
LINE
  5
17815
  8
0
  6
CONTINUOUS
 10
40.02599999995994
 20
1.79031587051777
 30
0.0
 11
38.60499999996136
 21
3.211315870516341
 31
0.0
  0
LINE
  5
17816
  8
0
  6
CONTINUOUS
 10
40.02599999995994
 20
2.463835079597956
 30
0.0
 11
38.60499999996136
 21
3.884835079596527
 31
0.0
  0
LINE
  5
17817
  8
0
  6
CONTINUOUS
 10
40.02599999995994
 20
3.137354288678143
 30
0.0
 11
38.60499999996136
 21
4.558354288676714
 31
0.0
  0
LINE
  5
17818
  8
0
  6
CONTINUOUS
 10
40.02599999995994
 20
3.810873497758329
 30
0.0
 11
38.60499999996136
 21
5.2318734977569
 31
0.0
  0
LINE
  5
17819
  8
0
  6
CONTINUOUS
 10
40.02599999995994
 20
4.484392706838515
 30
0.0
 11
38.60499999996136
 21
5.905392706837086
 31
0.0
  0
LINE
  5
1781A
  8
0
  6
CONTINUOUS
 10
44.99999999995498
 20
0.183911915923658
 30
0.0
 11
41.53858364506288
 21
3.64532827081576
 31
0.0
  0
LINE
  5
1781B
  8
0
  6
CONTINUOUS
 10
40.02599999995994
 20
5.157911915918703
 30
0.0
 11
38.60499999996136
 21
6.578911915917274
 31
0.0
  0
LINE
  5
1781C
  8
0
  6
CONTINUOUS
 10
44.99999999995498
 20
0.8574311250038447
 30
0.0
 11
38.60499999996136
 21
7.25243112499746
 31
0.0
  0
LINE
  5
1781D
  8
0
  6
CONTINUOUS
 10
44.99999999995498
 20
1.530950334084031
 30
0.0
 11
38.60499999996136
 21
7.925950334077647
 31
0.0
  0
LINE
  5
1781E
  8
0
  6
CONTINUOUS
 10
44.99999999995498
 20
2.204469543164218
 30
0.0
 11
43.57899999995641
 21
3.625469543162789
 31
0.0
  0
LINE
  5
1781F
  8
0
  6
CONTINUOUS
 10
41.89876730984767
 20
5.305702233271528
 30
0.0
 11
38.60499999996136
 21
8.599469543157834
 31
0.0
  0
LINE
  5
17820
  8
0
  6
CONTINUOUS
 10
44.99999999995498
 20
2.877988752244405
 30
0.0
 11
43.57899999995641
 21
4.298988752242975
 31
0.0
  0
LINE
  5
17821
  8
0
  6
CONTINUOUS
 10
44.99999999995498
 20
3.551507961324591
 30
0.0
 11
43.57899999995641
 21
4.972507961323163
 31
0.0
  0
LINE
  5
17822
  8
0
  6
CONTINUOUS
 10
44.99999999995498
 20
4.225027170404777
 30
0.0
 11
43.57899999995641
 21
5.646027170403348
 31
0.0
  0
LINE
  5
17823
  8
0
  6
CONTINUOUS
 10
44.99999999995498
 20
4.898546379484964
 30
0.0
 11
43.57899999995641
 21
6.319546379483535
 31
0.0
  0
LINE
  5
17824
  8
0
  6
CONTINUOUS
 10
44.99999999995498
 20
5.572065588565151
 30
0.0
 11
43.57899999995641
 21
6.993065588563722
 31
0.0
  0
LINE
  5
17825
  8
0
  6
CONTINUOUS
 10
44.99999999995498
 20
6.245584797645336
 30
0.0
 11
43.57899999995641
 21
7.666584797643908
 31
0.0
  0
LINE
  5
17826
  8
0
  6
CONTINUOUS
 10
44.99999999995498
 20
6.919104006725522
 30
0.0
 11
43.57899999995641
 21
8.340104006724093
 31
0.0
  0
LINE
  5
17827
  8
0
  6
CONTINUOUS
 10
44.99999999995498
 20
7.592623215805709
 30
0.0
 11
43.82952321576943
 21
8.763099999991255
 31
0.0
  0
LINE
  5
17828
  8
0
  6
CONTINUOUS
 10
44.99999999995498
 20
8.266142424885896
 30
0.0
 11
44.50304242484962
 21
8.763099999991255
 31
0.0
  0
ENDBLK
  5
17852
  8
0
  0
BLOCK
  8
0
  2
*X255
 70
     1
 10
0.0
 20
0.0
 30
0.0
  3
*X255
  1

  0
LINE
  5
1782A
  8
0
  6
CONTINUOUS
 10
0.0
 20
8.548461116714023
 30
0.0
 11
0.2146388832772324
 21
8.763099999991255
 31
0.0
  0
LINE
  5
1782B
  8
0
  6
CONTINUOUS
 10
-0.0000000000000002
 20
7.874941907633837
 30
0.0
 11
0.8881580923574184
 21
8.763099999991255
 31
0.0
  0
LINE
  5
1782C
  8
0
  6
CONTINUOUS
 10
0.0
 20
7.20142269855365
 30
0.0
 11
1.420999999998572
 21
8.622422698552223
 31
0.0
  0
LINE
  5
1782D
  8
0
  6
CONTINUOUS
 10
-0.0000000000000001
 20
6.527903489473465
 30
0.0
 11
1.420999999998571
 21
7.948903489472036
 31
0.0
  0
LINE
  5
1782E
  8
0
  6
CONTINUOUS
 10
-0.0000000000000002
 20
5.854384280393278
 30
0.0
 11
1.420999999998571
 21
7.275384280391849
 31
0.0
  0
LINE
  5
1782F
  8
0
  6
CONTINUOUS
 10
-0.0000000000000002
 20
5.180865071313091
 30
0.0
 11
1.420999999998571
 21
6.601865071311663
 31
0.0
  0
LINE
  5
17830
  8
0
  6
CONTINUOUS
 10
0.0
 20
4.507345862232905
 30
0.0
 11
1.420999999998571
 21
5.928345862231477
 31
0.0
  0
LINE
  5
17831
  8
0
  6
CONTINUOUS
 10
-0.0000000000000003
 20
3.833826653152718
 30
0.0
 11
1.420999999998571
 21
5.25482665315129
 31
0.0
  0
LINE
  5
17832
  8
0
  6
CONTINUOUS
 10
-0.0000000000000002
 20
3.160307444072532
 30
0.0
 11
1.420999999998571
 21
4.581307444071103
 31
0.0
  0
LINE
  5
17833
  8
0
  6
CONTINUOUS
 10
-0.0000000000000001
 20
2.486788234992345
 30
0.0
 11
1.420999999998571
 21
3.907788234990917
 31
0.0
  0
LINE
  5
17834
  8
0
  6
CONTINUOUS
 10
-0.0000000000000006
 20
1.813269025912159
 30
0.0
 11
1.420999999998571
 21
3.234269025910731
 31
0.0
  0
LINE
  5
17835
  8
0
  6
CONTINUOUS
 10
0.0
 20
1.139749816831973
 30
0.0
 11
1.420999999998571
 21
2.560749816830544
 31
0.0
  0
LINE
  5
17836
  8
0
  6
CONTINUOUS
 10
0.0000000000000002
 20
0.466230607751787
 30
0.0
 11
1.420999999998571
 21
1.887230607750358
 31
0.0
  0
LINE
  5
17837
  8
0
  6
CONTINUOUS
 10
0.2072886013284003
 20
-0.0000000000000009
 30
0.0
 11
1.420999999998571
 21
1.213711398670171
 31
0.0
  0
LINE
  5
17838
  8
0
  6
CONTINUOUS
 10
0.8808078104085864
 20
-0.0000000000000009
 30
0.0
 11
1.420999999998571
 21
0.5401921895899839
 31
0.0
  0
LINE
  5
17839
  8
0
  6
CONTINUOUS
 10
0.0581249075061505
 20
-0.0000000000000009
 30
0.0
 11
-0.0000000000000002
 21
0.0581249075061496
 31
0.0
  0
LINE
  5
1783A
  8
0
  6
CONTINUOUS
 10
0.7316441165863372
 20
-0.0000000000000009
 30
0.0
 11
-0.0000000000000002
 21
0.7316441165863363
 31
0.0
  0
LINE
  5
1783B
  8
0
  6
CONTINUOUS
 10
1.405163325666523
 20
-0.0000000000000009
 30
0.0
 11
-0.0000000000000002
 21
1.405163325666523
 31
0.0
  0
LINE
  5
1783C
  8
0
  6
CONTINUOUS
 10
1.420999999998572
 20
0.6576825347481381
 30
0.0
 11
-0.0000000000000001
 21
2.07868253474671
 31
0.0
  0
LINE
  5
1783D
  8
0
  6
CONTINUOUS
 10
1.420999999998571
 20
1.331201743828324
 30
0.0
 11
-0.0000000000000001
 21
2.752201743826896
 31
0.0
  0
LINE
  5
1783E
  8
0
  6
CONTINUOUS
 10
1.420999999998571
 20
2.004720952908511
 30
0.0
 11
-0.0000000000000002
 21
3.425720952907082
 31
0.0
  0
LINE
  5
1783F
  8
0
  6
CONTINUOUS
 10
1.420999999998571
 20
2.678240161988697
 30
0.0
 11
-0.0000000000000001
 21
4.099240161987269
 31
0.0
  0
LINE
  5
17840
  8
0
  6
CONTINUOUS
 10
1.420999999998572
 20
3.351759371068884
 30
0.0
 11
0.0
 21
4.772759371067455
 31
0.0
  0
LINE
  5
17841
  8
0
  6
CONTINUOUS
 10
1.420999999998571
 20
4.02527858014907
 30
0.0
 11
-0.0000000000000003
 21
5.446278580147642
 31
0.0
  0
LINE
  5
17842
  8
0
  6
CONTINUOUS
 10
1.420999999998571
 20
4.698797789229257
 30
0.0
 11
0.0
 21
6.119797789227828
 31
0.0
  0
LINE
  5
17843
  8
0
  6
CONTINUOUS
 10
1.420999999998571
 20
5.372316998309444
 30
0.0
 11
-0.0000000000000001
 21
6.793316998308015
 31
0.0
  0
LINE
  5
17844
  8
0
  6
CONTINUOUS
 10
1.420999999998572
 20
6.045836207389629
 30
0.0
 11
-0.0000000000000004
 21
7.466836207388202
 31
0.0
  0
LINE
  5
17845
  8
0
  6
CONTINUOUS
 10
1.420999999998571
 20
6.719355416469816
 30
0.0
 11
0.0
 21
8.140355416468388
 31
0.0
  0
LINE
  5
17846
  8
0
  6
CONTINUOUS
 10
1.420999999998571
 20
7.392874625550003
 30
0.0
 11
0.0507746255573185
 21
8.763099999991255
 31
0.0
  0
LINE
  5
17847
  8
0
  6
CONTINUOUS
 10
1.420999999998571
 20
8.06639383463019
 30
0.0
 11
0.7242938346375052
 21
8.763099999991255
 31
0.0
  0
LINE
  5
17848
  8
0
  6
CONTINUOUS
 10
1.420999999998571
 20
8.739913043710375
 30
0.0
 11
1.397813043717691
 21
8.763099999991255
 31
0.0
  0
ENDBLK
  5
17854
  8
0
  0
ENDSEC
  0
SECTION
  2
ENTITIES
  0
LINE
  5
15512
  8
1PHANTOM
 10
-202.7708012870264
 20
75.57957796643804
 30
-0.0000000000026069
 11
-203.7708009870264
 21
76.57957796643804
 31
-0.0000000000026069
  0
LINE
  5
15513
  8
1PHANTOM
 10
-199.4708011370265
 20
75.57957796643804
 30
-0.0000000000026069
 11
-199.4708011370265
 21
76.57957796643804
 31
-0.0000000000026069
  0
LINE
  5
15514
  8
1PHANTOM
 10
-199.4708011370265
 20
76.57957796643804
 30
-0.0000000000026069
 11
-207.0708011370264
 21
76.57957796643804
 31
-0.0000000000026069
  0
LINE
  5
15515
  8
1PHANTOM
 10
-199.4708011370265
 20
75.57957796643804
 30
-0.0000000000026069
 11
-207.0708011370264
 21
75.57957796643804
 31
-0.0000000000026069
  0
LINE
  5
15516
  8
1PHANTOM
 10
-207.0708011370264
 20
75.57957796643804
 30
-0.0000000000026069
 11
-207.0708011370264
 21
76.57957796643804
 31
-0.0000000000026069
  0
LINE
  5
15518
  8
1PHANTOM
 10
-232.7708012870264
 20
75.57957796643804
 30
-0.0000000000026069
 11
-233.7708009870264
 21
76.57957796643804
 31
-0.0000000000026069
  0
LINE
  5
15519
  8
1PHANTOM
 10
-229.4708011370265
 20
75.57957796643804
 30
-0.0000000000026069
 11
-229.4708011370265
 21
76.57957796643804
 31
-0.0000000000026069
  0
LINE
  5
1551A
  8
1PHANTOM
 10
-229.4708011370265
 20
76.57957796643804
 30
-0.0000000000026069
 11
-237.0708011370264
 21
76.57957796643804
 31
-0.0000000000026069
  0
LINE
  5
1551B
  8
1PHANTOM
 10
-229.4708011370265
 20
75.57957796643804
 30
-0.0000000000026069
 11
-237.0708011370264
 21
75.57957796643804
 31
-0.0000000000026069
  0
LINE
  5
1551C
  8
1PHANTOM
 10
-237.0708011370264
 20
75.57957796643804
 30
-0.0000000000026069
 11
-237.0708011370264
 21
76.57957796643804
 31
-0.0000000000026069
  0
ARC
  5
15557
  8
01
 10
-149.7708011140537
 20
-4.420422033562019
 30
-0.0000000000026076
 40
1.0
 50
270.0
 51
0.0
  0
LINE
  5
15558
  8
01
 10
-148.7708011140537
 20
75.57957796643804
 30
-0.0000000000026076
 11
-148.7708011140537
 21
-4.420422033562005
 31
-0.0000000000026076
  0
ARC
  5
15559
  8
01
 10
-153.7708011140537
 20
75.57957796643804
 30
-0.0000000000026076
 40
5.0
 50
0.0
 51
90.0
  0
LINE
  5
1555A
  8
01
 10
-149.7708011140537
 20
-5.420422033562019
 30
-0.0000000000026076
 11
-428.2708011140537
 21
-5.420422033562019
 31
-0.0000000000026076
  0
ARC
  5
1555B
  8
01
 10
-156.3708011140305
 20
12.1795779664147
 30
-0.0000000000026076
 40
2.799999999999997
 50
270.0
 51
0.0
  0
LINE
  5
1555C
  8
01
 10
-153.5708011140421
 20
12.1795779664147
 30
-0.0000000000026076
 11
-153.5708011140421
 21
72.97957796643222
 31
-0.0000000000026076
  0
ARC
  5
1555D
  8
01
 10
-156.3708011140305
 20
72.97957796643222
 30
-0.0000000000026076
 40
2.799999999999997
 50
0.0
 51
90.0
  0
LINE
  5
1555E
  8
01
 10
-424.2708011140537
 20
80.57957796643804
 30
-0.0000000000026076
 11
-153.7708011140537
 21
80.57957796643804
 31
-0.0000000000026076
  0
LINE
  5
15566
  8
01
 10
-421.6708011140188
 20
75.57957796642349
 30
-0.0000000000026076
 11
-156.3708011140305
 21
75.57957796642349
 31
-0.0000000000026076
  0
LINE
  5
15567
  8
01
 10
-153.7708011140246
 20
72.97957796641766
 30
-0.0000000000026076
 11
-153.7708011140246
 21
12.17957796642925
 31
-0.0000000000026076
  0
LINE
  5
1562E
  8
01
 10
-156.3708011140305
 20
75.77957796642058
 30
-0.0000000000026076
 11
-421.6708011140188
 21
75.77957796642058
 31
-0.0000000000026076
  0
LINE
  5
1562F
  8
01
 10
-156.3708011140305
 20
9.579577966423429
 30
-0.0000000000026076
 11
-421.6708011140188
 21
9.579577966423429
 31
-0.0000000000026076
  0
LINE
  5
15630
  8
01
 10
-156.3708011140305
 20
9.379577966437253
 30
-0.0000000000026076
 11
-421.6708011140188
 21
9.379577966382683
 31
-0.0000000000026076
  0
LINE
  5
15631
  8
01
 10
-149.7708011401308
 20
-82.83043077846838
 30
-0.0000000000026076
 11
-428.2708011401307
 21
-82.83043077846838
 31
-0.0000000000026076
  0
LINE
  5
15632
  8
01
 10
-150.2708011401308
 20
-94.83043077846844
 30
-0.0000000000026076
 11
-427.7708011401307
 21
-94.83043077846844
 31
-0.0000000000026076
  0
ARC
  5
15636
  8
01
 10
-153.7708011401308
 20
-180.8304307776826
 30
-0.0000000000026076
 40
5.000000000000014
 50
270.0
 51
0.0
  0
ARC
  5
1563A
  8
01
 10
-149.7708011401308
 20
-83.83043077846838
 30
-0.0000000000026076
 40
1.0
 50
0.0
 51
90.0
  0
LINE
  5
1563B
  8
01
 10
-148.7708011401308
 20
-83.83043077846838
 30
-0.0000000000026076
 11
-148.7708011401308
 21
-89.83043077846838
 31
-0.0000000000026076
  0
POLYLINE
  5
1563C
  8
01
 66
     1
 10
0.0
 20
0.0
 30
-0.0000000000026076
  0
VERTEX
  5
175E1
  8
01
 10
-149.5208011401308
 20
-94.62946888414177
 30
-0.0000000000026076
  0
VERTEX
  5
175E2
  8
01
 10
-149.500745208528
 20
-94.6176828418679
 30
-0.0000000000026076
  0
VERTEX
  5
175E3
  8
01
 10
-149.4809269683506
 20
-94.60562210466645
 30
-0.0000000000026076
  0
VERTEX
  5
175E4
  8
01
 10
-149.4613471866467
 20
-94.59328946048821
 30
-0.0000000000026076
  0
VERTEX
  5
175E5
  8
01
 10
-149.4420066304647
 20
-94.58068769728392
 30
-0.0000000000026076
  0
VERTEX
  5
175E6
  8
01
 10
-149.4229060668528
 20
-94.56781960300441
 30
-0.0000000000026076
  0
VERTEX
  5
175E7
  8
01
 10
-149.4040462628592
 20
-94.55468796560041
 30
-0.0000000000026076
  0
VERTEX
  5
175E8
  8
01
 10
-149.3854279855321
 20
-94.54129557302271
 30
-0.0000000000026076
  0
VERTEX
  5
175E9
  8
01
 10
-149.3670520019197
 20
-94.5276452132221
 30
-0.0000000000026076
  0
VERTEX
  5
175EA
  8
01
 10
-149.3489190790704
 20
-94.51373967414935
 30
-0.0000000000026076
  0
VERTEX
  5
175EB
  8
01
 10
-149.3310299840323
 20
-94.49958174375523
 30
-0.0000000000026076
  0
VERTEX
  5
175EC
  8
01
 10
-149.3133854838536
 20
-94.48517420999052
 30
-0.0000000000026076
  0
VERTEX
  5
175ED
  8
01
 10
-149.2959863455827
 20
-94.47051986080598
 30
-0.0000000000026076
  0
VERTEX
  5
175EE
  8
01
 10
-149.2788333362678
 20
-94.45562148415242
 30
-0.0000000000026076
  0
VERTEX
  5
175EF
  8
01
 10
-149.261927222957
 20
-94.44048186798061
 30
-0.0000000000026076
  0
VERTEX
  5
175F0
  8
01
 10
-149.2452687726986
 20
-94.42510380024129
 30
-0.0000000000026076
  0
VERTEX
  5
175F1
  8
01
 10
-149.2288587525408
 20
-94.40949006888526
 30
-0.0000000000026076
  0
VERTEX
  5
175F2
  8
01
 10
-149.2126979295319
 20
-94.39364346186332
 30
-0.0000000000026076
  0
VERTEX
  5
175F3
  8
01
 10
-149.1967870707201
 20
-94.37756676712621
 30
-0.0000000000026076
  0
VERTEX
  5
175F4
  8
01
 10
-149.1811528748779
 20
-94.36129204354444
 30
-0.0000000000026076
  0
VERTEX
  5
175F5
  8
01
 10
-149.1658204090348
 20
-94.34485023904251
 30
-0.0000000000026076
  0
VERTEX
  5
175F6
  8
01
 10
-149.1507879926245
 20
-94.32824247515215
 30
-0.0000000000026076
  0
VERTEX
  5
175F7
  8
01
 10
-149.136053945081
 20
-94.3114698734051
 30
-0.0000000000026076
  0
VERTEX
  5
175F8
  8
01
 10
-149.1216165858382
 20
-94.2945335553331
 30
-0.0000000000026076
  0
VERTEX
  5
175F9
  8
01
 10
-149.1074742343297
 20
-94.27743464246792
 30
-0.0000000000026076
  0
VERTEX
  5
175FA
  8
01
 10
-149.0936252099897
 20
-94.26017425634129
 30
-0.0000000000026076
  0
VERTEX
  5
175FB
  8
01
 10
-149.0800678322517
 20
-94.24275351848493
 30
-0.0000000000026076
  0
VERTEX
  5
175FC
  8
01
 10
-149.0668004205498
 20
-94.22517355043061
 30
-0.0000000000026076
  0
VERTEX
  5
175FD
  8
01
 10
-149.0538212943177
 20
-94.20743547371008
 30
-0.0000000000026076
  0
VERTEX
  5
175FE
  8
01
 10
-149.0411287729893
 20
-94.18954040985504
 30
-0.0000000000026076
  0
VERTEX
  5
175FF
  8
01
 10
-149.0287211759984
 20
-94.1714894803973
 30
-0.0000000000026076
  0
VERTEX
  5
17600
  8
01
 10
-149.016596822779
 20
-94.15328380686856
 30
-0.0000000000026076
  0
VERTEX
  5
17601
  8
01
 10
-149.0047540327648
 20
-94.13492451080057
 30
-0.0000000000026076
  0
VERTEX
  5
17602
  8
01
 10
-148.9931911253897
 20
-94.11641271372508
 30
-0.0000000000026076
  0
VERTEX
  5
17603
  8
01
 10
-148.9819064200875
 20
-94.09774953717384
 30
-0.0000000000026076
  0
VERTEX
  5
17604
  8
01
 10
-148.9708982362922
 20
-94.07893610267857
 30
-0.0000000000026076
  0
VERTEX
  5
17605
  8
01
 10
-148.9601648934375
 20
-94.05997353177105
 30
-0.0000000000026076
  0
VERTEX
  5
17606
  8
01
 10
-148.949724597252
 20
-94.04089928319937
 30
-0.0000000000026076
  0
VERTEX
  5
17607
  8
01
 10
-148.9395954314151
 20
-94.02174994816865
 30
-0.0000000000026076
  0
VERTEX
  5
17608
  8
01
 10
-148.9297755322871
 20
-94.00252534689628
 30
-0.0000000000026076
  0
VERTEX
  5
17609
  8
01
 10
-148.920263036228
 20
-93.98322529959955
 30
-0.0000000000026076
  0
VERTEX
  5
1760A
  8
01
 10
-148.911056079598
 20
-93.96384962649581
 30
-0.0000000000026076
  0
VERTEX
  5
1760B
  8
01
 10
-148.9021527987573
 20
-93.94439814780239
 30
-0.0000000000026076
  0
VERTEX
  5
1760C
  8
01
 10
-148.8935513300661
 20
-93.92487068373661
 30
-0.0000000000026076
  0
VERTEX
  5
1760D
  8
01
 10
-148.8852498098844
 20
-93.9052670545158
 30
-0.0000000000026076
  0
VERTEX
  5
1760E
  8
01
 10
-148.8772463745725
 20
-93.88558708035731
 30
-0.0000000000026076
  0
VERTEX
  5
1760F
  8
01
 10
-148.8695391604905
 20
-93.86583058147845
 30
-0.0000000000026076
  0
VERTEX
  5
17610
  8
01
 10
-148.8621263039985
 20
-93.84599737809656
 30
-0.0000000000026076
  0
VERTEX
  5
17611
  8
01
 10
-148.8550059414567
 20
-93.82608729042896
 30
-0.0000000000026076
  0
VERTEX
  5
17612
  8
01
 10
-148.8481762092253
 20
-93.806100138693
 30
-0.0000000000026076
  0
VERTEX
  5
17613
  8
01
 10
-148.8416352436644
 20
-93.786035743106
 30
-0.0000000000026076
  0
VERTEX
  5
17614
  8
01
 10
-148.8353811811342
 20
-93.76589392388529
 30
-0.0000000000026076
  0
VERTEX
  5
17615
  8
01
 10
-148.8294121579949
 20
-93.74567450124816
 30
-0.0000000000026076
  0
VERTEX
  5
17616
  8
01
 10
-148.8237263106065
 20
-93.72537729541202
 30
-0.0000000000026076
  0
VERTEX
  5
17617
  8
01
 10
-148.8183217753292
 20
-93.70500212659414
 30
-0.0000000000026076
  0
VERTEX
  5
17618
  8
01
 10
-148.8132022615616
 20
-93.68454344193667
 30
-0.0000000000026076
  0
VERTEX
  5
17619
  8
01
 10
-148.8083729133525
 20
-93.66400110556731
 30
-0.0000000000026076
  0
VERTEX
  5
1761A
  8
01
 10
-148.803834019038
 20
-93.64338306318163
 30
-0.0000000000026076
  0
VERTEX
  5
1761B
  8
01
 10
-148.799585866954
 20
-93.62269726047533
 30
-0.0000000000026076
  0
VERTEX
  5
1761C
  8
01
 10
-148.7956287454365
 20
-93.60195164314396
 30
-0.0000000000026076
  0
VERTEX
  5
1761D
  8
01
 10
-148.7919629428216
 20
-93.5811541568832
 30
-0.0000000000026076
  0
VERTEX
  5
1761E
  8
01
 10
-148.7885887474451
 20
-93.56031274738865
 30
-0.0000000000026076
  0
VERTEX
  5
1761F
  8
01
 10
-148.785506447643
 20
-93.53943536035595
 30
-0.0000000000026076
  0
VERTEX
  5
17620
  8
01
 10
-148.7827163317513
 20
-93.51852994148072
 30
-0.0000000000026076
  0
VERTEX
  5
17621
  8
01
 10
-148.7802186881061
 20
-93.49760443645859
 30
-0.0000000000026076
  0
VERTEX
  5
17622
  8
01
 10
-148.7780138050431
 20
-93.47666679098519
 30
-0.0000000000026076
  0
VERTEX
  5
17623
  8
01
 10
-148.7761019708986
 20
-93.45572495075614
 30
-0.0000000000026076
  0
VERTEX
  5
17624
  8
01
 10
-148.7744834740083
 20
-93.43478686146707
 30
-0.0000000000026076
  0
VERTEX
  5
17625
  8
01
 10
-148.7731586027083
 20
-93.41386046881361
 30
-0.0000000000026076
  0
VERTEX
  5
17626
  8
01
 10
-148.7721276453346
 20
-93.3929537184914
 30
-0.0000000000026076
  0
VERTEX
  5
17627
  8
01
 10
-148.7713908902231
 20
-93.37207455619603
 30
-0.0000000000026076
  0
VERTEX
  5
17628
  8
01
 10
-148.7709486257099
 20
-93.35123092762315
 30
-0.0000000000026076
  0
VERTEX
  5
17629
  8
01
 10
-148.7708011401308
 20
-93.33043077846838
 30
-0.0000000000026076
  0
SEQEND
  5
17855
  8
01
  0
LINE
  5
1563D
  8
01
 10
-148.7708011401308
 20
-89.83043077846838
 30
-0.0000000000026076
 11
-148.7708011401308
 21
-93.33043077846838
 31
-0.0000000000026076
  0
ARC
  5
1563E
  8
01
 10
-150.2708011401308
 20
-93.33043077846838
 30
-0.0000000000026076
 40
1.500000000000028
 50
270.0
 51
300.0000000000595
  0
LINE
  5
15641
  8
01
 10
-287.7708011140537
 20
-163.5674033605684
 30
-0.0000000000026069
 11
-287.7708011140537
 21
-94.97095375211381
 31
-0.0000000000026069
  0
LINE
  5
15643
  8
01
 10
-148.7708011140537
 20
-94.97095375211381
 30
-0.0000000000026069
 11
-148.7708011140537
 21
-180.8304307776826
 31
-0.0000000000026069
  0
ARC
  5
15644
  8
01
 10
-149.770801127908
 20
-94.97095375211381
 30
-0.0000000000026073
 40
1.0
 50
0.0
 51
46.49052451815829
  0
ARC
  5
1564D
  8
01
 10
-156.3708011140305
 20
72.97957796641766
 30
-0.0000000000026076
 40
2.6
 50
0.0
 51
90.0
  0
ARC
  5
1564E
  8
01
 10
-156.3708011140305
 20
12.17957796642925
 30
-0.0000000000026076
 40
2.6
 50
270.0
 51
0.0
  0
LINE
  5
1565A
  8
01
 10
-153.770802086304
 20
-167.468148166323
 30
-0.000000000000085
 11
-282.7708001939575
 21
-167.468148166323
 31
-0.0000000000025219
  0
LINE
  5
1565B
  8
01
 10
-153.770802086304
 20
-166.0718008086181
 30
-0.0000000000026076
 11
-282.7708001939575
 21
-166.0718008086181
 31
-0.0000000000026076
  0
POLYLINE
  5
1565C
  8
01
 66
     1
 10
0.0
 20
0.0
 30
-0.0000000000026076
  0
VERTEX
  5
1762A
  8
01
 10
-153.770802086304
 20
-166.071800808618
 30
-0.0000000000026076
  0
VERTEX
  5
1762B
  8
01
 10
-152.7953502916341
 20
-165.9968490909569
 30
-0.0000000000026076
  0
VERTEX
  5
1762C
  8
01
 10
-151.8573845623937
 20
-165.7748742904498
 30
-0.0000000000026076
  0
VERTEX
  5
1762D
  8
01
 10
-150.9929503955403
 20
-165.4144067741954
 30
-0.0000000000026076
  0
VERTEX
  5
1762E
  8
01
 10
-150.2352675113257
 20
-164.9292991066908
 30
-0.0000000000026076
  0
VERTEX
  5
1762F
  8
01
 10
-149.613453238077
 20
-164.3381937035466
 30
-0.0000000000026076
  0
VERTEX
  5
17630
  8
01
 10
-149.1514035495975
 20
-163.66380641391
 30
-0.0000000000026076
  0
VERTEX
  5
17631
  8
01
 10
-148.866874756295
 20
-162.9320535631209
 30
-0.0000000000026076
  0
VERTEX
  5
17632
  8
01
 10
-148.7708011401307
 20
-162.1710560028636
 30
-0.0000000000026076
  0
SEQEND
  5
17856
  8
01
  0
POLYLINE
  5
1565D
  8
01
 66
     1
 10
0.0
 20
0.0
 30
-0.0000000000026076
  0
VERTEX
  5
17633
  8
01
 10
-282.7708001939575
 20
-166.071800808618
 30
-0.0000000000026076
  0
VERTEX
  5
17634
  8
01
 10
-283.7462519886274
 20
-165.9968490909569
 30
-0.0000000000026076
  0
VERTEX
  5
17635
  8
01
 10
-284.6842177178678
 20
-165.7748742904498
 30
-0.0000000000026076
  0
VERTEX
  5
17636
  8
01
 10
-285.5486518847212
 20
-165.4144067741954
 30
-0.0000000000026076
  0
VERTEX
  5
17637
  8
01
 10
-286.3063347689358
 20
-164.9292991066908
 30
-0.0000000000026076
  0
VERTEX
  5
17638
  8
01
 10
-286.9281490421845
 20
-164.3381937035466
 30
-0.0000000000026076
  0
VERTEX
  5
17639
  8
01
 10
-287.3901987306641
 20
-163.66380641391
 30
-0.0000000000026076
  0
VERTEX
  5
1763A
  8
01
 10
-287.6747275239665
 20
-162.9320535631209
 30
-0.0000000000026076
  0
VERTEX
  5
1763B
  8
01
 10
-287.7708011401308
 20
-162.1710560028636
 30
-0.0000000000026076
  0
SEQEND
  5
17857
  8
01
  0
POLYLINE
  5
1565E
  8
01
 66
     1
 10
0.0
 20
0.0
 30
0.0
  0
VERTEX
  5
1763C
  8
01
 10
-153.770802086304
 20
-167.4681481663229
 30
0.0
  0
VERTEX
  5
1763D
  8
01
 10
-152.795350270213
 20
-167.3931964464609
 30
0.0
  0
VERTEX
  5
1763E
  8
01
 10
-151.8573845214753
 20
-167.1712216395205
 30
0.0
  0
VERTEX
  5
1763F
  8
01
 10
-150.9929503388562
 20
-166.810754113098
 30
0.0
  0
VERTEX
  5
17640
  8
01
 10
-150.2352674441889
 20
-166.325646432488
 30
0.0
  0
VERTEX
  5
17641
  8
01
 10
-149.6134531670569
 20
-165.7345410143522
 30
0.0
  0
VERTEX
  5
17642
  8
01
 10
-149.1514034821147
 20
-165.0601537090809
 30
0.0
  0
VERTEX
  5
17643
  8
01
 10
-148.8668747001554
 20
-164.3284008433758
 30
0.0
  0
VERTEX
  5
17644
  8
01
 10
-148.7708011030253
 20
-163.56740327032
 30
0.0
  0
SEQEND
  5
17858
  8
01
  0
POLYLINE
  5
1565F
  8
01
 66
     1
 10
0.0
 20
0.0
 30
0.0
  0
VERTEX
  5
17645
  8
01
 10
-282.7708001939575
 20
-167.4681481663229
 30
0.0
  0
VERTEX
  5
17646
  8
01
 10
-283.7462520100486
 20
-167.3931964464609
 30
0.0
  0
VERTEX
  5
17647
  8
01
 10
-284.6842177587862
 20
-167.1712216395205
 30
0.0
  0
VERTEX
  5
17648
  8
01
 10
-285.5486519414053
 20
-166.810754113098
 30
0.0
  0
VERTEX
  5
17649
  8
01
 10
-286.3063348360727
 20
-166.325646432488
 30
0.0
  0
VERTEX
  5
1764A
  8
01
 10
-286.9281491132047
 20
-165.7345410143522
 30
0.0
  0
VERTEX
  5
1764B
  8
01
 10
-287.3901987981469
 20
-165.0601537090809
 30
0.0
  0
VERTEX
  5
1764C
  8
01
 10
-287.6747275801061
 20
-164.3284008433758
 30
0.0
  0
VERTEX
  5
1764D
  8
01
 10
-287.7708011772362
 20
-163.56740327032
 30
0.0
  0
SEQEND
  5
17859
  8
01
  0
LINE
  5
15660
  8
01
 10
-156.7708323078488
 20
-173.6304299111772
 30
-0.0000000000026069
 11
-156.7708323078488
 21
-167.468148166323
 31
-0.0000000000026069
  0
ARC
  5
15661
  8
01
 10
-275.7708323078489
 20
-173.6304299111772
 30
-0.0000000000026069
 40
2.0
 50
180.0
 51
270.0
  0
ARC
  5
15662
  8
01
 10
-158.7708323078488
 20
-173.6304299111772
 30
-0.0000000000026069
 40
2.0
 50
270.0
 51
0.0
  0
LINE
  5
15663
  8
01
 10
-275.7708323078489
 20
-175.6304299111772
 30
-0.0000000000026069
 11
-158.7708323078488
 21
-175.6304299111772
 31
-0.0000000000026069
  0
LINE
  5
15664
  8
01
 10
-277.7708323078489
 20
-167.468148166323
 30
-0.0000000000026069
 11
-277.7708323078489
 21
-173.6304299111772
 31
-0.0000000000026069
  0
LINE
  5
15665
  8
1PHANTOM
 10
-160.2708323078492
 20
-134.0567149796672
 30
-0.0000000000026072
 11
-274.2708323078483
 21
-134.0567149796672
 31
-0.0000000000026069
  0
LINE
  5
15666
  8
1PHANTOM
 10
-160.2708323078492
 20
-254.0567149796672
 30
-0.0000000000026076
 11
-274.2708323078483
 21
-254.0567149796672
 31
-0.0000000000026069
  0
LINE
  5
15667
  8
1PHANTOM
 10
-274.2708323078483
 20
-134.0567149796672
 30
-0.0000000000026069
 11
-274.2708323078483
 21
-254.0567149796672
 31
-0.0000000000026069
  0
LINE
  5
15668
  8
1PHANTOM
 10
-160.2708323078492
 20
-134.0567149796672
 30
-0.0000000000026072
 11
-160.2708323078492
 21
-254.0567149796672
 31
-0.0000000000026076
  0
CIRCLE
  5
1566B
  8
1PHANTOM
 10
-233.2708011401308
 20
-119.8304307784684
 30
-0.0000000000026069
 40
2.25
  0
CIRCLE
  5
1566C
  8
1PHANTOM
 10
-203.2708011401308
 20
-119.8304307784684
 30
-0.0000000000026069
 40
2.25
  0
ARC
  5
156BF
  8
01
 10
-424.2708011401307
 20
-180.8304307776826
 30
-0.0000000000026076
 40
5.000000000000014
 50
180.0
 51
270.0
  0
LINE
  5
156C0
  8
01
 10
-429.2708011401307
 20
-94.9709537521138
 30
-0.0000000000026076
 11
-429.2708011401307
 21
-180.8304307776826
 31
-0.0000000000026076
  0
LINE
  5
156CB
  8
01
 10
-290.2708011140537
 20
-94.97095375211381
 30
-0.0000000000026069
 11
-290.2708011140537
 21
-163.56740327032
 31
-0.0000000000026069
  0
ARC
  5
156CE
  8
01
 10
-428.2708011279079
 20
-94.97095375211381
 30
-0.0000000000026073
 40
1.0
 50
133.509476597327
 51
180.0
  0
ARC
  5
156D0
  8
01
 10
-428.2708011401307
 20
-83.83043077846838
 30
-0.0000000000026076
 40
1.0
 50
90.0
 51
180.0
  0
LINE
  5
156D1
  8
01
 10
-429.2708011401307
 20
-83.83043077846838
 30
-0.0000000000026076
 11
-429.2708011401307
 21
-89.83043077846838
 31
-0.0000000000026076
  0
POLYLINE
  5
156D2
  8
01
 66
     1
 10
0.0
 20
0.0
 30
-0.0000000000026076
  0
VERTEX
  5
1764E
  8
01
 10
-428.5208011401307
 20
-94.62946888414177
 30
-0.0000000000026076
  0
VERTEX
  5
1764F
  8
01
 10
-428.5408570717335
 20
-94.6176828418679
 30
-0.0000000000026076
  0
VERTEX
  5
17650
  8
01
 10
-428.560675311911
 20
-94.60562210466645
 30
-0.0000000000026076
  0
VERTEX
  5
17651
  8
01
 10
-428.5802550936148
 20
-94.59328946048821
 30
-0.0000000000026076
  0
VERTEX
  5
17652
  8
01
 10
-428.5995956497968
 20
-94.58068769728392
 30
-0.0000000000026076
  0
VERTEX
  5
17653
  8
01
 10
-428.6186962134087
 20
-94.56781960300441
 30
-0.0000000000026076
  0
VERTEX
  5
17654
  8
01
 10
-428.6375560174023
 20
-94.55468796560041
 30
-0.0000000000026076
  0
VERTEX
  5
17655
  8
01
 10
-428.6561742947295
 20
-94.54129557302271
 30
-0.0000000000026076
  0
VERTEX
  5
17656
  8
01
 10
-428.6745502783418
 20
-94.5276452132221
 30
-0.0000000000026076
  0
VERTEX
  5
17657
  8
01
 10
-428.6926832011911
 20
-94.51373967414935
 30
-0.0000000000026076
  0
VERTEX
  5
17658
  8
01
 10
-428.7105722962293
 20
-94.49958174375523
 30
-0.0000000000026076
  0
VERTEX
  5
17659
  8
01
 10
-428.7282167964079
 20
-94.48517420999052
 30
-0.0000000000026076
  0
VERTEX
  5
1765A
  8
01
 10
-428.7456159346788
 20
-94.47051986080598
 30
-0.0000000000026076
  0
VERTEX
  5
1765B
  8
01
 10
-428.7627689439938
 20
-94.45562148415242
 30
-0.0000000000026076
  0
VERTEX
  5
1765C
  8
01
 10
-428.7796750573045
 20
-94.44048186798061
 30
-0.0000000000026076
  0
VERTEX
  5
1765D
  8
01
 10
-428.796333507563
 20
-94.42510380024129
 30
-0.0000000000026076
  0
VERTEX
  5
1765E
  8
01
 10
-428.8127435277207
 20
-94.40949006888526
 30
-0.0000000000026076
  0
VERTEX
  5
1765F
  8
01
 10
-428.8289043507296
 20
-94.39364346186332
 30
-0.0000000000026076
  0
VERTEX
  5
17660
  8
01
 10
-428.8448152095414
 20
-94.37756676712621
 30
-0.0000000000026076
  0
VERTEX
  5
17661
  8
01
 10
-428.8604494053836
 20
-94.36129204354444
 30
-0.0000000000026076
  0
VERTEX
  5
17662
  8
01
 10
-428.8757818712268
 20
-94.34485023904251
 30
-0.0000000000026076
  0
VERTEX
  5
17663
  8
01
 10
-428.890814287637
 20
-94.32824247515215
 30
-0.0000000000026076
  0
VERTEX
  5
17664
  8
01
 10
-428.9055483351805
 20
-94.3114698734051
 30
-0.0000000000026076
  0
VERTEX
  5
17665
  8
01
 10
-428.9199856944234
 20
-94.2945335553331
 30
-0.0000000000026076
  0
VERTEX
  5
17666
  8
01
 10
-428.9341280459317
 20
-94.27743464246792
 30
-0.0000000000026076
  0
VERTEX
  5
17667
  8
01
 10
-428.9479770702719
 20
-94.26017425634129
 30
-0.0000000000026076
  0
VERTEX
  5
17668
  8
01
 10
-428.9615344480098
 20
-94.24275351848493
 30
-0.0000000000026076
  0
VERTEX
  5
17669
  8
01
 10
-428.9748018597118
 20
-94.22517355043061
 30
-0.0000000000026076
  0
VERTEX
  5
1766A
  8
01
 10
-428.9877809859439
 20
-94.20743547371008
 30
-0.0000000000026076
  0
VERTEX
  5
1766B
  8
01
 10
-429.0004735072723
 20
-94.18954040985504
 30
-0.0000000000026076
  0
VERTEX
  5
1766C
  8
01
 10
-429.0128811042631
 20
-94.1714894803973
 30
-0.0000000000026076
  0
VERTEX
  5
1766D
  8
01
 10
-429.0250054574825
 20
-94.15328380686856
 30
-0.0000000000026076
  0
VERTEX
  5
1766E
  8
01
 10
-429.0368482474968
 20
-94.13492451080057
 30
-0.0000000000026076
  0
VERTEX
  5
1766F
  8
01
 10
-429.0484111548718
 20
-94.11641271372508
 30
-0.0000000000026076
  0
VERTEX
  5
17670
  8
01
 10
-429.059695860174
 20
-94.09774953717384
 30
-0.0000000000026076
  0
VERTEX
  5
17671
  8
01
 10
-429.0707040439693
 20
-94.07893610267857
 30
-0.0000000000026076
  0
VERTEX
  5
17672
  8
01
 10
-429.0814373868241
 20
-94.05997353177105
 30
-0.0000000000026076
  0
VERTEX
  5
17673
  8
01
 10
-429.0918776830096
 20
-94.04089928319937
 30
-0.0000000000026076
  0
VERTEX
  5
17674
  8
01
 10
-429.1020068488464
 20
-94.02174994816865
 30
-0.0000000000026076
  0
VERTEX
  5
17675
  8
01
 10
-429.1118267479745
 20
-94.00252534689628
 30
-0.0000000000026076
  0
VERTEX
  5
17676
  8
01
 10
-429.1213392440335
 20
-93.98322529959955
 30
-0.0000000000026076
  0
VERTEX
  5
17677
  8
01
 10
-429.1305462006635
 20
-93.96384962649581
 30
-0.0000000000026076
  0
VERTEX
  5
17678
  8
01
 10
-429.1394494815042
 20
-93.94439814780239
 30
-0.0000000000026076
  0
VERTEX
  5
17679
  8
01
 10
-429.1480509501955
 20
-93.92487068373661
 30
-0.0000000000026076
  0
VERTEX
  5
1767A
  8
01
 10
-429.1563524703771
 20
-93.9052670545158
 30
-0.0000000000026076
  0
VERTEX
  5
1767B
  8
01
 10
-429.164355905689
 20
-93.88558708035731
 30
-0.0000000000026076
  0
VERTEX
  5
1767C
  8
01
 10
-429.1720631197711
 20
-93.86583058147845
 30
-0.0000000000026076
  0
VERTEX
  5
1767D
  8
01
 10
-429.179475976263
 20
-93.84599737809656
 30
-0.0000000000026076
  0
VERTEX
  5
1767E
  8
01
 10
-429.1865963388048
 20
-93.82608729042896
 30
-0.0000000000026076
  0
VERTEX
  5
1767F
  8
01
 10
-429.1934260710362
 20
-93.806100138693
 30
-0.0000000000026076
  0
VERTEX
  5
17680
  8
01
 10
-429.1999670365971
 20
-93.786035743106
 30
-0.0000000000026076
  0
VERTEX
  5
17681
  8
01
 10
-429.2062210991273
 20
-93.76589392388529
 30
-0.0000000000026076
  0
VERTEX
  5
17682
  8
01
 10
-429.2121901222667
 20
-93.74567450124816
 30
-0.0000000000026076
  0
VERTEX
  5
17683
  8
01
 10
-429.217875969655
 20
-93.72537729541202
 30
-0.0000000000026076
  0
VERTEX
  5
17684
  8
01
 10
-429.2232805049323
 20
-93.70500212659414
 30
-0.0000000000026076
  0
VERTEX
  5
17685
  8
01
 10
-429.2284000186999
 20
-93.68454344193667
 30
-0.0000000000026076
  0
VERTEX
  5
17686
  8
01
 10
-429.233229366909
 20
-93.66400110556731
 30
-0.0000000000026076
  0
VERTEX
  5
17687
  8
01
 10
-429.2377682612235
 20
-93.64338306318163
 30
-0.0000000000026076
  0
VERTEX
  5
17688
  8
01
 10
-429.2420164133075
 20
-93.62269726047533
 30
-0.0000000000026076
  0
VERTEX
  5
17689
  8
01
 10
-429.2459735348249
 20
-93.60195164314396
 30
-0.0000000000026076
  0
VERTEX
  5
1768A
  8
01
 10
-429.2496393374399
 20
-93.5811541568832
 30
-0.0000000000026076
  0
VERTEX
  5
1768B
  8
01
 10
-429.2530135328165
 20
-93.56031274738865
 30
-0.0000000000026076
  0
VERTEX
  5
1768C
  8
01
 10
-429.2560958326185
 20
-93.53943536035595
 30
-0.0000000000026076
  0
VERTEX
  5
1768D
  8
01
 10
-429.2588859485102
 20
-93.51852994148072
 30
-0.0000000000026076
  0
VERTEX
  5
1768E
  8
01
 10
-429.2613835921555
 20
-93.49760443645859
 30
-0.0000000000026076
  0
VERTEX
  5
1768F
  8
01
 10
-429.2635884752183
 20
-93.47666679098519
 30
-0.0000000000026076
  0
VERTEX
  5
17690
  8
01
 10
-429.2655003093629
 20
-93.45572495075614
 30
-0.0000000000026076
  0
VERTEX
  5
17691
  8
01
 10
-429.2671188062532
 20
-93.43478686146707
 30
-0.0000000000026076
  0
VERTEX
  5
17692
  8
01
 10
-429.2684436775532
 20
-93.41386046881361
 30
-0.0000000000026076
  0
VERTEX
  5
17693
  8
01
 10
-429.2694746349269
 20
-93.3929537184914
 30
-0.0000000000026076
  0
VERTEX
  5
17694
  8
01
 10
-429.2702113900384
 20
-93.37207455619603
 30
-0.0000000000026076
  0
VERTEX
  5
17695
  8
01
 10
-429.2706536545517
 20
-93.35123092762315
 30
-0.0000000000026076
  0
VERTEX
  5
17696
  8
01
 10
-429.2708011401307
 20
-93.33043077846838
 30
-0.0000000000026076
  0
SEQEND
  5
1785A
  8
01
  0
LINE
  5
156D3
  8
01
 10
-429.2708011401307
 20
-89.83043077846838
 30
-0.0000000000026076
 11
-429.2708011401307
 21
-93.33043077846838
 31
-0.0000000000026076
  0
ARC
  5
156D4
  8
01
 10
-427.7708011401307
 20
-93.33043077846838
 30
-0.0000000000026076
 40
1.500000000000028
 50
239.9999999999405
 51
270.0
  0
LINE
  5
156D5
  8
01
 10
-295.270802086304
 20
-167.468148166323
 30
-0.000000000000085
 11
-424.2708001939575
 21
-167.468148166323
 31
-0.0000000000025219
  0
LINE
  5
156D6
  8
01
 10
-295.270802086304
 20
-166.0718008086181
 30
-0.0000000000026076
 11
-424.2708001939575
 21
-166.0718008086181
 31
-0.0000000000026076
  0
POLYLINE
  5
156D7
  8
01
 66
     1
 10
0.0
 20
0.0
 30
-0.0000000000026076
  0
VERTEX
  5
17697
  8
01
 10
-295.270802086304
 20
-166.071800808618
 30
-0.0000000000026076
  0
VERTEX
  5
17698
  8
01
 10
-294.2953502916341
 20
-165.9968490909569
 30
-0.0000000000026076
  0
VERTEX
  5
17699
  8
01
 10
-293.3573845623937
 20
-165.7748742904498
 30
-0.0000000000026076
  0
VERTEX
  5
1769A
  8
01
 10
-292.4929503955403
 20
-165.4144067741954
 30
-0.0000000000026076
  0
VERTEX
  5
1769B
  8
01
 10
-291.7352675113257
 20
-164.9292991066908
 30
-0.0000000000026076
  0
VERTEX
  5
1769C
  8
01
 10
-291.1134532380769
 20
-164.3381937035466
 30
-0.0000000000026076
  0
VERTEX
  5
1769D
  8
01
 10
-290.6514035495974
 20
-163.66380641391
 30
-0.0000000000026076
  0
VERTEX
  5
1769E
  8
01
 10
-290.366874756295
 20
-162.9320535631209
 30
-0.0000000000026076
  0
VERTEX
  5
1769F
  8
01
 10
-290.2708011401307
 20
-162.1710560028636
 30
-0.0000000000026076
  0
SEQEND
  5
1785B
  8
01
  0
POLYLINE
  5
156D8
  8
01
 66
     1
 10
0.0
 20
0.0
 30
-0.0000000000026076
  0
VERTEX
  5
176A0
  8
01
 10
-424.2708001939575
 20
-166.071800808618
 30
-0.0000000000026076
  0
VERTEX
  5
176A1
  8
01
 10
-425.2462519886274
 20
-165.9968490909569
 30
-0.0000000000026076
  0
VERTEX
  5
176A2
  8
01
 10
-426.1842177178678
 20
-165.7748742904498
 30
-0.0000000000026076
  0
VERTEX
  5
176A3
  8
01
 10
-427.0486518847212
 20
-165.4144067741954
 30
-0.0000000000026076
  0
VERTEX
  5
176A4
  8
01
 10
-427.8063347689358
 20
-164.9292991066908
 30
-0.0000000000026076
  0
VERTEX
  5
176A5
  8
01
 10
-428.4281490421845
 20
-164.3381937035466
 30
-0.0000000000026076
  0
VERTEX
  5
176A6
  8
01
 10
-428.8901987306641
 20
-163.66380641391
 30
-0.0000000000026076
  0
VERTEX
  5
176A7
  8
01
 10
-429.1747275239665
 20
-162.9320535631209
 30
-0.0000000000026076
  0
VERTEX
  5
176A8
  8
01
 10
-429.2708011401308
 20
-162.1710560028636
 30
-0.0000000000026076
  0
SEQEND
  5
1785C
  8
01
  0
POLYLINE
  5
156D9
  8
01
 66
     1
 10
0.0
 20
0.0
 30
0.0
  0
VERTEX
  5
176A9
  8
01
 10
-295.270802086304
 20
-167.4681481663229
 30
0.0
  0
VERTEX
  5
176AA
  8
01
 10
-294.2953502702129
 20
-167.3931964464609
 30
0.0
  0
VERTEX
  5
176AB
  8
01
 10
-293.3573845214753
 20
-167.1712216395205
 30
0.0
  0
VERTEX
  5
176AC
  8
01
 10
-292.4929503388562
 20
-166.810754113098
 30
0.0
  0
VERTEX
  5
176AD
  8
01
 10
-291.7352674441888
 20
-166.325646432488
 30
0.0
  0
VERTEX
  5
176AE
  8
01
 10
-291.1134531670568
 20
-165.7345410143522
 30
0.0
  0
VERTEX
  5
176AF
  8
01
 10
-290.6514034821146
 20
-165.0601537090809
 30
0.0
  0
VERTEX
  5
176B0
  8
01
 10
-290.3668747001554
 20
-164.3284008433758
 30
0.0
  0
VERTEX
  5
176B1
  8
01
 10
-290.2708011030253
 20
-163.56740327032
 30
0.0
  0
SEQEND
  5
1785D
  8
01
  0
POLYLINE
  5
156DA
  8
01
 66
     1
 10
0.0
 20
0.0
 30
0.0
  0
VERTEX
  5
176B2
  8
01
 10
-424.2708001939575
 20
-167.4681481663229
 30
0.0
  0
VERTEX
  5
176B3
  8
01
 10
-425.2462520100486
 20
-167.3931964464609
 30
0.0
  0
VERTEX
  5
176B4
  8
01
 10
-426.1842177587862
 20
-167.1712216395205
 30
0.0
  0
VERTEX
  5
176B5
  8
01
 10
-427.0486519414053
 20
-166.810754113098
 30
0.0
  0
VERTEX
  5
176B6
  8
01
 10
-427.8063348360727
 20
-166.325646432488
 30
0.0
  0
VERTEX
  5
176B7
  8
01
 10
-428.4281491132047
 20
-165.7345410143522
 30
0.0
  0
VERTEX
  5
176B8
  8
01
 10
-428.8901987981469
 20
-165.0601537090809
 30
0.0
  0
VERTEX
  5
176B9
  8
01
 10
-429.1747275801061
 20
-164.3284008433758
 30
0.0
  0
VERTEX
  5
176BA
  8
01
 10
-429.2708011772362
 20
-163.56740327032
 30
0.0
  0
SEQEND
  5
1785E
  8
01
  0
ARC
  5
156DC
  8
01
 10
-419.2708323078489
 20
-173.6304299111772
 30
-0.0000000000026069
 40
2.0
 50
180.0
 51
270.0
  0
LINE
  5
156DE
  8
01
 10
-419.2708323078489
 20
-175.6304299111772
 30
-0.0000000000026069
 11
-302.2707699202584
 21
-175.6304299111772
 31
-0.0000000000026069
  0
LINE
  5
156E0
  8
1PHANTOM
 10
-303.7708323078492
 20
-134.0567149796672
 30
-0.0000000000026072
 11
-417.7708323078483
 21
-134.0567149796672
 31
-0.0000000000026069
  0
CIRCLE
  5
156E1
  8
1PHANTOM
 10
-374.7708011401307
 20
-119.8304307784684
 30
-0.0000000000026069
 40
2.25
  0
CIRCLE
  5
156E2
  8
1PHANTOM
 10
-344.7708011401307
 20
-119.8304307784684
 30
-0.0000000000026069
 40
2.25
  0
LINE
  5
156F3
  8
1PHANTOM
 10
-344.2708012870264
 20
75.57957796643804
 30
-0.0000000000026069
 11
-345.2708009870264
 21
76.57957796643804
 31
-0.0000000000026069
  0
LINE
  5
156F4
  8
1PHANTOM
 10
-340.9708011370265
 20
75.57957796643804
 30
-0.0000000000026069
 11
-340.9708011370265
 21
76.57957796643804
 31
-0.0000000000026069
  0
LINE
  5
156F5
  8
1PHANTOM
 10
-340.9708011370265
 20
76.57957796643804
 30
-0.0000000000026069
 11
-348.5708011370264
 21
76.57957796643804
 31
-0.0000000000026069
  0
LINE
  5
156F6
  8
1PHANTOM
 10
-340.9708011370265
 20
75.57957796643804
 30
-0.0000000000026069
 11
-348.5708011370264
 21
75.57957796643804
 31
-0.0000000000026069
  0
LINE
  5
156F7
  8
1PHANTOM
 10
-348.5708011370264
 20
75.57957796643804
 30
-0.0000000000026069
 11
-348.5708011370264
 21
76.57957796643804
 31
-0.0000000000026069
  0
LINE
  5
156F9
  8
1PHANTOM
 10
-374.2708012870264
 20
75.57957796643804
 30
-0.0000000000026069
 11
-375.2708009870264
 21
76.57957796643804
 31
-0.0000000000026069
  0
LINE
  5
156FA
  8
1PHANTOM
 10
-370.9708011370265
 20
75.57957796643804
 30
-0.0000000000026069
 11
-370.9708011370265
 21
76.57957796643804
 31
-0.0000000000026069
  0
LINE
  5
156FB
  8
1PHANTOM
 10
-370.9708011370265
 20
76.57957796643804
 30
-0.0000000000026069
 11
-378.5708011370264
 21
76.57957796643804
 31
-0.0000000000026069
  0
LINE
  5
156FC
  8
1PHANTOM
 10
-370.9708011370265
 20
75.57957796643804
 30
-0.0000000000026069
 11
-378.5708011370264
 21
75.57957796643804
 31
-0.0000000000026069
  0
LINE
  5
156FD
  8
1PHANTOM
 10
-378.5708011370264
 20
75.57957796643804
 30
-0.0000000000026069
 11
-378.5708011370264
 21
76.57957796643804
 31
-0.0000000000026069
  0
ARC
  5
15708
  8
01
 10
-421.6708011140188
 20
12.1795779664147
 30
-0.0000000000026076
 40
2.800000000000011
 50
180.0
 51
270.0
  0
ARC
  5
15709
  8
01
 10
-421.6708011140188
 20
72.97957796643222
 30
-0.0000000000026076
 40
2.800000000000011
 50
90.0
 51
180.0
  0
ARC
  5
1570A
  8
01
 10
-424.2708011140537
 20
75.57957796643804
 30
-0.0000000000026076
 40
5.0
 50
90.0
 51
180.0
  0
LINE
  5
1570B
  8
01
 10
-424.4708011140362
 20
72.97957796643222
 30
-0.0000000000026076
 11
-424.4708011140362
 21
12.1795779664147
 31
-0.0000000000026076
  0
LINE
  5
1570C
  8
01
 10
-429.2708011140537
 20
-4.420422033562019
 30
-0.0000000000026076
 11
-429.2708011140537
 21
75.57957796643804
 31
-0.0000000000026076
  0
ARC
  5
1570E
  8
01
 10
-428.2708011140537
 20
-4.420422033562019
 30
-0.0000000000026076
 40
1.0
 50
180.0
 51
270.0
  0
LINE
  5
15711
  8
01
 10
-424.2708011140246
 20
72.97957796641766
 30
-0.0000000000026076
 11
-424.2708011140246
 21
12.17957796642925
 31
-0.0000000000026076
  0
ARC
  5
15717
  8
01
 10
-421.6708011140188
 20
12.17957796642925
 30
-0.0000000000026076
 40
2.6
 50
180.0
 51
270.0
  0
ARC
  5
15718
  8
01
 10
-421.6708011140188
 20
72.97957796641766
 30
-0.0000000000026076
 40
2.6
 50
90.0
 51
180.0
  0
LINE
  5
1571B
  8
1PHANTOM
 10
-303.7708323078492
 20
-254.0567149796672
 30
-0.0000000000026076
 11
-417.7708323078483
 21
-254.0567149796672
 31
-0.0000000000026069
  0
ARC
  5
1604E
  8
01
 10
-302.2707699202584
 20
-173.6304299111772
 30
-0.0000000000026069
 40
1.999999999999999
 50
270.0
 51
0.0
  0
LINE
  5
1604F
  8
01
 10
-300.2707699202584
 20
-167.468148166323
 30
-0.0000000000026069
 11
-300.2707699202584
 21
-173.6304299111772
 31
-0.0000000000026069
  0
LINE
  5
16050
  8
01
 10
-424.2708011401307
 20
-185.8304307776826
 30
-0.0000000000026076
 11
-153.7708011401308
 21
-185.8304307776826
 31
-0.0000000000026076
  0
LINE
  5
16919
  8
01
 10
47.042668832282
 20
-76.6022514731963
 30
0.0000000000026063
 11
47.042668832282
 21
-151.05859864376
 31
0.0000000000026063
  0
LINE
  5
1691A
  8
01
 10
56.042668832282
 20
-76.6022514731963
 30
0.0000000000026063
 11
56.042668832282
 21
-151.05859864376
 31
0.0000000000026063
  0
LINE
  5
1691B
  8
01
 10
34.542668832282
 20
-76.6022514731963
 30
0.0000000000026063
 11
34.542668832282
 21
-151.05859864376
 31
0.0000000000026063
  0
LINE
  5
1691C
  8
1PHANTOM
 10
29.54266817663091
 20
-123.6304250615827
 30
0.0000000000026063
 11
30.54266817663091
 21
-123.6304250615827
 31
0.0000000000026063
  0
LINE
  5
1691D
  8
1PHANTOM
 10
30.54266817663091
 20
-123.6304250615827
 30
0.0000000000026063
 11
30.54266817663091
 21
-116.0304250615828
 31
0.0000000000026063
  0
LINE
  5
1691E
  8
1PHANTOM
 10
29.54266817663091
 20
-123.6304250615827
 30
0.0000000000026063
 11
29.54266817663091
 21
-116.0304250615828
 31
0.0000000000026063
  0
LINE
  5
1691F
  8
1PHANTOM
 10
29.54266817663091
 20
-116.0304250615828
 30
0.0000000000026063
 11
30.54266817663091
 21
-116.0304250615828
 31
0.0000000000026063
  0
LINE
  5
16921
  8
01
 10
29.54266817663091
 20
-120.3304249115827
 30
0.0000000000026063
 11
30.54266817663091
 21
-119.3304252115827
 31
0.0000000000026063
  0
LINE
  5
1692F
  8
01
 10
-48.95733041893465
 20
-105.0696273619785
 30
0.0000000000026056
 11
-48.95733041893465
 21
-106.9304246739353
 31
0.0000000000026056
  0
ARC
  5
16930
  8
01
 10
-48.4573304345343
 20
-106.9304246838888
 30
0.0000000000026056
 40
0.5
 50
180.0
 51
270.0
  0
LINE
  5
16931
  8
01
 10
-37.95733047853929
 20
-107.4304246831321
 30
0.0000000000026056
 11
-48.45733033697826
 21
-107.4304246831321
 31
0.0000000000026056
  0
LINE
  5
16932
  8
01
 10
34.54266883228212
 20
-86.8304250584784
 30
0.0000000000026056
 11
34.54266883228212
 21
-144.830423680121
 31
0.0000000000026056
  0
LINE
  5
16933
  8
01
 10
-37.95733047853929
 20
-110.9304246893021
 30
0.0000000000026056
 11
-37.95733047853929
 21
-107.4304246831321
 31
0.0000000000026056
  0
ARC
  5
16934
  8
01
 10
-37.4573304345343
 20
-110.9304246838888
 30
0.0000000000026056
 40
0.5
 50
180.0
 51
270.0
  0
LINE
  5
16935
  8
01
 10
-35.95733061637503
 20
-111.4304245384279
 30
0.0000000000026056
 11
-37.4573303965829
 21
-111.4304245384279
 31
0.0000000000026056
  0
LINE
  5
16936
  8
01
 10
-31.90737754311175
 20
-109.0004529505837
 30
0.0000000000026056
 11
-35.95733061637503
 21
-111.4304245384279
 31
0.0000000000026056
  0
ARC
  5
16937
  8
01
 10
-29.84939457477066
 20
-112.4304246838888
 30
0.0000000000026056
 40
4.0
 50
90.0
 51
120.9637565312516
  0
LINE
  5
16938
  8
01
 10
12.86469794605165
 20
-108.4304246869738
 30
0.0000000000026056
 11
-29.84939493443579
 21
-108.4304246869738
 31
0.0000000000026056
  0
ARC
  5
16939
  8
01
 10
12.86469908564123
 20
-112.4304246838888
 30
0.0000000000026056
 40
4.000000000000008
 50
22.39596698810607
 51
90.0
  0
LINE
  5
1693A
  8
01
 10
17.92495347354799
 20
-114.2114301146808
 30
0.0000000000026056
 11
16.56299106572061
 21
-110.9064035517964
 31
0.0000000000026056
  0
ARC
  5
1693B
  8
01
 10
31.21216218539286
 20
-143.8304246839121
 30
0.0000000000026056
 40
1.000000000000002
 50
202.3959669893469
 51
270.0
  0
LINE
  5
1693C
  8
01
 10
34.54266883228212
 20
-144.830423680121
 30
0.0000000000026056
 11
31.21216244790941
 21
-144.830423680121
 31
0.0000000000026056
  0
LINE
  5
1693D
  8
01
 10
30.28759009931474
 20
-144.2114294441286
 30
0.0000000000026056
 11
22.87000812385469
 21
-126.2114302189889
 31
0.0000000000026056
  0
LINE
  5
1693F
  8
01
 10
-28.95733012544434
 20
-86.8304250584784
 30
0.0000000000026056
 11
-39.45733049157781
 21
-97.93042511957316
 31
0.0000000000026056
  0
LINE
  5
16940
  8
01
 10
-39.45733049157781
 20
-97.93042511957316
 30
0.0000000000026056
 11
-41.88661579320677
 21
-97.93042511957316
 31
0.0000000000026056
  0
LINE
  5
16941
  8
01
 10
-99.20197046580637
 20
-165.4856638756432
 30
0.0000000000026056
 11
-47.91548932962957
 21
-94.59175121264656
 31
0.0000000000026056
  0
ARC
  5
16942
  8
01
 10
-98.39175432108647
 20
-166.0717950886281
 30
0.0000000000026056
 40
1.0
 50
144.1170547171004
 51
234.1170547171049
  0
LINE
  5
16943
  8
01
 10
-98.97788553407139
 20
-166.882011233348
 30
0.0000000000026056
 11
-97.11438840122491
 21
-168.2301130232064
 31
0.0000000000026056
  0
LINE
  5
16944
  8
01
 10
-44.84870891944621
 20
-94.9589812705986
 30
0.0000000000026056
 11
-45.82096829307244
 21
-94.25562381504398
 31
0.0000000000026056
  0
ARC
  5
16945
  8
01
 10
-45.02454828333481
 20
-95.2020461140051
 30
0.0000000000026056
 40
0.2999999999999972
 50
324.1170547171269
 51
54.1170547171181
  0
ARC
  5
16946
  8
01
 10
-46.70016511254966
 20
-95.47094803212389
 30
0.0000000000026056
 40
1.5
 50
54.11705471710949
 51
144.1170547171095
  0
ARC
  5
16947
  8
01
 10
-45.4573304345343
 20
-101.4304246838888
 30
0.0000000000026056
 40
5.0
 50
44.42699700980289
 51
54.11705471710441
  0
LINE
  5
16948
  8
01
 10
-42.52667436960979
 20
-97.37934396028896
 30
0.0000000000026056
 11
-44.95732280376973
 21
-95.62095032133442
 31
0.0000000000026056
  0
ARC
  5
16949
  8
01
 10
-45.4573304345343
 20
-101.4304246838888
 30
0.0000000000026056
 40
5.0
 50
234.1170547171068
 51
315.572995999194
  0
LINE
  5
1694A
  8
01
 10
-50.81863493361851
 20
-103.723111768534
 30
0.0000000000026056
 11
-48.38798649945858
 21
-105.4815054074887
 31
0.0000000000026056
  0
LINE
  5
1694B
  8
01
 10
-44.78148343988113
 20
-95.3778854779278
 30
0.0000000000026056
 11
-91.49614111505872
 21
-159.9521122124999
 31
0.0000000000026056
  0
LINE
  5
1694C
  8
01
 10
-51.45732842590434
 20
-89.8304250584784
 30
0.0000000000026056
 11
-51.45732842590434
 21
-94.3304250584784
 31
0.0000000000026056
  0
ARC
  5
1694D
  8
01
 10
-50.95732842590434
 20
-94.3304250584784
 30
0.0000000000026056
 40
0.5
 50
180.0
 51
270.0
  0
LINE
  5
1694E
  8
01
 10
-50.95732842590434
 20
-94.8304250584784
 30
0.0000000000026056
 11
-50.8173657392129
 21
-94.8304250584784
 31
0.0000000000026056
  0
ARC
  5
1694F
  8
01
 10
-50.8173657392129
 20
-93.8304250584784
 30
0.0000000000026056
 40
1.0
 50
270.0
 51
305.1940951021271
  0
ARC
  5
16950
  8
01
 10
-45.45732842590434
 20
-101.4304250584842
 30
0.0000000000026056
 40
8.30000000000002
 50
108.8190633690647
 51
125.1940951004916
  0
ARC
  5
16951
  8
01
 10
-48.45732842590434
 20
-92.62758460782203
 30
0.0000000000026056
 40
1.0
 50
288.8190633682822
 51
0.0
  0
ARC
  5
16952
  8
01
 10
-44.45732842590434
 20
-89.8304250584784
 30
0.0000000000026056
 40
3.0
 50
90.0
 51
180.0
  0
ARC
  5
16953
  8
01
 10
-34.15732842591598
 20
-88.8304250584784
 30
0.0000000000026056
 40
2.0
 50
0.0
 51
90.0
  0
LINE
  5
16954
  8
01
 10
-32.15732842591586
 20
-88.8304250584784
 30
0.0000000000026056
 11
-32.15732842591586
 21
-90.2132803053509
 31
0.0000000000026056
  0
ARC
  5
16955
  8
01
 10
34.04267157409578
 20
-86.3304250584784
 30
0.0000000000026056
 40
0.5
 50
270.0
 51
0.0
  0
LINE
  5
16956
  8
01
 10
34.54267157409578
 20
-86.3304250584784
 30
0.0000000000026056
 11
34.54267157409578
 21
-83.8304250584784
 31
0.0000000000026056
  0
ARC
  5
16957
  8
01
 10
33.54267157409578
 20
-83.8304250584784
 30
0.0000000000026056
 40
1.0
 50
0.0
 51
90.0
  0
LINE
  5
16958
  8
01
 10
-47.45732842590434
 20
-92.62758460782203
 30
0.0000000000026056
 11
-47.45732842590434
 21
-89.8304250584784
 31
0.0000000000026056
  0
ARC
  5
16959
  8
01
 10
-44.45732842590434
 20
-89.8304250584784
 30
0.0000000000026056
 40
7.000000000000028
 50
90.0
 51
180.0
  0
LINE
  5
1695A
  8
01
 10
33.54267157409578
 20
-82.8304250584784
 30
0.0000000000026056
 11
-44.45732842590434
 21
-82.8304250584784
 31
0.0000000000026056
  0
LINE
  5
1695B
  8
01
 10
-44.45732842590434
 20
-86.8304250584784
 30
0.0000000000026056
 11
34.54266883228212
 21
-86.8304250584784
 31
0.0000000000026056
  0
ARC
  5
1695C
  8
01
 10
-38.95733044163563
 20
-184.8304246831263
 30
0.0000000000026056
 40
1.0
 50
270.0
 51
0.0
  0
ARC
  5
1695D
  8
01
 10
-46.95733044163563
 20
-184.8304246831263
 30
0.0000000000026056
 40
1.0
 50
180.0
 51
270.0
  0
LINE
  5
1695E
  8
01
 10
-38.95733044163563
 20
-185.8304246831263
 30
0.0000000000026056
 11
-46.95733044163563
 21
-185.8304246831263
 31
0.0000000000026056
  0
ARC
  5
1695F
  8
01
 10
-46.95733044163563
 20
-108.4304246831321
 30
0.0000000000026056
 40
1.0
 50
90.0
 51
180.0
  0
ARC
  5
16960
  8
01
 10
-46.95733044163563
 20
-116.4304246831321
 30
0.0000000000026056
 40
1.0
 50
180.0
 51
270.0
  0
LINE
  5
16961
  8
01
 10
-38.95733044163563
 20
-117.4304246831321
 30
0.0000000000026056
 11
-46.95733044163563
 21
-117.4304246831321
 31
0.0000000000026056
  0
ARC
  5
16962
  8
01
 10
-38.95733044163563
 20
-108.4304246831321
 30
0.0000000000026056
 40
1.0
 50
0.0
 51
90.0
  0
ARC
  5
16963
  8
01
 10
-38.95733044163563
 20
-116.4304246831321
 30
0.0000000000026056
 40
1.0
 50
270.0
 51
0.0
  0
LINE
  5
16964
  8
01
 10
-37.95733044163563
 20
-184.8304246831263
 30
0.0000000000026056
 11
-37.95733044163563
 21
-110.9304246893021
 31
0.0000000000026056
  0
LINE
  5
16965
  8
01
 10
-47.95733044163563
 20
-108.4304246831321
 30
0.0000000000026056
 11
-47.95733044163563
 21
-184.8304246831263
 31
0.0000000000026056
  0
ARC
  5
16966
  8
01
 10
-39.55733033806092
 20
-102.4549344869607
 30
0.0000000000026056
 40
5.624509803848124
 50
79.26703502612965
 51
119.2610063923462
  0
CIRCLE
  5
16967
  8
1PHANTOM
 10
-42.95733044163563
 20
-194.0567092596771
 30
0.0000000000026056
 40
18.5
  0
CIRCLE
  5
16968
  8
1PHANTOM
 10
-42.95733044163563
 20
-194.0567092596771
 30
0.0000000000026056
 40
60.0
  0
LINE
  5
16969
  8
01
 10
-91.49614111505872
 20
-159.9521122124999
 30
0.0000000000026056
 11
-97.11438840122486
 21
-168.2301130232065
 31
0.0000000000026056
  0
ARC
  5
1696A
  8
01
 10
-42.95733044163563
 20
-165.6304246831292
 30
0.0000000000026056
 40
5.0
 50
0.0
 51
180.0
  0
LINE
  5
1696D
  8
01
 10
-31.4573304345343
 20
-105.4304246838888
 30
0.0000000000026056
 11
-31.9573304345343
 21
-105.4304246838888
 31
0.0000000000026056
  0
ARC
  5
1696E
  8
01
 10
-31.4573304345343
 20
-104.9304246838888
 30
0.0000000000026056
 40
0.5
 50
270.0
 51
0.0
  0
LINE
  5
1696F
  8
01
 10
-31.9573304345343
 20
-105.4304246838888
 30
0.0000000000026056
 11
-35.4573304345343
 21
-105.4304246838888
 31
0.0000000000026056
  0
LINE
  5
16970
  8
01
 10
-35.4573304345343
 20
-105.4304246838888
 30
0.0000000000026056
 11
-35.9573304345343
 21
-104.9304246838888
 31
0.0000000000026056
  0
LINE
  5
16971
  8
01
 10
-30.9573304345343
 20
-97.93042468388882
 30
0.0000000000026056
 11
-30.9573304345343
 21
-104.9304246838888
 31
0.0000000000026056
  0
LINE
  5
16972
  8
01
 10
-35.9573304345343
 20
-104.9304246838888
 30
0.0000000000026056
 11
-45.4573304345343
 21
-104.9304246838888
 31
0.0000000000026056
  0
ARC
  5
16973
  8
01
 10
-45.4573304345343
 20
-101.4304246838888
 30
0.0000000000026056
 40
3.5
 50
90.0
 51
113.1143355832297
  0
LINE
  5
16974
  8
01
 10
-45.4573304345343
 20
-97.93042468388882
 30
0.0000000000026056
 11
-35.9573304345343
 21
-97.93042468388882
 31
0.0000000000026056
  0
LINE
  5
16975
  8
01
 10
-35.9573304345343
 20
-97.93042468388882
 30
0.0000000000026056
 11
-35.4573304345343
 21
-97.43042468388882
 31
0.0000000000026056
  0
LINE
  5
16976
  8
01
 10
-31.9573304345343
 20
-97.43042468388882
 30
0.0000000000026056
 11
-31.4573304345343
 21
-97.43042468388882
 31
0.0000000000026056
  0
ARC
  5
16977
  8
01
 10
-31.4573304345343
 20
-97.93042468388882
 30
0.0000000000026056
 40
0.5
 50
0.0
 51
90.0
  0
LINE
  5
16978
  8
01
 10
-35.4573304345343
 20
-97.43042468388882
 30
0.0000000000026056
 11
-31.9573304345343
 21
-97.43042468388882
 31
0.0000000000026056
  0
LINE
  5
16979
  8
01
 10
-17.4573304345343
 20
-105.4304246838888
 30
0.0000000000026056
 11
-18.9573304345343
 21
-105.4304246838888
 31
0.0000000000026056
  0
ARC
  5
1697A
  8
01
 10
-18.9573304345343
 20
-104.9304246838888
 30
0.0000000000026056
 40
0.5
 50
180.0
 51
270.0
  0
ARC
  5
1697B
  8
01
 10
-17.4573304345343
 20
-103.9304246838888
 30
0.0000000000026056
 40
1.500000000000014
 50
270.0
 51
0.0
  0
ARC
  5
1697C
  8
01
 10
-23.4573304345343
 20
-101.4304246838888
 30
0.0000000000026056
 40
5.199999999999998
 50
322.1363536383265
 51
37.86364636179936
  0
ARC
  5
1697D
  8
01
 10
-18.9573304345343
 20
-104.928995820797
 30
0.0000000000026056
 40
0.500000000000009
 50
142.1363536375909
 51
180.0
  0
LINE
  5
1697E
  8
01
 10
-19.4573304345343
 20
-104.9304246838888
 30
0.0000000000026056
 11
-19.4573304345343
 21
-104.928995820797
 31
0.0000000000026056
  0
LINE
  5
1697F
  8
01
 10
-15.9573304345343
 20
-98.93042468388882
 30
0.0000000000026056
 11
-15.9573304345343
 21
-103.9304246838888
 31
0.0000000000026056
  0
ARC
  5
16980
  8
01
 10
-17.4573304345343
 20
-98.93042468388882
 30
0.0000000000026056
 40
1.500000000000014
 50
0.0
 51
90.0
  0
ARC
  5
16981
  8
01
 10
-18.9573304345343
 20
-97.93185354698068
 30
0.0000000000026056
 40
0.5000000000000264
 50
180.0
 51
217.86364636111
  0
LINE
  5
16982
  8
01
 10
-19.4573304345343
 20
-97.93185354698068
 30
0.0000000000026056
 11
-19.4573304345343
 21
-97.93042468388882
 31
0.0000000000026056
  0
LINE
  5
16983
  8
01
 10
-18.9573304345343
 20
-97.43042468388882
 30
0.0000000000026056
 11
-17.4573304345343
 21
-97.43042468388882
 31
0.0000000000026056
  0
ARC
  5
16984
  8
01
 10
-18.9573304345343
 20
-97.93042468388882
 30
0.0000000000026056
 40
0.5
 50
90.0
 51
180.0
  0
LINE
  5
16985
  8
01
 10
-29.4573304345343
 20
-105.4304246838888
 30
0.0000000000026056
 11
-31.4573304345343
 21
-105.4304246838888
 31
0.0000000000026056
  0
LINE
  5
16986
  8
01
 10
-31.4573304345343
 20
-97.43042468388882
 30
0.0000000000026056
 11
-29.4573304345343
 21
-97.43042468388882
 31
0.0000000000026056
  0
LINE
  5
16987
  8
01
 10
-18.9573304345343
 20
-105.4304246838888
 30
0.0000000000026056
 11
-29.4573304345343
 21
-105.4304246838888
 31
0.0000000000026056
  0
LINE
  5
16989
  8
01
 10
-29.4573304345343
 20
-97.43042468388882
 30
0.0000000000026056
 11
-18.9573304345343
 21
-97.43042468388882
 31
0.0000000000026056
  0
ARC
  5
1698A
  8
01
 10
-45.4573304345343
 20
-101.4304246838888
 30
0.0000000000026056
 40
3.5
 50
175.119773850979
 51
270.0
  0
LINE
  5
169E3
  8
1PHANTOM
 10
-303.7708323078492
 20
-134.0567149796672
 30
-0.0000000000026072
 11
-303.7708323078492
 21
-254.0567149796672
 31
-0.0000000000026076
  0
LINE
  5
169E4
  8
1PHANTOM
 10
-417.7708323078483
 20
-134.0567149796672
 30
-0.0000000000026069
 11
-417.7708323078483
 21
-254.0567149796672
 31
-0.0000000000026069
  0
LINE
  5
16A42
  8
01
 10
-421.2708323078489
 20
-167.468148166323
 30
-0.0000000000026069
 11
-421.2708323078489
 21
-173.6304299111772
 31
-0.0000000000026069
  0
TEXT
  5
16E30
  8
1TEXT
 10
-541.4318797711446
 20
163.0233349718597
 30
0.0
 40
8.0
  1
表面処理:本体
 72
     1
 11
-511.9633612526262
 21
163.0233349718597
 31
0.0
  0
LINE
  5
16E31
  8
1DIM
 10
-556.7633612526263
 20
174.0233349718597
 30
0.0000000000000594
 11
-236.7633612526263
 21
174.0233349718597
 31
0.0000000000000594
  0
LINE
  5
16E32
  8
1DIM
 10
-556.7633612526263
 20
146.0233349718597
 30
0.0000000000000594
 11
-383.6363839173366
 21
146.0233349718597
 31
0.0000000000000594
  0
LINE
  5
16E33
  8
1DIM
 10
-556.7633612526263
 20
160.0233349718597
 30
0.0000000000000594
 11
-236.7633612526263
 21
160.0233349718597
 31
0.0000000000000594
  0
LINE
  5
16E34
  8
1DIM
 10
-316.7633612526263
 20
174.0233349718594
 30
0.0000000000000594
 11
-316.7633612526282
 21
118.0233349718594
 31
0.0000000000000594
  0
TEXT
  5
16E35
  8
1TEXT
 10
-292.7061204744668
 20
163.0233349718594
 30
0.0
 40
8.0
  1
コード
 72
     1
 11
-278.9727871411334
 21
163.0233349718594
 31
0.0
  0
TEXT
  5
16E36
  8
1TEXT
 10
-536.7633612526263
 20
184.0233349718597
 30
0.0
 40
16.0
  1
SE-42W-X
  0
TEXT
  5
16E37
  8
1TEXT
 10
-530.8966945859595
 20
149.3527576528111
 30
0.0
 40
8.0
  1
クローム
 72
     1
 11
-511.9633612526262
 21
149.3527576528111
 31
0.0
  0
TEXT
  5
16E38
  8
1TEXT
 10
-307.1552097726855
 20
148.5946210045608
 30
0.0
 40
8.0
  1
SE-42W-XC
 41
0.85
 72
     1
 11
-276.5552097726855
 21
148.5946210045608
 31
0.0
  0
LINE
  5
16EB3
  8
1DIM
 10
-556.7633612526263
 20
132.0233349718597
 30
0.0000000000000594
 11
-383.6363839173366
 21
132.0233349718597
 31
0.0000000000000594
  0
TEXT
  5
16EB4
  8
1TEXT
 10
-553.8300279192928
 20
135.3527576528111
 30
0.0
 40
8.0
  1
セラミックホワイト
 72
     1
 11
-511.9633612526262
 21
135.3527576528111
 31
0.0
  0
TEXT
  5
16EB5
  8
1TEXT
 10
-311.6885431060188
 20
134.5946210045608
 30
0.0
 40
8.0
  1
SE-42W-001C
 41
0.85
 72
     1
 11
-276.5552097726855
 21
134.5946210045608
 31
0.0
  0
LINE
  5
16EB6
  8
1DIM
 10
-556.7633612526263
 20
118.0233349718597
 30
0.0000000000000594
 11
-236.7633612526282
 21
118.0233349718597
 31
0.0000000000000594
  0
TEXT
  5
16EB7
  8
1TEXT
 10
-544.4966945859595
 20
121.3527576528111
 30
0.0
 40
8.0
  1
マットブラック
 72
     1
 11
-511.9633612526262
 21
121.3527576528111
 31
0.0
  0
TEXT
  5
16EB8
  8
1TEXT
 10
-312.8218764393521
 20
120.5946210045608
 30
0.0
 40
8.0
  1
SE-42W-003C
 41
0.85
 72
     1
 11
-276.5552097726855
 21
120.5946210045608
 31
0.0
  0
LINE
  5
16EB9
  8
1DIM
 10
-556.7633612526263
 20
118.0233349718597
 30
0.0000000000000594
 11
-556.7633612526263
 21
174.0233349718597
 31
0.0000000000000594
  0
LINE
  5
16EBA
  8
1DIM
 10
-466.7633612526263
 20
174.0233349718597
 30
0.0000000000000594
 11
-466.7633612526282
 21
118.0233349718597
 31
0.0000000000000594
  0
TEXT
  5
16EBB
  8
1TEXT
 10
-463.2562929338214
 20
163.0233349718597
 30
0.0
 40
8.0
  1
表面処理:プレート
 72
     1
 11
-424.9877744153029
 21
163.0233349718597
 31
0.0
  0
TEXT
  5
16EBC
  8
1TEXT
 10
-370.5591013609418
 20
135.3527576528111
 30
0.0
 40
8.0
  1
クローム
 72
     1
 11
-351.6257680276084
 21
135.3527576528111
 31
0.0
  0
LINE
  5
16EBD
  8
1DIM
 10
-316.7633612526272
 20
146.0233349718594
 30
0.0000000000000594
 11
-236.7633612526263
 21
146.0233349718594
 31
0.0000000000000594
  0
LINE
  5
16EBE
  8
1DIM
 10
-316.7633612526277
 20
132.0233349718594
 30
0.0000000000000594
 11
-236.7633612526263
 21
132.0233349718594
 31
0.0000000000000594
  0
LINE
  5
16EBF
  8
1DIM
 10
-236.7633612526282
 20
118.023334971859
 30
0.0000000000000594
 11
-236.7633612526263
 21
174.023334971859
 31
0.0000000000000594
  0
LINE
  5
17170
  8
1DIM
 10
-383.6363839173361
 20
174.0233349718597
 30
0.0000000000000594
 11
-383.6363839173379
 21
118.0233349718597
 31
0.0000000000000594
  0
TEXT
  5
17171
  8
1TEXT
 10
-379.8886804345294
 20
163.0233349718597
 30
0.0
 40
8.0
  1
表面処理:本体
 72
     1
 11
-350.4201619160108
 21
163.0233349718597
 31
0.0
  0
TEXT
  5
17172
  8
1TEXT
 10
-444.550778747672
 20
135.3527576528111
 30
0.0
 40
8.0
  1
ホワイト
 72
     1
 11
-426.6841120810054
 21
135.3527576528111
 31
0.0
  0
TEXT
  5
17173
  8
1TEXT
 10
-444.6841120810049
 20
149.3527576528111
 30
0.0
 40
8.0
  1
ブラック
 72
     1
 11
-426.6841120810049
 21
149.3527576528111
 31
0.0
  0
TEXT
  5
17174
  8
1TEXT
 10
-444.6841120810058
 20
121.3527576528111
 30
0.0
 40
8.0
  1
ブラック
 72
     1
 11
-426.6841120810058
 21
121.3527576528111
 31
0.0
  0
LINE
  5
1736D
  8
01
 10
17.92495347354799
 20
-114.2114301146808
 30
0.0
 11
17.9384949037829
 21
-114.2442988166454
 31
0.0
  0
LINE
  5
1736E
  8
01
 10
17.9384949037829
 20
-114.2442988166454
 30
0.0
 11
17.97898135874658
 21
-114.3425445007029
 31
0.0
  0
LINE
  5
1736F
  8
01
 10
17.97898135874658
 20
-114.3425445007029
 30
0.0
 11
18.04596580360322
 21
-114.5050910236183
 31
0.0
  0
LINE
  5
17370
  8
01
 10
18.04596580360322
 20
-114.5050910236183
 30
0.0
 11
18.13871435616403
 21
-114.7301572309676
 31
0.0
  0
LINE
  5
17371
  8
01
 10
18.13871435616403
 20
-114.7301572309676
 30
0.0
 11
18.25620628688722
 21
-115.0152774462345
 31
0.0
  0
LINE
  5
17372
  8
01
 10
18.25620628688722
 20
-115.0152774462345
 30
0.0
 11
18.39716382120042
 21
-115.3573284791651
 31
0.0
  0
LINE
  5
17373
  8
01
 10
18.39716382120042
 20
-115.3573284791651
 30
0.0
 11
18.56003351304918
 21
-115.7525612907353
 31
0.0
  0
LINE
  5
17374
  8
01
 10
18.56003351304918
 20
-115.7525612907353
 30
0.0
 11
18.74303467367082
 21
-116.1966466279569
 31
0.0
  0
LINE
  5
17375
  8
01
 10
18.74303467367082
 20
-116.1966466279569
 30
0.0
 11
18.94416309688478
 21
-116.6847183303776
 31
0.0
  0
LINE
  5
17376
  8
01
 10
18.94416309688478
 20
-116.6847183303776
 30
0.0
 11
19.16121713612466
 21
-117.2114296750966
 31
0.0
  0
LINE
  5
17377
  8
01
 10
19.16121713612466
 20
-117.2114296750966
 30
0.0
 11
19.39181260559945
 21
-117.7710101874414
 31
0.0
  0
LINE
  5
17378
  8
01
 10
19.39181260559945
 20
-117.7710101874414
 30
0.0
 11
19.6334274837771
 21
-118.3573280395809
 31
0.0
  0
LINE
  5
17379
  8
01
 10
19.6334274837771
 20
-118.3573280395809
 30
0.0
 11
19.88341308925538
 21
-118.9639598997178
 31
0.0
  0
LINE
  5
1737A
  8
01
 10
19.88341308925538
 20
-118.9639598997178
 30
0.0
 11
20.13903133366495
 21
-119.5842589186373
 31
0.0
  0
LINE
  5
1737B
  8
01
 10
20.13903133366495
 20
-119.5842589186373
 30
0.0
 11
20.39748079870134
 21
-120.2114301668349
 31
0.0
  0
LINE
  5
1737C
  8
01
 10
20.39748079870134
 20
-120.2114301668349
 30
0.0
 11
20.65592653844743
 21
-120.8386004837099
 31
0.0
  0
LINE
  5
1737D
  8
01
 10
20.65592653844743
 20
-120.8386004837099
 30
0.0
 11
20.91154850814729
 21
-121.4589004339519
 31
0.0
  0
LINE
  5
1737E
  8
01
 10
20.91154850814729
 20
-121.4589004339519
 30
0.0
 11
21.16153038833528
 21
-122.0655322940889
 31
0.0
  0
LINE
  5
1737F
  8
01
 10
21.16153038833528
 20
-122.0655322940889
 30
0.0
 11
21.40314526651292
 21
-122.6518501462284
 31
0.0
  0
LINE
  5
17380
  8
01
 10
21.40314526651292
 20
-122.6518501462284
 30
0.0
 11
21.63374073598771
 21
-123.2114297272506
 31
0.0
  0
LINE
  5
17381
  8
01
 10
21.63374073598771
 20
-123.2114297272506
 30
0.0
 11
21.8507910499373
 21
-123.7381410719696
 31
0.0
  0
LINE
  5
17382
  8
01
 10
21.8507910499373
 20
-123.7381410719696
 30
0.0
 11
22.05192692373186
 21
-124.2262137057128
 31
0.0
  0
LINE
  5
17383
  8
01
 10
22.05192692373186
 20
-124.2262137057128
 30
0.0
 11
22.2349280843535
 21
-124.6702981116119
 31
0.0
  0
LINE
  5
17384
  8
01
 10
22.2349280843535
 20
-124.6702981116119
 30
0.0
 11
22.39779777620225
 21
-125.0655327858272
 31
0.0
  0
LINE
  5
17385
  8
01
 10
22.39779777620225
 20
-125.0655327858272
 30
0.0
 11
22.53874785993486
 21
-125.4075814904514
 31
0.0
  0
LINE
  5
17386
  8
01
 10
22.53874785993486
 20
-125.4075814904514
 30
0.0
 11
22.65624351594835
 21
-125.6927021713796
 31
0.0
  0
LINE
  5
17387
  8
01
 10
22.65624351594835
 20
-125.6927021713796
 30
0.0
 11
22.74899579379945
 21
-125.9177693100515
 31
0.0
  0
LINE
  5
17388
  8
01
 10
22.74899579379945
 20
-125.9177693100515
 30
0.0
 11
22.8159765133658
 21
-126.0803149016443
 31
0.0
  0
LINE
  5
17389
  8
01
 10
22.8159765133658
 20
-126.0803149016443
 30
0.0
 11
22.85646296832948
 21
-126.1785619826856
 31
0.0
  0
LINE
  5
1738A
  8
01
 10
22.85646296832948
 20
-126.1785619826856
 30
0.0
 11
22.87000812385469
 21
-126.2114302189889
 31
0.0
  0
LINE
  5
1738C
  8
01
 10
-21.33113056600578
 20
-100.8033068507542
 30
0.0000000000026056
 11
-22.83016693833289
 21
-100.8032963869037
 31
0.0000000000026056
  0
LINE
  5
1738D
  8
01
 10
-22.83017740212233
 20
-99.30426876965345
 30
0.0000000000026056
 11
-24.08441729782862
 21
-99.30426001457664
 31
0.0000000000026056
  0
LINE
  5
1738E
  8
01
 10
-22.83017740212233
 20
-99.30426876965345
 30
0.0000000000026056
 11
-22.83016693833289
 21
-100.8032963869037
 31
0.0000000000026056
  0
LINE
  5
1738F
  8
01
 10
-21.33113932108276
 20
-102.0575467464606
 30
0.0000000000026056
 11
-21.33113056600578
 21
-100.8033068507542
 31
0.0000000000026056
  0
LINE
  5
17390
  8
01
 10
-21.33113932108276
 20
-102.0575467464606
 30
0.0000000000026056
 11
-22.83015818310983
 21
-102.0575572101887
 31
0.0000000000026056
  0
LINE
  5
17391
  8
01
 10
-22.83015818310983
 20
-102.0575572101887
 30
0.0000000000026056
 11
-22.83014771925929
 21
-103.5565935827843
 31
0.0000000000026056
  0
LINE
  5
17392
  8
01
 10
-24.08443651696331
 20
-102.057565965534
 30
0.0000000000026056
 11
-25.58346413421347
 21
-102.0575764293235
 31
0.0000000000026056
  0
LINE
  5
17393
  8
01
 10
-24.08443651696331
 20
-102.057565965534
 30
0.0000000000026056
 11
-24.08444698069164
 21
-103.556584827293
 31
0.0000000000026056
  0
LINE
  5
17394
  8
01
 10
-24.08444698069164
 20
-103.556584827293
 30
0.0000000000026056
 11
-22.83014771925929
 21
-103.5565935827843
 31
0.0000000000026056
  0
LINE
  5
17395
  8
01
 10
-24.08442776161806
 20
-100.8032876316807
 30
0.0000000000026056
 11
-25.58345537872211
 21
-100.8032771678912
 31
0.0000000000026056
  0
LINE
  5
17396
  8
01
 10
-25.58345537872211
 20
-100.8032771678912
 30
0.0000000000026056
 11
-25.58346413421347
 21
-102.0575764293235
 31
0.0000000000026056
  0
LINE
  5
17397
  8
01
 10
-24.08441729782862
 20
-99.30426001457664
 30
0.0000000000026056
 11
-24.08442776161806
 21
-100.8032876316807
 31
0.0000000000026056
  0
CIRCLE
  5
17398
  8
01
 10
-23.4573304345343
 20
-101.4304246838888
 30
0.0000000000026056
 40
4.0
  0
LINE
  5
17399
  8
0
 10
-203.2707546042328
 20
110.5795779662757
 30
-0.0000000000026069
 11
-204.7707546042328
 21
105.279581456414
 31
-0.0000000000026069
  0
LINE
  5
1739A
  8
0
 10
-204.7707546042328
 20
105.279581456414
 30
-0.0000000000026069
 11
-204.7707546042326
 21
75.57958145652212
 31
-0.0000000000026069
  0
LINE
  5
1739B
  8
0
 10
-203.2707546042328
 20
110.5795779662757
 30
-0.0000000000026069
 11
-201.7707546042327
 21
105.2795744760304
 31
-0.0000000000026069
  0
LINE
  5
1739C
  8
0
 10
-206.7708011401307
 20
75.5795861102202
 30
-0.0000000000026069
 11
-199.7708011401308
 21
75.57956982265587
 31
-0.0000000000026069
  0
LINE
  5
1739D
  8
0
 10
-201.7707546042327
 20
105.2795744760304
 30
-0.0000000000026069
 11
-201.7707546042326
 21
75.57957447613741
 31
-0.0000000000026069
  0
LINE
  5
1739E
  8
0
 10
-206.7708011401307
 20
75.5795861102202
 30
-0.0000000000026069
 11
-206.7708011401308
 21
74.47958262002489
 31
-0.0000000000026069
  0
ARC
  5
1739F
  8
0
 10
-205.2708011401308
 20
74.47958262002489
 30
-0.0000000000026069
 40
1.5
 50
180.0
 51
269.9998666844684
  0
LINE
  5
173A0
  8
0
 10
-199.7708011401308
 20
75.57956982265587
 30
-0.0000000000026069
 11
-199.7708011401308
 21
74.47957331284529
 31
-0.0000000000026069
  0
LINE
  5
173A1
  8
0
 10
-205.2708046303232
 20
72.97958262002895
 30
-0.0000000000026069
 11
-201.2708046303232
 21
72.97957331284935
 31
-0.0000000000026069
  0
ARC
  5
173A2
  8
0
 10
-201.2708011401308
 20
74.47957331284529
 30
-0.0000000000026069
 40
1.5
 50
269.9998666844684
 51
0.0
  0
LINE
  5
173A3
  8
1CENTER
 10
-203.2708011401308
 20
112.0103728837411
 30
-0.0000000000026069
 11
-203.2708011401308
 21
71.90930155712921
 31
-0.0000000000026069
  0
LINE
  5
173A4
  8
0
 10
-204.3651249541258
 20
108.4795805125978
 30
-0.0000000000026069
 11
-202.4027898652504
 21
109.2795759466488
 31
-0.0000000000026069
  0
LINE
  5
173A5
  8
0
 10
-202.4027898652504
 20
109.2795759466488
 30
-0.0000000000026069
 11
-202.9910664402928
 21
109.5913458029009
 31
-0.0000000000026069
  0
LINE
  5
173A6
  8
0
 10
-205.2707546042328
 20
86.07958261980785
 30
-0.0000000000026069
 11
-201.2707546042328
 21
86.8795733126261
 31
-0.0000000000026069
  0
LINE
  5
173A7
  8
0
 10
-205.2707546042328
 20
97.27958261981222
 30
-0.0000000000026069
 11
-201.2707546042328
 21
98.07957331263479
 31
-0.0000000000026069
  0
LINE
  5
173A8
  8
0
 10
-205.2707546042328
 20
100.4795826198123
 30
-0.0000000000026069
 11
-201.2707546042328
 21
101.2795733126348
 31
-0.0000000000026069
  0
LINE
  5
173A9
  8
0
 10
-201.2707546042328
 20
101.2795733126348
 30
-0.0000000000026069
 11
-201.7707546042328
 21
101.3795744760321
 31
-0.0000000000026069
  0
LINE
  5
173AA
  8
0
 10
-204.7707546042328
 20
101.9795814564151
 30
-0.0000000000026069
 11
-205.2707546042328
 21
102.0795826198123
 31
-0.0000000000026069
  0
LINE
  5
173AB
  8
0
 10
-201.2707546042328
 20
98.07957331263479
 30
-0.0000000000026069
 11
-201.7707546042328
 21
98.17957447603202
 31
-0.0000000000026069
  0
LINE
  5
173AC
  8
0
 10
-201.2707546042328
 20
99.67957331263493
 30
-0.0000000000026069
 11
-201.7707546042328
 21
99.77957447603204
 31
-0.0000000000026069
  0
LINE
  5
173AD
  8
0
 10
-204.7707546042328
 20
100.3795814564152
 30
-0.0000000000026069
 11
-205.2707546042328
 21
100.4795826198123
 31
-0.0000000000026069
  0
LINE
  5
173AE
  8
0
 10
-204.7707546042328
 20
98.77958145641524
 30
-0.0000000000026069
 11
-205.2707546042328
 21
98.87958261981235
 31
-0.0000000000026069
  0
LINE
  5
173AF
  8
0
 10
-205.2707546042328
 20
98.87958261981235
 30
-0.0000000000026069
 11
-201.2707546042328
 21
99.67957331263493
 31
-0.0000000000026069
  0
LINE
  5
173B0
  8
0
 10
-201.9499757608436
 20
107.6795748930432
 30
-0.0000000000026069
 11
-202.5017252246469
 21
107.8623390356712
 31
-0.0000000000026069
  0
LINE
  5
173B1
  8
0
 10
-201.2707546042328
 20
104.4795733126349
 30
-0.0000000000026069
 11
-201.7707546042328
 21
104.579574476032
 31
-0.0000000000026069
  0
LINE
  5
173B2
  8
0
 10
-201.2707546042328
 20
102.8795733126349
 30
-0.0000000000026069
 11
-201.7707546042328
 21
102.9795744760319
 31
-0.0000000000026069
  0
LINE
  5
173B3
  8
0
 10
-201.4971616564368
 20
106.0795738394375
 30
-0.0000000000026069
 11
-202.033755391708
 21
106.2088445370674
 31
-0.0000000000026069
  0
LINE
  5
173B4
  8
0
 10
-204.3498400070241
 20
106.766812053852
 30
-0.0000000000026069
 11
-204.8179384621741
 21
106.8795815662021
 31
-0.0000000000026069
  0
LINE
  5
173B5
  8
0
 10
-204.7707546042328
 20
103.5795814564152
 30
-0.0000000000026069
 11
-205.2707546042328
 21
103.6795826198123
 31
-0.0000000000026069
  0
LINE
  5
173B6
  8
0
 10
-204.7707546042328
 20
105.1795814564151
 30
-0.0000000000026069
 11
-205.2707546042328
 21
105.2795826198122
 31
-0.0000000000026069
  0
LINE
  5
173B7
  8
0
 10
-203.9079531134948
 20
108.3281447161574
 30
-0.0000000000026069
 11
-204.3651249541258
 21
108.4795805125978
 31
-0.0000000000026069
  0
LINE
  5
173B8
  8
0
 10
-204.8179384621741
 20
106.8795815662021
 30
-0.0000000000026069
 11
-201.9499757608436
 21
107.6795748930432
 31
-0.0000000000026069
  0
LINE
  5
173B9
  8
0
 10
-205.2707546042328
 20
103.6795826198123
 30
-0.0000000000026069
 11
-201.2707546042328
 21
104.4795733126349
 31
-0.0000000000026069
  0
LINE
  5
173BA
  8
0
 10
-205.2707546042328
 20
105.2795826198122
 30
-0.0000000000026069
 11
-201.4971616564368
 21
106.0795738394375
 31
-0.0000000000026069
  0
LINE
  5
173BB
  8
0
 10
-205.2707546042328
 20
102.0795826198123
 30
-0.0000000000026069
 11
-201.2707546042328
 21
102.8795733126349
 31
-0.0000000000026069
  0
LINE
  5
173BC
  8
0
 10
-205.2707546042328
 20
89.2795826198079
 30
-0.0000000000026069
 11
-201.2707546042328
 21
90.07957331262615
 31
-0.0000000000026069
  0
LINE
  5
173BD
  8
0
 10
-201.2707546042328
 20
90.07957331262615
 30
-0.0000000000026069
 11
-201.7707546042328
 21
90.17957447602383
 31
-0.0000000000026069
  0
LINE
  5
173BE
  8
0
 10
-204.7707546042328
 20
90.77958145641456
 30
-0.0000000000026069
 11
-205.2707546042328
 21
90.87958261981224
 31
-0.0000000000026069
  0
LINE
  5
173BF
  8
0
 10
-201.2707546042328
 20
88.47957331262602
 30
-0.0000000000026069
 11
-201.7707546042328
 21
88.5795744760237
 31
-0.0000000000026069
  0
LINE
  5
173C0
  8
0
 10
-201.2707546042328
 20
86.8795733126261
 30
-0.0000000000026069
 11
-201.7707546042328
 21
86.97957447602379
 31
-0.0000000000026069
  0
LINE
  5
173C1
  8
0
 10
-204.7707546042328
 20
89.17958145641022
 30
-0.0000000000026069
 11
-205.2707546042328
 21
89.2795826198079
 31
-0.0000000000026069
  0
LINE
  5
173C2
  8
0
 10
-204.7707546042328
 20
87.57958145641008
 30
-0.0000000000026069
 11
-205.2707546042328
 21
87.67958261980776
 31
-0.0000000000026069
  0
LINE
  5
173C3
  8
0
 10
-205.2707546042328
 20
87.67958261980776
 30
-0.0000000000026069
 11
-201.2707546042328
 21
88.47957331262602
 31
-0.0000000000026069
  0
LINE
  5
173C4
  8
0
 10
-201.2707546042328
 20
94.87957331263054
 30
-0.0000000000026069
 11
-201.7707546042328
 21
94.97957447602822
 31
-0.0000000000026069
  0
LINE
  5
173C5
  8
0
 10
-201.2707546042328
 20
96.47957331263488
 30
-0.0000000000026069
 11
-201.7707546042328
 21
96.579574476032
 31
-0.0000000000026069
  0
LINE
  5
173C6
  8
0
 10
-201.2707546042328
 20
91.6795733126305
 30
-0.0000000000026069
 11
-201.7707546042328
 21
91.77957447602817
 31
-0.0000000000026069
  0
LINE
  5
173C7
  8
0
 10
-201.2707546042328
 20
93.2795733126304
 30
-0.0000000000026069
 11
-201.7707546042328
 21
93.37957447602808
 31
-0.0000000000026069
  0
LINE
  5
173C8
  8
0
 10
-204.7707546042328
 20
97.17958145641511
 30
-0.0000000000026069
 11
-205.2707546042328
 21
97.27958261981222
 31
-0.0000000000026069
  0
LINE
  5
173C9
  8
0
 10
-204.7707546042328
 20
95.57958145641452
 30
-0.0000000000026069
 11
-205.2707546042328
 21
95.67958261981231
 31
-0.0000000000026069
  0
LINE
  5
173CA
  8
0
 10
-204.7707546042328
 20
92.37958145641447
 30
-0.0000000000026069
 11
-205.2707546042328
 21
92.47958261981215
 31
-0.0000000000026069
  0
LINE
  5
173CB
  8
0
 10
-204.7707546042328
 20
93.9795814564146
 30
-0.0000000000026069
 11
-205.2707546042328
 21
94.07958261981229
 31
-0.0000000000026069
  0
LINE
  5
173CC
  8
0
 10
-205.2707546042328
 20
94.07958261981229
 30
-0.0000000000026069
 11
-201.2707546042328
 21
94.87957331263054
 31
-0.0000000000026069
  0
LINE
  5
173CD
  8
0
 10
-205.2707546042328
 20
95.67958261981231
 30
-0.0000000000026069
 11
-201.2707546042328
 21
96.47957331263488
 31
-0.0000000000026069
  0
LINE
  5
173CE
  8
0
 10
-205.2707546042328
 20
92.47958261981215
 30
-0.0000000000026069
 11
-201.2707546042328
 21
93.2795733126304
 31
-0.0000000000026069
  0
LINE
  5
173CF
  8
0
 10
-205.2707546042328
 20
90.87958261981224
 30
-0.0000000000026069
 11
-201.2707546042328
 21
91.6795733126305
 31
-0.0000000000026069
  0
LINE
  5
173D0
  8
0
 10
-204.7707546042328
 20
81.17958145640601
 30
-0.0000000000026069
 11
-205.2707546042328
 21
81.27958261980369
 31
-0.0000000000026069
  0
LINE
  5
173D1
  8
0
 10
-205.2707546042328
 20
81.27958261980369
 30
-0.0000000000026069
 11
-201.2707546042328
 21
82.07957331262195
 31
-0.0000000000026069
  0
LINE
  5
173D2
  8
0
 10
-201.2707546042328
 20
82.07957331262195
 30
-0.0000000000026069
 11
-201.7707546042328
 21
82.17957447601962
 31
-0.0000000000026069
  0
LINE
  5
173D3
  8
0
 10
-204.7707546042328
 20
82.77958145640592
 30
-0.0000000000026069
 11
-205.2707546042328
 21
82.8795826198036
 31
-0.0000000000026069
  0
LINE
  5
173D4
  8
0
 10
-204.7707546042328
 20
84.37958145640583
 30
-0.0000000000026069
 11
-205.2707546042328
 21
84.47958261980351
 31
-0.0000000000026069
  0
LINE
  5
173D5
  8
0
 10
-205.2707546042328
 20
84.47958261980351
 30
-0.0000000000026069
 11
-201.2707546042328
 21
85.27957331262176
 31
-0.0000000000026069
  0
LINE
  5
173D6
  8
0
 10
-201.2707546042328
 20
83.67957331262186
 30
-0.0000000000026069
 11
-201.7707546042328
 21
83.77957447601953
 31
-0.0000000000026069
  0
LINE
  5
173D7
  8
0
 10
-201.2707546042328
 20
85.27957331262176
 30
-0.0000000000026069
 11
-201.7707546042328
 21
85.37957447601944
 31
-0.0000000000026069
  0
LINE
  5
173D8
  8
0
 10
-205.2707546042328
 20
82.8795826198036
 30
-0.0000000000026069
 11
-201.2707546042328
 21
83.67957331262186
 31
-0.0000000000026069
  0
LINE
  5
173D9
  8
0
 10
-204.7707546042328
 20
85.97958145641017
 30
-0.0000000000026069
 11
-205.2707546042328
 21
86.07958261980785
 31
-0.0000000000026069
  0
LINE
  5
173DA
  8
0
 10
-204.7707546042328
 20
79.5795814564061
 30
-0.0000000000026069
 11
-205.2707546042328
 21
79.67958261980378
 31
-0.0000000000026069
  0
LINE
  5
173DB
  8
0
 10
-205.2707546042328
 20
79.67958261980378
 30
-0.0000000000026069
 11
-201.2707546042328
 21
80.47957331262204
 31
-0.0000000000026069
  0
LINE
  5
173DC
  8
0
 10
-201.2707546042328
 20
80.47957331262204
 30
-0.0000000000026069
 11
-201.7707546042328
 21
80.57957447601972
 31
-0.0000000000026069
  0
LINE
  5
173DD
  8
0
 10
-204.7707546042328
 20
77.9795814564062
 30
-0.0000000000026069
 11
-205.2707546042328
 21
78.07958261980387
 31
-0.0000000000026069
  0
LINE
  5
173DE
  8
0
 10
-205.2707546042328
 20
78.07958261980387
 30
-0.0000000000026069
 11
-201.2707546042328
 21
78.87957331262213
 31
-0.0000000000026069
  0
LINE
  5
173DF
  8
0
 10
-201.2707546042328
 20
78.87957331262213
 30
-0.0000000000026069
 11
-201.7707546042328
 21
78.9795744760198
 31
-0.0000000000026069
  0
LINE
  5
173E0
  8
0
 10
-204.7707546042328
 20
76.37958145640629
 30
-0.0000000000026069
 11
-205.2707546042328
 21
76.47958261980396
 31
-0.0000000000026069
  0
LINE
  5
173E1
  8
0
 10
-205.2707546042328
 20
76.47958261980396
 30
-0.0000000000026069
 11
-201.2707546042328
 21
77.27957331262222
 31
-0.0000000000026069
  0
LINE
  5
173E2
  8
0
 10
-201.2707546042328
 20
77.27957331262222
 30
-0.0000000000026069
 11
-201.7707546042328
 21
77.3795744760199
 31
-0.0000000000026069
  0
LINE
  5
173E3
  8
0
 10
-233.2707546042328
 20
110.5795779662757
 30
-0.0000000000026069
 11
-234.7707546042328
 21
105.279581456414
 31
-0.0000000000026069
  0
LINE
  5
173E4
  8
0
 10
-234.7707546042328
 20
105.279581456414
 30
-0.0000000000026069
 11
-234.7707546042326
 21
75.57958145652212
 31
-0.0000000000026069
  0
LINE
  5
173E5
  8
0
 10
-233.2707546042328
 20
110.5795779662757
 30
-0.0000000000026069
 11
-231.7707546042327
 21
105.2795744760304
 31
-0.0000000000026069
  0
LINE
  5
173E6
  8
0
 10
-236.7708011401307
 20
75.5795861102202
 30
-0.0000000000026069
 11
-229.7708011401308
 21
75.57956982265587
 31
-0.0000000000026069
  0
LINE
  5
173E7
  8
0
 10
-231.7707546042327
 20
105.2795744760304
 30
-0.0000000000026069
 11
-231.7707546042326
 21
75.57957447613741
 31
-0.0000000000026069
  0
LINE
  5
173E8
  8
0
 10
-236.7708011401307
 20
75.5795861102202
 30
-0.0000000000026069
 11
-236.7708011401308
 21
74.47958262002489
 31
-0.0000000000026069
  0
ARC
  5
173E9
  8
0
 10
-235.2708011401308
 20
74.47958262002489
 30
-0.0000000000026069
 40
1.5
 50
180.0
 51
269.9998666844684
  0
LINE
  5
173EA
  8
0
 10
-229.7708011401308
 20
75.57956982265587
 30
-0.0000000000026069
 11
-229.7708011401308
 21
74.47957331284529
 31
-0.0000000000026069
  0
LINE
  5
173EB
  8
0
 10
-235.2708046303232
 20
72.97958262002895
 30
-0.0000000000026069
 11
-231.2708046303232
 21
72.97957331284935
 31
-0.0000000000026069
  0
ARC
  5
173EC
  8
0
 10
-231.2708011401308
 20
74.47957331284529
 30
-0.0000000000026069
 40
1.5
 50
269.9998666844684
 51
0.0
  0
LINE
  5
173ED
  8
1CENTER
 10
-233.2708011401308
 20
112.0103728837411
 30
-0.0000000000026069
 11
-233.2708011401308
 21
71.90930155712921
 31
-0.0000000000026069
  0
LINE
  5
173EE
  8
0
 10
-234.3651249541258
 20
108.4795805125978
 30
-0.0000000000026069
 11
-232.4027898652504
 21
109.2795759466488
 31
-0.0000000000026069
  0
LINE
  5
173EF
  8
0
 10
-232.4027898652504
 20
109.2795759466488
 30
-0.0000000000026069
 11
-232.9910664402928
 21
109.5913458029009
 31
-0.0000000000026069
  0
LINE
  5
173F0
  8
0
 10
-235.2707546042328
 20
86.07958261980785
 30
-0.0000000000026069
 11
-231.2707546042328
 21
86.8795733126261
 31
-0.0000000000026069
  0
LINE
  5
173F1
  8
0
 10
-235.2707546042328
 20
97.27958261981222
 30
-0.0000000000026069
 11
-231.2707546042328
 21
98.07957331263479
 31
-0.0000000000026069
  0
LINE
  5
173F2
  8
0
 10
-235.2707546042328
 20
100.4795826198123
 30
-0.0000000000026069
 11
-231.2707546042328
 21
101.2795733126348
 31
-0.0000000000026069
  0
LINE
  5
173F3
  8
0
 10
-231.2707546042328
 20
101.2795733126348
 30
-0.0000000000026069
 11
-231.7707546042328
 21
101.3795744760321
 31
-0.0000000000026069
  0
LINE
  5
173F4
  8
0
 10
-234.7707546042328
 20
101.9795814564151
 30
-0.0000000000026069
 11
-235.2707546042328
 21
102.0795826198123
 31
-0.0000000000026069
  0
LINE
  5
173F5
  8
0
 10
-231.2707546042328
 20
98.07957331263479
 30
-0.0000000000026069
 11
-231.7707546042328
 21
98.17957447603202
 31
-0.0000000000026069
  0
LINE
  5
173F6
  8
0
 10
-231.2707546042328
 20
99.67957331263493
 30
-0.0000000000026069
 11
-231.7707546042328
 21
99.77957447603204
 31
-0.0000000000026069
  0
LINE
  5
173F7
  8
0
 10
-234.7707546042328
 20
100.3795814564152
 30
-0.0000000000026069
 11
-235.2707546042328
 21
100.4795826198123
 31
-0.0000000000026069
  0
LINE
  5
173F8
  8
0
 10
-234.7707546042328
 20
98.77958145641524
 30
-0.0000000000026069
 11
-235.2707546042328
 21
98.87958261981235
 31
-0.0000000000026069
  0
LINE
  5
173F9
  8
0
 10
-235.2707546042328
 20
98.87958261981235
 30
-0.0000000000026069
 11
-231.2707546042328
 21
99.67957331263493
 31
-0.0000000000026069
  0
LINE
  5
173FA
  8
0
 10
-231.9499757608436
 20
107.6795748930432
 30
-0.0000000000026069
 11
-232.5017252246469
 21
107.8623390356712
 31
-0.0000000000026069
  0
LINE
  5
173FB
  8
0
 10
-231.2707546042328
 20
104.4795733126349
 30
-0.0000000000026069
 11
-231.7707546042328
 21
104.579574476032
 31
-0.0000000000026069
  0
LINE
  5
173FC
  8
0
 10
-231.2707546042328
 20
102.8795733126349
 30
-0.0000000000026069
 11
-231.7707546042328
 21
102.9795744760319
 31
-0.0000000000026069
  0
LINE
  5
173FD
  8
0
 10
-231.4971616564368
 20
106.0795738394375
 30
-0.0000000000026069
 11
-232.033755391708
 21
106.2088445370674
 31
-0.0000000000026069
  0
LINE
  5
173FE
  8
0
 10
-234.3498400070241
 20
106.766812053852
 30
-0.0000000000026069
 11
-234.8179384621741
 21
106.8795815662021
 31
-0.0000000000026069
  0
LINE
  5
173FF
  8
0
 10
-234.7707546042328
 20
103.5795814564152
 30
-0.0000000000026069
 11
-235.2707546042328
 21
103.6795826198123
 31
-0.0000000000026069
  0
LINE
  5
17400
  8
0
 10
-234.7707546042328
 20
105.1795814564151
 30
-0.0000000000026069
 11
-235.2707546042328
 21
105.2795826198122
 31
-0.0000000000026069
  0
LINE
  5
17401
  8
0
 10
-233.9079531134948
 20
108.3281447161574
 30
-0.0000000000026069
 11
-234.3651249541258
 21
108.4795805125978
 31
-0.0000000000026069
  0
LINE
  5
17402
  8
0
 10
-234.8179384621741
 20
106.8795815662021
 30
-0.0000000000026069
 11
-231.9499757608436
 21
107.6795748930432
 31
-0.0000000000026069
  0
LINE
  5
17403
  8
0
 10
-235.2707546042328
 20
103.6795826198123
 30
-0.0000000000026069
 11
-231.2707546042328
 21
104.4795733126349
 31
-0.0000000000026069
  0
LINE
  5
17404
  8
0
 10
-235.2707546042328
 20
105.2795826198122
 30
-0.0000000000026069
 11
-231.4971616564368
 21
106.0795738394375
 31
-0.0000000000026069
  0
LINE
  5
17405
  8
0
 10
-235.2707546042328
 20
102.0795826198123
 30
-0.0000000000026069
 11
-231.2707546042328
 21
102.8795733126349
 31
-0.0000000000026069
  0
LINE
  5
17406
  8
0
 10
-235.2707546042328
 20
89.2795826198079
 30
-0.0000000000026069
 11
-231.2707546042328
 21
90.07957331262615
 31
-0.0000000000026069
  0
LINE
  5
17407
  8
0
 10
-231.2707546042328
 20
90.07957331262615
 30
-0.0000000000026069
 11
-231.7707546042328
 21
90.17957447602383
 31
-0.0000000000026069
  0
LINE
  5
17408
  8
0
 10
-234.7707546042328
 20
90.77958145641456
 30
-0.0000000000026069
 11
-235.2707546042328
 21
90.87958261981224
 31
-0.0000000000026069
  0
LINE
  5
17409
  8
0
 10
-231.2707546042328
 20
88.47957331262602
 30
-0.0000000000026069
 11
-231.7707546042328
 21
88.5795744760237
 31
-0.0000000000026069
  0
LINE
  5
1740A
  8
0
 10
-231.2707546042328
 20
86.8795733126261
 30
-0.0000000000026069
 11
-231.7707546042328
 21
86.97957447602379
 31
-0.0000000000026069
  0
LINE
  5
1740B
  8
0
 10
-234.7707546042328
 20
89.17958145641022
 30
-0.0000000000026069
 11
-235.2707546042328
 21
89.2795826198079
 31
-0.0000000000026069
  0
LINE
  5
1740C
  8
0
 10
-234.7707546042328
 20
87.57958145641008
 30
-0.0000000000026069
 11
-235.2707546042328
 21
87.67958261980776
 31
-0.0000000000026069
  0
LINE
  5
1740D
  8
0
 10
-235.2707546042328
 20
87.67958261980776
 30
-0.0000000000026069
 11
-231.2707546042328
 21
88.47957331262602
 31
-0.0000000000026069
  0
LINE
  5
1740E
  8
0
 10
-231.2707546042328
 20
94.87957331263054
 30
-0.0000000000026069
 11
-231.7707546042328
 21
94.97957447602822
 31
-0.0000000000026069
  0
LINE
  5
1740F
  8
0
 10
-231.2707546042328
 20
96.47957331263488
 30
-0.0000000000026069
 11
-231.7707546042328
 21
96.579574476032
 31
-0.0000000000026069
  0
LINE
  5
17410
  8
0
 10
-231.2707546042328
 20
91.6795733126305
 30
-0.0000000000026069
 11
-231.7707546042328
 21
91.77957447602817
 31
-0.0000000000026069
  0
LINE
  5
17411
  8
0
 10
-231.2707546042328
 20
93.2795733126304
 30
-0.0000000000026069
 11
-231.7707546042328
 21
93.37957447602808
 31
-0.0000000000026069
  0
LINE
  5
17412
  8
0
 10
-234.7707546042328
 20
97.17958145641511
 30
-0.0000000000026069
 11
-235.2707546042328
 21
97.27958261981222
 31
-0.0000000000026069
  0
LINE
  5
17413
  8
0
 10
-234.7707546042328
 20
95.57958145641452
 30
-0.0000000000026069
 11
-235.2707546042328
 21
95.67958261981231
 31
-0.0000000000026069
  0
LINE
  5
17414
  8
0
 10
-234.7707546042328
 20
92.37958145641447
 30
-0.0000000000026069
 11
-235.2707546042328
 21
92.47958261981215
 31
-0.0000000000026069
  0
LINE
  5
17415
  8
0
 10
-234.7707546042328
 20
93.9795814564146
 30
-0.0000000000026069
 11
-235.2707546042328
 21
94.07958261981229
 31
-0.0000000000026069
  0
LINE
  5
17416
  8
0
 10
-235.2707546042328
 20
94.07958261981229
 30
-0.0000000000026069
 11
-231.2707546042328
 21
94.87957331263054
 31
-0.0000000000026069
  0
LINE
  5
17417
  8
0
 10
-235.2707546042328
 20
95.67958261981231
 30
-0.0000000000026069
 11
-231.2707546042328
 21
96.47957331263488
 31
-0.0000000000026069
  0
LINE
  5
17418
  8
0
 10
-235.2707546042328
 20
92.47958261981215
 30
-0.0000000000026069
 11
-231.2707546042328
 21
93.2795733126304
 31
-0.0000000000026069
  0
LINE
  5
17419
  8
0
 10
-235.2707546042328
 20
90.87958261981224
 30
-0.0000000000026069
 11
-231.2707546042328
 21
91.6795733126305
 31
-0.0000000000026069
  0
LINE
  5
1741A
  8
0
 10
-234.7707546042328
 20
81.17958145640601
 30
-0.0000000000026069
 11
-235.2707546042328
 21
81.27958261980369
 31
-0.0000000000026069
  0
LINE
  5
1741B
  8
0
 10
-235.2707546042328
 20
81.27958261980369
 30
-0.0000000000026069
 11
-231.2707546042328
 21
82.07957331262195
 31
-0.0000000000026069
  0
LINE
  5
1741C
  8
0
 10
-231.2707546042328
 20
82.07957331262195
 30
-0.0000000000026069
 11
-231.7707546042328
 21
82.17957447601962
 31
-0.0000000000026069
  0
LINE
  5
1741D
  8
0
 10
-234.7707546042328
 20
82.77958145640592
 30
-0.0000000000026069
 11
-235.2707546042328
 21
82.8795826198036
 31
-0.0000000000026069
  0
LINE
  5
1741E
  8
0
 10
-234.7707546042328
 20
84.37958145640583
 30
-0.0000000000026069
 11
-235.2707546042328
 21
84.47958261980351
 31
-0.0000000000026069
  0
LINE
  5
1741F
  8
0
 10
-235.2707546042328
 20
84.47958261980351
 30
-0.0000000000026069
 11
-231.2707546042328
 21
85.27957331262176
 31
-0.0000000000026069
  0
LINE
  5
17420
  8
0
 10
-231.2707546042328
 20
83.67957331262186
 30
-0.0000000000026069
 11
-231.7707546042328
 21
83.77957447601953
 31
-0.0000000000026069
  0
LINE
  5
17421
  8
0
 10
-231.2707546042328
 20
85.27957331262176
 30
-0.0000000000026069
 11
-231.7707546042328
 21
85.37957447601944
 31
-0.0000000000026069
  0
LINE
  5
17422
  8
0
 10
-235.2707546042328
 20
82.8795826198036
 30
-0.0000000000026069
 11
-231.2707546042328
 21
83.67957331262186
 31
-0.0000000000026069
  0
LINE
  5
17423
  8
0
 10
-234.7707546042328
 20
85.97958145641017
 30
-0.0000000000026069
 11
-235.2707546042328
 21
86.07958261980785
 31
-0.0000000000026069
  0
LINE
  5
17424
  8
0
 10
-234.7707546042328
 20
79.5795814564061
 30
-0.0000000000026069
 11
-235.2707546042328
 21
79.67958261980378
 31
-0.0000000000026069
  0
LINE
  5
17425
  8
0
 10
-235.2707546042328
 20
79.67958261980378
 30
-0.0000000000026069
 11
-231.2707546042328
 21
80.47957331262204
 31
-0.0000000000026069
  0
LINE
  5
17426
  8
0
 10
-231.2707546042328
 20
80.47957331262204
 30
-0.0000000000026069
 11
-231.7707546042328
 21
80.57957447601972
 31
-0.0000000000026069
  0
LINE
  5
17427
  8
0
 10
-234.7707546042328
 20
77.9795814564062
 30
-0.0000000000026069
 11
-235.2707546042328
 21
78.07958261980387
 31
-0.0000000000026069
  0
LINE
  5
17428
  8
0
 10
-235.2707546042328
 20
78.07958261980387
 30
-0.0000000000026069
 11
-231.2707546042328
 21
78.87957331262213
 31
-0.0000000000026069
  0
LINE
  5
17429
  8
0
 10
-231.2707546042328
 20
78.87957331262213
 30
-0.0000000000026069
 11
-231.7707546042328
 21
78.9795744760198
 31
-0.0000000000026069
  0
LINE
  5
1742A
  8
0
 10
-234.7707546042328
 20
76.37958145640629
 30
-0.0000000000026069
 11
-235.2707546042328
 21
76.47958261980396
 31
-0.0000000000026069
  0
LINE
  5
1742B
  8
0
 10
-235.2707546042328
 20
76.47958261980396
 30
-0.0000000000026069
 11
-231.2707546042328
 21
77.27957331262222
 31
-0.0000000000026069
  0
LINE
  5
1742C
  8
0
 10
-231.2707546042328
 20
77.27957331262222
 30
-0.0000000000026069
 11
-231.7707546042328
 21
77.3795744760199
 31
-0.0000000000026069
  0
LINE
  5
1742D
  8
1DIM
 10
-153.7708011140537
 20
80.57957796643804
 30
0.0
 11
-121.220801114054
 21
80.57957796643804
 31
0.0
1001
ACAD
1000
DSTYLE
1002
{
1070
    70
1070
     0
1070
    69
1070
     0
1070
   271
1070
     0
1070
    45
1040
0.5
1070
    40
1040
2.0
1002
}
  0
LINE
  5
1742E
  8
1DIM
 10
-149.7708011140537
 20
-5.420422033562019
 30
0.0
 11
-121.220801114054
 21
-5.420422033562019
 31
0.0
1001
ACAD
1000
DSTYLE
1002
{
1070
    70
1070
     0
1070
    69
1070
     0
1070
   271
1070
     0
1070
    45
1040
0.5
1070
    40
1040
2.0
1002
}
  0
LINE
  5
1742F
  8
1DIM
 10
-123.220801114054
 20
76.57957796643804
 30
0.0
 11
-123.220801114054
 21
-1.420422033562019
 31
0.0
1001
ACAD
1000
DSTYLE
1002
{
1070
    70
1070
     0
1070
    69
1070
     0
1070
   271
1070
     0
1070
    45
1040
0.5
1070
    40
1040
2.0
1002
}
  0
LINE
  5
17433
  8
1DIM
 10
-429.2708011401307
 20
-83.83043077846838
 30
0.0
 11
-429.2708011401307
 21
-49.72935806866394
 31
0.0
1001
ACAD
1000
DSTYLE
1002
{
1070
   271
1070
     1
1070
    45
1040
0.5
1070
    40
1040
2.0
1002
}
  0
LINE
  5
17434
  8
1DIM
 10
-148.7708011401307
 20
-83.83043077846838
 30
0.0
 11
-148.7708011401307
 21
-49.72935806866394
 31
0.0
1001
ACAD
1000
DSTYLE
1002
{
1070
   271
1070
     1
1070
    45
1040
0.5
1070
    40
1040
2.0
1002
}
  0
LINE
  5
17435
  8
1DIM
 10
-425.2708011401307
 20
-51.72935806866394
 30
0.0
 11
-152.7708011401307
 21
-51.72935806866394
 31
0.0
1001
ACAD
1000
DSTYLE
1002
{
1070
   271
1070
     1
1070
    45
1040
0.5
1070
    40
1040
2.0
1002
}
  0
LINE
  5
17439
  8
0
  6
CONTINUOUS
 10
-203.2708011401308
 20
-119.8304307784684
 30
-0.0000000000026069
 11
-203.2708011401308
 21
-117.3304307784684
 31
-0.0000000000026069
  0
LINE
  5
1743A
  8
0
  6
CONTINUOUS
 10
-203.2708011401308
 20
-119.8304307784684
 30
-0.0000000000026069
 11
-205.7708011401308
 21
-119.8304307784684
 31
-0.0000000000026069
  0
LINE
  5
1743B
  8
0
  6
CONTINUOUS
 10
-203.2708011401308
 20
-119.8304307784684
 30
-0.0000000000026069
 11
-203.2708011401308
 21
-122.3304307784684
 31
-0.0000000000026069
  0
LINE
  5
1743C
  8
0
  6
CONTINUOUS
 10
-203.2708011401308
 20
-119.8304307784684
 30
-0.0000000000026069
 11
-200.7708011401308
 21
-119.8304307784684
 31
-0.0000000000026069
  0
LINE
  5
1743D
  8
0
  6
CONTINUOUS
 10
-203.2708011401308
 20
-117.3304307784684
 30
-0.0000000000026069
 11
-203.2708011401308
 21
-115.6804307784684
 31
-0.0000000000026069
  0
LINE
  5
1743E
  8
0
  6
CONTINUOUS
 10
-205.7708011401308
 20
-119.8304307784684
 30
-0.0000000000026069
 11
-207.4208011401308
 21
-119.8304307784684
 31
-0.0000000000026069
  0
LINE
  5
1743F
  8
0
  6
CONTINUOUS
 10
-203.2708011401308
 20
-122.3304307784684
 30
-0.0000000000026069
 11
-203.2708011401308
 21
-123.9804307784685
 31
-0.0000000000026069
  0
LINE
  5
17440
  8
0
  6
CONTINUOUS
 10
-200.7708011401308
 20
-119.8304307784684
 30
-0.0000000000026069
 11
-199.1208011401308
 21
-119.8304307784684
 31
-0.0000000000026069
  0
LINE
  5
17441
  8
0
  6
CONTINUOUS
 10
-233.2708011401308
 20
-119.8304307784684
 30
-0.0000000000026069
 11
-233.2708011401308
 21
-117.3304307784684
 31
-0.0000000000026069
  0
LINE
  5
17442
  8
0
  6
CONTINUOUS
 10
-233.2708011401308
 20
-119.8304307784684
 30
-0.0000000000026069
 11
-235.7708011401308
 21
-119.8304307784684
 31
-0.0000000000026069
  0
LINE
  5
17443
  8
0
  6
CONTINUOUS
 10
-233.2708011401308
 20
-119.8304307784684
 30
-0.0000000000026069
 11
-233.2708011401308
 21
-122.3304307784684
 31
-0.0000000000026069
  0
LINE
  5
17444
  8
0
  6
CONTINUOUS
 10
-233.2708011401308
 20
-119.8304307784684
 30
-0.0000000000026069
 11
-230.7708011401308
 21
-119.8304307784684
 31
-0.0000000000026069
  0
LINE
  5
17445
  8
0
  6
CONTINUOUS
 10
-233.2708011401308
 20
-117.3304307784684
 30
-0.0000000000026069
 11
-233.2708011401308
 21
-115.6804307784684
 31
-0.0000000000026069
  0
LINE
  5
17446
  8
0
  6
CONTINUOUS
 10
-235.7708011401308
 20
-119.8304307784684
 30
-0.0000000000026069
 11
-237.4208011401308
 21
-119.8304307784684
 31
-0.0000000000026069
  0
LINE
  5
17447
  8
0
  6
CONTINUOUS
 10
-233.2708011401308
 20
-122.3304307784684
 30
-0.0000000000026069
 11
-233.2708011401308
 21
-123.9804307784685
 31
-0.0000000000026069
  0
LINE
  5
17448
  8
0
  6
CONTINUOUS
 10
-230.7708011401308
 20
-119.8304307784684
 30
-0.0000000000026069
 11
-229.1208011401307
 21
-119.8304307784684
 31
-0.0000000000026069
  0
LINE
  5
17449
  8
0
  6
CONTINUOUS
 10
-344.7708011401307
 20
-119.8304307784684
 30
-0.0000000000026069
 11
-344.7708011401307
 21
-117.3304307784684
 31
-0.0000000000026069
  0
LINE
  5
1744A
  8
0
  6
CONTINUOUS
 10
-344.7708011401307
 20
-119.8304307784684
 30
-0.0000000000026069
 11
-347.2708011401307
 21
-119.8304307784684
 31
-0.0000000000026069
  0
LINE
  5
1744B
  8
0
  6
CONTINUOUS
 10
-344.7708011401307
 20
-119.8304307784684
 30
-0.0000000000026069
 11
-344.7708011401307
 21
-122.3304307784684
 31
-0.0000000000026069
  0
LINE
  5
1744C
  8
0
  6
CONTINUOUS
 10
-344.7708011401307
 20
-119.8304307784684
 30
-0.0000000000026069
 11
-342.2708011401307
 21
-119.8304307784684
 31
-0.0000000000026069
  0
LINE
  5
1744D
  8
0
  6
CONTINUOUS
 10
-344.7708011401307
 20
-117.3304307784684
 30
-0.0000000000026069
 11
-344.7708011401307
 21
-115.6804307784684
 31
-0.0000000000026069
  0
LINE
  5
1744E
  8
0
  6
CONTINUOUS
 10
-347.2708011401307
 20
-119.8304307784684
 30
-0.0000000000026069
 11
-348.9208011401308
 21
-119.8304307784684
 31
-0.0000000000026069
  0
LINE
  5
1744F
  8
0
  6
CONTINUOUS
 10
-344.7708011401307
 20
-122.3304307784684
 30
-0.0000000000026069
 11
-344.7708011401307
 21
-123.9804307784685
 31
-0.0000000000026069
  0
LINE
  5
17450
  8
0
  6
CONTINUOUS
 10
-342.2708011401307
 20
-119.8304307784684
 30
-0.0000000000026069
 11
-340.6208011401307
 21
-119.8304307784684
 31
-0.0000000000026069
  0
LINE
  5
17451
  8
0
  6
CONTINUOUS
 10
-374.7708011401307
 20
-119.8304307784684
 30
-0.0000000000026069
 11
-374.7708011401307
 21
-117.3304307784684
 31
-0.0000000000026069
  0
LINE
  5
17452
  8
0
  6
CONTINUOUS
 10
-374.7708011401307
 20
-119.8304307784684
 30
-0.0000000000026069
 11
-377.2708011401307
 21
-119.8304307784684
 31
-0.0000000000026069
  0
LINE
  5
17453
  8
0
  6
CONTINUOUS
 10
-374.7708011401307
 20
-119.8304307784684
 30
-0.0000000000026069
 11
-374.7708011401307
 21
-122.3304307784684
 31
-0.0000000000026069
  0
LINE
  5
17454
  8
0
  6
CONTINUOUS
 10
-374.7708011401307
 20
-119.8304307784684
 30
-0.0000000000026069
 11
-372.2708011401307
 21
-119.8304307784684
 31
-0.0000000000026069
  0
LINE
  5
17455
  8
0
  6
CONTINUOUS
 10
-374.7708011401307
 20
-117.3304307784684
 30
-0.0000000000026069
 11
-374.7708011401307
 21
-115.6804307784684
 31
-0.0000000000026069
  0
LINE
  5
17456
  8
0
  6
CONTINUOUS
 10
-377.2708011401307
 20
-119.8304307784684
 30
-0.0000000000026069
 11
-378.9208011401308
 21
-119.8304307784684
 31
-0.0000000000026069
  0
LINE
  5
17457
  8
0
  6
CONTINUOUS
 10
-374.7708011401307
 20
-122.3304307784684
 30
-0.0000000000026069
 11
-374.7708011401307
 21
-123.9804307784685
 31
-0.0000000000026069
  0
LINE
  5
17458
  8
0
  6
CONTINUOUS
 10
-372.2708011401307
 20
-119.8304307784684
 30
-0.0000000000026069
 11
-370.6208011401307
 21
-119.8304307784684
 31
-0.0000000000026069
  0
LINE
  5
17459
  8
0
 10
-344.7707546042328
 20
110.5795779662757
 30
-0.0000000000026069
 11
-346.2707546042328
 21
105.279581456414
 31
-0.0000000000026069
  0
LINE
  5
1745A
  8
0
 10
-346.2707546042328
 20
105.279581456414
 30
-0.0000000000026069
 11
-346.2707546042326
 21
75.57958145652212
 31
-0.0000000000026069
  0
LINE
  5
1745B
  8
0
 10
-344.7707546042328
 20
110.5795779662757
 30
-0.0000000000026069
 11
-343.2707546042327
 21
105.2795744760304
 31
-0.0000000000026069
  0
LINE
  5
1745C
  8
0
 10
-348.2708011401306
 20
75.5795861102202
 30
-0.0000000000026069
 11
-341.2708011401307
 21
75.57956982265587
 31
-0.0000000000026069
  0
LINE
  5
1745D
  8
0
 10
-343.2707546042327
 20
105.2795744760304
 30
-0.0000000000026069
 11
-343.2707546042326
 21
75.57957447613741
 31
-0.0000000000026069
  0
LINE
  5
1745E
  8
0
 10
-348.2708011401306
 20
75.5795861102202
 30
-0.0000000000026069
 11
-348.2708011401307
 21
74.47958262002489
 31
-0.0000000000026069
  0
ARC
  5
1745F
  8
0
 10
-346.7708011401307
 20
74.47958262002489
 30
-0.0000000000026069
 40
1.5
 50
180.0
 51
269.9998666844684
  0
LINE
  5
17460
  8
0
 10
-341.2708011401307
 20
75.57956982265587
 30
-0.0000000000026069
 11
-341.2708011401307
 21
74.47957331284529
 31
-0.0000000000026069
  0
LINE
  5
17461
  8
0
 10
-346.7708046303231
 20
72.97958262002895
 30
-0.0000000000026069
 11
-342.7708046303231
 21
72.97957331284935
 31
-0.0000000000026069
  0
ARC
  5
17462
  8
0
 10
-342.7708011401307
 20
74.47957331284529
 30
-0.0000000000026069
 40
1.5
 50
269.9998666844684
 51
0.0
  0
LINE
  5
17463
  8
1CENTER
 10
-344.7708011401307
 20
112.0103728837411
 30
-0.0000000000026069
 11
-344.7708011401307
 21
71.90930155712921
 31
-0.0000000000026069
  0
LINE
  5
17464
  8
0
 10
-345.8651249541258
 20
108.4795805125978
 30
-0.0000000000026069
 11
-343.9027898652504
 21
109.2795759466488
 31
-0.0000000000026069
  0
LINE
  5
17465
  8
0
 10
-343.9027898652504
 20
109.2795759466488
 30
-0.0000000000026069
 11
-344.4910664402928
 21
109.5913458029009
 31
-0.0000000000026069
  0
LINE
  5
17466
  8
0
 10
-346.7707546042328
 20
86.07958261980785
 30
-0.0000000000026069
 11
-342.7707546042328
 21
86.8795733126261
 31
-0.0000000000026069
  0
LINE
  5
17467
  8
0
 10
-346.7707546042328
 20
97.27958261981222
 30
-0.0000000000026069
 11
-342.7707546042328
 21
98.07957331263479
 31
-0.0000000000026069
  0
LINE
  5
17468
  8
0
 10
-346.7707546042328
 20
100.4795826198123
 30
-0.0000000000026069
 11
-342.7707546042328
 21
101.2795733126348
 31
-0.0000000000026069
  0
LINE
  5
17469
  8
0
 10
-342.7707546042328
 20
101.2795733126348
 30
-0.0000000000026069
 11
-343.2707546042328
 21
101.3795744760321
 31
-0.0000000000026069
  0
LINE
  5
1746A
  8
0
 10
-346.2707546042328
 20
101.9795814564151
 30
-0.0000000000026069
 11
-346.7707546042328
 21
102.0795826198123
 31
-0.0000000000026069
  0
LINE
  5
1746B
  8
0
 10
-342.7707546042328
 20
98.07957331263479
 30
-0.0000000000026069
 11
-343.2707546042328
 21
98.17957447603202
 31
-0.0000000000026069
  0
LINE
  5
1746C
  8
0
 10
-342.7707546042328
 20
99.67957331263493
 30
-0.0000000000026069
 11
-343.2707546042328
 21
99.77957447603204
 31
-0.0000000000026069
  0
LINE
  5
1746D
  8
0
 10
-346.2707546042328
 20
100.3795814564152
 30
-0.0000000000026069
 11
-346.7707546042328
 21
100.4795826198123
 31
-0.0000000000026069
  0
LINE
  5
1746E
  8
0
 10
-346.2707546042328
 20
98.77958145641524
 30
-0.0000000000026069
 11
-346.7707546042328
 21
98.87958261981235
 31
-0.0000000000026069
  0
LINE
  5
1746F
  8
0
 10
-346.7707546042328
 20
98.87958261981235
 30
-0.0000000000026069
 11
-342.7707546042328
 21
99.67957331263493
 31
-0.0000000000026069
  0
LINE
  5
17470
  8
0
 10
-343.4499757608436
 20
107.6795748930432
 30
-0.0000000000026069
 11
-344.0017252246469
 21
107.8623390356712
 31
-0.0000000000026069
  0
LINE
  5
17471
  8
0
 10
-342.7707546042328
 20
104.4795733126349
 30
-0.0000000000026069
 11
-343.2707546042328
 21
104.579574476032
 31
-0.0000000000026069
  0
LINE
  5
17472
  8
0
 10
-342.7707546042328
 20
102.8795733126349
 30
-0.0000000000026069
 11
-343.2707546042328
 21
102.9795744760319
 31
-0.0000000000026069
  0
LINE
  5
17473
  8
0
 10
-342.9971616564368
 20
106.0795738394375
 30
-0.0000000000026069
 11
-343.5337553917079
 21
106.2088445370674
 31
-0.0000000000026069
  0
LINE
  5
17474
  8
0
 10
-345.8498400070241
 20
106.766812053852
 30
-0.0000000000026069
 11
-346.3179384621741
 21
106.8795815662021
 31
-0.0000000000026069
  0
LINE
  5
17475
  8
0
 10
-346.2707546042328
 20
103.5795814564152
 30
-0.0000000000026069
 11
-346.7707546042328
 21
103.6795826198123
 31
-0.0000000000026069
  0
LINE
  5
17476
  8
0
 10
-346.2707546042328
 20
105.1795814564151
 30
-0.0000000000026069
 11
-346.7707546042328
 21
105.2795826198122
 31
-0.0000000000026069
  0
LINE
  5
17477
  8
0
 10
-345.4079531134947
 20
108.3281447161574
 30
-0.0000000000026069
 11
-345.8651249541258
 21
108.4795805125978
 31
-0.0000000000026069
  0
LINE
  5
17478
  8
0
 10
-346.3179384621741
 20
106.8795815662021
 30
-0.0000000000026069
 11
-343.4499757608436
 21
107.6795748930432
 31
-0.0000000000026069
  0
LINE
  5
17479
  8
0
 10
-346.7707546042328
 20
103.6795826198123
 30
-0.0000000000026069
 11
-342.7707546042328
 21
104.4795733126349
 31
-0.0000000000026069
  0
LINE
  5
1747A
  8
0
 10
-346.7707546042328
 20
105.2795826198122
 30
-0.0000000000026069
 11
-342.9971616564368
 21
106.0795738394375
 31
-0.0000000000026069
  0
LINE
  5
1747B
  8
0
 10
-346.7707546042328
 20
102.0795826198123
 30
-0.0000000000026069
 11
-342.7707546042328
 21
102.8795733126349
 31
-0.0000000000026069
  0
LINE
  5
1747C
  8
0
 10
-346.7707546042328
 20
89.2795826198079
 30
-0.0000000000026069
 11
-342.7707546042328
 21
90.07957331262615
 31
-0.0000000000026069
  0
LINE
  5
1747D
  8
0
 10
-342.7707546042328
 20
90.07957331262615
 30
-0.0000000000026069
 11
-343.2707546042328
 21
90.17957447602383
 31
-0.0000000000026069
  0
LINE
  5
1747E
  8
0
 10
-346.2707546042328
 20
90.77958145641456
 30
-0.0000000000026069
 11
-346.7707546042328
 21
90.87958261981224
 31
-0.0000000000026069
  0
LINE
  5
1747F
  8
0
 10
-342.7707546042328
 20
88.47957331262602
 30
-0.0000000000026069
 11
-343.2707546042328
 21
88.5795744760237
 31
-0.0000000000026069
  0
LINE
  5
17480
  8
0
 10
-342.7707546042328
 20
86.8795733126261
 30
-0.0000000000026069
 11
-343.2707546042328
 21
86.97957447602379
 31
-0.0000000000026069
  0
LINE
  5
17481
  8
0
 10
-346.2707546042328
 20
89.17958145641022
 30
-0.0000000000026069
 11
-346.7707546042328
 21
89.2795826198079
 31
-0.0000000000026069
  0
LINE
  5
17482
  8
0
 10
-346.2707546042328
 20
87.57958145641008
 30
-0.0000000000026069
 11
-346.7707546042328
 21
87.67958261980776
 31
-0.0000000000026069
  0
LINE
  5
17483
  8
0
 10
-346.7707546042328
 20
87.67958261980776
 30
-0.0000000000026069
 11
-342.7707546042328
 21
88.47957331262602
 31
-0.0000000000026069
  0
LINE
  5
17484
  8
0
 10
-342.7707546042328
 20
94.87957331263054
 30
-0.0000000000026069
 11
-343.2707546042328
 21
94.97957447602822
 31
-0.0000000000026069
  0
LINE
  5
17485
  8
0
 10
-342.7707546042328
 20
96.47957331263488
 30
-0.0000000000026069
 11
-343.2707546042328
 21
96.579574476032
 31
-0.0000000000026069
  0
LINE
  5
17486
  8
0
 10
-342.7707546042328
 20
91.6795733126305
 30
-0.0000000000026069
 11
-343.2707546042328
 21
91.77957447602817
 31
-0.0000000000026069
  0
LINE
  5
17487
  8
0
 10
-342.7707546042328
 20
93.2795733126304
 30
-0.0000000000026069
 11
-343.2707546042328
 21
93.37957447602808
 31
-0.0000000000026069
  0
LINE
  5
17488
  8
0
 10
-346.2707546042328
 20
97.17958145641511
 30
-0.0000000000026069
 11
-346.7707546042328
 21
97.27958261981222
 31
-0.0000000000026069
  0
LINE
  5
17489
  8
0
 10
-346.2707546042328
 20
95.57958145641452
 30
-0.0000000000026069
 11
-346.7707546042328
 21
95.67958261981231
 31
-0.0000000000026069
  0
LINE
  5
1748A
  8
0
 10
-346.2707546042328
 20
92.37958145641447
 30
-0.0000000000026069
 11
-346.7707546042328
 21
92.47958261981215
 31
-0.0000000000026069
  0
LINE
  5
1748B
  8
0
 10
-346.2707546042328
 20
93.9795814564146
 30
-0.0000000000026069
 11
-346.7707546042328
 21
94.07958261981229
 31
-0.0000000000026069
  0
LINE
  5
1748C
  8
0
 10
-346.7707546042328
 20
94.07958261981229
 30
-0.0000000000026069
 11
-342.7707546042328
 21
94.87957331263054
 31
-0.0000000000026069
  0
LINE
  5
1748D
  8
0
 10
-346.7707546042328
 20
95.67958261981231
 30
-0.0000000000026069
 11
-342.7707546042328
 21
96.47957331263488
 31
-0.0000000000026069
  0
LINE
  5
1748E
  8
0
 10
-346.7707546042328
 20
92.47958261981215
 30
-0.0000000000026069
 11
-342.7707546042328
 21
93.2795733126304
 31
-0.0000000000026069
  0
LINE
  5
1748F
  8
0
 10
-346.7707546042328
 20
90.87958261981224
 30
-0.0000000000026069
 11
-342.7707546042328
 21
91.6795733126305
 31
-0.0000000000026069
  0
LINE
  5
17490
  8
0
 10
-346.2707546042328
 20
81.17958145640601
 30
-0.0000000000026069
 11
-346.7707546042328
 21
81.27958261980369
 31
-0.0000000000026069
  0
LINE
  5
17491
  8
0
 10
-346.7707546042328
 20
81.27958261980369
 30
-0.0000000000026069
 11
-342.7707546042328
 21
82.07957331262195
 31
-0.0000000000026069
  0
LINE
  5
17492
  8
0
 10
-342.7707546042328
 20
82.07957331262195
 30
-0.0000000000026069
 11
-343.2707546042328
 21
82.17957447601962
 31
-0.0000000000026069
  0
LINE
  5
17493
  8
0
 10
-346.2707546042328
 20
82.77958145640592
 30
-0.0000000000026069
 11
-346.7707546042328
 21
82.8795826198036
 31
-0.0000000000026069
  0
LINE
  5
17494
  8
0
 10
-346.2707546042328
 20
84.37958145640583
 30
-0.0000000000026069
 11
-346.7707546042328
 21
84.47958261980351
 31
-0.0000000000026069
  0
LINE
  5
17495
  8
0
 10
-346.7707546042328
 20
84.47958261980351
 30
-0.0000000000026069
 11
-342.7707546042328
 21
85.27957331262176
 31
-0.0000000000026069
  0
LINE
  5
17496
  8
0
 10
-342.7707546042328
 20
83.67957331262186
 30
-0.0000000000026069
 11
-343.2707546042328
 21
83.77957447601953
 31
-0.0000000000026069
  0
LINE
  5
17497
  8
0
 10
-342.7707546042328
 20
85.27957331262176
 30
-0.0000000000026069
 11
-343.2707546042328
 21
85.37957447601944
 31
-0.0000000000026069
  0
LINE
  5
17498
  8
0
 10
-346.7707546042328
 20
82.8795826198036
 30
-0.0000000000026069
 11
-342.7707546042328
 21
83.67957331262186
 31
-0.0000000000026069
  0
LINE
  5
17499
  8
0
 10
-346.2707546042328
 20
85.97958145641017
 30
-0.0000000000026069
 11
-346.7707546042328
 21
86.07958261980785
 31
-0.0000000000026069
  0
LINE
  5
1749A
  8
0
 10
-346.2707546042328
 20
79.5795814564061
 30
-0.0000000000026069
 11
-346.7707546042328
 21
79.67958261980378
 31
-0.0000000000026069
  0
LINE
  5
1749B
  8
0
 10
-346.7707546042328
 20
79.67958261980378
 30
-0.0000000000026069
 11
-342.7707546042328
 21
80.47957331262204
 31
-0.0000000000026069
  0
LINE
  5
1749C
  8
0
 10
-342.7707546042328
 20
80.47957331262204
 30
-0.0000000000026069
 11
-343.2707546042328
 21
80.57957447601972
 31
-0.0000000000026069
  0
LINE
  5
1749D
  8
0
 10
-346.2707546042328
 20
77.9795814564062
 30
-0.0000000000026069
 11
-346.7707546042328
 21
78.07958261980387
 31
-0.0000000000026069
  0
LINE
  5
1749E
  8
0
 10
-346.7707546042328
 20
78.07958261980387
 30
-0.0000000000026069
 11
-342.7707546042328
 21
78.87957331262213
 31
-0.0000000000026069
  0
LINE
  5
1749F
  8
0
 10
-342.7707546042328
 20
78.87957331262213
 30
-0.0000000000026069
 11
-343.2707546042328
 21
78.9795744760198
 31
-0.0000000000026069
  0
LINE
  5
174A0
  8
0
 10
-346.2707546042328
 20
76.37958145640629
 30
-0.0000000000026069
 11
-346.7707546042328
 21
76.47958261980396
 31
-0.0000000000026069
  0
LINE
  5
174A1
  8
0
 10
-346.7707546042328
 20
76.47958261980396
 30
-0.0000000000026069
 11
-342.7707546042328
 21
77.27957331262222
 31
-0.0000000000026069
  0
LINE
  5
174A2
  8
0
 10
-342.7707546042328
 20
77.27957331262222
 30
-0.0000000000026069
 11
-343.2707546042328
 21
77.3795744760199
 31
-0.0000000000026069
  0
LINE
  5
174A3
  8
0
 10
-374.7707546042328
 20
110.5795779662757
 30
-0.0000000000026069
 11
-376.2707546042328
 21
105.279581456414
 31
-0.0000000000026069
  0
LINE
  5
174A4
  8
0
 10
-376.2707546042328
 20
105.279581456414
 30
-0.0000000000026069
 11
-376.2707546042326
 21
75.57958145652212
 31
-0.0000000000026069
  0
LINE
  5
174A5
  8
0
 10
-374.7707546042328
 20
110.5795779662757
 30
-0.0000000000026069
 11
-373.2707546042327
 21
105.2795744760304
 31
-0.0000000000026069
  0
LINE
  5
174A6
  8
0
 10
-378.2708011401306
 20
75.5795861102202
 30
-0.0000000000026069
 11
-371.2708011401307
 21
75.57956982265587
 31
-0.0000000000026069
  0
LINE
  5
174A7
  8
0
 10
-373.2707546042327
 20
105.2795744760304
 30
-0.0000000000026069
 11
-373.2707546042326
 21
75.57957447613741
 31
-0.0000000000026069
  0
LINE
  5
174A8
  8
0
 10
-378.2708011401306
 20
75.5795861102202
 30
-0.0000000000026069
 11
-378.2708011401307
 21
74.47958262002489
 31
-0.0000000000026069
  0
ARC
  5
174A9
  8
0
 10
-376.7708011401307
 20
74.47958262002489
 30
-0.0000000000026069
 40
1.5
 50
180.0
 51
269.9998666844684
  0
LINE
  5
174AA
  8
0
 10
-371.2708011401307
 20
75.57956982265587
 30
-0.0000000000026069
 11
-371.2708011401307
 21
74.47957331284529
 31
-0.0000000000026069
  0
LINE
  5
174AB
  8
0
 10
-376.7708046303231
 20
72.97958262002895
 30
-0.0000000000026069
 11
-372.7708046303231
 21
72.97957331284935
 31
-0.0000000000026069
  0
ARC
  5
174AC
  8
0
 10
-372.7708011401307
 20
74.47957331284529
 30
-0.0000000000026069
 40
1.5
 50
269.9998666844684
 51
0.0
  0
LINE
  5
174AD
  8
1CENTER
 10
-374.7708011401307
 20
112.0103728837411
 30
-0.0000000000026069
 11
-374.7708011401307
 21
71.90930155712921
 31
-0.0000000000026069
  0
LINE
  5
174AE
  8
0
 10
-375.8651249541258
 20
108.4795805125978
 30
-0.0000000000026069
 11
-373.9027898652504
 21
109.2795759466488
 31
-0.0000000000026069
  0
LINE
  5
174AF
  8
0
 10
-373.9027898652504
 20
109.2795759466488
 30
-0.0000000000026069
 11
-374.4910664402928
 21
109.5913458029009
 31
-0.0000000000026069
  0
LINE
  5
174B0
  8
0
 10
-376.7707546042328
 20
86.07958261980785
 30
-0.0000000000026069
 11
-372.7707546042328
 21
86.8795733126261
 31
-0.0000000000026069
  0
LINE
  5
174B1
  8
0
 10
-376.7707546042328
 20
97.27958261981222
 30
-0.0000000000026069
 11
-372.7707546042328
 21
98.07957331263479
 31
-0.0000000000026069
  0
LINE
  5
174B2
  8
0
 10
-376.7707546042328
 20
100.4795826198123
 30
-0.0000000000026069
 11
-372.7707546042328
 21
101.2795733126348
 31
-0.0000000000026069
  0
LINE
  5
174B3
  8
0
 10
-372.7707546042328
 20
101.2795733126348
 30
-0.0000000000026069
 11
-373.2707546042328
 21
101.3795744760321
 31
-0.0000000000026069
  0
LINE
  5
174B4
  8
0
 10
-376.2707546042328
 20
101.9795814564151
 30
-0.0000000000026069
 11
-376.7707546042328
 21
102.0795826198123
 31
-0.0000000000026069
  0
LINE
  5
174B5
  8
0
 10
-372.7707546042328
 20
98.07957331263479
 30
-0.0000000000026069
 11
-373.2707546042328
 21
98.17957447603202
 31
-0.0000000000026069
  0
LINE
  5
174B6
  8
0
 10
-372.7707546042328
 20
99.67957331263493
 30
-0.0000000000026069
 11
-373.2707546042328
 21
99.77957447603204
 31
-0.0000000000026069
  0
LINE
  5
174B7
  8
0
 10
-376.2707546042328
 20
100.3795814564152
 30
-0.0000000000026069
 11
-376.7707546042328
 21
100.4795826198123
 31
-0.0000000000026069
  0
LINE
  5
174B8
  8
0
 10
-376.2707546042328
 20
98.77958145641524
 30
-0.0000000000026069
 11
-376.7707546042328
 21
98.87958261981235
 31
-0.0000000000026069
  0
LINE
  5
174B9
  8
0
 10
-376.7707546042328
 20
98.87958261981235
 30
-0.0000000000026069
 11
-372.7707546042328
 21
99.67957331263493
 31
-0.0000000000026069
  0
LINE
  5
174BA
  8
0
 10
-373.4499757608436
 20
107.6795748930432
 30
-0.0000000000026069
 11
-374.0017252246469
 21
107.8623390356712
 31
-0.0000000000026069
  0
LINE
  5
174BB
  8
0
 10
-372.7707546042328
 20
104.4795733126349
 30
-0.0000000000026069
 11
-373.2707546042328
 21
104.579574476032
 31
-0.0000000000026069
  0
LINE
  5
174BC
  8
0
 10
-372.7707546042328
 20
102.8795733126349
 30
-0.0000000000026069
 11
-373.2707546042328
 21
102.9795744760319
 31
-0.0000000000026069
  0
LINE
  5
174BD
  8
0
 10
-372.9971616564368
 20
106.0795738394375
 30
-0.0000000000026069
 11
-373.5337553917079
 21
106.2088445370674
 31
-0.0000000000026069
  0
LINE
  5
174BE
  8
0
 10
-375.8498400070241
 20
106.766812053852
 30
-0.0000000000026069
 11
-376.3179384621741
 21
106.8795815662021
 31
-0.0000000000026069
  0
LINE
  5
174BF
  8
0
 10
-376.2707546042328
 20
103.5795814564152
 30
-0.0000000000026069
 11
-376.7707546042328
 21
103.6795826198123
 31
-0.0000000000026069
  0
LINE
  5
174C0
  8
0
 10
-376.2707546042328
 20
105.1795814564151
 30
-0.0000000000026069
 11
-376.7707546042328
 21
105.2795826198122
 31
-0.0000000000026069
  0
LINE
  5
174C1
  8
0
 10
-375.4079531134947
 20
108.3281447161574
 30
-0.0000000000026069
 11
-375.8651249541258
 21
108.4795805125978
 31
-0.0000000000026069
  0
LINE
  5
174C2
  8
0
 10
-376.3179384621741
 20
106.8795815662021
 30
-0.0000000000026069
 11
-373.4499757608436
 21
107.6795748930432
 31
-0.0000000000026069
  0
LINE
  5
174C3
  8
0
 10
-376.7707546042328
 20
103.6795826198123
 30
-0.0000000000026069
 11
-372.7707546042328
 21
104.4795733126349
 31
-0.0000000000026069
  0
LINE
  5
174C4
  8
0
 10
-376.7707546042328
 20
105.2795826198122
 30
-0.0000000000026069
 11
-372.9971616564368
 21
106.0795738394375
 31
-0.0000000000026069
  0
LINE
  5
174C5
  8
0
 10
-376.7707546042328
 20
102.0795826198123
 30
-0.0000000000026069
 11
-372.7707546042328
 21
102.8795733126349
 31
-0.0000000000026069
  0
LINE
  5
174C6
  8
0
 10
-376.7707546042328
 20
89.2795826198079
 30
-0.0000000000026069
 11
-372.7707546042328
 21
90.07957331262615
 31
-0.0000000000026069
  0
LINE
  5
174C7
  8
0
 10
-372.7707546042328
 20
90.07957331262615
 30
-0.0000000000026069
 11
-373.2707546042328
 21
90.17957447602383
 31
-0.0000000000026069
  0
LINE
  5
174C8
  8
0
 10
-376.2707546042328
 20
90.77958145641456
 30
-0.0000000000026069
 11
-376.7707546042328
 21
90.87958261981224
 31
-0.0000000000026069
  0
LINE
  5
174C9
  8
0
 10
-372.7707546042328
 20
88.47957331262602
 30
-0.0000000000026069
 11
-373.2707546042328
 21
88.5795744760237
 31
-0.0000000000026069
  0
LINE
  5
174CA
  8
0
 10
-372.7707546042328
 20
86.8795733126261
 30
-0.0000000000026069
 11
-373.2707546042328
 21
86.97957447602379
 31
-0.0000000000026069
  0
LINE
  5
174CB
  8
0
 10
-376.2707546042328
 20
89.17958145641022
 30
-0.0000000000026069
 11
-376.7707546042328
 21
89.2795826198079
 31
-0.0000000000026069
  0
LINE
  5
174CC
  8
0
 10
-376.2707546042328
 20
87.57958145641008
 30
-0.0000000000026069
 11
-376.7707546042328
 21
87.67958261980776
 31
-0.0000000000026069
  0
LINE
  5
174CD
  8
0
 10
-376.7707546042328
 20
87.67958261980776
 30
-0.0000000000026069
 11
-372.7707546042328
 21
88.47957331262602
 31
-0.0000000000026069
  0
LINE
  5
174CE
  8
0
 10
-372.7707546042328
 20
94.87957331263054
 30
-0.0000000000026069
 11
-373.2707546042328
 21
94.97957447602822
 31
-0.0000000000026069
  0
LINE
  5
174CF
  8
0
 10
-372.7707546042328
 20
96.47957331263488
 30
-0.0000000000026069
 11
-373.2707546042328
 21
96.579574476032
 31
-0.0000000000026069
  0
LINE
  5
174D0
  8
0
 10
-372.7707546042328
 20
91.6795733126305
 30
-0.0000000000026069
 11
-373.2707546042328
 21
91.77957447602817
 31
-0.0000000000026069
  0
LINE
  5
174D1
  8
0
 10
-372.7707546042328
 20
93.2795733126304
 30
-0.0000000000026069
 11
-373.2707546042328
 21
93.37957447602808
 31
-0.0000000000026069
  0
LINE
  5
174D2
  8
0
 10
-376.2707546042328
 20
97.17958145641511
 30
-0.0000000000026069
 11
-376.7707546042328
 21
97.27958261981222
 31
-0.0000000000026069
  0
LINE
  5
174D3
  8
0
 10
-376.2707546042328
 20
95.57958145641452
 30
-0.0000000000026069
 11
-376.7707546042328
 21
95.67958261981231
 31
-0.0000000000026069
  0
LINE
  5
174D4
  8
0
 10
-376.2707546042328
 20
92.37958145641447
 30
-0.0000000000026069
 11
-376.7707546042328
 21
92.47958261981215
 31
-0.0000000000026069
  0
LINE
  5
174D5
  8
0
 10
-376.2707546042328
 20
93.9795814564146
 30
-0.0000000000026069
 11
-376.7707546042328
 21
94.07958261981229
 31
-0.0000000000026069
  0
LINE
  5
174D6
  8
0
 10
-376.7707546042328
 20
94.07958261981229
 30
-0.0000000000026069
 11
-372.7707546042328
 21
94.87957331263054
 31
-0.0000000000026069
  0
LINE
  5
174D7
  8
0
 10
-376.7707546042328
 20
95.67958261981231
 30
-0.0000000000026069
 11
-372.7707546042328
 21
96.47957331263488
 31
-0.0000000000026069
  0
LINE
  5
174D8
  8
0
 10
-376.7707546042328
 20
92.47958261981215
 30
-0.0000000000026069
 11
-372.7707546042328
 21
93.2795733126304
 31
-0.0000000000026069
  0
LINE
  5
174D9
  8
0
 10
-376.7707546042328
 20
90.87958261981224
 30
-0.0000000000026069
 11
-372.7707546042328
 21
91.6795733126305
 31
-0.0000000000026069
  0
LINE
  5
174DA
  8
0
 10
-376.2707546042328
 20
81.17958145640601
 30
-0.0000000000026069
 11
-376.7707546042328
 21
81.27958261980369
 31
-0.0000000000026069
  0
LINE
  5
174DB
  8
0
 10
-376.7707546042328
 20
81.27958261980369
 30
-0.0000000000026069
 11
-372.7707546042328
 21
82.07957331262195
 31
-0.0000000000026069
  0
LINE
  5
174DC
  8
0
 10
-372.7707546042328
 20
82.07957331262195
 30
-0.0000000000026069
 11
-373.2707546042328
 21
82.17957447601962
 31
-0.0000000000026069
  0
LINE
  5
174DD
  8
0
 10
-376.2707546042328
 20
82.77958145640592
 30
-0.0000000000026069
 11
-376.7707546042328
 21
82.8795826198036
 31
-0.0000000000026069
  0
LINE
  5
174DE
  8
0
 10
-376.2707546042328
 20
84.37958145640583
 30
-0.0000000000026069
 11
-376.7707546042328
 21
84.47958261980351
 31
-0.0000000000026069
  0
LINE
  5
174DF
  8
0
 10
-376.7707546042328
 20
84.47958261980351
 30
-0.0000000000026069
 11
-372.7707546042328
 21
85.27957331262176
 31
-0.0000000000026069
  0
LINE
  5
174E0
  8
0
 10
-372.7707546042328
 20
83.67957331262186
 30
-0.0000000000026069
 11
-373.2707546042328
 21
83.77957447601953
 31
-0.0000000000026069
  0
LINE
  5
174E1
  8
0
 10
-372.7707546042328
 20
85.27957331262176
 30
-0.0000000000026069
 11
-373.2707546042328
 21
85.37957447601944
 31
-0.0000000000026069
  0
LINE
  5
174E2
  8
0
 10
-376.7707546042328
 20
82.8795826198036
 30
-0.0000000000026069
 11
-372.7707546042328
 21
83.67957331262186
 31
-0.0000000000026069
  0
LINE
  5
174E3
  8
0
 10
-376.2707546042328
 20
85.97958145641017
 30
-0.0000000000026069
 11
-376.7707546042328
 21
86.07958261980785
 31
-0.0000000000026069
  0
LINE
  5
174E4
  8
0
 10
-376.2707546042328
 20
79.5795814564061
 30
-0.0000000000026069
 11
-376.7707546042328
 21
79.67958261980378
 31
-0.0000000000026069
  0
LINE
  5
174E5
  8
0
 10
-376.7707546042328
 20
79.67958261980378
 30
-0.0000000000026069
 11
-372.7707546042328
 21
80.47957331262204
 31
-0.0000000000026069
  0
LINE
  5
174E6
  8
0
 10
-372.7707546042328
 20
80.47957331262204
 30
-0.0000000000026069
 11
-373.2707546042328
 21
80.57957447601972
 31
-0.0000000000026069
  0
LINE
  5
174E7
  8
0
 10
-376.2707546042328
 20
77.9795814564062
 30
-0.0000000000026069
 11
-376.7707546042328
 21
78.07958261980387
 31
-0.0000000000026069
  0
LINE
  5
174E8
  8
0
 10
-376.7707546042328
 20
78.07958261980387
 30
-0.0000000000026069
 11
-372.7707546042328
 21
78.87957331262213
 31
-0.0000000000026069
  0
LINE
  5
174E9
  8
0
 10
-372.7707546042328
 20
78.87957331262213
 30
-0.0000000000026069
 11
-373.2707546042328
 21
78.9795744760198
 31
-0.0000000000026069
  0
LINE
  5
174EA
  8
0
 10
-376.2707546042328
 20
76.37958145640629
 30
-0.0000000000026069
 11
-376.7707546042328
 21
76.47958261980396
 31
-0.0000000000026069
  0
LINE
  5
174EB
  8
0
 10
-376.7707546042328
 20
76.47958261980396
 30
-0.0000000000026069
 11
-372.7707546042328
 21
77.27957331262222
 31
-0.0000000000026069
  0
LINE
  5
174EC
  8
0
 10
-372.7707546042328
 20
77.27957331262222
 30
-0.0000000000026069
 11
-373.2707546042328
 21
77.3795744760199
 31
-0.0000000000026069
  0
LINE
  5
174ED
  8
0
 10
64.54266817646854
 20
-119.8304715943763
 30
0.0000000000026063
 11
59.24267166660687
 21
-118.3304715943763
 31
0.0000000000026063
  0
LINE
  5
174EE
  8
0
 10
59.24267166660687
 20
-118.3304715943763
 30
0.0000000000026063
 11
29.54267166671499
 21
-118.3304715943765
 31
0.0000000000026063
  0
LINE
  5
174EF
  8
0
 10
64.54266817646854
 20
-119.8304715943763
 30
0.0000000000026063
 11
59.24266468622324
 21
-121.3304715943764
 31
0.0000000000026063
  0
LINE
  5
174F0
  8
0
 10
29.54267632041308
 20
-116.3304250584785
 30
0.0000000000026063
 11
29.54266003284874
 21
-123.3304250584784
 31
0.0000000000026063
  0
LINE
  5
174F1
  8
0
 10
59.24266468622324
 20
-121.3304715943764
 30
0.0000000000026063
 11
29.54266468633028
 21
-121.3304715943765
 31
0.0000000000026063
  0
LINE
  5
174F2
  8
0
 10
29.54267632041308
 20
-116.3304250584785
 30
0.0000000000026063
 11
28.44267283021776
 21
-116.3304250584784
 31
0.0000000000026063
  0
ARC
  5
174F3
  8
0
 10
28.44267283021776
 20
-117.8304250584784
 30
0.0000000000026063
 40
1.5
 50
90.0
 51
179.9998666844684
  0
LINE
  5
174F4
  8
0
 10
29.54266003284874
 20
-123.3304250584784
 30
0.0000000000026063
 11
28.44266352303816
 21
-123.3304250584784
 31
0.0000000000026063
  0
LINE
  5
174F5
  8
0
 10
26.94267283022182
 20
-117.830421568286
 30
0.0000000000026063
 11
26.94266352304223
 21
-121.830421568286
 31
0.0000000000026063
  0
ARC
  5
174F6
  8
0
 10
28.44266352303816
 20
-121.8304250584784
 30
0.0000000000026063
 40
1.5
 50
179.9998666844684
 51
270.0
  0
LINE
  5
174F7
  8
1CENTER
 10
65.97346309393399
 20
-119.8304250584784
 30
0.0000000000026063
 11
25.87239176732209
 21
-119.8304250584784
 31
0.0000000000026063
  0
LINE
  5
174F8
  8
0
 10
62.44267072279072
 20
-118.7361012444833
 30
0.0000000000026063
 11
63.24266615684169
 21
-120.6984363333588
 31
0.0000000000026063
  0
LINE
  5
174F9
  8
0
 10
63.24266615684169
 20
-120.6984363333588
 30
0.0000000000026063
 11
63.55443601309381
 21
-120.1101597583163
 31
0.0000000000026063
  0
LINE
  5
174FA
  8
0
 10
40.04267283000073
 20
-117.8304715943763
 30
0.0000000000026063
 11
40.84266352281898
 21
-121.8304715943763
 31
0.0000000000026063
  0
LINE
  5
174FB
  8
0
 10
51.24267283000509
 20
-117.8304715943763
 30
0.0000000000026063
 11
52.04266352282767
 21
-121.8304715943763
 31
0.0000000000026063
  0
LINE
  5
174FC
  8
0
 10
54.44267283000514
 20
-117.8304715943763
 30
0.0000000000026063
 11
55.24266352282771
 21
-121.8304715943763
 31
0.0000000000026063
  0
LINE
  5
174FD
  8
0
 10
55.24266352282771
 20
-121.8304715943763
 30
0.0000000000026063
 11
55.34266468622494
 21
-121.3304715943763
 31
0.0000000000026063
  0
LINE
  5
174FE
  8
0
 10
55.94267166660794
 20
-118.3304715943763
 30
0.0000000000026063
 11
56.04267283000516
 21
-117.8304715943763
 31
0.0000000000026063
  0
LINE
  5
174FF
  8
0
 10
52.04266352282767
 20
-121.8304715943763
 30
0.0000000000026063
 11
52.14266468622489
 21
-121.3304715943763
 31
0.0000000000026063
  0
LINE
  5
17500
  8
0
 10
53.6426635228278
 20
-121.8304715943763
 30
0.0000000000026063
 11
53.74266468622491
 21
-121.3304715943763
 31
0.0000000000026063
  0
LINE
  5
17501
  8
0
 10
54.34267166660803
 20
-118.3304715943763
 30
0.0000000000026063
 11
54.44267283000514
 21
-117.8304715943763
 31
0.0000000000026063
  0
LINE
  5
17502
  8
0
 10
52.74267166660812
 20
-118.3304715943763
 30
0.0000000000026063
 11
52.84267283000523
 21
-117.8304715943763
 31
0.0000000000026063
  0
LINE
  5
17503
  8
0
 10
52.84267283000523
 20
-117.8304715943763
 30
0.0000000000026063
 11
53.6426635228278
 21
-121.8304715943763
 31
0.0000000000026063
  0
LINE
  5
17504
  8
0
 10
61.64266510323606
 20
-121.1512504377656
 30
0.0000000000026063
 11
61.82542924586406
 21
-120.5995009739623
 31
0.0000000000026063
  0
LINE
  5
17505
  8
0
 10
58.44266352282776
 20
-121.8304715943763
 30
0.0000000000026063
 11
58.54266468622487
 21
-121.3304715943763
 31
0.0000000000026063
  0
LINE
  5
17506
  8
0
 10
56.84266352282773
 20
-121.8304715943763
 30
0.0000000000026063
 11
56.94266468622473
 21
-121.3304715943763
 31
0.0000000000026063
  0
LINE
  5
17507
  8
0
 10
60.04266404963042
 20
-121.6040645421724
 30
0.0000000000026063
 11
60.17193474726028
 21
-121.0674708069012
 31
0.0000000000026063
  0
LINE
  5
17508
  8
0
 10
60.72990226404491
 20
-118.751386191585
 30
0.0000000000026063
 11
60.84267177639495
 21
-118.2832877364351
 31
0.0000000000026063
  0
LINE
  5
17509
  8
0
 10
57.54267166660807
 20
-118.3304715943763
 30
0.0000000000026063
 11
57.64267283000518
 21
-117.8304715943763
 31
0.0000000000026063
  0
LINE
  5
1750A
  8
0
 10
59.14267166660798
 20
-118.3304715943763
 30
0.0000000000026063
 11
59.24267283000509
 21
-117.8304715943763
 31
0.0000000000026063
  0
LINE
  5
1750B
  8
0
 10
62.29123492635031
 20
-119.1932730851144
 30
0.0000000000026063
 11
62.44267072279072
 21
-118.7361012444833
 31
0.0000000000026063
  0
LINE
  5
1750C
  8
0
 10
60.84267177639495
 20
-118.2832877364351
 30
0.0000000000026063
 11
61.64266510323606
 21
-121.1512504377656
 31
0.0000000000026063
  0
LINE
  5
1750D
  8
0
 10
57.64267283000518
 20
-117.8304715943763
 30
0.0000000000026063
 11
58.44266352282776
 21
-121.8304715943763
 31
0.0000000000026063
  0
LINE
  5
1750E
  8
0
 10
59.24267283000509
 20
-117.8304715943763
 30
0.0000000000026063
 11
60.04266404963042
 21
-121.6040645421724
 31
0.0000000000026063
  0
LINE
  5
1750F
  8
0
 10
56.04267283000516
 20
-117.8304715943763
 30
0.0000000000026063
 11
56.84266352282773
 21
-121.8304715943763
 31
0.0000000000026063
  0
LINE
  5
17510
  8
0
 10
43.24267283000077
 20
-117.8304715943763
 30
0.0000000000026063
 11
44.04266352281903
 21
-121.8304715943763
 31
0.0000000000026063
  0
LINE
  5
17511
  8
0
 10
44.04266352281903
 20
-121.8304715943763
 30
0.0000000000026063
 11
44.1426646862167
 21
-121.3304715943763
 31
0.0000000000026063
  0
LINE
  5
17512
  8
0
 10
44.74267166660744
 20
-118.3304715943763
 30
0.0000000000026063
 11
44.84267283000511
 21
-117.8304715943763
 31
0.0000000000026063
  0
LINE
  5
17513
  8
0
 10
42.44266352281889
 20
-121.8304715943763
 30
0.0000000000026063
 11
42.54266468621657
 21
-121.3304715943763
 31
0.0000000000026063
  0
LINE
  5
17514
  8
0
 10
40.84266352281898
 20
-121.8304715943763
 30
0.0000000000026063
 11
40.94266468621666
 21
-121.3304715943763
 31
0.0000000000026063
  0
LINE
  5
17515
  8
0
 10
43.14267166660309
 20
-118.3304715943763
 30
0.0000000000026063
 11
43.24267283000077
 21
-117.8304715943763
 31
0.0000000000026063
  0
LINE
  5
17516
  8
0
 10
41.54267166660296
 20
-118.3304715943763
 30
0.0000000000026063
 11
41.64267283000063
 21
-117.8304715943763
 31
0.0000000000026063
  0
LINE
  5
17517
  8
0
 10
41.64267283000063
 20
-117.8304715943763
 30
0.0000000000026063
 11
42.44266352281889
 21
-121.8304715943763
 31
0.0000000000026063
  0
LINE
  5
17518
  8
0
 10
48.84266352282341
 20
-121.8304715943763
 30
0.0000000000026063
 11
48.94266468622109
 21
-121.3304715943763
 31
0.0000000000026063
  0
LINE
  5
17519
  8
0
 10
50.44266352282776
 20
-121.8304715943763
 30
0.0000000000026063
 11
50.54266468622487
 21
-121.3304715943763
 31
0.0000000000026063
  0
LINE
  5
1751A
  8
0
 10
45.64266352282337
 20
-121.8304715943763
 30
0.0000000000026063
 11
45.74266468622105
 21
-121.3304715943763
 31
0.0000000000026063
  0
LINE
  5
1751B
  8
0
 10
47.24266352282328
 20
-121.8304715943763
 30
0.0000000000026063
 11
47.34266468622096
 21
-121.3304715943763
 31
0.0000000000026063
  0
LINE
  5
1751C
  8
0
 10
51.14267166660798
 20
-118.3304715943763
 30
0.0000000000026063
 11
51.24267283000509
 21
-117.8304715943763
 31
0.0000000000026063
  0
LINE
  5
1751D
  8
0
 10
49.54267166660739
 20
-118.3304715943763
 30
0.0000000000026063
 11
49.64267283000518
 21
-117.8304715943763
 31
0.0000000000026063
  0
LINE
  5
1751E
  8
0
 10
46.34267166660734
 20
-118.3304715943763
 30
0.0000000000026063
 11
46.44267283000502
 21
-117.8304715943763
 31
0.0000000000026063
  0
LINE
  5
1751F
  8
0
 10
47.94267166660748
 20
-118.3304715943763
 30
0.0000000000026063
 11
48.04267283000516
 21
-117.8304715943763
 31
0.0000000000026063
  0
LINE
  5
17520
  8
0
 10
48.04267283000516
 20
-117.8304715943763
 30
0.0000000000026063
 11
48.84266352282341
 21
-121.8304715943763
 31
0.0000000000026063
  0
LINE
  5
17521
  8
0
 10
49.64267283000518
 20
-117.8304715943763
 30
0.0000000000026063
 11
50.44266352282776
 21
-121.8304715943763
 31
0.0000000000026063
  0
LINE
  5
17522
  8
0
 10
46.44267283000502
 20
-117.8304715943763
 30
0.0000000000026063
 11
47.24266352282328
 21
-121.8304715943763
 31
0.0000000000026063
  0
LINE
  5
17523
  8
0
 10
44.84267283000511
 20
-117.8304715943763
 30
0.0000000000026063
 11
45.64266352282337
 21
-121.8304715943763
 31
0.0000000000026063
  0
LINE
  5
17524
  8
0
 10
35.14267166659889
 20
-118.3304715943763
 30
0.0000000000026063
 11
35.24267282999656
 21
-117.8304715943763
 31
0.0000000000026063
  0
LINE
  5
17525
  8
0
 10
35.24267282999656
 20
-117.8304715943763
 30
0.0000000000026063
 11
36.04266352281482
 21
-121.8304715943763
 31
0.0000000000026063
  0
LINE
  5
17526
  8
0
 10
36.04266352281482
 20
-121.8304715943763
 30
0.0000000000026063
 11
36.1426646862125
 21
-121.3304715943763
 31
0.0000000000026063
  0
LINE
  5
17527
  8
0
 10
36.7426716665988
 20
-118.3304715943763
 30
0.0000000000026063
 11
36.84267282999647
 21
-117.8304715943763
 31
0.0000000000026063
  0
LINE
  5
17528
  8
0
 10
38.3426716665987
 20
-118.3304715943763
 30
0.0000000000026063
 11
38.44267282999638
 21
-117.8304715943763
 31
0.0000000000026063
  0
LINE
  5
17529
  8
0
 10
38.44267282999638
 20
-117.8304715943763
 30
0.0000000000026063
 11
39.24266352281464
 21
-121.8304715943763
 31
0.0000000000026063
  0
LINE
  5
1752A
  8
0
 10
37.64266352281473
 20
-121.8304715943763
 30
0.0000000000026063
 11
37.74266468621241
 21
-121.3304715943763
 31
0.0000000000026063
  0
LINE
  5
1752B
  8
0
 10
39.24266352281464
 20
-121.8304715943763
 30
0.0000000000026063
 11
39.34266468621232
 21
-121.3304715943763
 31
0.0000000000026063
  0
LINE
  5
1752C
  8
0
 10
36.84267282999647
 20
-117.8304715943763
 30
0.0000000000026063
 11
37.64266352281473
 21
-121.8304715943763
 31
0.0000000000026063
  0
LINE
  5
1752D
  8
0
 10
39.94267166660305
 20
-118.3304715943763
 30
0.0000000000026063
 11
40.04267283000073
 21
-117.8304715943763
 31
0.0000000000026063
  0
LINE
  5
1752E
  8
0
 10
33.54267166659898
 20
-118.3304715943763
 30
0.0000000000026063
 11
33.64267282999666
 21
-117.8304715943763
 31
0.0000000000026063
  0
LINE
  5
1752F
  8
0
 10
33.64267282999666
 20
-117.8304715943763
 30
0.0000000000026063
 11
34.44266352281491
 21
-121.8304715943763
 31
0.0000000000026063
  0
LINE
  5
17530
  8
0
 10
34.44266352281491
 20
-121.8304715943763
 30
0.0000000000026063
 11
34.54266468621259
 21
-121.3304715943763
 31
0.0000000000026063
  0
LINE
  5
17531
  8
0
 10
31.94267166659907
 20
-118.3304715943763
 30
0.0000000000026063
 11
32.04267282999675
 21
-117.8304715943763
 31
0.0000000000026063
  0
LINE
  5
17532
  8
0
 10
32.04267282999675
 20
-117.8304715943763
 30
0.0000000000026063
 11
32.842663522815
 21
-121.8304715943763
 31
0.0000000000026063
  0
LINE
  5
17533
  8
0
 10
32.842663522815
 20
-121.8304715943763
 30
0.0000000000026063
 11
32.94266468621268
 21
-121.3304715943763
 31
0.0000000000026063
  0
LINE
  5
17534
  8
0
 10
30.34267166659916
 20
-118.3304715943763
 30
0.0000000000026063
 11
30.44267282999684
 21
-117.8304715943763
 31
0.0000000000026063
  0
LINE
  5
17535
  8
0
 10
30.44267282999684
 20
-117.8304715943763
 30
0.0000000000026063
 11
31.24266352281509
 21
-121.8304715943763
 31
0.0000000000026063
  0
LINE
  5
17536
  8
0
 10
31.24266352281509
 20
-121.8304715943763
 30
0.0000000000026063
 11
31.34266468621277
 21
-121.3304715943763
 31
0.0000000000026063
  0
LINE
  5
17537
  8
1DIM
 10
65.97346309393396
 20
-119.8304250584784
 30
0.0
 11
73.84266883228207
 21
-119.8304250584784
 31
0.0
1001
ACAD
1000
DSTYLE
1002
{
1070
   271
1070
     0
1070
    45
1040
0.5
1070
    40
1040
2.0
1002
}
  0
LINE
  5
17538
  8
1DIM
 10
33.54266959969181
 20
-82.8304250584784
 30
0.0
 11
73.84266883228207
 21
-82.8304250584784
 31
0.0
1001
ACAD
1000
DSTYLE
1002
{
1070
   271
1070
     0
1070
    45
1040
0.5
1070
    40
1040
2.0
1002
}
  0
LINE
  5
17539
  8
1DIM
 10
71.84266883228207
 20
-115.8304250584784
 30
0.0
 11
71.84266883228207
 21
-86.8304250584784
 31
0.0
1001
ACAD
1000
DSTYLE
1002
{
1070
   271
1070
     0
1070
    45
1040
0.5
1070
    40
1040
2.0
1002
}
  0
LINE
  5
1753D
  8
1DIM
 10
-46.95733044163563
 20
-185.8304246831263
 30
0.0
 11
-112.007329193314
 21
-185.8304246831263
 31
0.0
1001
ACAD
1000
DSTYLE
1002
{
1070
     3
1000
<>
1070
    45
1040
0.5
1070
    40
1040
2.0
1002
}
  0
LINE
  5
1753E
  8
1DIM
 10
-44.45732842590434
 20
-82.8304250584784
 30
0.0
 11
-112.007329193314
 21
-82.8304250584784
 31
0.0
1001
ACAD
1000
DSTYLE
1002
{
1070
     3
1000
<>
1070
    45
1040
0.5
1070
    40
1040
2.0
1002
}
  0
LINE
  5
1753F
  8
1DIM
 10
-110.007329193314
 20
-181.8304246831263
 30
0.0
 11
-110.007329193314
 21
-86.8304250584784
 31
0.0
1001
ACAD
1000
DSTYLE
1002
{
1070
     3
1000
<>
1070
    45
1040
0.5
1070
    40
1040
2.0
1002
}
  0
LINE
  5
17543
  8
1DIM
 10
-99.39175432108647
 20
-166.0717950886281
 30
0.0
 11
-99.39175432108647
 21
-68.38042505847805
 31
0.0
1001
ACAD
1000
DSTYLE
1002
{
1070
   271
1070
     0
1070
    45
1040
0.5
1070
    40
1040
2.0
1002
}
  0
LINE
  5
17544
  8
1DIM
 10
34.54267080668598
 20
-76.6022514731963
 30
0.0
 11
34.54267080668598
 21
-68.38042505847805
 31
0.0
1001
ACAD
1000
DSTYLE
1002
{
1070
   271
1070
     0
1070
    45
1040
0.5
1070
    40
1040
2.0
1002
}
  0
LINE
  5
17545
  8
1DIM
 10
-95.39175432108647
 20
-70.38042505847805
 30
0.0
 11
30.54267080668598
 21
-70.38042505847805
 31
0.0
1001
ACAD
1000
DSTYLE
1002
{
1070
   271
1070
     0
1070
    45
1040
0.5
1070
    40
1040
2.0
1002
}
  0
LINE
  5
17549
  8
1DIM
 10
34.542668832282
 20
-144.8304250584784
 30
0.0
 11
91.39266959969183
 21
-144.8304250584784
 31
0.0
1001
ACAD
1000
DSTYLE
1002
{
1070
     3
1000
<>
1070
    45
1040
0.5
1070
    40
1040
2.0
1002
}
  0
LINE
  5
1754A
  8
1DIM
 10
33.54266959969181
 20
-82.8304250584784
 30
0.0
 11
91.39266959969183
 21
-82.8304250584784
 31
0.0
1001
ACAD
1000
DSTYLE
1002
{
1070
     3
1000
<>
1070
    45
1040
0.5
1070
    40
1040
2.0
1002
}
  0
LINE
  5
1754B
  8
1DIM
 10
89.39266959969183
 20
-140.8304250584784
 30
0.0
 11
89.39266959969183
 21
-86.8304250584784
 31
0.0
1001
ACAD
1000
DSTYLE
1002
{
1070
     3
1000
<>
1070
    45
1040
0.5
1070
    40
1040
2.0
1002
}
  0
LINE
  5
17550
  8
1DIM
  6
BYBLOCK
 10
33.45634040998937
 20
-52.23188367527447
 30
-0.0000000000000006
 11
17.7896737433227
 21
-52.23188367527447
 31
-0.0000000000000006
  0
LINE
  5
17552
  8
1DIM
  6
BYBLOCK
 10
36.96919617723687
 20
-80.86165817834159
 30
-0.0000000000000006
 11
33.45634040998937
 21
-52.23188367527447
 31
-0.0000000000000006
  0
LINE
  5
17554
  8
1DIM
  6
BYBLOCK
 10
40.04331963419691
 20
-32.43188367527429
 30
-0.0000000000000006
 11
-19.95992110654383
 21
-32.43188367527429
 31
-0.0000000000000006
  0
LINE
  5
17556
  8
1DIM
  6
BYBLOCK
 10
48.36621149829973
 20
-80.88960963960649
 30
-0.0000000000000006
 11
40.04331963419691
 21
-32.43188367527429
 31
-0.0000000000000006
  0
LINE
  5
17558
  8
1DIM
  6
BYBLOCK
 10
-262.5814233759891
 20
-223.5986601578101
 30
0.000000000000033
 11
-169.4480900426557
 21
-223.5986601578101
 31
0.000000000000033
  0
LINE
  5
1755A
  8
1DIM
  6
BYBLOCK
 10
-286.7943395105544
 20
-184.0110025993953
 30
0.000000000000033
 11
-262.5814233759891
 21
-223.5986601578101
 31
0.000000000000033
  0
LINE
  5
1755C
  8
1DIM
  6
BYBLOCK
 10
-444.0086631763718
 20
-99.68016763152518
 30
0.000000000000033
 11
-537.1419965097051
 21
-99.68016763152518
 31
0.000000000000033
  0
LINE
  5
1755E
  8
1DIM
  6
BYBLOCK
 10
-418.687871969693
 20
-119.3667426847013
 30
0.000000000000033
 11
-444.0086631763718
 21
-99.68016763152518
 31
0.000000000000033
  0
LINE
  5
17560
  8
1DIM
  6
BYBLOCK
 10
-195.8582716799835
 20
-33.42497245599293
 30
0.0
 11
-102.7249383466502
 21
-33.42497245599293
 31
0.0
  0
LINE
  5
17562
  8
1DIM
  6
BYBLOCK
 10
-219.2039511042799
 20
-1.358727954916623
 30
0.0
 11
-195.8582716799835
 21
-33.42497245599293
 31
0.0
  0
LINE
  5
17564
  8
1DIM
  6
BYBLOCK
 10
-395.1396231947506
 20
-38.09332814813689
 30
0.000000000000033
 11
-317.1729565280839
 21
-38.09332814813689
 31
0.000000000000033
  0
LINE
  5
17566
  8
1DIM
  6
BYBLOCK
 10
-402.4557038986646
 20
21.93605198654268
 30
0.000000000000033
 11
-395.1396231947506
 21
-38.09332814813689
 31
0.000000000000033
  0
LINE
  5
17568
  8
1DIM
  6
BYBLOCK
 10
38.41701791950442
 20
-199.0235032369813
 30
0.000000000000033
 11
131.5503512528378
 21
-199.0235032369813
 31
0.000000000000033
  0
LINE
  5
1756A
  8
1DIM
  6
BYBLOCK
 10
2.565678363900237
 20
-106.7519590724237
 30
0.000000000000033
 11
38.41701791950442
 21
-199.0235032369813
 31
0.000000000000033
  0
LINE
  5
1756B
  8
1DIM
 10
-374.7708011401307
 20
-123.9804307784684
 30
0.0
 11
-374.7708011401307
 21
-66.58363569641898
 31
0.0
1001
ACAD
1000
DSTYLE
1002
{
1070
    70
1070
     0
1070
    69
1070
     0
1070
   271
1070
     1
1070
    45
1040
0.5
1070
    40
1040
2.0
1002
}
  0
LINE
  5
1756C
  8
1DIM
 10
-344.7708011401307
 20
-123.9804307784685
 30
0.0
 11
-344.7708011401307
 21
-66.58363569641898
 31
0.0
1001
ACAD
1000
DSTYLE
1002
{
1070
    70
1070
     0
1070
    69
1070
     0
1070
   271
1070
     1
1070
    45
1040
0.5
1070
    40
1040
2.0
1002
}
  0
LINE
  5
1756D
  8
1DIM
 10
-370.7708011401307
 20
-68.58363569641898
 30
0.0
 11
-348.7708011401307
 21
-68.58363569641898
 31
0.0
1001
ACAD
1000
DSTYLE
1002
{
1070
    70
1070
     0
1070
    69
1070
     0
1070
   271
1070
     1
1070
    45
1040
0.5
1070
    40
1040
2.0
1002
}
  0
LINE
  5
17571
  8
1DIM
 10
-233.2708011401308
 20
-123.9804307784684
 30
0.0
 11
-233.2708011401308
 21
-66.58363569641898
 31
0.0
1001
ACAD
1000
DSTYLE
1002
{
1070
    70
1070
     0
1070
    69
1070
     0
1070
   271
1070
     1
1070
    45
1040
0.5
1070
    40
1040
2.0
1002
}
  0
LINE
  5
17572
  8
1DIM
 10
-203.2708011401308
 20
-123.9804307784685
 30
0.0
 11
-203.2708011401308
 21
-66.58363569641898
 31
0.0
1001
ACAD
1000
DSTYLE
1002
{
1070
    70
1070
     0
1070
    69
1070
     0
1070
   271
1070
     1
1070
    45
1040
0.5
1070
    40
1040
2.0
1002
}
  0
LINE
  5
17573
  8
1DIM
 10
-229.2708011401308
 20
-68.58363569641898
 30
0.0
 11
-207.2708011401308
 21
-68.58363569641898
 31
0.0
1001
ACAD
1000
DSTYLE
1002
{
1070
    70
1070
     0
1070
    69
1070
     0
1070
   271
1070
     1
1070
    45
1040
0.5
1070
    40
1040
2.0
1002
}
  0
LINE
  5
17577
  8
1DIM
 10
-344.7708011401307
 20
-123.9804307784685
 30
0.0
 11
-344.7708011401307
 21
-66.58363569641898
 31
0.0
1001
ACAD
1000
DSTYLE
1002
{
1070
    70
1070
     0
1070
    69
1070
     0
1070
   271
1070
     1
1070
    45
1040
0.5
1070
    40
1040
2.0
1002
}
  0
LINE
  5
17578
  8
1DIM
 10
-233.2708011401308
 20
-123.9804307784684
 30
0.0
 11
-233.2708011401308
 21
-66.58363569641898
 31
0.0
1001
ACAD
1000
DSTYLE
1002
{
1070
    70
1070
     0
1070
    69
1070
     0
1070
   271
1070
     1
1070
    45
1040
0.5
1070
    40
1040
2.0
1002
}
  0
LINE
  5
17579
  8
1DIM
 10
-340.7708011401307
 20
-68.58363569641898
 30
0.0
 11
-237.2708011401308
 21
-68.58363569641898
 31
0.0
1001
ACAD
1000
DSTYLE
1002
{
1070
    70
1070
     0
1070
    69
1070
     0
1070
   271
1070
     1
1070
    45
1040
0.5
1070
    40
1040
2.0
1002
}
  0
LINE
  5
1757D
  8
0
  6
BYBLOCK
 10
-124.292597874054
 20
76.57957796643804
 30
0.0
 11
-123.220801114054
 21
80.57957796643804
 31
0.0
  0
LINE
  5
1757E
  8
0
  6
BYBLOCK
 10
-123.220801114054
 20
80.57957796643804
 30
0.0
 11
-122.149004354054
 21
76.57957796643804
 31
0.0
  0
LINE
  5
1757F
  8
0
  6
BYBLOCK
 10
-123.220801114054
 20
80.57957796643804
 30
0.0
 11
-123.220801114054
 21
76.57957796643804
 31
0.0
  0
LINE
  5
17580
  8
0
  6
BYBLOCK
 10
-122.149004354054
 20
-1.420422033562019
 30
0.0
 11
-123.220801114054
 21
-5.420422033562019
 31
0.0
  0
LINE
  5
17581
  8
0
  6
BYBLOCK
 10
-123.220801114054
 20
-5.420422033562019
 30
0.0
 11
-124.292597874054
 21
-1.420422033562019
 31
0.0
  0
LINE
  5
17582
  8
0
  6
BYBLOCK
 10
-123.220801114054
 20
-5.420422033562019
 30
0.0
 11
-123.220801114054
 21
-1.420422033562019
 31
0.0
  0
TEXT
  5
17583
  8
1DIM
  6
CONTINUOUS
 10
-136.2874677807207
 20
31.74624463310468
 30
0.0
 40
7.0
  1
86
 50
90.0
1001
ACAD
1000
DSTYLE
1002
{
1070
    70
1070
     0
1070
    69
1070
     0
1070
   271
1070
     0
1070
    45
1040
0.5
1070
    40
1040
2.0
1002
}
  0
TEXT
  5
17584
  8
1DIM
  6
CONTINUOUS
 10
-124.620801114054
 20
-8.03708870022865
 30
0.0
 40
7.0
  1
（ペーパー無し最小値）
 50
90.0
1001
ACAD
1000
DSTYLE
1002
{
1070
    70
1070
     0
1070
    69
1070
     0
1070
   271
1070
     0
1070
    45
1040
0.5
1070
    40
1040
2.0
1002
}
  0
LINE
  5
17585
  8
0
  6
BYBLOCK
 10
-425.2708011401307
 20
-52.80115482866394
 30
0.0
 11
-429.2708011401307
 21
-51.72935806866394
 31
0.0
  0
LINE
  5
17586
  8
0
  6
BYBLOCK
 10
-429.2708011401307
 20
-51.72935806866394
 30
0.0
 11
-425.2708011401307
 21
-50.65756130866394
 31
0.0
  0
LINE
  5
17587
  8
0
  6
BYBLOCK
 10
-429.2708011401307
 20
-51.72935806866394
 30
0.0
 11
-425.2708011401307
 21
-51.72935806866394
 31
0.0
  0
LINE
  5
17588
  8
0
  6
BYBLOCK
 10
-152.7708011401307
 20
-50.65756130866394
 30
0.0
 11
-148.7708011401307
 21
-51.72935806866394
 31
0.0
  0
LINE
  5
17589
  8
0
  6
BYBLOCK
 10
-148.7708011401307
 20
-51.72935806866394
 30
0.0
 11
-152.7708011401307
 21
-52.80115482866394
 31
0.0
  0
LINE
  5
1758A
  8
0
  6
BYBLOCK
 10
-148.7708011401307
 20
-51.72935806866394
 30
0.0
 11
-152.7708011401307
 21
-51.72935806866394
 31
0.0
  0
TEXT
  5
1758B
  8
1DIM
  6
CONTINUOUS
 10
-305.2403673185598
 20
-50.32935806866394
 30
0.0
 40
7.0
  1
280.5
1001
ACAD
1000
DSTYLE
1002
{
1070
   271
1070
     1
1070
    45
1040
0.5
1070
    40
1040
2.0
1002
}
  0
LINE
  5
1758C
  8
0
  6
BYBLOCK
 10
72.91446559228207
 20
-115.8304250584784
 30
0.0
 11
71.84266883228207
 21
-119.8304250584784
 31
0.0
  0
LINE
  5
1758D
  8
0
  6
BYBLOCK
 10
71.84266883228207
 20
-119.8304250584784
 30
0.0
 11
70.77087207228207
 21
-115.8304250584784
 31
0.0
  0
LINE
  5
1758E
  8
0
  6
BYBLOCK
 10
71.84266883228207
 20
-119.8304250584784
 30
0.0
 11
71.84266883228207
 21
-115.8304250584784
 31
0.0
  0
LINE
  5
1758F
  8
0
  6
BYBLOCK
 10
70.77087207228207
 20
-86.8304250584784
 30
0.0
 11
71.84266883228207
 21
-82.8304250584784
 31
0.0
  0
LINE
  5
17590
  8
0
  6
BYBLOCK
 10
71.84266883228207
 20
-82.8304250584784
 30
0.0
 11
72.91446559228207
 21
-86.8304250584784
 31
0.0
  0
LINE
  5
17591
  8
0
  6
BYBLOCK
 10
71.84266883228207
 20
-82.8304250584784
 30
0.0
 11
71.84266883228207
 21
-86.8304250584784
 31
0.0
  0
TEXT
  5
17592
  8
1DIM
  6
CONTINUOUS
 10
70.44266883228207
 20
-107.1637583918117
 30
0.0
 40
7.0
  1
37
 50
90.0
1001
ACAD
1000
DSTYLE
1002
{
1070
   271
1070
     0
1070
    45
1040
0.5
1070
    40
1040
2.0
1002
}
  0
LINE
  5
17593
  8
0
  6
BYBLOCK
 10
-108.935532433314
 20
-181.8304246831263
 30
0.0
 11
-110.007329193314
 21
-185.8304246831263
 31
0.0
  0
LINE
  5
17594
  8
0
  6
BYBLOCK
 10
-110.007329193314
 20
-185.8304246831263
 30
0.0
 11
-111.079125953314
 21
-181.8304246831263
 31
0.0
  0
LINE
  5
17595
  8
0
  6
BYBLOCK
 10
-110.007329193314
 20
-185.8304246831263
 30
0.0
 11
-110.007329193314
 21
-181.8304246831263
 31
0.0
  0
LINE
  5
17596
  8
0
  6
BYBLOCK
 10
-111.079125953314
 20
-86.8304250584784
 30
0.0
 11
-110.007329193314
 21
-82.8304250584784
 31
0.0
  0
LINE
  5
17597
  8
0
  6
BYBLOCK
 10
-110.007329193314
 20
-82.8304250584784
 30
0.0
 11
-108.935532433314
 21
-86.8304250584784
 31
0.0
  0
LINE
  5
17598
  8
0
  6
BYBLOCK
 10
-110.007329193314
 20
-82.8304250584784
 30
0.0
 11
-110.007329193314
 21
-86.8304250584784
 31
0.0
  0
TEXT
  5
17599
  8
1DIM
  6
CONTINUOUS
 10
-111.407329193314
 20
-141.9137582041357
 30
0.0
 40
7.0
  1
103
 50
90.0
1001
ACAD
1000
DSTYLE
1002
{
1070
     3
1000
<>
1070
    45
1040
0.5
1070
    40
1040
2.0
1002
}
  0
LINE
  5
1759A
  8
0
  6
BYBLOCK
 10
-95.39175432108647
 20
-71.45222181847805
 30
0.0
 11
-99.39175432108647
 21
-70.38042505847805
 31
0.0
  0
LINE
  5
1759B
  8
0
  6
BYBLOCK
 10
-99.39175432108647
 20
-70.38042505847805
 30
0.0
 11
-95.39175432108647
 21
-69.30862829847806
 31
0.0
  0
LINE
  5
1759C
  8
0
  6
BYBLOCK
 10
-99.39175432108647
 20
-70.38042505847805
 30
0.0
 11
-95.39175432108647
 21
-70.38042505847805
 31
0.0
  0
LINE
  5
1759D
  8
0
  6
BYBLOCK
 10
30.54267080668598
 20
-69.30862829847806
 30
0.0
 11
34.54267080668598
 21
-70.38042505847805
 31
0.0
  0
LINE
  5
1759E
  8
0
  6
BYBLOCK
 10
34.54267080668598
 20
-70.38042505847805
 30
0.0
 11
30.54267080668598
 21
-71.45222181847805
 31
0.0
  0
LINE
  5
1759F
  8
0
  6
BYBLOCK
 10
34.54267080668598
 20
-70.38042505847805
 30
0.0
 11
30.54267080668598
 21
-70.38042505847805
 31
0.0
  0
TEXT
  5
175A0
  8
1DIM
  6
CONTINUOUS
 10
-86.67454175720026
 20
-68.98042505847805
 30
0.0
 40
7.0
  1
134 （ペーパー付き最大値）
1001
ACAD
1000
DSTYLE
1002
{
1070
   271
1070
     0
1070
    45
1040
0.5
1070
    40
1040
2.0
1002
}
  0
LINE
  5
175A1
  8
0
  6
BYBLOCK
 10
90.46446635969183
 20
-140.8304250584784
 30
0.0
 11
89.39266959969183
 21
-144.8304250584784
 31
0.0
  0
LINE
  5
175A2
  8
0
  6
BYBLOCK
 10
89.39266959969183
 20
-144.8304250584784
 30
0.0
 11
88.32087283969183
 21
-140.8304250584784
 31
0.0
  0
LINE
  5
175A3
  8
0
  6
BYBLOCK
 10
89.39266959969183
 20
-144.8304250584784
 30
0.0
 11
89.39266959969183
 21
-140.8304250584784
 31
0.0
  0
LINE
  5
175A4
  8
0
  6
BYBLOCK
 10
88.32087283969183
 20
-86.8304250584784
 30
0.0
 11
89.39266959969183
 21
-82.8304250584784
 31
0.0
  0
LINE
  5
175A5
  8
0
  6
BYBLOCK
 10
89.39266959969183
 20
-82.8304250584784
 30
0.0
 11
90.46446635969183
 21
-86.8304250584784
 31
0.0
  0
LINE
  5
175A6
  8
0
  6
BYBLOCK
 10
89.39266959969183
 20
-82.8304250584784
 30
0.0
 11
89.39266959969183
 21
-86.8304250584784
 31
0.0
  0
TEXT
  5
175A7
  8
1DIM
  6
CONTINUOUS
 10
87.99266959969182
 20
-119.6880639473673
 30
0.0
 40
7.0
  1
62
 50
90.0
1001
ACAD
1000
DSTYLE
1002
{
1070
     3
1000
<>
1070
    45
1040
0.5
1070
    40
1040
2.0
1002
}
  0
TEXT
  5
175A8
  8
1DIM
  6
CONTINUOUS
 10
17.7896737433227
 20
-50.83188367527447
 30
-0.0000000000000006
 40
7.0
  1
PB
  0
LINE
  5
175A9
  8
0
  6
BYBLOCK
 10
38.03301488325738
 20
-80.73112827576237
 30
-0.0000000000000006
 11
37.45634040998937
 21
-84.83188367527447
 31
-0.0000000000000006
  0
LINE
  5
175AA
  8
0
  6
BYBLOCK
 10
37.45634040998937
 20
-84.83188367527447
 30
-0.0000000000000006
 11
35.90537747121635
 21
-80.99218808092078
 31
-0.0000000000000006
  0
LINE
  5
175AB
  8
0
  6
BYBLOCK
 10
37.45634040998937
 20
-84.83188367527447
 30
-0.0000000000000006
 11
36.96919617723687
 21
-80.86165817834159
 31
-0.0000000000000006
  0
TEXT
  5
175AC
  8
1DIM
  6
CONTINUOUS
 10
-19.95992110654383
 20
-31.03188367527429
 30
-0.0000000000000006
 40
7.0
  1
合板9ｍｍ以上
  0
LINE
  5
175AD
  8
0
  6
BYBLOCK
 10
49.422540632915
 20
-80.70817906305044
 30
-0.0000000000000006
 11
49.04331963419691
 21
-84.83188367527447
 31
-0.0000000000000006
  0
LINE
  5
175AE
  8
0
  6
BYBLOCK
 10
49.04331963419691
 20
-84.83188367527447
 30
-0.0000000000000006
 11
47.30988236368447
 21
-81.07104021616254
 31
-0.0000000000000006
  0
LINE
  5
175AF
  8
0
  6
BYBLOCK
 10
49.04331963419691
 20
-84.83188367527447
 30
-0.0000000000000006
 11
48.36621149829974
 21
-80.88960963960649
 31
-0.0000000000000006
  0
TEXT
  5
175B0
  8
1DIM
  6
CONTINUOUS
 10
-259.0480900426557
 20
-210.5319934911434
 30
0.000000000000033
 40
7.0
  1
材質：亜鉛ダイキャスト
  0
TEXT
  5
175B1
  8
1DIM
  6
CONTINUOUS
 10
-258.8147567093224
 20
-222.1986601578101
 30
0.000000000000033
 40
7.0
  1
仕上げ：クローム
  0
LINE
  5
175B2
  8
0
  6
BYBLOCK
 10
-287.7086739037798
 20
-184.5702350306006
 30
0.000000000000033
 11
-288.881423375989
 21
-180.5986601578103
 31
0.000000000000033
  0
LINE
  5
175B3
  8
0
  6
BYBLOCK
 10
-288.881423375989
 20
-180.5986601578103
 30
0.000000000000033
 11
-285.8800051173291
 21
-183.4517701681901
 31
0.000000000000033
  0
LINE
  5
175B4
  8
0
  6
BYBLOCK
 10
-288.881423375989
 20
-180.5986601578103
 30
0.000000000000033
 11
-286.7943395105544
 21
-184.0110025993953
 31
0.000000000000033
  0
TEXT
  5
175B5
  8
1DIM
  6
CONTINUOUS
 10
-537.6086631763718
 20
-86.61350096485852
 30
0.000000000000033
 40
7.0
  1
材質：亜鉛ダイキャスト
  0
TEXT
  5
175B6
  8
1DIM
  6
CONTINUOUS
 10
-537.3753298430385
 20
-98.28016763152519
 30
0.000000000000033
 40
7.0
  1
仕上げ：各種仕上げ
  0
LINE
  5
175B7
  8
0
  6
BYBLOCK
 10
-418.0300059497757
 20
-118.5205981376027
 30
0.000000000000033
 11
-415.5300175007221
 21
-121.8219321178817
 31
0.000000000000033
  0
LINE
  5
175B8
  8
0
  6
BYBLOCK
 10
-415.5300175007221
 20
-121.8219321178817
 30
0.000000000000033
 11
-419.3457379896102
 21
-120.2128872318
 31
0.000000000000033
  0
LINE
  5
175B9
  8
0
  6
BYBLOCK
 10
-415.5300175007221
 20
-121.8219321178817
 30
0.000000000000033
 11
-418.687871969693
 21
-119.3667426847013
 31
0.000000000000033
  0
TEXT
  5
175BA
  8
1DIM
  6
CONTINUOUS
 10
-192.3249383466502
 20
-20.35830578932627
 30
0.0
 40
7.0
  1
材質：亜鉛ダイキャスト
  0
TEXT
  5
175BB
  8
1DIM
  6
CONTINUOUS
 10
-192.0916050133169
 20
-32.02497245599294
 30
0.0
 40
7.0
  1
仕上げ：各種仕上げ
  0
LINE
  5
175BC
  8
0
  6
BYBLOCK
 10
-220.0704332708745
 20
-1.989566246176734
 30
0.0
 11
-221.5582716799835
 21
1.87502754400699
 31
0.0
  0
LINE
  5
175BD
  8
0
  6
BYBLOCK
 10
-221.5582716799835
 20
1.87502754400699
 30
0.0
 11
-218.3374689376853
 21
-0.7278896636565118
 31
0.0
  0
LINE
  5
175BE
  8
0
  6
BYBLOCK
 10
-221.5582716799835
 20
1.87502754400699
 30
0.0
 11
-219.2039511042799
 21
-1.358727954916623
 31
0.0
  0
TEXT
  5
175BF
  8
1DIM
  6
CONTINUOUS
 10
-391.6062898614172
 20
-25.02666148147023
 30
0.000000000000033
 40
7.0
  1
材質：化粧合板
  0
TEXT
  5
175C0
  8
1DIM
  6
CONTINUOUS
 10
-391.3729565280839
 20
-36.6933281481369
 30
0.000000000000033
 40
7.0
  1
仕上げ：各種仕上げ
  0
LINE
  5
175C1
  8
0
  6
BYBLOCK
 10
-403.5196282753751
 20
21.8063862031311
 30
0.000000000000033
 11
-402.9396231947505
 21
25.90667185186292
 31
0.000000000000033
  0
LINE
  5
175C2
  8
0
  6
BYBLOCK
 10
-402.9396231947505
 20
25.90667185186292
 30
0.000000000000033
 11
-401.3917795219542
 21
22.06571776995427
 31
0.000000000000033
  0
LINE
  5
175C3
  8
0
  6
BYBLOCK
 10
-402.9396231947505
 20
25.90667185186292
 30
0.000000000000033
 11
-402.4557038986646
 21
21.93605198654268
 31
0.000000000000033
  0
TEXT
  5
175C4
  8
1DIM
  6
CONTINUOUS
 10
41.95035125283775
 20
-185.9568365703146
 30
0.000000000000033
 40
7.0
  1
材質：亜鉛ダイキャスト
  0
TEXT
  5
175C5
  8
1DIM
  6
CONTINUOUS
 10
42.18368458617108
 20
-197.6235032369813
 30
0.000000000000033
 40
7.0
  1
仕上げ：クローム
  0
LINE
  5
175C6
  8
0
  6
BYBLOCK
 10
1.566641642842725
 20
-107.1401264650846
 30
0.000000000000033
 11
1.117017919504462
 21
-103.0235032369815
 31
0.000000000000033
  0
LINE
  5
175C7
  8
0
  6
BYBLOCK
 10
1.117017919504462
 20
-103.0235032369815
 30
0.000000000000033
 11
3.564715084957749
 21
-106.3637916797628
 31
0.000000000000033
  0
LINE
  5
175C8
  8
0
  6
BYBLOCK
 10
1.117017919504462
 20
-103.0235032369815
 30
0.000000000000033
 11
2.565678363900237
 21
-106.7519590724237
 31
0.000000000000033
  0
LINE
  5
175C9
  8
0
  6
BYBLOCK
 10
-370.7708011401307
 20
-69.65543245641898
 30
0.0
 11
-374.7708011401307
 21
-68.58363569641898
 31
0.0
  0
LINE
  5
175CA
  8
0
  6
BYBLOCK
 10
-374.7708011401307
 20
-68.58363569641898
 30
0.0
 11
-370.7708011401307
 21
-67.51183893641898
 31
0.0
  0
LINE
  5
175CB
  8
0
  6
BYBLOCK
 10
-374.7708011401307
 20
-68.58363569641898
 30
0.0
 11
-370.7708011401307
 21
-68.58363569641898
 31
0.0
  0
LINE
  5
175CC
  8
0
  6
BYBLOCK
 10
-348.7708011401307
 20
-67.51183893641898
 30
0.0
 11
-344.7708011401307
 21
-68.58363569641898
 31
0.0
  0
LINE
  5
175CD
  8
0
  6
BYBLOCK
 10
-344.7708011401307
 20
-68.58363569641898
 30
0.0
 11
-348.7708011401307
 21
-69.65543245641898
 31
0.0
  0
LINE
  5
175CE
  8
0
  6
BYBLOCK
 10
-344.7708011401307
 20
-68.58363569641898
 30
0.0
 11
-348.7708011401307
 21
-68.58363569641898
 31
0.0
  0
TEXT
  5
175CF
  8
1DIM
  6
CONTINUOUS
 10
-368.6666344734641
 20
-67.18363569641897
 30
0.0
 40
7.0
  1
P30
1001
ACAD
1000
DSTYLE
1002
{
1070
    70
1070
     0
1070
    69
1070
     0
1070
   271
1070
     1
1070
    45
1040
0.5
1070
    40
1040
2.0
1002
}
  0
LINE
  5
175D0
  8
0
  6
BYBLOCK
 10
-229.2708011401308
 20
-69.65543245641898
 30
0.0
 11
-233.2708011401308
 21
-68.58363569641898
 31
0.0
  0
LINE
  5
175D1
  8
0
  6
BYBLOCK
 10
-233.2708011401308
 20
-68.58363569641898
 30
0.0
 11
-229.2708011401308
 21
-67.51183893641898
 31
0.0
  0
LINE
  5
175D2
  8
0
  6
BYBLOCK
 10
-233.2708011401308
 20
-68.58363569641898
 30
0.0
 11
-229.2708011401308
 21
-68.58363569641898
 31
0.0
  0
LINE
  5
175D3
  8
0
  6
BYBLOCK
 10
-207.2708011401308
 20
-67.51183893641898
 30
0.0
 11
-203.2708011401308
 21
-68.58363569641898
 31
0.0
  0
LINE
  5
175D4
  8
0
  6
BYBLOCK
 10
-203.2708011401308
 20
-68.58363569641898
 30
0.0
 11
-207.2708011401308
 21
-69.65543245641898
 31
0.0
  0
LINE
  5
175D5
  8
0
  6
BYBLOCK
 10
-203.2708011401308
 20
-68.58363569641898
 30
0.0
 11
-207.2708011401308
 21
-68.58363569641898
 31
0.0
  0
TEXT
  5
175D6
  8
1DIM
  6
CONTINUOUS
 10
-227.1666344734641
 20
-67.18363569641897
 30
0.0
 40
7.0
  1
P30
1001
ACAD
1000
DSTYLE
1002
{
1070
    70
1070
     0
1070
    69
1070
     0
1070
   271
1070
     1
1070
    45
1040
0.5
1070
    40
1040
2.0
1002
}
  0
LINE
  5
175D7
  8
0
  6
BYBLOCK
 10
-340.7708011401307
 20
-69.65543245641898
 30
0.0
 11
-344.7708011401307
 21
-68.58363569641898
 31
0.0
  0
LINE
  5
175D8
  8
0
  6
BYBLOCK
 10
-344.7708011401307
 20
-68.58363569641898
 30
0.0
 11
-340.7708011401307
 21
-67.51183893641898
 31
0.0
  0
LINE
  5
175D9
  8
0
  6
BYBLOCK
 10
-344.7708011401307
 20
-68.58363569641898
 30
0.0
 11
-340.7708011401307
 21
-68.58363569641898
 31
0.0
  0
LINE
  5
175DA
  8
0
  6
BYBLOCK
 10
-237.2708011401308
 20
-67.51183893641898
 30
0.0
 11
-233.2708011401308
 21
-68.58363569641898
 31
0.0
  0
LINE
  5
175DB
  8
0
  6
BYBLOCK
 10
-233.2708011401308
 20
-68.58363569641898
 30
0.0
 11
-237.2708011401308
 21
-69.65543245641898
 31
0.0
  0
LINE
  5
175DC
  8
0
  6
BYBLOCK
 10
-233.2708011401308
 20
-68.58363569641898
 30
0.0
 11
-237.2708011401308
 21
-68.58363569641898
 31
0.0
  0
TEXT
  5
175DD
  8
1DIM
  6
CONTINUOUS
 10
-304.2708011401307
 20
-67.18363569641897
 30
0.0
 40
7.0
  1
P111.5
1001
ACAD
1000
DSTYLE
1002
{
1070
    70
1070
     0
1070
    69
1070
     0
1070
   271
1070
     1
1070
    45
1040
0.5
1070
    40
1040
2.0
1002
}
  0
VIEWPORT
  5
57
 67
     1
  8
0
 10
0.0
 20
0.0
 30
0.0
 40
554.37576499388
 41
297.0
 68
     1
 69
     1
1001
ACAD
1000
MVIEW
1002
{
1070
    16
1010
0.0
1020
0.0
1030
0.0
1010
0.0
1020
0.0
1030
1.0
1040
0.0
1040
297.0
1040
-4.171999999925305
1040
12.83903210976956
1040
50.0
1040
0.0
1040
0.0
1070
    16
1070
   100
1070
     0
1070
     1
1070
     0
1070
     0
1070
     0
1070
     0
1040
0.0
1040
0.0
1040
0.0
1040
10.0
1040
10.0
1040
10.0
1040
10.0
1070
     0
1002
{
1002
}
1002
}
  0
ENDSEC
  0
EOF
