  0
SECTION
  2
HEADER
  9
$ACADVER
  1
AC1009
  9
$DWGCODEPAGE
  3
ansi_932
  9
$INSBASE
 10
0.0
 20
0.0
 30
0.0
  9
$EXTMIN
 10
395.0162416153648
 20
-847.3944923636594
 30
0.0
  9
$EXTMAX
 10
795.1960156780265
 20
-502.416843467809
 30
0.0
  9
$LIMMIN
 10
0.0
 20
0.0
  9
$LIMMAX
 10
420.0
 20
297.0
  9
$ORTHOMODE
 70
     0
  9
$REGENMODE
 70
     1
  9
$FILLMODE
 70
     1
  9
$QTEXTMODE
 70
     0
  9
$MIRRTEXT
 70
     0
  9
$DRAGMODE
 70
     2
  9
$LTSCALE
 40
0.5
  9
$OSMODE
 70
 14591
  9
$ATTMODE
 70
     1
  9
$TEXTSIZE
 40
4.0
  9
$TRACEWID
 40
1.0
  9
$TEXTSTYLE
  7
STANDARD
  9
$CLAYER
  8
1TEXT
  9
$CELTYPE
  6
BYLAYER
  9
$CECOLOR
 62
   256
  9
$DIMSCALE
 40
1.0
  9
$DIMASZ
 40
2.0
  9
$DIMEXO
 40
0.0
  9
$DIMDLI
 40
7.0
  9
$DIMRND
 40
0.0
  9
$DIMDLE
 40
0.0
  9
$DIMEXE
 40
1.0
  9
$DIMTP
 40
0.0
  9
$DIMTM
 40
0.0
  9
$DIMTXT
 40
3.5
  9
$DIMCEN
 40
0.0
  9
$DIMTSZ
 40
0.0
  9
$DIMTOL
 70
     0
  9
$DIMLIM
 70
     0
  9
$DIMTIH
 70
     0
  9
$DIMTOH
 70
     0
  9
$DIMSE1
 70
     0
  9
$DIMSE2
 70
     0
  9
$DIMTAD
 70
     1
  9
$DIMZIN
 70
     8
  9
$DIMBLK
  1

  9
$DIMASO
 70
     1
  9
$DIMSHO
 70
     1
  9
$DIMPOST
  1
 
  9
$DIMAPOST
  1

  9
$DIMALT
 70
     0
  9
$DIMALTD
 70
     2
  9
$DIMALTF
 40
25.4
  9
$DIMLFAC
 40
1.0
  9
$DIMTOFL
 70
     1
  9
$DIMTVP
 40
0.0
  9
$DIMTIX
 70
     0
  9
$DIMSOXD
 70
     0
  9
$DIMSAH
 70
     1
  9
$DIMBLK1
  1
OPEN30
  9
$DIMBLK2
  1
OPEN30
  9
$DIMSTYLE
  2
NEWX10
  9
$DIMCLRD
 70
   256
  9
$DIMCLRE
 70
   256
  9
$DIMCLRT
 70
   201
  9
$DIMTFAC
 40
0.7
  9
$DIMGAP
 40
0.7
  9
$LUNITS
 70
     2
  9
$LUPREC
 70
     4
  9
$SKETCHINC
 40
1.0
  9
$FILLETRAD
 40
0.0
  9
$AUNITS
 70
     0
  9
$AUPREC
 70
     2
  9
$MENU
  1
acad
  9
$ELEVATION
 40
0.0
  9
$PELEVATION
 40
0.0
  9
$THICKNESS
 40
0.0
  9
$LIMCHECK
 70
     0
  9
$CHAMFERA
 40
1.0
  9
$CHAMFERB
 40
1.0
  9
$SKPOLY
 70
     0
  9
$TDCREATE
 40
2453033.732663484
  9
$TDUPDATE
 40
2459937.491788195
  9
$TDINDWG
 40
5.6173485648
  9
$TDUSRTIMER
 40
5.6173485764
  9
$USRTIMER
 70
     1
  9
$ANGBASE
 50
0.0
  9
$ANGDIR
 70
     0
  9
$PDMODE
 70
     0
  9
$PDSIZE
 40
0.0
  9
$PLINEWID
 40
0.0
  9
$COORDS
 70
     2
  9
$SPLFRAME
 70
     0
  9
$SPLINETYPE
 70
     6
  9
$SPLINESEGS
 70
     8
  9
$ATTDIA
 70
     0
  9
$ATTREQ
 70
     1
  9
$HANDLING
 70
     1
  9
$HANDSEED
  5
23B85
  9
$SURFTAB1
 70
     6
  9
$SURFTAB2
 70
     6
  9
$SURFTYPE
 70
     6
  9
$SURFU
 70
     6
  9
$SURFV
 70
     6
  9
$UCSNAME
  2

  9
$UCSORG
 10
0.0
 20
0.0
 30
0.0
  9
$UCSXDIR
 10
1.0
 20
0.0
 30
0.0
  9
$UCSYDIR
 10
0.0
 20
1.0
 30
0.0
  9
$PUCSNAME
  2

  9
$PUCSORG
 10
0.0
 20
0.0
 30
0.0
  9
$PUCSXDIR
 10
1.0
 20
0.0
 30
0.0
  9
$PUCSYDIR
 10
0.0
 20
1.0
 30
0.0
  9
$USERI1
 70
     0
  9
$USERI2
 70
     0
  9
$USERI3
 70
     0
  9
$USERI4
 70
     0
  9
$USERI5
 70
     0
  9
$USERR1
 40
0.0
  9
$USERR2
 40
0.0
  9
$USERR3
 40
0.0
  9
$USERR4
 40
0.0
  9
$USERR5
 40
0.0
  9
$WORLDVIEW
 70
     1
  9
$SHADEDGE
 70
     3
  9
$SHADEDIF
 70
    70
  9
$TILEMODE
 70
     1
  9
$MAXACTVP
 70
    48
  9
$PLIMCHECK
 70
     0
  9
$PEXTMIN
 10
1.000000000000000E+20
 20
1.000000000000000E+20
 30
1.000000000000000E+20
  9
$PEXTMAX
 10
-1.000000000000000E+20
 20
-1.000000000000000E+20
 30
-1.000000000000000E+20
  9
$PLIMMIN
 10
0.0
 20
0.0
  9
$PLIMMAX
 10
420.0
 20
297.0
  9
$UNITMODE
 70
     0
  9
$VISRETAIN
 70
     1
  9
$PLINEGEN
 70
     0
  9
$PSLTSCALE
 70
     1
  0
ENDSEC
  0
SECTION
  2
TABLES
  0
TABLE
  2
VPORT
 70
     1
  0
VPORT
  2
*ACTIVE
 70
     0
 10
0.0
 20
0.0
 11
1.0
 21
1.0
 12
595.1061286466957
 22
-674.9056679157343
 13
0.0
 23
0.0
 14
10.0
 24
10.0
 15
10.0
 25
10.0
 16
0.0
 26
0.0
 36
1.0
 17
0.0
 27
0.0
 37
0.0
 40
370.3970546039657
 41
1.866585067319461
 42
50.0
 43
0.0
 44
0.0
 50
0.0
 51
0.0
 71
    16
 72
   100
 73
     1
 74
     1
 75
     0
 76
     0
 77
     0
 78
     0
  0
ENDTAB
  0
TABLE
  2
LTYPE
 70
    18
  0
LTYPE
  2
CONTINUOUS
 70
     0
  3
Solid line
 72
    65
 73
     0
 40
0.0
  0
LTYPE
  2
CENTER2
 70
     0
  3
Center (.5x) ___ _ ___ _ ___ _ ___ _ ___ _ ___
 72
    65
 73
     4
 40
28.575
 49
19.05
 49
-3.175
 49
3.175
 49
-3.175
  0
LTYPE
  2
PHANTOM2
 70
     0
  3
Phantom (0.5x) ___ _ _ ___ _ _ ___ _ _ ___ _ _
 72
    65
 73
     6
 40
31.75
 49
15.875
 49
-3.175
 49
3.175
 49
-3.175
 49
3.175
 49
-3.175
  0
ENDTAB
  0
TABLE
  2
LAYER
 70
    45
  0
LAYER
  2
0
 70
     0
 62
     7
  6
CONTINUOUS
  0
LAYER
  2
1CENTER
 70
     0
 62
     7
  6
CENTER2
  0
LAYER
  2
1TEXT
 70
     0
 62
     7
  6
CONTINUOUS
  0
LAYER
  2
1DIM
 70
     0
 62
     7
  6
CONTINUOUS
  0
LAYER
  2
1PHANTOM
 70
     0
 62
     7
  6
PHANTOM2
  0
LAYER
  2
01
 70
     0
 62
     1
  6
CONTINUOUS
  0
LAYER
  2
1DIM1
 70
     0
 62
     7
  6
CONTINUOUS
  0
ENDTAB
  0
TABLE
  2
STYLE
 70
    24
  0
STYLE
  2
STANDARD
 70
     0
 40
0.0
 41
1.0
 50
0.0
 71
     0
 42
4.0
  3
txt.shx
  4
extfont.shx
  0
ENDTAB
  0
TABLE
  2
VIEW
 70
     0
  0
ENDTAB
  0
TABLE
  2
UCS
 70
     0
  0
ENDTAB
  0
TABLE
  2
APPID
 70
    16
  0
APPID
  2
ACAD
 70
     0
  0
APPID
  2
DRAWINGVARIABLESXDATA
 70
     0
  0
APPID
  2
CONTENTTABDATA
 70
     0
  0
APPID
  2
CONTENTCURRENTTAB
 70
     0
  0
APPID
  2
CONTENTBLOCKDESCRIPTION
 70
     0
  0
APPID
  2
CONTENTBLOCKICON
 70
     0
  0
APPID
  2
CONTENTLONGBLOCKNAME
 70
     0
  0
APPID
  2
ACAD_PSEXT
 70
     0
  0
APPID
  2
ACAD_DSTYLE_DIMTEXT_FILL
 70
     0
  0
APPID
  2
ACAD_MLEADERVER
 70
     0
  0
APPID
  2
ACAD_DSTYLE_DIMRADIAL_EXTE
 70
     0
  0
APPID
  2
ACADANNOTATIVE
 70
     0
  0
APPID
  2
ACAD_EXEMPT_FROM_CAD_STAND
 70
     0
  0
APPID
  2
ACDBBLOCKREPETAG
 70
     0
  0
APPID
  2
ACAD_OBJECT_CHANGE_GUID
 70
     0
  0
APPID
  2
ACAD_NAV_VCDISPLAY
 70
     0
  0
ENDTAB
  0
TABLE
  2
DIMSTYLE
 70
    10
  0
DIMSTYLE
  2
NEWX10
 70
     0
  3
 
  4

  5

  6
OPEN30
  7
OPEN30
 40
1.0
 41
2.0
 42
0.0
 43
7.0
 44
1.0
 45
0.0
 46
0.0
 47
0.0
 48
0.0
140
3.5
141
0.0
142
0.0
143
25.4
144
1.0
145
0.0
146
0.7
147
0.7
 71
     0
 72
     0
 73
     0
 74
     0
 75
     0
 76
     0
 77
     1
 78
     8
170
     0
171
     2
172
     1
173
     1
174
     0
175
     0
176
   256
177
   256
178
   201
  0
ENDTAB
  0
ENDSEC
  0
SECTION
  2
BLOCKS
  0
BLOCK
  8
0
  2
$MODEL_SPACE
 70
     0
 10
0.0
 20
0.0
 30
0.0
  3
$MODEL_SPACE
  1

  0
ENDBLK
  5
1A
  8
0
  0
BLOCK
 67
     1
  8
0
  2
$PAPER_SPACE
 70
     0
 10
0.0
 20
0.0
 30
0.0
  3
$PAPER_SPACE
  1

  0
ENDBLK
  5
17
 67
     1
  8
0
  0
BLOCK
  8
0
  2
_OPEN30
 70
     0
 10
0.0
 20
0.0
 30
0.0
  3
_OPEN30
  1

  0
LINE
  5
44
  8
0
  6
BYBLOCK
 62
     0
 10
-1.0
 20
0.26794919
 30
0.0
 11
0.0
 21
0.0
 31
0.0
  0
LINE
  5
45
  8
0
  6
BYBLOCK
 62
     0
 10
0.0
 20
0.0
 30
0.0
 11
-1.0
 21
-0.26794919
 31
0.0
  0
LINE
  5
46
  8
0
  6
BYBLOCK
 62
     0
 10
0.0
 20
0.0
 30
0.0
 11
-1.0
 21
0.0
 31
0.0
  0
ENDBLK
  5
47
  8
0
  0
BLOCK
  8
0
  2
A3WAKUKAWAJUN2017_HYOUDAI_
 70
     0
 10
0.0
 20
0.0
 30
0.0
  3
A3WAKUKAWAJUN2017_HYOUDAI_
  1

  0
LINE
  5
20318
  8
0
 10
13.26299999998673
 20
-0.0001000000000317
 30
0.0
 11
9.236999999990758
 21
8.999899999990987
 31
0.0
1001
ACAD
1000
ASC_BOUNDS
1002
{
1070
    19
1005
20359
1002
}
  0
LINE
  5
20319
  8
0
 10
5.657999999994331
 20
0.9999999999989768
 30
0.0
 11
9.236999999990758
 21
8.999999999991019
 31
0.0
1001
ACAD
1000
ASC_BOUNDS
1002
{
1070
    19
1005
20359
1002
}
  0
LINE
  5
2031A
  8
0
 10
18.59199999998134
 20
-0.2368999999997641
 30
0.0
 11
16.46099999998353
 21
5.432899999994561
 31
0.0
1001
ACAD
1000
ASC_BOUNDS
1002
{
1070
    19
1005
2035A
1002
}
  0
LINE
  5
2031B
  8
0
 10
18.59199999998134
 20
-0.2368999999997641
 30
0.0
 11
22.38199999997767
 21
8.763099999991255
 31
0.0
1001
ACAD
1000
ASC_BOUNDS
1002
{
1070
    19
1005
2035A
1002
}
  0
LINE
  5
2031C
  8
0
 10
14.32899999998563
 20
-0.2368999999997641
 30
0.0
 11
16.46099999998353
 21
5.432899999994561
 31
0.0
1001
ACAD
1000
ASC_BOUNDS
1002
{
1070
    19
1005
2035A
1002
}
  0
LINE
  5
2031D
  8
0
 10
14.32899999998563
 20
-0.2368999999997641
 30
0.0
 11
10.53899999998941
 21
8.763099999991255
 31
0.0
1001
ACAD
1000
ASC_BOUNDS
1002
{
1070
    19
1005
2035A
1002
}
  0
LINE
  5
2031E
  8
0
 10
19.53899999998043
 20
-0.0001000000000317
 30
0.0
 11
23.56599999997638
 21
8.999899999990987
 31
0.0
1001
ACAD
1000
ASC_BOUNDS
1002
{
1070
    19
1005
2035B
1002
}
  0
LINE
  5
2031F
  8
0
 10
26.97358892824991
 20
1.383099999991202
 30
0.0
 11
23.56599999997638
 21
8.999899999990987
 31
0.0
1001
ACAD
1000
ASC_BOUNDS
1002
{
1070
    19
1005
2035B
1002
}
  0
LINE
  5
20320
  8
0
 10
5.657999999994331
 20
0.9999999999989768
 30
0.0
 11
3.181999999996833
 21
4.668599999995308
 31
0.0
1001
ACAD
1000
ASC_BOUNDS
1002
{
1070
    19
1005
20359
1002
}
  0
LINE
  5
20321
  8
0
 10
4.617999999995391
 20
-0.0001000000000317
 30
0.0
 11
1.420999999998571
 21
4.736799999995242
 31
0.0
1001
ACAD
1000
ASC_BOUNDS
1002
{
1070
    19
1005
20359
1002
}
  0
LINE
  5
20322
  8
0
 10
1.420999999998571
 20
8.763099999991255
 30
0.0
 11
1.420999999998571
 21
0.0
 31
0.0
1001
ACAD
1000
ASC_BOUNDS
1002
{
1070
    19
1005
2035E
1002
}
  0
LINE
  5
20323
  8
0
 10
0.0
 20
8.763099999991255
 30
0.0
 11
0.0
 21
0.0
 31
0.0
1001
ACAD
1000
ASC_BOUNDS
1002
{
1070
    19
1005
2035E
1002
}
  0
LINE
  5
20324
  8
0
 10
6.766999999993232
 20
-0.0001000000000317
 30
0.0
 11
7.826999999992154
 21
2.368399999997621
 31
0.0
1001
ACAD
1000
ASC_BOUNDS
1002
{
1070
    19
1005
20359
1002
}
  0
LINE
  5
20325
  8
0
 10
0.0
 20
0.0
 30
0.0
 11
1.420999999998571
 21
0.0
 31
0.0
1001
ACAD
1000
ASC_BOUNDS
1002
{
1070
    19
1005
2035E
1002
}
  0
LINE
  5
20326
  8
0
 10
4.617999999995391
 20
0.0
 30
0.0
 11
6.766999999993232
 21
0.0
 31
0.0
1001
ACAD
1000
ASC_BOUNDS
1002
{
1070
    19
1005
20359
1002
}
  0
LINE
  5
20327
  8
0
 10
11.70599999998831
 20
-0.0001000000000317
 30
0.0
 11
10.64699999998936
 21
2.368399999997621
 31
0.0
1001
ACAD
1000
ASC_BOUNDS
1002
{
1070
    19
1005
20359
1002
}
  0
LINE
  5
20328
  8
0
 10
7.826999999992154
 20
2.368399999997621
 30
0.0
 11
10.64699999998936
 21
2.368399999997621
 31
0.0
1001
ACAD
1000
ASC_BOUNDS
1002
{
1070
    19
1005
20359
1002
}
  0
LINE
  5
20329
  8
0
 10
11.70599999998831
 20
0.0
 30
0.0
 11
13.26299999998673
 21
0.0
 31
0.0
1001
ACAD
1000
ASC_BOUNDS
1002
{
1070
    19
1005
20359
1002
}
  0
LINE
  5
2032A
  8
0
 10
22.15599999997789
 20
2.368399999997621
 30
0.0
 11
24.97599999997499
 21
2.368399999997621
 31
0.0
1001
ACAD
1000
ASC_BOUNDS
1002
{
1070
    19
1005
2035B
1002
}
  0
LINE
  5
2032B
  8
0
 10
19.53899999998043
 20
0.0
 30
0.0
 11
21.09599999997886
 21
0.0
 31
0.0
1001
ACAD
1000
ASC_BOUNDS
1002
{
1070
    19
1005
2035B
1002
}
  0
LINE
  5
2032C
  8
0
 10
21.09599999997886
 20
-0.0001000000000317
 30
0.0
 11
22.15599999997789
 21
2.368399999997621
 31
0.0
1001
ACAD
1000
ASC_BOUNDS
1002
{
1070
    19
1005
2035B
1002
}
  0
LINE
  5
2032D
  8
0
 10
26.02015566812236
 20
0.0330999999912365
 30
0.0
 11
24.97599999997499
 21
2.368399999997621
 31
0.0
1001
ACAD
1000
ASC_BOUNDS
1002
{
1070
    19
1005
2035B
1002
}
  0
LINE
  5
2032E
  8
0
 10
14.32399999998563
 20
3.315799999996671
 30
0.0
 11
16.46099999998353
 21
8.999899999990987
 31
0.0
1001
ACAD
1000
ASC_BOUNDS
1002
{
1070
    19
1005
2035A
1002
}
  0
LINE
  5
2032F
  8
0
 10
6.432999999993513
 20
8.763099999991255
 30
0.0
 11
3.181999999996833
 21
4.668599999995308
 31
0.0
1001
ACAD
1000
ASC_BOUNDS
1002
{
1070
    19
1005
20359
1002
}
  0
LINE
  5
20330
  8
0
 10
4.617999999995391
 20
8.763099999991255
 30
0.0
 11
1.420999999998571
 21
4.736799999995242
 31
0.0
1001
ACAD
1000
ASC_BOUNDS
1002
{
1070
    19
1005
20359
1002
}
  0
LINE
  5
20331
  8
0
 10
0.0
 20
8.763099999991255
 30
0.0
 11
1.420999999998571
 21
8.763099999991255
 31
0.0
1001
ACAD
1000
ASC_BOUNDS
1002
{
1070
    19
1005
2035E
1002
}
  0
LINE
  5
20332
  8
0
 10
4.617999999995391
 20
8.763099999991255
 30
0.0
 11
6.432999999993513
 21
8.763099999991255
 31
0.0
1001
ACAD
1000
ASC_BOUNDS
1002
{
1070
    19
1005
20359
1002
}
  0
LINE
  5
20333
  8
0
 10
14.32399999998563
 20
3.315799999996671
 30
0.0
 11
12.02999999998792
 21
8.763099999991255
 31
0.0
1001
ACAD
1000
ASC_BOUNDS
1002
{
1070
    19
1005
2035A
1002
}
  0
LINE
  5
20334
  8
0
 10
10.06399999998996
 20
3.670999999996297
 30
0.0
 11
9.236999999990758
 21
5.5200999999945
 31
0.0
1001
ACAD
1000
ASC_BOUNDS
1002
{
1070
    19
1005
20359
1002
}
  0
LINE
  5
20335
  8
0
 10
8.409999999991555
 20
3.670999999996297
 30
0.0
 11
9.236999999990758
 21
5.5200999999945
 31
0.0
1001
ACAD
1000
ASC_BOUNDS
1002
{
1070
    19
1005
20359
1002
}
  0
LINE
  5
20336
  8
0
 10
8.409999999991555
 20
3.670999999996297
 30
0.0
 11
10.06399999998996
 21
3.670999999996297
 31
0.0
1001
ACAD
1000
ASC_BOUNDS
1002
{
1070
    19
1005
20359
1002
}
  0
LINE
  5
20337
  8
0
 10
10.53899999998941
 20
8.763099999991255
 30
0.0
 11
12.02999999998792
 21
8.763099999991255
 31
0.0
1001
ACAD
1000
ASC_BOUNDS
1002
{
1070
    19
1005
2035A
1002
}
  0
LINE
  5
20338
  8
0
 10
22.7389999999773
 20
3.670999999996297
 30
0.0
 11
23.56599999997638
 21
5.5200999999945
 31
0.0
1001
ACAD
1000
ASC_BOUNDS
1002
{
1070
    19
1005
2035B
1002
}
  0
LINE
  5
20339
  8
0
 10
22.7389999999773
 20
3.670999999996297
 30
0.0
 11
24.39299999997559
 21
3.670999999996297
 31
0.0
1001
ACAD
1000
ASC_BOUNDS
1002
{
1070
    19
1005
2035B
1002
}
  0
LINE
  5
2033A
  8
0
 10
18.59799999998143
 20
3.315799999996671
 30
0.0
 11
20.89099999997916
 21
8.763099999991255
 31
0.0
1001
ACAD
1000
ASC_BOUNDS
1002
{
1070
    19
1005
2035A
1002
}
  0
LINE
  5
2033B
  8
0
 10
18.59799999998143
 20
3.315799999996671
 30
0.0
 11
16.46099999998353
 21
8.999899999990987
 31
0.0
1001
ACAD
1000
ASC_BOUNDS
1002
{
1070
    19
1005
2035A
1002
}
  0
LINE
  5
2033C
  8
0
 10
20.89099999997916
 20
8.763099999991255
 30
0.0
 11
22.38199999997767
 21
8.763099999991255
 31
0.0
1001
ACAD
1000
ASC_BOUNDS
1002
{
1070
    19
1005
2035A
1002
}
  0
LINE
  5
2033D
  8
0
 10
24.39299999997559
 20
3.670999999996297
 30
0.0
 11
23.56599999997638
 21
5.5200999999945
 31
0.0
1001
ACAD
1000
ASC_BOUNDS
1002
{
1070
    19
1005
2035B
1002
}
  0
LINE
  5
2033E
  8
0
 10
44.99999999995498
 20
-0.2368999999997641
 30
0.0
 11
40.02599999995994
 21
5.341799999994635
 31
0.0
1001
ACAD
1000
ASC_BOUNDS
1002
{
1070
    19
1005
2035D
1002
}
  0
LINE
  5
2033F
  8
0
 10
40.02599999995994
 20
5.341799999994635
 30
0.0
 11
40.02599999995994
 21
0.0
 31
0.0
1001
ACAD
1000
ASC_BOUNDS
1002
{
1070
    19
1005
2035D
1002
}
  0
LINE
  5
20340
  8
0
 10
38.60499999996136
 20
8.999999999991019
 30
0.0
 11
38.60499999996136
 21
0.0
 31
0.0
1001
ACAD
1000
ASC_BOUNDS
1002
{
1070
    19
1005
2035D
1002
}
  0
LINE
  5
20341
  8
0
 10
44.99999999995498
 20
8.763099999991255
 30
0.0
 11
44.99999999995498
 21
-0.2368999999997641
 31
0.0
1001
ACAD
1000
ASC_BOUNDS
1002
{
1070
    19
1005
2035D
1002
}
  0
LINE
  5
20342
  8
0
 10
38.60499999996136
 20
0.0
 30
0.0
 11
40.02599999995994
 21
0.0
 31
0.0
1001
ACAD
1000
ASC_BOUNDS
1002
{
1070
    19
1005
2035D
1002
}
  0
LINE
  5
20343
  8
0
 10
43.57899999995641
 20
3.421199999996588
 30
0.0
 11
38.60499999996136
 21
8.999899999990987
 31
0.0
1001
ACAD
1000
ASC_BOUNDS
1002
{
1070
    19
1005
2035D
1002
}
  0
LINE
  5
20344
  8
0
 10
43.57899999995641
 20
8.763099999991255
 30
0.0
 11
43.57899999995641
 21
3.421199999996588
 31
0.0
1001
ACAD
1000
ASC_BOUNDS
1002
{
1070
    19
1005
2035D
1002
}
  0
LINE
  5
20345
  8
0
 10
43.57899999995641
 20
8.763099999991255
 30
0.0
 11
44.99999999995498
 21
8.763099999991255
 31
0.0
1001
ACAD
1000
ASC_BOUNDS
1002
{
1070
    19
1005
2035D
1002
}
  0
LINE
  5
20346
  8
0
 10
37.67199999996831
 20
8.763099999991255
 30
0.0
 11
36.23199999996837
 21
8.763099999991255
 31
0.0
  0
LINE
  5
20347
  8
0
 10
31.64199999996833
 20
8.763099999991255
 30
0.0
 11
31.64199999996833
 21
2.481619422925121
 31
0.0
  0
LINE
  5
20348
  8
0
 10
37.67199999996831
 20
8.763099999991255
 30
0.0
 11
37.67199999996831
 21
2.481619422925121
 31
0.0
  0
LINE
  5
20349
  8
0
 10
36.23199999996837
 20
8.763099999991255
 30
0.0
 11
36.23199999996837
 21
2.481619422925064
 31
0.0
  0
LINE
  5
2034A
  8
0
 10
33.08199999996839
 20
8.763099999991255
 30
0.0
 11
33.08199999996839
 21
2.481619422925121
 31
0.0
  0
ARC
  5
2034B
  8
0
 10
34.65699999996832
 20
3.183099999991214
 30
0.0
 40
3.420000000000007
 50
240.0000000000255
 51
299.9999999999766
  0
ARC
  5
2034C
  8
0
 10
34.65699999996832
 20
3.183099999991214
 30
0.0
 40
1.97999999999999
 50
240.000000000026
 51
299.9999999999703
  0
LINE
  5
2034D
  8
0
 10
33.08199999996828
 20
8.763099999991255
 30
0.0
 11
31.64199999996833
 21
8.763099999991255
 31
0.0
  0
ARC
  5
2034E
  8
0
 10
35.06199999996829
 20
2.481619422925064
 30
0.0
 40
1.17
 50
299.9999999999699
 51
0.0
  0
ARC
  5
2034F
  8
0
 10
34.25199999996835
 20
2.481619422925121
 30
0.0
 40
1.17
 50
180.0
 51
240.0000000000238
  0
ARC
  5
20350
  8
0
 10
35.06199999996841
 20
2.481619422925121
 30
0.0
 40
2.61
 50
299.9999999999756
 51
0.0
  0
ARC
  5
20351
  8
0
 10
34.25199999996835
 20
2.481619422925121
 30
0.0
 40
2.61
 50
180.0
 51
240.0000000000244
  0
LINE
  5
20352
  8
0
 10
29.30199999996933
 20
8.763099999991255
 30
0.0
 11
30.74199999996927
 21
8.763099999991255
 31
0.0
1001
ACAD
1000
ASC_BOUNDS
1002
{
1070
    19
1005
2035B
1002
}
  0
LINE
  5
20353
  8
0
 10
30.74199999996927
 20
8.763099999991255
 30
0.0
 11
30.74199999996927
 21
2.373099999991211
 31
0.0
1001
ACAD
1000
ASC_BOUNDS
1002
{
1070
    19
1005
2035B
1002
}
  0
LINE
  5
20354
  8
0
 10
26.02015566812236
 20
0.0330999999912365
 30
0.0
 11
28.40199999996923
 21
0.0330999999912365
 31
0.0
1001
ACAD
1000
ASC_BOUNDS
1002
{
1070
    19
1005
2035B
1002
}
  0
LINE
  5
20355
  8
0
 10
29.30199999996933
 20
8.763099999991255
 30
0.0
 11
29.30199999996933
 21
2.283099999991236
 31
0.0
1001
ACAD
1000
ASC_BOUNDS
1002
{
1070
    19
1005
2035B
1002
}
  0
LINE
  5
20356
  8
0
 10
26.97358892824991
 20
1.383099999991202
 30
0.0
 11
28.40199999996923
 21
1.383099999991202
 31
0.0
1001
ACAD
1000
ASC_BOUNDS
1002
{
1070
    19
1005
2035B
1002
}
  0
ARC
  5
20357
  8
0
 10
28.40199999996923
 20
2.283099999991236
 30
0.0
 40
0.9
 50
270.0
 51
0.0
1001
ACAD
1000
ASC_BOUNDS
1002
{
1070
    19
1005
2035B
1002
}
  0
ARC
  5
20358
  8
0
 10
28.40199999996923
 20
2.373099999991211
 30
0.0
 40
2.34
 50
270.0
 51
0.0
1001
ACAD
1000
ASC_BOUNDS
1002
{
1070
    19
1005
2035B
1002
}
  0
INSERT
  5
20359
  8
0
  2
*X199
 10
0.0
 20
0.0
 30
0.0
1001
ACAD
1000
HATCH
1002
{
1070
    19
1000
ANSI37
1040
0.15
1040
0.0
1000
ASC_BOUNDS
1070
     2
1070
     2
1070
    12
1005
20318
1005
20319
1005
20320
1005
2032F
1005
20332
1005
20330
1005
20321
1005
20326
1005
20324
1005
20328
1005
20327
1005
20329
1070
     2
1070
     3
1005
20334
1005
20336
1005
20335
1000
ASC_SEEDPOINT
1011
3.614004224891801
1021
2.996669441146025
1031
0.0
1021
2.996669441146025
1031
0.0
1000
R14_HATCH_DATA
1000
20359
1011
1.0
1021
0.0
1031
0.0
1021
0.0
1031
0.0
1011
0.0
1021
1.0
1031
0.0
1021
1.0
1031
0.0
1011
0.0
1021
0.0
1031
1.0
1021
0.0
1031
1.0
1040
0.0
1010
0.0
1020
0.0
1030
1.0
1000
ANSI37
1070
     0
1070
     1
1071
        2
1071
        7
1070
     0
1070
     1
1071
       17
1040
13.26299999998673
1040
-0.0001000000000317
1040
9.236999999990758
1040
8.999899999990987
1040
9.236999999990758
1040
8.999999999991019
1040
5.657999999994331
1040
0.9999999999989768
1040
3.181999999996833
1040
4.668599999995308
1040
6.432999999993513
1040
8.763099999991255
1040
4.617999999995391
1040
8.763099999991255
1040
1.420999999998571
1040
4.736799999995242
1040
4.617999999995391
1040
-0.0001000000000317
1040
4.617999999995391
1040
0.0
1040
6.766999999993232
1040
0.0
1040
6.766999999993232
1040
-0.0001000000000317
1040
7.826999999992154
1040
2.368399999997621
1040
10.64699999998936
1040
2.368399999997621
1040
11.70599999998831
1040
-0.0001000000000317
1040
11.70599999998831
1040
0.0
1040
13.26299999998673
1040
0.0
1071
       12
1005
20318
1005
20319
1005
20320
1005
2032F
1005
20332
1005
20330
1005
20321
1005
20326
1005
20324
1005
20328
1005
20327
1005
20329
1071
       22
1070
     0
1070
     1
1071
        3
1040
9.236999999990758
1040
5.5200999999945
1040
10.06399999998996
1040
3.670999999996297
1040
8.409999999991555
1040
3.670999999996297
1071
        3
1005
20334
1005
20336
1005
20335
1070
     0
1070
     1
1040
0.0
1040
0.15
1070
     0
1070
     2
1040
0.7853981633974483
1040
49.29960901727088
1040
-10.17736998311392
1040
-0.3367596045400932
1040
0.3367596045400932
1070
     0
1040
2.356194490192345
1040
49.29960901727088
1040
-10.17736998311392
1040
-0.3367596045400932
1040
-0.3367596045400932
1070
     0
1040
0.0110235143455945
1071
        2
1040
3.614004224891801
1040
2.996669441146025
1040
0.0
1040
3.614004224891801
1040
2.996669441146025
1040
0.0
1002
}
  0
INSERT
  5
2035A
  8
0
  2
*X200
 10
0.0
 20
0.0
 30
0.0
1001
ACAD
1000
HATCH
1002
{
1070
    19
1000
ANSI37
1040
0.15
1040
0.0
1000
ASC_BOUNDS
1070
     1
1070
     2
1070
    10
1005
2031A
1005
2031B
1005
2033C
1005
2033A
1005
2033B
1005
2032E
1005
20333
1005
20337
1005
2031D
1005
2031C
1000
ASC_SEEDPOINT
1011
14.73245321214324
1021
2.798246178283421
1031
0.0
1021
2.798246178283421
1031
0.0
1000
R14_HATCH_DATA
1000
2035A
1011
1.0
1021
0.0
1031
0.0
1021
0.0
1031
0.0
1011
0.0
1021
1.0
1031
0.0
1021
1.0
1031
0.0
1011
0.0
1021
0.0
1031
1.0
1021
0.0
1031
1.0
1040
0.0
1010
0.0
1020
0.0
1030
1.0
1000
ANSI37
1070
     0
1070
     1
1071
        1
1071
        7
1070
     0
1070
     1
1071
       10
1040
16.46099999998353
1040
5.432899999994561
1040
18.59199999998134
1040
-0.2368999999997641
1040
22.38199999997767
1040
8.763099999991255
1040
20.89099999997916
1040
8.763099999991255
1040
18.59799999998143
1040
3.315799999996671
1040
16.46099999998353
1040
8.999899999990987
1040
14.32399999998563
1040
3.315799999996671
1040
12.02999999998792
1040
8.763099999991255
1040
10.53899999998941
1040
8.763099999991255
1040
14.32899999998563
1040
-0.2368999999997641
1071
       10
1005
2031A
1005
2031B
1005
2033C
1005
2033A
1005
2033B
1005
2032E
1005
20333
1005
20337
1005
2031D
1005
2031C
1070
     0
1070
     1
1040
0.0
1040
0.15
1070
     0
1070
     2
1040
0.7853981633974483
1040
49.29960901727088
1040
-10.17736998311392
1040
-0.3367596045400932
1040
0.3367596045400932
1070
     0
1040
2.356194490192345
1040
49.29960901727088
1040
-10.17736998311392
1040
-0.3367596045400932
1040
-0.3367596045400932
1070
     0
1040
0.0110235143455945
1071
        1
1040
14.73245321214324
1040
2.798246178283421
1040
0.0
1002
}
  0
INSERT
  5
2035B
  8
0
  2
*X201
 10
0.0
 20
0.0
 30
0.0
1001
ACAD
1000
HATCH
1002
{
1070
    19
1000
ANSI37
1040
0.15
1040
0.0
1000
ASC_BOUNDS
1070
     2
1070
     2
1070
    13
1005
2031E
1005
2032B
1005
2032C
1005
2032A
1005
2032D
1005
20354
1005
20358
1005
20353
1005
20352
1005
20355
1005
20357
1005
20356
1005
2031F
1070
     2
1070
     3
1005
20338
1005
2033D
1005
20339
1000
ASC_SEEDPOINT
1011
21.97929957367762
1021
3.294304244259308
1031
0.0
1021
3.294304244259308
1031
0.0
1000
R14_HATCH_DATA
1000
2035B
1011
1.0
1021
0.0
1031
0.0
1021
0.0
1031
0.0
1011
0.0
1021
1.0
1031
0.0
1021
1.0
1031
0.0
1011
0.0
1021
0.0
1031
1.0
1021
0.0
1031
1.0
1040
0.0
1010
0.0
1020
0.0
1030
1.0
1000
ANSI37
1070
     0
1070
     1
1071
        2
1071
        7
1070
     1
1070
     1
1071
       15
1040
23.56599999997638
1040
8.999899999990987
1040
0.0
1040
19.53899999998043
1040
-0.0001000000000317
1040
0.0
1040
19.53899999998043
1040
0.0
1040
0.0
1040
21.09599999997886
1040
0.0
1040
0.0
1040
21.09599999997886
1040
-0.0001000000000317
1040
0.0
1040
22.15599999997789
1040
2.368399999997621
1040
0.0
1040
24.97599999997499
1040
2.368399999997621
1040
0.0
1040
26.02015566812236
1040
0.0330999999912365
1040
0.0
1040
28.40199999996923
1040
0.0330999999912365
1040
0.414213562373095
1040
30.74199999996923
1040
2.373099999991211
1040
0.0
1040
30.74199999996927
1040
8.763099999991255
1040
0.0
1040
29.30199999996933
1040
8.763099999991255
1040
0.0
1040
29.30199999996933
1040
2.283099999991236
1040
-0.414213562373095
1040
28.40199999996923
1040
1.383099999991237
1040
0.0
1040
26.97358892824991
1040
1.383099999991202
1040
0.0
1071
       13
1005
2031E
1005
2032B
1005
2032C
1005
2032A
1005
2032D
1005
20354
1005
20358
1005
20353
1005
20352
1005
20355
1005
20357
1005
20356
1005
2031F
1071
       22
1070
     0
1070
     1
1071
        3
1040
22.7389999999773
1040
3.670999999996297
1040
23.56599999997638
1040
5.5200999999945
1040
24.39299999997559
1040
3.670999999996297
1071
        3
1005
20338
1005
2033D
1005
20339
1070
     0
1070
     1
1040
0.0
1040
0.15
1070
     0
1070
     2
1040
0.7853981633974483
1040
49.29960901727088
1040
-10.17736998311392
1040
-0.3367596045400932
1040
0.3367596045400932
1070
     0
1040
2.356194490192345
1040
49.29960901727088
1040
-10.17736998311392
1040
-0.3367596045400932
1040
-0.3367596045400932
1070
     0
1040
0.0110235143455945
1071
        2
1040
21.97929957367762
1040
3.294304244259308
1040
0.0
1040
21.97929957367762
1040
3.294304244259308
1040
0.0
1002
}
  0
INSERT
  5
2035C
  8
0
  2
*X202
 10
0.0
 20
0.0
 30
0.0
1001
ACAD
1000
HATCH
1002
{
1070
    19
1000
ANSI37
1040
0.15
1040
0.0
1000
R14_HATCH_DATA
1000
2035C
1011
1.0
1021
0.0
1031
0.0
1021
0.0
1031
0.0
1011
0.0
1021
1.0
1031
0.0
1021
1.0
1031
0.0
1011
0.0
1021
0.0
1031
1.0
1021
0.0
1031
1.0
1040
0.0
1010
0.0
1020
0.0
1030
1.0
1000
ANSI37
1070
     0
1070
     1
1071
        1
1071
        7
1070
     1
1070
     1
1071
       12
1040
31.64199999996833
1040
2.481619422925121
1040
0.2679491924310942
1040
32.94699999997067
1040
0.2212931190493919
1040
0.2679491924301353
1040
36.36699999995983
1040
0.2212931190459813
1040
0.2679491924321411
1040
37.67199999996831
1040
2.481619422928361
1040
0.0
1040
37.67199999996831
1040
8.763099999991255
1040
0.0
1040
36.23199999996837
1040
8.763099999991255
1040
0.0
1040
36.23199999996837
1040
2.481619422925064
1040
-0.2679491924310291
1040
35.64699999996708
1040
1.468369700498386
1040
-0.267949192430519
1040
33.66699999997093
1040
1.468369700497703
1040
-0.267949192431809
1040
33.08199999996839
1040
2.481619422926997
1040
0.0
1040
33.08199999996839
1040
8.763099999991255
1040
0.0
1040
31.64199999996833
1040
8.763099999991255
1040
0.0
1071
        0
1070
     0
1070
     1
1040
0.0
1040
0.15
1070
     0
1070
     2
1040
0.7853981633974483
1040
49.29960901727088
1040
-10.17736998311392
1040
-0.3367596045400932
1040
0.3367596045400932
1070
     0
1040
2.356194490192345
1040
49.29960901727088
1040
-10.17736998311392
1040
-0.3367596045400932
1040
-0.3367596045400932
1070
     0
1040
0.0110235143455945
1071
        1
1040
32.30357378967278
1040
3.988785755459219
1040
0.0
1002
}
  0
INSERT
  5
2035D
  8
0
  2
*X203
 10
0.0
 20
0.0
 30
0.0
1001
ACAD
1000
HATCH
1002
{
1070
    19
1000
ANSI37
1040
0.15
1040
0.0
1000
ASC_BOUNDS
1070
     1
1070
     2
1070
     8
1005
2033E
1005
20341
1005
20345
1005
20344
1005
20343
1005
20340
1005
20342
1005
2033F
1000
ASC_SEEDPOINT
1011
39.74896370716704
1021
4.484843821435049
1031
0.0
1021
4.484843821435049
1031
0.0
1000
R14_HATCH_DATA
1000
2035D
1011
1.0
1021
0.0
1031
0.0
1021
0.0
1031
0.0
1011
0.0
1021
1.0
1031
0.0
1021
1.0
1031
0.0
1011
0.0
1021
0.0
1031
1.0
1021
0.0
1031
1.0
1040
0.0
1010
0.0
1020
0.0
1030
1.0
1000
ANSI37
1070
     0
1070
     1
1071
        1
1071
        7
1070
     0
1070
     1
1071
        9
1040
40.02599999995994
1040
5.341799999994635
1040
44.99999999995498
1040
-0.2368999999997641
1040
44.99999999995498
1040
8.763099999991255
1040
43.57899999995641
1040
8.763099999991255
1040
43.57899999995641
1040
3.421199999996588
1040
38.60499999996136
1040
8.999899999990987
1040
38.60499999996136
1040
8.999999999991019
1040
38.60499999996136
1040
0.0
1040
40.02599999995994
1040
0.0
1071
        8
1005
2033E
1005
20341
1005
20345
1005
20344
1005
20343
1005
20340
1005
20342
1005
2033F
1070
     0
1070
     1
1040
0.0
1040
0.15
1070
     0
1070
     2
1040
0.7853981633974483
1040
49.29960901727088
1040
-10.17736998311392
1040
-0.3367596045400932
1040
0.3367596045400932
1070
     0
1040
2.356194490192345
1040
49.29960901727088
1040
-10.17736998311392
1040
-0.3367596045400932
1040
-0.3367596045400932
1070
     0
1040
0.0110235143455945
1071
        1
1040
39.74896370716704
1040
4.484843821435049
1040
0.0
1002
}
  0
INSERT
  5
2035E
  8
0
  2
*X204
 10
0.0
 20
0.0
 30
0.0
1001
ACAD
1000
HATCH
1002
{
1070
    19
1000
ANSI37
1040
0.15
1040
0.0
1000
ASC_BOUNDS
1070
     1
1070
     2
1070
     4
1005
20322
1005
20331
1005
20323
1005
20325
1000
ASC_SEEDPOINT
1011
1.079051535452663
1021
4.148538732891836
1031
0.0
1021
4.148538732891836
1031
0.0
1000
R14_HATCH_DATA
1000
2035E
1011
1.0
1021
0.0
1031
0.0
1021
0.0
1031
0.0
1011
0.0
1021
1.0
1031
0.0
1021
1.0
1031
0.0
1011
0.0
1021
0.0
1031
1.0
1021
0.0
1031
1.0
1040
0.0
1010
0.0
1020
0.0
1030
1.0
1000
ANSI37
1070
     0
1070
     1
1071
        1
1071
        7
1070
     0
1070
     1
1071
        4
1040
1.420999999998571
1040
0.0
1040
1.420999999998571
1040
8.763099999991255
1040
0.0
1040
8.763099999991255
1040
0.0
1040
0.0
1071
        4
1005
20322
1005
20331
1005
20323
1005
20325
1070
     0
1070
     1
1040
0.0
1040
0.15
1070
     0
1070
     2
1040
0.7853981633974483
1040
49.29960901727088
1040
-10.17736998311392
1040
-0.3367596045400932
1040
0.3367596045400932
1070
     0
1040
2.356194490192345
1040
49.29960901727088
1040
-10.17736998311392
1040
-0.3367596045400932
1040
-0.3367596045400932
1070
     0
1040
0.0053004257112761
1071
        1
1040
1.079051535452663
1040
4.148538732891836
1040
0.0
1002
}
  0
ENDBLK
  5
20A16
  8
0
  0
BLOCK
  8
0
  2
*X199
 70
     1
 10
0.0
 20
0.0
 30
0.0
  3
*X199
  1

  0
LINE
  5
239EC
  8
0
  6
CONTINUOUS
 10
3.418023043697893
 20
7.251849696850613
 30
0.0
 11
4.929273346838536
 21
8.763099999991255
 31
0.0
  0
LINE
  5
239ED
  8
0
  6
CONTINUOUS
 10
1.483656411257782
 20
4.643963855330318
 30
0.0
 11
5.60279255591872
 21
8.763099999991255
 31
0.0
  0
LINE
  5
239EE
  8
0
  6
CONTINUOUS
 10
1.755053947328235
 20
4.241842182320584
 30
0.0
 11
6.276311764998907
 21
8.763099999991255
 31
0.0
  0
LINE
  5
239EF
  8
0
  6
CONTINUOUS
 10
2.026451483398688
 20
3.839720509310849
 30
0.0
 11
4.441040904851878
 21
6.254309930764039
 31
0.0
  0
LINE
  5
239F0
  8
0
  6
CONTINUOUS
 10
2.297849019469139
 20
3.437598836301114
 30
0.0
 11
3.321765168359338
 21
4.461514985191313
 31
0.0
  0
LINE
  5
239F1
  8
0
  6
CONTINUOUS
 10
2.569246555539591
 20
3.03547716329138
 30
0.0
 11
3.593163397972743
 21
4.059394005724531
 31
0.0
  0
LINE
  5
239F2
  8
0
  6
CONTINUOUS
 10
2.840644091610043
 20
2.633355490281646
 30
0.0
 11
3.864561627586149
 21
3.657273026257751
 31
0.0
  0
LINE
  5
239F3
  8
0
  6
CONTINUOUS
 10
3.112041627680496
 20
2.231233817271911
 30
0.0
 11
4.135959857199554
 21
3.25515204679097
 31
0.0
  0
LINE
  5
239F4
  8
0
  6
CONTINUOUS
 10
3.383439163750948
 20
1.829112144262177
 30
0.0
 11
4.40735808681296
 21
2.853031067324189
 31
0.0
  0
LINE
  5
239F5
  8
0
  6
CONTINUOUS
 10
3.654836699821399
 20
1.426990471252442
 30
0.0
 11
4.678756316426365
 21
2.450910087857407
 31
0.0
  0
LINE
  5
239F6
  8
0
  6
CONTINUOUS
 10
3.926234235891853
 20
1.024868798242709
 30
0.0
 11
4.95015454603977
 21
2.048789108390626
 31
0.0
  0
LINE
  5
239F7
  8
0
  6
CONTINUOUS
 10
4.197631771962304
 20
0.6227471252329737
 30
0.0
 11
5.221552775653176
 21
1.646668128923846
 31
0.0
  0
LINE
  5
239F8
  8
0
  6
CONTINUOUS
 10
8.715877546767851
 20
7.835069736359266
 30
0.0
 11
9.435953450375058
 21
8.555145639966472
 31
0.0
  0
LINE
  5
239F9
  8
0
  6
CONTINUOUS
 10
8.170620868422267
 20
6.616293848933497
 30
0.0
 11
9.644120833743461
 21
8.08979381425469
 31
0.0
  0
LINE
  5
239FA
  8
0
  6
CONTINUOUS
 10
7.625364190076684
 20
5.397517961507727
 30
0.0
 11
9.852288217111864
 21
7.624441988542907
 31
0.0
  0
LINE
  5
239FB
  8
0
  6
CONTINUOUS
 10
7.080107511731101
 20
4.178742074081957
 30
0.0
 11
10.06045560048027
 21
7.159090162831124
 31
0.0
  0
LINE
  5
239FC
  8
0
  6
CONTINUOUS
 10
6.534850833385518
 20
2.959966186656187
 30
0.0
 11
10.26862298384867
 21
6.693738337119342
 31
0.0
  0
LINE
  5
239FD
  8
0
  6
CONTINUOUS
 10
4.469029308032756
 20
0.2206254522232385
 30
0.0
 11
5.492951005266582
 21
1.244547149457064
 31
0.0
  0
LINE
  5
239FE
  8
0
  6
CONTINUOUS
 10
5.989594155039935
 20
1.741190299230417
 30
0.0
 11
8.806950407233131
 21
4.558546551423613
 31
0.0
  0
LINE
  5
239FF
  8
0
  6
CONTINUOUS
 10
9.401251593263643
 20
5.152847737454126
 30
0.0
 11
10.47679036721708
 21
6.228386511407559
 31
0.0
  0
LINE
  5
23A00
  8
0
  6
CONTINUOUS
 10
4.921837203428691
 20
-0.0000858614610131
 30
0.0
 11
8.592923064886001
 21
3.670999999996297
 31
0.0
  0
LINE
  5
23A01
  8
0
  6
CONTINUOUS
 10
9.609390446785305
 20
4.6874673818956
 30
0.0
 11
10.68495775058548
 21
5.763034685695775
 31
0.0
  0
LINE
  5
23A02
  8
0
  6
CONTINUOUS
 10
5.595387755019432
 20
-0.0000545189504582
 30
0.0
 11
7.716137258923768
 21
2.120694984953879
 31
0.0
  0
LINE
  5
23A03
  8
0
  6
CONTINUOUS
 10
6.268938306610172
 20
-0.000023176439905
 30
0.0
 11
7.170485805526503
 21
0.9015243224764267
 31
0.0
  0
LINE
  5
23A04
  8
0
  6
CONTINUOUS
 10
7.963842273967511
 20
2.368399999997621
 30
0.0
 11
9.266442273966188
 21
3.670999999996297
 31
0.0
  0
LINE
  5
23A05
  8
0
  6
CONTINUOUS
 10
8.637361483047696
 20
2.368399999997621
 30
0.0
 11
9.939961483046375
 21
3.670999999996297
 31
0.0
  0
LINE
  5
23A06
  8
0
  6
CONTINUOUS
 10
9.817529300306965
 20
4.222087026337075
 30
0.0
 11
10.89312513395388
 21
5.297682859983993
 31
0.0
  0
LINE
  5
23A07
  8
0
  6
CONTINUOUS
 10
10.02566815382863
 20
3.756706670778549
 30
0.0
 11
11.10129251732229
 21
4.832331034272211
 31
0.0
  0
LINE
  5
23A08
  8
0
  6
CONTINUOUS
 10
9.310880692127883
 20
2.368399999997621
 30
0.0
 11
11.30945990069069
 21
4.366979208560428
 31
0.0
  0
LINE
  5
23A09
  8
0
  6
CONTINUOUS
 10
9.98439990120807
 20
2.36839999999762
 30
0.0
 11
11.5176272840591
 21
3.901627382848645
 31
0.0
  0
LINE
  5
23A0A
  8
0
  6
CONTINUOUS
 10
10.65037369446246
 20
2.36085458417182
 30
0.0
 11
11.7257946674275
 21
3.436275557136862
 31
0.0
  0
LINE
  5
23A0B
  8
0
  6
CONTINUOUS
 10
10.85847197087848
 20
1.895433651507656
 30
0.0
 11
11.9339620507959
 21
2.97092373142508
 31
0.0
  0
LINE
  5
23A0C
  8
0
  6
CONTINUOUS
 10
11.0665702472945
 20
1.430012718843491
 30
0.0
 11
12.14212943416431
 21
2.505571905713296
 31
0.0
  0
LINE
  5
23A0D
  8
0
  6
CONTINUOUS
 10
11.27466852371052
 20
0.9645917861793256
 30
0.0
 11
12.35029681753271
 21
2.040220080001513
 31
0.0
  0
LINE
  5
23A0E
  8
0
  6
CONTINUOUS
 10
11.48276680012654
 20
0.4991708535151611
 30
0.0
 11
12.55846420090111
 21
1.57486825428973
 31
0.0
  0
LINE
  5
23A0F
  8
0
  6
CONTINUOUS
 10
11.69086507654257
 20
0.0337499208509957
 30
0.0
 11
12.76663158426952
 21
1.109516428577947
 31
0.0
  0
LINE
  5
23A10
  8
0
  6
CONTINUOUS
 10
12.33057447873954
 20
-0.0000598860322123
 30
0.0
 11
12.97479896763792
 21
0.6441646028661663
 31
0.0
  0
LINE
  5
23A11
  8
0
  6
CONTINUOUS
 10
13.00413694809395
 20
-0.0000166257579952
 30
0.0
 11
13.18296635100632
 21
0.1788127771543824
 31
0.0
  0
LINE
  5
23A12
  8
0
  6
CONTINUOUS
 10
4.772852165289667
 20
-0.000092794222212
 30
0.0
 11
4.296495091028902
 21
0.4762642800385528
 31
0.0
  0
LINE
  5
23A13
  8
0
  6
CONTINUOUS
 10
5.446340034776103
 20
-0.0000614546284616
 30
0.0
 11
2.898195908335625
 21
2.548082671812017
 31
0.0
  0
LINE
  5
23A14
  8
0
  6
CONTINUOUS
 10
6.119827904262539
 20
-0.0000301150347113
 30
0.0
 11
1.499896725642348
 21
4.61990106358548
 31
0.0
  0
LINE
  5
23A15
  8
0
  6
CONTINUOUS
 10
6.775136745476159
 20
0.0181802528318542
 30
0.0
 11
5.699826040202669
 21
1.093490958105344
 31
0.0
  0
LINE
  5
23A16
  8
0
  6
CONTINUOUS
 10
6.983376846288489
 20
0.4834593610997118
 30
0.0
 11
5.908008617934405
 21
1.558827589453796
 31
0.0
  0
LINE
  5
23A17
  8
0
  6
CONTINUOUS
 10
5.377063484962296
 20
1.416253513345719
 30
0.0
 11
1.702276957014131
 21
5.091040041293883
 31
0.0
  0
LINE
  5
23A18
  8
0
  6
CONTINUOUS
 10
3.978745891735324
 20
3.488090315652877
 30
0.0
 11
2.000373521109399
 21
5.466462686278803
 31
0.0
  0
LINE
  5
23A19
  8
0
  6
CONTINUOUS
 10
7.191616947100819
 20
0.948738469367568
 30
0.0
 11
6.11619119566614
 21
2.024164220802247
 31
0.0
  0
LINE
  5
23A1A
  8
0
  6
CONTINUOUS
 10
7.399857047913149
 20
1.414017577635424
 30
0.0
 11
6.324373773397875
 21
2.489500852150698
 31
0.0
  0
LINE
  5
23A1B
  8
0
  6
CONTINUOUS
 10
7.608097148725479
 20
1.879296685903281
 30
0.0
 11
6.53255635112961
 21
2.95483748349915
 31
0.0
  0
LINE
  5
23A1C
  8
0
  6
CONTINUOUS
 10
7.816337249537808
 20
2.344575794171138
 30
0.0
 11
6.740738928861345
 21
3.420174114847601
 31
0.0
  0
LINE
  5
23A1D
  8
0
  6
CONTINUOUS
 10
3.310241080789734
 20
4.830114335678653
 30
0.0
 11
2.298470085204666
 21
5.84188533126372
 31
0.0
  0
LINE
  5
23A1E
  8
0
  6
CONTINUOUS
 10
3.60832983563551
 20
5.205544789913063
 30
0.0
 11
2.596566649299935
 21
6.217307976248638
 31
0.0
  0
LINE
  5
23A1F
  8
0
  6
CONTINUOUS
 10
3.906418590481286
 20
5.580975244147473
 30
0.0
 11
2.894663213395203
 21
6.592730621233557
 31
0.0
  0
LINE
  5
23A20
  8
0
  6
CONTINUOUS
 10
4.204507345327062
 20
5.956405698381884
 30
0.0
 11
3.192759777490472
 21
6.968153266218474
 31
0.0
  0
LINE
  5
23A21
  8
0
  6
CONTINUOUS
 10
8.466032252791512
 20
2.368399999997621
 30
0.0
 11
6.948921506593081
 21
3.885510746196053
 31
0.0
  0
LINE
  5
23A22
  8
0
  6
CONTINUOUS
 10
9.139551461871699
 20
2.36839999999762
 30
0.0
 11
7.157104084324816
 21
4.350847377544504
 31
0.0
  0
LINE
  5
23A23
  8
0
  6
CONTINUOUS
 10
4.502596100172839
 20
6.331836152616295
 30
0.0
 11
3.49085634158574
 21
7.343575911203393
 31
0.0
  0
LINE
  5
23A24
  8
0
  6
CONTINUOUS
 10
4.800684855018615
 20
6.707266606850705
 30
0.0
 11
3.788952905681008
 21
7.718998556188312
 31
0.0
  0
LINE
  5
23A25
  8
0
  6
CONTINUOUS
 10
12.18154012887317
 20
-0.0000694579236642
 30
0.0
 11
11.32140332908496
 21
0.8600673418645499
 31
0.0
  0
LINE
  5
23A26
  8
0
  6
CONTINUOUS
 10
12.85501608323566
 20
-0.0000262032059659
 30
0.0
 11
10.77672456435345
 21
2.078265315676246
 31
0.0
  0
LINE
  5
23A27
  8
0
  6
CONTINUOUS
 10
9.813070670951886
 20
2.36839999999762
 30
0.0
 11
8.51047067095321
 21
3.670999999996297
 31
0.0
  0
LINE
  5
23A28
  8
0
  6
CONTINUOUS
 10
10.48658988003207
 20
2.36839999999762
 30
0.0
 11
9.183989880033396
 21
3.670999999996297
 31
0.0
  0
LINE
  5
23A29
  8
0
  6
CONTINUOUS
 10
8.441048632286794
 20
3.740422038662712
 30
0.0
 11
7.365286662056551
 21
4.816184008892956
 31
0.0
  0
LINE
  5
23A2A
  8
0
  6
CONTINUOUS
 10
8.649187485808454
 20
4.205802394221237
 30
0.0
 11
7.573469239788285
 21
5.281520640241407
 31
0.0
  0
LINE
  5
23A2B
  8
0
  6
CONTINUOUS
 10
5.098773609864391
 20
7.082697061085115
 30
0.0
 11
4.087049469776277
 21
8.09442120117323
 31
0.0
  0
LINE
  5
23A2C
  8
0
  6
CONTINUOUS
 10
5.396862364710167
 20
7.458127515319526
 30
0.0
 11
4.385146033871544
 21
8.469843846158149
 31
0.0
  0
LINE
  5
23A2D
  8
0
  6
CONTINUOUS
 10
13.04801363231285
 20
0.4804954567970334
 30
0.0
 11
9.85750908911358
 21
3.670999999996297
 31
0.0
  0
LINE
  5
23A2E
  8
0
  6
CONTINUOUS
 10
8.857326339330116
 20
4.671182749779763
 30
0.0
 11
7.781651817520021
 21
5.746857271589858
 31
0.0
  0
LINE
  5
23A2F
  8
0
  6
CONTINUOUS
 10
5.694951119555943
 20
7.833557969553937
 30
0.0
 11
4.765409089118624
 21
8.763099999991255
 31
0.0
  0
LINE
  5
23A30
  8
0
  6
CONTINUOUS
 10
12.50286117236978
 20
1.699167125820288
 30
0.0
 11
9.68611877250287
 21
4.515909525687196
 31
0.0
  0
LINE
  5
23A31
  8
0
  6
CONTINUOUS
 10
9.065465192851777
 20
5.136563105338288
 30
0.0
 11
7.989834395251757
 21
6.21219390293831
 31
0.0
  0
LINE
  5
23A32
  8
0
  6
CONTINUOUS
 10
5.993039874401719
 20
8.208988423788346
 30
0.0
 11
5.43892829819881
 21
8.763099999991255
 31
0.0
  0
LINE
  5
23A33
  8
0
  6
CONTINUOUS
 10
11.95770871242671
 20
2.917838794843543
 30
0.0
 11
8.19801697298349
 21
6.677530534286761
 31
0.0
  0
LINE
  5
23A34
  8
0
  6
CONTINUOUS
 10
6.291128629247495
 20
8.584418878022756
 30
0.0
 11
6.112447507278997
 21
8.763099999991255
 31
0.0
  0
LINE
  5
23A35
  8
0
  6
CONTINUOUS
 10
11.41255625248364
 20
4.136510463866797
 30
0.0
 11
8.406199550715227
 21
7.142867165635211
 31
0.0
  0
LINE
  5
23A36
  8
0
  6
CONTINUOUS
 10
10.86740379254057
 20
5.355182132890051
 30
0.0
 11
8.614382128446962
 21
7.608203796983664
 31
0.0
  0
LINE
  5
23A37
  8
0
  6
CONTINUOUS
 10
10.3222513325975
 20
6.573853801913305
 30
0.0
 11
8.822564706178696
 21
8.073540428332114
 31
0.0
  0
LINE
  5
23A38
  8
0
  6
CONTINUOUS
 10
9.777098872654436
 20
7.792525470936562
 30
0.0
 11
9.030747283910433
 21
8.538877059680566
 31
0.0
  0
ENDBLK
  5
23B7A
  8
0
  0
BLOCK
  8
0
  2
*X200
 70
     1
 10
0.0
 20
0.0
 30
0.0
  3
*X200
  1

  0
LINE
  5
23A3A
  8
0
  6
CONTINUOUS
 10
10.67292308101235
 20
8.445076852443387
 30
0.0
 11
10.99094622856022
 21
8.763099999991255
 31
0.0
  0
LINE
  5
23A3B
  8
0
  6
CONTINUOUS
 10
10.87250383178748
 20
7.971138394138331
 30
0.0
 11
11.6644654376404
 21
8.763099999991255
 31
0.0
  0
LINE
  5
23A3C
  8
0
  6
CONTINUOUS
 10
11.07208458256261
 20
7.497199935833273
 30
0.0
 11
12.12126590876355
 21
8.546381262034211
 31
0.0
  0
LINE
  5
23A3D
  8
0
  6
CONTINUOUS
 10
11.27166533333774
 20
7.023261477528216
 30
0.0
 11
12.32085164573666
 21
8.072447789927136
 31
0.0
  0
LINE
  5
23A3E
  8
0
  6
CONTINUOUS
 10
11.47124608411287
 20
6.549323019223158
 30
0.0
 11
12.52043738270977
 21
7.59851431782006
 31
0.0
  0
LINE
  5
23A3F
  8
0
  6
CONTINUOUS
 10
11.670826834888
 20
6.075384560918101
 30
0.0
 11
12.72002311968288
 21
7.124580845712984
 31
0.0
  0
LINE
  5
23A40
  8
0
  6
CONTINUOUS
 10
11.87040758566313
 20
5.601446102613043
 30
0.0
 11
12.91960885665599
 21
6.650647373605907
 31
0.0
  0
LINE
  5
23A41
  8
0
  6
CONTINUOUS
 10
12.06998833643825
 20
5.127507644307986
 30
0.0
 11
13.1191945936291
 21
6.176713901498832
 31
0.0
  0
LINE
  5
23A42
  8
0
  6
CONTINUOUS
 10
12.26956908721338
 20
4.65356918600293
 30
0.0
 11
13.31878033060221
 21
5.702780429391757
 31
0.0
  0
LINE
  5
23A43
  8
0
  6
CONTINUOUS
 10
12.46914983798851
 20
4.179630727697873
 30
0.0
 11
13.51836606757532
 21
5.228846957284683
 31
0.0
  0
LINE
  5
23A44
  8
0
  6
CONTINUOUS
 10
12.66873058876364
 20
3.705692269392816
 30
0.0
 11
13.71795180454843
 21
4.754913485177607
 31
0.0
  0
LINE
  5
23A45
  8
0
  6
CONTINUOUS
 10
12.86831133953877
 20
3.231753811087759
 30
0.0
 11
13.91753754152154
 21
4.280980013070531
 31
0.0
  0
LINE
  5
23A46
  8
0
  6
CONTINUOUS
 10
13.0678920903139
 20
2.757815352782702
 30
0.0
 11
14.11712327849465
 21
3.807046540963456
 31
0.0
  0
LINE
  5
23A47
  8
0
  6
CONTINUOUS
 10
13.26747284108903
 20
2.283876894477644
 30
0.0
 11
14.31670901546777
 21
3.333113068856379
 31
0.0
  0
LINE
  5
23A48
  8
0
  6
CONTINUOUS
 10
16.36767838827179
 20
8.751678487061342
 30
0.0
 11
16.50332410898388
 21
8.887324207773432
 31
0.0
  0
LINE
  5
23A49
  8
0
  6
CONTINUOUS
 10
15.96190732182191
 20
7.67238821153127
 30
0.0
 11
16.68735328004734
 21
8.397834169756699
 31
0.0
  0
LINE
  5
23A4A
  8
0
  6
CONTINUOUS
 10
15.55613625537202
 20
6.593097936001196
 30
0.0
 11
16.87138245111079
 21
7.908344131739965
 31
0.0
  0
LINE
  5
23A4B
  8
0
  6
CONTINUOUS
 10
15.15036518892213
 20
5.513807660471122
 30
0.0
 11
17.05541162217424
 21
7.418854093723231
 31
0.0
  0
LINE
  5
23A4C
  8
0
  6
CONTINUOUS
 10
14.74459412247225
 20
4.434517384941048
 30
0.0
 11
17.2394407932377
 21
6.929364055706499
 31
0.0
  0
LINE
  5
23A4D
  8
0
  6
CONTINUOUS
 10
14.33882305602236
 20
3.355227109410975
 30
0.0
 11
17.42346996430115
 21
6.439874017689766
 31
0.0
  0
LINE
  5
23A4E
  8
0
  6
CONTINUOUS
 10
13.46705359186416
 20
1.809938436172586
 30
0.0
 11
16.0819338255367
 21
4.424818669845129
 31
0.0
  0
LINE
  5
23A4F
  8
0
  6
CONTINUOUS
 10
16.63283254238972
 20
4.975717386698149
 30
0.0
 11
17.60749913536461
 21
5.950383979673033
 31
0.0
  0
LINE
  5
23A50
  8
0
  6
CONTINUOUS
 10
13.66663434263929
 20
1.335999977867529
 30
0.0
 11
15.67604797733754
 21
3.345413612565779
 31
0.0
  0
LINE
  5
23A51
  8
0
  6
CONTINUOUS
 10
13.86621509341442
 20
0.8620615195624723
 30
0.0
 11
15.27016212913838
 21
2.26600855528643
 31
0.0
  0
LINE
  5
23A52
  8
0
  6
CONTINUOUS
 10
16.81682257348267
 20
4.486188208710908
 30
0.0
 11
17.79152830642806
 21
5.460893941656299
 31
0.0
  0
LINE
  5
23A53
  8
0
  6
CONTINUOUS
 10
17.00081260457561
 20
3.996659030723667
 30
0.0
 11
17.97555747749151
 21
4.971403903639565
 31
0.0
  0
LINE
  5
23A54
  8
0
  6
CONTINUOUS
 10
20.74362343514722
 20
8.412989070375462
 30
0.0
 11
21.09373436476302
 21
8.763099999991256
 31
0.0
  0
LINE
  5
23A55
  8
0
  6
CONTINUOUS
 10
20.25401257174777
 20
7.249858997895826
 30
0.0
 11
21.7672535738432
 21
8.763099999991255
 31
0.0
  0
LINE
  5
23A56
  8
0
  6
CONTINUOUS
 10
14.06579584418955
 20
0.3881230612574149
 30
0.0
 11
14.86427628093921
 21
1.186603498007082
 31
0.0
  0
LINE
  5
23A57
  8
0
  6
CONTINUOUS
 10
14.26537659496467
 20
-0.0858153970476412
 30
0.0
 11
14.45839043274005
 21
0.1071984407277329
 31
0.0
  0
LINE
  5
23A58
  8
0
  6
CONTINUOUS
 10
17.18480263566856
 20
3.507129852736426
 30
0.0
 11
18.15958664855496
 21
4.481913865622833
 31
0.0
  0
LINE
  5
23A59
  8
0
  6
CONTINUOUS
 10
17.3687926667615
 20
3.017600674749186
 30
0.0
 11
18.34361581961842
 21
3.9924238276061
 31
0.0
  0
LINE
  5
23A5A
  8
0
  6
CONTINUOUS
 10
19.76440170834832
 20
6.086728925416191
 30
0.0
 11
22.33924590259489
 21
8.661573119662755
 31
0.0
  0
LINE
  5
23A5B
  8
0
  6
CONTINUOUS
 10
19.27479084494887
 20
4.923598852936555
 30
0.0
 11
21.84929622842713
 21
7.498104236414807
 31
0.0
  0
LINE
  5
23A5C
  8
0
  6
CONTINUOUS
 10
17.55278269785445
 20
2.528071496761945
 30
0.0
 11
18.52764499068187
 21
3.502933789589366
 31
0.0
  0
LINE
  5
23A5D
  8
0
  6
CONTINUOUS
 10
18.78517998154942
 20
3.760468780456919
 30
0.0
 11
21.35934655425936
 21
6.33463535316686
 31
0.0
  0
LINE
  5
23A5E
  8
0
  6
CONTINUOUS
 10
17.73677272894739
 20
2.038542318774704
 30
0.0
 11
20.8693968800916
 21
5.171166469918914
 31
0.0
  0
LINE
  5
23A5F
  8
0
  6
CONTINUOUS
 10
17.92076276004034
 20
1.549013140787464
 30
0.0
 11
20.37944720592384
 21
4.007697586670968
 31
0.0
  0
LINE
  5
23A60
  8
0
  6
CONTINUOUS
 10
18.10475279113329
 20
1.059483962800223
 30
0.0
 11
19.88949753175608
 21
2.84422870342302
 31
0.0
  0
LINE
  5
23A61
  8
0
  6
CONTINUOUS
 10
18.28874282222623
 20
0.5699547848129822
 30
0.0
 11
19.39954785758832
 21
1.680759820175074
 31
0.0
  0
LINE
  5
23A62
  8
0
  6
CONTINUOUS
 10
18.47273285331918
 20
0.0804256068257416
 30
0.0
 11
18.90959818342056
 21
0.517290936927127
 31
0.0
  0
LINE
  5
23A63
  8
0
  6
CONTINUOUS
 10
14.3590401358224
 20
-0.1570118376323384
 30
0.0
 11
14.24903296539946
 21
-0.0470046672093929
 31
0.0
  0
LINE
  5
23A64
  8
0
  6
CONTINUOUS
 10
14.54309291258661
 20
0.332454594683643
 30
0.0
 11
13.75908329123172
 21
1.116464216038529
 31
0.0
  0
LINE
  5
23A65
  8
0
  6
CONTINUOUS
 10
14.72714568935081
 20
0.8219210269996244
 30
0.0
 11
13.26913361706399
 21
2.27993309928645
 31
0.0
  0
LINE
  5
23A66
  8
0
  6
CONTINUOUS
 10
14.91119846611502
 20
1.311387459315606
 30
0.0
 11
12.77918394289625
 21
3.443401982534371
 31
0.0
  0
LINE
  5
23A67
  8
0
  6
CONTINUOUS
 10
15.09525124287922
 20
1.800853891631587
 30
0.0
 11
12.28923426872852
 21
4.606870865782293
 31
0.0
  0
LINE
  5
23A68
  8
0
  6
CONTINUOUS
 10
15.27930401964343
 20
2.290320323947569
 30
0.0
 11
11.79928459456078
 21
5.770339749030213
 31
0.0
  0
LINE
  5
23A69
  8
0
  6
CONTINUOUS
 10
15.46335679640763
 20
2.77978675626355
 30
0.0
 11
14.48885470994921
 21
3.754288842721972
 31
0.0
  0
LINE
  5
23A6A
  8
0
  6
CONTINUOUS
 10
13.88507249233704
 20
4.358071060334137
 30
0.0
 11
11.30933492039305
 21
6.933808632278135
 31
0.0
  0
LINE
  5
23A6B
  8
0
  6
CONTINUOUS
 10
18.75840522805855
 20
0.1582575336928151
 30
0.0
 11
18.25383727664818
 21
0.6628254851031863
 31
0.0
  0
LINE
  5
23A6C
  8
0
  6
CONTINUOUS
 10
15.64740957317184
 20
3.269253188579531
 30
0.0
 11
14.67288388101266
 21
4.243778880738705
 31
0.0
  0
LINE
  5
23A6D
  8
0
  6
CONTINUOUS
 10
13.39509276772158
 20
5.521569994029786
 30
0.0
 11
10.81938524622531
 21
8.097277515526056
 31
0.0
  0
LINE
  5
23A6E
  8
0
  6
CONTINUOUS
 10
18.95798597883369
 20
0.6321959919978686
 30
0.0
 11
17.84825644852853
 21
1.741925522303024
 31
0.0
  0
LINE
  5
23A6F
  8
0
  6
CONTINUOUS
 10
19.15756672960882
 20
1.106134450302922
 30
0.0
 11
17.44267562040888
 21
2.821025559502861
 31
0.0
  0
LINE
  5
23A70
  8
0
  6
CONTINUOUS
 10
15.83146234993604
 20
3.758719620895513
 30
0.0
 11
14.85691305207612
 21
4.733268918755439
 31
0.0
  0
LINE
  5
23A71
  8
0
  6
CONTINUOUS
 10
16.01551512670025
 20
4.248186053211494
 30
0.0
 11
15.04094222313957
 21
5.222758956772172
 31
0.0
  0
LINE
  5
23A72
  8
0
  6
CONTINUOUS
 10
12.90511304310612
 20
6.685068927725435
 30
0.0
 11
10.8270819708403
 21
8.763099999991255
 31
0.0
  0
LINE
  5
23A73
  8
0
  6
CONTINUOUS
 10
12.41513331849066
 20
7.848567861421083
 30
0.0
 11
11.50060117992049
 21
8.763099999991255
 31
0.0
  0
LINE
  5
23A74
  8
0
  6
CONTINUOUS
 10
19.35714748038395
 20
1.580072908607975
 30
0.0
 11
17.03709479228923
 21
3.900125596702697
 31
0.0
  0
LINE
  5
23A75
  8
0
  6
CONTINUOUS
 10
19.55672823115909
 20
2.054011366913028
 30
0.0
 11
16.63151396416958
 21
4.979225633902534
 31
0.0
  0
LINE
  5
23A76
  8
0
  6
CONTINUOUS
 10
16.19956790346445
 20
4.737652485527476
 30
0.0
 11
15.22497139420302
 21
5.712248994788904
 31
0.0
  0
LINE
  5
23A77
  8
0
  6
CONTINUOUS
 10
16.38362068022866
 20
5.227118917843457
 30
0.0
 11
15.40900056526648
 21
6.201739032805637
 31
0.0
  0
LINE
  5
23A78
  8
0
  6
CONTINUOUS
 10
19.75630898193422
 20
2.527949825218081
 30
0.0
 11
18.70774536448286
 21
3.576513442669441
 31
0.0
  0
LINE
  5
23A79
  8
0
  6
CONTINUOUS
 10
19.95588973270936
 20
3.001888283523134
 30
0.0
 11
18.90726987211446
 21
4.050508144118028
 31
0.0
  0
LINE
  5
23A7A
  8
0
  6
CONTINUOUS
 10
20.15547048348449
 20
3.475826741828186
 30
0.0
 11
19.10679437974606
 21
4.524502845566614
 31
0.0
  0
LINE
  5
23A7B
  8
0
  6
CONTINUOUS
 10
20.35505123425962
 20
3.94976520013324
 30
0.0
 11
19.30631888737766
 21
4.998497547015201
 31
0.0
  0
LINE
  5
23A7C
  8
0
  6
CONTINUOUS
 10
20.55463198503475
 20
4.423703658438292
 30
0.0
 11
19.50584339500926
 21
5.472492248463787
 31
0.0
  0
LINE
  5
23A7D
  8
0
  6
CONTINUOUS
 10
18.37481191085755
 20
3.909446896294752
 30
0.0
 11
15.59302973632993
 21
6.691229070822371
 31
0.0
  0
LINE
  5
23A7E
  8
0
  6
CONTINUOUS
 10
17.96904084440766
 20
4.988737171824825
 30
0.0
 11
15.77705890739338
 21
7.180719108839104
 31
0.0
  0
LINE
  5
23A7F
  8
0
  6
CONTINUOUS
 10
17.56326977795777
 20
6.068027447354899
 30
0.0
 11
15.96108807845684
 21
7.670209146855838
 31
0.0
  0
LINE
  5
23A80
  8
0
  6
CONTINUOUS
 10
17.15749871150789
 20
7.147317722884972
 30
0.0
 11
16.14511724952029
 21
8.15969918487257
 31
0.0
  0
LINE
  5
23A81
  8
0
  6
CONTINUOUS
 10
16.751727645058
 20
8.226607998415046
 30
0.0
 11
16.32914642058374
 21
8.649189222889303
 31
0.0
  0
LINE
  5
23A82
  8
0
  6
CONTINUOUS
 10
20.75421273580989
 20
4.897642116743345
 30
0.0
 11
19.70536790264086
 21
5.946486949912374
 31
0.0
  0
LINE
  5
23A83
  8
0
  6
CONTINUOUS
 10
20.95379348658502
 20
5.371580575048398
 30
0.0
 11
19.90489241027246
 21
6.42048165136096
 31
0.0
  0
LINE
  5
23A84
  8
0
  6
CONTINUOUS
 10
21.15337423736015
 20
5.845519033353452
 30
0.0
 11
20.10441691790406
 21
6.894476352809547
 31
0.0
  0
LINE
  5
23A85
  8
0
  6
CONTINUOUS
 10
21.35295498813529
 20
6.319457491658505
 30
0.0
 11
20.30394142553566
 21
7.368471054258134
 31
0.0
  0
LINE
  5
23A86
  8
0
  6
CONTINUOUS
 10
21.55253573891042
 20
6.793395949963558
 30
0.0
 11
20.50346593316726
 21
7.842465755706721
 31
0.0
  0
LINE
  5
23A87
  8
0
  6
CONTINUOUS
 10
21.75211648968556
 20
7.267334408268612
 30
0.0
 11
20.70299044079886
 21
8.316460457155308
 31
0.0
  0
LINE
  5
23A88
  8
0
  6
CONTINUOUS
 10
21.95169724046069
 20
7.741272866573663
 30
0.0
 11
20.9298701070431
 21
8.763099999991256
 31
0.0
  0
LINE
  5
23A89
  8
0
  6
CONTINUOUS
 10
22.15127799123582
 20
8.215211324878716
 30
0.0
 11
21.60338931612328
 21
8.763099999991256
 31
0.0
  0
LINE
  5
23A8A
  8
0
  6
CONTINUOUS
 10
22.35085874201096
 20
8.689149783183769
 30
0.0
 11
22.27690852520347
 21
8.763099999991255
 31
0.0
  0
ENDBLK
  5
23B7C
  8
0
  0
BLOCK
  8
0
  2
*X201
 70
     1
 10
0.0
 20
0.0
 30
0.0
  3
*X201
  1

  0
LINE
  5
23A8C
  8
0
  6
CONTINUOUS
 10
23.19462913593892
 20
8.169917934846424
 30
0.0
 11
23.70775465517246
 21
8.683043454079957
 31
0.0
  0
LINE
  5
23A8D
  8
0
  6
CONTINUOUS
 10
22.64923161835078
 20
6.951001208178088
 30
0.0
 11
23.9159364069932
 21
8.217705996820516
 31
0.0
  0
LINE
  5
23A8E
  8
0
  6
CONTINUOUS
 10
22.10383410076263
 20
5.732084481509751
 30
0.0
 11
24.12411815881395
 21
7.752368539561078
 31
0.0
  0
LINE
  5
23A8F
  8
0
  6
CONTINUOUS
 10
21.55843658317447
 20
4.513167754841414
 30
0.0
 11
24.3322999106347
 21
7.287031082301639
 31
0.0
  0
LINE
  5
23A90
  8
0
  6
CONTINUOUS
 10
21.01303906558632
 20
3.294251028173077
 30
0.0
 11
24.54048166245544
 21
6.821693625042199
 31
0.0
  0
LINE
  5
23A91
  8
0
  6
CONTINUOUS
 10
20.46764154799817
 20
2.075334301504738
 30
0.0
 11
23.28571549467848
 21
4.89340824818505
 31
0.0
  0
LINE
  5
23A92
  8
0
  6
CONTINUOUS
 10
19.92224403041002
 20
0.8564175748364002
 30
0.0
 11
22.74075865492779
 21
3.674932199354171
 31
0.0
  0
LINE
  5
23A93
  8
0
  6
CONTINUOUS
 10
23.67305085490148
 20
5.280743608408048
 30
0.0
 11
24.74866341427619
 21
6.356356167782759
 31
0.0
  0
LINE
  5
23A94
  8
0
  6
CONTINUOUS
 10
23.88118970842314
 20
4.815363252849522
 30
0.0
 11
24.95684516609694
 21
5.89101871052332
 31
0.0
  0
LINE
  5
23A95
  8
0
  6
CONTINUOUS
 10
19.73925852647308
 20
-0.0000871381807288
 30
0.0
 11
23.4103456646501
 21
3.670999999996297
 31
0.0
  0
LINE
  5
23A96
  8
0
  6
CONTINUOUS
 10
24.0893285619448
 20
4.349982897290997
 30
0.0
 11
25.16502691791769
 21
5.42568125326388
 31
0.0
  0
LINE
  5
23A97
  8
0
  6
CONTINUOUS
 10
20.41282099582748
 20
-0.0000438779065108
 30
0.0
 11
21.64944178675636
 21
1.236576913022366
 31
0.0
  0
LINE
  5
23A98
  8
0
  6
CONTINUOUS
 10
22.78126487373161
 20
2.36839999999762
 30
0.0
 11
24.08386487373029
 21
3.670999999996297
 31
0.0
  0
LINE
  5
23A99
  8
0
  6
CONTINUOUS
 10
24.29746741546646
 20
3.884602541732471
 30
0.0
 11
25.37320866973843
 21
4.960343796004441
 31
0.0
  0
LINE
  5
23A9A
  8
0
  6
CONTINUOUS
 10
21.08638346518189
 20
-0.0000006176322938
 30
0.0
 11
21.10379033335899
 21
0.0174062505448083
 31
0.0
  0
LINE
  5
23A9B
  8
0
  6
CONTINUOUS
 10
23.4547840828118
 20
2.36839999999762
 30
0.0
 11
25.58139042155918
 21
4.495006338745002
 31
0.0
  0
LINE
  5
23A9C
  8
0
  6
CONTINUOUS
 10
29.30199999996933
 20
8.215615917155148
 30
0.0
 11
29.84948408280543
 21
8.763099999991255
 31
0.0
  0
LINE
  5
23A9D
  8
0
  6
CONTINUOUS
 10
24.12830329189199
 20
2.36839999999762
 30
0.0
 11
25.78957217337993
 21
4.029668881485562
 31
0.0
  0
LINE
  5
23A9E
  8
0
  6
CONTINUOUS
 10
29.30199999996933
 20
7.54209670807496
 30
0.0
 11
30.52300329188562
 21
8.763099999991255
 31
0.0
  0
LINE
  5
23A9F
  8
0
  6
CONTINUOUS
 10
24.80182250097217
 20
2.36839999999762
 30
0.0
 11
25.99775392520067
 21
3.564331424226122
 31
0.0
  0
LINE
  5
23AA0
  8
0
  6
CONTINUOUS
 10
29.30199999996933
 20
6.868577498994774
 30
0.0
 11
30.74199999996926
 21
8.308577498994712
 31
0.0
  0
LINE
  5
23AA1
  8
0
  6
CONTINUOUS
 10
25.13028238392013
 20
2.023340673865392
 30
0.0
 11
26.20593567702142
 21
3.098993966966683
 31
0.0
  0
LINE
  5
23AA2
  8
0
  6
CONTINUOUS
 10
25.33838066033617
 20
1.557919741201244
 30
0.0
 11
26.41411742884217
 21
2.633656509707244
 31
0.0
  0
LINE
  5
23AA3
  8
0
  6
CONTINUOUS
 10
25.54647893675221
 20
1.092498808537098
 30
0.0
 11
26.62229918066291
 21
2.168319052447804
 31
0.0
  0
LINE
  5
23AA4
  8
0
  6
CONTINUOUS
 10
25.75457721316825
 20
0.62707787587295
 30
0.0
 11
26.83048093248366
 21
1.702981595188365
 31
0.0
  0
LINE
  5
23AA5
  8
0
  6
CONTINUOUS
 10
29.30199999996933
 20
6.195058289914587
 30
0.0
 11
30.74199999996926
 21
7.635058289914522
 31
0.0
  0
LINE
  5
23AA6
  8
0
  6
CONTINUOUS
 10
29.30199999996933
 20
5.521539080834401
 30
0.0
 11
30.74199999996926
 21
6.961539080834331
 31
0.0
  0
LINE
  5
23AA7
  8
0
  6
CONTINUOUS
 10
29.30199999996933
 20
4.848019871754214
 30
0.0
 11
30.74199999996925
 21
6.288019871754143
 31
0.0
  0
LINE
  5
23AA8
  8
0
  6
CONTINUOUS
 10
29.30199999996933
 20
4.174500662674028
 30
0.0
 11
30.74199999996925
 21
5.614500662673953
 31
0.0
  0
LINE
  5
23AA9
  8
0
  6
CONTINUOUS
 10
25.96267548958429
 20
0.1616569432088024
 30
0.0
 11
27.18411854636669
 21
1.383099999991207
 31
0.0
  0
LINE
  5
23AAA
  8
0
  6
CONTINUOUS
 10
29.30199999996933
 20
3.500981453593841
 30
0.0
 11
30.74199999996925
 21
4.940981453593762
 31
0.0
  0
LINE
  5
23AAB
  8
0
  6
CONTINUOUS
 10
26.50763775544691
 20
0.0330999999912356
 30
0.0
 11
27.85763775544689
 21
1.383099999991223
 31
0.0
  0
LINE
  5
23AAC
  8
0
  6
CONTINUOUS
 10
29.30199999996933
 20
2.827462244513656
 30
0.0
 11
30.74199999996925
 21
4.267462244513574
 31
0.0
  0
LINE
  5
23AAD
  8
0
  6
CONTINUOUS
 10
27.18115696452709
 20
0.0330999999912356
 30
0.0
 11
28.6224847300034
 21
1.474427765467545
 31
0.0
  0
LINE
  5
23AAE
  8
0
  6
CONTINUOUS
 10
29.21067223449293
 20
2.062615269957069
 30
0.0
 11
30.74199999996924
 21
3.593943035433383
 31
0.0
  0
LINE
  5
23AAF
  8
0
  6
CONTINUOUS
 10
27.85467617360728
 20
0.0330999999912356
 30
0.0
 11
30.74199999996924
 21
2.920423826353195
 31
0.0
  0
LINE
  5
23AB0
  8
0
  6
CONTINUOUS
 10
28.57438609860264
 20
0.0792907159064073
 30
0.0
 11
30.69580928405405
 21
2.200713901357819
 31
0.0
  0
LINE
  5
23AB1
  8
0
  6
CONTINUOUS
 10
29.49443044814297
 20
0.3258158563665496
 30
0.0
 11
30.44928414359389
 21
1.280669551817477
 31
0.0
  0
LINE
  5
23AB2
  8
0
  6
CONTINUOUS
 10
19.59027867740337
 20
-0.0000967065718083
 30
0.0
 11
19.55485265190471
 21
0.035329318926844
 31
0.0
  0
LINE
  5
23AB3
  8
0
  6
CONTINUOUS
 10
20.26375463176586
 20
-0.0000534518541091
 30
0.0
 11
19.76305575737534
 21
0.5006454225364014
 31
0.0
  0
LINE
  5
23AB4
  8
0
  6
CONTINUOUS
 10
20.93723058612834
 20
-0.0000101971364099
 30
0.0
 11
19.97125886284597
 21
0.965961526145958
 31
0.0
  0
LINE
  5
23AB5
  8
0
  6
CONTINUOUS
 10
21.25514828313686
 20
0.355591314935257
 30
0.0
 11
20.1794619683166
 21
1.431277629755512
 31
0.0
  0
LINE
  5
23AB6
  8
0
  6
CONTINUOUS
 10
21.46338838394921
 20
0.8208704232030986
 30
0.0
 11
20.38766507378723
 21
1.896593733365069
 31
0.0
  0
LINE
  5
23AB7
  8
0
  6
CONTINUOUS
 10
21.67162848476155
 20
1.28614953147094
 30
0.0
 11
20.59586817925786
 21
2.361909836974626
 31
0.0
  0
LINE
  5
23AB8
  8
0
  6
CONTINUOUS
 10
21.8798685855739
 20
1.751428639738782
 30
0.0
 11
20.80407128472849
 21
2.827225940584183
 31
0.0
  0
LINE
  5
23AB9
  8
0
  6
CONTINUOUS
 10
22.08810868638624
 20
2.216707748006623
 30
0.0
 11
21.01227439019912
 21
3.292542044193739
 31
0.0
  0
LINE
  5
23ABA
  8
0
  6
CONTINUOUS
 10
22.60993564347543
 20
2.36839999999762
 30
0.0
 11
21.22047749566975
 21
3.757858147803296
 31
0.0
  0
LINE
  5
23ABB
  8
0
  6
CONTINUOUS
 10
23.28345485255561
 20
2.36839999999762
 30
0.0
 11
21.42868060114038
 21
4.223174251412853
 31
0.0
  0
LINE
  5
23ABC
  8
0
  6
CONTINUOUS
 10
26.29227406164219
 20
0.0330999999912356
 30
0.0
 11
25.80009199592872
 21
0.5252820657046957
 31
0.0
  0
LINE
  5
23ABD
  8
0
  6
CONTINUOUS
 10
23.9569740616358
 20
2.36839999999762
 30
0.0
 11
21.63688370661101
 21
4.688490355022409
 31
0.0
  0
LINE
  5
23ABE
  8
0
  6
CONTINUOUS
 10
26.96579327072237
 20
0.0330999999912356
 30
0.0
 11
25.2554132311971
 21
1.743480039516508
 31
0.0
  0
LINE
  5
23ABF
  8
0
  6
CONTINUOUS
 10
24.63049327071599
 20
2.36839999999762
 30
0.0
 11
23.32789327071731
 21
3.670999999996297
 31
0.0
  0
LINE
  5
23AC0
  8
0
  6
CONTINUOUS
 10
22.92098674744635
 20
4.077906523267254
 30
0.0
 11
21.84508681208164
 21
5.153806458631966
 31
0.0
  0
LINE
  5
23AC1
  8
0
  6
CONTINUOUS
 10
27.63931247980256
 20
0.0330999999912356
 30
0.0
 11
24.0014124797975
 21
3.670999999996297
 31
0.0
  0
LINE
  5
23AC2
  8
0
  6
CONTINUOUS
 10
23.129125600968
 20
4.5432868788258
 30
0.0
 11
22.05328991755227
 21
5.619122562241522
 31
0.0
  0
LINE
  5
23AC3
  8
0
  6
CONTINUOUS
 10
28.31283168888275
 20
0.0330999999912356
 30
0.0
 11
24.16488385994816
 21
4.181047828925828
 31
0.0
  0
LINE
  5
23AC4
  8
0
  6
CONTINUOUS
 10
23.33726445448964
 20
5.008667234384345
 30
0.0
 11
22.2614930230229
 21
6.084438665851079
 31
0.0
  0
LINE
  5
23AC5
  8
0
  6
CONTINUOUS
 10
28.86286302309502
 20
0.1565878748591523
 30
0.0
 11
27.63635089796295
 21
1.383099999991217
 31
0.0
  0
LINE
  5
23AC6
  8
0
  6
CONTINUOUS
 10
26.43704649509776
 20
2.582404402856405
 30
0.0
 11
23.61992702019732
 21
5.399523877756844
 31
0.0
  0
LINE
  5
23AC7
  8
0
  6
CONTINUOUS
 10
23.54540330801128
 20
5.47404758994289
 30
0.0
 11
22.46969612849353
 21
6.549754769460635
 31
0.0
  0
LINE
  5
23AC8
  8
0
  6
CONTINUOUS
 10
29.39405087596853
 20
0.2989192310658284
 30
0.0
 11
28.30987010704312
 21
1.383099999991234
 31
0.0
  0
LINE
  5
23AC9
  8
0
  6
CONTINUOUS
 10
25.89179548232307
 20
3.801174624711282
 30
0.0
 11
22.67789923396416
 21
7.015070873070191
 31
0.0
  0
LINE
  5
23ACA
  8
0
  6
CONTINUOUS
 10
29.79594438047407
 20
0.570544935640473
 30
0.0
 11
28.81310432793121
 21
1.553384988183336
 31
0.0
  0
LINE
  5
23ACB
  8
0
  6
CONTINUOUS
 10
25.34654446954838
 20
5.01994484656616
 30
0.0
 11
22.88610233943479
 21
7.480386976679748
 31
0.0
  0
LINE
  5
23ACC
  8
0
  6
CONTINUOUS
 10
30.13270398501416
 20
0.9073045401805646
 30
0.0
 11
29.14234640337737
 21
1.897662121817355
 31
0.0
  0
LINE
  5
23ACD
  8
0
  6
CONTINUOUS
 10
24.80129345677369
 20
6.238715068421037
 30
0.0
 11
23.09430544490542
 21
7.945703080289305
 31
0.0
  0
LINE
  5
23ACE
  8
0
  6
CONTINUOUS
 10
30.44581292956759
 20
1.26771480470732
 30
0.0
 11
29.30199999996933
 21
2.411527734305588
 31
0.0
  0
LINE
  5
23ACF
  8
0
  6
CONTINUOUS
 10
30.58814428577427
 20
1.798902657580827
 30
0.0
 11
29.30199999996933
 21
3.085046943385775
 31
0.0
  0
LINE
  5
23AD0
  8
0
  6
CONTINUOUS
 10
24.256042443999
 20
7.457485290275915
 30
0.0
 11
23.30250855037605
 21
8.411019183898862
 31
0.0
  0
LINE
  5
23AD1
  8
0
  6
CONTINUOUS
 10
23.71079143122431
 20
8.676255512130794
 30
0.0
 11
23.51071165584668
 21
8.876335287508418
 31
0.0
  0
LINE
  5
23AD2
  8
0
  6
CONTINUOUS
 10
30.73047564198095
 20
2.330090510454333
 30
0.0
 11
29.30199999996933
 21
3.758566152465961
 31
0.0
  0
LINE
  5
23AD3
  8
0
  6
CONTINUOUS
 10
30.74199999996924
 20
2.992085361546236
 30
0.0
 11
29.30199999996933
 21
4.432085361546148
 31
0.0
  0
LINE
  5
23AD4
  8
0
  6
CONTINUOUS
 10
30.74199999996924
 20
3.665604570626419
 30
0.0
 11
29.30199999996933
 21
5.105604570626333
 31
0.0
  0
LINE
  5
23AD5
  8
0
  6
CONTINUOUS
 10
30.74199999996925
 20
4.339123779706602
 30
0.0
 11
29.30199999996933
 21
5.77912377970652
 31
0.0
  0
LINE
  5
23AD6
  8
0
  6
CONTINUOUS
 10
30.74199999996925
 20
5.012642988786785
 30
0.0
 11
29.30199999996933
 21
6.452642988786707
 31
0.0
  0
LINE
  5
23AD7
  8
0
  6
CONTINUOUS
 10
30.74199999996925
 20
5.68616219786697
 30
0.0
 11
29.30199999996933
 21
7.126162197866894
 31
0.0
  0
LINE
  5
23AD8
  8
0
  6
CONTINUOUS
 10
30.74199999996925
 20
6.359681406947153
 30
0.0
 11
29.30199999996933
 21
7.799681406947081
 31
0.0
  0
LINE
  5
23AD9
  8
0
  6
CONTINUOUS
 10
30.74199999996926
 20
7.033200616027337
 30
0.0
 11
29.30199999996933
 21
8.473200616027269
 31
0.0
  0
LINE
  5
23ADA
  8
0
  6
CONTINUOUS
 10
30.74199999996926
 20
7.706719825107518
 30
0.0
 11
29.68561982508552
 21
8.763099999991255
 31
0.0
  0
LINE
  5
23ADB
  8
0
  6
CONTINUOUS
 10
30.74199999996926
 20
8.380239034187703
 30
0.0
 11
30.35913903416571
 21
8.763099999991255
 31
0.0
  0
ENDBLK
  5
23B7E
  8
0
  0
BLOCK
  8
0
  2
*X202
 70
     1
 10
0.0
 20
0.0
 30
0.0
  3
*X202
  1

  0
LINE
  5
23ADD
  8
0
  6
CONTINUOUS
 10
31.64199999996833
 20
8.5350582899136
 30
0.0
 11
31.87004171004599
 21
8.763099999991255
 31
0.0
  0
LINE
  5
23ADE
  8
0
  6
CONTINUOUS
 10
31.64199999996833
 20
7.861539080833413
 30
0.0
 11
32.54356091912618
 21
8.763099999991255
 31
0.0
  0
LINE
  5
23ADF
  8
0
  6
CONTINUOUS
 10
31.64199999996833
 20
7.188019871753227
 30
0.0
 11
33.08199999996839
 21
8.628019871753281
 31
0.0
  0
LINE
  5
23AE0
  8
0
  6
CONTINUOUS
 10
31.64199999996833
 20
6.514500662673041
 30
0.0
 11
33.08199999996839
 21
7.954500662673095
 31
0.0
  0
LINE
  5
23AE1
  8
0
  6
CONTINUOUS
 10
31.64199999996833
 20
5.840981453592855
 30
0.0
 11
33.08199999996839
 21
7.28098145359291
 31
0.0
  0
LINE
  5
23AE2
  8
0
  6
CONTINUOUS
 10
31.64199999996833
 20
5.167462244512668
 30
0.0
 11
33.08199999996839
 21
6.607462244512723
 31
0.0
  0
LINE
  5
23AE3
  8
0
  6
CONTINUOUS
 10
31.64199999996833
 20
4.493943035432482
 30
0.0
 11
33.08199999996839
 21
5.933943035432536
 31
0.0
  0
LINE
  5
23AE4
  8
0
  6
CONTINUOUS
 10
31.64199999996833
 20
3.820423826352294
 30
0.0
 11
33.08199999996839
 21
5.260423826352349
 31
0.0
  0
LINE
  5
23AE5
  8
0
  6
CONTINUOUS
 10
31.64199999996833
 20
3.146904617272108
 30
0.0
 11
33.08199999996839
 21
4.586904617272163
 31
0.0
  0
LINE
  5
23AE6
  8
0
  6
CONTINUOUS
 10
36.23199999996837
 20
8.410423826352327
 30
0.0
 11
36.58467617360729
 21
8.763099999991255
 31
0.0
  0
LINE
  5
23AE7
  8
0
  6
CONTINUOUS
 10
36.23199999996837
 20
7.73690461727214
 30
0.0
 11
37.25819538268748
 21
8.763099999991255
 31
0.0
  0
LINE
  5
23AE8
  8
0
  6
CONTINUOUS
 10
31.64323424774199
 20
2.474619655965573
 30
0.0
 11
33.08199999996839
 21
3.913385408191976
 31
0.0
  0
LINE
  5
23AE9
  8
0
  6
CONTINUOUS
 10
31.74419223861915
 20
1.902058437762552
 30
0.0
 11
33.08199999996839
 21
3.239866199111789
 31
0.0
  0
LINE
  5
23AEA
  8
0
  6
CONTINUOUS
 10
36.23199999996837
 20
7.063385408191953
 30
0.0
 11
37.67199999996831
 21
8.503385408191894
 31
0.0
  0
LINE
  5
23AEB
  8
0
  6
CONTINUOUS
 10
36.23199999996837
 20
6.389866199111767
 30
0.0
 11
37.67199999996831
 21
7.829866199111708
 31
0.0
  0
LINE
  5
23AEC
  8
0
  6
CONTINUOUS
 10
31.91111233414976
 20
1.39545932421297
 30
0.0
 11
33.08199999996839
 21
2.566346990031603
 31
0.0
  0
LINE
  5
23AED
  8
0
  6
CONTINUOUS
 10
36.23199999996837
 20
5.71634699003158
 30
0.0
 11
37.67199999996831
 21
7.156346990031522
 31
0.0
  0
LINE
  5
23AEE
  8
0
  6
CONTINUOUS
 10
32.1576374746103
 20
0.9684652555933289
 30
0.0
 11
33.20642631446081
 21
2.017254095443838
 31
0.0
  0
LINE
  5
23AEF
  8
0
  6
CONTINUOUS
 10
36.23199999996837
 20
5.042827780951393
 30
0.0
 11
37.67199999996831
 21
6.482827780951334
 31
0.0
  0
LINE
  5
23AF0
  8
0
  6
CONTINUOUS
 10
32.47774023927325
 20
0.6150488111760914
 30
0.0
 11
33.49903056428258
 21
1.636339136185419
 31
0.0
  0
LINE
  5
23AF1
  8
0
  6
CONTINUOUS
 10
36.23199999996837
 20
4.369308571871207
 30
0.0
 11
37.67199999996831
 21
5.809308571871148
 31
0.0
  0
LINE
  5
23AF2
  8
0
  6
CONTINUOUS
 10
32.84396249154443
 20
0.3077518543670883
 30
0.0
 11
33.93324121824649
 21
1.397030581069146
 31
0.0
  0
LINE
  5
23AF3
  8
0
  6
CONTINUOUS
 10
36.23199999996837
 20
3.695789362791021
 30
0.0
 11
37.67199999996831
 21
5.135789362790963
 31
0.0
  0
LINE
  5
23AF4
  8
0
  6
CONTINUOUS
 10
33.30186329036846
 20
0.0921334441109263
 30
0.0
 11
34.46442907112041
 21
1.254699224862875
 31
0.0
  0
LINE
  5
23AF5
  8
0
  6
CONTINUOUS
 10
36.23199999996837
 20
3.022270153710834
 30
0.0
 11
37.67199999996831
 21
4.462270153710776
 31
0.0
  0
LINE
  5
23AF6
  8
0
  6
CONTINUOUS
 10
33.79565647746294
 20
-0.0875925778747773
 30
0.0
 11
35.24350171668284
 21
1.360252661345124
 31
0.0
  0
LINE
  5
23AF7
  8
0
  6
CONTINUOUS
 10
36.18336676155003
 20
2.300117706212308
 30
0.0
 11
37.67199999996831
 21
3.788750944630589
 31
0.0
  0
LINE
  5
23AF8
  8
0
  6
CONTINUOUS
 10
34.37182574910968
 20
-0.184942515308224
 30
0.0
 11
37.67199999996831
 21
3.115231735550402
 31
0.0
  0
LINE
  5
23AF9
  8
0
  6
CONTINUOUS
 10
35.0453449581892
 20
-0.1849425153088955
 30
0.0
 11
37.66345697088136
 21
2.433169497383271
 31
0.0
  0
LINE
  5
23AFA
  8
0
  6
CONTINUOUS
 10
35.98667157609191
 20
0.0828648935136398
 30
0.0
 11
37.51927401744566
 21
1.615467334867382
 31
0.0
  0
LINE
  5
23AFB
  8
0
  6
CONTINUOUS
 10
32.27747408544484
 20
0.7830920669904482
 30
0.0
 11
32.24716210471949
 21
0.8134040477157893
 31
0.0
  0
LINE
  5
23AFC
  8
0
  6
CONTINUOUS
 10
33.83656881101902
 20
-0.1024834495035494
 30
0.0
 11
31.72538911593758
 21
2.008696245577891
 31
0.0
  0
LINE
  5
23AFD
  8
0
  6
CONTINUOUS
 10
34.5925470859041
 20
-0.1849425153084434
 30
0.0
 11
31.64199999996833
 21
2.765604570627322
 31
0.0
  0
LINE
  5
23AFE
  8
0
  6
CONTINUOUS
 10
35.26201302775981
 20
-0.1808892480839752
 30
0.0
 11
31.64199999996833
 21
3.439123779707508
 31
0.0
  0
LINE
  5
23AFF
  8
0
  6
CONTINUOUS
 10
35.75580621485512
 20
-0.0011632260990879
 30
0.0
 11
34.51294304365551
 21
1.241699945100514
 31
0.0
  0
LINE
  5
23B00
  8
0
  6
CONTINUOUS
 10
33.08199999996839
 20
2.672642988787641
 30
0.0
 11
31.64199999996833
 21
4.112642988787695
 31
0.0
  0
LINE
  5
23B01
  8
0
  6
CONTINUOUS
 10
36.24959940195042
 20
0.1785627958857976
 30
0.0
 11
35.10501653033629
 21
1.323145667499924
 31
0.0
  0
LINE
  5
23B02
  8
0
  6
CONTINUOUS
 10
33.08199999996839
 20
3.346162197867827
 30
0.0
 11
31.64199999996833
 21
4.786162197867881
 31
0.0
  0
LINE
  5
23B03
  8
0
  6
CONTINUOUS
 10
36.64615197150552
 20
0.4555294354108876
 30
0.0
 11
35.6362043832099
 21
1.465477023706505
 31
0.0
  0
LINE
  5
23B04
  8
0
  6
CONTINUOUS
 10
33.08199999996839
 20
4.019681406948013
 30
0.0
 11
31.64199999996833
 21
5.459681406948068
 31
0.0
  0
LINE
  5
23B05
  8
0
  6
CONTINUOUS
 10
37.0123742237774
 20
0.7628263922191891
 30
0.0
 11
35.97691545773309
 21
1.798285158263504
 31
0.0
  0
LINE
  5
23B06
  8
0
  6
CONTINUOUS
 10
33.08199999996839
 20
4.6932006160282
 30
0.0
 11
31.64199999996833
 21
6.133200616028255
 31
0.0
  0
LINE
  5
23B07
  8
0
  6
CONTINUOUS
 10
37.27491524157143
 20
1.173804583505349
 30
0.0
 11
36.17602012811361
 21
2.272699696963169
 31
0.0
  0
LINE
  5
23B08
  8
0
  6
CONTINUOUS
 10
33.08199999996839
 20
5.366719825108387
 30
0.0
 11
31.64199999996833
 21
6.806719825108441
 31
0.0
  0
LINE
  5
23B09
  8
0
  6
CONTINUOUS
 10
37.51739996707661
 20
1.604839067080355
 30
0.0
 11
36.23199999996837
 21
2.890239034188595
 31
0.0
  0
LINE
  5
23B0A
  8
0
  6
CONTINUOUS
 10
37.6183579579535
 20
2.177400285283649
 30
0.0
 11
36.23199999996837
 21
3.563758243268782
 31
0.0
  0
LINE
  5
23B0B
  8
0
  6
CONTINUOUS
 10
33.08199999996839
 20
6.040239034188573
 30
0.0
 11
31.64199999996833
 21
7.480239034188628
 31
0.0
  0
LINE
  5
23B0C
  8
0
  6
CONTINUOUS
 10
33.08199999996839
 20
6.713758243268759
 30
0.0
 11
31.64199999996833
 21
8.153758243268815
 31
0.0
  0
LINE
  5
23B0D
  8
0
  6
CONTINUOUS
 10
37.67199999996831
 20
2.797277452349027
 30
0.0
 11
36.23199999996837
 21
4.237277452348969
 31
0.0
  0
LINE
  5
23B0E
  8
0
  6
CONTINUOUS
 10
37.67199999996831
 20
3.470796661429214
 30
0.0
 11
36.23199999996837
 21
4.910796661429155
 31
0.0
  0
LINE
  5
23B0F
  8
0
  6
CONTINUOUS
 10
37.67199999996831
 20
4.1443158705094
 30
0.0
 11
36.23199999996837
 21
5.584315870509341
 31
0.0
  0
LINE
  5
23B10
  8
0
  6
CONTINUOUS
 10
33.08199999996839
 20
7.387277452348946
 30
0.0
 11
31.70617745232608
 21
8.763099999991255
 31
0.0
  0
LINE
  5
23B11
  8
0
  6
CONTINUOUS
 10
33.08199999996839
 20
8.060796661429134
 30
0.0
 11
32.37969666140626
 21
8.763099999991255
 31
0.0
  0
LINE
  5
23B12
  8
0
  6
CONTINUOUS
 10
33.08199999996839
 20
8.734315870509318
 30
0.0
 11
33.05321587048645
 21
8.763099999991255
 31
0.0
  0
LINE
  5
23B13
  8
0
  6
CONTINUOUS
 10
37.67199999996831
 20
4.817835079589586
 30
0.0
 11
36.23199999996837
 21
6.257835079589528
 31
0.0
  0
LINE
  5
23B14
  8
0
  6
CONTINUOUS
 10
37.67199999996831
 20
5.491354288669772
 30
0.0
 11
36.23199999996837
 21
6.931354288669715
 31
0.0
  0
LINE
  5
23B15
  8
0
  6
CONTINUOUS
 10
37.67199999996831
 20
6.164873497749959
 30
0.0
 11
36.23199999996837
 21
7.6048734977499
 31
0.0
  0
LINE
  5
23B16
  8
0
  6
CONTINUOUS
 10
37.67199999996831
 20
6.838392706830145
 30
0.0
 11
36.23199999996837
 21
8.278392706830086
 31
0.0
  0
LINE
  5
23B17
  8
0
  6
CONTINUOUS
 10
37.67199999996831
 20
7.511911915910333
 30
0.0
 11
36.42081191588738
 21
8.763099999991255
 31
0.0
  0
LINE
  5
23B18
  8
0
  6
CONTINUOUS
 10
37.67199999996831
 20
8.185431124990519
 30
0.0
 11
37.09433112496757
 21
8.763099999991255
 31
0.0
  0
ENDBLK
  5
23B80
  8
0
  0
BLOCK
  8
0
  2
*X203
 70
     1
 10
0.0
 20
0.0
 30
0.0
  3
*X203
  1

  0
LINE
  5
23B1A
  8
0
  6
CONTINUOUS
 10
38.60499999996136
 20
8.762866199104765
 30
0.0
 11
38.71672554182345
 21
8.874591740966855
 31
0.0
  0
LINE
  5
23B1B
  8
0
  6
CONTINUOUS
 10
38.60499999996136
 20
8.089346990024577
 30
0.0
 11
39.03418785440363
 21
8.518534844466847
 31
0.0
  0
LINE
  5
23B1C
  8
0
  6
CONTINUOUS
 10
38.60499999996136
 20
7.41582778094439
 30
0.0
 11
39.35165016698382
 21
8.16247794796684
 31
0.0
  0
LINE
  5
23B1D
  8
0
  6
CONTINUOUS
 10
38.60499999996136
 20
6.742308571864204
 30
0.0
 11
39.66911247956399
 21
7.806421051466834
 31
0.0
  0
LINE
  5
23B1E
  8
0
  6
CONTINUOUS
 10
38.60499999996136
 20
6.068789362784018
 30
0.0
 11
39.98657479214418
 21
7.450364154966827
 31
0.0
  0
LINE
  5
23B1F
  8
0
  6
CONTINUOUS
 10
38.60499999996136
 20
5.395270153703832
 30
0.0
 11
40.30403710472435
 21
7.09430725846682
 31
0.0
  0
LINE
  5
23B20
  8
0
  6
CONTINUOUS
 10
38.60499999996136
 20
4.721750944623645
 30
0.0
 11
40.62149941730453
 21
6.738250361966813
 31
0.0
  0
LINE
  5
23B21
  8
0
  6
CONTINUOUS
 10
38.60499999996136
 20
4.048231735543458
 30
0.0
 11
40.93896172988471
 21
6.382193465466806
 31
0.0
  0
LINE
  5
23B22
  8
0
  6
CONTINUOUS
 10
38.60499999996136
 20
3.374712526463272
 30
0.0
 11
40.02599999995994
 21
4.795712526461843
 31
0.0
  0
LINE
  5
23B23
  8
0
  6
CONTINUOUS
 10
38.60499999996136
 20
2.701193317383085
 30
0.0
 11
40.02599999995994
 21
4.122193317381657
 31
0.0
  0
LINE
  5
23B24
  8
0
  6
CONTINUOUS
 10
40.28339754687704
 20
5.053110073378947
 30
0.0
 11
41.25642404246489
 21
6.026136568966799
 31
0.0
  0
LINE
  5
23B25
  8
0
  6
CONTINUOUS
 10
40.60085985945722
 20
4.697053176878939
 30
0.0
 11
41.57388635504507
 21
5.670079672466793
 31
0.0
  0
LINE
  5
23B26
  8
0
  6
CONTINUOUS
 10
43.57899999995641
 20
8.348712526458318
 30
0.0
 11
43.99338747348935
 21
8.763099999991255
 31
0.0
  0
LINE
  5
23B27
  8
0
  6
CONTINUOUS
 10
43.57899999995641
 20
7.675193317378131
 30
0.0
 11
44.66690668256953
 21
8.763099999991255
 31
0.0
  0
LINE
  5
23B28
  8
0
  6
CONTINUOUS
 10
38.60499999996136
 20
2.027674108302898
 30
0.0
 11
40.02599999995994
 21
3.44867410830147
 31
0.0
  0
LINE
  5
23B29
  8
0
  6
CONTINUOUS
 10
38.60499999996136
 20
1.354154899222712
 30
0.0
 11
40.02599999995994
 21
2.775154899221284
 31
0.0
  0
LINE
  5
23B2A
  8
0
  6
CONTINUOUS
 10
38.60499999996136
 20
0.6806356901425255
 30
0.0
 11
40.02599999995994
 21
2.101635690141098
 31
0.0
  0
LINE
  5
23B2B
  8
0
  6
CONTINUOUS
 10
38.60499999996136
 20
0.0071164810623383
 30
0.0
 11
40.02599999995994
 21
1.428116481060911
 31
0.0
  0
LINE
  5
23B2C
  8
0
  6
CONTINUOUS
 10
40.9183221720374
 20
4.340996280378933
 30
0.0
 11
41.89134866762525
 21
5.314022775966786
 31
0.0
  0
LINE
  5
23B2D
  8
0
  6
CONTINUOUS
 10
41.23578448461758
 20
3.984939383878926
 30
0.0
 11
42.20881098020543
 21
4.957965879466778
 31
0.0
  0
LINE
  5
23B2E
  8
0
  6
CONTINUOUS
 10
41.55324679719776
 20
3.628882487378919
 30
0.0
 11
42.52627329278561
 21
4.601908982966772
 31
0.0
  0
LINE
  5
23B2F
  8
0
  6
CONTINUOUS
 10
41.87070910977793
 20
3.272825590878912
 30
0.0
 11
42.84373560536579
 21
4.245852086466765
 31
0.0
  0
LINE
  5
23B30
  8
0
  6
CONTINUOUS
 10
43.57899999995641
 20
7.001674108297943
 30
0.0
 11
44.99999999995498
 21
8.422674108296516
 31
0.0
  0
LINE
  5
23B31
  8
0
  6
CONTINUOUS
 10
43.57899999995641
 20
6.328154899217758
 30
0.0
 11
44.99999999995498
 21
7.749154899216329
 31
0.0
  0
LINE
  5
23B32
  8
0
  6
CONTINUOUS
 10
43.57899999995641
 20
5.654635690137571
 30
0.0
 11
44.99999999995498
 21
7.075635690136142
 31
0.0
  0
LINE
  5
23B33
  8
0
  6
CONTINUOUS
 10
43.57899999995641
 20
4.981116481057384
 30
0.0
 11
44.99999999995498
 21
6.402116481055955
 31
0.0
  0
LINE
  5
23B34
  8
0
  6
CONTINUOUS
 10
39.27140272797921
 20
-0.0000000000000009
 30
0.0
 11
40.02599999995994
 21
0.7545972719807246
 31
0.0
  0
LINE
  5
23B35
  8
0
  6
CONTINUOUS
 10
39.9449219370594
 20
-0.0000000000000009
 30
0.0
 11
40.02599999995994
 21
0.0810780629005379
 31
0.0
  0
LINE
  5
23B36
  8
0
  6
CONTINUOUS
 10
42.18817142235812
 20
2.916768694378905
 30
0.0
 11
43.16119791794597
 21
3.889795189966758
 31
0.0
  0
LINE
  5
23B37
  8
0
  6
CONTINUOUS
 10
42.50563373493829
 20
2.560711797878898
 30
0.0
 11
43.47866023052615
 21
3.533738293466751
 31
0.0
  0
LINE
  5
23B38
  8
0
  6
CONTINUOUS
 10
43.57899999995641
 20
4.307597271977198
 30
0.0
 11
44.99999999995498
 21
5.728597271975769
 31
0.0
  0
LINE
  5
23B39
  8
0
  6
CONTINUOUS
 10
43.57899999995641
 20
3.634078062897011
 30
0.0
 11
44.99999999995498
 21
5.055078062895582
 31
0.0
  0
LINE
  5
23B3A
  8
0
  6
CONTINUOUS
 10
42.82309604751848
 20
2.204654901378891
 30
0.0
 11
44.99999999995498
 21
4.381558853815395
 31
0.0
  0
LINE
  5
23B3B
  8
0
  6
CONTINUOUS
 10
43.14055836009865
 20
1.848598004878885
 30
0.0
 11
44.99999999995498
 21
3.70803964473521
 31
0.0
  0
LINE
  5
23B3C
  8
0
  6
CONTINUOUS
 10
43.45802067267883
 20
1.492541108378878
 30
0.0
 11
44.99999999995498
 21
3.034520435655023
 31
0.0
  0
LINE
  5
23B3D
  8
0
  6
CONTINUOUS
 10
43.77548298525902
 20
1.136484211878871
 30
0.0
 11
44.99999999995498
 21
2.361001226574837
 31
0.0
  0
LINE
  5
23B3E
  8
0
  6
CONTINUOUS
 10
44.09294529783919
 20
0.7804273153788639
 30
0.0
 11
44.99999999995498
 21
1.687482017494649
 31
0.0
  0
LINE
  5
23B3F
  8
0
  6
CONTINUOUS
 10
44.41040761041938
 20
0.4243704188788566
 30
0.0
 11
44.99999999995498
 21
1.013962808414463
 31
0.0
  0
LINE
  5
23B40
  8
0
  6
CONTINUOUS
 10
44.72786992299955
 20
0.0683135223788494
 30
0.0
 11
44.99999999995498
 21
0.340443599334276
 31
0.0
  0
LINE
  5
23B41
  8
0
  6
CONTINUOUS
 10
39.12223903415696
 20
-0.0000000000000009
 30
0.0
 11
38.60499999996136
 21
0.5172390341955961
 31
0.0
  0
LINE
  5
23B42
  8
0
  6
CONTINUOUS
 10
39.79575824323715
 20
-0.0000000000000009
 30
0.0
 11
38.60499999996136
 21
1.190758243275783
 31
0.0
  0
LINE
  5
23B43
  8
0
  6
CONTINUOUS
 10
40.02599999995994
 20
0.443277452357397
 30
0.0
 11
38.60499999996136
 21
1.864277452355969
 31
0.0
  0
LINE
  5
23B44
  8
0
  6
CONTINUOUS
 10
40.02599999995994
 20
1.116796661437583
 30
0.0
 11
38.60499999996136
 21
2.537796661436155
 31
0.0
  0
LINE
  5
23B45
  8
0
  6
CONTINUOUS
 10
40.02599999995994
 20
1.79031587051777
 30
0.0
 11
38.60499999996136
 21
3.211315870516341
 31
0.0
  0
LINE
  5
23B46
  8
0
  6
CONTINUOUS
 10
40.02599999995994
 20
2.463835079597956
 30
0.0
 11
38.60499999996136
 21
3.884835079596527
 31
0.0
  0
LINE
  5
23B47
  8
0
  6
CONTINUOUS
 10
40.02599999995994
 20
3.137354288678143
 30
0.0
 11
38.60499999996136
 21
4.558354288676714
 31
0.0
  0
LINE
  5
23B48
  8
0
  6
CONTINUOUS
 10
40.02599999995994
 20
3.810873497758329
 30
0.0
 11
38.60499999996136
 21
5.2318734977569
 31
0.0
  0
LINE
  5
23B49
  8
0
  6
CONTINUOUS
 10
40.02599999995994
 20
4.484392706838515
 30
0.0
 11
38.60499999996136
 21
5.905392706837086
 31
0.0
  0
LINE
  5
23B4A
  8
0
  6
CONTINUOUS
 10
44.99999999995498
 20
0.183911915923658
 30
0.0
 11
41.53858364506288
 21
3.64532827081576
 31
0.0
  0
LINE
  5
23B4B
  8
0
  6
CONTINUOUS
 10
40.02599999995994
 20
5.157911915918703
 30
0.0
 11
38.60499999996136
 21
6.578911915917274
 31
0.0
  0
LINE
  5
23B4C
  8
0
  6
CONTINUOUS
 10
44.99999999995498
 20
0.8574311250038447
 30
0.0
 11
38.60499999996136
 21
7.25243112499746
 31
0.0
  0
LINE
  5
23B4D
  8
0
  6
CONTINUOUS
 10
44.99999999995498
 20
1.530950334084031
 30
0.0
 11
38.60499999996136
 21
7.925950334077647
 31
0.0
  0
LINE
  5
23B4E
  8
0
  6
CONTINUOUS
 10
44.99999999995498
 20
2.204469543164218
 30
0.0
 11
43.57899999995641
 21
3.625469543162789
 31
0.0
  0
LINE
  5
23B4F
  8
0
  6
CONTINUOUS
 10
41.89876730984767
 20
5.305702233271528
 30
0.0
 11
38.60499999996136
 21
8.599469543157834
 31
0.0
  0
LINE
  5
23B50
  8
0
  6
CONTINUOUS
 10
44.99999999995498
 20
2.877988752244405
 30
0.0
 11
43.57899999995641
 21
4.298988752242975
 31
0.0
  0
LINE
  5
23B51
  8
0
  6
CONTINUOUS
 10
44.99999999995498
 20
3.551507961324591
 30
0.0
 11
43.57899999995641
 21
4.972507961323163
 31
0.0
  0
LINE
  5
23B52
  8
0
  6
CONTINUOUS
 10
44.99999999995498
 20
4.225027170404777
 30
0.0
 11
43.57899999995641
 21
5.646027170403348
 31
0.0
  0
LINE
  5
23B53
  8
0
  6
CONTINUOUS
 10
44.99999999995498
 20
4.898546379484964
 30
0.0
 11
43.57899999995641
 21
6.319546379483535
 31
0.0
  0
LINE
  5
23B54
  8
0
  6
CONTINUOUS
 10
44.99999999995498
 20
5.572065588565151
 30
0.0
 11
43.57899999995641
 21
6.993065588563722
 31
0.0
  0
LINE
  5
23B55
  8
0
  6
CONTINUOUS
 10
44.99999999995498
 20
6.245584797645336
 30
0.0
 11
43.57899999995641
 21
7.666584797643908
 31
0.0
  0
LINE
  5
23B56
  8
0
  6
CONTINUOUS
 10
44.99999999995498
 20
6.919104006725522
 30
0.0
 11
43.57899999995641
 21
8.340104006724093
 31
0.0
  0
LINE
  5
23B57
  8
0
  6
CONTINUOUS
 10
44.99999999995498
 20
7.592623215805709
 30
0.0
 11
43.82952321576943
 21
8.763099999991255
 31
0.0
  0
LINE
  5
23B58
  8
0
  6
CONTINUOUS
 10
44.99999999995498
 20
8.266142424885896
 30
0.0
 11
44.50304242484962
 21
8.763099999991255
 31
0.0
  0
ENDBLK
  5
23B82
  8
0
  0
BLOCK
  8
0
  2
*X204
 70
     1
 10
0.0
 20
0.0
 30
0.0
  3
*X204
  1

  0
LINE
  5
23B5A
  8
0
  6
CONTINUOUS
 10
0.0
 20
8.548461116714023
 30
0.0
 11
0.2146388832772324
 21
8.763099999991255
 31
0.0
  0
LINE
  5
23B5B
  8
0
  6
CONTINUOUS
 10
-0.0000000000000002
 20
7.874941907633837
 30
0.0
 11
0.8881580923574184
 21
8.763099999991255
 31
0.0
  0
LINE
  5
23B5C
  8
0
  6
CONTINUOUS
 10
0.0
 20
7.20142269855365
 30
0.0
 11
1.420999999998572
 21
8.622422698552223
 31
0.0
  0
LINE
  5
23B5D
  8
0
  6
CONTINUOUS
 10
-0.0000000000000001
 20
6.527903489473465
 30
0.0
 11
1.420999999998571
 21
7.948903489472036
 31
0.0
  0
LINE
  5
23B5E
  8
0
  6
CONTINUOUS
 10
-0.0000000000000002
 20
5.854384280393278
 30
0.0
 11
1.420999999998571
 21
7.275384280391849
 31
0.0
  0
LINE
  5
23B5F
  8
0
  6
CONTINUOUS
 10
-0.0000000000000002
 20
5.180865071313091
 30
0.0
 11
1.420999999998571
 21
6.601865071311663
 31
0.0
  0
LINE
  5
23B60
  8
0
  6
CONTINUOUS
 10
0.0
 20
4.507345862232905
 30
0.0
 11
1.420999999998571
 21
5.928345862231477
 31
0.0
  0
LINE
  5
23B61
  8
0
  6
CONTINUOUS
 10
-0.0000000000000003
 20
3.833826653152718
 30
0.0
 11
1.420999999998571
 21
5.25482665315129
 31
0.0
  0
LINE
  5
23B62
  8
0
  6
CONTINUOUS
 10
-0.0000000000000002
 20
3.160307444072532
 30
0.0
 11
1.420999999998571
 21
4.581307444071103
 31
0.0
  0
LINE
  5
23B63
  8
0
  6
CONTINUOUS
 10
-0.0000000000000001
 20
2.486788234992345
 30
0.0
 11
1.420999999998571
 21
3.907788234990917
 31
0.0
  0
LINE
  5
23B64
  8
0
  6
CONTINUOUS
 10
-0.0000000000000006
 20
1.813269025912159
 30
0.0
 11
1.420999999998571
 21
3.234269025910731
 31
0.0
  0
LINE
  5
23B65
  8
0
  6
CONTINUOUS
 10
0.0
 20
1.139749816831973
 30
0.0
 11
1.420999999998571
 21
2.560749816830544
 31
0.0
  0
LINE
  5
23B66
  8
0
  6
CONTINUOUS
 10
0.0000000000000002
 20
0.466230607751787
 30
0.0
 11
1.420999999998571
 21
1.887230607750358
 31
0.0
  0
LINE
  5
23B67
  8
0
  6
CONTINUOUS
 10
0.2072886013284003
 20
-0.0000000000000009
 30
0.0
 11
1.420999999998571
 21
1.213711398670171
 31
0.0
  0
LINE
  5
23B68
  8
0
  6
CONTINUOUS
 10
0.8808078104085864
 20
-0.0000000000000009
 30
0.0
 11
1.420999999998571
 21
0.5401921895899839
 31
0.0
  0
LINE
  5
23B69
  8
0
  6
CONTINUOUS
 10
0.0581249075061505
 20
-0.0000000000000009
 30
0.0
 11
-0.0000000000000002
 21
0.0581249075061496
 31
0.0
  0
LINE
  5
23B6A
  8
0
  6
CONTINUOUS
 10
0.7316441165863372
 20
-0.0000000000000009
 30
0.0
 11
-0.0000000000000002
 21
0.7316441165863363
 31
0.0
  0
LINE
  5
23B6B
  8
0
  6
CONTINUOUS
 10
1.405163325666523
 20
-0.0000000000000009
 30
0.0
 11
-0.0000000000000002
 21
1.405163325666523
 31
0.0
  0
LINE
  5
23B6C
  8
0
  6
CONTINUOUS
 10
1.420999999998572
 20
0.6576825347481381
 30
0.0
 11
-0.0000000000000001
 21
2.07868253474671
 31
0.0
  0
LINE
  5
23B6D
  8
0
  6
CONTINUOUS
 10
1.420999999998571
 20
1.331201743828324
 30
0.0
 11
-0.0000000000000001
 21
2.752201743826896
 31
0.0
  0
LINE
  5
23B6E
  8
0
  6
CONTINUOUS
 10
1.420999999998571
 20
2.004720952908511
 30
0.0
 11
-0.0000000000000002
 21
3.425720952907082
 31
0.0
  0
LINE
  5
23B6F
  8
0
  6
CONTINUOUS
 10
1.420999999998571
 20
2.678240161988697
 30
0.0
 11
-0.0000000000000001
 21
4.099240161987269
 31
0.0
  0
LINE
  5
23B70
  8
0
  6
CONTINUOUS
 10
1.420999999998572
 20
3.351759371068884
 30
0.0
 11
0.0
 21
4.772759371067455
 31
0.0
  0
LINE
  5
23B71
  8
0
  6
CONTINUOUS
 10
1.420999999998571
 20
4.02527858014907
 30
0.0
 11
-0.0000000000000003
 21
5.446278580147642
 31
0.0
  0
LINE
  5
23B72
  8
0
  6
CONTINUOUS
 10
1.420999999998571
 20
4.698797789229257
 30
0.0
 11
0.0
 21
6.119797789227828
 31
0.0
  0
LINE
  5
23B73
  8
0
  6
CONTINUOUS
 10
1.420999999998571
 20
5.372316998309444
 30
0.0
 11
-0.0000000000000001
 21
6.793316998308015
 31
0.0
  0
LINE
  5
23B74
  8
0
  6
CONTINUOUS
 10
1.420999999998572
 20
6.045836207389629
 30
0.0
 11
-0.0000000000000004
 21
7.466836207388202
 31
0.0
  0
LINE
  5
23B75
  8
0
  6
CONTINUOUS
 10
1.420999999998571
 20
6.719355416469816
 30
0.0
 11
0.0
 21
8.140355416468388
 31
0.0
  0
LINE
  5
23B76
  8
0
  6
CONTINUOUS
 10
1.420999999998571
 20
7.392874625550003
 30
0.0
 11
0.0507746255573185
 21
8.763099999991255
 31
0.0
  0
LINE
  5
23B77
  8
0
  6
CONTINUOUS
 10
1.420999999998571
 20
8.06639383463019
 30
0.0
 11
0.7242938346375052
 21
8.763099999991255
 31
0.0
  0
LINE
  5
23B78
  8
0
  6
CONTINUOUS
 10
1.420999999998571
 20
8.739913043710375
 30
0.0
 11
1.397813043717691
 21
8.763099999991255
 31
0.0
  0
ENDBLK
  5
23B84
  8
0
  0
ENDSEC
  0
SECTION
  2
ENTITIES
  0
LINE
  5
235D9
  8
01
 10
747.0185066317865
 20
-611.7877548604229
 30
0.0
 11
747.0185066317865
 21
-775.706117828073
 31
0.0
  0
LINE
  5
235DA
  8
01
 10
756.0185066317865
 20
-611.7877548604229
 30
0.0
 11
756.0185066317865
 21
-775.706117828073
 31
0.0
  0
LINE
  5
235DB
  8
01
 10
734.5185066317865
 20
-611.7877548604229
 30
0.0
 11
734.5185066317865
 21
-775.706117828073
 31
0.0
  0
LINE
  5
235E2
  8
1PHANTOM
 10
635.0162416153646
 20
-766.340928173805
 30
0.0
 11
635.0162416153646
 21
-765.840928173805
 31
0.0
  0
LINE
  5
235E3
  8
1PHANTOM
 10
635.0162416153646
 20
-765.840928173805
 30
0.0
 11
636.4981852781484
 21
-760.6541253540615
 31
0.0
  0
LINE
  5
235E4
  8
1PHANTOM
 10
641.5342979525808
 20
-760.6541253540615
 30
0.0
 11
643.0162416153646
 21
-765.840928173805
 31
0.0
  0
ARC
  5
235E5
  8
1PHANTOM
 10
642.5162416153646
 20
-766.340928173805
 30
0.0
 40
0.5
 50
270.0
 51
0.0
  0
ARC
  5
235E6
  8
1PHANTOM
 10
635.5162416153646
 20
-766.340928173805
 30
0.0
 40
0.5
 50
180.0
 51
270.0
  0
LINE
  5
235E7
  8
1PHANTOM
 10
638.9019951472505
 20
-758.840928173805
 30
0.0
 11
639.1304880834789
 21
-758.840928173805
 31
0.0
  0
ARC
  5
235E8
  8
1PHANTOM
 10
639.1304880834789
 20
-761.340928173805
 30
0.0
 40
2.5
 50
15.94539590092285
 51
90.0
  0
ARC
  5
235E9
  8
1PHANTOM
 10
638.9019951472505
 20
-761.340928173805
 30
0.0
 40
2.5
 50
90.0
 51
164.0546040990771
  0
LINE
  5
235EA
  8
01
 10
642.5162416153646
 20
-769.840928173805
 30
0.0
 11
395.5162416153648
 21
-769.840928173805
 31
0.0
  0
LINE
  5
235EB
  8
01
 10
395.0162416153648
 20
-769.340928173805
 30
0.0
 11
395.0162416153648
 21
-630.340928173805
 31
0.0
  0
LINE
  5
235EC
  8
01
 10
643.0162416153646
 20
-769.340928173805
 30
0.0
 11
643.0162416153646
 21
-630.340928173805
 31
0.0
  0
LINE
  5
235ED
  8
01
 10
640.0162416153646
 20
-703.840928173805
 30
0.0
 11
398.0162416153648
 21
-703.840928173805
 31
0.0
  0
LINE
  5
235EE
  8
01
 10
640.0162416153646
 20
-717.840928173805
 30
0.0
 11
398.0162416153648
 21
-717.840928173805
 31
0.0
  0
LINE
  5
235EF
  8
1PHANTOM
 10
642.5162416153646
 20
-766.840928173805
 30
0.0
 11
395.5162416153651
 21
-766.840928173805
 31
0.0
  0
LINE
  5
235F0
  8
01
 10
642.5162416153646
 20
-629.840928173805
 30
0.0
 11
395.5162416153648
 21
-629.840928173805
 31
0.0
  0
ARC
  5
235F1
  8
01
 10
640.0162416153646
 20
-720.840928173805
 30
0.0
 40
3.0
 50
0.0
 51
90.0
  0
ARC
  5
235F2
  8
01
 10
640.0162416153646
 20
-700.840928173805
 30
0.0
 40
3.0
 50
270.0
 51
0.0
  0
ARC
  5
235F3
  8
01
 10
398.0162416153648
 20
-700.840928173805
 30
0.0
 40
3.0
 50
180.0
 51
270.0
  0
ARC
  5
235F4
  8
01
 10
398.0162416153648
 20
-720.840928173805
 30
0.0
 40
3.0
 50
90.0
 51
180.0
  0
LINE
  5
235F5
  8
01
 10
642.5162416153646
 20
-610.8213303512664
 30
0.0
 11
395.5162416153648
 21
-610.8213303512664
 31
0.0
  0
LINE
  5
235F6
  8
01
 10
642.5162416153646
 20
-535.8213303512664
 30
0.0
 11
395.5162416153648
 21
-535.8213303512664
 31
0.0
  0
LINE
  5
235F7
  8
01
 10
642.5162416153646
 20
-614.172180712901
 30
0.0
 11
395.5162416153648
 21
-614.172180712901
 31
0.0
  0
LINE
  5
235F8
  8
01
 10
395.0162416153648
 20
-613.672180712901
 30
0.0
 11
395.0162416153648
 21
-536.3213303512664
 31
0.0
  0
LINE
  5
235F9
  8
01
 10
643.0162416153646
 20
-613.672180712901
 30
0.0
 11
643.0162416153646
 21
-536.3213303512664
 31
0.0
  0
ARC
  5
235FA
  8
01
 10
642.5162416153646
 20
-630.340928173805
 30
0.0
 40
0.5
 50
0.0
 51
90.0
  0
ARC
  5
235FB
  8
01
 10
395.5162416153648
 20
-630.340928173805
 30
0.0
 40
0.5
 50
90.0
 51
180.0
  0
ARC
  5
235FC
  8
01
 10
395.5162416153648
 20
-769.340928173805
 30
0.0
 40
0.5
 50
180.0
 51
270.0
  0
ARC
  5
235FD
  8
01
 10
642.5162416153646
 20
-769.340928173805
 30
0.0
 40
0.5
 50
270.0
 51
0.0
  0
ARC
  5
235FE
  8
1PHANTOM
 10
642.5162416153646
 20
-767.340928173805
 30
0.0
 40
0.5
 50
0.0
 51
90.0
  0
ARC
  5
235FF
  8
01
 10
395.5162416153648
 20
-610.3213303512664
 30
0.0
 40
0.5
 50
180.0
 51
270.0
  0
ARC
  5
23600
  8
01
 10
395.5162416153648
 20
-613.672180712901
 30
0.0
 40
0.5
 50
180.0
 51
270.0
  0
ARC
  5
23601
  8
01
 10
395.5162416153648
 20
-536.3213303512664
 30
0.0
 40
0.5
 50
90.0
 51
180.0
  0
ARC
  5
23602
  8
01
 10
642.5162416153646
 20
-536.3213303512664
 30
0.0
 40
0.5
 50
0.0
 51
90.0
  0
ARC
  5
23603
  8
01
 10
642.5162416153646
 20
-613.672180712901
 30
0.0
 40
0.5
 50
270.0
 51
0.0
  0
ARC
  5
23604
  8
01
 10
642.5162416153646
 20
-610.3213303512664
 30
0.0
 40
0.5
 50
270.0
 51
0.0
  0
ARC
  5
23605
  8
1PHANTOM
 10
395.5162416153651
 20
-767.340928173805
 30
0.0
 40
0.5
 50
90.0
 51
180.0
  0
LINE
  5
23606
  8
1PHANTOM
 10
403.0162416153651
 20
-766.340928173805
 30
0.0
 11
403.0162416153651
 21
-765.840928173805
 31
0.0
  0
LINE
  5
23607
  8
1PHANTOM
 10
403.0162416153651
 20
-765.840928173805
 30
0.0
 11
401.5342979525813
 21
-760.6541253540615
 31
0.0
  0
LINE
  5
23608
  8
1PHANTOM
 10
396.4981852781489
 20
-760.6541253540615
 30
0.0
 11
395.0162416153651
 21
-765.840928173805
 31
0.0
  0
ARC
  5
23609
  8
1PHANTOM
 10
395.5162416153651
 20
-766.340928173805
 30
0.0
 40
0.5
 50
180.0
 51
270.0
  0
ARC
  5
2360A
  8
1PHANTOM
 10
402.5162416153651
 20
-766.340928173805
 30
0.0
 40
0.5
 50
270.0
 51
0.0
  0
LINE
  5
2360B
  8
1PHANTOM
 10
399.1304880834793
 20
-758.840928173805
 30
0.0
 11
398.9019951472509
 21
-758.840928173805
 31
0.0
  0
ARC
  5
2360C
  8
1PHANTOM
 10
398.9019951472509
 20
-761.340928173805
 30
0.0
 40
2.5
 50
90.0
 51
164.0546040990775
  0
ARC
  5
2360D
  8
1PHANTOM
 10
399.1304880834793
 20
-761.340928173805
 30
0.0
 40
2.5
 50
15.9453959009225
 51
90.0
  0
LINE
  5
2360E
  8
1PHANTOM
 10
642.5162416153646
 20
-633.8409281738041
 30
0.0
 11
395.5162416153651
 21
-633.8409281738041
 31
0.0
  0
ARC
  5
2360F
  8
1PHANTOM
 10
642.5162416153646
 20
-633.3409281738041
 30
0.0
 40
0.5
 50
270.0
 51
0.0
  0
ARC
  5
23610
  8
1PHANTOM
 10
395.5162416153651
 20
-633.3409281738041
 30
0.0
 40
0.5
 50
180.0
 51
270.0
  0
LINE
  5
23612
  8
01
 10
722.5185066317865
 20
-758.840928173805
 30
0.0
 11
671.5185066317865
 21
-758.840928173805
 31
0.0
  0
LINE
  5
23613
  8
01
 10
670.5185066317865
 20
-759.840928173805
 30
0.0
 11
670.5185066317865
 21
-766.340928173805
 31
0.0
  0
LINE
  5
23614
  8
01
 10
723.5185066317865
 20
-759.840928173805
 30
0.0
 11
723.5185066317865
 21
-766.340928173805
 31
0.0
  0
LINE
  5
23615
  8
01
 10
723.5185066317865
 20
-765.840928173805
 30
0.0
 11
670.5185066317865
 21
-765.840928173805
 31
0.0
  0
ARC
  5
23616
  8
01
 10
722.5185066317865
 20
-759.840928173805
 30
0.0
 40
1.0
 50
0.0
 51
90.0
  0
ARC
  5
23617
  8
01
 10
671.5185066317865
 20
-759.840928173805
 30
0.0
 40
1.0
 50
90.0
 51
180.0
  0
ARC
  5
23618
  8
01
 10
671.0185066317865
 20
-766.340928173805
 30
0.0
 40
0.5
 50
180.0
 51
270.0
  0
ARC
  5
23619
  8
01
 10
723.0185066317865
 20
-766.340928173805
 30
0.0
 40
0.5
 50
270.0
 51
0.0
  0
LINE
  5
2361A
  8
01
 10
734.5185066317865
 20
-629.840928173805
 30
0.0
 11
734.5185066317865
 21
-769.840928173805
 31
0.0
  0
LINE
  5
2361B
  8
01
 10
734.5185066317865
 20
-769.840928173805
 30
0.0
 11
665.5185066317865
 21
-769.840928173805
 31
0.0
  0
LINE
  5
2361C
  8
01
 10
731.5185066317865
 20
-636.8409281738041
 30
0.0
 11
731.5185066317865
 21
-763.840928173805
 31
0.0
  0
LINE
  5
2361D
  8
01
 10
728.5185066317865
 20
-766.840928173805
 30
0.0
 11
665.5185066317865
 21
-766.840928173805
 31
0.0
  0
LINE
  5
2361E
  8
01
 10
662.5185066317865
 20
-725.3513358138907
 30
0.0
 11
662.5185066317865
 21
-763.840928173805
 31
0.0
  0
LINE
  5
2361F
  8
01
 10
659.5185066317865
 20
-725.3513358138907
 30
0.0
 11
659.5185066317865
 21
-763.840928173805
 31
0.0
  0
ARC
  5
23620
  8
01
 10
728.5185066317865
 20
-763.840928173805
 30
0.0
 40
3.0
 50
270.0
 51
0.0
  0
ARC
  5
23621
  8
01
 10
665.5185066317865
 20
-763.840928173805
 30
0.0
 40
3.0
 50
180.0
 51
270.0
  0
ARC
  5
23622
  8
01
 10
665.5185066317865
 20
-763.840928173805
 30
0.0
 40
6.0
 50
180.0
 51
270.0
  0
ARC
  5
23623
  8
01
 10
652.5185066317865
 20
-725.3513358138907
 30
0.0
 40
10.0
 50
0.0
 51
46.33413527938117
  0
ARC
  5
23624
  8
01
 10
652.5185066317865
 20
-725.3513358138907
 30
0.0
 40
7.0
 50
0.0
 51
54.46897499082237
  0
LINE
  5
23625
  8
01
 10
657.1676562701518
 20
-717.840928173805
 30
0.0
 11
658.7325707093378
 21
-717.840928173805
 31
0.0
  0
ARC
  5
23626
  8
01
 10
657.1676562701518
 20
-718.840928173805
 30
0.0
 40
1.0
 50
90.0
 51
234.4689749908343
  0
ARC
  5
23627
  8
01
 10
658.7325707093378
 20
-718.840928173805
 30
0.0
 40
1.0
 50
46.33413527939037
 51
90.0
  0
LINE
  5
23628
  8
01
 10
659.5185066317865
 20
-635.840928173805
 30
0.0
 11
659.5185066317865
 21
-696.3305205337174
 31
0.0
  0
LINE
  5
23629
  8
01
 10
662.5185066317865
 20
-636.8409281738041
 30
0.0
 11
662.5185066317865
 21
-696.3305205337174
 31
0.0
  0
LINE
  5
2362A
  8
01
 10
728.5185066317865
 20
-633.8409281738041
 30
0.0
 11
665.5185066317865
 21
-633.8409281738041
 31
0.0
  0
ARC
  5
2362B
  8
01
 10
730.5185066317865
 20
-625.840928173805
 30
0.0
 40
5.0
 50
270.0
 51
301.0027191338722
  0
LINE
  5
2362C
  8
01
 10
730.5185066317865
 20
-630.840928173805
 30
0.0
 11
669.5185066317865
 21
-630.840928173805
 31
0.0
  0
LINE
  5
2362D
  8
01
 10
734.5185066317865
 20
-629.840928173805
 30
0.0
 11
734.1240579072503
 21
-629.840928173805
 31
0.0
  0
ARC
  5
2362E
  8
01
 10
734.1240579072503
 20
-631.840928173805
 30
0.0
 40
2.0
 50
90.0
 51
121.0027191338715
  0
LINE
  5
2362F
  8
01
 10
665.5185066317865
 20
-629.840928173805
 30
0.0
 11
665.9129553563228
 21
-629.840928173805
 31
0.0
  0
ARC
  5
23630
  8
01
 10
728.5185066317865
 20
-636.8409281738041
 30
0.0
 40
3.0
 50
0.0
 51
90.0
  0
ARC
  5
23631
  8
01
 10
665.5185066317865
 20
-636.8409281738041
 30
0.0
 40
3.0
 50
90.0
 51
180.0
  0
ARC
  5
23632
  8
01
 10
665.5185066317865
 20
-635.840928173805
 30
0.0
 40
6.0
 50
90.0
 51
180.0
  0
ARC
  5
23634
  8
01
 10
652.5185066317865
 20
-696.3305205337174
 30
0.0
 40
10.0
 50
313.6658647206133
 51
0.0
  0
ARC
  5
23635
  8
01
 10
652.5185066317865
 20
-696.3305205337174
 30
0.0
 40
7.0
 50
305.5310250091704
 51
0.0
  0
LINE
  5
23636
  8
01
 10
657.1676562701518
 20
-703.8409281738045
 30
0.0
 11
658.7325707093378
 21
-703.8409281738045
 31
0.0
  0
ARC
  5
23637
  8
01
 10
657.1676562701518
 20
-702.8409281738045
 30
0.0
 40
1.0
 50
125.5310250091657
 51
270.0
  0
ARC
  5
23638
  8
01
 10
658.7325707093378
 20
-702.8409281738045
 30
0.0
 40
1.0
 50
270.0
 51
313.6658647206096
  0
ARC
  5
2363A
  8
01
 10
665.9129553563228
 20
-631.840928173805
 30
0.0
 40
1.999999999999999
 50
58.99728086614305
 51
90.0
  0
ARC
  5
2363C
  8
01
 10
669.5185066317865
 20
-625.840928173805
 30
0.0
 40
4.999999999999998
 50
238.9972808661296
 51
270.0
  0
TEXT
  5
2364F
  8
01
  6
CONTINUOUS
 10
754.7338059344319
 20
-599.603711024509
 30
0.0
 40
3.5
  1
合板9mm以上
  0
SOLID
  5
23650
  8
1DIM
 10
751.3944540630076
 20
-613.0673865981776
 30
0.0
 11
750.9099620013168
 21
-615.0362386884245
 31
0.0
 12
750.7297186790523
 22
-613.0166784749399
 32
0.0
 13
750.7297186790523
 23
-613.0166784749399
 33
0.0
1001
ACAD
1000
DSTYLE
1002
{
1070
    45
1040
0.5
1002
}
  0
LINE
  5
23651
  8
1DIM
 10
751.06208637103
 20
-613.0420325365587
 30
0.0
 11
752.0338059344318
 21
-600.3037110245091
 31
0.0
1001
ACAD
1000
DSTYLE
1002
{
1070
    45
1040
0.5
1002
}
  0
LINE
  5
23652
  8
1DIM
 10
752.0338059344318
 20
-600.3037110245091
 30
0.0
 11
784.1671392677652
 21
-600.3037110245091
 31
0.0
1001
ACAD
1000
DSTYLE
1002
{
1070
    45
1040
0.5
1002
}
  0
TEXT
  5
23653
  8
01
  6
CONTINUOUS
 10
740.9317211226
 20
-599.603711024509
 30
0.0
 40
3.5
  1
PB
  0
SOLID
  5
23654
  8
1DIM
 10
738.2590359178424
 20
-613.0673865981776
 30
0.0
 11
737.7745438561516
 21
-615.0362386884245
 31
0.0
 12
737.5943005338871
 22
-613.0166784749399
 32
0.0
 13
737.5943005338871
 23
-613.0166784749399
 33
0.0
1001
ACAD
1000
DSTYLE
1002
{
1070
    45
1040
0.5
1002
}
  0
LINE
  5
23655
  8
1DIM
 10
737.9266682258648
 20
-613.0420325365587
 30
0.0
 11
738.8983877892666
 21
-600.3037110245091
 31
0.0
1001
ACAD
1000
DSTYLE
1002
{
1070
    45
1040
0.5
1002
}
  0
LINE
  5
23656
  8
1DIM
 10
738.8983877892666
 20
-600.3037110245091
 30
0.0
 11
747.4317211225999
 21
-600.3037110245091
 31
0.0
1001
ACAD
1000
DSTYLE
1002
{
1070
    45
1040
0.5
1002
}
  0
TEXT
  5
23677
  8
1TEXT
 10
658.5465066033485
 20
-540.6560445254604
 30
0.0
 40
8.0
  1
SE-48P-X
  0
LINE
  5
2367A
  8
1DIM
 10
658.5465066033482
 20
-545.6560445254604
 30
0.0
 11
728.5465066033483
 21
-545.6560445254604
 31
0.0
  0
LINE
  5
2367B
  8
1DIM
 10
658.5465066033485
 20
-559.6560445254604
 30
0.0
 11
728.5465066033483
 21
-559.6560445254604
 31
0.0
  0
LINE
  5
2367C
  8
1DIM
 10
658.5465066033482
 20
-552.6560445254604
 30
0.0
 11
728.5465066033483
 21
-552.6560445254604
 31
0.0
  0
LINE
  5
2367D
  8
1DIM
 10
658.5465066033482
 20
-566.6560445254604
 30
0.0
 11
728.5465066033483
 21
-566.6560445254604
 31
0.0
  0
LINE
  5
2367F
  8
1DIM
 10
728.5465066033483
 20
-545.6560445254604
 30
0.0
 11
728.5465066033483
 21
-566.6560445254604
 31
0.0
  0
TEXT
  5
23680
  8
1TEXT
 10
704.0798399366813
 20
-551.1560445254604
 30
0.0
 40
4.0
  1
コード
 72
     1
 11
710.946506603348
 21
-551.1560445254604
 31
0.0
  0
LINE
  5
23681
  8
1DIM
 10
693.5465066033485
 20
-566.6560445254604
 30
0.0
 11
693.5465066033485
 21
-545.6560445254604
 31
0.0
  0
TEXT
  5
23684
  8
1TEXT
 10
666.6798399366814
 20
-551.1560445254604
 30
0.0
 40
4.0
  1
表面処理
 72
     1
 11
675.9465066033481
 21
-551.1560445254604
 31
0.0
  0
LINE
  5
23686
  8
1DIM
 10
658.5465066033485
 20
-566.6560445254604
 30
0.0
 11
658.5465066033485
 21
-545.6560445254604
 31
0.0
  0
TEXT
  5
23687
  8
1TEXT
 10
695.6465066033489
 20
-558.3704015091098
 30
0.0
 40
4.0
  1
SE-48P-113
 41
0.85
 72
     1
 11
710.9465066033489
 21
-558.3704015091098
 31
0.0
  0
TEXT
  5
2368A
  8
1TEXT
 10
659.6798399366813
 20
-557.9913331849848
 30
0.0
 40
4.0
  1
マットブラック
 72
     1
 11
675.946506603348
 21
-557.9913331849848
 31
0.0
  0
TEXT
  5
2368B
  8
1TEXT
 10
659.1998399366813
 20
-564.9913331849848
 30
0.0
 40
4.0
  1
セラミックホワイト
 41
0.8
 72
     1
 11
675.946506603348
 21
-564.9913331849848
 31
0.0
  0
TEXT
  5
2368C
  8
1TEXT
 10
695.6465066033489
 20
-565.3704015091098
 30
0.0
 40
4.0
  1
SE-48P-112
 41
0.85
 72
     1
 11
710.9465066033489
 21
-565.3704015091098
 31
0.0
  0
ARC
  5
2386F
  8
01
 10
420.6196990214497
 20
-712.444279708656
 30
0.0
 40
1.0
 50
90.00039994659474
 51
179.9996000534053
  0
LINE
  5
23870
  8
01
 10
422.0181022941209
 20
-711.444269947239
 30
0.0
 11
420.6196920410652
 21
-711.4442797086806
 31
0.0
  0
LINE
  5
23871
  8
01
 10
419.619689259352
 20
-713.8427804287064
 30
0.0
 11
419.6196990214734
 21
-712.444272728271
 31
0.0
  0
ARC
  5
23872
  8
01
 10
417.4128900805166
 20
-712.4443855798861
 30
0.0
 40
1.0
 50
0.0003999465947284
 51
89.99960005347042
  0
LINE
  5
23873
  8
01
 10
418.4128998419341
 20
-713.842788852561
 30
0.0
 11
418.412890080493
 21
-712.4443785995011
 31
0.0
  0
LINE
  5
23874
  8
01
 10
416.0143893604612
 20
-711.4443758177902
 30
0.0
 11
417.4128970609012
 21
-711.4443855799107
 31
0.0
  0
ARC
  5
23875
  8
01
 10
417.4127842092834
 20
-709.2375766389544
 30
0.0
 40
1.0
 50
270.0003999465947
 51
359.99960005349
  0
LINE
  5
23876
  8
01
 10
416.0143809366067
 20
-710.2375864003723
 30
0.0
 11
417.4127911896679
 21
-710.2375766389298
 31
0.0
  0
LINE
  5
23877
  8
01
 10
418.4127939713793
 20
-707.839075918904
 30
0.0
 11
418.4127842092597
 21
-709.2375836193376
 31
0.0
  0
ARC
  5
23878
  8
01
 10
420.6195931502147
 20
-709.2374707677247
 30
0.0
 40
1.0
 50
180.0003999465947
 51
269.9996000534704
  0
LINE
  5
23879
  8
01
 10
422.0180938702664
 20
-710.2374805298211
 30
0.0
 11
420.6195861698301
 21
-710.2374707677002
 31
0.0
  0
LINE
  5
2387A
  8
01
 10
419.6195833887972
 20
-707.8390674950494
 30
0.0
 11
419.6195931502383
 21
-709.2374777481098
 31
0.0
  0
LINE
  5
2387B
  8
01
 10
422.0180938702664
 20
-710.2374805298211
 30
0.0
 11
422.0181022941209
 21
-711.444269947239
 31
0.0
  0
LINE
  5
2387C
  8
01
 10
419.619689259352
 20
-713.8427804287064
 30
0.0
 11
418.4128998419341
 21
-713.842788852561
 31
0.0
  0
LINE
  5
2387D
  8
01
 10
416.0143893604612
 20
-711.4443758177902
 30
0.0
 11
416.0143809366067
 21
-710.2375864003723
 31
0.0
  0
LINE
  5
2387E
  8
1CENTER
 10
419.0162416153647
 20
-706.3725599172283
 30
0.0
 11
419.0162416153647
 21
-715.3092964303821
 31
0.0
  0
LINE
  5
2387F
  8
1CENTER
 10
423.4846098719421
 20
-710.8409281738052
 30
0.0
 11
414.5478733587873
 21
-710.8409281738052
 31
0.0
  0
LINE
  5
23880
  8
01
 10
418.4127939713793
 20
-707.839075918904
 30
0.0
 11
419.6195833887972
 21
-707.8390674950494
 31
0.0
  0
CIRCLE
  5
23881
  8
01
 10
419.0162416153647
 20
-710.8409281738052
 30
0.0
 40
4.0
  0
ARC
  5
23882
  8
01
 10
617.4127842092798
 20
-712.444279708656
 30
0.0
 40
1.0
 50
0.0003999465947284
 51
89.99960005340527
  0
LINE
  5
23883
  8
01
 10
616.0143809366086
 20
-711.444269947239
 30
0.0
 11
617.4127911896644
 21
-711.4442797086806
 31
0.0
  0
LINE
  5
23884
  8
01
 10
618.4127939713776
 20
-713.8427804287064
 30
0.0
 11
618.4127842092562
 21
-712.444272728271
 31
0.0
  0
ARC
  5
23885
  8
01
 10
620.619593150213
 20
-712.4443855798861
 30
0.0
 40
1.0
 50
90.0003999465296
 51
179.9996000534053
  0
LINE
  5
23886
  8
01
 10
619.6195833887955
 20
-713.842788852561
 30
0.0
 11
619.6195931502366
 21
-712.4443785995011
 31
0.0
  0
LINE
  5
23887
  8
01
 10
622.0180938702683
 20
-711.4443758177902
 30
0.0
 11
620.6195861698284
 21
-711.4443855799107
 31
0.0
  0
ARC
  5
23888
  8
01
 10
620.6196990214462
 20
-709.2375766389544
 30
0.0
 40
1.0
 50
180.00039994651
 51
269.9996000534053
  0
LINE
  5
23889
  8
01
 10
622.0181022941229
 20
-710.2375864003723
 30
0.0
 11
620.6196920410616
 21
-710.2375766389298
 31
0.0
  0
LINE
  5
2388A
  8
01
 10
619.6196892593503
 20
-707.839075918904
 30
0.0
 11
619.6196990214698
 21
-709.2375836193376
 31
0.0
  0
ARC
  5
2388B
  8
01
 10
617.4128900805149
 20
-709.2374707677247
 30
0.0
 40
1.0
 50
270.0003999465296
 51
359.9996000534053
  0
LINE
  5
2388C
  8
01
 10
616.0143893604632
 20
-710.2374805298211
 30
0.0
 11
617.4128970608995
 21
-710.2374707677002
 31
0.0
  0
LINE
  5
2388D
  8
01
 10
618.4128998419324
 20
-707.8390674950494
 30
0.0
 11
618.4128900804913
 21
-709.2374777481098
 31
0.0
  0
LINE
  5
2388E
  8
01
 10
616.0143893604632
 20
-710.2374805298211
 30
0.0
 11
616.0143809366086
 21
-711.444269947239
 31
0.0
  0
LINE
  5
2388F
  8
01
 10
618.4127939713776
 20
-713.8427804287064
 30
0.0
 11
619.6195833887955
 21
-713.842788852561
 31
0.0
  0
LINE
  5
23890
  8
01
 10
622.0180938702683
 20
-711.4443758177902
 30
0.0
 11
622.0181022941229
 21
-710.2375864003723
 31
0.0
  0
LINE
  5
23891
  8
1CENTER
 10
619.0162416153648
 20
-706.3725599172283
 30
0.0
 11
619.0162416153648
 21
-715.3092964303821
 31
0.0
  0
LINE
  5
23892
  8
1CENTER
 10
614.5478733587875
 20
-710.8409281738052
 30
0.0
 11
623.4846098719422
 21
-710.8409281738052
 31
0.0
  0
LINE
  5
23893
  8
01
 10
619.6196892593503
 20
-707.839075918904
 30
0.0
 11
618.4128998419324
 21
-707.8390674950494
 31
0.0
  0
CIRCLE
  5
23894
  8
01
 10
619.0162416153648
 20
-710.8409281738052
 30
0.0
 40
4.0
  0
LINE
  5
23895
  8
1DIM1
 10
419.0162416153647
 20
-715.3092964303821
 30
0.0
 11
419.0162416153647
 21
-799.6406464743858
 31
0.0
1001
ACAD
1000
DSTYLE
1002
{
1070
    45
1040
0.5
1070
    40
1040
3.0
1002
}
  0
LINE
  5
23896
  8
1DIM1
 10
619.0162416153648
 20
-715.3092964303821
 30
0.0
 11
619.0162416153648
 21
-799.6406464743858
 31
0.0
1001
ACAD
1000
DSTYLE
1002
{
1070
    45
1040
0.5
1070
    40
1040
3.0
1002
}
  0
LINE
  5
23897
  8
1DIM1
 10
425.0162416153647
 20
-796.6406464743858
 30
0.0
 11
613.0162416153648
 21
-796.6406464743858
 31
0.0
1001
ACAD
1000
DSTYLE
1002
{
1070
    45
1040
0.5
1070
    40
1040
3.0
1002
}
  0
SOLID
  5
2389B
  8
1DIM
 10
679.497189821847
 20
-759.398964459998
 30
0.0
 11
678.4443541459225
 21
-761.1317795541761
 31
0.0
 12
678.8782857007122
 22
-759.1511699215456
 32
0.0
 13
678.8782857007122
 23
-759.1511699215456
 33
0.0
1001
ACAD
1000
DSTYLE
1002
{
1070
    45
1040
0.5
1002
}
  0
LINE
  5
2389C
  8
1DIM
 10
679.1877377612797
 20
-759.2750671907718
 30
0.0
 11
684.8547446940017
 21
-745.1208652173686
 31
0.0
1001
ACAD
1000
DSTYLE
1002
{
1070
    45
1040
0.5
1002
}
  0
LINE
  5
2389D
  8
1DIM
 10
684.8547446940017
 20
-745.1208652173686
 30
0.0
 11
709.2547446940017
 21
-745.1208652173686
 31
0.0
1001
ACAD
1000
DSTYLE
1002
{
1070
    45
1040
0.5
1002
}
  0
TEXT
  5
2389E
  8
1DIM
  6
CONTINUOUS
 10
686.4972138942886
 20
-743.8217734230751
 30
0.0
 40
3.5
  1
材質：ABS
  0
SOLID
  5
2389F
  8
1DIM
 10
641.1510590001649
 20
-597.6247252844544
 30
0.0
 11
639.6228236786702
 21
-598.9572446701471
 31
0.0
 12
640.6362832360757
 22
-597.2011094713043
 32
0.0
 13
640.6362832360757
 23
-597.2011094713043
 33
0.0
1001
ACAD
1000
DSTYLE
1002
{
1070
    45
1040
0.5
1002
}
  0
LINE
  5
238A0
  8
1DIM
 10
640.8936711181203
 20
-597.4129173778794
 30
0.0
 11
646.668287429382
 21
-590.3956332452416
 31
0.0
1001
ACAD
1000
DSTYLE
1002
{
1070
    45
1040
0.5
1002
}
  0
LINE
  5
238A1
  8
1DIM
 10
646.668287429382
 20
-590.3956332452416
 30
0.0
 11
686.3516207627154
 21
-590.3956332452416
 31
0.0
1001
ACAD
1000
DSTYLE
1002
{
1070
    45
1040
0.5
1002
}
  0
TEXT
  5
238A2
  8
1DIM
  6
CONTINUOUS
 10
649.1349540960487
 20
-583.8622999119082
 30
0.0
 40
3.5
  1
材質：アルミ
  0
TEXT
  5
238A3
  8
1DIM
  6
CONTINUOUS
 10
649.2516207627153
 20
-589.6956332452415
 30
0.0
 40
3.5
  1
仕上げ：各種仕上げ
  0
LINE
  5
238A4
  8
1DIM
 10
656.1676562701518
 20
-702.8409281738045
 30
0.0
 11
656.1676562701518
 21
-609.6002405129352
 31
0.0
1001
ACAD
1000
DSTYLE
1002
{
1070
    45
1040
0.5
1002
}
  0
LINE
  5
238A5
  8
1DIM
 10
734.5185066317865
 20
-611.7877548604229
 30
0.0
 11
734.5185066317865
 21
-609.6002405129352
 31
0.0
1001
ACAD
1000
DSTYLE
1002
{
1070
    45
1040
0.5
1002
}
  0
LINE
  5
238A6
  8
1DIM
 10
658.1676562701518
 20
-610.6002405129352
 30
0.0
 11
732.5185066317865
 21
-610.6002405129352
 31
0.0
1001
ACAD
1000
DSTYLE
1002
{
1070
    45
1040
0.5
1002
}
  0
LINE
  5
238AA
  8
1DIM
 10
731.5185066317865
 20
-636.8409281738041
 30
0.0
 11
731.5185066317865
 21
-617.8603372442805
 31
0.0
1001
ACAD
1000
DSTYLE
1002
{
1070
    70
1070
     0
1070
    69
1070
     0
1070
    45
1040
0.5
1002
}
  0
LINE
  5
238AB
  8
1DIM
 10
662.5185066317865
 20
-636.8409281738041
 30
0.0
 11
662.5185066317865
 21
-617.8603372442805
 31
0.0
1001
ACAD
1000
DSTYLE
1002
{
1070
    70
1070
     0
1070
    69
1070
     0
1070
    45
1040
0.5
1002
}
  0
LINE
  5
238AC
  8
1DIM
 10
729.5185066317865
 20
-618.8603372442805
 30
0.0
 11
664.5185066317865
 21
-618.8603372442805
 31
0.0
1001
ACAD
1000
DSTYLE
1002
{
1070
    70
1070
     0
1070
    69
1070
     0
1070
    45
1040
0.5
1002
}
  0
LINE
  5
238B0
  8
1DIM
 10
768.422993515244
 20
-710.840928173805
 30
0.0
 11
771.6432236949562
 21
-710.840928173805
 31
0.0
1001
ACAD
1000
DSTYLE
1002
{
1070
    45
1040
0.5
1070
   271
1070
     0
1002
}
  0
LINE
  5
238B1
  8
1DIM
 10
734.5185066317865
 20
-629.840928173805
 30
0.0
 11
771.6432236949562
 21
-629.840928173805
 31
0.0
1001
ACAD
1000
DSTYLE
1002
{
1070
    45
1040
0.5
1070
   271
1070
     0
1002
}
  0
LINE
  5
238B2
  8
1DIM
 10
770.6432236949562
 20
-708.840928173805
 30
0.0
 11
770.6432236949562
 21
-631.840928173805
 31
0.0
1001
ACAD
1000
DSTYLE
1002
{
1070
    45
1040
0.5
1070
   271
1070
     0
1002
}
  0
LINE
  5
238B6
  8
1DIM1
 10
395.0162416153648
 20
-769.340928173805
 30
0.0
 11
395.0162416153648
 21
-847.3944923636594
 31
0.0
1001
ACAD
1000
DSTYLE
1002
{
1070
    45
1040
0.5
1070
    40
1040
3.0
1002
}
  0
LINE
  5
238B7
  8
1DIM1
 10
643.0162416153646
 20
-769.340928173805
 30
0.0
 11
643.0162416153646
 21
-847.3944923636594
 31
0.0
1001
ACAD
1000
DSTYLE
1002
{
1070
    45
1040
0.5
1070
    40
1040
3.0
1002
}
  0
LINE
  5
238B8
  8
1DIM1
 10
401.0162416153648
 20
-844.3944923636594
 30
0.0
 11
637.0162416153646
 21
-844.3944923636594
 31
0.0
1001
ACAD
1000
DSTYLE
1002
{
1070
    45
1040
0.5
1070
    40
1040
3.0
1002
}
  0
LINE
  5
238BC
  8
1DIM
 10
734.5185066317865
 20
-769.840928173805
 30
0.0
 11
795.1960156780265
 21
-769.840928173805
 31
0.0
1001
ACAD
1000
DSTYLE
1002
{
1070
    45
1040
0.5
1002
}
  0
LINE
  5
238BD
  8
1DIM
 10
734.5185066317865
 20
-629.840928173805
 30
0.0
 11
795.1960156780265
 21
-629.840928173805
 31
0.0
1001
ACAD
1000
DSTYLE
1002
{
1070
    45
1040
0.5
1002
}
  0
LINE
  5
238BE
  8
1DIM
 10
794.1960156780265
 20
-767.840928173805
 30
0.0
 11
794.1960156780265
 21
-631.840928173805
 31
0.0
1001
ACAD
1000
DSTYLE
1002
{
1070
    45
1040
0.5
1002
}
  0
LINE
  5
238C3
  8
1CENTER
 10
619.0162416153646
 20
-502.416843467809
 30
0.0
 11
619.0162416153646
 21
-540.2499765151838
 31
0.0
  0
LINE
  5
238C4
  8
0
 10
617.5162881512625
 20
-511.0713361684698
 30
0.0
 11
617.0162881512625
 21
-510.9713350050727
 31
0.0
  0
LINE
  5
238C5
  8
0
 10
617.0162881512625
 20
-510.9713350050727
 30
0.0
 11
621.0162881512625
 21
-510.1713443122501
 31
0.0
  0
LINE
  5
238C6
  8
0
 10
621.0162881512625
 20
-510.1713443122501
 30
0.0
 11
620.5162881512625
 21
-510.071343148853
 31
0.0
  0
LINE
  5
238C7
  8
0
 10
617.5162881512625
 20
-512.6713361684699
 30
0.0
 11
617.0162881512625
 21
-512.5713350050727
 31
0.0
  0
LINE
  5
238C8
  8
0
 10
621.0162881512625
 20
-511.7713443122502
 30
0.0
 11
620.5162881512625
 21
-511.6713431488531
 31
0.0
  0
LINE
  5
238C9
  8
0
 10
617.0162881512625
 20
-512.5713350050727
 30
0.0
 11
621.0162881512625
 21
-511.7713443122502
 31
0.0
  0
LINE
  5
238CA
  8
0
 10
617.5162881512625
 20
-514.2713361684698
 30
0.0
 11
617.0162881512625
 21
-514.1713350050727
 31
0.0
  0
LINE
  5
238CB
  8
0
 10
617.0162881512625
 20
-514.1713350050727
 30
0.0
 11
621.0162881512625
 21
-513.3713443122502
 31
0.0
  0
LINE
  5
238CC
  8
0
 10
621.0162881512625
 20
-513.3713443122502
 30
0.0
 11
620.5162881512625
 21
-513.271343148853
 31
0.0
  0
LINE
  5
238CD
  8
0
 10
617.5162881512625
 20
-522.27133616847
 30
0.0
 11
617.0162881512625
 21
-522.1713350050728
 31
0.0
  0
LINE
  5
238CE
  8
0
 10
621.0162881512625
 20
-521.3713443122504
 30
0.0
 11
620.5162881512625
 21
-521.271343148853
 31
0.0
  0
LINE
  5
238CF
  8
0
 10
621.0162881512625
 20
-519.7713443122502
 30
0.0
 11
620.5162881512625
 21
-519.6713431488531
 31
0.0
  0
LINE
  5
238D0
  8
0
 10
617.5162881512625
 20
-520.6713361684699
 30
0.0
 11
617.0162881512625
 21
-520.5713350050727
 31
0.0
  0
LINE
  5
238D1
  8
0
 10
617.5162881512625
 20
-519.07133616847
 30
0.0
 11
617.0162881512625
 21
-518.9713350050728
 31
0.0
  0
LINE
  5
238D2
  8
0
 10
617.0162881512625
 20
-520.5713350050727
 30
0.0
 11
621.0162881512625
 21
-519.7713443122502
 31
0.0
  0
LINE
  5
238D3
  8
0
 10
617.0162881512625
 20
-522.1713350050728
 30
0.0
 11
621.0162881512625
 21
-521.3713443122504
 31
0.0
  0
LINE
  5
238D4
  8
0
 10
617.5162881512625
 20
-517.4713361684701
 30
0.0
 11
617.0162881512625
 21
-517.3713350050728
 31
0.0
  0
LINE
  5
238D5
  8
0
 10
617.5162881512625
 20
-509.27133616847
 30
0.0
 11
617.0162881512625
 21
-509.1713350050729
 31
0.0
  0
LINE
  5
238D6
  8
0
 10
617.0162881512625
 20
-509.1713350050729
 30
0.0
 11
620.7898810990586
 21
-508.3713437854476
 31
0.0
  0
LINE
  5
238D7
  8
0
 10
620.7898810990586
 20
-508.3713437854476
 30
0.0
 11
620.2532873637874
 21
-508.2420730878177
 31
0.0
  0
LINE
  5
238D8
  8
0
 10
621.0162881512625
 20
-516.5713443122503
 30
0.0
 11
620.5162881512625
 21
-516.4713431488533
 31
0.0
  0
LINE
  5
238D9
  8
0
 10
621.0162881512625
 20
-514.9713443122503
 30
0.0
 11
620.5162881512625
 21
-514.8713431488532
 31
0.0
  0
LINE
  5
238DA
  8
0
 10
617.5162881512625
 20
-515.87133616847
 30
0.0
 11
617.0162881512625
 21
-515.7713350050727
 31
0.0
  0
LINE
  5
238DB
  8
0
 10
617.0162881512625
 20
-515.7713350050727
 30
0.0
 11
621.0162881512625
 21
-514.9713443122503
 31
0.0
  0
LINE
  5
238DC
  8
0
 10
617.0162881512625
 20
-517.3713350050728
 30
0.0
 11
621.0162881512625
 21
-516.5713443122503
 31
0.0
  0
LINE
  5
238DD
  8
0
 10
617.4691042933213
 20
-507.5713360586831
 30
0.0
 11
620.3370669946518
 21
-506.771342731842
 31
0.0
  0
LINE
  5
238DE
  8
0
 10
617.9219178013695
 20
-505.9713371122873
 30
0.0
 11
619.884252890245
 21
-505.1713416782363
 31
0.0
  0
LINE
  5
238DF
  8
0
 10
620.3370669946518
 20
-506.771342731842
 30
0.0
 11
619.7853175308485
 21
-506.588578589214
 31
0.0
  0
LINE
  5
238E0
  8
0
 10
618.3790896420006
 20
-506.1227729087277
 30
0.0
 11
617.9219178013695
 21
-505.9713371122873
 31
0.0
  0
LINE
  5
238E1
  8
0
 10
619.884252890245
 20
-505.1713416782363
 30
0.0
 11
619.2959763152026
 21
-504.8595718219842
 31
0.0
  0
LINE
  5
238E2
  8
0
 10
617.9372027484712
 20
-507.6841055710331
 30
0.0
 11
617.4691042933213
 21
-507.5713360586831
 31
0.0
  0
LINE
  5
238E3
  8
0
 10
621.0162881512625
 20
-518.1713443122503
 30
0.0
 11
620.5162881512625
 21
-518.071343148853
 31
0.0
  0
LINE
  5
238E4
  8
0
 10
617.0162881512625
 20
-518.9713350050728
 30
0.0
 11
621.0162881512625
 21
-518.1713443122503
 31
0.0
  0
LINE
  5
238E5
  8
0
 10
620.5162881512625
 20
-535.87134314887
 30
0.0
 11
621.0162881512625
 21
-535.7713443122677
 31
0.0
  0
LINE
  5
238E6
  8
0
 10
617.0162881512625
 20
-534.9713350050815
 30
0.0
 11
621.0162881512625
 21
-534.1713443122634
 31
0.0
  0
LINE
  5
238E7
  8
0
 10
617.0162881512625
 20
-531.7713350050815
 30
0.0
 11
621.0162881512625
 21
-530.9713443122633
 31
0.0
  0
LINE
  5
238E8
  8
0
 10
621.0162881512625
 20
-530.9713443122633
 30
0.0
 11
620.5162881512625
 21
-530.8713431488657
 31
0.0
  0
LINE
  5
238E9
  8
0
 10
621.0162881512625
 20
-534.1713443122634
 30
0.0
 11
620.5162881512625
 21
-534.0713431488657
 31
0.0
  0
LINE
  5
238EA
  8
0
 10
617.5162881512625
 20
-533.4713361684793
 30
0.0
 11
617.0162881512625
 21
-533.3713350050816
 31
0.0
  0
LINE
  5
238EB
  8
0
 10
621.0162881512625
 20
-532.5713443122635
 30
0.0
 11
620.5162881512625
 21
-532.4713431488658
 31
0.0
  0
LINE
  5
238EC
  8
0
 10
617.0162881512625
 20
-533.3713350050816
 30
0.0
 11
621.0162881512625
 21
-532.5713443122635
 31
0.0
  0
LINE
  5
238ED
  8
0
 10
617.5162881512625
 20
-531.8713361684792
 30
0.0
 11
617.0162881512625
 21
-531.7713350050815
 31
0.0
  0
LINE
  5
238EE
  8
0
 10
621.0162881512625
 20
-535.7713443122677
 30
0.0
 11
620.5162881512625
 21
-535.67134314887
 31
0.0
  0
LINE
  5
238EF
  8
0
 10
617.5162881512625
 20
-535.0713361684792
 30
0.0
 11
617.0162881512625
 21
-534.9713350050815
 31
0.0
  0
LINE
  5
238F0
  8
0
 10
615.0162416153646
 20
-538.5713303512664
 30
0.0
 11
623.0162416153646
 21
-538.5713489656256
 31
0.0
  0
LINE
  5
238F1
  8
0
 10
617.5162881512625
 20
-530.2713361684748
 30
0.0
 11
617.0162881512625
 21
-530.1713350050771
 31
0.0
  0
LINE
  5
238F2
  8
0
 10
617.5162881512625
 20
-528.6713361684705
 30
0.0
 11
617.0162881512625
 21
-528.5713350050728
 31
0.0
  0
LINE
  5
238F3
  8
0
 10
621.0162881512625
 20
-529.371344312259
 30
0.0
 11
620.5162881512625
 21
-529.2713431488613
 31
0.0
  0
LINE
  5
238F4
  8
0
 10
617.5162881512625
 20
-525.4713361684704
 30
0.0
 11
617.0162881512625
 21
-525.3713350050728
 31
0.0
  0
LINE
  5
238F5
  8
0
 10
617.0162881512625
 20
-526.9713350050729
 30
0.0
 11
621.0162881512625
 21
-526.1713443122547
 31
0.0
  0
LINE
  5
238F6
  8
0
 10
621.0162881512625
 20
-526.1713443122547
 30
0.0
 11
620.5162881512625
 21
-526.0713431488571
 31
0.0
  0
LINE
  5
238F7
  8
0
 10
617.5162881512625
 20
-527.0713361684706
 30
0.0
 11
617.0162881512625
 21
-526.9713350050729
 31
0.0
  0
LINE
  5
238F8
  8
0
 10
621.0162881512625
 20
-527.7713443122547
 30
0.0
 11
620.5162881512625
 21
-527.671343148857
 31
0.0
  0
LINE
  5
238F9
  8
0
 10
621.0162881512625
 20
-522.9713443122503
 30
0.0
 11
620.5162881512625
 21
-522.8713431488532
 31
0.0
  0
LINE
  5
238FA
  8
0
 10
621.0162881512625
 20
-524.5713443122546
 30
0.0
 11
620.5162881512625
 21
-524.4713431488569
 31
0.0
  0
LINE
  5
238FB
  8
0
 10
617.5162881512625
 20
-523.8713361684705
 30
0.0
 11
617.0162881512625
 21
-523.7713350050727
 31
0.0
  0
LINE
  5
238FC
  8
0
 10
617.0162881512625
 20
-523.7713350050727
 30
0.0
 11
621.0162881512625
 21
-522.9713443122503
 31
0.0
  0
LINE
  5
238FD
  8
0
 10
617.0162881512625
 20
-525.3713350050728
 30
0.0
 11
621.0162881512625
 21
-524.5713443122546
 31
0.0
  0
LINE
  5
238FE
  8
0
 10
617.0162881512625
 20
-528.5713350050728
 30
0.0
 11
621.0162881512625
 21
-527.7713443122547
 31
0.0
  0
LINE
  5
238FF
  8
0
 10
617.0162881512625
 20
-530.1713350050771
 30
0.0
 11
621.0162881512625
 21
-529.371344312259
 31
0.0
  0
LINE
  5
23901
  8
1CENTER
 10
768.422993515244
 20
-710.840928173805
 30
0.0
 11
730.5898604678692
 21
-710.840928173805
 31
0.0
  0
LINE
  5
23902
  8
0
 10
759.7685008145831
 20
-709.3409747097029
 30
0.0
 11
759.8685019779803
 21
-708.8409747097029
 31
0.0
  0
LINE
  5
23903
  8
0
 10
759.8685019779803
 20
-708.8409747097029
 30
0.0
 11
760.6684926708028
 21
-712.8409747097029
 31
0.0
  0
LINE
  5
23904
  8
0
 10
760.6684926708028
 20
-712.8409747097029
 30
0.0
 11
760.7684938342
 21
-712.3409747097029
 31
0.0
  0
LINE
  5
23905
  8
0
 10
758.1685008145832
 20
-709.3409747097029
 30
0.0
 11
758.2685019779803
 21
-708.8409747097029
 31
0.0
  0
LINE
  5
23906
  8
0
 10
759.0684926708029
 20
-712.8409747097029
 30
0.0
 11
759.1684938342
 21
-712.3409747097029
 31
0.0
  0
LINE
  5
23907
  8
0
 10
758.2685019779803
 20
-708.8409747097029
 30
0.0
 11
759.0684926708029
 21
-712.8409747097029
 31
0.0
  0
LINE
  5
23908
  8
0
 10
756.5685008145831
 20
-709.3409747097029
 30
0.0
 11
756.6685019779802
 21
-708.8409747097029
 31
0.0
  0
LINE
  5
23909
  8
0
 10
756.6685019779802
 20
-708.8409747097029
 30
0.0
 11
757.4684926708028
 21
-712.8409747097029
 31
0.0
  0
LINE
  5
2390A
  8
0
 10
757.4684926708028
 20
-712.8409747097029
 30
0.0
 11
757.5684938341999
 21
-712.3409747097029
 31
0.0
  0
LINE
  5
2390B
  8
0
 10
748.5685008145831
 20
-709.3409747097029
 30
0.0
 11
748.6685019779802
 21
-708.8409747097029
 31
0.0
  0
LINE
  5
2390C
  8
0
 10
749.4684926708028
 20
-712.8409747097029
 30
0.0
 11
749.5684938341999
 21
-712.3409747097029
 31
0.0
  0
LINE
  5
2390D
  8
0
 10
751.0684926708029
 20
-712.8409747097029
 30
0.0
 11
751.1684938342
 21
-712.3409747097029
 31
0.0
  0
LINE
  5
2390E
  8
0
 10
750.1685008145832
 20
-709.3409747097029
 30
0.0
 11
750.2685019779803
 21
-708.8409747097029
 31
0.0
  0
LINE
  5
2390F
  8
0
 10
751.7685008145831
 20
-709.3409747097029
 30
0.0
 11
751.8685019779803
 21
-708.8409747097029
 31
0.0
  0
LINE
  5
23910
  8
0
 10
750.2685019779803
 20
-708.8409747097029
 30
0.0
 11
751.0684926708029
 21
-712.8409747097029
 31
0.0
  0
LINE
  5
23911
  8
0
 10
748.6685019779802
 20
-708.8409747097029
 30
0.0
 11
749.4684926708028
 21
-712.8409747097029
 31
0.0
  0
LINE
  5
23912
  8
0
 10
753.3685008145831
 20
-709.3409747097029
 30
0.0
 11
753.4685019779802
 21
-708.8409747097029
 31
0.0
  0
LINE
  5
23913
  8
0
 10
761.5685008145831
 20
-709.3409747097029
 30
0.0
 11
761.6685019779802
 21
-708.8409747097029
 31
0.0
  0
LINE
  5
23914
  8
0
 10
761.6685019779802
 20
-708.8409747097029
 30
0.0
 11
762.4684931976054
 21
-712.6145676574989
 31
0.0
  0
LINE
  5
23915
  8
0
 10
762.4684931976054
 20
-712.6145676574989
 30
0.0
 11
762.5977638952353
 21
-712.0779739222278
 31
0.0
  0
LINE
  5
23916
  8
0
 10
754.2684926708027
 20
-712.8409747097029
 30
0.0
 11
754.3684938341999
 21
-712.3409747097029
 31
0.0
  0
LINE
  5
23917
  8
0
 10
755.8684926708029
 20
-712.8409747097029
 30
0.0
 11
755.9684938342
 21
-712.3409747097029
 31
0.0
  0
LINE
  5
23918
  8
0
 10
754.9685008145832
 20
-709.3409747097029
 30
0.0
 11
755.0685019779803
 21
-708.8409747097029
 31
0.0
  0
LINE
  5
23919
  8
0
 10
755.0685019779803
 20
-708.8409747097029
 30
0.0
 11
755.8684926708029
 21
-712.8409747097029
 31
0.0
  0
LINE
  5
2391A
  8
0
 10
753.4685019779802
 20
-708.8409747097029
 30
0.0
 11
754.2684926708027
 21
-712.8409747097029
 31
0.0
  0
LINE
  5
2391B
  8
0
 10
763.26850092437
 20
-709.2937908517616
 30
0.0
 11
764.0684942512111
 21
-712.1617535530921
 31
0.0
  0
LINE
  5
2391C
  8
0
 10
764.8684998707657
 20
-709.7466043598099
 30
0.0
 11
765.6684953048167
 21
-711.7089394486853
 31
0.0
  0
LINE
  5
2391D
  8
0
 10
764.0684942512111
 20
-712.1617535530921
 30
0.0
 11
764.2512583938391
 21
-711.6100040892889
 31
0.0
  0
LINE
  5
2391E
  8
0
 10
764.7170640743253
 20
-710.203776200441
 30
0.0
 11
764.8684998707657
 21
-709.7466043598099
 31
0.0
  0
LINE
  5
2391F
  8
0
 10
765.6684953048167
 20
-711.7089394486853
 30
0.0
 11
765.9802651610688
 21
-711.1206628736429
 31
0.0
  0
LINE
  5
23920
  8
0
 10
763.1557314120199
 20
-709.7618893069116
 30
0.0
 11
763.26850092437
 21
-709.2937908517616
 31
0.0
  0
LINE
  5
23921
  8
0
 10
752.6684926708028
 20
-712.8409747097029
 30
0.0
 11
752.7684938342
 21
-712.3409747097029
 31
0.0
  0
LINE
  5
23922
  8
0
 10
751.8685019779803
 20
-708.8409747097029
 30
0.0
 11
752.6684926708028
 21
-712.8409747097029
 31
0.0
  0
LINE
  5
23923
  8
0
 10
734.968493834183
 20
-712.3409747097029
 30
0.0
 11
735.0684926707853
 21
-712.8409747097029
 31
0.0
  0
LINE
  5
23924
  8
0
 10
735.8685019779715
 20
-708.8409747097029
 30
0.0
 11
736.6684926707896
 21
-712.8409747097029
 31
0.0
  0
LINE
  5
23925
  8
0
 10
739.0685019779716
 20
-708.8409747097029
 30
0.0
 11
739.8684926707897
 21
-712.8409747097029
 31
0.0
  0
LINE
  5
23926
  8
0
 10
739.8684926707897
 20
-712.8409747097029
 30
0.0
 11
739.9684938341874
 21
-712.3409747097029
 31
0.0
  0
LINE
  5
23927
  8
0
 10
736.6684926707896
 20
-712.8409747097029
 30
0.0
 11
736.7684938341873
 21
-712.3409747097029
 31
0.0
  0
LINE
  5
23928
  8
0
 10
737.3685008145737
 20
-709.3409747097029
 30
0.0
 11
737.4685019779714
 21
-708.8409747097029
 31
0.0
  0
LINE
  5
23929
  8
0
 10
738.2684926707896
 20
-712.8409747097029
 30
0.0
 11
738.3684938341872
 21
-712.3409747097029
 31
0.0
  0
LINE
  5
2392A
  8
0
 10
737.4685019779714
 20
-708.8409747097029
 30
0.0
 11
738.2684926707896
 21
-712.8409747097029
 31
0.0
  0
LINE
  5
2392B
  8
0
 10
738.9685008145739
 20
-709.3409747097029
 30
0.0
 11
739.0685019779716
 21
-708.8409747097029
 31
0.0
  0
LINE
  5
2392C
  8
0
 10
735.0684926707853
 20
-712.8409747097029
 30
0.0
 11
735.168493834183
 21
-712.3409747097029
 31
0.0
  0
LINE
  5
2392D
  8
0
 10
735.7685008145738
 20
-709.3409747097029
 30
0.0
 11
735.8685019779715
 21
-708.8409747097029
 31
0.0
  0
LINE
  5
2392E
  8
0
 10
732.2685066317866
 20
-706.840928173805
 30
0.0
 11
732.2684880174274
 21
-714.840928173805
 31
0.0
  0
LINE
  5
2392F
  8
0
 10
740.5685008145781
 20
-709.3409747097029
 30
0.0
 11
740.6685019779759
 21
-708.8409747097029
 31
0.0
  0
LINE
  5
23930
  8
0
 10
742.1685008145826
 20
-709.3409747097029
 30
0.0
 11
742.2685019779802
 21
-708.8409747097029
 31
0.0
  0
LINE
  5
23931
  8
0
 10
741.468492670794
 20
-712.8409747097029
 30
0.0
 11
741.5684938341917
 21
-712.3409747097029
 31
0.0
  0
LINE
  5
23932
  8
0
 10
745.3685008145826
 20
-709.3409747097029
 30
0.0
 11
745.4685019779803
 21
-708.8409747097029
 31
0.0
  0
LINE
  5
23933
  8
0
 10
743.8685019779801
 20
-708.8409747097029
 30
0.0
 11
744.6684926707983
 21
-712.8409747097029
 31
0.0
  0
LINE
  5
23934
  8
0
 10
744.6684926707983
 20
-712.8409747097029
 30
0.0
 11
744.7684938341961
 21
-712.3409747097029
 31
0.0
  0
LINE
  5
23935
  8
0
 10
743.7685008145825
 20
-709.3409747097029
 30
0.0
 11
743.8685019779801
 21
-708.8409747097029
 31
0.0
  0
LINE
  5
23936
  8
0
 10
743.0684926707984
 20
-712.8409747097029
 30
0.0
 11
743.1684938341962
 21
-712.3409747097029
 31
0.0
  0
LINE
  5
23937
  8
0
 10
747.8684926708028
 20
-712.8409747097029
 30
0.0
 11
747.9684938342
 21
-712.3409747097029
 31
0.0
  0
LINE
  5
23938
  8
0
 10
746.2684926707984
 20
-712.8409747097029
 30
0.0
 11
746.3684938341962
 21
-712.3409747097029
 31
0.0
  0
LINE
  5
23939
  8
0
 10
746.9685008145825
 20
-709.3409747097029
 30
0.0
 11
747.0685019779803
 21
-708.8409747097029
 31
0.0
  0
LINE
  5
2393A
  8
0
 10
747.0685019779803
 20
-708.8409747097029
 30
0.0
 11
747.8684926708028
 21
-712.8409747097029
 31
0.0
  0
LINE
  5
2393B
  8
0
 10
745.4685019779803
 20
-708.8409747097029
 30
0.0
 11
746.2684926707984
 21
-712.8409747097029
 31
0.0
  0
LINE
  5
2393C
  8
0
 10
742.2685019779802
 20
-708.8409747097029
 30
0.0
 11
743.0684926707984
 21
-712.8409747097029
 31
0.0
  0
LINE
  5
2393D
  8
0
 10
740.6685019779759
 20
-708.8409747097029
 30
0.0
 11
741.468492670794
 21
-712.8409747097029
 31
0.0
  0
LINE
  5
2393F
  8
1CENTER
 10
419.0162416153648
 20
-502.4168434678091
 30
0.0
 11
419.0162416153647
 21
-540.2499765151839
 31
0.0
  0
LINE
  5
23940
  8
0
 10
417.5162881512627
 20
-511.0713361684699
 30
0.0
 11
417.0162881512627
 21
-510.9713350050728
 31
0.0
  0
LINE
  5
23941
  8
0
 10
417.0162881512627
 20
-510.9713350050728
 30
0.0
 11
421.0162881512627
 21
-510.1713443122503
 31
0.0
  0
LINE
  5
23942
  8
0
 10
421.0162881512627
 20
-510.1713443122503
 30
0.0
 11
420.5162881512627
 21
-510.0713431488531
 31
0.0
  0
LINE
  5
23943
  8
0
 10
417.5162881512626
 20
-512.6713361684699
 30
0.0
 11
417.0162881512626
 21
-512.5713350050728
 31
0.0
  0
LINE
  5
23944
  8
0
 10
421.0162881512627
 20
-511.7713443122503
 30
0.0
 11
420.5162881512627
 21
-511.6713431488532
 31
0.0
  0
LINE
  5
23945
  8
0
 10
417.0162881512626
 20
-512.5713350050728
 30
0.0
 11
421.0162881512627
 21
-511.7713443122503
 31
0.0
  0
LINE
  5
23946
  8
0
 10
417.5162881512626
 20
-514.27133616847
 30
0.0
 11
417.0162881512626
 21
-514.1713350050728
 31
0.0
  0
LINE
  5
23947
  8
0
 10
417.0162881512626
 20
-514.1713350050728
 30
0.0
 11
421.0162881512626
 21
-513.3713443122504
 31
0.0
  0
LINE
  5
23948
  8
0
 10
421.0162881512626
 20
-513.3713443122504
 30
0.0
 11
420.5162881512626
 21
-513.2713431488532
 31
0.0
  0
LINE
  5
23949
  8
0
 10
417.5162881512626
 20
-522.27133616847
 30
0.0
 11
417.0162881512626
 21
-522.1713350050729
 31
0.0
  0
LINE
  5
2394A
  8
0
 10
421.0162881512626
 20
-521.3713443122505
 30
0.0
 11
420.5162881512626
 21
-521.2713431488532
 31
0.0
  0
LINE
  5
2394B
  8
0
 10
421.0162881512626
 20
-519.7713443122503
 30
0.0
 11
420.5162881512626
 21
-519.6713431488531
 31
0.0
  0
LINE
  5
2394C
  8
0
 10
417.5162881512626
 20
-520.6713361684699
 30
0.0
 11
417.0162881512626
 21
-520.5713350050728
 31
0.0
  0
LINE
  5
2394D
  8
0
 10
417.5162881512626
 20
-519.07133616847
 30
0.0
 11
417.0162881512626
 21
-518.9713350050729
 31
0.0
  0
LINE
  5
2394E
  8
0
 10
417.0162881512626
 20
-520.5713350050728
 30
0.0
 11
421.0162881512626
 21
-519.7713443122503
 31
0.0
  0
LINE
  5
2394F
  8
0
 10
417.0162881512626
 20
-522.1713350050729
 30
0.0
 11
421.0162881512626
 21
-521.3713443122505
 31
0.0
  0
LINE
  5
23950
  8
0
 10
417.5162881512626
 20
-517.4713361684701
 30
0.0
 11
417.0162881512626
 21
-517.3713350050729
 31
0.0
  0
LINE
  5
23951
  8
0
 10
417.5162881512627
 20
-509.2713361684701
 30
0.0
 11
417.0162881512627
 21
-509.171335005073
 31
0.0
  0
LINE
  5
23952
  8
0
 10
417.0162881512627
 20
-509.171335005073
 30
0.0
 11
420.7898810990587
 21
-508.3713437854477
 31
0.0
  0
LINE
  5
23953
  8
0
 10
420.7898810990587
 20
-508.3713437854477
 30
0.0
 11
420.2532873637876
 21
-508.2420730878179
 31
0.0
  0
LINE
  5
23954
  8
0
 10
421.0162881512626
 20
-516.5713443122504
 30
0.0
 11
420.5162881512626
 21
-516.4713431488533
 31
0.0
  0
LINE
  5
23955
  8
0
 10
421.0162881512626
 20
-514.9713443122504
 30
0.0
 11
420.5162881512626
 21
-514.8713431488532
 31
0.0
  0
LINE
  5
23956
  8
0
 10
417.5162881512626
 20
-515.87133616847
 30
0.0
 11
417.0162881512626
 21
-515.7713350050728
 31
0.0
  0
LINE
  5
23957
  8
0
 10
417.0162881512626
 20
-515.7713350050728
 30
0.0
 11
421.0162881512626
 21
-514.9713443122504
 31
0.0
  0
LINE
  5
23958
  8
0
 10
417.0162881512626
 20
-517.3713350050729
 30
0.0
 11
421.0162881512626
 21
-516.5713443122504
 31
0.0
  0
LINE
  5
23959
  8
0
 10
417.4691042933214
 20
-507.5713360586832
 30
0.0
 11
420.3370669946519
 21
-506.7713427318421
 31
0.0
  0
LINE
  5
2395A
  8
0
 10
417.9219178013697
 20
-505.9713371122874
 30
0.0
 11
419.8842528902451
 21
-505.1713416782364
 31
0.0
  0
LINE
  5
2395B
  8
0
 10
420.3370669946519
 20
-506.7713427318421
 30
0.0
 11
419.7853175308487
 21
-506.5885785892141
 31
0.0
  0
LINE
  5
2395C
  8
0
 10
418.3790896420008
 20
-506.1227729087278
 30
0.0
 11
417.9219178013697
 21
-505.9713371122874
 31
0.0
  0
LINE
  5
2395D
  8
0
 10
419.8842528902451
 20
-505.1713416782364
 30
0.0
 11
419.2959763152027
 21
-504.8595718219843
 31
0.0
  0
LINE
  5
2395E
  8
0
 10
417.9372027484714
 20
-507.6841055710332
 30
0.0
 11
417.4691042933214
 21
-507.5713360586832
 31
0.0
  0
LINE
  5
2395F
  8
0
 10
421.0162881512626
 20
-518.1713443122504
 30
0.0
 11
420.5162881512626
 21
-518.0713431488532
 31
0.0
  0
LINE
  5
23960
  8
0
 10
417.0162881512626
 20
-518.9713350050729
 30
0.0
 11
421.0162881512626
 21
-518.1713443122504
 31
0.0
  0
LINE
  5
23961
  8
0
 10
420.5162881512626
 20
-535.8713431488701
 30
0.0
 11
421.0162881512626
 21
-535.7713443122678
 31
0.0
  0
LINE
  5
23962
  8
0
 10
417.0162881512626
 20
-534.9713350050816
 30
0.0
 11
421.0162881512626
 21
-534.1713443122635
 31
0.0
  0
LINE
  5
23963
  8
0
 10
417.0162881512626
 20
-531.7713350050816
 30
0.0
 11
421.0162881512626
 21
-530.9713443122635
 31
0.0
  0
LINE
  5
23964
  8
0
 10
421.0162881512626
 20
-530.9713443122635
 30
0.0
 11
420.5162881512626
 21
-530.8713431488658
 31
0.0
  0
LINE
  5
23965
  8
0
 10
421.0162881512626
 20
-534.1713443122635
 30
0.0
 11
420.5162881512626
 21
-534.0713431488658
 31
0.0
  0
LINE
  5
23966
  8
0
 10
417.5162881512626
 20
-533.4713361684794
 30
0.0
 11
417.0162881512626
 21
-533.3713350050817
 31
0.0
  0
LINE
  5
23967
  8
0
 10
421.0162881512626
 20
-532.5713443122636
 30
0.0
 11
420.5162881512626
 21
-532.4713431488659
 31
0.0
  0
LINE
  5
23968
  8
0
 10
417.0162881512626
 20
-533.3713350050817
 30
0.0
 11
421.0162881512626
 21
-532.5713443122636
 31
0.0
  0
LINE
  5
23969
  8
0
 10
417.5162881512626
 20
-531.8713361684793
 30
0.0
 11
417.0162881512626
 21
-531.7713350050816
 31
0.0
  0
LINE
  5
2396A
  8
0
 10
421.0162881512626
 20
-535.7713443122678
 30
0.0
 11
420.5162881512626
 21
-535.6713431488702
 31
0.0
  0
LINE
  5
2396B
  8
0
 10
417.5162881512626
 20
-535.0713361684793
 30
0.0
 11
417.0162881512626
 21
-534.9713350050816
 31
0.0
  0
LINE
  5
2396C
  8
0
 10
415.0162416153647
 20
-538.5713303512665
 30
0.0
 11
423.0162416153647
 21
-538.5713489656257
 31
0.0
  0
LINE
  5
2396D
  8
0
 10
417.5162881512626
 20
-530.2713361684749
 30
0.0
 11
417.0162881512626
 21
-530.1713350050773
 31
0.0
  0
LINE
  5
2396E
  8
0
 10
417.5162881512626
 20
-528.6713361684706
 30
0.0
 11
417.0162881512626
 21
-528.5713350050729
 31
0.0
  0
LINE
  5
2396F
  8
0
 10
421.0162881512626
 20
-529.3713443122591
 30
0.0
 11
420.5162881512626
 21
-529.2713431488614
 31
0.0
  0
LINE
  5
23970
  8
0
 10
417.5162881512626
 20
-525.4713361684705
 30
0.0
 11
417.0162881512626
 21
-525.3713350050729
 31
0.0
  0
LINE
  5
23971
  8
0
 10
417.0162881512626
 20
-526.971335005073
 30
0.0
 11
421.0162881512626
 21
-526.1713443122549
 31
0.0
  0
LINE
  5
23972
  8
0
 10
421.0162881512626
 20
-526.1713443122549
 30
0.0
 11
420.5162881512626
 21
-526.0713431488572
 31
0.0
  0
LINE
  5
23973
  8
0
 10
417.5162881512626
 20
-527.0713361684707
 30
0.0
 11
417.0162881512626
 21
-526.971335005073
 31
0.0
  0
LINE
  5
23974
  8
0
 10
421.0162881512626
 20
-527.7713443122548
 30
0.0
 11
420.5162881512626
 21
-527.6713431488571
 31
0.0
  0
LINE
  5
23975
  8
0
 10
421.0162881512626
 20
-522.9713443122504
 30
0.0
 11
420.5162881512626
 21
-522.8713431488533
 31
0.0
  0
LINE
  5
23976
  8
0
 10
421.0162881512626
 20
-524.5713443122547
 30
0.0
 11
420.5162881512626
 21
-524.471343148857
 31
0.0
  0
LINE
  5
23977
  8
0
 10
417.5162881512626
 20
-523.8713361684706
 30
0.0
 11
417.0162881512626
 21
-523.7713350050728
 31
0.0
  0
LINE
  5
23978
  8
0
 10
417.0162881512626
 20
-523.7713350050728
 30
0.0
 11
421.0162881512626
 21
-522.9713443122504
 31
0.0
  0
LINE
  5
23979
  8
0
 10
417.0162881512626
 20
-525.3713350050729
 30
0.0
 11
421.0162881512626
 21
-524.5713443122547
 31
0.0
  0
LINE
  5
2397A
  8
0
 10
417.0162881512626
 20
-528.5713350050729
 30
0.0
 11
421.0162881512626
 21
-527.7713443122548
 31
0.0
  0
LINE
  5
2397B
  8
0
 10
417.0162881512626
 20
-530.1713350050773
 30
0.0
 11
421.0162881512626
 21
-529.3713443122591
 31
0.0
  0
LINE
  5
2397C
  8
1DIM1
 10
403.0162416153651
 20
-766.340928173805
 30
0.0
 11
403.0162416153651
 21
-823.0783454266345
 31
0.0
1001
ACAD
1000
DSTYLE
1002
{
1070
    70
1070
     0
1070
    69
1070
     0
1070
    45
1040
0.5
1070
    40
1040
3.0
1002
}
  0
LINE
  5
2397D
  8
1DIM1
 10
635.0162416153646
 20
-766.340928173805
 30
0.0
 11
635.0162416153646
 21
-823.0783454266345
 31
0.0
1001
ACAD
1000
DSTYLE
1002
{
1070
    70
1070
     0
1070
    69
1070
     0
1070
    45
1040
0.5
1070
    40
1040
3.0
1002
}
  0
LINE
  5
2397E
  8
1DIM1
 10
409.0162416153651
 20
-820.0783454266345
 30
0.0
 11
629.0162416153646
 21
-820.0783454266345
 31
0.0
1001
ACAD
1000
DSTYLE
1002
{
1070
    70
1070
     0
1070
    69
1070
     0
1070
    45
1040
0.5
1070
    40
1040
3.0
1002
}
  0
LINE
  5
23982
  8
1DIM
 10
728.5185066317865
 20
-766.840928173805
 30
0.0
 11
787.0185066317865
 21
-766.840928173805
 31
0.0
1001
ACAD
1000
DSTYLE
1002
{
1070
    70
1070
     0
1070
    69
1070
     0
1070
    45
1040
0.5
1002
}
  0
LINE
  5
23983
  8
1DIM
 10
728.5185066317865
 20
-633.8409281738041
 30
0.0
 11
787.0185066317865
 21
-633.8409281738041
 31
0.0
1001
ACAD
1000
DSTYLE
1002
{
1070
    70
1070
     0
1070
    69
1070
     0
1070
    45
1040
0.5
1002
}
  0
LINE
  5
23984
  8
1DIM
 10
786.0185066317865
 20
-764.840928173805
 30
0.0
 11
786.0185066317865
 21
-635.8409281738041
 31
0.0
1001
ACAD
1000
DSTYLE
1002
{
1070
    70
1070
     0
1070
    69
1070
     0
1070
    45
1040
0.5
1002
}
  0
LINE
  5
23988
  8
1DIM
 10
722.5185066317865
 20
-758.840928173805
 30
0.0
 11
779.0233807406964
 21
-758.840928173805
 31
0.0
  0
LINE
  5
23989
  8
1DIM
 10
728.5185066317865
 20
-633.8409281738041
 30
0.0
 11
779.0233807406964
 21
-633.8409281738041
 31
0.0
  0
LINE
  5
2398A
  8
1DIM
 10
778.0233807406964
 20
-756.840928173805
 30
0.0
 11
778.0233807406964
 21
-635.8409281738041
 31
0.0
  0
LINE
  5
2398E
  8
0
  6
BYBLOCK
 10
425.0162416153647
 20
-798.2483416143858
 30
0.0
 11
419.0162416153647
 21
-796.6406464743858
 31
0.0
  0
LINE
  5
2398F
  8
0
  6
BYBLOCK
 10
419.0162416153647
 20
-796.6406464743858
 30
0.0
 11
425.0162416153647
 21
-795.0329513343858
 31
0.0
  0
LINE
  5
23990
  8
0
  6
BYBLOCK
 10
419.0162416153647
 20
-796.6406464743858
 30
0.0
 11
425.0162416153647
 21
-796.6406464743858
 31
0.0
  0
LINE
  5
23991
  8
0
  6
BYBLOCK
 10
613.0162416153648
 20
-795.0329513343858
 30
0.0
 11
619.0162416153648
 21
-796.6406464743858
 31
0.0
  0
LINE
  5
23992
  8
0
  6
BYBLOCK
 10
619.0162416153648
 20
-796.6406464743858
 30
0.0
 11
613.0162416153648
 21
-798.2483416143858
 31
0.0
  0
LINE
  5
23993
  8
0
  6
BYBLOCK
 10
619.0162416153648
 20
-796.6406464743858
 30
0.0
 11
613.0162416153648
 21
-796.6406464743858
 31
0.0
  0
TEXT
  5
23994
  8
1DIM1
  6
CONTINUOUS
 10
501.2974916153648
 20
-794.5406464743858
 30
0.0
 40
10.5
  1
P200
1001
ACAD
1000
DSTYLE
1002
{
1070
    45
1040
0.5
1070
    40
1040
3.0
1002
}
  0
LINE
  5
23995
  8
0
  6
BYBLOCK
 10
658.1676562701518
 20
-611.1361388929353
 30
0.0
 11
656.1676562701518
 21
-610.6002405129352
 31
0.0
  0
LINE
  5
23996
  8
0
  6
BYBLOCK
 10
656.1676562701518
 20
-610.6002405129352
 30
0.0
 11
658.1676562701518
 21
-610.0643421329352
 31
0.0
  0
LINE
  5
23997
  8
0
  6
BYBLOCK
 10
656.1676562701518
 20
-610.6002405129352
 30
0.0
 11
658.1676562701518
 21
-610.6002405129352
 31
0.0
  0
LINE
  5
23998
  8
0
  6
BYBLOCK
 10
732.5185066317865
 20
-610.0643421329352
 30
0.0
 11
734.5185066317865
 21
-610.6002405129352
 31
0.0
  0
LINE
  5
23999
  8
0
  6
BYBLOCK
 10
734.5185066317865
 20
-610.6002405129352
 30
0.0
 11
732.5185066317865
 21
-611.1361388929353
 31
0.0
  0
LINE
  5
2399A
  8
0
  6
BYBLOCK
 10
734.5185066317865
 20
-610.6002405129352
 30
0.0
 11
732.5185066317865
 21
-610.6002405129352
 31
0.0
  0
TEXT
  5
2399B
  8
1DIM
  6
CONTINUOUS
 10
690.0930814509692
 20
-609.9002405129353
 30
0.0
 40
3.5
  1
78.5
1001
ACAD
1000
DSTYLE
1002
{
1070
    45
1040
0.5
1002
}
  0
LINE
  5
2399C
  8
0
  6
BYBLOCK
 10
729.5185066317865
 20
-618.3244388642804
 30
0.0
 11
731.5185066317865
 21
-618.8603372442805
 31
0.0
  0
LINE
  5
2399D
  8
0
  6
BYBLOCK
 10
731.5185066317865
 20
-618.8603372442805
 30
0.0
 11
729.5185066317865
 21
-619.3962356242805
 31
0.0
  0
LINE
  5
2399E
  8
0
  6
BYBLOCK
 10
731.5185066317865
 20
-618.8603372442805
 30
0.0
 11
729.5185066317865
 21
-618.8603372442805
 31
0.0
  0
LINE
  5
2399F
  8
0
  6
BYBLOCK
 10
664.5185066317865
 20
-619.3962356242805
 30
0.0
 11
662.5185066317865
 21
-618.8603372442805
 31
0.0
  0
LINE
  5
239A0
  8
0
  6
BYBLOCK
 10
662.5185066317865
 20
-618.8603372442805
 30
0.0
 11
664.5185066317865
 21
-618.3244388642804
 31
0.0
  0
LINE
  5
239A1
  8
0
  6
BYBLOCK
 10
662.5185066317865
 20
-618.8603372442805
 30
0.0
 11
664.5185066317865
 21
-618.8603372442805
 31
0.0
  0
TEXT
  5
239A2
  8
1DIM
  6
CONTINUOUS
 10
694.0888770021569
 20
-618.1603372442804
 30
0.0
 40
3.5
  1
69
1001
ACAD
1000
DSTYLE
1002
{
1070
    70
1070
     0
1070
    69
1070
     0
1070
    45
1040
0.5
1002
}
  0
LINE
  5
239A3
  8
0
  6
BYBLOCK
 10
771.1791220749562
 20
-708.840928173805
 30
0.0
 11
770.6432236949562
 21
-710.840928173805
 31
0.0
  0
LINE
  5
239A4
  8
0
  6
BYBLOCK
 10
770.6432236949562
 20
-710.840928173805
 30
0.0
 11
770.1073253149561
 21
-708.840928173805
 31
0.0
  0
LINE
  5
239A5
  8
0
  6
BYBLOCK
 10
770.6432236949562
 20
-710.840928173805
 30
0.0
 11
770.6432236949562
 21
-708.840928173805
 31
0.0
  0
LINE
  5
239A6
  8
0
  6
BYBLOCK
 10
770.1073253149561
 20
-631.840928173805
 30
0.0
 11
770.6432236949562
 21
-629.840928173805
 31
0.0
  0
LINE
  5
239A7
  8
0
  6
BYBLOCK
 10
770.6432236949562
 20
-629.840928173805
 30
0.0
 11
771.1791220749562
 21
-631.840928173805
 31
0.0
  0
LINE
  5
239A8
  8
0
  6
BYBLOCK
 10
770.6432236949562
 20
-629.840928173805
 30
0.0
 11
770.6432236949562
 21
-631.840928173805
 31
0.0
  0
TEXT
  5
239A9
  8
1DIM
  6
CONTINUOUS
 10
769.9432236949561
 20
-672.6742615071382
 30
0.0
 40
3.5
  1
81
 50
90.0
1001
ACAD
1000
DSTYLE
1002
{
1070
    45
1040
0.5
1070
   271
1070
     0
1002
}
  0
LINE
  5
239AA
  8
0
  6
BYBLOCK
 10
401.0162416153648
 20
-846.0021875036595
 30
0.0
 11
395.0162416153648
 21
-844.3944923636594
 31
0.0
  0
LINE
  5
239AB
  8
0
  6
BYBLOCK
 10
395.0162416153648
 20
-844.3944923636594
 30
0.0
 11
401.0162416153648
 21
-842.7867972236594
 31
0.0
  0
LINE
  5
239AC
  8
0
  6
BYBLOCK
 10
395.0162416153648
 20
-844.3944923636594
 30
0.0
 11
401.0162416153648
 21
-844.3944923636594
 31
0.0
  0
LINE
  5
239AD
  8
0
  6
BYBLOCK
 10
637.0162416153646
 20
-842.7867972236594
 30
0.0
 11
643.0162416153646
 21
-844.3944923636594
 31
0.0
  0
LINE
  5
239AE
  8
0
  6
BYBLOCK
 10
643.0162416153646
 20
-844.3944923636594
 30
0.0
 11
637.0162416153646
 21
-846.0021875036595
 31
0.0
  0
LINE
  5
239AF
  8
0
  6
BYBLOCK
 10
643.0162416153646
 20
-844.3944923636594
 30
0.0
 11
637.0162416153646
 21
-844.3944923636594
 31
0.0
  0
TEXT
  5
239B0
  8
1DIM1
  6
CONTINUOUS
 10
505.0162416153647
 20
-842.2944923636594
 30
0.0
 40
10.5
  1
248
1001
ACAD
1000
DSTYLE
1002
{
1070
    45
1040
0.5
1070
    40
1040
3.0
1002
}
  0
LINE
  5
239B1
  8
0
  6
BYBLOCK
 10
794.7319140580265
 20
-767.840928173805
 30
0.0
 11
794.1960156780265
 21
-769.840928173805
 31
0.0
  0
LINE
  5
239B2
  8
0
  6
BYBLOCK
 10
794.1960156780265
 20
-769.840928173805
 30
0.0
 11
793.6601172980264
 21
-767.840928173805
 31
0.0
  0
LINE
  5
239B3
  8
0
  6
BYBLOCK
 10
794.1960156780265
 20
-769.840928173805
 30
0.0
 11
794.1960156780265
 21
-767.840928173805
 31
0.0
  0
LINE
  5
239B4
  8
0
  6
BYBLOCK
 10
793.6601172980264
 20
-631.840928173805
 30
0.0
 11
794.1960156780265
 21
-629.840928173805
 31
0.0
  0
LINE
  5
239B5
  8
0
  6
BYBLOCK
 10
794.1960156780265
 20
-629.840928173805
 30
0.0
 11
794.7319140580265
 21
-631.840928173805
 31
0.0
  0
LINE
  5
239B6
  8
0
  6
BYBLOCK
 10
794.1960156780265
 20
-629.840928173805
 30
0.0
 11
794.1960156780265
 21
-631.840928173805
 31
0.0
  0
TEXT
  5
239B7
  8
1DIM
  6
CONTINUOUS
 10
793.4960156780264
 20
-703.7055115071383
 30
0.0
 40
3.5
  1
140
 50
90.0
1001
ACAD
1000
DSTYLE
1002
{
1070
    45
1040
0.5
1002
}
  0
LINE
  5
239B8
  8
0
 10
617.5162881512625
 20
-509.1713361684705
 30
0.0
 11
617.5162881512625
 21
-536.0713012665943
 31
0.0
  0
LINE
  5
239B9
  8
0
 10
617.5162881512625
 20
-536.0713012665943
 30
0.0
 11
615.0162416153646
 21
-538.5713303512664
 31
0.0
  0
LINE
  5
239BA
  8
0
 10
615.0162416153646
 20
-538.5713303512664
 30
0.0
 11
615.0162416153646
 21
-538.8713303512674
 31
0.0
  0
LINE
  5
239BB
  8
0
 10
615.0162416153646
 20
-538.8713303512674
 30
0.0
 11
623.0162416153646
 21
-538.8713489656267
 31
0.0
  0
LINE
  5
239BC
  8
0
 10
623.0162416153646
 20
-538.8713489656267
 30
0.0
 11
623.0162416153646
 21
-538.5713489656256
 31
0.0
  0
LINE
  5
239BD
  8
0
 10
623.0162416153646
 20
-538.5713489656256
 30
0.0
 11
620.5162881512625
 21
-536.0713664169596
 31
0.0
  0
LINE
  5
239BE
  8
0
 10
620.5162881512625
 20
-536.0713664169596
 30
0.0
 11
620.5162881512625
 21
-509.1713431488548
 31
0.0
  0
LINE
  5
239BF
  8
0
 10
620.5162881512625
 20
-509.1713431488548
 30
0.0
 11
619.0162881512625
 21
-503.8713396586095
 31
0.0
  0
LINE
  5
239C0
  8
0
 10
619.0162881512625
 20
-503.8713396586095
 30
0.0
 11
617.5162881512625
 21
-509.1713361684705
 31
0.0
  0
LINE
  5
239C1
  8
0
 10
761.6685008145826
 20
-709.3409747097029
 30
0.0
 11
734.7685357164587
 21
-709.3409747097029
 31
0.0
  0
LINE
  5
239C2
  8
0
 10
734.7685357164587
 20
-709.3409747097029
 30
0.0
 11
732.2685066317865
 21
-706.840928173805
 31
0.0
  0
LINE
  5
239C3
  8
0
 10
732.2685066317865
 20
-706.840928173805
 30
0.0
 11
731.9685066317857
 21
-706.840928173805
 31
0.0
  0
LINE
  5
239C4
  8
0
 10
731.9685066317857
 20
-706.840928173805
 30
0.0
 11
731.9684880174264
 21
-714.840928173805
 31
0.0
  0
LINE
  5
239C5
  8
0
 10
731.9684880174264
 20
-714.840928173805
 30
0.0
 11
732.2684880174274
 21
-714.840928173805
 31
0.0
  0
LINE
  5
239C6
  8
0
 10
732.2684880174274
 20
-714.840928173805
 30
0.0
 11
734.7684705660935
 21
-712.3409747097029
 31
0.0
  0
LINE
  5
239C7
  8
0
 10
734.7684705660935
 20
-712.3409747097029
 30
0.0
 11
761.6684938341982
 21
-712.3409747097029
 31
0.0
  0
LINE
  5
239C8
  8
0
 10
761.6684938341982
 20
-712.3409747097029
 30
0.0
 11
766.9684973244435
 21
-710.8409747097029
 31
0.0
  0
LINE
  5
239C9
  8
0
 10
766.9684973244435
 20
-710.8409747097029
 30
0.0
 11
761.6685008145826
 21
-709.3409747097029
 31
0.0
  0
LINE
  5
239CA
  8
0
 10
417.5162881512627
 20
-509.1713361684706
 30
0.0
 11
417.5162881512626
 21
-536.0713012665944
 31
0.0
  0
LINE
  5
239CB
  8
0
 10
417.5162881512626
 20
-536.0713012665944
 30
0.0
 11
415.0162416153647
 21
-538.5713303512665
 31
0.0
  0
LINE
  5
239CC
  8
0
 10
415.0162416153647
 20
-538.5713303512665
 30
0.0
 11
415.0162416153647
 21
-538.8713303512675
 31
0.0
  0
LINE
  5
239CD
  8
0
 10
415.0162416153647
 20
-538.8713303512675
 30
0.0
 11
423.0162416153647
 21
-538.8713489656268
 31
0.0
  0
LINE
  5
239CE
  8
0
 10
423.0162416153647
 20
-538.8713489656268
 30
0.0
 11
423.0162416153647
 21
-538.5713489656257
 31
0.0
  0
LINE
  5
239CF
  8
0
 10
423.0162416153647
 20
-538.5713489656257
 30
0.0
 11
420.5162881512626
 21
-536.0713664169597
 31
0.0
  0
LINE
  5
239D0
  8
0
 10
420.5162881512626
 20
-536.0713664169597
 30
0.0
 11
420.5162881512627
 21
-509.1713431488549
 31
0.0
  0
LINE
  5
239D1
  8
0
 10
420.5162881512627
 20
-509.1713431488549
 30
0.0
 11
419.0162881512627
 21
-503.8713396586096
 31
0.0
  0
LINE
  5
239D2
  8
0
 10
419.0162881512627
 20
-503.8713396586096
 30
0.0
 11
417.5162881512627
 21
-509.1713361684706
 31
0.0
  0
LINE
  5
239D3
  8
0
  6
BYBLOCK
 10
409.0162416153651
 20
-821.6860405666346
 30
0.0
 11
403.0162416153651
 21
-820.0783454266345
 31
0.0
  0
LINE
  5
239D4
  8
0
  6
BYBLOCK
 10
403.0162416153651
 20
-820.0783454266345
 30
0.0
 11
409.0162416153651
 21
-818.4706502866345
 31
0.0
  0
LINE
  5
239D5
  8
0
  6
BYBLOCK
 10
403.0162416153651
 20
-820.0783454266345
 30
0.0
 11
409.0162416153651
 21
-820.0783454266345
 31
0.0
  0
LINE
  5
239D6
  8
0
  6
BYBLOCK
 10
629.0162416153646
 20
-818.4706502866345
 30
0.0
 11
635.0162416153646
 21
-820.0783454266345
 31
0.0
  0
LINE
  5
239D7
  8
0
  6
BYBLOCK
 10
635.0162416153646
 20
-820.0783454266345
 30
0.0
 11
629.0162416153646
 21
-821.6860405666346
 31
0.0
  0
LINE
  5
239D8
  8
0
  6
BYBLOCK
 10
635.0162416153646
 20
-820.0783454266345
 30
0.0
 11
629.0162416153646
 21
-820.0783454266345
 31
0.0
  0
TEXT
  5
239D9
  8
1DIM1
  6
CONTINUOUS
 10
505.0162416153648
 20
-817.9783454266345
 30
0.0
 40
10.5
  1
232
1001
ACAD
1000
DSTYLE
1002
{
1070
    70
1070
     0
1070
    69
1070
     0
1070
    45
1040
0.5
1070
    40
1040
3.0
1002
}
  0
LINE
  5
239DA
  8
0
  6
BYBLOCK
 10
786.5544050117866
 20
-764.840928173805
 30
0.0
 11
786.0185066317865
 21
-766.840928173805
 31
0.0
  0
LINE
  5
239DB
  8
0
  6
BYBLOCK
 10
786.0185066317865
 20
-766.840928173805
 30
0.0
 11
785.4826082517865
 21
-764.840928173805
 31
0.0
  0
LINE
  5
239DC
  8
0
  6
BYBLOCK
 10
786.0185066317865
 20
-766.840928173805
 30
0.0
 11
786.0185066317865
 21
-764.840928173805
 31
0.0
  0
LINE
  5
239DD
  8
0
  6
BYBLOCK
 10
785.4826082517865
 20
-635.8409281738041
 30
0.0
 11
786.0185066317865
 21
-633.8409281738041
 31
0.0
  0
LINE
  5
239DE
  8
0
  6
BYBLOCK
 10
786.0185066317865
 20
-633.8409281738041
 30
0.0
 11
786.5544050117866
 21
-635.8409281738041
 31
0.0
  0
LINE
  5
239DF
  8
0
  6
BYBLOCK
 10
786.0185066317865
 20
-633.8409281738041
 30
0.0
 11
786.0185066317865
 21
-635.8409281738041
 31
0.0
  0
TEXT
  5
239E0
  8
1DIM
  6
CONTINUOUS
 10
785.3185066317865
 20
-704.4242615071379
 30
0.0
 40
3.5
  1
133
 50
90.0
1001
ACAD
1000
DSTYLE
1002
{
1070
    70
1070
     0
1070
    69
1070
     0
1070
    45
1040
0.5
1002
}
  0
LINE
  5
239E1
  8
0
  6
BYBLOCK
 10
778.5592791206965
 20
-756.840928173805
 30
0.0
 11
778.0233807406964
 21
-758.840928173805
 31
0.0
  0
LINE
  5
239E2
  8
0
  6
BYBLOCK
 10
778.0233807406964
 20
-758.840928173805
 30
0.0
 11
777.4874823606964
 21
-756.840928173805
 31
0.0
  0
LINE
  5
239E3
  8
0
  6
BYBLOCK
 10
778.0233807406964
 20
-758.840928173805
 30
0.0
 11
778.0233807406964
 21
-756.840928173805
 31
0.0
  0
LINE
  5
239E4
  8
0
  6
BYBLOCK
 10
777.4874823606964
 20
-635.8409281738041
 30
0.0
 11
778.0233807406964
 21
-633.8409281738041
 31
0.0
  0
LINE
  5
239E5
  8
0
  6
BYBLOCK
 10
778.0233807406964
 20
-633.8409281738041
 30
0.0
 11
778.5592791206965
 21
-635.8409281738041
 31
0.0
  0
LINE
  5
239E6
  8
0
  6
BYBLOCK
 10
778.0233807406964
 20
-633.8409281738041
 30
0.0
 11
778.0233807406964
 21
-635.8409281738041
 31
0.0
  0
TEXT
  5
239E7
  8
1DIM
  6
CONTINUOUS
 10
777.3233807406965
 20
-700.4242615071379
 30
0.0
 40
3.5
  1
125
 50
90.0
  0
VIEWPORT
  5
57
 67
     1
  8
0
 10
0.0
 20
0.0
 30
0.0
 40
554.3757649938801
 41
297.0000000000001
 68
     1
 69
     1
1001
ACAD
1000
MVIEW
1002
{
1070
    16
1010
0.0
1020
0.0
1030
0.0
1010
0.0
1020
0.0
1030
1.0
1040
0.0
1040
297.0000000000001
1040
-4.171999999925333
1040
12.83903210976956
1040
50.0
1040
0.0
1040
0.0
1070
    16
1070
   100
1070
     0
1070
     1
1070
     0
1070
     0
1070
     0
1070
     0
1040
0.0
1040
0.0
1040
0.0
1040
10.0
1040
10.0
1040
10.0
1040
10.0
1070
     0
1002
{
1002
}
1002
}
  0
ENDSEC
  0
EOF
