  0
SECTION
  2
HEADER
  9
$ACADVER
  1
AC1009
  9
$DWGCODEPAGE
  3
ansi_932
  9
$INSBASE
 10
0.0
 20
0.0
 30
0.0
  9
$EXTMIN
 10
1807.828119722746
 20
-477.8598209853361
 30
-0.000000000000138
  9
$EXTMAX
 10
2085.46664171286
 20
-231.0465539680257
 30
0.0000000000108401
  9
$LIMMIN
 10
0.0
 20
0.0
  9
$LIMMAX
 10
420.0
 20
297.0
  9
$ORTHOMODE
 70
     0
  9
$REGENMODE
 70
     1
  9
$FILLMODE
 70
     1
  9
$QTEXTMODE
 70
     0
  9
$MIRRTEXT
 70
     0
  9
$DRAGMODE
 70
     2
  9
$LTSCALE
 40
0.5
  9
$OSMODE
 70
  6399
  9
$ATTMODE
 70
     1
  9
$TEXTSIZE
 40
4.0
  9
$TRACEWID
 40
1.0
  9
$TEXTSTYLE
  7
STANDARD
  9
$CLAYER
  8
1TEXT
  9
$CELTYPE
  6
BYLAYER
  9
$CECOLOR
 62
   256
  9
$DIMSCALE
 40
1.0
  9
$DIMASZ
 40
2.0
  9
$DIMEXO
 40
0.0
  9
$DIMDLI
 40
7.0
  9
$DIMRND
 40
0.0
  9
$DIMDLE
 40
0.0
  9
$DIMEXE
 40
1.0
  9
$DIMTP
 40
0.0
  9
$DIMTM
 40
0.0
  9
$DIMTXT
 40
3.5
  9
$DIMCEN
 40
0.0
  9
$DIMTSZ
 40
0.0
  9
$DIMTOL
 70
     0
  9
$DIMLIM
 70
     0
  9
$DIMTIH
 70
     0
  9
$DIMTOH
 70
     0
  9
$DIMSE1
 70
     0
  9
$DIMSE2
 70
     0
  9
$DIMTAD
 70
     1
  9
$DIMZIN
 70
     8
  9
$DIMBLK
  1

  9
$DIMASO
 70
     1
  9
$DIMSHO
 70
     1
  9
$DIMPOST
  1
 
  9
$DIMAPOST
  1

  9
$DIMALT
 70
     0
  9
$DIMALTD
 70
     2
  9
$DIMALTF
 40
25.4
  9
$DIMLFAC
 40
1.0
  9
$DIMTOFL
 70
     1
  9
$DIMTVP
 40
0.0
  9
$DIMTIX
 70
     0
  9
$DIMSOXD
 70
     0
  9
$DIMSAH
 70
     1
  9
$DIMBLK1
  1
OPEN30
  9
$DIMBLK2
  1
OPEN30
  9
$DIMSTYLE
  2
NEWX10
  9
$DIMCLRD
 70
     0
  9
$DIMCLRE
 70
     0
  9
$DIMCLRT
 70
   201
  9
$DIMTFAC
 40
0.7
  9
$DIMGAP
 40
0.7
  9
$LUNITS
 70
     2
  9
$LUPREC
 70
     4
  9
$SKETCHINC
 40
1.0
  9
$FILLETRAD
 40
0.5
  9
$AUNITS
 70
     0
  9
$AUPREC
 70
     2
  9
$MENU
  1
acad
  9
$ELEVATION
 40
0.0
  9
$PELEVATION
 40
0.0
  9
$THICKNESS
 40
0.0
  9
$LIMCHECK
 70
     0
  9
$CHAMFERA
 40
1.0
  9
$CHAMFERB
 40
1.0
  9
$SKPOLY
 70
     0
  9
$TDCREATE
 40
2453033.732663484
  9
$TDUPDATE
 40
2460166.385210359
  9
$TDINDWG
 40
2.8260301389
  9
$TDUSRTIMER
 40
2.8260301389
  9
$USRTIMER
 70
     1
  9
$ANGBASE
 50
0.0
  9
$ANGDIR
 70
     0
  9
$PDMODE
 70
     0
  9
$PDSIZE
 40
0.0
  9
$PLINEWID
 40
0.0
  9
$COORDS
 70
     2
  9
$SPLFRAME
 70
     0
  9
$SPLINETYPE
 70
     6
  9
$SPLINESEGS
 70
     8
  9
$ATTDIA
 70
     0
  9
$ATTREQ
 70
     1
  9
$HANDLING
 70
     1
  9
$HANDSEED
  5
241F4
  9
$SURFTAB1
 70
     6
  9
$SURFTAB2
 70
     6
  9
$SURFTYPE
 70
     6
  9
$SURFU
 70
     6
  9
$SURFV
 70
     6
  9
$UCSNAME
  2

  9
$UCSORG
 10
0.0
 20
0.0
 30
0.0
  9
$UCSXDIR
 10
1.0
 20
0.0
 30
0.0
  9
$UCSYDIR
 10
0.0
 20
1.0
 30
0.0
  9
$PUCSNAME
  2

  9
$PUCSORG
 10
0.0
 20
0.0
 30
0.0
  9
$PUCSXDIR
 10
1.0
 20
0.0
 30
0.0
  9
$PUCSYDIR
 10
0.0
 20
1.0
 30
0.0
  9
$USERI1
 70
     0
  9
$USERI2
 70
     0
  9
$USERI3
 70
     0
  9
$USERI4
 70
     0
  9
$USERI5
 70
     0
  9
$USERR1
 40
0.0
  9
$USERR2
 40
0.0
  9
$USERR3
 40
0.0
  9
$USERR4
 40
0.0
  9
$USERR5
 40
0.0
  9
$WORLDVIEW
 70
     1
  9
$SHADEDGE
 70
     3
  9
$SHADEDIF
 70
    70
  9
$TILEMODE
 70
     1
  9
$MAXACTVP
 70
    48
  9
$PLIMCHECK
 70
     0
  9
$PEXTMIN
 10
1.000000000000000E+20
 20
1.000000000000000E+20
 30
1.000000000000000E+20
  9
$PEXTMAX
 10
-1.000000000000000E+20
 20
-1.000000000000000E+20
 30
-1.000000000000000E+20
  9
$PLIMMIN
 10
0.0
 20
0.0
  9
$PLIMMAX
 10
420.0
 20
297.0
  9
$UNITMODE
 70
     0
  9
$VISRETAIN
 70
     1
  9
$PLINEGEN
 70
     0
  9
$PSLTSCALE
 70
     1
  0
ENDSEC
  0
SECTION
  2
TABLES
  0
TABLE
  2
VPORT
 70
     1
  0
VPORT
  2
*ACTIVE
 70
     0
 10
0.0
 20
0.0
 11
1.0
 21
1.0
 12
1946.647380717803
 22
-354.4531874766809
 13
0.0
 23
0.0
 14
10.0
 24
10.0
 15
10.0
 25
10.0
 16
0.0
 26
0.0
 36
1.0
 17
0.0
 27
0.0
 37
0.0
 40
264.9995077449016
 41
1.758938869665513
 42
50.0
 43
0.0
 44
0.0
 50
0.0
 51
0.0
 71
    16
 72
    20
 73
     1
 74
     1
 75
     0
 76
     0
 77
     0
 78
     0
  0
ENDTAB
  0
TABLE
  2
LTYPE
 70
    18
  0
LTYPE
  2
CONTINUOUS
 70
     0
  3
Solid line
 72
    65
 73
     0
 40
0.0
  0
LTYPE
  2
CENTER2
 70
     0
  3
Center (.5x) ___ _ ___ _ ___ _ ___ _ ___ _ ___
 72
    65
 73
     4
 40
28.575
 49
19.05
 49
-3.175
 49
3.175
 49
-3.175
  0
LTYPE
  2
PHANTOM2
 70
     0
  3
Phantom (0.5x) ___ _ _ ___ _ _ ___ _ _ ___ _ _
 72
    65
 73
     6
 40
31.75
 49
15.875
 49
-3.175
 49
3.175
 49
-3.175
 49
3.175
 49
-3.175
  0
ENDTAB
  0
TABLE
  2
LAYER
 70
    46
  0
LAYER
  2
0
 70
     0
 62
     7
  6
CONTINUOUS
  0
LAYER
  2
1CENTER
 70
     0
 62
     7
  6
CENTER2
  0
LAYER
  2
1TEXT
 70
     0
 62
     7
  6
CONTINUOUS
  0
LAYER
  2
1DIM
 70
     0
 62
     7
  6
CONTINUOUS
  0
LAYER
  2
01
 70
     0
 62
     1
  6
CONTINUOUS
  0
ENDTAB
  0
TABLE
  2
STYLE
 70
    27
  0
STYLE
  2
STANDARD
 70
     0
 40
0.0
 41
1.0
 50
0.0
 71
     0
 42
4.0
  3
txt.shx
  4
extfont.shx
  0
ENDTAB
  0
TABLE
  2
VIEW
 70
     0
  0
ENDTAB
  0
TABLE
  2
UCS
 70
     5
  0
UCS
  2
U
 70
     0
 10
0.0
 20
0.0
 30
0.0
 11
1.0
 21
0.0
 31
0.0
 12
0.0
 22
6.123233995736766E-17
 32
1.0
  0
UCS
  2
L
 70
     0
 10
0.0
 20
0.0
 30
0.0
 11
-1.836970198721030E-16
 21
-1.0
 31
6.123233995736766E-17
 12
0.0
 22
6.123233995736766E-17
 32
1.0
  0
UCS
  2
R
 70
     0
 10
0.0
 20
0.0
 30
0.0
 11
3.061616997868383E-16
 21
1.0
 31
-6.123233995736766E-17
 12
0.0
 22
6.123233995736766E-17
 32
1.0
  0
UCS
  2
ISOME
 70
     0
 10
0.0
 20
0.0
 30
0.0
 11
0.7071450863198264
 21
-0.7070684729403536
 31
-3.830824619471818E-5
 12
0.4082704059428736
 22
0.408270407740115
 32
0.8164744636514737
  0
UCS
  2
PERSPECTIVE
 70
     0
 10
0.0
 20
0.0
 30
0.0
 11
0.8191477691768962
 21
-0.5735823260466401
 31
-0.0004974931557765738
 12
0.1584844715982971
 22
0.2255020289861079
 32
0.961265575782966
  0
ENDTAB
  0
TABLE
  2
APPID
 70
    19
  0
APPID
  2
ACAD
 70
     0
  0
APPID
  2
DRAWINGVARIABLESXDATA
 70
     0
  0
APPID
  2
CONTENTTABDATA
 70
     0
  0
APPID
  2
CONTENTCURRENTTAB
 70
     0
  0
APPID
  2
CONTENTBLOCKDESCRIPTION
 70
     0
  0
APPID
  2
CONTENTBLOCKICON
 70
     0
  0
APPID
  2
CONTENTLONGBLOCKNAME
 70
     0
  0
APPID
  2
ACAD_PSEXT
 70
     0
  0
APPID
  2
ACAD_DSTYLE_DIMTEXT_FILL
 70
     0
  0
APPID
  2
ACAD_MLEADERVER
 70
     0
  0
APPID
  2
ACAD_DSTYLE_DIMRADIAL_EXTE
 70
     0
  0
APPID
  2
ACADANNOTATIVE
 70
     0
  0
APPID
  2
ACAD_EXEMPT_FROM_CAD_STAND
 70
     0
  0
APPID
  2
ACDBBLOCKREPETAG
 70
     0
  0
APPID
  2
ACAD_OBJECT_CHANGE_GUID
 70
     0
  0
APPID
  2
ACLAYERTOOLS
 70
     0
  0
APPID
  2
ACAD_NAV_VCDISPLAY
 70
     0
  0
APPID
  2
ACAD_DSTYLE_DIMJAG
 70
     0
  0
APPID
  2
ACAD_DSTYLE_DIMTALN
 70
     0
  0
ENDTAB
  0
TABLE
  2
DIMSTYLE
 70
    11
  0
DIMSTYLE
  2
NEWX10
 70
     0
  3
 
  4

  5

  6
OPEN30
  7
OPEN30
 40
1.0
 41
2.0
 42
0.0
 43
7.0
 44
1.0
 45
0.0
 46
0.0
 47
0.0
 48
0.0
140
3.5
141
0.0
142
0.0
143
25.4
144
1.0
145
0.0
146
0.7
147
0.7
 71
     0
 72
     0
 73
     0
 74
     0
 75
     0
 76
     0
 77
     1
 78
     8
170
     0
171
     2
172
     1
173
     1
174
     0
175
     0
176
     0
177
     0
178
   201
  0
DIMSTYLE
  2
ISO-25
 70
     0
  3

  4

  5

  6

  7

 40
1.0
 41
20.0
 42
3.0
 43
3.75
 44
2.0
 45
0.0
 46
0.0
 47
0.0
 48
0.0
140
30.0
141
5.0
142
0.0
143
0.03937
144
1.0
145
0.0
146
1.0
147
8.0
 71
     0
 72
     0
 73
     0
 74
     0
 75
     0
 76
     0
 77
     1
 78
     8
170
     0
171
     3
172
     1
173
     0
174
     0
175
     0
176
     1
177
     1
178
     1
  0
ENDTAB
  0
ENDSEC
  0
SECTION
  2
BLOCKS
  0
BLOCK
  8
0
  2
$MODEL_SPACE
 70
     0
 10
0.0
 20
0.0
 30
0.0
  3
$MODEL_SPACE
  1

  0
ENDBLK
  5
1A
  8
0
  0
BLOCK
 67
     1
  8
0
  2
$PAPER_SPACE
 70
     0
 10
0.0
 20
0.0
 30
0.0
  3
$PAPER_SPACE
  1

  0
ENDBLK
  5
17
 67
     1
  8
0
  0
BLOCK
  8
0
  2
_OPEN30
 70
     0
 10
0.0
 20
0.0
 30
0.0
  3
_OPEN30
  1

  0
LINE
  5
44
  8
0
  6
BYBLOCK
 62
     0
 10
-1.0
 20
0.26794919
 30
0.0
 11
0.0
 21
0.0
 31
0.0
  0
LINE
  5
45
  8
0
  6
BYBLOCK
 62
     0
 10
0.0
 20
0.0
 30
0.0
 11
-1.0
 21
-0.26794919
 31
0.0
  0
LINE
  5
46
  8
0
  6
BYBLOCK
 62
     0
 10
0.0
 20
0.0
 30
0.0
 11
-1.0
 21
0.0
 31
0.0
  0
ENDBLK
  5
47
  8
0
  0
BLOCK
  8
0
  2
A3WAKUKAWAJUN2017_HYOUDAI_
 70
     0
 10
0.0
 20
0.0
 30
0.0
  3
A3WAKUKAWAJUN2017_HYOUDAI_
  1

  0
LINE
  5
20318
  8
0
 10
13.26299999998673
 20
-0.0001000000000317
 30
0.0
 11
9.236999999990758
 21
8.999899999990987
 31
0.0
1001
ACAD
1000
ASC_BOUNDS
1002
{
1070
    19
1005
20359
1002
}
  0
LINE
  5
20319
  8
0
 10
5.657999999994331
 20
0.9999999999989768
 30
0.0
 11
9.236999999990758
 21
8.999999999991019
 31
0.0
1001
ACAD
1000
ASC_BOUNDS
1002
{
1070
    19
1005
20359
1002
}
  0
LINE
  5
2031A
  8
0
 10
18.59199999998134
 20
-0.2368999999997641
 30
0.0
 11
16.46099999998353
 21
5.432899999994561
 31
0.0
1001
ACAD
1000
ASC_BOUNDS
1002
{
1070
    19
1005
2035A
1002
}
  0
LINE
  5
2031B
  8
0
 10
18.59199999998134
 20
-0.2368999999997641
 30
0.0
 11
22.38199999997767
 21
8.763099999991255
 31
0.0
1001
ACAD
1000
ASC_BOUNDS
1002
{
1070
    19
1005
2035A
1002
}
  0
LINE
  5
2031C
  8
0
 10
14.32899999998563
 20
-0.2368999999997641
 30
0.0
 11
16.46099999998353
 21
5.432899999994561
 31
0.0
1001
ACAD
1000
ASC_BOUNDS
1002
{
1070
    19
1005
2035A
1002
}
  0
LINE
  5
2031D
  8
0
 10
14.32899999998563
 20
-0.2368999999997641
 30
0.0
 11
10.53899999998941
 21
8.763099999991255
 31
0.0
1001
ACAD
1000
ASC_BOUNDS
1002
{
1070
    19
1005
2035A
1002
}
  0
LINE
  5
2031E
  8
0
 10
19.53899999998043
 20
-0.0001000000000317
 30
0.0
 11
23.56599999997638
 21
8.999899999990987
 31
0.0
1001
ACAD
1000
ASC_BOUNDS
1002
{
1070
    19
1005
2035B
1002
}
  0
LINE
  5
2031F
  8
0
 10
26.97358892824991
 20
1.383099999991202
 30
0.0
 11
23.56599999997638
 21
8.999899999990987
 31
0.0
1001
ACAD
1000
ASC_BOUNDS
1002
{
1070
    19
1005
2035B
1002
}
  0
LINE
  5
20320
  8
0
 10
5.657999999994331
 20
0.9999999999989768
 30
0.0
 11
3.181999999996833
 21
4.668599999995308
 31
0.0
1001
ACAD
1000
ASC_BOUNDS
1002
{
1070
    19
1005
20359
1002
}
  0
LINE
  5
20321
  8
0
 10
4.617999999995391
 20
-0.0001000000000317
 30
0.0
 11
1.420999999998571
 21
4.736799999995242
 31
0.0
1001
ACAD
1000
ASC_BOUNDS
1002
{
1070
    19
1005
20359
1002
}
  0
LINE
  5
20322
  8
0
 10
1.420999999998571
 20
8.763099999991255
 30
0.0
 11
1.420999999998571
 21
0.0
 31
0.0
1001
ACAD
1000
ASC_BOUNDS
1002
{
1070
    19
1005
2035E
1002
}
  0
LINE
  5
20323
  8
0
 10
0.0
 20
8.763099999991255
 30
0.0
 11
0.0
 21
0.0
 31
0.0
1001
ACAD
1000
ASC_BOUNDS
1002
{
1070
    19
1005
2035E
1002
}
  0
LINE
  5
20324
  8
0
 10
6.766999999993232
 20
-0.0001000000000317
 30
0.0
 11
7.826999999992154
 21
2.368399999997621
 31
0.0
1001
ACAD
1000
ASC_BOUNDS
1002
{
1070
    19
1005
20359
1002
}
  0
LINE
  5
20325
  8
0
 10
0.0
 20
0.0
 30
0.0
 11
1.420999999998571
 21
0.0
 31
0.0
1001
ACAD
1000
ASC_BOUNDS
1002
{
1070
    19
1005
2035E
1002
}
  0
LINE
  5
20326
  8
0
 10
4.617999999995391
 20
0.0
 30
0.0
 11
6.766999999993232
 21
0.0
 31
0.0
1001
ACAD
1000
ASC_BOUNDS
1002
{
1070
    19
1005
20359
1002
}
  0
LINE
  5
20327
  8
0
 10
11.70599999998831
 20
-0.0001000000000317
 30
0.0
 11
10.64699999998936
 21
2.368399999997621
 31
0.0
1001
ACAD
1000
ASC_BOUNDS
1002
{
1070
    19
1005
20359
1002
}
  0
LINE
  5
20328
  8
0
 10
7.826999999992154
 20
2.368399999997621
 30
0.0
 11
10.64699999998936
 21
2.368399999997621
 31
0.0
1001
ACAD
1000
ASC_BOUNDS
1002
{
1070
    19
1005
20359
1002
}
  0
LINE
  5
20329
  8
0
 10
11.70599999998831
 20
0.0
 30
0.0
 11
13.26299999998673
 21
0.0
 31
0.0
1001
ACAD
1000
ASC_BOUNDS
1002
{
1070
    19
1005
20359
1002
}
  0
LINE
  5
2032A
  8
0
 10
22.15599999997789
 20
2.368399999997621
 30
0.0
 11
24.97599999997499
 21
2.368399999997621
 31
0.0
1001
ACAD
1000
ASC_BOUNDS
1002
{
1070
    19
1005
2035B
1002
}
  0
LINE
  5
2032B
  8
0
 10
19.53899999998043
 20
0.0
 30
0.0
 11
21.09599999997886
 21
0.0
 31
0.0
1001
ACAD
1000
ASC_BOUNDS
1002
{
1070
    19
1005
2035B
1002
}
  0
LINE
  5
2032C
  8
0
 10
21.09599999997886
 20
-0.0001000000000317
 30
0.0
 11
22.15599999997789
 21
2.368399999997621
 31
0.0
1001
ACAD
1000
ASC_BOUNDS
1002
{
1070
    19
1005
2035B
1002
}
  0
LINE
  5
2032D
  8
0
 10
26.02015566812236
 20
0.0330999999912365
 30
0.0
 11
24.97599999997499
 21
2.368399999997621
 31
0.0
1001
ACAD
1000
ASC_BOUNDS
1002
{
1070
    19
1005
2035B
1002
}
  0
LINE
  5
2032E
  8
0
 10
14.32399999998563
 20
3.315799999996671
 30
0.0
 11
16.46099999998353
 21
8.999899999990987
 31
0.0
1001
ACAD
1000
ASC_BOUNDS
1002
{
1070
    19
1005
2035A
1002
}
  0
LINE
  5
2032F
  8
0
 10
6.432999999993513
 20
8.763099999991255
 30
0.0
 11
3.181999999996833
 21
4.668599999995308
 31
0.0
1001
ACAD
1000
ASC_BOUNDS
1002
{
1070
    19
1005
20359
1002
}
  0
LINE
  5
20330
  8
0
 10
4.617999999995391
 20
8.763099999991255
 30
0.0
 11
1.420999999998571
 21
4.736799999995242
 31
0.0
1001
ACAD
1000
ASC_BOUNDS
1002
{
1070
    19
1005
20359
1002
}
  0
LINE
  5
20331
  8
0
 10
0.0
 20
8.763099999991255
 30
0.0
 11
1.420999999998571
 21
8.763099999991255
 31
0.0
1001
ACAD
1000
ASC_BOUNDS
1002
{
1070
    19
1005
2035E
1002
}
  0
LINE
  5
20332
  8
0
 10
4.617999999995391
 20
8.763099999991255
 30
0.0
 11
6.432999999993513
 21
8.763099999991255
 31
0.0
1001
ACAD
1000
ASC_BOUNDS
1002
{
1070
    19
1005
20359
1002
}
  0
LINE
  5
20333
  8
0
 10
14.32399999998563
 20
3.315799999996671
 30
0.0
 11
12.02999999998792
 21
8.763099999991255
 31
0.0
1001
ACAD
1000
ASC_BOUNDS
1002
{
1070
    19
1005
2035A
1002
}
  0
LINE
  5
20334
  8
0
 10
10.06399999998996
 20
3.670999999996297
 30
0.0
 11
9.236999999990758
 21
5.5200999999945
 31
0.0
1001
ACAD
1000
ASC_BOUNDS
1002
{
1070
    19
1005
20359
1002
}
  0
LINE
  5
20335
  8
0
 10
8.409999999991555
 20
3.670999999996297
 30
0.0
 11
9.236999999990758
 21
5.5200999999945
 31
0.0
1001
ACAD
1000
ASC_BOUNDS
1002
{
1070
    19
1005
20359
1002
}
  0
LINE
  5
20336
  8
0
 10
8.409999999991555
 20
3.670999999996297
 30
0.0
 11
10.06399999998996
 21
3.670999999996297
 31
0.0
1001
ACAD
1000
ASC_BOUNDS
1002
{
1070
    19
1005
20359
1002
}
  0
LINE
  5
20337
  8
0
 10
10.53899999998941
 20
8.763099999991255
 30
0.0
 11
12.02999999998792
 21
8.763099999991255
 31
0.0
1001
ACAD
1000
ASC_BOUNDS
1002
{
1070
    19
1005
2035A
1002
}
  0
LINE
  5
20338
  8
0
 10
22.7389999999773
 20
3.670999999996297
 30
0.0
 11
23.56599999997638
 21
5.5200999999945
 31
0.0
1001
ACAD
1000
ASC_BOUNDS
1002
{
1070
    19
1005
2035B
1002
}
  0
LINE
  5
20339
  8
0
 10
22.7389999999773
 20
3.670999999996297
 30
0.0
 11
24.39299999997559
 21
3.670999999996297
 31
0.0
1001
ACAD
1000
ASC_BOUNDS
1002
{
1070
    19
1005
2035B
1002
}
  0
LINE
  5
2033A
  8
0
 10
18.59799999998143
 20
3.315799999996671
 30
0.0
 11
20.89099999997916
 21
8.763099999991255
 31
0.0
1001
ACAD
1000
ASC_BOUNDS
1002
{
1070
    19
1005
2035A
1002
}
  0
LINE
  5
2033B
  8
0
 10
18.59799999998143
 20
3.315799999996671
 30
0.0
 11
16.46099999998353
 21
8.999899999990987
 31
0.0
1001
ACAD
1000
ASC_BOUNDS
1002
{
1070
    19
1005
2035A
1002
}
  0
LINE
  5
2033C
  8
0
 10
20.89099999997916
 20
8.763099999991255
 30
0.0
 11
22.38199999997767
 21
8.763099999991255
 31
0.0
1001
ACAD
1000
ASC_BOUNDS
1002
{
1070
    19
1005
2035A
1002
}
  0
LINE
  5
2033D
  8
0
 10
24.39299999997559
 20
3.670999999996297
 30
0.0
 11
23.56599999997638
 21
5.5200999999945
 31
0.0
1001
ACAD
1000
ASC_BOUNDS
1002
{
1070
    19
1005
2035B
1002
}
  0
LINE
  5
2033E
  8
0
 10
44.99999999995498
 20
-0.2368999999997641
 30
0.0
 11
40.02599999995994
 21
5.341799999994635
 31
0.0
1001
ACAD
1000
ASC_BOUNDS
1002
{
1070
    19
1005
2035D
1002
}
  0
LINE
  5
2033F
  8
0
 10
40.02599999995994
 20
5.341799999994635
 30
0.0
 11
40.02599999995994
 21
0.0
 31
0.0
1001
ACAD
1000
ASC_BOUNDS
1002
{
1070
    19
1005
2035D
1002
}
  0
LINE
  5
20340
  8
0
 10
38.60499999996136
 20
8.999999999991019
 30
0.0
 11
38.60499999996136
 21
0.0
 31
0.0
1001
ACAD
1000
ASC_BOUNDS
1002
{
1070
    19
1005
2035D
1002
}
  0
LINE
  5
20341
  8
0
 10
44.99999999995498
 20
8.763099999991255
 30
0.0
 11
44.99999999995498
 21
-0.2368999999997641
 31
0.0
1001
ACAD
1000
ASC_BOUNDS
1002
{
1070
    19
1005
2035D
1002
}
  0
LINE
  5
20342
  8
0
 10
38.60499999996136
 20
0.0
 30
0.0
 11
40.02599999995994
 21
0.0
 31
0.0
1001
ACAD
1000
ASC_BOUNDS
1002
{
1070
    19
1005
2035D
1002
}
  0
LINE
  5
20343
  8
0
 10
43.57899999995641
 20
3.421199999996588
 30
0.0
 11
38.60499999996136
 21
8.999899999990987
 31
0.0
1001
ACAD
1000
ASC_BOUNDS
1002
{
1070
    19
1005
2035D
1002
}
  0
LINE
  5
20344
  8
0
 10
43.57899999995641
 20
8.763099999991255
 30
0.0
 11
43.57899999995641
 21
3.421199999996588
 31
0.0
1001
ACAD
1000
ASC_BOUNDS
1002
{
1070
    19
1005
2035D
1002
}
  0
LINE
  5
20345
  8
0
 10
43.57899999995641
 20
8.763099999991255
 30
0.0
 11
44.99999999995498
 21
8.763099999991255
 31
0.0
1001
ACAD
1000
ASC_BOUNDS
1002
{
1070
    19
1005
2035D
1002
}
  0
LINE
  5
20346
  8
0
 10
37.67199999996831
 20
8.763099999991255
 30
0.0
 11
36.23199999996837
 21
8.763099999991255
 31
0.0
  0
LINE
  5
20347
  8
0
 10
31.64199999996833
 20
8.763099999991255
 30
0.0
 11
31.64199999996833
 21
2.481619422925121
 31
0.0
  0
LINE
  5
20348
  8
0
 10
37.67199999996831
 20
8.763099999991255
 30
0.0
 11
37.67199999996831
 21
2.481619422925121
 31
0.0
  0
LINE
  5
20349
  8
0
 10
36.23199999996837
 20
8.763099999991255
 30
0.0
 11
36.23199999996837
 21
2.481619422925064
 31
0.0
  0
LINE
  5
2034A
  8
0
 10
33.08199999996839
 20
8.763099999991255
 30
0.0
 11
33.08199999996839
 21
2.481619422925121
 31
0.0
  0
ARC
  5
2034B
  8
0
 10
34.65699999996832
 20
3.183099999991214
 30
0.0
 40
3.420000000000007
 50
240.0000000000255
 51
299.9999999999766
  0
ARC
  5
2034C
  8
0
 10
34.65699999996832
 20
3.183099999991214
 30
0.0
 40
1.97999999999999
 50
240.000000000026
 51
299.9999999999703
  0
LINE
  5
2034D
  8
0
 10
33.08199999996828
 20
8.763099999991255
 30
0.0
 11
31.64199999996833
 21
8.763099999991255
 31
0.0
  0
ARC
  5
2034E
  8
0
 10
35.06199999996829
 20
2.481619422925064
 30
0.0
 40
1.17
 50
299.9999999999699
 51
0.0
  0
ARC
  5
2034F
  8
0
 10
34.25199999996835
 20
2.481619422925121
 30
0.0
 40
1.17
 50
180.0
 51
240.0000000000238
  0
ARC
  5
20350
  8
0
 10
35.06199999996841
 20
2.481619422925121
 30
0.0
 40
2.61
 50
299.9999999999756
 51
0.0
  0
ARC
  5
20351
  8
0
 10
34.25199999996835
 20
2.481619422925121
 30
0.0
 40
2.61
 50
180.0
 51
240.0000000000244
  0
LINE
  5
20352
  8
0
 10
29.30199999996933
 20
8.763099999991255
 30
0.0
 11
30.74199999996927
 21
8.763099999991255
 31
0.0
1001
ACAD
1000
ASC_BOUNDS
1002
{
1070
    19
1005
2035B
1002
}
  0
LINE
  5
20353
  8
0
 10
30.74199999996927
 20
8.763099999991255
 30
0.0
 11
30.74199999996927
 21
2.373099999991211
 31
0.0
1001
ACAD
1000
ASC_BOUNDS
1002
{
1070
    19
1005
2035B
1002
}
  0
LINE
  5
20354
  8
0
 10
26.02015566812236
 20
0.0330999999912365
 30
0.0
 11
28.40199999996923
 21
0.0330999999912365
 31
0.0
1001
ACAD
1000
ASC_BOUNDS
1002
{
1070
    19
1005
2035B
1002
}
  0
LINE
  5
20355
  8
0
 10
29.30199999996933
 20
8.763099999991255
 30
0.0
 11
29.30199999996933
 21
2.283099999991236
 31
0.0
1001
ACAD
1000
ASC_BOUNDS
1002
{
1070
    19
1005
2035B
1002
}
  0
LINE
  5
20356
  8
0
 10
26.97358892824991
 20
1.383099999991202
 30
0.0
 11
28.40199999996923
 21
1.383099999991202
 31
0.0
1001
ACAD
1000
ASC_BOUNDS
1002
{
1070
    19
1005
2035B
1002
}
  0
ARC
  5
20357
  8
0
 10
28.40199999996923
 20
2.283099999991236
 30
0.0
 40
0.9
 50
270.0
 51
0.0
1001
ACAD
1000
ASC_BOUNDS
1002
{
1070
    19
1005
2035B
1002
}
  0
ARC
  5
20358
  8
0
 10
28.40199999996923
 20
2.373099999991211
 30
0.0
 40
2.34
 50
270.0
 51
0.0
1001
ACAD
1000
ASC_BOUNDS
1002
{
1070
    19
1005
2035B
1002
}
  0
INSERT
  5
20359
  8
0
  2
*X263
 10
0.0
 20
0.0
 30
0.0
1001
ACAD
1000
HATCH
1002
{
1070
    19
1000
ANSI37
1040
0.15
1040
0.0
1000
ASC_BOUNDS
1070
     2
1070
     2
1070
    12
1005
20318
1005
20319
1005
20320
1005
2032F
1005
20332
1005
20330
1005
20321
1005
20326
1005
20324
1005
20328
1005
20327
1005
20329
1070
     2
1070
     3
1005
20334
1005
20336
1005
20335
1000
ASC_SEEDPOINT
1011
3.614004224891801
1021
2.996669441146025
1031
0.0
1021
2.996669441146025
1031
0.0
1000
R14_HATCH_DATA
1000
20359
1011
1.0
1021
0.0
1031
0.0
1021
0.0
1031
0.0
1011
0.0
1021
1.0
1031
0.0
1021
1.0
1031
0.0
1011
0.0
1021
0.0
1031
1.0
1021
0.0
1031
1.0
1040
0.0
1010
0.0
1020
0.0
1030
1.0
1000
ANSI37
1070
     0
1070
     1
1071
        2
1071
        7
1070
     0
1070
     1
1071
       17
1040
13.26299999998673
1040
-0.0001000000000317
1040
9.236999999990758
1040
8.999899999990987
1040
9.236999999990758
1040
8.999999999991019
1040
5.657999999994331
1040
0.9999999999989768
1040
3.181999999996833
1040
4.668599999995308
1040
6.432999999993513
1040
8.763099999991255
1040
4.617999999995391
1040
8.763099999991255
1040
1.420999999998571
1040
4.736799999995242
1040
4.617999999995391
1040
-0.0001000000000317
1040
4.617999999995391
1040
0.0
1040
6.766999999993232
1040
0.0
1040
6.766999999993232
1040
-0.0001000000000317
1040
7.826999999992154
1040
2.368399999997621
1040
10.64699999998936
1040
2.368399999997621
1040
11.70599999998831
1040
-0.0001000000000317
1040
11.70599999998831
1040
0.0
1040
13.26299999998673
1040
0.0
1071
       12
1005
20318
1005
20319
1005
20320
1005
2032F
1005
20332
1005
20330
1005
20321
1005
20326
1005
20324
1005
20328
1005
20327
1005
20329
1071
       22
1070
     0
1070
     1
1071
        3
1040
9.236999999990758
1040
5.5200999999945
1040
10.06399999998996
1040
3.670999999996297
1040
8.409999999991555
1040
3.670999999996297
1071
        3
1005
20334
1005
20336
1005
20335
1070
     0
1070
     1
1040
0.0
1040
0.15
1070
     0
1070
     2
1040
0.7853981633974483
1040
49.29960901727088
1040
-10.17736998311392
1040
-0.3367596045400932
1040
0.3367596045400932
1070
     0
1040
2.356194490192345
1040
49.29960901727088
1040
-10.17736998311392
1040
-0.3367596045400932
1040
-0.3367596045400932
1070
     0
1040
0.0110235143455945
1071
        2
1040
3.614004224891801
1040
2.996669441146025
1040
0.0
1040
3.614004224891801
1040
2.996669441146025
1040
0.0
1002
}
  0
INSERT
  5
2035A
  8
0
  2
*X264
 10
0.0
 20
0.0
 30
0.0
1001
ACAD
1000
HATCH
1002
{
1070
    19
1000
ANSI37
1040
0.15
1040
0.0
1000
ASC_BOUNDS
1070
     1
1070
     2
1070
    10
1005
2031A
1005
2031B
1005
2033C
1005
2033A
1005
2033B
1005
2032E
1005
20333
1005
20337
1005
2031D
1005
2031C
1000
ASC_SEEDPOINT
1011
14.73245321214324
1021
2.798246178283421
1031
0.0
1021
2.798246178283421
1031
0.0
1000
R14_HATCH_DATA
1000
2035A
1011
1.0
1021
0.0
1031
0.0
1021
0.0
1031
0.0
1011
0.0
1021
1.0
1031
0.0
1021
1.0
1031
0.0
1011
0.0
1021
0.0
1031
1.0
1021
0.0
1031
1.0
1040
0.0
1010
0.0
1020
0.0
1030
1.0
1000
ANSI37
1070
     0
1070
     1
1071
        1
1071
        7
1070
     0
1070
     1
1071
       10
1040
16.46099999998353
1040
5.432899999994561
1040
18.59199999998134
1040
-0.2368999999997641
1040
22.38199999997767
1040
8.763099999991255
1040
20.89099999997916
1040
8.763099999991255
1040
18.59799999998143
1040
3.315799999996671
1040
16.46099999998353
1040
8.999899999990987
1040
14.32399999998563
1040
3.315799999996671
1040
12.02999999998792
1040
8.763099999991255
1040
10.53899999998941
1040
8.763099999991255
1040
14.32899999998563
1040
-0.2368999999997641
1071
       10
1005
2031A
1005
2031B
1005
2033C
1005
2033A
1005
2033B
1005
2032E
1005
20333
1005
20337
1005
2031D
1005
2031C
1070
     0
1070
     1
1040
0.0
1040
0.15
1070
     0
1070
     2
1040
0.7853981633974483
1040
49.29960901727088
1040
-10.17736998311392
1040
-0.3367596045400932
1040
0.3367596045400932
1070
     0
1040
2.356194490192345
1040
49.29960901727088
1040
-10.17736998311392
1040
-0.3367596045400932
1040
-0.3367596045400932
1070
     0
1040
0.0110235143455945
1071
        1
1040
14.73245321214324
1040
2.798246178283421
1040
0.0
1002
}
  0
INSERT
  5
2035B
  8
0
  2
*X265
 10
0.0
 20
0.0
 30
0.0
1001
ACAD
1000
HATCH
1002
{
1070
    19
1000
ANSI37
1040
0.15
1040
0.0
1000
ASC_BOUNDS
1070
     2
1070
     2
1070
    13
1005
2031E
1005
2032B
1005
2032C
1005
2032A
1005
2032D
1005
20354
1005
20358
1005
20353
1005
20352
1005
20355
1005
20357
1005
20356
1005
2031F
1070
     2
1070
     3
1005
20338
1005
2033D
1005
20339
1000
ASC_SEEDPOINT
1011
21.97929957367762
1021
3.294304244259308
1031
0.0
1021
3.294304244259308
1031
0.0
1000
R14_HATCH_DATA
1000
2035B
1011
1.0
1021
0.0
1031
0.0
1021
0.0
1031
0.0
1011
0.0
1021
1.0
1031
0.0
1021
1.0
1031
0.0
1011
0.0
1021
0.0
1031
1.0
1021
0.0
1031
1.0
1040
0.0
1010
0.0
1020
0.0
1030
1.0
1000
ANSI37
1070
     0
1070
     1
1071
        2
1071
        7
1070
     1
1070
     1
1071
       15
1040
23.56599999997638
1040
8.999899999990987
1040
0.0
1040
19.53899999998043
1040
-0.0001000000000317
1040
0.0
1040
19.53899999998043
1040
0.0
1040
0.0
1040
21.09599999997886
1040
0.0
1040
0.0
1040
21.09599999997886
1040
-0.0001000000000317
1040
0.0
1040
22.15599999997789
1040
2.368399999997621
1040
0.0
1040
24.97599999997499
1040
2.368399999997621
1040
0.0
1040
26.02015566812236
1040
0.0330999999912365
1040
0.0
1040
28.40199999996923
1040
0.0330999999912365
1040
0.414213562373095
1040
30.74199999996923
1040
2.373099999991211
1040
0.0
1040
30.74199999996927
1040
8.763099999991255
1040
0.0
1040
29.30199999996933
1040
8.763099999991255
1040
0.0
1040
29.30199999996933
1040
2.283099999991236
1040
-0.414213562373095
1040
28.40199999996923
1040
1.383099999991237
1040
0.0
1040
26.97358892824991
1040
1.383099999991202
1040
0.0
1071
       13
1005
2031E
1005
2032B
1005
2032C
1005
2032A
1005
2032D
1005
20354
1005
20358
1005
20353
1005
20352
1005
20355
1005
20357
1005
20356
1005
2031F
1071
       22
1070
     0
1070
     1
1071
        3
1040
22.7389999999773
1040
3.670999999996297
1040
23.56599999997638
1040
5.5200999999945
1040
24.39299999997559
1040
3.670999999996297
1071
        3
1005
20338
1005
2033D
1005
20339
1070
     0
1070
     1
1040
0.0
1040
0.15
1070
     0
1070
     2
1040
0.7853981633974483
1040
49.29960901727088
1040
-10.17736998311392
1040
-0.3367596045400932
1040
0.3367596045400932
1070
     0
1040
2.356194490192345
1040
49.29960901727088
1040
-10.17736998311392
1040
-0.3367596045400932
1040
-0.3367596045400932
1070
     0
1040
0.0110235143455945
1071
        2
1040
21.97929957367762
1040
3.294304244259308
1040
0.0
1040
21.97929957367762
1040
3.294304244259308
1040
0.0
1002
}
  0
INSERT
  5
2035C
  8
0
  2
*X266
 10
0.0
 20
0.0
 30
0.0
1001
ACAD
1000
HATCH
1002
{
1070
    19
1000
ANSI37
1040
0.15
1040
0.0
1000
R14_HATCH_DATA
1000
2035C
1011
1.0
1021
0.0
1031
0.0
1021
0.0
1031
0.0
1011
0.0
1021
1.0
1031
0.0
1021
1.0
1031
0.0
1011
0.0
1021
0.0
1031
1.0
1021
0.0
1031
1.0
1040
0.0
1010
0.0
1020
0.0
1030
1.0
1000
ANSI37
1070
     0
1070
     1
1071
        1
1071
        7
1070
     1
1070
     1
1071
       12
1040
31.64199999996833
1040
2.481619422925121
1040
0.2679491924310942
1040
32.94699999997067
1040
0.2212931190493919
1040
0.2679491924301353
1040
36.36699999995983
1040
0.2212931190459813
1040
0.2679491924321411
1040
37.67199999996831
1040
2.481619422928361
1040
0.0
1040
37.67199999996831
1040
8.763099999991255
1040
0.0
1040
36.23199999996837
1040
8.763099999991255
1040
0.0
1040
36.23199999996837
1040
2.481619422925064
1040
-0.2679491924310291
1040
35.64699999996708
1040
1.468369700498386
1040
-0.267949192430519
1040
33.66699999997093
1040
1.468369700497703
1040
-0.267949192431809
1040
33.08199999996839
1040
2.481619422926997
1040
0.0
1040
33.08199999996839
1040
8.763099999991255
1040
0.0
1040
31.64199999996833
1040
8.763099999991255
1040
0.0
1071
        0
1070
     0
1070
     1
1040
0.0
1040
0.15
1070
     0
1070
     2
1040
0.7853981633974483
1040
49.29960901727088
1040
-10.17736998311392
1040
-0.3367596045400932
1040
0.3367596045400932
1070
     0
1040
2.356194490192345
1040
49.29960901727088
1040
-10.17736998311392
1040
-0.3367596045400932
1040
-0.3367596045400932
1070
     0
1040
0.0110235143455945
1071
        1
1040
32.30357378967278
1040
3.988785755459219
1040
0.0
1002
}
  0
INSERT
  5
2035D
  8
0
  2
*X267
 10
0.0
 20
0.0
 30
0.0
1001
ACAD
1000
HATCH
1002
{
1070
    19
1000
ANSI37
1040
0.15
1040
0.0
1000
ASC_BOUNDS
1070
     1
1070
     2
1070
     8
1005
2033E
1005
20341
1005
20345
1005
20344
1005
20343
1005
20340
1005
20342
1005
2033F
1000
ASC_SEEDPOINT
1011
39.74896370716704
1021
4.484843821435049
1031
0.0
1021
4.484843821435049
1031
0.0
1000
R14_HATCH_DATA
1000
2035D
1011
1.0
1021
0.0
1031
0.0
1021
0.0
1031
0.0
1011
0.0
1021
1.0
1031
0.0
1021
1.0
1031
0.0
1011
0.0
1021
0.0
1031
1.0
1021
0.0
1031
1.0
1040
0.0
1010
0.0
1020
0.0
1030
1.0
1000
ANSI37
1070
     0
1070
     1
1071
        1
1071
        7
1070
     0
1070
     1
1071
        9
1040
40.02599999995994
1040
5.341799999994635
1040
44.99999999995498
1040
-0.2368999999997641
1040
44.99999999995498
1040
8.763099999991255
1040
43.57899999995641
1040
8.763099999991255
1040
43.57899999995641
1040
3.421199999996588
1040
38.60499999996136
1040
8.999899999990987
1040
38.60499999996136
1040
8.999999999991019
1040
38.60499999996136
1040
0.0
1040
40.02599999995994
1040
0.0
1071
        8
1005
2033E
1005
20341
1005
20345
1005
20344
1005
20343
1005
20340
1005
20342
1005
2033F
1070
     0
1070
     1
1040
0.0
1040
0.15
1070
     0
1070
     2
1040
0.7853981633974483
1040
49.29960901727088
1040
-10.17736998311392
1040
-0.3367596045400932
1040
0.3367596045400932
1070
     0
1040
2.356194490192345
1040
49.29960901727088
1040
-10.17736998311392
1040
-0.3367596045400932
1040
-0.3367596045400932
1070
     0
1040
0.0110235143455945
1071
        1
1040
39.74896370716704
1040
4.484843821435049
1040
0.0
1002
}
  0
INSERT
  5
2035E
  8
0
  2
*X268
 10
0.0
 20
0.0
 30
0.0
1001
ACAD
1000
HATCH
1002
{
1070
    19
1000
ANSI37
1040
0.15
1040
0.0
1000
ASC_BOUNDS
1070
     1
1070
     2
1070
     4
1005
20322
1005
20331
1005
20323
1005
20325
1000
ASC_SEEDPOINT
1011
1.079051535452663
1021
4.148538732891836
1031
0.0
1021
4.148538732891836
1031
0.0
1000
R14_HATCH_DATA
1000
2035E
1011
1.0
1021
0.0
1031
0.0
1021
0.0
1031
0.0
1011
0.0
1021
1.0
1031
0.0
1021
1.0
1031
0.0
1011
0.0
1021
0.0
1031
1.0
1021
0.0
1031
1.0
1040
0.0
1010
0.0
1020
0.0
1030
1.0
1000
ANSI37
1070
     0
1070
     1
1071
        1
1071
        7
1070
     0
1070
     1
1071
        4
1040
1.420999999998571
1040
0.0
1040
1.420999999998571
1040
8.763099999991255
1040
0.0
1040
8.763099999991255
1040
0.0
1040
0.0
1071
        4
1005
20322
1005
20331
1005
20323
1005
20325
1070
     0
1070
     1
1040
0.0
1040
0.15
1070
     0
1070
     2
1040
0.7853981633974483
1040
49.29960901727088
1040
-10.17736998311392
1040
-0.3367596045400932
1040
0.3367596045400932
1070
     0
1040
2.356194490192345
1040
49.29960901727088
1040
-10.17736998311392
1040
-0.3367596045400932
1040
-0.3367596045400932
1070
     0
1040
0.0053004257112761
1071
        1
1040
1.079051535452663
1040
4.148538732891836
1040
0.0
1002
}
  0
ENDBLK
  5
20A16
  8
0
  0
BLOCK
  8
0
  2
*X263
 70
     1
 10
0.0
 20
0.0
 30
0.0
  3
*X263
  1

  0
LINE
  5
24059
  8
0
  6
CONTINUOUS
 10
3.418023043697893
 20
7.251849696850613
 30
0.0
 11
4.929273346838536
 21
8.763099999991255
 31
0.0
  0
LINE
  5
2405A
  8
0
  6
CONTINUOUS
 10
1.483656411257782
 20
4.643963855330318
 30
0.0
 11
5.60279255591872
 21
8.763099999991255
 31
0.0
  0
LINE
  5
2405B
  8
0
  6
CONTINUOUS
 10
1.755053947328235
 20
4.241842182320584
 30
0.0
 11
6.276311764998907
 21
8.763099999991255
 31
0.0
  0
LINE
  5
2405C
  8
0
  6
CONTINUOUS
 10
2.026451483398688
 20
3.839720509310849
 30
0.0
 11
4.441040904851878
 21
6.254309930764039
 31
0.0
  0
LINE
  5
2405D
  8
0
  6
CONTINUOUS
 10
2.297849019469139
 20
3.437598836301114
 30
0.0
 11
3.321765168359338
 21
4.461514985191313
 31
0.0
  0
LINE
  5
2405E
  8
0
  6
CONTINUOUS
 10
2.569246555539591
 20
3.03547716329138
 30
0.0
 11
3.593163397972743
 21
4.059394005724531
 31
0.0
  0
LINE
  5
2405F
  8
0
  6
CONTINUOUS
 10
2.840644091610043
 20
2.633355490281646
 30
0.0
 11
3.864561627586149
 21
3.657273026257751
 31
0.0
  0
LINE
  5
24060
  8
0
  6
CONTINUOUS
 10
3.112041627680496
 20
2.231233817271911
 30
0.0
 11
4.135959857199554
 21
3.25515204679097
 31
0.0
  0
LINE
  5
24061
  8
0
  6
CONTINUOUS
 10
3.383439163750948
 20
1.829112144262177
 30
0.0
 11
4.40735808681296
 21
2.853031067324189
 31
0.0
  0
LINE
  5
24062
  8
0
  6
CONTINUOUS
 10
3.654836699821399
 20
1.426990471252442
 30
0.0
 11
4.678756316426365
 21
2.450910087857407
 31
0.0
  0
LINE
  5
24063
  8
0
  6
CONTINUOUS
 10
3.926234235891853
 20
1.024868798242709
 30
0.0
 11
4.95015454603977
 21
2.048789108390626
 31
0.0
  0
LINE
  5
24064
  8
0
  6
CONTINUOUS
 10
4.197631771962304
 20
0.6227471252329737
 30
0.0
 11
5.221552775653176
 21
1.646668128923846
 31
0.0
  0
LINE
  5
24065
  8
0
  6
CONTINUOUS
 10
8.715877546767851
 20
7.835069736359266
 30
0.0
 11
9.435953450375058
 21
8.555145639966472
 31
0.0
  0
LINE
  5
24066
  8
0
  6
CONTINUOUS
 10
8.170620868422267
 20
6.616293848933497
 30
0.0
 11
9.644120833743461
 21
8.08979381425469
 31
0.0
  0
LINE
  5
24067
  8
0
  6
CONTINUOUS
 10
7.625364190076684
 20
5.397517961507727
 30
0.0
 11
9.852288217111864
 21
7.624441988542907
 31
0.0
  0
LINE
  5
24068
  8
0
  6
CONTINUOUS
 10
7.080107511731101
 20
4.178742074081957
 30
0.0
 11
10.06045560048027
 21
7.159090162831124
 31
0.0
  0
LINE
  5
24069
  8
0
  6
CONTINUOUS
 10
6.534850833385518
 20
2.959966186656187
 30
0.0
 11
10.26862298384867
 21
6.693738337119342
 31
0.0
  0
LINE
  5
2406A
  8
0
  6
CONTINUOUS
 10
4.469029308032756
 20
0.2206254522232385
 30
0.0
 11
5.492951005266582
 21
1.244547149457064
 31
0.0
  0
LINE
  5
2406B
  8
0
  6
CONTINUOUS
 10
5.989594155039935
 20
1.741190299230417
 30
0.0
 11
8.806950407233131
 21
4.558546551423613
 31
0.0
  0
LINE
  5
2406C
  8
0
  6
CONTINUOUS
 10
9.401251593263643
 20
5.152847737454126
 30
0.0
 11
10.47679036721708
 21
6.228386511407559
 31
0.0
  0
LINE
  5
2406D
  8
0
  6
CONTINUOUS
 10
4.921837203428691
 20
-0.0000858614610131
 30
0.0
 11
8.592923064886001
 21
3.670999999996297
 31
0.0
  0
LINE
  5
2406E
  8
0
  6
CONTINUOUS
 10
9.609390446785305
 20
4.6874673818956
 30
0.0
 11
10.68495775058548
 21
5.763034685695775
 31
0.0
  0
LINE
  5
2406F
  8
0
  6
CONTINUOUS
 10
5.595387755019432
 20
-0.0000545189504582
 30
0.0
 11
7.716137258923768
 21
2.120694984953879
 31
0.0
  0
LINE
  5
24070
  8
0
  6
CONTINUOUS
 10
6.268938306610172
 20
-0.000023176439905
 30
0.0
 11
7.170485805526503
 21
0.9015243224764267
 31
0.0
  0
LINE
  5
24071
  8
0
  6
CONTINUOUS
 10
7.963842273967511
 20
2.368399999997621
 30
0.0
 11
9.266442273966188
 21
3.670999999996297
 31
0.0
  0
LINE
  5
24072
  8
0
  6
CONTINUOUS
 10
8.637361483047696
 20
2.368399999997621
 30
0.0
 11
9.939961483046375
 21
3.670999999996297
 31
0.0
  0
LINE
  5
24073
  8
0
  6
CONTINUOUS
 10
9.817529300306965
 20
4.222087026337075
 30
0.0
 11
10.89312513395388
 21
5.297682859983993
 31
0.0
  0
LINE
  5
24074
  8
0
  6
CONTINUOUS
 10
10.02566815382863
 20
3.756706670778549
 30
0.0
 11
11.10129251732229
 21
4.832331034272211
 31
0.0
  0
LINE
  5
24075
  8
0
  6
CONTINUOUS
 10
9.310880692127883
 20
2.368399999997621
 30
0.0
 11
11.30945990069069
 21
4.366979208560428
 31
0.0
  0
LINE
  5
24076
  8
0
  6
CONTINUOUS
 10
9.98439990120807
 20
2.36839999999762
 30
0.0
 11
11.5176272840591
 21
3.901627382848645
 31
0.0
  0
LINE
  5
24077
  8
0
  6
CONTINUOUS
 10
10.65037369446246
 20
2.36085458417182
 30
0.0
 11
11.7257946674275
 21
3.436275557136862
 31
0.0
  0
LINE
  5
24078
  8
0
  6
CONTINUOUS
 10
10.85847197087848
 20
1.895433651507656
 30
0.0
 11
11.9339620507959
 21
2.97092373142508
 31
0.0
  0
LINE
  5
24079
  8
0
  6
CONTINUOUS
 10
11.0665702472945
 20
1.430012718843491
 30
0.0
 11
12.14212943416431
 21
2.505571905713296
 31
0.0
  0
LINE
  5
2407A
  8
0
  6
CONTINUOUS
 10
11.27466852371052
 20
0.9645917861793256
 30
0.0
 11
12.35029681753271
 21
2.040220080001513
 31
0.0
  0
LINE
  5
2407B
  8
0
  6
CONTINUOUS
 10
11.48276680012654
 20
0.4991708535151611
 30
0.0
 11
12.55846420090111
 21
1.57486825428973
 31
0.0
  0
LINE
  5
2407C
  8
0
  6
CONTINUOUS
 10
11.69086507654257
 20
0.0337499208509957
 30
0.0
 11
12.76663158426952
 21
1.109516428577947
 31
0.0
  0
LINE
  5
2407D
  8
0
  6
CONTINUOUS
 10
12.33057447873954
 20
-0.0000598860322123
 30
0.0
 11
12.97479896763792
 21
0.6441646028661663
 31
0.0
  0
LINE
  5
2407E
  8
0
  6
CONTINUOUS
 10
13.00413694809395
 20
-0.0000166257579952
 30
0.0
 11
13.18296635100632
 21
0.1788127771543824
 31
0.0
  0
LINE
  5
2407F
  8
0
  6
CONTINUOUS
 10
4.772852165289667
 20
-0.000092794222212
 30
0.0
 11
4.296495091028902
 21
0.4762642800385528
 31
0.0
  0
LINE
  5
24080
  8
0
  6
CONTINUOUS
 10
5.446340034776103
 20
-0.0000614546284616
 30
0.0
 11
2.898195908335625
 21
2.548082671812017
 31
0.0
  0
LINE
  5
24081
  8
0
  6
CONTINUOUS
 10
6.119827904262539
 20
-0.0000301150347113
 30
0.0
 11
1.499896725642348
 21
4.61990106358548
 31
0.0
  0
LINE
  5
24082
  8
0
  6
CONTINUOUS
 10
6.775136745476159
 20
0.0181802528318542
 30
0.0
 11
5.699826040202669
 21
1.093490958105344
 31
0.0
  0
LINE
  5
24083
  8
0
  6
CONTINUOUS
 10
6.983376846288489
 20
0.4834593610997118
 30
0.0
 11
5.908008617934405
 21
1.558827589453796
 31
0.0
  0
LINE
  5
24084
  8
0
  6
CONTINUOUS
 10
5.377063484962296
 20
1.416253513345719
 30
0.0
 11
1.702276957014131
 21
5.091040041293883
 31
0.0
  0
LINE
  5
24085
  8
0
  6
CONTINUOUS
 10
3.978745891735324
 20
3.488090315652877
 30
0.0
 11
2.000373521109399
 21
5.466462686278803
 31
0.0
  0
LINE
  5
24086
  8
0
  6
CONTINUOUS
 10
7.191616947100819
 20
0.948738469367568
 30
0.0
 11
6.11619119566614
 21
2.024164220802247
 31
0.0
  0
LINE
  5
24087
  8
0
  6
CONTINUOUS
 10
7.399857047913149
 20
1.414017577635424
 30
0.0
 11
6.324373773397875
 21
2.489500852150698
 31
0.0
  0
LINE
  5
24088
  8
0
  6
CONTINUOUS
 10
7.608097148725479
 20
1.879296685903281
 30
0.0
 11
6.53255635112961
 21
2.95483748349915
 31
0.0
  0
LINE
  5
24089
  8
0
  6
CONTINUOUS
 10
7.816337249537808
 20
2.344575794171138
 30
0.0
 11
6.740738928861345
 21
3.420174114847601
 31
0.0
  0
LINE
  5
2408A
  8
0
  6
CONTINUOUS
 10
3.310241080789734
 20
4.830114335678653
 30
0.0
 11
2.298470085204666
 21
5.84188533126372
 31
0.0
  0
LINE
  5
2408B
  8
0
  6
CONTINUOUS
 10
3.60832983563551
 20
5.205544789913063
 30
0.0
 11
2.596566649299935
 21
6.217307976248638
 31
0.0
  0
LINE
  5
2408C
  8
0
  6
CONTINUOUS
 10
3.906418590481286
 20
5.580975244147473
 30
0.0
 11
2.894663213395203
 21
6.592730621233557
 31
0.0
  0
LINE
  5
2408D
  8
0
  6
CONTINUOUS
 10
4.204507345327062
 20
5.956405698381884
 30
0.0
 11
3.192759777490472
 21
6.968153266218474
 31
0.0
  0
LINE
  5
2408E
  8
0
  6
CONTINUOUS
 10
8.466032252791512
 20
2.368399999997621
 30
0.0
 11
6.948921506593081
 21
3.885510746196053
 31
0.0
  0
LINE
  5
2408F
  8
0
  6
CONTINUOUS
 10
9.139551461871699
 20
2.36839999999762
 30
0.0
 11
7.157104084324816
 21
4.350847377544504
 31
0.0
  0
LINE
  5
24090
  8
0
  6
CONTINUOUS
 10
4.502596100172839
 20
6.331836152616295
 30
0.0
 11
3.49085634158574
 21
7.343575911203393
 31
0.0
  0
LINE
  5
24091
  8
0
  6
CONTINUOUS
 10
4.800684855018615
 20
6.707266606850705
 30
0.0
 11
3.788952905681008
 21
7.718998556188312
 31
0.0
  0
LINE
  5
24092
  8
0
  6
CONTINUOUS
 10
12.18154012887317
 20
-0.0000694579236642
 30
0.0
 11
11.32140332908496
 21
0.8600673418645499
 31
0.0
  0
LINE
  5
24093
  8
0
  6
CONTINUOUS
 10
12.85501608323566
 20
-0.0000262032059659
 30
0.0
 11
10.77672456435345
 21
2.078265315676246
 31
0.0
  0
LINE
  5
24094
  8
0
  6
CONTINUOUS
 10
9.813070670951886
 20
2.36839999999762
 30
0.0
 11
8.51047067095321
 21
3.670999999996297
 31
0.0
  0
LINE
  5
24095
  8
0
  6
CONTINUOUS
 10
10.48658988003207
 20
2.36839999999762
 30
0.0
 11
9.183989880033396
 21
3.670999999996297
 31
0.0
  0
LINE
  5
24096
  8
0
  6
CONTINUOUS
 10
8.441048632286794
 20
3.740422038662712
 30
0.0
 11
7.365286662056551
 21
4.816184008892956
 31
0.0
  0
LINE
  5
24097
  8
0
  6
CONTINUOUS
 10
8.649187485808454
 20
4.205802394221237
 30
0.0
 11
7.573469239788285
 21
5.281520640241407
 31
0.0
  0
LINE
  5
24098
  8
0
  6
CONTINUOUS
 10
5.098773609864391
 20
7.082697061085115
 30
0.0
 11
4.087049469776277
 21
8.09442120117323
 31
0.0
  0
LINE
  5
24099
  8
0
  6
CONTINUOUS
 10
5.396862364710167
 20
7.458127515319526
 30
0.0
 11
4.385146033871544
 21
8.469843846158149
 31
0.0
  0
LINE
  5
2409A
  8
0
  6
CONTINUOUS
 10
13.04801363231285
 20
0.4804954567970334
 30
0.0
 11
9.85750908911358
 21
3.670999999996297
 31
0.0
  0
LINE
  5
2409B
  8
0
  6
CONTINUOUS
 10
8.857326339330116
 20
4.671182749779763
 30
0.0
 11
7.781651817520021
 21
5.746857271589858
 31
0.0
  0
LINE
  5
2409C
  8
0
  6
CONTINUOUS
 10
5.694951119555943
 20
7.833557969553937
 30
0.0
 11
4.765409089118624
 21
8.763099999991255
 31
0.0
  0
LINE
  5
2409D
  8
0
  6
CONTINUOUS
 10
12.50286117236978
 20
1.699167125820288
 30
0.0
 11
9.68611877250287
 21
4.515909525687196
 31
0.0
  0
LINE
  5
2409E
  8
0
  6
CONTINUOUS
 10
9.065465192851777
 20
5.136563105338288
 30
0.0
 11
7.989834395251757
 21
6.21219390293831
 31
0.0
  0
LINE
  5
2409F
  8
0
  6
CONTINUOUS
 10
5.993039874401719
 20
8.208988423788346
 30
0.0
 11
5.43892829819881
 21
8.763099999991255
 31
0.0
  0
LINE
  5
240A0
  8
0
  6
CONTINUOUS
 10
11.95770871242671
 20
2.917838794843543
 30
0.0
 11
8.19801697298349
 21
6.677530534286761
 31
0.0
  0
LINE
  5
240A1
  8
0
  6
CONTINUOUS
 10
6.291128629247495
 20
8.584418878022756
 30
0.0
 11
6.112447507278997
 21
8.763099999991255
 31
0.0
  0
LINE
  5
240A2
  8
0
  6
CONTINUOUS
 10
11.41255625248364
 20
4.136510463866797
 30
0.0
 11
8.406199550715227
 21
7.142867165635211
 31
0.0
  0
LINE
  5
240A3
  8
0
  6
CONTINUOUS
 10
10.86740379254057
 20
5.355182132890051
 30
0.0
 11
8.614382128446962
 21
7.608203796983664
 31
0.0
  0
LINE
  5
240A4
  8
0
  6
CONTINUOUS
 10
10.3222513325975
 20
6.573853801913305
 30
0.0
 11
8.822564706178696
 21
8.073540428332114
 31
0.0
  0
LINE
  5
240A5
  8
0
  6
CONTINUOUS
 10
9.777098872654436
 20
7.792525470936562
 30
0.0
 11
9.030747283910433
 21
8.538877059680566
 31
0.0
  0
ENDBLK
  5
241E7
  8
0
  0
BLOCK
  8
0
  2
*X264
 70
     1
 10
0.0
 20
0.0
 30
0.0
  3
*X264
  1

  0
LINE
  5
240A7
  8
0
  6
CONTINUOUS
 10
10.67292308101235
 20
8.445076852443387
 30
0.0
 11
10.99094622856022
 21
8.763099999991255
 31
0.0
  0
LINE
  5
240A8
  8
0
  6
CONTINUOUS
 10
10.87250383178748
 20
7.971138394138331
 30
0.0
 11
11.6644654376404
 21
8.763099999991255
 31
0.0
  0
LINE
  5
240A9
  8
0
  6
CONTINUOUS
 10
11.07208458256261
 20
7.497199935833273
 30
0.0
 11
12.12126590876355
 21
8.546381262034211
 31
0.0
  0
LINE
  5
240AA
  8
0
  6
CONTINUOUS
 10
11.27166533333774
 20
7.023261477528216
 30
0.0
 11
12.32085164573666
 21
8.072447789927136
 31
0.0
  0
LINE
  5
240AB
  8
0
  6
CONTINUOUS
 10
11.47124608411287
 20
6.549323019223158
 30
0.0
 11
12.52043738270977
 21
7.59851431782006
 31
0.0
  0
LINE
  5
240AC
  8
0
  6
CONTINUOUS
 10
11.670826834888
 20
6.075384560918101
 30
0.0
 11
12.72002311968288
 21
7.124580845712984
 31
0.0
  0
LINE
  5
240AD
  8
0
  6
CONTINUOUS
 10
11.87040758566313
 20
5.601446102613043
 30
0.0
 11
12.91960885665599
 21
6.650647373605907
 31
0.0
  0
LINE
  5
240AE
  8
0
  6
CONTINUOUS
 10
12.06998833643825
 20
5.127507644307986
 30
0.0
 11
13.1191945936291
 21
6.176713901498832
 31
0.0
  0
LINE
  5
240AF
  8
0
  6
CONTINUOUS
 10
12.26956908721338
 20
4.65356918600293
 30
0.0
 11
13.31878033060221
 21
5.702780429391757
 31
0.0
  0
LINE
  5
240B0
  8
0
  6
CONTINUOUS
 10
12.46914983798851
 20
4.179630727697873
 30
0.0
 11
13.51836606757532
 21
5.228846957284683
 31
0.0
  0
LINE
  5
240B1
  8
0
  6
CONTINUOUS
 10
12.66873058876364
 20
3.705692269392816
 30
0.0
 11
13.71795180454843
 21
4.754913485177607
 31
0.0
  0
LINE
  5
240B2
  8
0
  6
CONTINUOUS
 10
12.86831133953877
 20
3.231753811087759
 30
0.0
 11
13.91753754152154
 21
4.280980013070531
 31
0.0
  0
LINE
  5
240B3
  8
0
  6
CONTINUOUS
 10
13.0678920903139
 20
2.757815352782702
 30
0.0
 11
14.11712327849465
 21
3.807046540963456
 31
0.0
  0
LINE
  5
240B4
  8
0
  6
CONTINUOUS
 10
13.26747284108903
 20
2.283876894477644
 30
0.0
 11
14.31670901546777
 21
3.333113068856379
 31
0.0
  0
LINE
  5
240B5
  8
0
  6
CONTINUOUS
 10
16.36767838827179
 20
8.751678487061342
 30
0.0
 11
16.50332410898388
 21
8.887324207773432
 31
0.0
  0
LINE
  5
240B6
  8
0
  6
CONTINUOUS
 10
15.96190732182191
 20
7.67238821153127
 30
0.0
 11
16.68735328004734
 21
8.397834169756699
 31
0.0
  0
LINE
  5
240B7
  8
0
  6
CONTINUOUS
 10
15.55613625537202
 20
6.593097936001196
 30
0.0
 11
16.87138245111079
 21
7.908344131739965
 31
0.0
  0
LINE
  5
240B8
  8
0
  6
CONTINUOUS
 10
15.15036518892213
 20
5.513807660471122
 30
0.0
 11
17.05541162217424
 21
7.418854093723231
 31
0.0
  0
LINE
  5
240B9
  8
0
  6
CONTINUOUS
 10
14.74459412247225
 20
4.434517384941048
 30
0.0
 11
17.2394407932377
 21
6.929364055706499
 31
0.0
  0
LINE
  5
240BA
  8
0
  6
CONTINUOUS
 10
14.33882305602236
 20
3.355227109410975
 30
0.0
 11
17.42346996430115
 21
6.439874017689766
 31
0.0
  0
LINE
  5
240BB
  8
0
  6
CONTINUOUS
 10
13.46705359186416
 20
1.809938436172586
 30
0.0
 11
16.0819338255367
 21
4.424818669845129
 31
0.0
  0
LINE
  5
240BC
  8
0
  6
CONTINUOUS
 10
16.63283254238972
 20
4.975717386698149
 30
0.0
 11
17.60749913536461
 21
5.950383979673033
 31
0.0
  0
LINE
  5
240BD
  8
0
  6
CONTINUOUS
 10
13.66663434263929
 20
1.335999977867529
 30
0.0
 11
15.67604797733754
 21
3.345413612565779
 31
0.0
  0
LINE
  5
240BE
  8
0
  6
CONTINUOUS
 10
13.86621509341442
 20
0.8620615195624723
 30
0.0
 11
15.27016212913838
 21
2.26600855528643
 31
0.0
  0
LINE
  5
240BF
  8
0
  6
CONTINUOUS
 10
16.81682257348267
 20
4.486188208710908
 30
0.0
 11
17.79152830642806
 21
5.460893941656299
 31
0.0
  0
LINE
  5
240C0
  8
0
  6
CONTINUOUS
 10
17.00081260457561
 20
3.996659030723667
 30
0.0
 11
17.97555747749151
 21
4.971403903639565
 31
0.0
  0
LINE
  5
240C1
  8
0
  6
CONTINUOUS
 10
20.74362343514722
 20
8.412989070375462
 30
0.0
 11
21.09373436476302
 21
8.763099999991256
 31
0.0
  0
LINE
  5
240C2
  8
0
  6
CONTINUOUS
 10
20.25401257174777
 20
7.249858997895826
 30
0.0
 11
21.7672535738432
 21
8.763099999991255
 31
0.0
  0
LINE
  5
240C3
  8
0
  6
CONTINUOUS
 10
14.06579584418955
 20
0.3881230612574149
 30
0.0
 11
14.86427628093921
 21
1.186603498007082
 31
0.0
  0
LINE
  5
240C4
  8
0
  6
CONTINUOUS
 10
14.26537659496467
 20
-0.0858153970476412
 30
0.0
 11
14.45839043274005
 21
0.1071984407277329
 31
0.0
  0
LINE
  5
240C5
  8
0
  6
CONTINUOUS
 10
17.18480263566856
 20
3.507129852736426
 30
0.0
 11
18.15958664855496
 21
4.481913865622833
 31
0.0
  0
LINE
  5
240C6
  8
0
  6
CONTINUOUS
 10
17.3687926667615
 20
3.017600674749186
 30
0.0
 11
18.34361581961842
 21
3.9924238276061
 31
0.0
  0
LINE
  5
240C7
  8
0
  6
CONTINUOUS
 10
19.76440170834832
 20
6.086728925416191
 30
0.0
 11
22.33924590259489
 21
8.661573119662755
 31
0.0
  0
LINE
  5
240C8
  8
0
  6
CONTINUOUS
 10
19.27479084494887
 20
4.923598852936555
 30
0.0
 11
21.84929622842713
 21
7.498104236414807
 31
0.0
  0
LINE
  5
240C9
  8
0
  6
CONTINUOUS
 10
17.55278269785445
 20
2.528071496761945
 30
0.0
 11
18.52764499068187
 21
3.502933789589366
 31
0.0
  0
LINE
  5
240CA
  8
0
  6
CONTINUOUS
 10
18.78517998154942
 20
3.760468780456919
 30
0.0
 11
21.35934655425936
 21
6.33463535316686
 31
0.0
  0
LINE
  5
240CB
  8
0
  6
CONTINUOUS
 10
17.73677272894739
 20
2.038542318774704
 30
0.0
 11
20.8693968800916
 21
5.171166469918914
 31
0.0
  0
LINE
  5
240CC
  8
0
  6
CONTINUOUS
 10
17.92076276004034
 20
1.549013140787464
 30
0.0
 11
20.37944720592384
 21
4.007697586670968
 31
0.0
  0
LINE
  5
240CD
  8
0
  6
CONTINUOUS
 10
18.10475279113329
 20
1.059483962800223
 30
0.0
 11
19.88949753175608
 21
2.84422870342302
 31
0.0
  0
LINE
  5
240CE
  8
0
  6
CONTINUOUS
 10
18.28874282222623
 20
0.5699547848129822
 30
0.0
 11
19.39954785758832
 21
1.680759820175074
 31
0.0
  0
LINE
  5
240CF
  8
0
  6
CONTINUOUS
 10
18.47273285331918
 20
0.0804256068257416
 30
0.0
 11
18.90959818342056
 21
0.517290936927127
 31
0.0
  0
LINE
  5
240D0
  8
0
  6
CONTINUOUS
 10
14.3590401358224
 20
-0.1570118376323384
 30
0.0
 11
14.24903296539946
 21
-0.0470046672093929
 31
0.0
  0
LINE
  5
240D1
  8
0
  6
CONTINUOUS
 10
14.54309291258661
 20
0.332454594683643
 30
0.0
 11
13.75908329123172
 21
1.116464216038529
 31
0.0
  0
LINE
  5
240D2
  8
0
  6
CONTINUOUS
 10
14.72714568935081
 20
0.8219210269996244
 30
0.0
 11
13.26913361706399
 21
2.27993309928645
 31
0.0
  0
LINE
  5
240D3
  8
0
  6
CONTINUOUS
 10
14.91119846611502
 20
1.311387459315606
 30
0.0
 11
12.77918394289625
 21
3.443401982534371
 31
0.0
  0
LINE
  5
240D4
  8
0
  6
CONTINUOUS
 10
15.09525124287922
 20
1.800853891631587
 30
0.0
 11
12.28923426872852
 21
4.606870865782293
 31
0.0
  0
LINE
  5
240D5
  8
0
  6
CONTINUOUS
 10
15.27930401964343
 20
2.290320323947569
 30
0.0
 11
11.79928459456078
 21
5.770339749030213
 31
0.0
  0
LINE
  5
240D6
  8
0
  6
CONTINUOUS
 10
15.46335679640763
 20
2.77978675626355
 30
0.0
 11
14.48885470994921
 21
3.754288842721972
 31
0.0
  0
LINE
  5
240D7
  8
0
  6
CONTINUOUS
 10
13.88507249233704
 20
4.358071060334137
 30
0.0
 11
11.30933492039305
 21
6.933808632278135
 31
0.0
  0
LINE
  5
240D8
  8
0
  6
CONTINUOUS
 10
18.75840522805855
 20
0.1582575336928151
 30
0.0
 11
18.25383727664818
 21
0.6628254851031863
 31
0.0
  0
LINE
  5
240D9
  8
0
  6
CONTINUOUS
 10
15.64740957317184
 20
3.269253188579531
 30
0.0
 11
14.67288388101266
 21
4.243778880738705
 31
0.0
  0
LINE
  5
240DA
  8
0
  6
CONTINUOUS
 10
13.39509276772158
 20
5.521569994029786
 30
0.0
 11
10.81938524622531
 21
8.097277515526056
 31
0.0
  0
LINE
  5
240DB
  8
0
  6
CONTINUOUS
 10
18.95798597883369
 20
0.6321959919978686
 30
0.0
 11
17.84825644852853
 21
1.741925522303024
 31
0.0
  0
LINE
  5
240DC
  8
0
  6
CONTINUOUS
 10
19.15756672960882
 20
1.106134450302922
 30
0.0
 11
17.44267562040888
 21
2.821025559502861
 31
0.0
  0
LINE
  5
240DD
  8
0
  6
CONTINUOUS
 10
15.83146234993604
 20
3.758719620895513
 30
0.0
 11
14.85691305207612
 21
4.733268918755439
 31
0.0
  0
LINE
  5
240DE
  8
0
  6
CONTINUOUS
 10
16.01551512670025
 20
4.248186053211494
 30
0.0
 11
15.04094222313957
 21
5.222758956772172
 31
0.0
  0
LINE
  5
240DF
  8
0
  6
CONTINUOUS
 10
12.90511304310612
 20
6.685068927725435
 30
0.0
 11
10.8270819708403
 21
8.763099999991255
 31
0.0
  0
LINE
  5
240E0
  8
0
  6
CONTINUOUS
 10
12.41513331849066
 20
7.848567861421083
 30
0.0
 11
11.50060117992049
 21
8.763099999991255
 31
0.0
  0
LINE
  5
240E1
  8
0
  6
CONTINUOUS
 10
19.35714748038395
 20
1.580072908607975
 30
0.0
 11
17.03709479228923
 21
3.900125596702697
 31
0.0
  0
LINE
  5
240E2
  8
0
  6
CONTINUOUS
 10
19.55672823115909
 20
2.054011366913028
 30
0.0
 11
16.63151396416958
 21
4.979225633902534
 31
0.0
  0
LINE
  5
240E3
  8
0
  6
CONTINUOUS
 10
16.19956790346445
 20
4.737652485527476
 30
0.0
 11
15.22497139420302
 21
5.712248994788904
 31
0.0
  0
LINE
  5
240E4
  8
0
  6
CONTINUOUS
 10
16.38362068022866
 20
5.227118917843457
 30
0.0
 11
15.40900056526648
 21
6.201739032805637
 31
0.0
  0
LINE
  5
240E5
  8
0
  6
CONTINUOUS
 10
19.75630898193422
 20
2.527949825218081
 30
0.0
 11
18.70774536448286
 21
3.576513442669441
 31
0.0
  0
LINE
  5
240E6
  8
0
  6
CONTINUOUS
 10
19.95588973270936
 20
3.001888283523134
 30
0.0
 11
18.90726987211446
 21
4.050508144118028
 31
0.0
  0
LINE
  5
240E7
  8
0
  6
CONTINUOUS
 10
20.15547048348449
 20
3.475826741828186
 30
0.0
 11
19.10679437974606
 21
4.524502845566614
 31
0.0
  0
LINE
  5
240E8
  8
0
  6
CONTINUOUS
 10
20.35505123425962
 20
3.94976520013324
 30
0.0
 11
19.30631888737766
 21
4.998497547015201
 31
0.0
  0
LINE
  5
240E9
  8
0
  6
CONTINUOUS
 10
20.55463198503475
 20
4.423703658438292
 30
0.0
 11
19.50584339500926
 21
5.472492248463787
 31
0.0
  0
LINE
  5
240EA
  8
0
  6
CONTINUOUS
 10
18.37481191085755
 20
3.909446896294752
 30
0.0
 11
15.59302973632993
 21
6.691229070822371
 31
0.0
  0
LINE
  5
240EB
  8
0
  6
CONTINUOUS
 10
17.96904084440766
 20
4.988737171824825
 30
0.0
 11
15.77705890739338
 21
7.180719108839104
 31
0.0
  0
LINE
  5
240EC
  8
0
  6
CONTINUOUS
 10
17.56326977795777
 20
6.068027447354899
 30
0.0
 11
15.96108807845684
 21
7.670209146855838
 31
0.0
  0
LINE
  5
240ED
  8
0
  6
CONTINUOUS
 10
17.15749871150789
 20
7.147317722884972
 30
0.0
 11
16.14511724952029
 21
8.15969918487257
 31
0.0
  0
LINE
  5
240EE
  8
0
  6
CONTINUOUS
 10
16.751727645058
 20
8.226607998415046
 30
0.0
 11
16.32914642058374
 21
8.649189222889303
 31
0.0
  0
LINE
  5
240EF
  8
0
  6
CONTINUOUS
 10
20.75421273580989
 20
4.897642116743345
 30
0.0
 11
19.70536790264086
 21
5.946486949912374
 31
0.0
  0
LINE
  5
240F0
  8
0
  6
CONTINUOUS
 10
20.95379348658502
 20
5.371580575048398
 30
0.0
 11
19.90489241027246
 21
6.42048165136096
 31
0.0
  0
LINE
  5
240F1
  8
0
  6
CONTINUOUS
 10
21.15337423736015
 20
5.845519033353452
 30
0.0
 11
20.10441691790406
 21
6.894476352809547
 31
0.0
  0
LINE
  5
240F2
  8
0
  6
CONTINUOUS
 10
21.35295498813529
 20
6.319457491658505
 30
0.0
 11
20.30394142553566
 21
7.368471054258134
 31
0.0
  0
LINE
  5
240F3
  8
0
  6
CONTINUOUS
 10
21.55253573891042
 20
6.793395949963558
 30
0.0
 11
20.50346593316726
 21
7.842465755706721
 31
0.0
  0
LINE
  5
240F4
  8
0
  6
CONTINUOUS
 10
21.75211648968556
 20
7.267334408268612
 30
0.0
 11
20.70299044079886
 21
8.316460457155308
 31
0.0
  0
LINE
  5
240F5
  8
0
  6
CONTINUOUS
 10
21.95169724046069
 20
7.741272866573663
 30
0.0
 11
20.9298701070431
 21
8.763099999991256
 31
0.0
  0
LINE
  5
240F6
  8
0
  6
CONTINUOUS
 10
22.15127799123582
 20
8.215211324878716
 30
0.0
 11
21.60338931612328
 21
8.763099999991256
 31
0.0
  0
LINE
  5
240F7
  8
0
  6
CONTINUOUS
 10
22.35085874201096
 20
8.689149783183769
 30
0.0
 11
22.27690852520347
 21
8.763099999991255
 31
0.0
  0
ENDBLK
  5
241E9
  8
0
  0
BLOCK
  8
0
  2
*X265
 70
     1
 10
0.0
 20
0.0
 30
0.0
  3
*X265
  1

  0
LINE
  5
240F9
  8
0
  6
CONTINUOUS
 10
23.19462913593892
 20
8.169917934846424
 30
0.0
 11
23.70775465517246
 21
8.683043454079957
 31
0.0
  0
LINE
  5
240FA
  8
0
  6
CONTINUOUS
 10
22.64923161835078
 20
6.951001208178088
 30
0.0
 11
23.9159364069932
 21
8.217705996820516
 31
0.0
  0
LINE
  5
240FB
  8
0
  6
CONTINUOUS
 10
22.10383410076263
 20
5.732084481509751
 30
0.0
 11
24.12411815881395
 21
7.752368539561078
 31
0.0
  0
LINE
  5
240FC
  8
0
  6
CONTINUOUS
 10
21.55843658317447
 20
4.513167754841414
 30
0.0
 11
24.3322999106347
 21
7.287031082301639
 31
0.0
  0
LINE
  5
240FD
  8
0
  6
CONTINUOUS
 10
21.01303906558632
 20
3.294251028173077
 30
0.0
 11
24.54048166245544
 21
6.821693625042199
 31
0.0
  0
LINE
  5
240FE
  8
0
  6
CONTINUOUS
 10
20.46764154799817
 20
2.075334301504738
 30
0.0
 11
23.28571549467848
 21
4.89340824818505
 31
0.0
  0
LINE
  5
240FF
  8
0
  6
CONTINUOUS
 10
19.92224403041002
 20
0.8564175748364002
 30
0.0
 11
22.74075865492779
 21
3.674932199354171
 31
0.0
  0
LINE
  5
24100
  8
0
  6
CONTINUOUS
 10
23.67305085490148
 20
5.280743608408048
 30
0.0
 11
24.74866341427619
 21
6.356356167782759
 31
0.0
  0
LINE
  5
24101
  8
0
  6
CONTINUOUS
 10
23.88118970842314
 20
4.815363252849522
 30
0.0
 11
24.95684516609694
 21
5.89101871052332
 31
0.0
  0
LINE
  5
24102
  8
0
  6
CONTINUOUS
 10
19.73925852647308
 20
-0.0000871381807288
 30
0.0
 11
23.4103456646501
 21
3.670999999996297
 31
0.0
  0
LINE
  5
24103
  8
0
  6
CONTINUOUS
 10
24.0893285619448
 20
4.349982897290997
 30
0.0
 11
25.16502691791769
 21
5.42568125326388
 31
0.0
  0
LINE
  5
24104
  8
0
  6
CONTINUOUS
 10
20.41282099582748
 20
-0.0000438779065108
 30
0.0
 11
21.64944178675636
 21
1.236576913022366
 31
0.0
  0
LINE
  5
24105
  8
0
  6
CONTINUOUS
 10
22.78126487373161
 20
2.36839999999762
 30
0.0
 11
24.08386487373029
 21
3.670999999996297
 31
0.0
  0
LINE
  5
24106
  8
0
  6
CONTINUOUS
 10
24.29746741546646
 20
3.884602541732471
 30
0.0
 11
25.37320866973843
 21
4.960343796004441
 31
0.0
  0
LINE
  5
24107
  8
0
  6
CONTINUOUS
 10
21.08638346518189
 20
-0.0000006176322938
 30
0.0
 11
21.10379033335899
 21
0.0174062505448083
 31
0.0
  0
LINE
  5
24108
  8
0
  6
CONTINUOUS
 10
23.4547840828118
 20
2.36839999999762
 30
0.0
 11
25.58139042155918
 21
4.495006338745002
 31
0.0
  0
LINE
  5
24109
  8
0
  6
CONTINUOUS
 10
29.30199999996933
 20
8.215615917155148
 30
0.0
 11
29.84948408280543
 21
8.763099999991255
 31
0.0
  0
LINE
  5
2410A
  8
0
  6
CONTINUOUS
 10
24.12830329189199
 20
2.36839999999762
 30
0.0
 11
25.78957217337993
 21
4.029668881485562
 31
0.0
  0
LINE
  5
2410B
  8
0
  6
CONTINUOUS
 10
29.30199999996933
 20
7.54209670807496
 30
0.0
 11
30.52300329188562
 21
8.763099999991255
 31
0.0
  0
LINE
  5
2410C
  8
0
  6
CONTINUOUS
 10
24.80182250097217
 20
2.36839999999762
 30
0.0
 11
25.99775392520067
 21
3.564331424226122
 31
0.0
  0
LINE
  5
2410D
  8
0
  6
CONTINUOUS
 10
29.30199999996933
 20
6.868577498994774
 30
0.0
 11
30.74199999996926
 21
8.308577498994712
 31
0.0
  0
LINE
  5
2410E
  8
0
  6
CONTINUOUS
 10
25.13028238392013
 20
2.023340673865392
 30
0.0
 11
26.20593567702142
 21
3.098993966966683
 31
0.0
  0
LINE
  5
2410F
  8
0
  6
CONTINUOUS
 10
25.33838066033617
 20
1.557919741201244
 30
0.0
 11
26.41411742884217
 21
2.633656509707244
 31
0.0
  0
LINE
  5
24110
  8
0
  6
CONTINUOUS
 10
25.54647893675221
 20
1.092498808537098
 30
0.0
 11
26.62229918066291
 21
2.168319052447804
 31
0.0
  0
LINE
  5
24111
  8
0
  6
CONTINUOUS
 10
25.75457721316825
 20
0.62707787587295
 30
0.0
 11
26.83048093248366
 21
1.702981595188365
 31
0.0
  0
LINE
  5
24112
  8
0
  6
CONTINUOUS
 10
29.30199999996933
 20
6.195058289914587
 30
0.0
 11
30.74199999996926
 21
7.635058289914522
 31
0.0
  0
LINE
  5
24113
  8
0
  6
CONTINUOUS
 10
29.30199999996933
 20
5.521539080834401
 30
0.0
 11
30.74199999996926
 21
6.961539080834331
 31
0.0
  0
LINE
  5
24114
  8
0
  6
CONTINUOUS
 10
29.30199999996933
 20
4.848019871754214
 30
0.0
 11
30.74199999996925
 21
6.288019871754143
 31
0.0
  0
LINE
  5
24115
  8
0
  6
CONTINUOUS
 10
29.30199999996933
 20
4.174500662674028
 30
0.0
 11
30.74199999996925
 21
5.614500662673953
 31
0.0
  0
LINE
  5
24116
  8
0
  6
CONTINUOUS
 10
25.96267548958429
 20
0.1616569432088024
 30
0.0
 11
27.18411854636669
 21
1.383099999991207
 31
0.0
  0
LINE
  5
24117
  8
0
  6
CONTINUOUS
 10
29.30199999996933
 20
3.500981453593841
 30
0.0
 11
30.74199999996925
 21
4.940981453593762
 31
0.0
  0
LINE
  5
24118
  8
0
  6
CONTINUOUS
 10
26.50763775544691
 20
0.0330999999912356
 30
0.0
 11
27.85763775544689
 21
1.383099999991223
 31
0.0
  0
LINE
  5
24119
  8
0
  6
CONTINUOUS
 10
29.30199999996933
 20
2.827462244513656
 30
0.0
 11
30.74199999996925
 21
4.267462244513574
 31
0.0
  0
LINE
  5
2411A
  8
0
  6
CONTINUOUS
 10
27.18115696452709
 20
0.0330999999912356
 30
0.0
 11
28.6224847300034
 21
1.474427765467545
 31
0.0
  0
LINE
  5
2411B
  8
0
  6
CONTINUOUS
 10
29.21067223449293
 20
2.062615269957069
 30
0.0
 11
30.74199999996924
 21
3.593943035433383
 31
0.0
  0
LINE
  5
2411C
  8
0
  6
CONTINUOUS
 10
27.85467617360728
 20
0.0330999999912356
 30
0.0
 11
30.74199999996924
 21
2.920423826353195
 31
0.0
  0
LINE
  5
2411D
  8
0
  6
CONTINUOUS
 10
28.57438609860264
 20
0.0792907159064073
 30
0.0
 11
30.69580928405405
 21
2.200713901357819
 31
0.0
  0
LINE
  5
2411E
  8
0
  6
CONTINUOUS
 10
29.49443044814297
 20
0.3258158563665496
 30
0.0
 11
30.44928414359389
 21
1.280669551817477
 31
0.0
  0
LINE
  5
2411F
  8
0
  6
CONTINUOUS
 10
19.59027867740337
 20
-0.0000967065718083
 30
0.0
 11
19.55485265190471
 21
0.035329318926844
 31
0.0
  0
LINE
  5
24120
  8
0
  6
CONTINUOUS
 10
20.26375463176586
 20
-0.0000534518541091
 30
0.0
 11
19.76305575737534
 21
0.5006454225364014
 31
0.0
  0
LINE
  5
24121
  8
0
  6
CONTINUOUS
 10
20.93723058612834
 20
-0.0000101971364099
 30
0.0
 11
19.97125886284597
 21
0.965961526145958
 31
0.0
  0
LINE
  5
24122
  8
0
  6
CONTINUOUS
 10
21.25514828313686
 20
0.355591314935257
 30
0.0
 11
20.1794619683166
 21
1.431277629755512
 31
0.0
  0
LINE
  5
24123
  8
0
  6
CONTINUOUS
 10
21.46338838394921
 20
0.8208704232030986
 30
0.0
 11
20.38766507378723
 21
1.896593733365069
 31
0.0
  0
LINE
  5
24124
  8
0
  6
CONTINUOUS
 10
21.67162848476155
 20
1.28614953147094
 30
0.0
 11
20.59586817925786
 21
2.361909836974626
 31
0.0
  0
LINE
  5
24125
  8
0
  6
CONTINUOUS
 10
21.8798685855739
 20
1.751428639738782
 30
0.0
 11
20.80407128472849
 21
2.827225940584183
 31
0.0
  0
LINE
  5
24126
  8
0
  6
CONTINUOUS
 10
22.08810868638624
 20
2.216707748006623
 30
0.0
 11
21.01227439019912
 21
3.292542044193739
 31
0.0
  0
LINE
  5
24127
  8
0
  6
CONTINUOUS
 10
22.60993564347543
 20
2.36839999999762
 30
0.0
 11
21.22047749566975
 21
3.757858147803296
 31
0.0
  0
LINE
  5
24128
  8
0
  6
CONTINUOUS
 10
23.28345485255561
 20
2.36839999999762
 30
0.0
 11
21.42868060114038
 21
4.223174251412853
 31
0.0
  0
LINE
  5
24129
  8
0
  6
CONTINUOUS
 10
26.29227406164219
 20
0.0330999999912356
 30
0.0
 11
25.80009199592872
 21
0.5252820657046957
 31
0.0
  0
LINE
  5
2412A
  8
0
  6
CONTINUOUS
 10
23.9569740616358
 20
2.36839999999762
 30
0.0
 11
21.63688370661101
 21
4.688490355022409
 31
0.0
  0
LINE
  5
2412B
  8
0
  6
CONTINUOUS
 10
26.96579327072237
 20
0.0330999999912356
 30
0.0
 11
25.2554132311971
 21
1.743480039516508
 31
0.0
  0
LINE
  5
2412C
  8
0
  6
CONTINUOUS
 10
24.63049327071599
 20
2.36839999999762
 30
0.0
 11
23.32789327071731
 21
3.670999999996297
 31
0.0
  0
LINE
  5
2412D
  8
0
  6
CONTINUOUS
 10
22.92098674744635
 20
4.077906523267254
 30
0.0
 11
21.84508681208164
 21
5.153806458631966
 31
0.0
  0
LINE
  5
2412E
  8
0
  6
CONTINUOUS
 10
27.63931247980256
 20
0.0330999999912356
 30
0.0
 11
24.0014124797975
 21
3.670999999996297
 31
0.0
  0
LINE
  5
2412F
  8
0
  6
CONTINUOUS
 10
23.129125600968
 20
4.5432868788258
 30
0.0
 11
22.05328991755227
 21
5.619122562241522
 31
0.0
  0
LINE
  5
24130
  8
0
  6
CONTINUOUS
 10
28.31283168888275
 20
0.0330999999912356
 30
0.0
 11
24.16488385994816
 21
4.181047828925828
 31
0.0
  0
LINE
  5
24131
  8
0
  6
CONTINUOUS
 10
23.33726445448964
 20
5.008667234384345
 30
0.0
 11
22.2614930230229
 21
6.084438665851079
 31
0.0
  0
LINE
  5
24132
  8
0
  6
CONTINUOUS
 10
28.86286302309502
 20
0.1565878748591523
 30
0.0
 11
27.63635089796295
 21
1.383099999991217
 31
0.0
  0
LINE
  5
24133
  8
0
  6
CONTINUOUS
 10
26.43704649509776
 20
2.582404402856405
 30
0.0
 11
23.61992702019732
 21
5.399523877756844
 31
0.0
  0
LINE
  5
24134
  8
0
  6
CONTINUOUS
 10
23.54540330801128
 20
5.47404758994289
 30
0.0
 11
22.46969612849353
 21
6.549754769460635
 31
0.0
  0
LINE
  5
24135
  8
0
  6
CONTINUOUS
 10
29.39405087596853
 20
0.2989192310658284
 30
0.0
 11
28.30987010704312
 21
1.383099999991234
 31
0.0
  0
LINE
  5
24136
  8
0
  6
CONTINUOUS
 10
25.89179548232307
 20
3.801174624711282
 30
0.0
 11
22.67789923396416
 21
7.015070873070191
 31
0.0
  0
LINE
  5
24137
  8
0
  6
CONTINUOUS
 10
29.79594438047407
 20
0.570544935640473
 30
0.0
 11
28.81310432793121
 21
1.553384988183336
 31
0.0
  0
LINE
  5
24138
  8
0
  6
CONTINUOUS
 10
25.34654446954838
 20
5.01994484656616
 30
0.0
 11
22.88610233943479
 21
7.480386976679748
 31
0.0
  0
LINE
  5
24139
  8
0
  6
CONTINUOUS
 10
30.13270398501416
 20
0.9073045401805646
 30
0.0
 11
29.14234640337737
 21
1.897662121817355
 31
0.0
  0
LINE
  5
2413A
  8
0
  6
CONTINUOUS
 10
24.80129345677369
 20
6.238715068421037
 30
0.0
 11
23.09430544490542
 21
7.945703080289305
 31
0.0
  0
LINE
  5
2413B
  8
0
  6
CONTINUOUS
 10
30.44581292956759
 20
1.26771480470732
 30
0.0
 11
29.30199999996933
 21
2.411527734305588
 31
0.0
  0
LINE
  5
2413C
  8
0
  6
CONTINUOUS
 10
30.58814428577427
 20
1.798902657580827
 30
0.0
 11
29.30199999996933
 21
3.085046943385775
 31
0.0
  0
LINE
  5
2413D
  8
0
  6
CONTINUOUS
 10
24.256042443999
 20
7.457485290275915
 30
0.0
 11
23.30250855037605
 21
8.411019183898862
 31
0.0
  0
LINE
  5
2413E
  8
0
  6
CONTINUOUS
 10
23.71079143122431
 20
8.676255512130794
 30
0.0
 11
23.51071165584668
 21
8.876335287508418
 31
0.0
  0
LINE
  5
2413F
  8
0
  6
CONTINUOUS
 10
30.73047564198095
 20
2.330090510454333
 30
0.0
 11
29.30199999996933
 21
3.758566152465961
 31
0.0
  0
LINE
  5
24140
  8
0
  6
CONTINUOUS
 10
30.74199999996924
 20
2.992085361546236
 30
0.0
 11
29.30199999996933
 21
4.432085361546148
 31
0.0
  0
LINE
  5
24141
  8
0
  6
CONTINUOUS
 10
30.74199999996924
 20
3.665604570626419
 30
0.0
 11
29.30199999996933
 21
5.105604570626333
 31
0.0
  0
LINE
  5
24142
  8
0
  6
CONTINUOUS
 10
30.74199999996925
 20
4.339123779706602
 30
0.0
 11
29.30199999996933
 21
5.77912377970652
 31
0.0
  0
LINE
  5
24143
  8
0
  6
CONTINUOUS
 10
30.74199999996925
 20
5.012642988786785
 30
0.0
 11
29.30199999996933
 21
6.452642988786707
 31
0.0
  0
LINE
  5
24144
  8
0
  6
CONTINUOUS
 10
30.74199999996925
 20
5.68616219786697
 30
0.0
 11
29.30199999996933
 21
7.126162197866894
 31
0.0
  0
LINE
  5
24145
  8
0
  6
CONTINUOUS
 10
30.74199999996925
 20
6.359681406947153
 30
0.0
 11
29.30199999996933
 21
7.799681406947081
 31
0.0
  0
LINE
  5
24146
  8
0
  6
CONTINUOUS
 10
30.74199999996926
 20
7.033200616027337
 30
0.0
 11
29.30199999996933
 21
8.473200616027269
 31
0.0
  0
LINE
  5
24147
  8
0
  6
CONTINUOUS
 10
30.74199999996926
 20
7.706719825107518
 30
0.0
 11
29.68561982508552
 21
8.763099999991255
 31
0.0
  0
LINE
  5
24148
  8
0
  6
CONTINUOUS
 10
30.74199999996926
 20
8.380239034187703
 30
0.0
 11
30.35913903416571
 21
8.763099999991255
 31
0.0
  0
ENDBLK
  5
241EB
  8
0
  0
BLOCK
  8
0
  2
*X266
 70
     1
 10
0.0
 20
0.0
 30
0.0
  3
*X266
  1

  0
LINE
  5
2414A
  8
0
  6
CONTINUOUS
 10
31.64199999996833
 20
8.5350582899136
 30
0.0
 11
31.87004171004599
 21
8.763099999991255
 31
0.0
  0
LINE
  5
2414B
  8
0
  6
CONTINUOUS
 10
31.64199999996833
 20
7.861539080833413
 30
0.0
 11
32.54356091912618
 21
8.763099999991255
 31
0.0
  0
LINE
  5
2414C
  8
0
  6
CONTINUOUS
 10
31.64199999996833
 20
7.188019871753227
 30
0.0
 11
33.08199999996839
 21
8.628019871753281
 31
0.0
  0
LINE
  5
2414D
  8
0
  6
CONTINUOUS
 10
31.64199999996833
 20
6.514500662673041
 30
0.0
 11
33.08199999996839
 21
7.954500662673095
 31
0.0
  0
LINE
  5
2414E
  8
0
  6
CONTINUOUS
 10
31.64199999996833
 20
5.840981453592855
 30
0.0
 11
33.08199999996839
 21
7.28098145359291
 31
0.0
  0
LINE
  5
2414F
  8
0
  6
CONTINUOUS
 10
31.64199999996833
 20
5.167462244512668
 30
0.0
 11
33.08199999996839
 21
6.607462244512723
 31
0.0
  0
LINE
  5
24150
  8
0
  6
CONTINUOUS
 10
31.64199999996833
 20
4.493943035432482
 30
0.0
 11
33.08199999996839
 21
5.933943035432536
 31
0.0
  0
LINE
  5
24151
  8
0
  6
CONTINUOUS
 10
31.64199999996833
 20
3.820423826352294
 30
0.0
 11
33.08199999996839
 21
5.260423826352349
 31
0.0
  0
LINE
  5
24152
  8
0
  6
CONTINUOUS
 10
31.64199999996833
 20
3.146904617272108
 30
0.0
 11
33.08199999996839
 21
4.586904617272163
 31
0.0
  0
LINE
  5
24153
  8
0
  6
CONTINUOUS
 10
36.23199999996837
 20
8.410423826352327
 30
0.0
 11
36.58467617360729
 21
8.763099999991255
 31
0.0
  0
LINE
  5
24154
  8
0
  6
CONTINUOUS
 10
36.23199999996837
 20
7.73690461727214
 30
0.0
 11
37.25819538268748
 21
8.763099999991255
 31
0.0
  0
LINE
  5
24155
  8
0
  6
CONTINUOUS
 10
31.64323424774199
 20
2.474619655965573
 30
0.0
 11
33.08199999996839
 21
3.913385408191976
 31
0.0
  0
LINE
  5
24156
  8
0
  6
CONTINUOUS
 10
31.74419223861915
 20
1.902058437762552
 30
0.0
 11
33.08199999996839
 21
3.239866199111789
 31
0.0
  0
LINE
  5
24157
  8
0
  6
CONTINUOUS
 10
36.23199999996837
 20
7.063385408191953
 30
0.0
 11
37.67199999996831
 21
8.503385408191894
 31
0.0
  0
LINE
  5
24158
  8
0
  6
CONTINUOUS
 10
36.23199999996837
 20
6.389866199111767
 30
0.0
 11
37.67199999996831
 21
7.829866199111708
 31
0.0
  0
LINE
  5
24159
  8
0
  6
CONTINUOUS
 10
31.91111233414976
 20
1.39545932421297
 30
0.0
 11
33.08199999996839
 21
2.566346990031603
 31
0.0
  0
LINE
  5
2415A
  8
0
  6
CONTINUOUS
 10
36.23199999996837
 20
5.71634699003158
 30
0.0
 11
37.67199999996831
 21
7.156346990031522
 31
0.0
  0
LINE
  5
2415B
  8
0
  6
CONTINUOUS
 10
32.1576374746103
 20
0.9684652555933289
 30
0.0
 11
33.20642631446081
 21
2.017254095443838
 31
0.0
  0
LINE
  5
2415C
  8
0
  6
CONTINUOUS
 10
36.23199999996837
 20
5.042827780951393
 30
0.0
 11
37.67199999996831
 21
6.482827780951334
 31
0.0
  0
LINE
  5
2415D
  8
0
  6
CONTINUOUS
 10
32.47774023927325
 20
0.6150488111760914
 30
0.0
 11
33.49903056428258
 21
1.636339136185419
 31
0.0
  0
LINE
  5
2415E
  8
0
  6
CONTINUOUS
 10
36.23199999996837
 20
4.369308571871207
 30
0.0
 11
37.67199999996831
 21
5.809308571871148
 31
0.0
  0
LINE
  5
2415F
  8
0
  6
CONTINUOUS
 10
32.84396249154443
 20
0.3077518543670883
 30
0.0
 11
33.93324121824649
 21
1.397030581069146
 31
0.0
  0
LINE
  5
24160
  8
0
  6
CONTINUOUS
 10
36.23199999996837
 20
3.695789362791021
 30
0.0
 11
37.67199999996831
 21
5.135789362790963
 31
0.0
  0
LINE
  5
24161
  8
0
  6
CONTINUOUS
 10
33.30186329036846
 20
0.0921334441109263
 30
0.0
 11
34.46442907112041
 21
1.254699224862875
 31
0.0
  0
LINE
  5
24162
  8
0
  6
CONTINUOUS
 10
36.23199999996837
 20
3.022270153710834
 30
0.0
 11
37.67199999996831
 21
4.462270153710776
 31
0.0
  0
LINE
  5
24163
  8
0
  6
CONTINUOUS
 10
33.79565647746294
 20
-0.0875925778747773
 30
0.0
 11
35.24350171668284
 21
1.360252661345124
 31
0.0
  0
LINE
  5
24164
  8
0
  6
CONTINUOUS
 10
36.18336676155003
 20
2.300117706212308
 30
0.0
 11
37.67199999996831
 21
3.788750944630589
 31
0.0
  0
LINE
  5
24165
  8
0
  6
CONTINUOUS
 10
34.37182574910968
 20
-0.184942515308224
 30
0.0
 11
37.67199999996831
 21
3.115231735550402
 31
0.0
  0
LINE
  5
24166
  8
0
  6
CONTINUOUS
 10
35.0453449581892
 20
-0.1849425153088955
 30
0.0
 11
37.66345697088136
 21
2.433169497383271
 31
0.0
  0
LINE
  5
24167
  8
0
  6
CONTINUOUS
 10
35.98667157609191
 20
0.0828648935136398
 30
0.0
 11
37.51927401744566
 21
1.615467334867382
 31
0.0
  0
LINE
  5
24168
  8
0
  6
CONTINUOUS
 10
32.27747408544484
 20
0.7830920669904482
 30
0.0
 11
32.24716210471949
 21
0.8134040477157893
 31
0.0
  0
LINE
  5
24169
  8
0
  6
CONTINUOUS
 10
33.83656881101902
 20
-0.1024834495035494
 30
0.0
 11
31.72538911593758
 21
2.008696245577891
 31
0.0
  0
LINE
  5
2416A
  8
0
  6
CONTINUOUS
 10
34.5925470859041
 20
-0.1849425153084434
 30
0.0
 11
31.64199999996833
 21
2.765604570627322
 31
0.0
  0
LINE
  5
2416B
  8
0
  6
CONTINUOUS
 10
35.26201302775981
 20
-0.1808892480839752
 30
0.0
 11
31.64199999996833
 21
3.439123779707508
 31
0.0
  0
LINE
  5
2416C
  8
0
  6
CONTINUOUS
 10
35.75580621485512
 20
-0.0011632260990879
 30
0.0
 11
34.51294304365551
 21
1.241699945100514
 31
0.0
  0
LINE
  5
2416D
  8
0
  6
CONTINUOUS
 10
33.08199999996839
 20
2.672642988787641
 30
0.0
 11
31.64199999996833
 21
4.112642988787695
 31
0.0
  0
LINE
  5
2416E
  8
0
  6
CONTINUOUS
 10
36.24959940195042
 20
0.1785627958857976
 30
0.0
 11
35.10501653033629
 21
1.323145667499924
 31
0.0
  0
LINE
  5
2416F
  8
0
  6
CONTINUOUS
 10
33.08199999996839
 20
3.346162197867827
 30
0.0
 11
31.64199999996833
 21
4.786162197867881
 31
0.0
  0
LINE
  5
24170
  8
0
  6
CONTINUOUS
 10
36.64615197150552
 20
0.4555294354108876
 30
0.0
 11
35.6362043832099
 21
1.465477023706505
 31
0.0
  0
LINE
  5
24171
  8
0
  6
CONTINUOUS
 10
33.08199999996839
 20
4.019681406948013
 30
0.0
 11
31.64199999996833
 21
5.459681406948068
 31
0.0
  0
LINE
  5
24172
  8
0
  6
CONTINUOUS
 10
37.0123742237774
 20
0.7628263922191891
 30
0.0
 11
35.97691545773309
 21
1.798285158263504
 31
0.0
  0
LINE
  5
24173
  8
0
  6
CONTINUOUS
 10
33.08199999996839
 20
4.6932006160282
 30
0.0
 11
31.64199999996833
 21
6.133200616028255
 31
0.0
  0
LINE
  5
24174
  8
0
  6
CONTINUOUS
 10
37.27491524157143
 20
1.173804583505349
 30
0.0
 11
36.17602012811361
 21
2.272699696963169
 31
0.0
  0
LINE
  5
24175
  8
0
  6
CONTINUOUS
 10
33.08199999996839
 20
5.366719825108387
 30
0.0
 11
31.64199999996833
 21
6.806719825108441
 31
0.0
  0
LINE
  5
24176
  8
0
  6
CONTINUOUS
 10
37.51739996707661
 20
1.604839067080355
 30
0.0
 11
36.23199999996837
 21
2.890239034188595
 31
0.0
  0
LINE
  5
24177
  8
0
  6
CONTINUOUS
 10
37.6183579579535
 20
2.177400285283649
 30
0.0
 11
36.23199999996837
 21
3.563758243268782
 31
0.0
  0
LINE
  5
24178
  8
0
  6
CONTINUOUS
 10
33.08199999996839
 20
6.040239034188573
 30
0.0
 11
31.64199999996833
 21
7.480239034188628
 31
0.0
  0
LINE
  5
24179
  8
0
  6
CONTINUOUS
 10
33.08199999996839
 20
6.713758243268759
 30
0.0
 11
31.64199999996833
 21
8.153758243268815
 31
0.0
  0
LINE
  5
2417A
  8
0
  6
CONTINUOUS
 10
37.67199999996831
 20
2.797277452349027
 30
0.0
 11
36.23199999996837
 21
4.237277452348969
 31
0.0
  0
LINE
  5
2417B
  8
0
  6
CONTINUOUS
 10
37.67199999996831
 20
3.470796661429214
 30
0.0
 11
36.23199999996837
 21
4.910796661429155
 31
0.0
  0
LINE
  5
2417C
  8
0
  6
CONTINUOUS
 10
37.67199999996831
 20
4.1443158705094
 30
0.0
 11
36.23199999996837
 21
5.584315870509341
 31
0.0
  0
LINE
  5
2417D
  8
0
  6
CONTINUOUS
 10
33.08199999996839
 20
7.387277452348946
 30
0.0
 11
31.70617745232608
 21
8.763099999991255
 31
0.0
  0
LINE
  5
2417E
  8
0
  6
CONTINUOUS
 10
33.08199999996839
 20
8.060796661429134
 30
0.0
 11
32.37969666140626
 21
8.763099999991255
 31
0.0
  0
LINE
  5
2417F
  8
0
  6
CONTINUOUS
 10
33.08199999996839
 20
8.734315870509318
 30
0.0
 11
33.05321587048645
 21
8.763099999991255
 31
0.0
  0
LINE
  5
24180
  8
0
  6
CONTINUOUS
 10
37.67199999996831
 20
4.817835079589586
 30
0.0
 11
36.23199999996837
 21
6.257835079589528
 31
0.0
  0
LINE
  5
24181
  8
0
  6
CONTINUOUS
 10
37.67199999996831
 20
5.491354288669772
 30
0.0
 11
36.23199999996837
 21
6.931354288669715
 31
0.0
  0
LINE
  5
24182
  8
0
  6
CONTINUOUS
 10
37.67199999996831
 20
6.164873497749959
 30
0.0
 11
36.23199999996837
 21
7.6048734977499
 31
0.0
  0
LINE
  5
24183
  8
0
  6
CONTINUOUS
 10
37.67199999996831
 20
6.838392706830145
 30
0.0
 11
36.23199999996837
 21
8.278392706830086
 31
0.0
  0
LINE
  5
24184
  8
0
  6
CONTINUOUS
 10
37.67199999996831
 20
7.511911915910333
 30
0.0
 11
36.42081191588738
 21
8.763099999991255
 31
0.0
  0
LINE
  5
24185
  8
0
  6
CONTINUOUS
 10
37.67199999996831
 20
8.185431124990519
 30
0.0
 11
37.09433112496757
 21
8.763099999991255
 31
0.0
  0
ENDBLK
  5
241ED
  8
0
  0
BLOCK
  8
0
  2
*X267
 70
     1
 10
0.0
 20
0.0
 30
0.0
  3
*X267
  1

  0
LINE
  5
24187
  8
0
  6
CONTINUOUS
 10
38.60499999996136
 20
8.762866199104765
 30
0.0
 11
38.71672554182345
 21
8.874591740966855
 31
0.0
  0
LINE
  5
24188
  8
0
  6
CONTINUOUS
 10
38.60499999996136
 20
8.089346990024577
 30
0.0
 11
39.03418785440363
 21
8.518534844466847
 31
0.0
  0
LINE
  5
24189
  8
0
  6
CONTINUOUS
 10
38.60499999996136
 20
7.41582778094439
 30
0.0
 11
39.35165016698382
 21
8.16247794796684
 31
0.0
  0
LINE
  5
2418A
  8
0
  6
CONTINUOUS
 10
38.60499999996136
 20
6.742308571864204
 30
0.0
 11
39.66911247956399
 21
7.806421051466834
 31
0.0
  0
LINE
  5
2418B
  8
0
  6
CONTINUOUS
 10
38.60499999996136
 20
6.068789362784018
 30
0.0
 11
39.98657479214418
 21
7.450364154966827
 31
0.0
  0
LINE
  5
2418C
  8
0
  6
CONTINUOUS
 10
38.60499999996136
 20
5.395270153703832
 30
0.0
 11
40.30403710472435
 21
7.09430725846682
 31
0.0
  0
LINE
  5
2418D
  8
0
  6
CONTINUOUS
 10
38.60499999996136
 20
4.721750944623645
 30
0.0
 11
40.62149941730453
 21
6.738250361966813
 31
0.0
  0
LINE
  5
2418E
  8
0
  6
CONTINUOUS
 10
38.60499999996136
 20
4.048231735543458
 30
0.0
 11
40.93896172988471
 21
6.382193465466806
 31
0.0
  0
LINE
  5
2418F
  8
0
  6
CONTINUOUS
 10
38.60499999996136
 20
3.374712526463272
 30
0.0
 11
40.02599999995994
 21
4.795712526461843
 31
0.0
  0
LINE
  5
24190
  8
0
  6
CONTINUOUS
 10
38.60499999996136
 20
2.701193317383085
 30
0.0
 11
40.02599999995994
 21
4.122193317381657
 31
0.0
  0
LINE
  5
24191
  8
0
  6
CONTINUOUS
 10
40.28339754687704
 20
5.053110073378947
 30
0.0
 11
41.25642404246489
 21
6.026136568966799
 31
0.0
  0
LINE
  5
24192
  8
0
  6
CONTINUOUS
 10
40.60085985945722
 20
4.697053176878939
 30
0.0
 11
41.57388635504507
 21
5.670079672466793
 31
0.0
  0
LINE
  5
24193
  8
0
  6
CONTINUOUS
 10
43.57899999995641
 20
8.348712526458318
 30
0.0
 11
43.99338747348935
 21
8.763099999991255
 31
0.0
  0
LINE
  5
24194
  8
0
  6
CONTINUOUS
 10
43.57899999995641
 20
7.675193317378131
 30
0.0
 11
44.66690668256953
 21
8.763099999991255
 31
0.0
  0
LINE
  5
24195
  8
0
  6
CONTINUOUS
 10
38.60499999996136
 20
2.027674108302898
 30
0.0
 11
40.02599999995994
 21
3.44867410830147
 31
0.0
  0
LINE
  5
24196
  8
0
  6
CONTINUOUS
 10
38.60499999996136
 20
1.354154899222712
 30
0.0
 11
40.02599999995994
 21
2.775154899221284
 31
0.0
  0
LINE
  5
24197
  8
0
  6
CONTINUOUS
 10
38.60499999996136
 20
0.6806356901425255
 30
0.0
 11
40.02599999995994
 21
2.101635690141098
 31
0.0
  0
LINE
  5
24198
  8
0
  6
CONTINUOUS
 10
38.60499999996136
 20
0.0071164810623383
 30
0.0
 11
40.02599999995994
 21
1.428116481060911
 31
0.0
  0
LINE
  5
24199
  8
0
  6
CONTINUOUS
 10
40.9183221720374
 20
4.340996280378933
 30
0.0
 11
41.89134866762525
 21
5.314022775966786
 31
0.0
  0
LINE
  5
2419A
  8
0
  6
CONTINUOUS
 10
41.23578448461758
 20
3.984939383878926
 30
0.0
 11
42.20881098020543
 21
4.957965879466778
 31
0.0
  0
LINE
  5
2419B
  8
0
  6
CONTINUOUS
 10
41.55324679719776
 20
3.628882487378919
 30
0.0
 11
42.52627329278561
 21
4.601908982966772
 31
0.0
  0
LINE
  5
2419C
  8
0
  6
CONTINUOUS
 10
41.87070910977793
 20
3.272825590878912
 30
0.0
 11
42.84373560536579
 21
4.245852086466765
 31
0.0
  0
LINE
  5
2419D
  8
0
  6
CONTINUOUS
 10
43.57899999995641
 20
7.001674108297943
 30
0.0
 11
44.99999999995498
 21
8.422674108296516
 31
0.0
  0
LINE
  5
2419E
  8
0
  6
CONTINUOUS
 10
43.57899999995641
 20
6.328154899217758
 30
0.0
 11
44.99999999995498
 21
7.749154899216329
 31
0.0
  0
LINE
  5
2419F
  8
0
  6
CONTINUOUS
 10
43.57899999995641
 20
5.654635690137571
 30
0.0
 11
44.99999999995498
 21
7.075635690136142
 31
0.0
  0
LINE
  5
241A0
  8
0
  6
CONTINUOUS
 10
43.57899999995641
 20
4.981116481057384
 30
0.0
 11
44.99999999995498
 21
6.402116481055955
 31
0.0
  0
LINE
  5
241A1
  8
0
  6
CONTINUOUS
 10
39.27140272797921
 20
-0.0000000000000009
 30
0.0
 11
40.02599999995994
 21
0.7545972719807246
 31
0.0
  0
LINE
  5
241A2
  8
0
  6
CONTINUOUS
 10
39.9449219370594
 20
-0.0000000000000009
 30
0.0
 11
40.02599999995994
 21
0.0810780629005379
 31
0.0
  0
LINE
  5
241A3
  8
0
  6
CONTINUOUS
 10
42.18817142235812
 20
2.916768694378905
 30
0.0
 11
43.16119791794597
 21
3.889795189966758
 31
0.0
  0
LINE
  5
241A4
  8
0
  6
CONTINUOUS
 10
42.50563373493829
 20
2.560711797878898
 30
0.0
 11
43.47866023052615
 21
3.533738293466751
 31
0.0
  0
LINE
  5
241A5
  8
0
  6
CONTINUOUS
 10
43.57899999995641
 20
4.307597271977198
 30
0.0
 11
44.99999999995498
 21
5.728597271975769
 31
0.0
  0
LINE
  5
241A6
  8
0
  6
CONTINUOUS
 10
43.57899999995641
 20
3.634078062897011
 30
0.0
 11
44.99999999995498
 21
5.055078062895582
 31
0.0
  0
LINE
  5
241A7
  8
0
  6
CONTINUOUS
 10
42.82309604751848
 20
2.204654901378891
 30
0.0
 11
44.99999999995498
 21
4.381558853815395
 31
0.0
  0
LINE
  5
241A8
  8
0
  6
CONTINUOUS
 10
43.14055836009865
 20
1.848598004878885
 30
0.0
 11
44.99999999995498
 21
3.70803964473521
 31
0.0
  0
LINE
  5
241A9
  8
0
  6
CONTINUOUS
 10
43.45802067267883
 20
1.492541108378878
 30
0.0
 11
44.99999999995498
 21
3.034520435655023
 31
0.0
  0
LINE
  5
241AA
  8
0
  6
CONTINUOUS
 10
43.77548298525902
 20
1.136484211878871
 30
0.0
 11
44.99999999995498
 21
2.361001226574837
 31
0.0
  0
LINE
  5
241AB
  8
0
  6
CONTINUOUS
 10
44.09294529783919
 20
0.7804273153788639
 30
0.0
 11
44.99999999995498
 21
1.687482017494649
 31
0.0
  0
LINE
  5
241AC
  8
0
  6
CONTINUOUS
 10
44.41040761041938
 20
0.4243704188788566
 30
0.0
 11
44.99999999995498
 21
1.013962808414463
 31
0.0
  0
LINE
  5
241AD
  8
0
  6
CONTINUOUS
 10
44.72786992299955
 20
0.0683135223788494
 30
0.0
 11
44.99999999995498
 21
0.340443599334276
 31
0.0
  0
LINE
  5
241AE
  8
0
  6
CONTINUOUS
 10
39.12223903415696
 20
-0.0000000000000009
 30
0.0
 11
38.60499999996136
 21
0.5172390341955961
 31
0.0
  0
LINE
  5
241AF
  8
0
  6
CONTINUOUS
 10
39.79575824323715
 20
-0.0000000000000009
 30
0.0
 11
38.60499999996136
 21
1.190758243275783
 31
0.0
  0
LINE
  5
241B0
  8
0
  6
CONTINUOUS
 10
40.02599999995994
 20
0.443277452357397
 30
0.0
 11
38.60499999996136
 21
1.864277452355969
 31
0.0
  0
LINE
  5
241B1
  8
0
  6
CONTINUOUS
 10
40.02599999995994
 20
1.116796661437583
 30
0.0
 11
38.60499999996136
 21
2.537796661436155
 31
0.0
  0
LINE
  5
241B2
  8
0
  6
CONTINUOUS
 10
40.02599999995994
 20
1.79031587051777
 30
0.0
 11
38.60499999996136
 21
3.211315870516341
 31
0.0
  0
LINE
  5
241B3
  8
0
  6
CONTINUOUS
 10
40.02599999995994
 20
2.463835079597956
 30
0.0
 11
38.60499999996136
 21
3.884835079596527
 31
0.0
  0
LINE
  5
241B4
  8
0
  6
CONTINUOUS
 10
40.02599999995994
 20
3.137354288678143
 30
0.0
 11
38.60499999996136
 21
4.558354288676714
 31
0.0
  0
LINE
  5
241B5
  8
0
  6
CONTINUOUS
 10
40.02599999995994
 20
3.810873497758329
 30
0.0
 11
38.60499999996136
 21
5.2318734977569
 31
0.0
  0
LINE
  5
241B6
  8
0
  6
CONTINUOUS
 10
40.02599999995994
 20
4.484392706838515
 30
0.0
 11
38.60499999996136
 21
5.905392706837086
 31
0.0
  0
LINE
  5
241B7
  8
0
  6
CONTINUOUS
 10
44.99999999995498
 20
0.183911915923658
 30
0.0
 11
41.53858364506288
 21
3.64532827081576
 31
0.0
  0
LINE
  5
241B8
  8
0
  6
CONTINUOUS
 10
40.02599999995994
 20
5.157911915918703
 30
0.0
 11
38.60499999996136
 21
6.578911915917274
 31
0.0
  0
LINE
  5
241B9
  8
0
  6
CONTINUOUS
 10
44.99999999995498
 20
0.8574311250038447
 30
0.0
 11
38.60499999996136
 21
7.25243112499746
 31
0.0
  0
LINE
  5
241BA
  8
0
  6
CONTINUOUS
 10
44.99999999995498
 20
1.530950334084031
 30
0.0
 11
38.60499999996136
 21
7.925950334077647
 31
0.0
  0
LINE
  5
241BB
  8
0
  6
CONTINUOUS
 10
44.99999999995498
 20
2.204469543164218
 30
0.0
 11
43.57899999995641
 21
3.625469543162789
 31
0.0
  0
LINE
  5
241BC
  8
0
  6
CONTINUOUS
 10
41.89876730984767
 20
5.305702233271528
 30
0.0
 11
38.60499999996136
 21
8.599469543157834
 31
0.0
  0
LINE
  5
241BD
  8
0
  6
CONTINUOUS
 10
44.99999999995498
 20
2.877988752244405
 30
0.0
 11
43.57899999995641
 21
4.298988752242975
 31
0.0
  0
LINE
  5
241BE
  8
0
  6
CONTINUOUS
 10
44.99999999995498
 20
3.551507961324591
 30
0.0
 11
43.57899999995641
 21
4.972507961323163
 31
0.0
  0
LINE
  5
241BF
  8
0
  6
CONTINUOUS
 10
44.99999999995498
 20
4.225027170404777
 30
0.0
 11
43.57899999995641
 21
5.646027170403348
 31
0.0
  0
LINE
  5
241C0
  8
0
  6
CONTINUOUS
 10
44.99999999995498
 20
4.898546379484964
 30
0.0
 11
43.57899999995641
 21
6.319546379483535
 31
0.0
  0
LINE
  5
241C1
  8
0
  6
CONTINUOUS
 10
44.99999999995498
 20
5.572065588565151
 30
0.0
 11
43.57899999995641
 21
6.993065588563722
 31
0.0
  0
LINE
  5
241C2
  8
0
  6
CONTINUOUS
 10
44.99999999995498
 20
6.245584797645336
 30
0.0
 11
43.57899999995641
 21
7.666584797643908
 31
0.0
  0
LINE
  5
241C3
  8
0
  6
CONTINUOUS
 10
44.99999999995498
 20
6.919104006725522
 30
0.0
 11
43.57899999995641
 21
8.340104006724093
 31
0.0
  0
LINE
  5
241C4
  8
0
  6
CONTINUOUS
 10
44.99999999995498
 20
7.592623215805709
 30
0.0
 11
43.82952321576943
 21
8.763099999991255
 31
0.0
  0
LINE
  5
241C5
  8
0
  6
CONTINUOUS
 10
44.99999999995498
 20
8.266142424885896
 30
0.0
 11
44.50304242484962
 21
8.763099999991255
 31
0.0
  0
ENDBLK
  5
241EF
  8
0
  0
BLOCK
  8
0
  2
*X268
 70
     1
 10
0.0
 20
0.0
 30
0.0
  3
*X268
  1

  0
LINE
  5
241C7
  8
0
  6
CONTINUOUS
 10
0.0
 20
8.548461116714023
 30
0.0
 11
0.2146388832772324
 21
8.763099999991255
 31
0.0
  0
LINE
  5
241C8
  8
0
  6
CONTINUOUS
 10
-0.0000000000000002
 20
7.874941907633837
 30
0.0
 11
0.8881580923574184
 21
8.763099999991255
 31
0.0
  0
LINE
  5
241C9
  8
0
  6
CONTINUOUS
 10
0.0
 20
7.20142269855365
 30
0.0
 11
1.420999999998572
 21
8.622422698552223
 31
0.0
  0
LINE
  5
241CA
  8
0
  6
CONTINUOUS
 10
-0.0000000000000001
 20
6.527903489473465
 30
0.0
 11
1.420999999998571
 21
7.948903489472036
 31
0.0
  0
LINE
  5
241CB
  8
0
  6
CONTINUOUS
 10
-0.0000000000000002
 20
5.854384280393278
 30
0.0
 11
1.420999999998571
 21
7.275384280391849
 31
0.0
  0
LINE
  5
241CC
  8
0
  6
CONTINUOUS
 10
-0.0000000000000002
 20
5.180865071313091
 30
0.0
 11
1.420999999998571
 21
6.601865071311663
 31
0.0
  0
LINE
  5
241CD
  8
0
  6
CONTINUOUS
 10
0.0
 20
4.507345862232905
 30
0.0
 11
1.420999999998571
 21
5.928345862231477
 31
0.0
  0
LINE
  5
241CE
  8
0
  6
CONTINUOUS
 10
-0.0000000000000003
 20
3.833826653152718
 30
0.0
 11
1.420999999998571
 21
5.25482665315129
 31
0.0
  0
LINE
  5
241CF
  8
0
  6
CONTINUOUS
 10
-0.0000000000000002
 20
3.160307444072532
 30
0.0
 11
1.420999999998571
 21
4.581307444071103
 31
0.0
  0
LINE
  5
241D0
  8
0
  6
CONTINUOUS
 10
-0.0000000000000001
 20
2.486788234992345
 30
0.0
 11
1.420999999998571
 21
3.907788234990917
 31
0.0
  0
LINE
  5
241D1
  8
0
  6
CONTINUOUS
 10
-0.0000000000000006
 20
1.813269025912159
 30
0.0
 11
1.420999999998571
 21
3.234269025910731
 31
0.0
  0
LINE
  5
241D2
  8
0
  6
CONTINUOUS
 10
0.0
 20
1.139749816831973
 30
0.0
 11
1.420999999998571
 21
2.560749816830544
 31
0.0
  0
LINE
  5
241D3
  8
0
  6
CONTINUOUS
 10
0.0000000000000002
 20
0.466230607751787
 30
0.0
 11
1.420999999998571
 21
1.887230607750358
 31
0.0
  0
LINE
  5
241D4
  8
0
  6
CONTINUOUS
 10
0.2072886013284003
 20
-0.0000000000000009
 30
0.0
 11
1.420999999998571
 21
1.213711398670171
 31
0.0
  0
LINE
  5
241D5
  8
0
  6
CONTINUOUS
 10
0.8808078104085864
 20
-0.0000000000000009
 30
0.0
 11
1.420999999998571
 21
0.5401921895899839
 31
0.0
  0
LINE
  5
241D6
  8
0
  6
CONTINUOUS
 10
0.0581249075061505
 20
-0.0000000000000009
 30
0.0
 11
-0.0000000000000002
 21
0.0581249075061496
 31
0.0
  0
LINE
  5
241D7
  8
0
  6
CONTINUOUS
 10
0.7316441165863372
 20
-0.0000000000000009
 30
0.0
 11
-0.0000000000000002
 21
0.7316441165863363
 31
0.0
  0
LINE
  5
241D8
  8
0
  6
CONTINUOUS
 10
1.405163325666523
 20
-0.0000000000000009
 30
0.0
 11
-0.0000000000000002
 21
1.405163325666523
 31
0.0
  0
LINE
  5
241D9
  8
0
  6
CONTINUOUS
 10
1.420999999998572
 20
0.6576825347481381
 30
0.0
 11
-0.0000000000000001
 21
2.07868253474671
 31
0.0
  0
LINE
  5
241DA
  8
0
  6
CONTINUOUS
 10
1.420999999998571
 20
1.331201743828324
 30
0.0
 11
-0.0000000000000001
 21
2.752201743826896
 31
0.0
  0
LINE
  5
241DB
  8
0
  6
CONTINUOUS
 10
1.420999999998571
 20
2.004720952908511
 30
0.0
 11
-0.0000000000000002
 21
3.425720952907082
 31
0.0
  0
LINE
  5
241DC
  8
0
  6
CONTINUOUS
 10
1.420999999998571
 20
2.678240161988697
 30
0.0
 11
-0.0000000000000001
 21
4.099240161987269
 31
0.0
  0
LINE
  5
241DD
  8
0
  6
CONTINUOUS
 10
1.420999999998572
 20
3.351759371068884
 30
0.0
 11
0.0
 21
4.772759371067455
 31
0.0
  0
LINE
  5
241DE
  8
0
  6
CONTINUOUS
 10
1.420999999998571
 20
4.02527858014907
 30
0.0
 11
-0.0000000000000003
 21
5.446278580147642
 31
0.0
  0
LINE
  5
241DF
  8
0
  6
CONTINUOUS
 10
1.420999999998571
 20
4.698797789229257
 30
0.0
 11
0.0
 21
6.119797789227828
 31
0.0
  0
LINE
  5
241E0
  8
0
  6
CONTINUOUS
 10
1.420999999998571
 20
5.372316998309444
 30
0.0
 11
-0.0000000000000001
 21
6.793316998308015
 31
0.0
  0
LINE
  5
241E1
  8
0
  6
CONTINUOUS
 10
1.420999999998572
 20
6.045836207389629
 30
0.0
 11
-0.0000000000000004
 21
7.466836207388202
 31
0.0
  0
LINE
  5
241E2
  8
0
  6
CONTINUOUS
 10
1.420999999998571
 20
6.719355416469816
 30
0.0
 11
0.0
 21
8.140355416468388
 31
0.0
  0
LINE
  5
241E3
  8
0
  6
CONTINUOUS
 10
1.420999999998571
 20
7.392874625550003
 30
0.0
 11
0.0507746255573185
 21
8.763099999991255
 31
0.0
  0
LINE
  5
241E4
  8
0
  6
CONTINUOUS
 10
1.420999999998571
 20
8.06639383463019
 30
0.0
 11
0.7242938346375052
 21
8.763099999991255
 31
0.0
  0
LINE
  5
241E5
  8
0
  6
CONTINUOUS
 10
1.420999999998571
 20
8.739913043710375
 30
0.0
 11
1.397813043717691
 21
8.763099999991255
 31
0.0
  0
ENDBLK
  5
241F1
  8
0
  0
ENDSEC
  0
SECTION
  2
ENTITIES
  0
LINE
  5
235A4
  8
01
 10
2036.308499721399
 20
-355.0000000000002
 30
0.0000000000019322
 11
2036.308499721399
 21
-434.9999999999998
 31
0.0000000000019322
  0
LINE
  5
235A5
  8
01
 10
2045.308499721399
 20
-355.0000000000002
 30
0.0000000000019322
 11
2045.308499721399
 21
-434.9999999999998
 31
0.0000000000019322
  0
LINE
  5
235A6
  8
01
 10
2027.308499721399
 20
-355.0000000000002
 30
0.0000000000019322
 11
2027.308499721399
 21
-434.9999999999998
 31
0.0000000000019322
  0
TEXT
  5
2384E
  8
1TEXT
 10
1957.5098667019
 20
-290.0229615680473
 30
0.0
 40
4.0
  1
表面処理
 72
     1
 11
1966.776533368567
 21
-290.0229615680473
 31
0.0
  0
LINE
  5
2384F
  8
1DIM
 10
1949.376533368566
 20
-284.5229615680473
 30
0.0
 11
2019.376533368566
 21
-284.5229615680473
 31
0.0
  0
LINE
  5
23850
  8
1DIM
 10
1949.376533368566
 20
-298.5229615680473
 30
0.0
 11
2019.376533368566
 21
-298.5229615680473
 31
0.0
  0
LINE
  5
23851
  8
1DIM
 10
1949.376533368566
 20
-291.5229615680473
 30
0.0
 11
2019.376533368566
 21
-291.5229615680473
 31
0.0
  0
LINE
  5
23852
  8
1DIM
 10
1984.376533368566
 20
-284.5229615680473
 30
0.0
 11
1984.376533368566
 21
-305.5229615680473
 31
0.0
  0
TEXT
  5
23853
  8
1TEXT
 10
1994.9098667019
 20
-290.0229615680473
 30
0.0
 40
4.0
  1
コード
 72
     1
 11
2001.776533368567
 21
-290.0229615680473
 31
0.0
  0
LINE
  5
23854
  8
1DIM
 10
1949.376533368566
 20
-305.5229615680473
 30
0.0
 11
1949.376533368566
 21
-284.5229615680473
 31
0.0
  0
LINE
  5
23855
  8
1DIM
 10
2019.376533368566
 20
-305.5229615680473
 30
0.0
 11
2019.376533368566
 21
-284.5229615680473
 31
0.0
  0
TEXT
  5
23856
  8
1TEXT
 10
1949.376533368566
 20
-279.5229615680474
 30
0.0
 40
8.0
  1
SE-60H-XXS
  0
TEXT
  5
23857
  8
1TEXT
 10
1951.896533368566
 20
-296.8582502275717
 30
0.0
 40
4.0
  1
ブラストシルバー
 41
0.8
 72
     1
 11
1966.776533368567
 21
-296.8582502275717
 31
0.0
  0
TEXT
  5
23858
  8
1TEXT
 10
1987.5161167019
 20
-297.2373185516967
 30
0.0
 40
4.0
  1
SE-60H-XSS
 41
0.75
 72
     1
 11
2001.776533368567
 21
-297.2373185516967
 31
0.0
  0
LINE
  5
23859
  8
1DIM
 10
1949.376533368566
 20
-305.5229615680473
 30
0.0
 11
2019.376533368566
 21
-305.5229615680473
 31
0.0
  0
LINE
  5
2385A
  8
1DIM
 10
1949.376533368566
 20
-298.5229615680473
 30
0.0
 11
2019.376533368566
 21
-298.5229615680473
 31
0.0
  0
TEXT
  5
2385B
  8
1TEXT
 10
1951.896533368566
 20
-303.8582502275717
 30
0.0
 40
4.0
  1
ブラストブラック
 41
0.8
 72
     1
 11
1966.776533368567
 21
-303.8582502275717
 31
0.0
  0
TEXT
  5
2385C
  8
1TEXT
 10
1987.5161167019
 20
-304.2373185516967
 30
0.0
 40
4.0
  1
SE-60H-XKS
 41
0.75
 72
     1
 11
2001.776533368567
 21
-304.2373185516967
 31
0.0
  0
LINE
  5
2394A
  8
01
  6
CONTINUOUS
 10
1830.5
 20
-375.0
 30
0.0000000000019322
 11
1899.5
 21
-375.0
 31
0.0000000000019322
  0
LINE
  5
2394B
  8
01
 10
1899.5
 20
-378.5
 30
0.0000000000019322
 11
1830.5
 21
-378.5
 31
0.0000000000019322
  0
LINE
  5
2394C
  8
01
  6
CONTINUOUS
 10
1900.0
 20
-375.5
 30
0.0000000000019322
 11
1900.0
 21
-378.0
 31
0.0000000000019322
  0
LINE
  5
2394D
  8
01
  6
CONTINUOUS
 10
1830.0
 20
-378.0
 30
0.0000000000019322
 11
1830.0
 21
-375.5
 31
0.0000000000019322
  0
ARC
  5
2394E
  8
01
 10
1899.5
 20
-378.0
 30
0.0000000000019322
 40
0.5000000000000568
 50
270.0
 51
0.0
  0
LINE
  5
2394F
  8
01
 10
1899.5
 20
-378.5
 30
0.0000000000019322
 11
1898.5
 21
-378.5
 31
0.0000000000019322
  0
LINE
  5
23950
  8
01
  6
CONTINUOUS
 10
1898.5
 20
-375.0
 30
0.0000000000019322
 11
1899.5
 21
-375.0
 31
0.0000000000019322
  0
ARC
  5
23951
  8
01
  6
CONTINUOUS
 10
1899.5
 20
-375.5
 30
0.0000000000019322
 40
0.5000000000000568
 50
0.0
 51
90.0
  0
LINE
  5
23952
  8
01
 10
1831.5
 20
-378.5
 30
0.0000000000019322
 11
1830.5
 21
-378.5
 31
0.0000000000019322
  0
ARC
  5
23953
  8
01
 10
1830.5
 20
-378.0
 30
0.0000000000019322
 40
0.5
 50
180.0
 51
270.0
  0
LINE
  5
23954
  8
01
  6
CONTINUOUS
 10
1830.5
 20
-375.0
 30
0.0000000000019322
 11
1831.5
 21
-375.0
 31
0.0000000000019322
  0
ARC
  5
23955
  8
01
  6
CONTINUOUS
 10
1830.5
 20
-375.5
 30
0.0000000000019322
 40
0.5
 50
90.0
 51
180.0
  0
LINE
  5
23956
  8
01
 10
1830.0
 20
-378.7322330470333
 30
0.0000000000019322
 11
1830.0
 21
-378.0
 31
0.0000000000019322
  0
LINE
  5
23957
  8
01
 10
1900.0
 20
-378.0
 30
0.0000000000019322
 11
1900.0
 21
-378.7322330470333
 31
0.0000000000019322
  0
LINE
  5
23958
  8
01
 10
1900.0
 20
-378.7322330470333
 30
0.0000000000019322
 11
1900.0
 21
-383.06066017178
 31
0.0000000000019322
  0
LINE
  5
23959
  8
01
 10
1830.0
 20
-383.06066017178
 30
0.0000000000019322
 11
1830.0
 21
-378.7322330470333
 31
0.0000000000019322
  0
LINE
  5
2395A
  8
01
 10
1830.0
 20
-384.8284271247458
 30
0.0000000000019322
 11
1830.0
 21
-383.06066017178
 31
0.0000000000019322
  0
LINE
  5
2395B
  8
01
 10
1900.0
 20
-383.06066017178
 30
0.0000000000019322
 11
1900.0
 21
-384.8284271247458
 31
0.0000000000019322
  0
LINE
  5
2395C
  8
01
  6
CONTINUOUS
 10
1900.0
 20
-384.8284271247458
 30
0.0000000000019322
 11
1900.0
 21
-411.0857864376267
 31
0.0000000000019322
  0
LINE
  5
2395D
  8
01
 10
1830.0
 20
-411.43933982822
 30
0.0000000000019322
 11
1830.0
 21
-411.0857864376267
 31
0.0000000000019322
  0
LINE
  5
2395E
  8
01
 10
1900.0
 20
-411.0857864376267
 30
0.0000000000019322
 11
1900.0
 21
-411.43933982822
 31
0.0000000000019322
  0
LINE
  5
2395F
  8
01
  6
CONTINUOUS
 10
1830.0
 20
-411.0857864376267
 30
0.0000000000019322
 11
1830.0
 21
-384.8284271247458
 31
0.0000000000019322
  0
CIRCLE
  5
23960
  8
01
  6
CONTINUOUS
 10
1882.5
 20
-395.0
 30
0.0000000000019322
 40
4.25
  0
LINE
  5
23961
  8
01
 10
1830.0
 20
-414.3535533905933
 30
0.0000000000019322
 11
1830.0
 21
-411.43933982822
 31
0.0000000000019322
  0
LINE
  5
23962
  8
01
 10
1900.0
 20
-411.43933982822
 30
0.0000000000019322
 11
1900.0
 21
-414.3535533905933
 31
0.0000000000019322
  0
ARC
  5
23964
  8
01
 10
1830.5
 20
-414.5
 30
0.0000000000019322
 40
0.5
 50
180.0
 51
270.0
  0
LINE
  5
23965
  8
01
 10
1830.0
 20
-414.5
 30
0.0000000000019322
 11
1830.0
 21
-414.3535533905933
 31
0.0000000000019322
  0
ARC
  5
23966
  8
01
 10
1899.5
 20
-414.5
 30
0.0000000000019322
 40
0.5000000000000568
 50
270.0
 51
0.0
  0
LINE
  5
23967
  8
01
 10
1900.0
 20
-414.3535533905933
 30
0.0000000000019322
 11
1900.0
 21
-414.5
 31
0.0000000000019322
  0
LINE
  5
23968
  8
01
 10
1899.5
 20
-415.0
 30
0.0000000000019322
 11
1830.5
 21
-415.0
 31
0.0000000000019322
  0
LINE
  5
23969
  8
01
  6
CONTINUOUS
 10
1830.0
 20
-340.9510501586637
 30
0.0000000000019322
 11
1830.0
 21
-263.9510501586637
 31
0.0000000000019322
  0
LINE
  5
2396A
  8
01
  6
CONTINUOUS
 10
1830.0
 20
-263.9510501586637
 30
0.0000000000019322
 11
1830.5
 21
-263.9510501586637
 31
0.0000000000019322
  0
LINE
  5
2396B
  8
01
  6
CONTINUOUS
 10
1900.0
 20
-263.9510501586637
 30
0.0000000000019322
 11
1900.0
 21
-340.9510501586637
 31
0.0000000000019322
  0
LINE
  5
2396C
  8
01
  6
CONTINUOUS
 10
1899.5
 20
-263.9510501586637
 30
0.0000000000019322
 11
1900.0
 21
-263.9510501586637
 31
0.0000000000019322
  0
CIRCLE
  5
2396D
  8
01
  6
CONTINUOUS
 10
1865.0
 20
-313.9510501586637
 30
0.0000000000019322
 40
19.75000000000003
  0
ARC
  5
2396E
  8
01
  6
CONTINUOUS
 10
1833.0
 20
-340.9510501586637
 30
0.0000000000019322
 40
3.0
 50
180.0
 51
233.1301023541733
  0
ARC
  5
2396F
  8
01
  6
CONTINUOUS
 10
1897.0
 20
-340.9510501586637
 30
0.0000000000019322
 40
3.0
 50
306.8698976458267
 51
0.0
  0
POLYLINE
  5
23970
  8
01
  6
CONTINUOUS
 66
     1
 10
0.0
 20
0.0
 30
0.0000000000019322
  0
VERTEX
  5
23FE6
  8
01
  6
CONTINUOUS
 10
1831.200000000001
 20
-343.3510501586634
 30
0.0000000000019322
  0
VERTEX
  5
23FE7
  8
01
  6
CONTINUOUS
 10
1831.228981091949
 20
-343.3725176157492
 30
0.0000000000019322
  0
VERTEX
  5
23FE8
  8
01
  6
CONTINUOUS
 10
1831.258132730879
 20
-343.3935778095089
 30
0.0000000000019322
  0
VERTEX
  5
23FE9
  8
01
  6
CONTINUOUS
 10
1831.287455823064
 20
-343.4142337449349
 30
0.0000000000019322
  0
VERTEX
  5
23FEA
  8
01
  6
CONTINUOUS
 10
1831.316951274781
 20
-343.4344884270195
 30
0.0000000000019322
  0
VERTEX
  5
23FEB
  8
01
  6
CONTINUOUS
 10
1831.346619992305
 20
-343.4543448607552
 30
0.0000000000019322
  0
VERTEX
  5
23FEC
  8
01
  6
CONTINUOUS
 10
1831.376462881913
 20
-343.4738060511343
 30
0.0000000000019322
  0
VERTEX
  5
23FED
  8
01
  6
CONTINUOUS
 10
1831.406480849879
 20
-343.4928750031494
 30
0.0000000000019322
  0
VERTEX
  5
23FEE
  8
01
  6
CONTINUOUS
 10
1831.43667480248
 20
-343.5115547217927
 30
0.0000000000019322
  0
VERTEX
  5
23FEF
  8
01
  6
CONTINUOUS
 10
1831.467045645992
 20
-343.5298482120567
 30
0.0000000000019322
  0
VERTEX
  5
23FF0
  8
01
  6
CONTINUOUS
 10
1831.497594286689
 20
-343.5477584789339
 30
0.0000000000019322
  0
VERTEX
  5
23FF1
  8
01
  6
CONTINUOUS
 10
1831.528321630847
 20
-343.5652885274165
 30
0.0000000000019322
  0
VERTEX
  5
23FF2
  8
01
  6
CONTINUOUS
 10
1831.559228584743
 20
-343.582441362497
 30
0.0000000000019322
  0
VERTEX
  5
23FF3
  8
01
  6
CONTINUOUS
 10
1831.590316054651
 20
-343.5992199891679
 30
0.0000000000019322
  0
VERTEX
  5
23FF4
  8
01
  6
CONTINUOUS
 10
1831.621584946848
 20
-343.6156274124214
 30
0.0000000000019322
  0
VERTEX
  5
23FF5
  8
01
  6
CONTINUOUS
 10
1831.65299732132
 20
-343.6316441135634
 30
0.0000000000019322
  0
VERTEX
  5
23FF6
  8
01
  6
CONTINUOUS
 10
1831.684511625372
 20
-343.6472494868471
 30
0.0000000000019322
  0
VERTEX
  5
23FF7
  8
01
  6
CONTINUOUS
 10
1831.71612334626
 20
-343.6624449066858
 30
0.0000000000019322
  0
VERTEX
  5
23FF8
  8
01
  6
CONTINUOUS
 10
1831.747827971239
 20
-343.677231747493
 30
0.0000000000019322
  0
VERTEX
  5
23FF9
  8
01
  6
CONTINUOUS
 10
1831.779620987565
 20
-343.691611383682
 30
0.0000000000019322
  0
VERTEX
  5
23FFA
  8
01
  6
CONTINUOUS
 10
1831.811497882492
 20
-343.7055851896663
 30
0.0000000000019322
  0
VERTEX
  5
23FFB
  8
01
  6
CONTINUOUS
 10
1831.843454143277
 20
-343.7191545398593
 30
0.0000000000019322
  0
VERTEX
  5
23FFC
  8
01
  6
CONTINUOUS
 10
1831.875485257175
 20
-343.7323208086746
 30
0.0000000000019322
  0
VERTEX
  5
23FFD
  8
01
  6
CONTINUOUS
 10
1831.90758671144
 20
-343.7450853705254
 30
0.0000000000019322
  0
VERTEX
  5
23FFE
  8
01
  6
CONTINUOUS
 10
1831.939753993329
 20
-343.7574495998252
 30
0.0000000000019322
  0
VERTEX
  5
23FFF
  8
01
  6
CONTINUOUS
 10
1831.971982590096
 20
-343.7694148709874
 30
0.0000000000019322
  0
VERTEX
  5
24000
  8
01
  6
CONTINUOUS
 10
1832.004267988997
 20
-343.7809825584255
 30
0.0000000000019322
  0
VERTEX
  5
24001
  8
01
  6
CONTINUOUS
 10
1832.036605677287
 20
-343.7921540365528
 30
0.0000000000019322
  0
VERTEX
  5
24002
  8
01
  6
CONTINUOUS
 10
1832.068991142222
 20
-343.8029306797828
 30
0.0000000000019322
  0
VERTEX
  5
24003
  8
01
  6
CONTINUOUS
 10
1832.10144995321
 20
-343.8133214553581
 30
0.0000000000019322
  0
VERTEX
  5
24004
  8
01
  6
CONTINUOUS
 10
1832.134007595734
 20
-343.8233344128225
 30
0.0000000000019322
  0
VERTEX
  5
24005
  8
01
  6
CONTINUOUS
 10
1832.166659431157
 20
-343.8329695500422
 30
0.0000000000019322
  0
VERTEX
  5
24006
  8
01
  6
CONTINUOUS
 10
1832.199400820844
 20
-343.8422268648828
 30
0.0000000000019322
  0
VERTEX
  5
24007
  8
01
  6
CONTINUOUS
 10
1832.232227126159
 20
-343.8511063552104
 30
0.0000000000019322
  0
VERTEX
  5
24008
  8
01
  6
CONTINUOUS
 10
1832.265133708467
 20
-343.8596080188908
 30
0.0000000000019322
  0
VERTEX
  5
24009
  8
01
  6
CONTINUOUS
 10
1832.298115929133
 20
-343.8677318537898
 30
0.0000000000019322
  0
VERTEX
  5
2400A
  8
01
  6
CONTINUOUS
 10
1832.331169149519
 20
-343.8754778577735
 30
0.0000000000019322
  0
VERTEX
  5
2400B
  8
01
  6
CONTINUOUS
 10
1832.364288730992
 20
-343.8828460287075
 30
0.0000000000019322
  0
VERTEX
  5
2400C
  8
01
  6
CONTINUOUS
 10
1832.397470034916
 20
-343.8898363644579
 30
0.0000000000019322
  0
VERTEX
  5
2400D
  8
01
  6
CONTINUOUS
 10
1832.430708422654
 20
-343.8964488628906
 30
0.0000000000019322
  0
VERTEX
  5
2400E
  8
01
  6
CONTINUOUS
 10
1832.463999255571
 20
-343.9026835218713
 30
0.0000000000019322
  0
VERTEX
  5
2400F
  8
01
  6
CONTINUOUS
 10
1832.497337895033
 20
-343.9085403392659
 30
0.0000000000019322
  0
VERTEX
  5
24010
  8
01
  6
CONTINUOUS
 10
1832.530719702402
 20
-343.9140193129405
 30
0.0000000000019322
  0
VERTEX
  5
24011
  8
01
  6
CONTINUOUS
 10
1832.564140039044
 20
-343.9191204407608
 30
0.0000000000019322
  0
VERTEX
  5
24012
  8
01
  6
CONTINUOUS
 10
1832.597594266323
 20
-343.9238437205927
 30
0.0000000000019322
  0
VERTEX
  5
24013
  8
01
  6
CONTINUOUS
 10
1832.631077745603
 20
-343.9281891503022
 30
0.0000000000019322
  0
VERTEX
  5
24014
  8
01
  6
CONTINUOUS
 10
1832.664585838249
 20
-343.9321567277549
 30
0.0000000000019322
  0
VERTEX
  5
24015
  8
01
  6
CONTINUOUS
 10
1832.698113905625
 20
-343.935746450817
 30
0.0000000000019322
  0
VERTEX
  5
24016
  8
01
  6
CONTINUOUS
 10
1832.731657309096
 20
-343.9389583173543
 30
0.0000000000019322
  0
VERTEX
  5
24017
  8
01
  6
CONTINUOUS
 10
1832.765211410026
 20
-343.9417923252325
 30
0.0000000000019322
  0
VERTEX
  5
24018
  8
01
  6
CONTINUOUS
 10
1832.79877156978
 20
-343.9442484723178
 30
0.0000000000019322
  0
VERTEX
  5
24019
  8
01
  6
CONTINUOUS
 10
1832.832333149721
 20
-343.9463267564757
 30
0.0000000000019322
  0
VERTEX
  5
2401A
  8
01
  6
CONTINUOUS
 10
1832.865891511214
 20
-343.9480271755725
 30
0.0000000000019322
  0
VERTEX
  5
2401B
  8
01
  6
CONTINUOUS
 10
1832.899442015625
 20
-343.9493497274737
 30
0.0000000000019322
  0
VERTEX
  5
2401C
  8
01
  6
CONTINUOUS
 10
1832.932980024316
 20
-343.9502944100454
 30
0.0000000000019322
  0
VERTEX
  5
2401D
  8
01
  6
CONTINUOUS
 10
1832.966500898653
 20
-343.9508612211535
 30
0.0000000000019322
  0
VERTEX
  5
2401E
  8
01
  6
CONTINUOUS
 10
1833.0
 20
-343.9510501586637
 30
0.0000000000019322
  0
SEQEND
  5
241F2
  8
01
  6
CONTINUOUS
  0
POLYLINE
  5
23971
  8
01
  6
CONTINUOUS
 66
     1
 10
0.0
 20
0.0
 30
0.0000000000019322
  0
VERTEX
  5
2401F
  8
01
  6
CONTINUOUS
 10
1898.799999999999
 20
-343.3510501586634
 30
0.0000000000019322
  0
VERTEX
  5
24020
  8
01
  6
CONTINUOUS
 10
1898.771018908051
 20
-343.3725176157492
 30
0.0000000000019322
  0
VERTEX
  5
24021
  8
01
  6
CONTINUOUS
 10
1898.741867269121
 20
-343.3935778095089
 30
0.0000000000019322
  0
VERTEX
  5
24022
  8
01
  6
CONTINUOUS
 10
1898.712544176936
 20
-343.4142337449349
 30
0.0000000000019322
  0
VERTEX
  5
24023
  8
01
  6
CONTINUOUS
 10
1898.683048725219
 20
-343.4344884270195
 30
0.0000000000019322
  0
VERTEX
  5
24024
  8
01
  6
CONTINUOUS
 10
1898.653380007695
 20
-343.4543448607552
 30
0.0000000000019322
  0
VERTEX
  5
24025
  8
01
  6
CONTINUOUS
 10
1898.623537118087
 20
-343.4738060511343
 30
0.0000000000019322
  0
VERTEX
  5
24026
  8
01
  6
CONTINUOUS
 10
1898.593519150121
 20
-343.4928750031494
 30
0.0000000000019322
  0
VERTEX
  5
24027
  8
01
  6
CONTINUOUS
 10
1898.56332519752
 20
-343.5115547217927
 30
0.0000000000019322
  0
VERTEX
  5
24028
  8
01
  6
CONTINUOUS
 10
1898.532954354008
 20
-343.5298482120567
 30
0.0000000000019322
  0
VERTEX
  5
24029
  8
01
  6
CONTINUOUS
 10
1898.502405713311
 20
-343.5477584789339
 30
0.0000000000019322
  0
VERTEX
  5
2402A
  8
01
  6
CONTINUOUS
 10
1898.471678369153
 20
-343.5652885274165
 30
0.0000000000019322
  0
VERTEX
  5
2402B
  8
01
  6
CONTINUOUS
 10
1898.440771415257
 20
-343.582441362497
 30
0.0000000000019322
  0
VERTEX
  5
2402C
  8
01
  6
CONTINUOUS
 10
1898.409683945349
 20
-343.5992199891679
 30
0.0000000000019322
  0
VERTEX
  5
2402D
  8
01
  6
CONTINUOUS
 10
1898.378415053152
 20
-343.6156274124214
 30
0.0000000000019322
  0
VERTEX
  5
2402E
  8
01
  6
CONTINUOUS
 10
1898.34700267868
 20
-343.6316441135634
 30
0.0000000000019322
  0
VERTEX
  5
2402F
  8
01
  6
CONTINUOUS
 10
1898.315488374628
 20
-343.6472494868471
 30
0.0000000000019322
  0
VERTEX
  5
24030
  8
01
  6
CONTINUOUS
 10
1898.28387665374
 20
-343.6624449066858
 30
0.0000000000019322
  0
VERTEX
  5
24031
  8
01
  6
CONTINUOUS
 10
1898.252172028761
 20
-343.677231747493
 30
0.0000000000019322
  0
VERTEX
  5
24032
  8
01
  6
CONTINUOUS
 10
1898.220379012435
 20
-343.691611383682
 30
0.0000000000019322
  0
VERTEX
  5
24033
  8
01
  6
CONTINUOUS
 10
1898.188502117508
 20
-343.7055851896663
 30
0.0000000000019322
  0
VERTEX
  5
24034
  8
01
  6
CONTINUOUS
 10
1898.156545856723
 20
-343.7191545398593
 30
0.0000000000019322
  0
VERTEX
  5
24035
  8
01
  6
CONTINUOUS
 10
1898.124514742825
 20
-343.7323208086746
 30
0.0000000000019322
  0
VERTEX
  5
24036
  8
01
  6
CONTINUOUS
 10
1898.09241328856
 20
-343.7450853705254
 30
0.0000000000019322
  0
VERTEX
  5
24037
  8
01
  6
CONTINUOUS
 10
1898.060246006671
 20
-343.7574495998252
 30
0.0000000000019322
  0
VERTEX
  5
24038
  8
01
  6
CONTINUOUS
 10
1898.028017409904
 20
-343.7694148709874
 30
0.0000000000019322
  0
VERTEX
  5
24039
  8
01
  6
CONTINUOUS
 10
1897.995732011003
 20
-343.7809825584255
 30
0.0000000000019322
  0
VERTEX
  5
2403A
  8
01
  6
CONTINUOUS
 10
1897.963394322713
 20
-343.7921540365528
 30
0.0000000000019322
  0
VERTEX
  5
2403B
  8
01
  6
CONTINUOUS
 10
1897.931008857778
 20
-343.8029306797828
 30
0.0000000000019322
  0
VERTEX
  5
2403C
  8
01
  6
CONTINUOUS
 10
1897.89855004679
 20
-343.8133214553581
 30
0.0000000000019322
  0
VERTEX
  5
2403D
  8
01
  6
CONTINUOUS
 10
1897.865992404266
 20
-343.8233344128225
 30
0.0000000000019322
  0
VERTEX
  5
2403E
  8
01
  6
CONTINUOUS
 10
1897.833340568843
 20
-343.8329695500422
 30
0.0000000000019322
  0
VERTEX
  5
2403F
  8
01
  6
CONTINUOUS
 10
1897.800599179156
 20
-343.8422268648828
 30
0.0000000000019322
  0
VERTEX
  5
24040
  8
01
  6
CONTINUOUS
 10
1897.767772873841
 20
-343.8511063552104
 30
0.0000000000019322
  0
VERTEX
  5
24041
  8
01
  6
CONTINUOUS
 10
1897.734866291533
 20
-343.8596080188908
 30
0.0000000000019322
  0
VERTEX
  5
24042
  8
01
  6
CONTINUOUS
 10
1897.701884070867
 20
-343.8677318537898
 30
0.0000000000019322
  0
VERTEX
  5
24043
  8
01
  6
CONTINUOUS
 10
1897.668830850481
 20
-343.8754778577735
 30
0.0000000000019322
  0
VERTEX
  5
24044
  8
01
  6
CONTINUOUS
 10
1897.635711269008
 20
-343.8828460287075
 30
0.0000000000019322
  0
VERTEX
  5
24045
  8
01
  6
CONTINUOUS
 10
1897.602529965084
 20
-343.8898363644579
 30
0.0000000000019322
  0
VERTEX
  5
24046
  8
01
  6
CONTINUOUS
 10
1897.569291577346
 20
-343.8964488628906
 30
0.0000000000019322
  0
VERTEX
  5
24047
  8
01
  6
CONTINUOUS
 10
1897.536000744429
 20
-343.9026835218713
 30
0.0000000000019322
  0
VERTEX
  5
24048
  8
01
  6
CONTINUOUS
 10
1897.502662104967
 20
-343.9085403392659
 30
0.0000000000019322
  0
VERTEX
  5
24049
  8
01
  6
CONTINUOUS
 10
1897.469280297598
 20
-343.9140193129405
 30
0.0000000000019322
  0
VERTEX
  5
2404A
  8
01
  6
CONTINUOUS
 10
1897.435859960956
 20
-343.9191204407608
 30
0.0000000000019322
  0
VERTEX
  5
2404B
  8
01
  6
CONTINUOUS
 10
1897.402405733677
 20
-343.9238437205927
 30
0.0000000000019322
  0
VERTEX
  5
2404C
  8
01
  6
CONTINUOUS
 10
1897.368922254397
 20
-343.9281891503022
 30
0.0000000000019322
  0
VERTEX
  5
2404D
  8
01
  6
CONTINUOUS
 10
1897.335414161751
 20
-343.9321567277549
 30
0.0000000000019322
  0
VERTEX
  5
2404E
  8
01
  6
CONTINUOUS
 10
1897.301886094375
 20
-343.935746450817
 30
0.0000000000019322
  0
VERTEX
  5
2404F
  8
01
  6
CONTINUOUS
 10
1897.268342690904
 20
-343.9389583173543
 30
0.0000000000019322
  0
VERTEX
  5
24050
  8
01
  6
CONTINUOUS
 10
1897.234788589974
 20
-343.9417923252325
 30
0.0000000000019322
  0
VERTEX
  5
24051
  8
01
  6
CONTINUOUS
 10
1897.20122843022
 20
-343.9442484723178
 30
0.0000000000019322
  0
VERTEX
  5
24052
  8
01
  6
CONTINUOUS
 10
1897.167666850279
 20
-343.9463267564757
 30
0.0000000000019322
  0
VERTEX
  5
24053
  8
01
  6
CONTINUOUS
 10
1897.134108488786
 20
-343.9480271755725
 30
0.0000000000019322
  0
VERTEX
  5
24054
  8
01
  6
CONTINUOUS
 10
1897.100557984375
 20
-343.9493497274737
 30
0.0000000000019322
  0
VERTEX
  5
24055
  8
01
  6
CONTINUOUS
 10
1897.067019975684
 20
-343.9502944100454
 30
0.0000000000019322
  0
VERTEX
  5
24056
  8
01
  6
CONTINUOUS
 10
1897.033499101347
 20
-343.9508612211535
 30
0.0000000000019322
  0
VERTEX
  5
24057
  8
01
  6
CONTINUOUS
 10
1897.0
 20
-343.9510501586637
 30
0.0000000000019322
  0
SEQEND
  5
241F3
  8
01
  6
CONTINUOUS
  0
LINE
  5
23972
  8
01
  6
CONTINUOUS
 10
1897.0
 20
-343.9510501586637
 30
0.0000000000019322
 11
1833.0
 21
-343.9510501586637
 31
0.0000000000019322
  0
CIRCLE
  5
23973
  8
01
  6
CONTINUOUS
 10
1865.0
 20
-313.9510501586637
 30
0.0000000000019322
 40
16.24999999999997
  0
ARC
  5
23974
  8
01
  6
CONTINUOUS
 10
2026.722713283772
 20
-414.0
 30
0.0000000000019322
 40
1.000000000000048
 50
225.0000000001036
 51
270.0
  0
LINE
  5
23975
  8
01
  6
CONTINUOUS
 10
2027.308499721399
 20
-415.0
 30
0.0000000000019322
 11
2026.722713283772
 21
-415.0
 31
0.0000000000019322
  0
LINE
  5
23976
  8
01
  6
CONTINUOUS
 10
2027.308499721399
 20
-414.5
 30
0.0000000000019322
 11
2027.308499721399
 21
-415.0
 31
0.0000000000019322
  0
LINE
  5
23977
  8
01
  6
CONTINUOUS
 10
1950.308499721399
 20
-375.0
 30
0.0000000000019322
 11
2027.308499721399
 21
-375.0
 31
0.0000000000019322
  0
LINE
  5
23978
  8
01
  6
CONTINUOUS
 10
2027.308499721399
 20
-375.0
 30
0.0000000000019322
 11
2027.308499721399
 21
-375.5
 31
0.0000000000019322
  0
ARC
  5
23979
  8
01
  6
CONTINUOUS
 10
2023.808499721399
 20
-411.0857864376267
 30
0.0000000000019322
 40
1.0
 50
180.0
 51
225.0000000001036
  0
LINE
  5
2397A
  8
01
  6
CONTINUOUS
 10
2026.015606502588
 20
-414.7071067811867
 30
0.0000000000019322
 11
2023.101392940214
 21
-411.7928932188133
 31
0.0000000000019322
  0
LINE
  5
2397B
  8
01
  6
CONTINUOUS
 10
2027.308499721399
 20
-375.5
 30
0.0000000000019322
 11
2027.308499721399
 21
-414.5
 31
0.0000000000019322
  0
ARC
  5
2397C
  8
01
  6
CONTINUOUS
 10
2020.808499721399
 20
-384.8284271247458
 30
0.0000000000019322
 40
2.000000000000006
 50
0.0
 51
44.99999999998158
  0
LINE
  5
2397D
  8
01
  6
CONTINUOUS
 10
2022.222713283772
 20
-383.4142135623729
 30
0.0000000000019322
 11
2017.894286159026
 21
-379.0857864376267
 31
0.0000000000019322
  0
ARC
  5
2397E
  8
01
  6
CONTINUOUS
 10
2016.480072596652
 20
-380.5
 30
0.0000000000019322
 40
2.000000000000016
 50
45.0
 51
90.0
  0
LINE
  5
2397F
  8
01
  6
CONTINUOUS
 10
2022.808499721399
 20
-411.0857864376267
 30
0.0000000000019322
 11
2022.808499721399
 21
-384.8284271247458
 31
0.0000000000019322
  0
LINE
  5
23980
  8
01
  6
CONTINUOUS
 10
2016.480072596652
 20
-378.5
 30
0.0000000000019322
 11
1950.308499721399
 21
-378.5
 31
0.0000000000019322
  0
LINE
  5
23981
  8
01
  6
CONTINUOUS
 10
1950.308499721399
 20
-378.5
 30
0.0000000000019322
 11
1948.308499721399
 21
-378.5
 31
0.0000000000019322
  0
LINE
  5
23982
  8
01
  6
CONTINUOUS
 10
1948.308499721399
 20
-375.0
 30
0.0000000000019322
 11
1950.308499721399
 21
-375.0
 31
0.0000000000019322
  0
LINE
  5
23983
  8
01
  6
CONTINUOUS
 10
1947.308499721399
 20
-377.5
 30
0.0000000000019322
 11
1947.308499721399
 21
-376.0
 31
0.0000000000019322
  0
LINE
  5
23984
  8
1CENTER
 10
1840.625
 20
-313.9510460588599
 30
0.0000000000011017
 11
1889.375
 21
-313.9510460588599
 31
0.0000000000011017
  0
LINE
  5
23985
  8
1CENTER
 10
1865.0
 20
-338.3260460588599
 30
0.0000000000011017
 11
1865.0
 21
-289.5760460588599
 31
0.0000000000011017
  0
LINE
  5
23986
  8
1CENTER
 10
1876.125
 20
-395.0000038227381
 30
0.0000000000008971
 11
1888.875
 21
-395.0000038227381
 31
0.0000000000008971
  0
LINE
  5
23987
  8
1CENTER
 10
1882.5
 20
-401.3750038227381
 30
0.0000000000008971
 11
1882.5
 21
-388.6250038227381
 31
0.0000000000008971
  0
ARC
  5
23988
  8
01
  6
CONTINUOUS
 10
1948.308499721399
 20
-376.0
 30
0.0000000000019322
 40
1.0
 50
90.0
 51
180.0
  0
ARC
  5
23989
  8
01
  6
CONTINUOUS
 10
1948.308499721399
 20
-377.5
 30
0.0000000000019322
 40
1.0
 50
180.0
 51
270.0
  0
LINE
  5
2398C
  8
01
  6
CONTINUOUS
 10
1830.0
 20
-263.9510501586637
 30
0.0000000000019322
 11
1900.0
 21
-263.9510501586637
 31
0.0000000000019322
  0
CIRCLE
  5
2398D
  8
01
  6
CONTINUOUS
 10
1847.5
 20
-395.0
 30
0.0000000000019322
 40
4.25
  0
LINE
  5
2398F
  8
1CENTER
 10
1841.125
 20
-395.0000038227381
 30
0.0000000000008971
 11
1853.875
 21
-395.0000038227381
 31
0.0000000000008971
  0
LINE
  5
23990
  8
1CENTER
 10
1847.5
 20
-401.3750038227381
 30
0.0000000000008971
 11
1847.5
 21
-388.6250038227381
 31
0.0000000000008971
  0
LINE
  5
23D46
  8
01
 10
1899.700000000001
 20
-411.0908116907959
 30
0.0000000000108401
 11
1900.000000000001
 21
-411.0908116907959
 31
0.0000000000108401
  0
LINE
  5
23D4E
  8
01
 10
1830.200000000001
 20
-411.0908116907959
 30
0.0000000000108401
 11
1899.700000000001
 21
-411.0908116907959
 31
0.0000000000108401
  0
LINE
  5
23D54
  8
01
 10
1830.200000000001
 20
-411.0908116907959
 30
0.0000000000108401
 11
1830.0
 21
-411.0908116907959
 31
0.0000000000108401
  0
CIRCLE
  5
23DAA
  8
01
 10
1856.605685082249
 20
-449.3509136905166
 30
0.0
 40
19.5
  0
CIRCLE
  5
23DAB
  8
01
 10
1856.605685082249
 20
-449.3509136905166
 30
0.0
 40
14.0
  0
CIRCLE
  5
23DAC
  8
01
 10
1937.692805583166
 20
-449.3509136905166
 30
0.0
 40
19.5
  0
CIRCLE
  5
23DAD
  8
01
 10
1937.692805583166
 20
-449.3509136905166
 30
0.0
 40
12.0
  0
LINE
  5
23DDE
  8
1CENTER
  6
PHANTOM2
 10
1885.0
 20
-231.0465539680258
 30
0.0
 11
1885.0
 21
-268.8796870154006
 31
0.0
  0
LINE
  5
23DDF
  8
01
  6
PHANTOM2
 10
1886.499953464102
 20
-239.7010466686866
 30
0.0
 11
1886.999953464102
 21
-239.6010455052895
 31
0.0
  0
LINE
  5
23DE0
  8
01
  6
PHANTOM2
 10
1886.999953464102
 20
-239.6010455052895
 30
0.0
 11
1882.999953464102
 21
-238.8010548124669
 31
0.0
  0
LINE
  5
23DE1
  8
01
  6
PHANTOM2
 10
1882.999953464102
 20
-238.8010548124669
 30
0.0
 11
1883.499953464102
 21
-238.7010536490698
 31
0.0
  0
LINE
  5
23DE2
  8
01
  6
PHANTOM2
 10
1886.499953464102
 20
-241.3010466686866
 30
0.0
 11
1886.999953464102
 21
-241.2010455052895
 31
0.0
  0
LINE
  5
23DE3
  8
01
  6
PHANTOM2
 10
1882.999953464102
 20
-240.401054812467
 30
0.0
 11
1883.499953464102
 21
-240.3010536490698
 31
0.0
  0
LINE
  5
23DE4
  8
01
  6
PHANTOM2
 10
1886.999953464102
 20
-241.2010455052895
 30
0.0
 11
1882.999953464102
 21
-240.401054812467
 31
0.0
  0
LINE
  5
23DE5
  8
01
  6
PHANTOM2
 10
1886.499953464102
 20
-242.9010466686867
 30
0.0
 11
1886.999953464102
 21
-242.8010455052896
 31
0.0
  0
LINE
  5
23DE6
  8
01
  6
PHANTOM2
 10
1886.999953464102
 20
-242.8010455052896
 30
0.0
 11
1882.999953464102
 21
-242.001054812467
 31
0.0
  0
LINE
  5
23DE7
  8
01
  6
PHANTOM2
 10
1882.999953464102
 20
-242.001054812467
 30
0.0
 11
1883.499953464102
 21
-241.9010536490699
 31
0.0
  0
LINE
  5
23DE8
  8
01
  6
PHANTOM2
 10
1886.499953464102
 20
-250.9010466686868
 30
0.0
 11
1886.999953464102
 21
-250.8010455052897
 31
0.0
  0
LINE
  5
23DE9
  8
01
  6
PHANTOM2
 10
1882.999953464102
 20
-250.0010548124671
 30
0.0
 11
1883.499953464102
 21
-249.9010536490699
 31
0.0
  0
LINE
  5
23DEA
  8
01
  6
PHANTOM2
 10
1882.999953464102
 20
-248.401054812467
 30
0.0
 11
1883.499953464102
 21
-248.3010536490698
 31
0.0
  0
LINE
  5
23DEB
  8
01
  6
PHANTOM2
 10
1886.499953464102
 20
-249.3010466686866
 30
0.0
 11
1886.999953464102
 21
-249.2010455052895
 31
0.0
  0
LINE
  5
23DEC
  8
01
  6
PHANTOM2
 10
1886.499953464102
 20
-247.7010466686867
 30
0.0
 11
1886.999953464102
 21
-247.6010455052896
 31
0.0
  0
LINE
  5
23DED
  8
01
  6
PHANTOM2
 10
1886.999953464102
 20
-249.2010455052895
 30
0.0
 11
1882.999953464102
 21
-248.401054812467
 31
0.0
  0
LINE
  5
23DEE
  8
01
  6
PHANTOM2
 10
1886.999953464102
 20
-250.8010455052897
 30
0.0
 11
1882.999953464102
 21
-250.0010548124671
 31
0.0
  0
LINE
  5
23DEF
  8
01
  6
PHANTOM2
 10
1886.499953464102
 20
-246.1010466686868
 30
0.0
 11
1886.999953464102
 21
-246.0010455052896
 31
0.0
  0
LINE
  5
23DF0
  8
01
  6
PHANTOM2
 10
1886.499953464102
 20
-237.9010466686868
 30
0.0
 11
1886.999953464102
 21
-237.8010455052897
 31
0.0
  0
LINE
  5
23DF1
  8
01
  6
PHANTOM2
 10
1886.999953464102
 20
-237.8010455052897
 30
0.0
 11
1883.226360516306
 21
-237.0010542856644
 31
0.0
  0
LINE
  5
23DF2
  8
01
  6
PHANTOM2
 10
1883.226360516306
 20
-237.0010542856644
 30
0.0
 11
1883.762954251577
 21
-236.8717835880345
 31
0.0
  0
LINE
  5
23DF3
  8
01
  6
PHANTOM2
 10
1882.999953464102
 20
-245.201054812467
 30
0.0
 11
1883.499953464102
 21
-245.10105364907
 31
0.0
  0
LINE
  5
23DF4
  8
01
  6
PHANTOM2
 10
1882.999953464102
 20
-243.601054812467
 30
0.0
 11
1883.499953464102
 21
-243.5010536490699
 31
0.0
  0
LINE
  5
23DF5
  8
01
  6
PHANTOM2
 10
1886.499953464102
 20
-244.5010466686867
 30
0.0
 11
1886.999953464102
 21
-244.4010455052896
 31
0.0
  0
LINE
  5
23DF6
  8
01
  6
PHANTOM2
 10
1886.999953464102
 20
-244.4010455052896
 30
0.0
 11
1882.999953464102
 21
-243.601054812467
 31
0.0
  0
LINE
  5
23DF7
  8
01
  6
PHANTOM2
 10
1886.999953464102
 20
-246.0010455052896
 30
0.0
 11
1882.999953464102
 21
-245.201054812467
 31
0.0
  0
LINE
  5
23DF8
  8
01
  6
PHANTOM2
 10
1886.547137322043
 20
-236.2010465588998
 30
0.0
 11
1883.679174620713
 21
-235.4010532320587
 31
0.0
  0
LINE
  5
23DF9
  8
01
  6
PHANTOM2
 10
1886.094323813995
 20
-234.6010476125041
 30
0.0
 11
1884.13198872512
 21
-233.8010521784531
 31
0.0
  0
LINE
  5
23DFA
  8
01
  6
PHANTOM2
 10
1883.679174620713
 20
-235.4010532320587
 30
0.0
 11
1884.230924084516
 21
-235.2182890894307
 31
0.0
  0
LINE
  5
23DFB
  8
01
  6
PHANTOM2
 10
1885.637151973364
 20
-234.7524834089445
 30
0.0
 11
1886.094323813995
 21
-234.6010476125041
 31
0.0
  0
LINE
  5
23DFC
  8
01
  6
PHANTOM2
 10
1884.13198872512
 20
-233.8010521784531
 30
0.0
 11
1884.720265300162
 21
-233.489282322201
 31
0.0
  0
LINE
  5
23DFD
  8
01
  6
PHANTOM2
 10
1886.079038866893
 20
-236.3138160712499
 30
0.0
 11
1886.547137322043
 21
-236.2010465588998
 31
0.0
  0
LINE
  5
23DFE
  8
01
  6
PHANTOM2
 10
1882.999953464102
 20
-246.801054812467
 30
0.0
 11
1883.499953464102
 21
-246.7010536490698
 31
0.0
  0
LINE
  5
23DFF
  8
01
  6
PHANTOM2
 10
1886.999953464102
 20
-247.6010455052896
 30
0.0
 11
1882.999953464102
 21
-246.801054812467
 31
0.0
  0
LINE
  5
23E00
  8
01
  6
PHANTOM2
 10
1883.499953464102
 20
-264.5010536490867
 30
0.0
 11
1882.999953464102
 21
-264.4010548124845
 31
0.0
  0
LINE
  5
23E01
  8
01
  6
PHANTOM2
 10
1886.999953464102
 20
-263.6010455052984
 30
0.0
 11
1882.999953464102
 21
-262.8010548124801
 31
0.0
  0
LINE
  5
23E02
  8
01
  6
PHANTOM2
 10
1886.999953464102
 20
-260.4010455052983
 30
0.0
 11
1882.999953464102
 21
-259.6010548124801
 31
0.0
  0
LINE
  5
23E03
  8
01
  6
PHANTOM2
 10
1882.999953464102
 20
-259.6010548124801
 30
0.0
 11
1883.499953464102
 21
-259.5010536490824
 31
0.0
  0
LINE
  5
23E04
  8
01
  6
PHANTOM2
 10
1882.999953464102
 20
-262.8010548124801
 30
0.0
 11
1883.499953464102
 21
-262.7010536490824
 31
0.0
  0
LINE
  5
23E05
  8
01
  6
PHANTOM2
 10
1886.499953464102
 20
-262.1010466686961
 30
0.0
 11
1886.999953464102
 21
-262.0010455052985
 31
0.0
  0
LINE
  5
23E06
  8
01
  6
PHANTOM2
 10
1882.999953464102
 20
-261.2010548124802
 30
0.0
 11
1883.499953464102
 21
-261.1010536490825
 31
0.0
  0
LINE
  5
23E07
  8
01
  6
PHANTOM2
 10
1886.999953464102
 20
-262.0010455052985
 30
0.0
 11
1882.999953464102
 21
-261.2010548124802
 31
0.0
  0
LINE
  5
23E08
  8
01
  6
PHANTOM2
 10
1886.499953464102
 20
-260.501046668696
 30
0.0
 11
1886.999953464102
 21
-260.4010455052983
 31
0.0
  0
LINE
  5
23E09
  8
01
  6
PHANTOM2
 10
1882.999953464102
 20
-264.4010548124845
 30
0.0
 11
1883.499953464102
 21
-264.3010536490868
 31
0.0
  0
LINE
  5
23E0A
  8
01
  6
PHANTOM2
 10
1886.499953464102
 20
-263.7010466686961
 30
0.0
 11
1886.999953464102
 21
-263.6010455052984
 31
0.0
  0
LINE
  5
23E0B
  8
01
  6
PHANTOM2
 10
1889.0
 20
-267.2010408514832
 30
0.0
 11
1881.0
 21
-267.2010594658423
 31
0.0
  0
LINE
  5
23E0C
  8
01
  6
PHANTOM2
 10
1886.499953464102
 20
-258.9010466686917
 30
0.0
 11
1886.999953464102
 21
-258.801045505294
 31
0.0
  0
LINE
  5
23E0D
  8
01
  6
PHANTOM2
 10
1886.499953464102
 20
-257.3010466686873
 30
0.0
 11
1886.999953464102
 21
-257.2010455052896
 31
0.0
  0
LINE
  5
23E0E
  8
01
  6
PHANTOM2
 10
1882.999953464102
 20
-258.0010548124757
 30
0.0
 11
1883.499953464102
 21
-257.9010536490781
 31
0.0
  0
LINE
  5
23E0F
  8
01
  6
PHANTOM2
 10
1886.499953464102
 20
-254.1010466686873
 30
0.0
 11
1886.999953464102
 21
-254.0010455052896
 31
0.0
  0
LINE
  5
23E10
  8
01
  6
PHANTOM2
 10
1886.999953464102
 20
-255.6010455052897
 30
0.0
 11
1882.999953464102
 21
-254.8010548124715
 31
0.0
  0
LINE
  5
23E11
  8
01
  6
PHANTOM2
 10
1882.999953464102
 20
-254.8010548124715
 30
0.0
 11
1883.499953464102
 21
-254.7010536490738
 31
0.0
  0
LINE
  5
23E12
  8
01
  6
PHANTOM2
 10
1886.499953464102
 20
-255.7010466686874
 30
0.0
 11
1886.999953464102
 21
-255.6010455052897
 31
0.0
  0
LINE
  5
23E13
  8
01
  6
PHANTOM2
 10
1882.999953464102
 20
-256.4010548124714
 30
0.0
 11
1883.499953464102
 21
-256.3010536490737
 31
0.0
  0
LINE
  5
23E14
  8
01
  6
PHANTOM2
 10
1882.999953464102
 20
-251.601054812467
 30
0.0
 11
1883.499953464102
 21
-251.5010536490699
 31
0.0
  0
LINE
  5
23E15
  8
01
  6
PHANTOM2
 10
1882.999953464102
 20
-253.2010548124713
 30
0.0
 11
1883.499953464102
 21
-253.1010536490737
 31
0.0
  0
LINE
  5
23E16
  8
01
  6
PHANTOM2
 10
1886.499953464102
 20
-252.5010466686874
 30
0.0
 11
1886.999953464102
 21
-252.4010455052896
 31
0.0
  0
LINE
  5
23E17
  8
01
  6
PHANTOM2
 10
1886.999953464102
 20
-252.4010455052896
 30
0.0
 11
1882.999953464102
 21
-251.601054812467
 31
0.0
  0
LINE
  5
23E18
  8
01
  6
PHANTOM2
 10
1886.999953464102
 20
-254.0010455052896
 30
0.0
 11
1882.999953464102
 21
-253.2010548124713
 31
0.0
  0
LINE
  5
23E19
  8
01
  6
PHANTOM2
 10
1886.999953464102
 20
-257.2010455052896
 30
0.0
 11
1882.999953464102
 21
-256.4010548124714
 31
0.0
  0
LINE
  5
23E1A
  8
01
  6
PHANTOM2
 10
1886.999953464102
 20
-258.801045505294
 30
0.0
 11
1882.999953464102
 21
-258.0010548124757
 31
0.0
  0
LINE
  5
23E1C
  8
1CENTER
  6
PHANTOM2
 10
1845.0
 20
-231.0465539680257
 30
0.0
 11
1845.0
 21
-268.8796870154005
 31
0.0
  0
LINE
  5
23E1D
  8
01
  6
PHANTOM2
 10
1846.499953464102
 20
-239.7010466686866
 30
0.0
 11
1846.999953464102
 21
-239.6010455052894
 31
0.0
  0
LINE
  5
23E1E
  8
01
  6
PHANTOM2
 10
1846.999953464102
 20
-239.6010455052894
 30
0.0
 11
1842.999953464102
 21
-238.8010548124669
 31
0.0
  0
LINE
  5
23E1F
  8
01
  6
PHANTOM2
 10
1842.999953464102
 20
-238.8010548124669
 30
0.0
 11
1843.499953464102
 21
-238.7010536490698
 31
0.0
  0
LINE
  5
23E20
  8
01
  6
PHANTOM2
 10
1846.499953464102
 20
-241.3010466686866
 30
0.0
 11
1846.999953464102
 21
-241.2010455052895
 31
0.0
  0
LINE
  5
23E21
  8
01
  6
PHANTOM2
 10
1842.999953464102
 20
-240.4010548124669
 30
0.0
 11
1843.499953464102
 21
-240.3010536490698
 31
0.0
  0
LINE
  5
23E22
  8
01
  6
PHANTOM2
 10
1846.999953464102
 20
-241.2010455052895
 30
0.0
 11
1842.999953464102
 21
-240.4010548124669
 31
0.0
  0
LINE
  5
23E23
  8
01
  6
PHANTOM2
 10
1846.499953464102
 20
-242.9010466686866
 30
0.0
 11
1846.999953464102
 21
-242.8010455052895
 31
0.0
  0
LINE
  5
23E24
  8
01
  6
PHANTOM2
 10
1846.999953464102
 20
-242.8010455052895
 30
0.0
 11
1842.999953464102
 21
-242.0010548124669
 31
0.0
  0
LINE
  5
23E25
  8
01
  6
PHANTOM2
 10
1842.999953464102
 20
-242.0010548124669
 30
0.0
 11
1843.499953464102
 21
-241.9010536490698
 31
0.0
  0
LINE
  5
23E26
  8
01
  6
PHANTOM2
 10
1846.499953464102
 20
-250.9010466686867
 30
0.0
 11
1846.999953464102
 21
-250.8010455052896
 31
0.0
  0
LINE
  5
23E27
  8
01
  6
PHANTOM2
 10
1842.999953464102
 20
-250.001054812467
 30
0.0
 11
1843.499953464102
 21
-249.9010536490698
 31
0.0
  0
LINE
  5
23E28
  8
01
  6
PHANTOM2
 10
1842.999953464102
 20
-248.4010548124669
 30
0.0
 11
1843.499953464102
 21
-248.3010536490698
 31
0.0
  0
LINE
  5
23E29
  8
01
  6
PHANTOM2
 10
1846.499953464102
 20
-249.3010466686866
 30
0.0
 11
1846.999953464102
 21
-249.2010455052895
 31
0.0
  0
LINE
  5
23E2A
  8
01
  6
PHANTOM2
 10
1846.499953464102
 20
-247.7010466686867
 30
0.0
 11
1846.999953464102
 21
-247.6010455052896
 31
0.0
  0
LINE
  5
23E2B
  8
01
  6
PHANTOM2
 10
1846.999953464102
 20
-249.2010455052895
 30
0.0
 11
1842.999953464102
 21
-248.4010548124669
 31
0.0
  0
LINE
  5
23E2C
  8
01
  6
PHANTOM2
 10
1846.999953464102
 20
-250.8010455052896
 30
0.0
 11
1842.999953464102
 21
-250.001054812467
 31
0.0
  0
LINE
  5
23E2D
  8
01
  6
PHANTOM2
 10
1846.499953464102
 20
-246.1010466686868
 30
0.0
 11
1846.999953464102
 21
-246.0010455052895
 31
0.0
  0
LINE
  5
23E2E
  8
01
  6
PHANTOM2
 10
1846.499953464102
 20
-237.9010466686867
 30
0.0
 11
1846.999953464102
 21
-237.8010455052896
 31
0.0
  0
LINE
  5
23E2F
  8
01
  6
PHANTOM2
 10
1846.999953464102
 20
-237.8010455052896
 30
0.0
 11
1843.226360516306
 21
-237.0010542856643
 31
0.0
  0
LINE
  5
23E30
  8
01
  6
PHANTOM2
 10
1843.226360516306
 20
-237.0010542856643
 30
0.0
 11
1843.762954251577
 21
-236.8717835880344
 31
0.0
  0
LINE
  5
23E31
  8
01
  6
PHANTOM2
 10
1842.999953464102
 20
-245.201054812467
 30
0.0
 11
1843.499953464102
 21
-245.10105364907
 31
0.0
  0
LINE
  5
23E32
  8
01
  6
PHANTOM2
 10
1842.999953464102
 20
-243.6010548124669
 30
0.0
 11
1843.499953464102
 21
-243.5010536490698
 31
0.0
  0
LINE
  5
23E33
  8
01
  6
PHANTOM2
 10
1846.499953464102
 20
-244.5010466686866
 30
0.0
 11
1846.999953464102
 21
-244.4010455052895
 31
0.0
  0
LINE
  5
23E34
  8
01
  6
PHANTOM2
 10
1846.999953464102
 20
-244.4010455052895
 30
0.0
 11
1842.999953464102
 21
-243.6010548124669
 31
0.0
  0
LINE
  5
23E35
  8
01
  6
PHANTOM2
 10
1846.999953464102
 20
-246.0010455052895
 30
0.0
 11
1842.999953464102
 21
-245.201054812467
 31
0.0
  0
LINE
  5
23E36
  8
01
  6
PHANTOM2
 10
1846.547137322043
 20
-236.2010465588998
 30
0.0
 11
1843.679174620713
 21
-235.4010532320587
 31
0.0
  0
LINE
  5
23E37
  8
01
  6
PHANTOM2
 10
1846.094323813995
 20
-234.601047612504
 30
0.0
 11
1844.13198872512
 21
-233.801052178453
 31
0.0
  0
LINE
  5
23E38
  8
01
  6
PHANTOM2
 10
1843.679174620713
 20
-235.4010532320587
 30
0.0
 11
1844.230924084516
 21
-235.2182890894307
 31
0.0
  0
LINE
  5
23E39
  8
01
  6
PHANTOM2
 10
1845.637151973364
 20
-234.7524834089444
 30
0.0
 11
1846.094323813995
 21
-234.601047612504
 31
0.0
  0
LINE
  5
23E3A
  8
01
  6
PHANTOM2
 10
1844.13198872512
 20
-233.801052178453
 30
0.0
 11
1844.720265300162
 21
-233.4892823222009
 31
0.0
  0
LINE
  5
23E3B
  8
01
  6
PHANTOM2
 10
1846.079038866893
 20
-236.3138160712498
 30
0.0
 11
1846.547137322043
 21
-236.2010465588998
 31
0.0
  0
LINE
  5
23E3C
  8
01
  6
PHANTOM2
 10
1842.999953464102
 20
-246.801054812467
 30
0.0
 11
1843.499953464102
 21
-246.7010536490698
 31
0.0
  0
LINE
  5
23E3D
  8
01
  6
PHANTOM2
 10
1846.999953464102
 20
-247.6010455052896
 30
0.0
 11
1842.999953464102
 21
-246.801054812467
 31
0.0
  0
LINE
  5
23E3E
  8
01
  6
PHANTOM2
 10
1843.499953464102
 20
-264.5010536490867
 30
0.0
 11
1842.999953464102
 21
-264.4010548124844
 31
0.0
  0
LINE
  5
23E3F
  8
01
  6
PHANTOM2
 10
1846.999953464102
 20
-263.6010455052983
 30
0.0
 11
1842.999953464102
 21
-262.8010548124801
 31
0.0
  0
LINE
  5
23E40
  8
01
  6
PHANTOM2
 10
1846.999953464102
 20
-260.4010455052983
 30
0.0
 11
1842.999953464102
 21
-259.60105481248
 31
0.0
  0
LINE
  5
23E41
  8
01
  6
PHANTOM2
 10
1842.999953464102
 20
-259.60105481248
 30
0.0
 11
1843.499953464102
 21
-259.5010536490823
 31
0.0
  0
LINE
  5
23E42
  8
01
  6
PHANTOM2
 10
1842.999953464102
 20
-262.8010548124801
 30
0.0
 11
1843.499953464102
 21
-262.7010536490824
 31
0.0
  0
LINE
  5
23E43
  8
01
  6
PHANTOM2
 10
1846.499953464102
 20
-262.1010466686961
 30
0.0
 11
1846.999953464102
 21
-262.0010455052984
 31
0.0
  0
LINE
  5
23E44
  8
01
  6
PHANTOM2
 10
1842.999953464102
 20
-261.2010548124802
 30
0.0
 11
1843.499953464102
 21
-261.1010536490825
 31
0.0
  0
LINE
  5
23E45
  8
01
  6
PHANTOM2
 10
1846.999953464102
 20
-262.0010455052984
 30
0.0
 11
1842.999953464102
 21
-261.2010548124802
 31
0.0
  0
LINE
  5
23E46
  8
01
  6
PHANTOM2
 10
1846.499953464102
 20
-260.5010466686959
 30
0.0
 11
1846.999953464102
 21
-260.4010455052983
 31
0.0
  0
LINE
  5
23E47
  8
01
  6
PHANTOM2
 10
1842.999953464102
 20
-264.4010548124844
 30
0.0
 11
1843.499953464102
 21
-264.3010536490867
 31
0.0
  0
LINE
  5
23E48
  8
01
  6
PHANTOM2
 10
1846.499953464102
 20
-263.701046668696
 30
0.0
 11
1846.999953464102
 21
-263.6010455052983
 31
0.0
  0
LINE
  5
23E49
  8
01
  6
PHANTOM2
 10
1849.0
 20
-267.2010408514832
 30
0.0
 11
1841.0
 21
-267.2010594658423
 31
0.0
  0
LINE
  5
23E4A
  8
01
  6
PHANTOM2
 10
1846.499953464102
 20
-258.9010466686916
 30
0.0
 11
1846.999953464102
 21
-258.8010455052939
 31
0.0
  0
LINE
  5
23E4B
  8
01
  6
PHANTOM2
 10
1846.499953464102
 20
-257.3010466686873
 30
0.0
 11
1846.999953464102
 21
-257.2010455052896
 31
0.0
  0
LINE
  5
23E4C
  8
01
  6
PHANTOM2
 10
1842.999953464102
 20
-258.0010548124757
 30
0.0
 11
1843.499953464102
 21
-257.901053649078
 31
0.0
  0
LINE
  5
23E4D
  8
01
  6
PHANTOM2
 10
1846.499953464102
 20
-254.1010466686872
 30
0.0
 11
1846.999953464102
 21
-254.0010455052895
 31
0.0
  0
LINE
  5
23E4E
  8
01
  6
PHANTOM2
 10
1846.999953464102
 20
-255.6010455052897
 30
0.0
 11
1842.999953464102
 21
-254.8010548124714
 31
0.0
  0
LINE
  5
23E4F
  8
01
  6
PHANTOM2
 10
1842.999953464102
 20
-254.8010548124714
 30
0.0
 11
1843.499953464102
 21
-254.7010536490737
 31
0.0
  0
LINE
  5
23E50
  8
01
  6
PHANTOM2
 10
1846.499953464102
 20
-255.7010466686874
 30
0.0
 11
1846.999953464102
 21
-255.6010455052897
 31
0.0
  0
LINE
  5
23E51
  8
01
  6
PHANTOM2
 10
1842.999953464102
 20
-256.4010548124713
 30
0.0
 11
1843.499953464102
 21
-256.3010536490737
 31
0.0
  0
LINE
  5
23E52
  8
01
  6
PHANTOM2
 10
1842.999953464102
 20
-251.6010548124669
 30
0.0
 11
1843.499953464102
 21
-251.5010536490698
 31
0.0
  0
LINE
  5
23E53
  8
01
  6
PHANTOM2
 10
1842.999953464102
 20
-253.2010548124713
 30
0.0
 11
1843.499953464102
 21
-253.1010536490736
 31
0.0
  0
LINE
  5
23E54
  8
01
  6
PHANTOM2
 10
1846.499953464102
 20
-252.5010466686873
 30
0.0
 11
1846.999953464102
 21
-252.4010455052895
 31
0.0
  0
LINE
  5
23E55
  8
01
  6
PHANTOM2
 10
1846.999953464102
 20
-252.4010455052895
 30
0.0
 11
1842.999953464102
 21
-251.6010548124669
 31
0.0
  0
LINE
  5
23E56
  8
01
  6
PHANTOM2
 10
1846.999953464102
 20
-254.0010455052895
 30
0.0
 11
1842.999953464102
 21
-253.2010548124713
 31
0.0
  0
LINE
  5
23E57
  8
01
  6
PHANTOM2
 10
1846.999953464102
 20
-257.2010455052896
 30
0.0
 11
1842.999953464102
 21
-256.4010548124713
 31
0.0
  0
LINE
  5
23E58
  8
01
  6
PHANTOM2
 10
1846.999953464102
 20
-258.8010455052939
 30
0.0
 11
1842.999953464102
 21
-258.0010548124757
 31
0.0
  0
LINE
  5
23E5A
  8
1CENTER
  6
PHANTOM2
 10
2060.213005219216
 20
-395.0
 30
0.0
 11
2022.379872171841
 21
-395.0
 31
0.0
  0
LINE
  5
23E5B
  8
01
  6
PHANTOM2
 10
2051.558512518555
 20
-396.4999534641021
 30
0.0
 11
2051.658513681952
 21
-396.9999534641021
 31
0.0
  0
LINE
  5
23E5C
  8
01
  6
PHANTOM2
 10
2051.658513681952
 20
-396.9999534641021
 30
0.0
 11
2052.458504374775
 21
-392.9999534641021
 31
0.0
  0
LINE
  5
23E5D
  8
01
  6
PHANTOM2
 10
2052.458504374775
 20
-392.9999534641021
 30
0.0
 11
2052.558505538172
 21
-393.4999534641021
 31
0.0
  0
LINE
  5
23E5E
  8
01
  6
PHANTOM2
 10
2049.958512518555
 20
-396.4999534641021
 30
0.0
 11
2050.058513681952
 21
-396.9999534641021
 31
0.0
  0
LINE
  5
23E5F
  8
01
  6
PHANTOM2
 10
2050.858504374774
 20
-392.9999534641021
 30
0.0
 11
2050.958505538172
 21
-393.4999534641021
 31
0.0
  0
LINE
  5
23E60
  8
01
  6
PHANTOM2
 10
2050.058513681952
 20
-396.9999534641021
 30
0.0
 11
2050.858504374774
 21
-392.9999534641021
 31
0.0
  0
LINE
  5
23E61
  8
01
  6
PHANTOM2
 10
2048.358512518555
 20
-396.4999534641021
 30
0.0
 11
2048.458513681952
 21
-396.9999534641021
 31
0.0
  0
LINE
  5
23E62
  8
01
  6
PHANTOM2
 10
2048.458513681952
 20
-396.9999534641021
 30
0.0
 11
2049.258504374774
 21
-392.9999534641021
 31
0.0
  0
LINE
  5
23E63
  8
01
  6
PHANTOM2
 10
2049.258504374774
 20
-392.9999534641021
 30
0.0
 11
2049.358505538172
 21
-393.4999534641021
 31
0.0
  0
LINE
  5
23E64
  8
01
  6
PHANTOM2
 10
2040.358512518555
 20
-396.4999534641021
 30
0.0
 11
2040.458513681952
 21
-396.9999534641021
 31
0.0
  0
LINE
  5
23E65
  8
01
  6
PHANTOM2
 10
2041.258504374774
 20
-392.9999534641021
 30
0.0
 11
2041.358505538172
 21
-393.4999534641021
 31
0.0
  0
LINE
  5
23E66
  8
01
  6
PHANTOM2
 10
2042.858504374775
 20
-392.9999534641021
 30
0.0
 11
2042.958505538172
 21
-393.4999534641021
 31
0.0
  0
LINE
  5
23E67
  8
01
  6
PHANTOM2
 10
2041.958512518555
 20
-396.4999534641021
 30
0.0
 11
2042.058513681952
 21
-396.9999534641021
 31
0.0
  0
LINE
  5
23E68
  8
01
  6
PHANTOM2
 10
2043.558512518555
 20
-396.4999534641021
 30
0.0
 11
2043.658513681952
 21
-396.9999534641021
 31
0.0
  0
LINE
  5
23E69
  8
01
  6
PHANTOM2
 10
2042.058513681952
 20
-396.9999534641021
 30
0.0
 11
2042.858504374775
 21
-392.9999534641021
 31
0.0
  0
LINE
  5
23E6A
  8
01
  6
PHANTOM2
 10
2040.458513681952
 20
-396.9999534641021
 30
0.0
 11
2041.258504374774
 21
-392.9999534641021
 31
0.0
  0
LINE
  5
23E6B
  8
01
  6
PHANTOM2
 10
2045.158512518555
 20
-396.4999534641021
 30
0.0
 11
2045.258513681952
 21
-396.9999534641021
 31
0.0
  0
LINE
  5
23E6C
  8
01
  6
PHANTOM2
 10
2053.358512518555
 20
-396.4999534641021
 30
0.0
 11
2053.458513681952
 21
-396.9999534641021
 31
0.0
  0
LINE
  5
23E6D
  8
01
  6
PHANTOM2
 10
2053.458513681952
 20
-396.9999534641021
 30
0.0
 11
2054.258504901577
 21
-393.226360516306
 31
0.0
  0
LINE
  5
23E6E
  8
01
  6
PHANTOM2
 10
2054.258504901577
 20
-393.226360516306
 30
0.0
 11
2054.387775599207
 21
-393.7629542515772
 31
0.0
  0
LINE
  5
23E6F
  8
01
  6
PHANTOM2
 10
2046.058504374774
 20
-392.9999534641021
 30
0.0
 11
2046.158505538172
 21
-393.4999534641021
 31
0.0
  0
LINE
  5
23E70
  8
01
  6
PHANTOM2
 10
2047.658504374775
 20
-392.9999534641021
 30
0.0
 11
2047.758505538172
 21
-393.4999534641021
 31
0.0
  0
LINE
  5
23E71
  8
01
  6
PHANTOM2
 10
2046.758512518555
 20
-396.4999534641021
 30
0.0
 11
2046.858513681952
 21
-396.9999534641021
 31
0.0
  0
LINE
  5
23E72
  8
01
  6
PHANTOM2
 10
2046.858513681952
 20
-396.9999534641021
 30
0.0
 11
2047.658504374775
 21
-392.9999534641021
 31
0.0
  0
LINE
  5
23E73
  8
01
  6
PHANTOM2
 10
2045.258513681952
 20
-396.9999534641021
 30
0.0
 11
2046.058504374774
 21
-392.9999534641021
 31
0.0
  0
LINE
  5
23E74
  8
01
  6
PHANTOM2
 10
2055.058512628342
 20
-396.5471373220433
 30
0.0
 11
2055.858505955183
 21
-393.6791746207128
 31
0.0
  0
LINE
  5
23E75
  8
01
  6
PHANTOM2
 10
2056.658511574738
 20
-396.0943238139951
 30
0.0
 11
2057.458507008788
 21
-394.1319887251196
 31
0.0
  0
LINE
  5
23E76
  8
01
  6
PHANTOM2
 10
2055.858505955183
 20
-393.6791746207128
 30
0.0
 11
2056.041270097811
 21
-394.2309240845161
 31
0.0
  0
LINE
  5
23E77
  8
01
  6
PHANTOM2
 10
2056.507075778297
 20
-395.637151973364
 30
0.0
 11
2056.658511574738
 21
-396.0943238139951
 31
0.0
  0
LINE
  5
23E78
  8
01
  6
PHANTOM2
 10
2057.458507008788
 20
-394.1319887251196
 30
0.0
 11
2057.770276865041
 21
-394.7202653001621
 31
0.0
  0
LINE
  5
23E79
  8
01
  6
PHANTOM2
 10
2054.945743115992
 20
-396.0790388668934
 30
0.0
 11
2055.058512628342
 21
-396.5471373220433
 31
0.0
  0
LINE
  5
23E7A
  8
01
  6
PHANTOM2
 10
2044.458504374775
 20
-392.9999534641021
 30
0.0
 11
2044.558505538172
 21
-393.4999534641021
 31
0.0
  0
LINE
  5
23E7B
  8
01
  6
PHANTOM2
 10
2043.658513681952
 20
-396.9999534641021
 30
0.0
 11
2044.458504374775
 21
-392.9999534641021
 31
0.0
  0
LINE
  5
23E7C
  8
01
  6
PHANTOM2
 10
2026.758505538155
 20
-393.4999534641021
 30
0.0
 11
2026.858504374757
 21
-392.9999534641021
 31
0.0
  0
LINE
  5
23E7D
  8
01
  6
PHANTOM2
 10
2027.658513681943
 20
-396.9999534641021
 30
0.0
 11
2028.458504374761
 21
-392.9999534641021
 31
0.0
  0
LINE
  5
23E7E
  8
01
  6
PHANTOM2
 10
2030.858513681943
 20
-396.9999534641021
 30
0.0
 11
2031.658504374761
 21
-392.9999534641021
 31
0.0
  0
LINE
  5
23E7F
  8
01
  6
PHANTOM2
 10
2031.658504374761
 20
-392.9999534641021
 30
0.0
 11
2031.758505538159
 21
-393.4999534641021
 31
0.0
  0
LINE
  5
23E80
  8
01
  6
PHANTOM2
 10
2028.458504374761
 20
-392.9999534641021
 30
0.0
 11
2028.558505538159
 21
-393.4999534641021
 31
0.0
  0
LINE
  5
23E81
  8
01
  6
PHANTOM2
 10
2029.158512518545
 20
-396.4999534641021
 30
0.0
 11
2029.258513681943
 21
-396.9999534641021
 31
0.0
  0
LINE
  5
23E82
  8
01
  6
PHANTOM2
 10
2030.058504374761
 20
-392.9999534641021
 30
0.0
 11
2030.158505538159
 21
-393.4999534641021
 31
0.0
  0
LINE
  5
23E83
  8
01
  6
PHANTOM2
 10
2029.258513681943
 20
-396.9999534641021
 30
0.0
 11
2030.058504374761
 21
-392.9999534641021
 31
0.0
  0
LINE
  5
23E84
  8
01
  6
PHANTOM2
 10
2030.758512518546
 20
-396.4999534641021
 30
0.0
 11
2030.858513681943
 21
-396.9999534641021
 31
0.0
  0
LINE
  5
23E85
  8
01
  6
PHANTOM2
 10
2026.858504374757
 20
-392.9999534641021
 30
0.0
 11
2026.958505538155
 21
-393.4999534641021
 31
0.0
  0
LINE
  5
23E86
  8
01
  6
PHANTOM2
 10
2027.558512518546
 20
-396.4999534641021
 30
0.0
 11
2027.658513681943
 21
-396.9999534641021
 31
0.0
  0
LINE
  5
23E87
  8
01
  6
PHANTOM2
 10
2024.058518335758
 20
-399.0
 30
0.0
 11
2024.058499721399
 21
-391.0
 31
0.0
  0
LINE
  5
23E88
  8
01
  6
PHANTOM2
 10
2032.35851251855
 20
-396.4999534641021
 30
0.0
 11
2032.458513681948
 21
-396.9999534641021
 31
0.0
  0
LINE
  5
23E89
  8
01
  6
PHANTOM2
 10
2033.958512518554
 20
-396.4999534641021
 30
0.0
 11
2034.058513681952
 21
-396.9999534641021
 31
0.0
  0
LINE
  5
23E8A
  8
01
  6
PHANTOM2
 10
2033.258504374766
 20
-392.9999534641021
 30
0.0
 11
2033.358505538163
 21
-393.4999534641021
 31
0.0
  0
LINE
  5
23E8B
  8
01
  6
PHANTOM2
 10
2037.158512518554
 20
-396.4999534641021
 30
0.0
 11
2037.258513681952
 21
-396.9999534641021
 31
0.0
  0
LINE
  5
23E8C
  8
01
  6
PHANTOM2
 10
2035.658513681952
 20
-396.9999534641021
 30
0.0
 11
2036.45850437477
 21
-392.9999534641021
 31
0.0
  0
LINE
  5
23E8D
  8
01
  6
PHANTOM2
 10
2036.45850437477
 20
-392.9999534641021
 30
0.0
 11
2036.558505538168
 21
-393.4999534641021
 31
0.0
  0
LINE
  5
23E8E
  8
01
  6
PHANTOM2
 10
2035.558512518554
 20
-396.4999534641021
 30
0.0
 11
2035.658513681952
 21
-396.9999534641021
 31
0.0
  0
LINE
  5
23E8F
  8
01
  6
PHANTOM2
 10
2034.85850437477
 20
-392.9999534641021
 30
0.0
 11
2034.958505538168
 21
-393.4999534641021
 31
0.0
  0
LINE
  5
23E90
  8
01
  6
PHANTOM2
 10
2039.658504374775
 20
-392.9999534641021
 30
0.0
 11
2039.758505538172
 21
-393.4999534641021
 31
0.0
  0
LINE
  5
23E91
  8
01
  6
PHANTOM2
 10
2038.05850437477
 20
-392.9999534641021
 30
0.0
 11
2038.158505538168
 21
-393.4999534641021
 31
0.0
  0
LINE
  5
23E92
  8
01
  6
PHANTOM2
 10
2038.758512518554
 20
-396.4999534641021
 30
0.0
 11
2038.858513681952
 21
-396.9999534641021
 31
0.0
  0
LINE
  5
23E93
  8
01
  6
PHANTOM2
 10
2038.858513681952
 20
-396.9999534641021
 30
0.0
 11
2039.658504374775
 21
-392.9999534641021
 31
0.0
  0
LINE
  5
23E94
  8
01
  6
PHANTOM2
 10
2037.258513681952
 20
-396.9999534641021
 30
0.0
 11
2038.05850437477
 21
-392.9999534641021
 31
0.0
  0
LINE
  5
23E95
  8
01
  6
PHANTOM2
 10
2034.058513681952
 20
-396.9999534641021
 30
0.0
 11
2034.85850437477
 21
-392.9999534641021
 31
0.0
  0
LINE
  5
23E96
  8
01
  6
PHANTOM2
 10
2032.458513681948
 20
-396.9999534641021
 30
0.0
 11
2033.258504374766
 21
-392.9999534641021
 31
0.0
  0
LINE
  5
23E97
  8
01
  6
PHANTOM2
 10
1886.499953464102
 20
-264.7010117668111
 30
0.0
 11
1886.499953464102
 21
-237.8010466686873
 31
0.0
  0
LINE
  5
23E98
  8
01
  6
PHANTOM2
 10
1886.499953464102
 20
-237.8010466686873
 30
0.0
 11
1884.999953464102
 21
-232.5010501588262
 31
0.0
  0
LINE
  5
23E99
  8
01
  6
PHANTOM2
 10
1884.999953464102
 20
-232.5010501588262
 30
0.0
 11
1883.499953464102
 21
-237.8010536490716
 31
0.0
  0
LINE
  5
23E9A
  8
01
  6
PHANTOM2
 10
1883.499953464102
 20
-237.8010536490716
 30
0.0
 11
1883.499953464102
 21
-264.7010769171763
 31
0.0
  0
LINE
  5
23E9B
  8
01
  6
PHANTOM2
 10
1883.499953464102
 20
-264.7010769171763
 30
0.0
 11
1881.0
 21
-267.2010594658423
 31
0.0
  0
LINE
  5
23E9C
  8
01
  6
PHANTOM2
 10
1881.0
 20
-267.2010594658423
 30
0.0
 11
1881.0
 21
-267.5010594658434
 31
0.0
  0
LINE
  5
23E9D
  8
01
  6
PHANTOM2
 10
1881.0
 20
-267.5010594658434
 30
0.0
 11
1889.0
 21
-267.5010408514842
 31
0.0
  0
LINE
  5
23E9E
  8
01
  6
PHANTOM2
 10
1889.0
 20
-267.5010408514842
 30
0.0
 11
1889.0
 21
-267.2010408514832
 31
0.0
  0
LINE
  5
23E9F
  8
01
  6
PHANTOM2
 10
1889.0
 20
-267.2010408514832
 30
0.0
 11
1886.499953464102
 21
-264.7010117668111
 31
0.0
  0
LINE
  5
23EA0
  8
01
  6
PHANTOM2
 10
1846.499953464102
 20
-264.7010117668111
 30
0.0
 11
1846.499953464102
 21
-237.8010466686872
 31
0.0
  0
LINE
  5
23EA1
  8
01
  6
PHANTOM2
 10
1846.499953464102
 20
-237.8010466686872
 30
0.0
 11
1844.999953464102
 21
-232.5010501588262
 31
0.0
  0
LINE
  5
23EA2
  8
01
  6
PHANTOM2
 10
1844.999953464102
 20
-232.5010501588262
 30
0.0
 11
1843.499953464102
 21
-237.8010536490715
 31
0.0
  0
LINE
  5
23EA3
  8
01
  6
PHANTOM2
 10
1843.499953464102
 20
-237.8010536490715
 30
0.0
 11
1843.499953464102
 21
-264.7010769171762
 31
0.0
  0
LINE
  5
23EA4
  8
01
  6
PHANTOM2
 10
1843.499953464102
 20
-264.7010769171762
 30
0.0
 11
1841.0
 21
-267.2010594658423
 31
0.0
  0
LINE
  5
23EA5
  8
01
  6
PHANTOM2
 10
1841.0
 20
-267.2010594658423
 30
0.0
 11
1841.0
 21
-267.5010594658434
 31
0.0
  0
LINE
  5
23EA6
  8
01
  6
PHANTOM2
 10
1841.0
 20
-267.5010594658434
 30
0.0
 11
1849.0
 21
-267.5010408514842
 31
0.0
  0
LINE
  5
23EA7
  8
01
  6
PHANTOM2
 10
1849.0
 20
-267.5010408514842
 30
0.0
 11
1849.0
 21
-267.2010408514832
 31
0.0
  0
LINE
  5
23EA8
  8
01
  6
PHANTOM2
 10
1849.0
 20
-267.2010408514832
 30
0.0
 11
1846.499953464102
 21
-264.7010117668111
 31
0.0
  0
LINE
  5
23EA9
  8
01
  6
PHANTOM2
 10
2026.55854742043
 20
-396.4999534641021
 30
0.0
 11
2053.458512518554
 21
-396.4999534641021
 31
0.0
  0
LINE
  5
23EAA
  8
01
  6
PHANTOM2
 10
2053.458512518554
 20
-396.4999534641021
 30
0.0
 11
2058.758509028415
 21
-394.9999534641021
 31
0.0
  0
LINE
  5
23EAB
  8
01
  6
PHANTOM2
 10
2058.758509028415
 20
-394.9999534641021
 30
0.0
 11
2053.45850553817
 21
-393.4999534641021
 31
0.0
  0
LINE
  5
23EAC
  8
01
  6
PHANTOM2
 10
2053.45850553817
 20
-393.4999534641021
 30
0.0
 11
2026.558482270065
 21
-393.4999534641021
 31
0.0
  0
LINE
  5
23EAD
  8
01
  6
PHANTOM2
 10
2026.558482270065
 20
-393.4999534641021
 30
0.0
 11
2024.058499721399
 21
-391.0
 31
0.0
  0
LINE
  5
23EAE
  8
01
  6
PHANTOM2
 10
2024.058499721399
 20
-391.0
 30
0.0
 11
2023.758499721398
 21
-391.0
 31
0.0
  0
LINE
  5
23EAF
  8
01
  6
PHANTOM2
 10
2023.758499721398
 20
-391.0
 30
0.0
 11
2023.758518335757
 21
-399.0
 31
0.0
  0
LINE
  5
23EB0
  8
01
  6
PHANTOM2
 10
2023.758518335757
 20
-399.0
 30
0.0
 11
2024.058518335758
 21
-399.0
 31
0.0
  0
LINE
  5
23EB1
  8
01
  6
PHANTOM2
 10
2024.058518335758
 20
-399.0
 30
0.0
 11
2026.55854742043
 21
-396.4999534641021
 31
0.0
  0
LINE
  5
23EB3
  8
01
 10
1900.0
 20
-384.0630602600158
 30
0.0000000000019322
 11
1830.0
 21
-384.0630602600158
 31
0.0000000000019322
  0
LINE
  5
23EFB
  8
1CENTER
 10
1841.125
 20
-395.0000076454762
 30
-0.000000000000138
 11
1853.875
 21
-395.0000076454762
 31
-0.000000000000138
  0
CIRCLE
  5
23EFD
  8
01
 10
1847.5
 20
-395.0000038227381
 30
0.0000000000008971
 40
4.0
  0
LINE
  5
23EFE
  8
1CENTER
 10
1876.125
 20
-395.0000038227381
 30
0.0000000000008971
 11
1888.875
 21
-395.0000038227381
 31
0.0000000000008971
  0
CIRCLE
  5
23F00
  8
01
 10
1882.5
 20
-395.0
 30
0.0000000000019322
 40
4.0
  0
TEXT
  5
23F02
  8
01
  6
CONTINUOUS
 10
2015.377417155605
 20
-347.6646653849989
 30
0.0000000000019322
 40
3.5
  1
PB
  0
LINE
  5
23F03
  8
01
 10
1849.626199868529
 20
-394.3728859896034
 30
0.0000000000008971
 11
1848.127163496201
 21
-394.3728755257529
 31
0.0000000000008971
  0
LINE
  5
23F04
  8
01
 10
1848.127153032412
 20
-392.8738479085028
 30
0.0000000000008971
 11
1846.872913136706
 21
-392.8738391534258
 31
0.0000000000008971
  0
LINE
  5
23F05
  8
01
 10
1848.127153032412
 20
-392.8738479085028
 30
0.0000000000008971
 11
1848.127163496201
 21
-394.3728755257529
 31
0.0000000000008971
  0
LINE
  5
23F06
  8
01
 10
1849.626191113452
 20
-395.6271258853097
 30
0.0000000000008971
 11
1849.626199868529
 21
-394.3728859896034
 31
0.0000000000008971
  0
LINE
  5
23F07
  8
01
 10
1849.626191113452
 20
-395.6271258853097
 30
0.0000000000008971
 11
1848.127172251424
 21
-395.6271363490381
 31
0.0000000000008971
  0
LINE
  5
23F08
  8
01
 10
1848.127172251424
 20
-395.6271363490381
 30
0.0000000000008971
 11
1848.127182715275
 21
-397.1261727216336
 31
0.0000000000008971
  0
LINE
  5
23F09
  8
01
 10
1846.872893917571
 20
-395.6271451043833
 30
0.0000000000008971
 11
1845.373866300321
 21
-395.6271555681728
 31
0.0000000000008971
  0
LINE
  5
23F0A
  8
01
 10
1846.872893917571
 20
-395.6271451043833
 30
0.0000000000008971
 11
1846.872883453843
 21
-397.1261639661421
 31
0.0000000000008971
  0
LINE
  5
23F0B
  8
01
 10
1846.872883453843
 20
-397.1261639661421
 30
0.0000000000008971
 11
1848.127182715275
 21
-397.1261727216336
 31
0.0000000000008971
  0
LINE
  5
23F0C
  8
01
 10
1846.872902672916
 20
-394.3728667705299
 30
0.0000000000008971
 11
1845.373875055812
 21
-394.3728563067405
 31
0.0000000000008971
  0
LINE
  5
23F0D
  8
01
 10
1845.373875055812
 20
-394.3728563067405
 30
0.0000000000008971
 11
1845.373866300321
 21
-395.6271555681728
 31
0.0000000000008971
  0
LINE
  5
23F0E
  8
01
 10
1846.872913136706
 20
-392.8738391534258
 30
0.0000000000008971
 11
1846.872902672916
 21
-394.3728667705299
 31
0.0000000000008971
  0
LINE
  5
23F0F
  8
01
 10
1884.626199868529
 20
-394.3728821668653
 30
0.0000000000019322
 11
1883.127163496201
 21
-394.3728717030148
 31
0.0000000000019322
  0
LINE
  5
23F10
  8
01
 10
1883.127153032412
 20
-392.8738440857647
 30
0.0000000000019322
 11
1881.872913136706
 21
-392.8738353306877
 31
0.0000000000019322
  0
LINE
  5
23F11
  8
01
 10
1883.127153032412
 20
-392.8738440857647
 30
0.0000000000019322
 11
1883.127163496201
 21
-394.3728717030148
 31
0.0000000000019322
  0
LINE
  5
23F12
  8
01
 10
1884.626191113452
 20
-395.6271220625716
 30
0.0000000000019322
 11
1884.626199868529
 21
-394.3728821668653
 31
0.0000000000019322
  0
LINE
  5
23F13
  8
01
 10
1884.626191113452
 20
-395.6271220625716
 30
0.0000000000019322
 11
1883.127172251424
 21
-395.6271325263
 31
0.0000000000019322
  0
LINE
  5
23F14
  8
01
 10
1883.127172251424
 20
-395.6271325263
 30
0.0000000000019322
 11
1883.127182715275
 21
-397.1261688988955
 31
0.0000000000019322
  0
LINE
  5
23F15
  8
01
 10
1881.872893917571
 20
-395.6271412816452
 30
0.0000000000019322
 11
1880.373866300321
 21
-395.6271517454347
 31
0.0000000000019322
  0
LINE
  5
23F16
  8
01
 10
1881.872893917571
 20
-395.6271412816452
 30
0.0000000000019322
 11
1881.872883453843
 21
-397.126160143404
 31
0.0000000000019322
  0
LINE
  5
23F17
  8
01
 10
1881.872883453843
 20
-397.126160143404
 30
0.0000000000019322
 11
1883.127182715275
 21
-397.1261688988955
 31
0.0000000000019322
  0
LINE
  5
23F18
  8
01
 10
1881.872902672916
 20
-394.3728629477918
 30
0.0000000000019322
 11
1880.373875055812
 21
-394.3728524840024
 31
0.0000000000019322
  0
LINE
  5
23F19
  8
01
 10
1880.373875055812
 20
-394.3728524840024
 30
0.0000000000019322
 11
1880.373866300321
 21
-395.6271517454347
 31
0.0000000000019322
  0
LINE
  5
23F1A
  8
01
 10
1881.872913136706
 20
-392.8738353306877
 30
0.0000000000019322
 11
1881.872902672916
 21
-394.3728629477918
 31
0.0000000000019322
  0
LINE
  5
23F1B
  8
1DIM
 10
1967.5584997214
 20
-375.0
 30
0.0
 11
1966.5584997214
 21
-375.0
 31
0.0
  0
LINE
  5
23F1C
  8
1DIM
 10
1967.5584997214
 20
-378.5
 30
0.0
 11
1966.5584997214
 21
-378.5
 31
0.0
  0
LINE
  5
23F1D
  8
1DIM
 10
1967.5584997214
 20
-378.5
 30
0.0
 11
1967.5584997214
 21
-391.2333333333336
 31
0.0
  0
LINE
  5
23F1E
  8
1DIM
 10
1967.5584997214
 20
-375.0
 30
0.0
 11
1967.5584997214
 21
-378.5
 31
0.0
  0
LINE
  5
23F1F
  8
1DIM
 10
1967.5584997214
 20
-373.0
 30
0.0
 11
1967.5584997214
 21
-371.0
 31
0.0
  0
LINE
  5
23F20
  8
1DIM
 10
1967.5584997214
 20
-380.5
 30
0.0
 11
1967.5584997214
 21
-382.5
 31
0.0
  0
LINE
  5
23F24
  8
1DIM
 10
2022.808499721399
 20
-411.0857864376267
 30
0.0
 11
2022.808499721399
 21
-430.8141016151321
 31
0.0
  0
LINE
  5
23F25
  8
1DIM
 10
2027.308499721399
 20
-415.0
 30
0.0
 11
2027.308499721399
 21
-430.8141016151321
 31
0.0
  0
LINE
  5
23F26
  8
1DIM
 10
2022.808499721399
 20
-429.8141016151321
 30
0.0
 11
2010.075166388066
 21
-429.8141016151321
 31
0.0
  0
LINE
  5
23F27
  8
1DIM
 10
2022.808499721399
 20
-429.8141016151321
 30
0.0
 11
2027.308499721399
 21
-429.8141016151321
 31
0.0
  0
LINE
  5
23F28
  8
1DIM
 10
2020.808499721399
 20
-429.8141016151321
 30
0.0
 11
2018.808499721399
 21
-429.8141016151321
 31
0.0
  0
LINE
  5
23F29
  8
1DIM
 10
2029.308499721399
 20
-429.8141016151321
 30
0.0
 11
2031.308499721399
 21
-429.8141016151321
 31
0.0
  0
LINE
  5
23F2D
  8
1DIM
 10
2027.308499721399
 20
-375.0
 30
0.0
 11
2085.46664171286
 21
-375.0
 31
0.0
  0
LINE
  5
23F2E
  8
1DIM
 10
2027.308499721399
 20
-415.0
 30
0.0
 11
2085.46664171286
 21
-415.0
 31
0.0
  0
LINE
  5
23F2F
  8
1DIM
 10
2084.46664171286
 20
-377.0
 30
0.0
 11
2084.46664171286
 21
-413.0
 31
0.0
  0
LINE
  5
23F33
  8
1DIM
 10
1947.308499721399
 20
-376.0
 30
0.0
 11
1947.308499721399
 21
-359.0
 31
0.0
  0
LINE
  5
23F34
  8
1DIM
 10
2027.308499721399
 20
-375.0
 30
0.0
 11
2027.308499721399
 21
-359.0
 31
0.0
  0
LINE
  5
23F35
  8
1DIM
 10
1949.308499721399
 20
-360.0
 30
0.0
 11
2025.308499721399
 21
-360.0
 31
0.0
  0
LINE
  5
23F3A
  8
1DIM
 10
2031.324193781705
 20
-356.9168641380719
 30
0.0000000000019322
 11
2021.910750488938
 21
-348.3646653849989
 31
0.0000000000019322
  0
TEXT
  5
23F3B
  8
1DIM
  6
CONTINUOUS
 10
1994.652406540671
 20
-336.1284209298987
 30
0.0
 40
3.5
  1
合板9mm以上
  0
LINE
  5
23F3D
  8
1DIM
 10
2038.908998621455
 20
-355.8345213173075
 30
0.0000000000017846
 11
2023.954026911041
 21
-336.8284209298987
 31
0.0
  0
LINE
  5
23F3E
  8
1DIM
 10
2023.954026911041
 20
-336.8284209298987
 30
0.0
 11
1991.820693577708
 21
-336.8284209298987
 31
0.0
  0
LINE
  5
23F3F
  8
1DIM
 10
1847.5
 20
-388.6250038227381
 30
0.0
 11
1847.5
 21
-365.6250038227381
 31
0.0
1001
ACAD
1000
DSTYLE
1002
{
1070
    70
1070
     0
1070
    69
1070
     0
1002
}
  0
LINE
  5
23F40
  8
1DIM
 10
1882.5
 20
-388.6250038227381
 30
0.0
 11
1882.5
 21
-365.6250038227381
 31
0.0
1001
ACAD
1000
DSTYLE
1002
{
1070
    70
1070
     0
1070
    69
1070
     0
1002
}
  0
LINE
  5
23F41
  8
1DIM
 10
1849.5
 20
-366.6250038227381
 30
0.0
 11
1880.5
 21
-366.6250038227381
 31
0.0
1001
ACAD
1000
DSTYLE
1002
{
1070
    70
1070
     0
1070
    69
1070
     0
1002
}
  0
LINE
  5
23F45
  8
1DIM
 10
2028.5084997214
 20
-375.0
 30
0.0
 11
2073.065640143618
 21
-375.0
 31
0.0
  0
LINE
  5
23F46
  8
1DIM
 10
2060.213005219216
 20
-395.0
 30
0.0
 11
2073.065640143618
 21
-395.0
 31
0.0
  0
LINE
  5
23F47
  8
1DIM
 10
2072.065640143618
 20
-377.0
 30
0.0
 11
2072.065640143618
 21
-393.0
 31
0.0
  0
LINE
  5
23F4B
  8
1DIM
 10
1829.999999999999
 20
-375.3000000000002
 30
0.0
 11
1829.999999999999
 21
-356.3000000000017
 31
0.0
  0
LINE
  5
23F4C
  8
1DIM
 10
1900.000000000001
 20
-375.3000000000002
 30
0.0
 11
1900.000000000001
 21
-356.3000000000017
 31
0.0
  0
LINE
  5
23F4D
  8
1DIM
 10
1831.999999999999
 20
-357.3000000000017
 30
0.0
 11
1898.000000000001
 21
-357.3000000000017
 31
0.0
  0
LINE
  5
23F51
  8
1DIM
 10
1899.700000000001
 20
-263.9510501586637
 30
0.0
 11
1915.950000000001
 21
-263.9510501586637
 31
0.0
  0
LINE
  5
23F52
  8
1DIM
 10
1886.0
 20
-313.9510365417473
 30
0.0
 11
1915.950000000001
 21
-313.9510365417473
 31
0.0
  0
LINE
  5
23F53
  8
1DIM
 10
1914.950000000001
 20
-265.9510501586637
 30
0.0
 11
1914.950000000001
 21
-311.9510365417473
 31
0.0
  0
LINE
  5
23F57
  8
1DIM
 10
1886.565878990623
 20
-316.7751187417237
 30
0.0
 11
1925.962295196025
 21
-321.934110004691
 31
0.0
  0
LINE
  5
23F58
  8
1DIM
 10
1843.434121009377
 20
-311.1269815756038
 30
0.0
 11
1841.451051676906
 21
-310.867297108196
 31
0.0
  0
LINE
  5
23F5A
  8
1DIM
 10
1845.417190341848
 20
-311.3866660430116
 30
0.0
 11
1884.582809658152
 21
-316.5154342743159
 31
0.0
  0
LINE
  5
23F5D
  8
1DIM
 10
1882.521689108238
 20
-319.0552553655759
 30
0.0
 11
1926.220025906213
 21
-331.7849229700973
 31
0.0
  0
LINE
  5
23F5E
  8
1DIM
 10
1847.478310891762
 20
-308.8468449517516
 30
0.0
 11
1845.55812578401
 21
-308.2874799975694
 31
0.0
  0
LINE
  5
23F60
  8
1DIM
 10
1849.398495999515
 20
-309.4062099059338
 30
0.0
 11
1880.601504000485
 21
-318.4958904113937
 31
0.0
  0
TEXT
  5
23F63
  8
1DIM
  6
CONTINUOUS
 10
1912.717503655476
 20
-343.0311507296806
 30
0.0000000000019322
 40
3.5
  1
材質：アルミ
  0
TEXT
  5
23F64
  8
1DIM
  6
CONTINUOUS
 10
1912.834170322143
 20
-348.8644840630139
 30
0.0000000000019322
 40
3.5
  1
仕上げ：各種仕上げ
  0
LINE
  5
23F66
  8
1DIM
 10
1895.424008989958
 20
-335.2668415565721
 30
0.0000000000019322
 11
1910.25083698881
 21
-349.5644840630139
 31
0.0000000000019322
1001
ACAD
1000
DSTYLE
1002
{
1070
    45
1040
0.5
1002
}
  0
LINE
  5
23F67
  8
1DIM
 10
1910.25083698881
 20
-349.5644840630139
 30
0.0000000000019322
 11
1949.934170322143
 21
-349.5644840630139
 31
0.0000000000019322
1001
ACAD
1000
DSTYLE
1002
{
1070
    45
1040
0.5
1002
}
  0
LINE
  5
23F68
  8
1DIM
 10
1842.405991764298
 20
-441.977399624881
 30
0.0
 11
1826.877441466103
 21
-433.913846315746
 31
0.0
  0
LINE
  5
23F69
  8
1DIM
 10
1870.805378400201
 20
-456.7244277561522
 30
0.0
 11
1872.580340064944
 21
-457.6461170143567
 31
0.0
  0
LINE
  5
23F6B
  8
1DIM
 10
1869.030416735457
 20
-455.8027384979478
 30
0.0
 11
1844.180953429042
 21
-442.8990888830854
 31
0.0
  0
LINE
  5
23F6E
  8
1DIM
 10
1925.520934223117
 20
-442.4338660837396
 30
0.0
 11
1909.15809869162
 21
-433.1351716590907
 31
0.0
  0
LINE
  5
23F6F
  8
1DIM
 10
1949.864676943215
 20
-456.2679612972936
 30
0.0
 11
1951.603515708937
 21
-457.2561109554046
 31
0.0
  0
LINE
  5
23F71
  8
1DIM
 10
1948.125838177494
 20
-455.2798116391826
 30
0.0
 11
1927.259772988839
 21
-443.4220157418507
 31
0.0
  0
TEXT
  5
23F74
  8
1DIM
  6
CONTINUOUS
 10
1813.661453056079
 20
-459.8075485285253
 30
0.0
 40
3.5
  1
材質：PP
  0
TEXT
  5
23F75
  8
1DIM
  6
CONTINUOUS
 10
1807.71145305608
 20
-465.6408818618586
 30
0.0
 40
3.5
  1
仕上げ：透明
  0
LINE
  5
23F77
  8
1DIM
 10
1841.047101936905
 20
-459.5181804317803
 30
0.0
 11
1834.794786389413
 21
-466.3408818618586
 31
0.0
1001
ACAD
1000
DSTYLE
1002
{
1070
    45
1040
0.5
1002
}
  0
LINE
  5
23F78
  8
1DIM
 10
1834.794786389413
 20
-466.3408818618586
 30
0.0
 11
1807.828119722746
 21
-466.3408818618586
 31
0.0
1001
ACAD
1000
DSTYLE
1002
{
1070
    45
1040
0.5
1002
}
  0
TEXT
  5
23F79
  8
1DIM
  6
CONTINUOUS
 10
1844.560037625915
 20
-477.8598209853361
 30
0.0
 40
3.5
  1
付属ワッシャー
  0
TEXT
  5
23F7A
  8
1DIM
  6
CONTINUOUS
 10
1924.560037625915
 20
-477.8598209853361
 30
0.0
 40
3.5
  1
付属ワッシャー
  0
TEXT
  5
23F7B
  8
1DIM
  6
CONTINUOUS
 10
1894.748573556996
 20
-459.8075485285253
 30
0.0
 40
3.5
  1
材質：PP
  0
TEXT
  5
23F7C
  8
1DIM
  6
CONTINUOUS
 10
1888.798573556997
 20
-465.6408818618586
 30
0.0
 40
3.5
  1
仕上げ：透明
  0
LINE
  5
23F7E
  8
1DIM
 10
1922.134222437822
 20
-459.5181804317803
 30
0.0
 11
1915.88190689033
 21
-466.3408818618586
 31
0.0
1001
ACAD
1000
DSTYLE
1002
{
1070
    45
1040
0.5
1002
}
  0
LINE
  5
23F7F
  8
1DIM
 10
1915.88190689033
 20
-466.3408818618586
 30
0.0
 11
1888.915240223663
 21
-466.3408818618586
 31
0.0
1001
ACAD
1000
DSTYLE
1002
{
1070
    45
1040
0.5
1002
}
  0
LINE
  5
23F80
  8
0
  6
BYBLOCK
 10
1968.0943981014
 20
-373.0
 30
0.0
 11
1967.5584997214
 21
-375.0
 31
0.0
  0
LINE
  5
23F81
  8
0
  6
BYBLOCK
 10
1967.5584997214
 20
-375.0
 30
0.0
 11
1967.0226013414
 21
-373.0
 31
0.0
  0
LINE
  5
23F82
  8
0
  6
BYBLOCK
 10
1967.5584997214
 20
-375.0
 30
0.0
 11
1967.5584997214
 21
-373.0
 31
0.0
  0
LINE
  5
23F83
  8
0
  6
BYBLOCK
 10
1967.0226013414
 20
-380.5
 30
0.0
 11
1967.5584997214
 21
-378.5
 31
0.0
  0
LINE
  5
23F84
  8
0
  6
BYBLOCK
 10
1967.5584997214
 20
-378.5
 30
0.0
 11
1968.0943981014
 21
-380.5
 31
0.0
  0
LINE
  5
23F85
  8
0
  6
BYBLOCK
 10
1967.5584997214
 20
-378.5
 30
0.0
 11
1967.5584997214
 21
-380.5
 31
0.0
  0
TEXT
  5
23F86
  8
1DIM
  6
CONTINUOUS
 10
1966.8584997214
 20
-390.3666666666668
 30
0.0
 40
3.5
  1
3.5
 50
90.0
  0
LINE
  5
23F87
  8
0
  6
BYBLOCK
 10
2020.808499721399
 20
-429.2782032351321
 30
0.0
 11
2022.808499721399
 21
-429.8141016151321
 31
0.0
  0
LINE
  5
23F88
  8
0
  6
BYBLOCK
 10
2022.808499721399
 20
-429.8141016151321
 30
0.0
 11
2020.808499721399
 21
-430.3499999951321
 31
0.0
  0
LINE
  5
23F89
  8
0
  6
BYBLOCK
 10
2022.808499721399
 20
-429.8141016151321
 30
0.0
 11
2020.808499721399
 21
-429.8141016151321
 31
0.0
  0
LINE
  5
23F8A
  8
0
  6
BYBLOCK
 10
2029.308499721399
 20
-430.3499999951321
 30
0.0
 11
2027.308499721399
 21
-429.8141016151321
 31
0.0
  0
LINE
  5
23F8B
  8
0
  6
BYBLOCK
 10
2027.308499721399
 20
-429.8141016151321
 30
0.0
 11
2029.308499721399
 21
-429.2782032351321
 31
0.0
  0
LINE
  5
23F8C
  8
0
  6
BYBLOCK
 10
2027.308499721399
 20
-429.8141016151321
 30
0.0
 11
2029.308499721399
 21
-429.8141016151321
 31
0.0
  0
TEXT
  5
23F8D
  8
1DIM
  6
CONTINUOUS
 10
2010.941833054732
 20
-429.1141016151321
 30
0.0
 40
3.5
  1
4.5
  0
LINE
  5
23F8E
  8
0
  6
BYBLOCK
 10
2083.93074333286
 20
-377.0
 30
0.0
 11
2084.46664171286
 21
-375.0
 31
0.0
  0
LINE
  5
23F8F
  8
0
  6
BYBLOCK
 10
2084.46664171286
 20
-375.0
 30
0.0
 11
2085.00254009286
 21
-377.0
 31
0.0
  0
LINE
  5
23F90
  8
0
  6
BYBLOCK
 10
2084.46664171286
 20
-375.0
 30
0.0
 11
2084.46664171286
 21
-377.0
 31
0.0
  0
LINE
  5
23F91
  8
0
  6
BYBLOCK
 10
2085.00254009286
 20
-413.0
 30
0.0
 11
2084.46664171286
 21
-415.0
 31
0.0
  0
LINE
  5
23F92
  8
0
  6
BYBLOCK
 10
2084.46664171286
 20
-415.0
 30
0.0
 11
2083.93074333286
 21
-413.0
 31
0.0
  0
LINE
  5
23F93
  8
0
  6
BYBLOCK
 10
2084.46664171286
 20
-415.0
 30
0.0
 11
2084.46664171286
 21
-413.0
 31
0.0
  0
TEXT
  5
23F94
  8
1DIM
  6
CONTINUOUS
 10
2083.76664171286
 20
-398.1637909478509
 30
0.0
 40
3.5
  1
40
 50
90.0
  0
LINE
  5
23F95
  8
0
  6
BYBLOCK
 10
1949.308499721399
 20
-360.53589838
 30
0.0
 11
1947.308499721399
 21
-360.0
 31
0.0
  0
LINE
  5
23F96
  8
0
  6
BYBLOCK
 10
1947.308499721399
 20
-360.0
 30
0.0
 11
1949.308499721399
 21
-359.46410162
 31
0.0
  0
LINE
  5
23F97
  8
0
  6
BYBLOCK
 10
1947.308499721399
 20
-360.0
 30
0.0
 11
1949.308499721399
 21
-360.0
 31
0.0
  0
LINE
  5
23F98
  8
0
  6
BYBLOCK
 10
2025.308499721399
 20
-359.46410162
 30
0.0
 11
2027.308499721399
 21
-360.0
 31
0.0
  0
LINE
  5
23F99
  8
0
  6
BYBLOCK
 10
2027.308499721399
 20
-360.0
 30
0.0
 11
2025.308499721399
 21
-360.53589838
 31
0.0
  0
LINE
  5
23F9A
  8
0
  6
BYBLOCK
 10
2027.308499721399
 20
-360.0
 30
0.0
 11
2025.308499721399
 21
-360.0
 31
0.0
  0
TEXT
  5
23F9B
  8
1DIM
  6
CONTINUOUS
 10
1984.610583054732
 20
-359.3
 30
0.0
 40
3.5
  1
80
  0
LINE
  5
23F9C
  8
0
  6
BYBLOCK
 10
2031.684551669824
 20
-356.5202166041621
 30
0.0000000000019322
 11
2032.804502544384
 21
-358.2617380976439
 31
0.0000000000019322
  0
LINE
  5
23F9D
  8
0
  6
BYBLOCK
 10
2032.804502544384
 20
-358.2617380976439
 30
0.0000000000019322
 11
2030.963835893586
 21
-357.3135116719818
 31
0.0000000000019322
  0
LINE
  5
23F9E
  8
0
  6
BYBLOCK
 10
2032.804502544384
 20
-358.2617380976439
 30
0.0000000000019322
 11
2031.324193781705
 21
-356.9168641380719
 31
0.0000000000019322
  0
LINE
  5
23F9F
  8
0
  6
BYBLOCK
 10
2039.330152643245
 20
-355.5031357961741
 30
0.0000000000019322
 11
2040.145746234439
 21
-357.4062895387
 31
0.0000000000019322
  0
LINE
  5
23FA0
  8
0
  6
BYBLOCK
 10
2040.145746234439
 20
-357.4062895387
 30
0.0000000000019322
 11
2038.487844599665
 21
-356.1659068384408
 31
0.0000000000019322
  0
LINE
  5
23FA1
  8
0
  6
BYBLOCK
 10
2040.145746234439
 20
-357.4062895387
 30
0.0000000000019322
 11
2038.908998621455
 21
-355.8345213173075
 31
0.0000000000019322
  0
LINE
  5
23FA2
  8
0
  6
BYBLOCK
 10
1849.5
 20
-367.1609022027381
 30
0.0
 11
1847.5
 21
-366.6250038227381
 31
0.0
  0
LINE
  5
23FA3
  8
0
  6
BYBLOCK
 10
1847.5
 20
-366.6250038227381
 30
0.0
 11
1849.5
 21
-366.0891054427381
 31
0.0
  0
LINE
  5
23FA4
  8
0
  6
BYBLOCK
 10
1847.5
 20
-366.6250038227381
 30
0.0
 11
1849.5
 21
-366.6250038227381
 31
0.0
  0
LINE
  5
23FA5
  8
0
  6
BYBLOCK
 10
1880.5
 20
-366.0891054427381
 30
0.0
 11
1882.5
 21
-366.6250038227381
 31
0.0
  0
LINE
  5
23FA6
  8
0
  6
BYBLOCK
 10
1882.5
 20
-366.6250038227381
 30
0.0
 11
1880.5
 21
-367.1609022027381
 31
0.0
  0
LINE
  5
23FA7
  8
0
  6
BYBLOCK
 10
1882.5
 20
-366.6250038227381
 30
0.0
 11
1880.5
 21
-366.6250038227381
 31
0.0
  0
TEXT
  5
23FA8
  8
1DIM
  6
CONTINUOUS
 10
1860.333333333333
 20
-365.9250038227381
 30
0.0
 40
3.5
  1
P35
1001
ACAD
1000
DSTYLE
1002
{
1070
    70
1070
     0
1070
    69
1070
     0
1002
}
  0
LINE
  5
23FA9
  8
0
  6
BYBLOCK
 10
2071.529741763618
 20
-377.0
 30
0.0
 11
2072.065640143618
 21
-375.0
 31
0.0
  0
LINE
  5
23FAA
  8
0
  6
BYBLOCK
 10
2072.065640143618
 20
-375.0
 30
0.0
 11
2072.601538523618
 21
-377.0
 31
0.0
  0
LINE
  5
23FAB
  8
0
  6
BYBLOCK
 10
2072.065640143618
 20
-375.0
 30
0.0
 11
2072.065640143618
 21
-377.0
 31
0.0
  0
LINE
  5
23FAC
  8
0
  6
BYBLOCK
 10
2072.601538523618
 20
-393.0
 30
0.0
 11
2072.065640143618
 21
-395.0
 31
0.0
  0
LINE
  5
23FAD
  8
0
  6
BYBLOCK
 10
2072.065640143618
 20
-395.0
 30
0.0
 11
2071.529741763618
 21
-393.0
 31
0.0
  0
LINE
  5
23FAE
  8
0
  6
BYBLOCK
 10
2072.065640143618
 20
-395.0
 30
0.0
 11
2072.065640143618
 21
-393.0
 31
0.0
  0
TEXT
  5
23FAF
  8
1DIM
  6
CONTINUOUS
 10
2071.365640143618
 20
-387.6979185780356
 30
0.0
 40
3.5
  1
20
 50
90.0
  0
LINE
  5
23FB0
  8
0
  6
BYBLOCK
 10
1831.999999999999
 20
-357.8358983800017
 30
0.0
 11
1829.999999999999
 21
-357.3000000000017
 31
0.0
  0
LINE
  5
23FB1
  8
0
  6
BYBLOCK
 10
1829.999999999999
 20
-357.3000000000017
 30
0.0
 11
1831.999999999999
 21
-356.7641016200017
 31
0.0
  0
LINE
  5
23FB2
  8
0
  6
BYBLOCK
 10
1829.999999999999
 20
-357.3000000000017
 30
0.0
 11
1831.999999999999
 21
-357.3000000000017
 31
0.0
  0
LINE
  5
23FB3
  8
0
  6
BYBLOCK
 10
1898.000000000001
 20
-356.7641016200017
 30
0.0
 11
1900.000000000001
 21
-357.3000000000017
 31
0.0
  0
LINE
  5
23FB4
  8
0
  6
BYBLOCK
 10
1900.000000000001
 20
-357.3000000000017
 30
0.0
 11
1898.000000000001
 21
-357.8358983800017
 31
0.0
  0
LINE
  5
23FB5
  8
0
  6
BYBLOCK
 10
1900.000000000001
 20
-357.3000000000017
 30
0.0
 11
1898.000000000001
 21
-357.3000000000017
 31
0.0
  0
TEXT
  5
23FB6
  8
1DIM
  6
CONTINUOUS
 10
1862.302083333333
 20
-356.6000000000017
 30
0.0
 40
3.5
  1
70
  0
LINE
  5
23FB7
  8
0
  6
BYBLOCK
 10
1914.414101620001
 20
-265.9510501586637
 30
0.0
 11
1914.950000000001
 21
-263.9510501586637
 31
0.0
  0
LINE
  5
23FB8
  8
0
  6
BYBLOCK
 10
1914.950000000001
 20
-263.9510501586637
 30
0.0
 11
1915.485898380001
 21
-265.9510501586637
 31
0.0
  0
LINE
  5
23FB9
  8
0
  6
BYBLOCK
 10
1914.950000000001
 20
-263.9510501586637
 30
0.0
 11
1914.950000000001
 21
-265.9510501586637
 31
0.0
  0
LINE
  5
23FBA
  8
0
  6
BYBLOCK
 10
1915.485898380001
 20
-311.9510365417473
 30
0.0
 11
1914.950000000001
 21
-313.9510365417473
 31
0.0
  0
LINE
  5
23FBB
  8
0
  6
BYBLOCK
 10
1914.950000000001
 20
-313.9510365417473
 30
0.0
 11
1914.414101620001
 21
-311.9510365417473
 31
0.0
  0
LINE
  5
23FBC
  8
0
  6
BYBLOCK
 10
1914.950000000001
 20
-313.9510365417473
 30
0.0
 11
1914.950000000001
 21
-311.9510365417473
 31
0.0
  0
TEXT
  5
23FBD
  8
1DIM
  6
CONTINUOUS
 10
1914.250000000001
 20
-291.6611059861918
 30
0.0
 40
3.5
  1
50
 50
90.0
  0
TEXT
  5
23FBE
  8
1DIM
  6
CONTINUOUS
 10
1911.559449728111
 20
-319.3420698927665
 30
0.0
 40
3.5
  1
\U+220539.5
 50
352.5395242958765
  0
LINE
  5
23FBF
  8
0
  6
BYBLOCK
 10
1843.503703252075
 20
-310.5956197542543
 30
0.0
 11
1845.417190341848
 21
-311.3866660430116
 31
0.0
  0
LINE
  5
23FC0
  8
0
  6
BYBLOCK
 10
1845.417190341848
 20
-311.3866660430116
 30
0.0
 11
1843.36453876668
 21
-311.6583433969532
 31
0.0
  0
LINE
  5
23FC1
  8
0
  6
BYBLOCK
 10
1845.417190341848
 20
-311.3866660430116
 30
0.0
 11
1843.434121009377
 21
-311.1269815756038
 31
0.0
  0
LINE
  5
23FC2
  8
0
  6
BYBLOCK
 10
1886.496296747925
 20
-317.3064805630732
 30
0.0
 11
1884.582809658152
 21
-316.5154342743159
 31
0.0
  0
LINE
  5
23FC3
  8
0
  6
BYBLOCK
 10
1884.582809658152
 20
-316.5154342743159
 30
0.0
 11
1886.63546123332
 21
-316.2437569203743
 31
0.0
  0
LINE
  5
23FC4
  8
0
  6
BYBLOCK
 10
1884.582809658152
 20
-316.5154342743159
 30
0.0
 11
1886.565878990623
 21
-316.7751187417237
 31
0.0
  0
TEXT
  5
23FC5
  8
1DIM
  6
CONTINUOUS
 10
1912.382450811022
 20
-327.0248326422362
 30
0.0
 40
3.5
  1
\U+220532.5
 50
343.7587451307232
  0
LINE
  5
23FC6
  8
0
  6
BYBLOCK
 10
1847.62819227815
 20
-308.3323329074794
 30
0.0
 11
1849.398495999515
 21
-309.4062099059338
 31
0.0
  0
LINE
  5
23FC7
  8
0
  6
BYBLOCK
 10
1849.398495999515
 20
-309.4062099059338
 30
0.0
 11
1847.328429505375
 21
-309.3613569960239
 31
0.0
  0
LINE
  5
23FC8
  8
0
  6
BYBLOCK
 10
1849.398495999515
 20
-309.4062099059338
 30
0.0
 11
1847.478310891762
 21
-308.8468449517516
 31
0.0
  0
LINE
  5
23FC9
  8
0
  6
BYBLOCK
 10
1882.37180772185
 20
-319.5697674098481
 30
0.0
 11
1880.601504000485
 21
-318.4958904113937
 31
0.0
  0
LINE
  5
23FCA
  8
0
  6
BYBLOCK
 10
1880.601504000485
 20
-318.4958904113937
 30
0.0
 11
1882.671570494625
 21
-318.5407433213036
 31
0.0
  0
LINE
  5
23FCB
  8
0
  6
BYBLOCK
 10
1880.601504000485
 20
-318.4958904113937
 30
0.0
 11
1882.521689108238
 21
-319.0552553655759
 31
0.0
  0
LINE
  5
23FCC
  8
0
  6
BYBLOCK
 10
1895.052018223436
 20
-335.6526004752111
 30
0.0000000000019322
 11
1893.984337093062
 21
-333.8785531033722
 31
0.0000000000019322
  0
LINE
  5
23FCD
  8
0
  6
BYBLOCK
 10
1893.984337093062
 20
-333.8785531033722
 30
0.0000000000019322
 11
1895.795999756479
 21
-334.8810826379331
 31
0.0000000000019322
  0
LINE
  5
23FCE
  8
0
  6
BYBLOCK
 10
1893.984337093062
 20
-333.8785531033722
 30
0.0000000000019322
 11
1895.424008989958
 21
-335.2668415565721
 31
0.0000000000019322
  0
TEXT
  5
23FCF
  8
1DIM
  6
CONTINUOUS
 10
1827.599399081042
 20
-433.4999898161816
 30
0.0
 40
3.5
  1
\U+220528
 50
332.5583766856522
  0
LINE
  5
23FD0
  8
0
  6
BYBLOCK
 10
1870.558412510033
 20
-457.2000272965014
 30
0.0
 11
1869.030416735457
 21
-455.8027384979478
 31
0.0
  0
LINE
  5
23FD1
  8
0
  6
BYBLOCK
 10
1869.030416735457
 20
-455.8027384979478
 30
0.0
 11
1871.052344290368
 21
-456.2488282158031
 31
0.0
  0
LINE
  5
23FD2
  8
0
  6
BYBLOCK
 10
1869.030416735457
 20
-455.8027384979478
 30
0.0
 11
1870.805378400201
 21
-456.7244277561522
 31
0.0
  0
LINE
  5
23FD3
  8
0
  6
BYBLOCK
 10
1842.652957654465
 20
-441.5018000845318
 30
0.0
 11
1844.180953429042
 21
-442.8990888830854
 31
0.0
  0
LINE
  5
23FD4
  8
0
  6
BYBLOCK
 10
1844.180953429042
 20
-442.8990888830854
 30
0.0
 11
1842.15902587413
 21
-442.4529991652302
 31
0.0
  0
LINE
  5
23FD5
  8
0
  6
BYBLOCK
 10
1844.180953429042
 20
-442.8990888830854
 30
0.0
 11
1842.405991764298
 21
-441.977399624881
 31
0.0
  0
TEXT
  5
23FD6
  8
1DIM
  6
CONTINUOUS
 10
1909.967641409484
 20
-432.7900846665844
 30
0.0
 40
3.5
  1
\U+220524
 50
330.3912379944563
  0
LINE
  5
23FD7
  8
0
  6
BYBLOCK
 10
1949.599903042726
 20
-456.7338817361092
 30
0.0
 11
1948.125838177494
 21
-455.2798116391826
 31
0.0
  0
LINE
  5
23FD8
  8
0
  6
BYBLOCK
 10
1948.125838177494
 20
-455.2798116391826
 30
0.0
 11
1950.129450843705
 21
-455.8020408584779
 31
0.0
  0
LINE
  5
23FD9
  8
0
  6
BYBLOCK
 10
1948.125838177494
 20
-455.2798116391826
 30
0.0
 11
1949.864676943215
 21
-456.2679612972936
 31
0.0
  0
LINE
  5
23FDA
  8
0
  6
BYBLOCK
 10
1925.785708123607
 20
-441.967945644924
 30
0.0
 11
1927.259772988839
 21
-443.4220157418507
 31
0.0
  0
LINE
  5
23FDB
  8
0
  6
BYBLOCK
 10
1927.259772988839
 20
-443.4220157418507
 30
0.0
 11
1925.256160322628
 21
-442.8997865225553
 31
0.0
  0
LINE
  5
23FDC
  8
0
  6
BYBLOCK
 10
1927.259772988839
 20
-443.4220157418507
 30
0.0
 11
1925.520934223117
 21
-442.4338660837396
 31
0.0
  0
LINE
  5
23FDD
  8
0
  6
BYBLOCK
 10
1840.652009519345
 20
-459.1561182060881
 30
0.0
 11
1842.398336570949
 21
-458.0436754423825
 31
0.0
  0
LINE
  5
23FDE
  8
0
  6
BYBLOCK
 10
1842.398336570949
 20
-458.0436754423825
 30
0.0
 11
1841.442194354465
 21
-459.8802426574724
 31
0.0
  0
LINE
  5
23FDF
  8
0
  6
BYBLOCK
 10
1842.398336570949
 20
-458.0436754423825
 30
0.0
 11
1841.047101936905
 21
-459.5181804317803
 31
0.0
  0
LINE
  5
23FE0
  8
0
  6
BYBLOCK
 10
1921.739130020262
 20
-459.1561182060881
 30
0.0
 11
1923.485457071866
 21
-458.0436754423825
 31
0.0
  0
LINE
  5
23FE1
  8
0
  6
BYBLOCK
 10
1923.485457071866
 20
-458.0436754423825
 30
0.0
 11
1922.529314855382
 21
-459.8802426574724
 31
0.0
  0
LINE
  5
23FE2
  8
0
  6
BYBLOCK
 10
1923.485457071866
 20
-458.0436754423825
 30
0.0
 11
1922.134222437822
 21
-459.5181804317803
 31
0.0
  0
VIEWPORT
  5
57
 67
     1
  8
0
 10
0.0
 20
0.0
 30
0.0
 40
522.4048442906575
 41
297.0
 68
     1
 69
     1
1001
ACAD
1000
MVIEW
1002
{
1070
    16
1010
0.0
1020
0.0
1030
0.0
1010
0.0
1020
0.0
1030
1.0
1040
0.0
1040
297.0
1040
-4.171999999925333
1040
12.83903210976956
1040
50.0
1040
0.0
1040
0.0
1070
    16
1070
   100
1070
     0
1070
     1
1070
     0
1070
     0
1070
     0
1070
     0
1040
0.0
1040
0.0
1040
0.0
1040
10.0
1040
10.0
1040
10.0
1040
10.0
1070
     0
1002
{
1002
}
1002
}
  0
ENDSEC
  0
EOF
