  0
SECTION
  2
HEADER
  9
$ACADVER
  1
AC1012
  9
$DWGCODEPAGE
  3
ansi_932
  9
$INSBASE
 10
0.0
 20
0.0
 30
0.0
  9
$EXTMIN
 10
4747.710529275346
 20
447.6281876669309
 30
0.0
  9
$EXTMAX
 10
5066.138814657776
 20
687.6268693538277
 30
0.0000000001127424
  9
$LIMMIN
 10
0.0
 20
0.0
  9
$LIMMAX
 10
420.0
 20
297.0
  9
$ORTHOMODE
 70
     0
  9
$REGENMODE
 70
     1
  9
$FILLMODE
 70
     1
  9
$QTEXTMODE
 70
     0
  9
$MIRRTEXT
 70
     0
  9
$DRAGMODE
 70
     2
  9
$LTSCALE
 40
0.5
  9
$OSMODE
 70
 14463
  9
$ATTMODE
 70
     1
  9
$TEXTSIZE
 40
4.0
  9
$TRACEWID
 40
1.0
  9
$TEXTSTYLE
  7
STANDARD
  9
$CLAYER
  8
1TEXT
  9
$CELTYPE
  6
BYLAYER
  9
$CECOLOR
 62
   256
  9
$CELTSCALE
 40
1.0
  9
$DELOBJ
 70
     1
  9
$DISPSILH
 70
     0
  9
$DIMSCALE
 40
1.0
  9
$DIMASZ
 40
2.0
  9
$DIMEXO
 40
0.0
  9
$DIMDLI
 40
7.0
  9
$DIMRND
 40
0.0
  9
$DIMDLE
 40
0.0
  9
$DIMEXE
 40
1.0
  9
$DIMTP
 40
0.0
  9
$DIMTM
 40
0.0
  9
$DIMTXT
 40
3.5
  9
$DIMCEN
 40
0.0
  9
$DIMTSZ
 40
0.0
  9
$DIMTOL
 70
     0
  9
$DIMLIM
 70
     0
  9
$DIMTIH
 70
     0
  9
$DIMTOH
 70
     0
  9
$DIMSE1
 70
     0
  9
$DIMSE2
 70
     0
  9
$DIMTAD
 70
     1
  9
$DIMZIN
 70
     8
  9
$DIMBLK
  1

  9
$DIMASO
 70
     1
  9
$DIMSHO
 70
     1
  9
$DIMPOST
  1
 
  9
$DIMAPOST
  1

  9
$DIMALT
 70
     0
  9
$DIMALTD
 70
     2
  9
$DIMALTF
 40
25.4
  9
$DIMLFAC
 40
1.0
  9
$DIMTOFL
 70
     1
  9
$DIMTVP
 40
0.0
  9
$DIMTIX
 70
     0
  9
$DIMSOXD
 70
     0
  9
$DIMSAH
 70
     1
  9
$DIMBLK1
  1
OPEN30
  9
$DIMBLK2
  1
OPEN30
  9
$DIMSTYLE
  2
NEWX10
  9
$DIMCLRD
 70
   256
  9
$DIMCLRE
 70
   256
  9
$DIMCLRT
 70
   201
  9
$DIMTFAC
 40
0.7
  9
$DIMGAP
 40
0.7
  9
$DIMJUST
 70
     0
  9
$DIMSD1
 70
     0
  9
$DIMSD2
 70
     0
  9
$DIMTOLJ
 70
     1
  9
$DIMTZIN
 70
     8
  9
$DIMALTZ
 70
     0
  9
$DIMALTTZ
 70
     0
  9
$DIMFIT
 70
     2
  9
$DIMUPT
 70
     0
  9
$DIMUNIT
 70
     2
  9
$DIMDEC
 70
     2
  9
$DIMTDEC
 70
     4
  9
$DIMALTU
 70
     2
  9
$DIMALTTD
 70
     2
  9
$DIMTXSTY
  7
STANDARD
  9
$DIMAUNIT
 70
     0
  9
$LUNITS
 70
     2
  9
$LUPREC
 70
     4
  9
$SKETCHINC
 40
1.0
  9
$FILLETRAD
 40
0.0
  9
$AUNITS
 70
     0
  9
$AUPREC
 70
     2
  9
$MENU
  1
acad
  9
$ELEVATION
 40
0.0
  9
$PELEVATION
 40
0.0
  9
$THICKNESS
 40
0.0
  9
$LIMCHECK
 70
     0
  9
$CHAMFERA
 40
10.0
  9
$CHAMFERB
 40
10.0
  9
$CHAMFERC
 40
20.0
  9
$CHAMFERD
 40
0.0
  9
$SKPOLY
 70
     0
  9
$TDCREATE
 40
2451318.621352917
  9
$TDUPDATE
 40
2458157.537750694
  9
$TDINDWG
 40
1.4877424306
  9
$TDUSRTIMER
 40
1.4877424306
  9
$USRTIMER
 70
     1
  9
$ANGBASE
 50
0.0
  9
$ANGDIR
 70
     0
  9
$PDMODE
 70
     0
  9
$PDSIZE
 40
0.0
  9
$PLINEWID
 40
0.0
  9
$COORDS
 70
     2
  9
$SPLFRAME
 70
     0
  9
$SPLINETYPE
 70
     6
  9
$SPLINESEGS
 70
     8
  9
$ATTDIA
 70
     0
  9
$ATTREQ
 70
     1
  9
$HANDLING
 70
     1
  9
$HANDSEED
  5
E7C6
  9
$SURFTAB1
 70
     6
  9
$SURFTAB2
 70
     6
  9
$SURFTYPE
 70
     6
  9
$SURFU
 70
     6
  9
$SURFV
 70
     6
  9
$UCSNAME
  2

  9
$UCSORG
 10
0.0
 20
0.0
 30
0.0
  9
$UCSXDIR
 10
1.0
 20
0.0
 30
0.0
  9
$UCSYDIR
 10
0.0
 20
1.0
 30
0.0
  9
$PUCSNAME
  2

  9
$PUCSORG
 10
0.0
 20
0.0
 30
0.0
  9
$PUCSXDIR
 10
1.0
 20
0.0
 30
0.0
  9
$PUCSYDIR
 10
0.0
 20
1.0
 30
0.0
  9
$USERI1
 70
     0
  9
$USERI2
 70
     0
  9
$USERI3
 70
     0
  9
$USERI4
 70
     0
  9
$USERI5
 70
     0
  9
$USERR1
 40
0.0
  9
$USERR2
 40
0.0
  9
$USERR3
 40
0.0
  9
$USERR4
 40
0.0
  9
$USERR5
 40
0.0
  9
$WORLDVIEW
 70
     1
  9
$SHADEDGE
 70
     3
  9
$SHADEDIF
 70
    70
  9
$TILEMODE
 70
     1
  9
$MAXACTVP
 70
    48
  9
$PINSBASE
 10
0.0
 20
0.0
 30
0.0
  9
$PLIMCHECK
 70
     0
  9
$PEXTMIN
 10
1.000000000000000E+20
 20
1.000000000000000E+20
 30
1.000000000000000E+20
  9
$PEXTMAX
 10
-1.000000000000000E+20
 20
-1.000000000000000E+20
 30
-1.000000000000000E+20
  9
$PLIMMIN
 10
0.0
 20
0.0
  9
$PLIMMAX
 10
420.0
 20
297.0
  9
$UNITMODE
 70
     0
  9
$VISRETAIN
 70
     1
  9
$PLINEGEN
 70
     0
  9
$PSLTSCALE
 70
     1
  9
$TREEDEPTH
 70
  3020
  9
$PICKSTYLE
 70
     1
  9
$CMLSTYLE
  2
STANDARD
  9
$CMLJUST
 70
     0
  9
$CMLSCALE
 40
20.0
  9
$SAVEIMAGES
 70
     1
  0
ENDSEC
  0
SECTION
  2
CLASSES
  0
CLASS
  1
DICTIONARYVAR
  2
AcDbDictionaryVar
  3
ObjectDBX Classes
 90
        0
280
     0
281
     0
  0
CLASS
  1
IDBUFFER
  2
AcDbIdBuffer
  3
ObjectDBX Classes
 90
    32768
280
     0
281
     0
  0
CLASS
  1
LWPOLYLINE
  2
AcDbPolyline
  3
ObjectDBX Classes
 90
    32768
280
     0
281
     1
  0
CLASS
  1
ACDBDICTIONARYWDFLT
  2
AcDbDictionaryWithDefault
  3
ObjectDBX Classes
 90
    32768
280
     0
281
     0
  0
CLASS
  1
ACDBPLACEHOLDER
  2
AcDbPlaceHolder
  3
ObjectDBX Classes
 90
        0
280
     0
281
     0
  0
CLASS
  1
LAYOUT
  2
AcDbLayout
  3
ObjectDBX Classes
 90
        0
280
     0
281
     0
  0
CLASS
  1
TABLESTYLE
  2
AcDbTableStyle
  3
ObjectDBX Classes
 90
     4095
280
     0
281
     0
  0
CLASS
  1
SORTENTSTABLE
  2
AcDbSortentsTable
  3
ObjectDBX Classes
 90
    32768
280
     0
281
     0
  0
CLASS
  1
MATERIAL
  2
AcDbMaterial
  3
ObjectDBX Classes
 90
     1153
280
     0
281
     0
  0
CLASS
  1
VISUALSTYLE
  2
AcDbVisualStyle
  3
ObjectDBX Classes
 90
     4095
280
     0
281
     0
  0
CLASS
  1
SCALE
  2
AcDbScale
  3
ObjectDBX Classes
 90
     1153
280
     0
281
     0
  0
CLASS
  1
MLEADERSTYLE
  2
AcDbMLeaderStyle
  3
ACDB_MLEADERSTYLE_CLASS
 90
     4095
280
     0
281
     0
  0
CLASS
  1
CELLSTYLEMAP
  2
AcDbCellStyleMap
  3
ObjectDBX Classes
 90
     1152
280
     0
281
     0
  0
CLASS
  1
SUN
  2
AcDbSun
  3
SCENEOE
 90
     1153
280
     0
281
     0
  0
CLASS
  1
XRECORD
  2
AcDbXrecord
  3
ObjectDBX Classes
 90
    32768
280
     0
281
     0
  0
CLASS
  1
HATCH
  2
AcDbHatch
  3
ObjectDBX Classes
 90
    32768
280
     0
281
     1
  0
ENDSEC
  0
SECTION
  2
TABLES
  0
TABLE
  2
VPORT
  5
8
330
0
100
AcDbSymbolTable
 70
     1
  0
VPORT
  5
952D
330
8
100
AcDbSymbolTableRecord
100
AcDbViewportTableRecord
  2
*ACTIVE
 70
     0
 10
0.0
 20
0.0
 11
1.0
 21
1.0
 12
4906.924671966561
 22
567.6275285103793
 13
0.0
 23
0.0
 14
10.0
 24
10.0
 15
10.0
 25
10.0
 16
0.0
 26
0.0
 36
1.0
 17
0.0
 27
0.0
 37
0.0
 40
257.6827950743524
 41
1.871481028151775
 42
50.0
 43
0.0
 44
0.0
 50
0.0
 51
0.0
 71
    16
 72
   100
 73
     1
 74
     1
 75
     0
 76
     0
 77
     0
 78
     0
1001
ACAD_NAV_VCDISPLAY
1070
     3
  0
ENDTAB
  0
TABLE
  2
LTYPE
  5
5
330
0
100
AcDbSymbolTable
 70
     2
  0
LTYPE
  5
12
330
5
100
AcDbSymbolTableRecord
100
AcDbLinetypeTableRecord
  2
BYBLOCK
 70
     0
  3

 72
    65
 73
     0
 40
0.0
  0
LTYPE
  5
13
330
5
100
AcDbSymbolTableRecord
100
AcDbLinetypeTableRecord
  2
BYLAYER
 70
     0
  3

 72
    65
 73
     0
 40
0.0
  0
LTYPE
  5
14
330
5
100
AcDbSymbolTableRecord
100
AcDbLinetypeTableRecord
  2
CONTINUOUS
 70
     0
  3
Solid line
 72
    65
 73
     0
 40
0.0
  0
LTYPE
  5
9837
330
5
100
AcDbSymbolTableRecord
100
AcDbLinetypeTableRecord
  2
CENTER2
 70
     0
  3
Center (.5x) ___ _ ___ _ ___ _ ___ _ ___ _ ___
 72
    65
 73
     4
 40
28.575
 49
19.05
 74
     0
 49
-3.175
 74
     0
 49
3.175
 74
     0
 49
-3.175
 74
     0
  0
ENDTAB
  0
TABLE
  2
LAYER
  5
2
102
{ACAD_XDICTIONARY
360
96D9
102
}
330
0
100
AcDbSymbolTable
 70
     5
  0
LAYER
  5
E
102
{ACAD_XDICTIONARY
360
9593
102
}
330
2
100
AcDbSymbolTableRecord
100
AcDbLayerTableRecord
  2
0
 70
     0
 62
     7
  6
CONTINUOUS
  0
LAYER
  5
29
102
{ACAD_XDICTIONARY
360
9595
102
}
330
2
100
AcDbSymbolTableRecord
100
AcDbLayerTableRecord
  2
1CENTER
 70
     0
 62
     7
  6
CENTER2
  0
LAYER
  5
31
102
{ACAD_XDICTIONARY
360
9597
102
}
330
2
100
AcDbSymbolTableRecord
100
AcDbLayerTableRecord
  2
1TEXT
 70
     0
 62
     7
  6
CONTINUOUS
  0
LAYER
  5
243
102
{ACAD_XDICTIONARY
360
959D
102
}
330
2
100
AcDbSymbolTableRecord
100
AcDbLayerTableRecord
  2
01
 70
     0
 62
     1
  6
CONTINUOUS
  0
LAYER
  5
24E
102
{ACAD_XDICTIONARY
360
95A3
102
}
330
2
100
AcDbSymbolTableRecord
100
AcDbLayerTableRecord
  2
1DIM
 70
     0
 62
     7
  6
CONTINUOUS
  0
ENDTAB
  0
TABLE
  2
STYLE
  5
3
330
0
100
AcDbSymbolTable
 70
     1
  0
STYLE
  5
F
330
3
100
AcDbSymbolTableRecord
100
AcDbTextStyleTableRecord
  2
STANDARD
 70
     0
 40
0.0
 41
1.0
 50
0.0
 71
     0
 42
4.0
  3
txt.shx
  4
extfont.shx
  0
ENDTAB
  0
TABLE
  2
VIEW
  5
6
330
0
100
AcDbSymbolTable
 70
     0
  0
ENDTAB
  0
TABLE
  2
UCS
  5
7
330
0
100
AcDbSymbolTable
 70
     0
  0
ENDTAB
  0
TABLE
  2
APPID
  5
9
330
0
100
AcDbSymbolTable
 70
    14
  0
APPID
  5
10
330
9
100
AcDbSymbolTableRecord
100
AcDbRegAppTableRecord
  2
ACAD
 70
     0
  0
APPID
  5
21
330
9
100
AcDbSymbolTableRecord
100
AcDbRegAppTableRecord
  2
DRAWINGVARIABLESXDATA
 70
     0
  0
APPID
  5
64
330
9
100
AcDbSymbolTableRecord
100
AcDbRegAppTableRecord
  2
CONTENTTABDATA
 70
     0
  0
APPID
  5
65
330
9
100
AcDbSymbolTableRecord
100
AcDbRegAppTableRecord
  2
CONTENTCURRENTTAB
 70
     0
  0
APPID
  5
66
330
9
100
AcDbSymbolTableRecord
100
AcDbRegAppTableRecord
  2
CONTENTBLOCKDESCRIPTION
 70
     0
  0
APPID
  5
67
330
9
100
AcDbSymbolTableRecord
100
AcDbRegAppTableRecord
  2
CONTENTBLOCKICON
 70
     0
  0
APPID
  5
68
330
9
100
AcDbSymbolTableRecord
100
AcDbRegAppTableRecord
  2
CONTENTLONGBLOCKNAME
 70
     0
  0
APPID
  5
2AE
330
9
100
AcDbSymbolTableRecord
100
AcDbRegAppTableRecord
  2
ACAD_PSEXT
 70
     0
  0
APPID
  5
9585
330
9
100
AcDbSymbolTableRecord
100
AcDbRegAppTableRecord
  2
ACAD_MLEADERVER
 70
     0
  0
APPID
  5
A2E3
330
9
100
AcDbSymbolTableRecord
100
AcDbRegAppTableRecord
  2
ACADANNOTATIVE
 70
     0
  0
APPID
  5
A2E4
330
9
100
AcDbSymbolTableRecord
100
AcDbRegAppTableRecord
  2
ACDBBLOCKREPETAG
 70
     0
  0
APPID
  5
AEB1
330
9
100
AcDbSymbolTableRecord
100
AcDbRegAppTableRecord
  2
ACAD_NAV_VCDISPLAY
 70
     0
  0
APPID
  5
B6A4
330
9
100
AcDbSymbolTableRecord
100
AcDbRegAppTableRecord
  2
ACAECLAYERSTANDARD
 70
     0
  0
APPID
  5
E1EF
330
9
100
AcDbSymbolTableRecord
100
AcDbRegAppTableRecord
  2
ACAD_EXEMPT_FROM_CAD_STAND
 70
     0
  0
ENDTAB
  0
TABLE
  2
DIMSTYLE
  5
A
330
0
100
AcDbSymbolTable
 70
     1
  0
DIMSTYLE
105
48
330
A
100
AcDbSymbolTableRecord
100
AcDbDimStyleTableRecord
  2
NEWX10
 70
     0
  3
 
  4

  5

  6
OPEN30
  7
OPEN30
 40
1.0
 41
2.0
 42
0.0
 43
7.0
 44
1.0
 45
0.0
 46
0.0
 47
0.0
 48
0.0
140
3.5
141
0.0
142
0.0
143
25.4
144
1.0
145
0.0
146
0.7
147
0.7
 71
     0
 72
     0
 73
     0
 74
     0
 75
     0
 76
     0
 77
     1
 78
     8
170
     0
171
     2
172
     1
173
     1
174
     0
175
     0
176
   256
177
   256
178
   201
179
     2
270
     2
271
     2
272
     4
273
     2
274
     2
340
F
275
     0
280
     0
281
     0
282
     0
283
     1
284
     8
285
     0
286
     0
287
     2
288
     0
  0
ENDTAB
  0
TABLE
  2
BLOCK_RECORD
  5
1
330
0
100
AcDbSymbolTable
 70
     8
  0
BLOCK_RECORD
  5
18
102
{ACAD_XDICTIONARY
360
88F
102
}
330
1
100
AcDbSymbolTableRecord
100
AcDbBlockTableRecord
  2
*MODEL_SPACE
  0
BLOCK_RECORD
  5
15
330
1
100
AcDbSymbolTableRecord
100
AcDbBlockTableRecord
  2
*PAPER_SPACE
  0
BLOCK_RECORD
  5
42
330
1
100
AcDbSymbolTableRecord
100
AcDbBlockTableRecord
  2
_OPEN30
  0
BLOCK_RECORD
  5
A333
330
1
100
AcDbSymbolTableRecord
100
AcDbBlockTableRecord
  2
A3WAKUKAWAJUN2017_HYOUDAI_
  0
BLOCK_RECORD
  5
E626
330
1
100
AcDbSymbolTableRecord
100
AcDbBlockTableRecord
  2
*X19
  0
BLOCK_RECORD
  5
E674
330
1
100
AcDbSymbolTableRecord
100
AcDbBlockTableRecord
  2
*X20
  0
BLOCK_RECORD
  5
E6C6
330
1
100
AcDbSymbolTableRecord
100
AcDbBlockTableRecord
  2
*X21
  0
BLOCK_RECORD
  5
E717
330
1
100
AcDbSymbolTableRecord
100
AcDbBlockTableRecord
  2
*X22
  0
BLOCK_RECORD
  5
E754
330
1
100
AcDbSymbolTableRecord
100
AcDbBlockTableRecord
  2
*X23
  0
BLOCK_RECORD
  5
E794
330
1
100
AcDbSymbolTableRecord
100
AcDbBlockTableRecord
  2
*X24
  0
ENDTAB
  0
ENDSEC
  0
SECTION
  2
BLOCKS
  0
BLOCK
  5
19
330
18
100
AcDbEntity
  8
0
100
AcDbBlockBegin
  2
*MODEL_SPACE
 70
     0
 10
0.0
 20
0.0
 30
0.0
  3
*MODEL_SPACE
  1

  0
ENDBLK
  5
1A
330
18
100
AcDbEntity
  8
0
100
AcDbBlockEnd
  0
BLOCK
  5
16
330
15
100
AcDbEntity
 67
     1
  8
0
100
AcDbBlockBegin
  2
*PAPER_SPACE
 70
     0
 10
0.0
 20
0.0
 30
0.0
  3
*PAPER_SPACE
  1

  0
ENDBLK
  5
17
330
15
100
AcDbEntity
 67
     1
  8
0
100
AcDbBlockEnd
  0
BLOCK
  5
43
330
42
100
AcDbEntity
  8
0
100
AcDbBlockBegin
  2
_OPEN30
 70
     0
 10
0.0
 20
0.0
 30
0.0
  3
_OPEN30
  1

  0
LINE
  5
44
330
42
100
AcDbEntity
  8
0
  6
BYBLOCK
 62
     0
100
AcDbLine
 10
-1.0
 20
0.26794919
 30
0.0
 11
0.0
 21
0.0
 31
0.0
  0
LINE
  5
45
330
42
100
AcDbEntity
  8
0
  6
BYBLOCK
 62
     0
100
AcDbLine
 10
0.0
 20
0.0
 30
0.0
 11
-1.0
 21
-0.26794919
 31
0.0
  0
LINE
  5
46
330
42
100
AcDbEntity
  8
0
  6
BYBLOCK
 62
     0
100
AcDbLine
 10
0.0
 20
0.0
 30
0.0
 11
-1.0
 21
0.0
 31
0.0
  0
ENDBLK
  5
47
330
42
100
AcDbEntity
  8
0
100
AcDbBlockEnd
  0
BLOCK
  5
AA56
330
A333
100
AcDbEntity
  8
0
100
AcDbBlockBegin
  2
A3WAKUKAWAJUN2017_HYOUDAI_
 70
     0
 10
0.0
 20
0.0
 30
0.0
  3
A3WAKUKAWAJUN2017_HYOUDAI_
  1

  0
LINE
  5
A335
330
A333
100
AcDbEntity
  8
0
100
AcDbLine
 10
13.26299999998673
 20
-0.0001000000000317
 30
0.0
 11
9.236999999990758
 21
8.999899999990987
 31
0.0
1001
ACAD
1000
ASC_BOUNDS
1002
{
1070
    19
1005
A376
1002
}
  0
LINE
  5
A336
330
A333
100
AcDbEntity
  8
0
100
AcDbLine
 10
5.657999999994331
 20
0.9999999999989768
 30
0.0
 11
9.236999999990758
 21
8.999999999991019
 31
0.0
1001
ACAD
1000
ASC_BOUNDS
1002
{
1070
    19
1005
A376
1002
}
  0
LINE
  5
A337
330
A333
100
AcDbEntity
  8
0
100
AcDbLine
 10
18.59199999998134
 20
-0.2368999999997641
 30
0.0
 11
16.46099999998353
 21
5.432899999994561
 31
0.0
1001
ACAD
1000
ASC_BOUNDS
1002
{
1070
    19
1005
A377
1002
}
  0
LINE
  5
A338
330
A333
100
AcDbEntity
  8
0
100
AcDbLine
 10
18.59199999998134
 20
-0.2368999999997641
 30
0.0
 11
22.38199999997767
 21
8.763099999991255
 31
0.0
1001
ACAD
1000
ASC_BOUNDS
1002
{
1070
    19
1005
A377
1002
}
  0
LINE
  5
A339
330
A333
100
AcDbEntity
  8
0
100
AcDbLine
 10
14.32899999998563
 20
-0.2368999999997641
 30
0.0
 11
16.46099999998353
 21
5.432899999994561
 31
0.0
1001
ACAD
1000
ASC_BOUNDS
1002
{
1070
    19
1005
A377
1002
}
  0
LINE
  5
A33A
330
A333
100
AcDbEntity
  8
0
100
AcDbLine
 10
14.32899999998563
 20
-0.2368999999997641
 30
0.0
 11
10.53899999998941
 21
8.763099999991255
 31
0.0
1001
ACAD
1000
ASC_BOUNDS
1002
{
1070
    19
1005
A377
1002
}
  0
LINE
  5
A33B
330
A333
100
AcDbEntity
  8
0
100
AcDbLine
 10
19.53899999998043
 20
-0.0001000000000317
 30
0.0
 11
23.56599999997638
 21
8.999899999990987
 31
0.0
1001
ACAD
1000
ASC_BOUNDS
1002
{
1070
    19
1005
A378
1002
}
  0
LINE
  5
A33C
330
A333
100
AcDbEntity
  8
0
100
AcDbLine
 10
26.97358892824991
 20
1.383099999991202
 30
0.0
 11
23.56599999997638
 21
8.999899999990987
 31
0.0
1001
ACAD
1000
ASC_BOUNDS
1002
{
1070
    19
1005
A378
1002
}
  0
LINE
  5
A33D
330
A333
100
AcDbEntity
  8
0
100
AcDbLine
 10
5.657999999994331
 20
0.9999999999989768
 30
0.0
 11
3.181999999996833
 21
4.668599999995308
 31
0.0
1001
ACAD
1000
ASC_BOUNDS
1002
{
1070
    19
1005
A376
1002
}
  0
LINE
  5
A33E
330
A333
100
AcDbEntity
  8
0
100
AcDbLine
 10
4.617999999995391
 20
-0.0001000000000317
 30
0.0
 11
1.420999999998571
 21
4.736799999995242
 31
0.0
1001
ACAD
1000
ASC_BOUNDS
1002
{
1070
    19
1005
A376
1002
}
  0
LINE
  5
A33F
330
A333
100
AcDbEntity
  8
0
100
AcDbLine
 10
1.420999999998571
 20
8.763099999991255
 30
0.0
 11
1.420999999998571
 21
0.0
 31
0.0
1001
ACAD
1000
ASC_BOUNDS
1002
{
1070
    19
1005
A37B
1002
}
  0
LINE
  5
A340
330
A333
100
AcDbEntity
  8
0
100
AcDbLine
 10
0.0
 20
8.763099999991255
 30
0.0
 11
0.0
 21
0.0
 31
0.0
1001
ACAD
1000
ASC_BOUNDS
1002
{
1070
    19
1005
A37B
1002
}
  0
LINE
  5
A341
330
A333
100
AcDbEntity
  8
0
100
AcDbLine
 10
6.766999999993232
 20
-0.0001000000000317
 30
0.0
 11
7.826999999992154
 21
2.368399999997621
 31
0.0
1001
ACAD
1000
ASC_BOUNDS
1002
{
1070
    19
1005
A376
1002
}
  0
LINE
  5
A342
330
A333
100
AcDbEntity
  8
0
100
AcDbLine
 10
0.0
 20
0.0
 30
0.0
 11
1.420999999998571
 21
0.0
 31
0.0
1001
ACAD
1000
ASC_BOUNDS
1002
{
1070
    19
1005
A37B
1002
}
  0
LINE
  5
A343
330
A333
100
AcDbEntity
  8
0
100
AcDbLine
 10
4.617999999995391
 20
0.0
 30
0.0
 11
6.766999999993232
 21
0.0
 31
0.0
1001
ACAD
1000
ASC_BOUNDS
1002
{
1070
    19
1005
A376
1002
}
  0
LINE
  5
A344
330
A333
100
AcDbEntity
  8
0
100
AcDbLine
 10
11.70599999998831
 20
-0.0001000000000317
 30
0.0
 11
10.64699999998936
 21
2.368399999997621
 31
0.0
1001
ACAD
1000
ASC_BOUNDS
1002
{
1070
    19
1005
A376
1002
}
  0
LINE
  5
A345
330
A333
100
AcDbEntity
  8
0
100
AcDbLine
 10
7.826999999992154
 20
2.368399999997621
 30
0.0
 11
10.64699999998936
 21
2.368399999997621
 31
0.0
1001
ACAD
1000
ASC_BOUNDS
1002
{
1070
    19
1005
A376
1002
}
  0
LINE
  5
A346
330
A333
100
AcDbEntity
  8
0
100
AcDbLine
 10
11.70599999998831
 20
0.0
 30
0.0
 11
13.26299999998673
 21
0.0
 31
0.0
1001
ACAD
1000
ASC_BOUNDS
1002
{
1070
    19
1005
A376
1002
}
  0
LINE
  5
A347
330
A333
100
AcDbEntity
  8
0
100
AcDbLine
 10
22.15599999997789
 20
2.368399999997621
 30
0.0
 11
24.97599999997499
 21
2.368399999997621
 31
0.0
1001
ACAD
1000
ASC_BOUNDS
1002
{
1070
    19
1005
A378
1002
}
  0
LINE
  5
A348
330
A333
100
AcDbEntity
  8
0
100
AcDbLine
 10
19.53899999998043
 20
0.0
 30
0.0
 11
21.09599999997886
 21
0.0
 31
0.0
1001
ACAD
1000
ASC_BOUNDS
1002
{
1070
    19
1005
A378
1002
}
  0
LINE
  5
A349
330
A333
100
AcDbEntity
  8
0
100
AcDbLine
 10
21.09599999997886
 20
-0.0001000000000317
 30
0.0
 11
22.15599999997789
 21
2.368399999997621
 31
0.0
1001
ACAD
1000
ASC_BOUNDS
1002
{
1070
    19
1005
A378
1002
}
  0
LINE
  5
A34A
330
A333
100
AcDbEntity
  8
0
100
AcDbLine
 10
26.02015566812236
 20
0.0330999999912365
 30
0.0
 11
24.97599999997499
 21
2.368399999997621
 31
0.0
1001
ACAD
1000
ASC_BOUNDS
1002
{
1070
    19
1005
A378
1002
}
  0
LINE
  5
A34B
330
A333
100
AcDbEntity
  8
0
100
AcDbLine
 10
14.32399999998563
 20
3.315799999996671
 30
0.0
 11
16.46099999998353
 21
8.999899999990987
 31
0.0
1001
ACAD
1000
ASC_BOUNDS
1002
{
1070
    19
1005
A377
1002
}
  0
LINE
  5
A34C
330
A333
100
AcDbEntity
  8
0
100
AcDbLine
 10
6.432999999993513
 20
8.763099999991255
 30
0.0
 11
3.181999999996833
 21
4.668599999995308
 31
0.0
1001
ACAD
1000
ASC_BOUNDS
1002
{
1070
    19
1005
A376
1002
}
  0
LINE
  5
A34D
330
A333
100
AcDbEntity
  8
0
100
AcDbLine
 10
4.617999999995391
 20
8.763099999991255
 30
0.0
 11
1.420999999998571
 21
4.736799999995242
 31
0.0
1001
ACAD
1000
ASC_BOUNDS
1002
{
1070
    19
1005
A376
1002
}
  0
LINE
  5
A34E
330
A333
100
AcDbEntity
  8
0
100
AcDbLine
 10
0.0
 20
8.763099999991255
 30
0.0
 11
1.420999999998571
 21
8.763099999991255
 31
0.0
1001
ACAD
1000
ASC_BOUNDS
1002
{
1070
    19
1005
A37B
1002
}
  0
LINE
  5
A34F
330
A333
100
AcDbEntity
  8
0
100
AcDbLine
 10
4.617999999995391
 20
8.763099999991255
 30
0.0
 11
6.432999999993513
 21
8.763099999991255
 31
0.0
1001
ACAD
1000
ASC_BOUNDS
1002
{
1070
    19
1005
A376
1002
}
  0
LINE
  5
A350
330
A333
100
AcDbEntity
  8
0
100
AcDbLine
 10
14.32399999998563
 20
3.315799999996671
 30
0.0
 11
12.02999999998792
 21
8.763099999991255
 31
0.0
1001
ACAD
1000
ASC_BOUNDS
1002
{
1070
    19
1005
A377
1002
}
  0
LINE
  5
A351
330
A333
100
AcDbEntity
  8
0
100
AcDbLine
 10
10.06399999998996
 20
3.670999999996297
 30
0.0
 11
9.236999999990758
 21
5.5200999999945
 31
0.0
1001
ACAD
1000
ASC_BOUNDS
1002
{
1070
    19
1005
A376
1002
}
  0
LINE
  5
A352
330
A333
100
AcDbEntity
  8
0
100
AcDbLine
 10
8.409999999991555
 20
3.670999999996297
 30
0.0
 11
9.236999999990758
 21
5.5200999999945
 31
0.0
1001
ACAD
1000
ASC_BOUNDS
1002
{
1070
    19
1005
A376
1002
}
  0
LINE
  5
A353
330
A333
100
AcDbEntity
  8
0
100
AcDbLine
 10
8.409999999991555
 20
3.670999999996297
 30
0.0
 11
10.06399999998996
 21
3.670999999996297
 31
0.0
1001
ACAD
1000
ASC_BOUNDS
1002
{
1070
    19
1005
A376
1002
}
  0
LINE
  5
A354
330
A333
100
AcDbEntity
  8
0
100
AcDbLine
 10
10.53899999998941
 20
8.763099999991255
 30
0.0
 11
12.02999999998792
 21
8.763099999991255
 31
0.0
1001
ACAD
1000
ASC_BOUNDS
1002
{
1070
    19
1005
A377
1002
}
  0
LINE
  5
A355
330
A333
100
AcDbEntity
  8
0
100
AcDbLine
 10
22.7389999999773
 20
3.670999999996297
 30
0.0
 11
23.56599999997638
 21
5.5200999999945
 31
0.0
1001
ACAD
1000
ASC_BOUNDS
1002
{
1070
    19
1005
A378
1002
}
  0
LINE
  5
A356
330
A333
100
AcDbEntity
  8
0
100
AcDbLine
 10
22.7389999999773
 20
3.670999999996297
 30
0.0
 11
24.39299999997559
 21
3.670999999996297
 31
0.0
1001
ACAD
1000
ASC_BOUNDS
1002
{
1070
    19
1005
A378
1002
}
  0
LINE
  5
A357
330
A333
100
AcDbEntity
  8
0
100
AcDbLine
 10
18.59799999998143
 20
3.315799999996671
 30
0.0
 11
20.89099999997916
 21
8.763099999991255
 31
0.0
1001
ACAD
1000
ASC_BOUNDS
1002
{
1070
    19
1005
A377
1002
}
  0
LINE
  5
A358
330
A333
100
AcDbEntity
  8
0
100
AcDbLine
 10
18.59799999998143
 20
3.315799999996671
 30
0.0
 11
16.46099999998353
 21
8.999899999990987
 31
0.0
1001
ACAD
1000
ASC_BOUNDS
1002
{
1070
    19
1005
A377
1002
}
  0
LINE
  5
A359
330
A333
100
AcDbEntity
  8
0
100
AcDbLine
 10
20.89099999997916
 20
8.763099999991255
 30
0.0
 11
22.38199999997767
 21
8.763099999991255
 31
0.0
1001
ACAD
1000
ASC_BOUNDS
1002
{
1070
    19
1005
A377
1002
}
  0
LINE
  5
A35A
330
A333
100
AcDbEntity
  8
0
100
AcDbLine
 10
24.39299999997559
 20
3.670999999996297
 30
0.0
 11
23.56599999997638
 21
5.5200999999945
 31
0.0
1001
ACAD
1000
ASC_BOUNDS
1002
{
1070
    19
1005
A378
1002
}
  0
LINE
  5
A35B
330
A333
100
AcDbEntity
  8
0
100
AcDbLine
 10
44.99999999995498
 20
-0.2368999999997641
 30
0.0
 11
40.02599999995994
 21
5.341799999994635
 31
0.0
1001
ACAD
1000
ASC_BOUNDS
1002
{
1070
    19
1005
A37A
1002
}
  0
LINE
  5
A35C
330
A333
100
AcDbEntity
  8
0
100
AcDbLine
 10
40.02599999995994
 20
5.341799999994635
 30
0.0
 11
40.02599999995994
 21
0.0
 31
0.0
1001
ACAD
1000
ASC_BOUNDS
1002
{
1070
    19
1005
A37A
1002
}
  0
LINE
  5
A35D
330
A333
100
AcDbEntity
  8
0
100
AcDbLine
 10
38.60499999996136
 20
8.999999999991019
 30
0.0
 11
38.60499999996136
 21
0.0
 31
0.0
1001
ACAD
1000
ASC_BOUNDS
1002
{
1070
    19
1005
A37A
1002
}
  0
LINE
  5
A35E
330
A333
100
AcDbEntity
  8
0
100
AcDbLine
 10
44.99999999995498
 20
8.763099999991255
 30
0.0
 11
44.99999999995498
 21
-0.2368999999997641
 31
0.0
1001
ACAD
1000
ASC_BOUNDS
1002
{
1070
    19
1005
A37A
1002
}
  0
LINE
  5
A35F
330
A333
100
AcDbEntity
  8
0
100
AcDbLine
 10
38.60499999996136
 20
0.0
 30
0.0
 11
40.02599999995994
 21
0.0
 31
0.0
1001
ACAD
1000
ASC_BOUNDS
1002
{
1070
    19
1005
A37A
1002
}
  0
LINE
  5
A360
330
A333
100
AcDbEntity
  8
0
100
AcDbLine
 10
43.57899999995641
 20
3.421199999996588
 30
0.0
 11
38.60499999996136
 21
8.999899999990987
 31
0.0
1001
ACAD
1000
ASC_BOUNDS
1002
{
1070
    19
1005
A37A
1002
}
  0
LINE
  5
A361
330
A333
100
AcDbEntity
  8
0
100
AcDbLine
 10
43.57899999995641
 20
8.763099999991255
 30
0.0
 11
43.57899999995641
 21
3.421199999996588
 31
0.0
1001
ACAD
1000
ASC_BOUNDS
1002
{
1070
    19
1005
A37A
1002
}
  0
LINE
  5
A362
330
A333
100
AcDbEntity
  8
0
100
AcDbLine
 10
43.57899999995641
 20
8.763099999991255
 30
0.0
 11
44.99999999995498
 21
8.763099999991255
 31
0.0
1001
ACAD
1000
ASC_BOUNDS
1002
{
1070
    19
1005
A37A
1002
}
  0
LINE
  5
A363
330
A333
100
AcDbEntity
  8
0
100
AcDbLine
 10
37.67199999996831
 20
8.763099999991255
 30
0.0
 11
36.23199999996837
 21
8.763099999991255
 31
0.0
  0
LINE
  5
A364
330
A333
100
AcDbEntity
  8
0
100
AcDbLine
 10
31.64199999996833
 20
8.763099999991255
 30
0.0
 11
31.64199999996833
 21
2.481619422925121
 31
0.0
  0
LINE
  5
A365
330
A333
100
AcDbEntity
  8
0
100
AcDbLine
 10
37.67199999996831
 20
8.763099999991255
 30
0.0
 11
37.67199999996831
 21
2.481619422925121
 31
0.0
  0
LINE
  5
A366
330
A333
100
AcDbEntity
  8
0
100
AcDbLine
 10
36.23199999996837
 20
8.763099999991255
 30
0.0
 11
36.23199999996837
 21
2.481619422925064
 31
0.0
  0
LINE
  5
A367
330
A333
100
AcDbEntity
  8
0
100
AcDbLine
 10
33.08199999996839
 20
8.763099999991255
 30
0.0
 11
33.08199999996839
 21
2.481619422925121
 31
0.0
  0
ARC
  5
A368
330
A333
100
AcDbEntity
  8
0
100
AcDbCircle
 10
34.65699999996832
 20
3.183099999991214
 30
0.0
 40
3.420000000000007
100
AcDbArc
 50
240.0000000000255
 51
299.9999999999766
  0
ARC
  5
A369
330
A333
100
AcDbEntity
  8
0
100
AcDbCircle
 10
34.65699999996832
 20
3.183099999991214
 30
0.0
 40
1.97999999999999
100
AcDbArc
 50
240.000000000026
 51
299.9999999999703
  0
LINE
  5
A36A
330
A333
100
AcDbEntity
  8
0
100
AcDbLine
 10
33.08199999996828
 20
8.763099999991255
 30
0.0
 11
31.64199999996833
 21
8.763099999991255
 31
0.0
  0
ARC
  5
A36B
330
A333
100
AcDbEntity
  8
0
100
AcDbCircle
 10
35.06199999996829
 20
2.481619422925064
 30
0.0
 40
1.17
100
AcDbArc
 50
299.9999999999699
 51
0.0
  0
ARC
  5
A36C
330
A333
100
AcDbEntity
  8
0
100
AcDbCircle
 10
34.25199999996835
 20
2.481619422925121
 30
0.0
 40
1.17
100
AcDbArc
 50
180.0
 51
240.0000000000238
  0
ARC
  5
A36D
330
A333
100
AcDbEntity
  8
0
100
AcDbCircle
 10
35.06199999996841
 20
2.481619422925121
 30
0.0
 40
2.61
100
AcDbArc
 50
299.9999999999756
 51
0.0
  0
ARC
  5
A36E
330
A333
100
AcDbEntity
  8
0
100
AcDbCircle
 10
34.25199999996835
 20
2.481619422925121
 30
0.0
 40
2.61
100
AcDbArc
 50
180.0
 51
240.0000000000244
  0
LINE
  5
A36F
330
A333
100
AcDbEntity
  8
0
100
AcDbLine
 10
29.30199999996933
 20
8.763099999991255
 30
0.0
 11
30.74199999996927
 21
8.763099999991255
 31
0.0
1001
ACAD
1000
ASC_BOUNDS
1002
{
1070
    19
1005
A378
1002
}
  0
LINE
  5
A370
330
A333
100
AcDbEntity
  8
0
100
AcDbLine
 10
30.74199999996927
 20
8.763099999991255
 30
0.0
 11
30.74199999996927
 21
2.373099999991211
 31
0.0
1001
ACAD
1000
ASC_BOUNDS
1002
{
1070
    19
1005
A378
1002
}
  0
LINE
  5
A371
330
A333
100
AcDbEntity
  8
0
100
AcDbLine
 10
26.02015566812236
 20
0.0330999999912365
 30
0.0
 11
28.40199999996923
 21
0.0330999999912365
 31
0.0
1001
ACAD
1000
ASC_BOUNDS
1002
{
1070
    19
1005
A378
1002
}
  0
LINE
  5
A372
330
A333
100
AcDbEntity
  8
0
100
AcDbLine
 10
29.30199999996933
 20
8.763099999991255
 30
0.0
 11
29.30199999996933
 21
2.283099999991236
 31
0.0
1001
ACAD
1000
ASC_BOUNDS
1002
{
1070
    19
1005
A378
1002
}
  0
LINE
  5
A373
330
A333
100
AcDbEntity
  8
0
100
AcDbLine
 10
26.97358892824991
 20
1.383099999991202
 30
0.0
 11
28.40199999996923
 21
1.383099999991202
 31
0.0
1001
ACAD
1000
ASC_BOUNDS
1002
{
1070
    19
1005
A378
1002
}
  0
ARC
  5
A374
330
A333
100
AcDbEntity
  8
0
100
AcDbCircle
 10
28.40199999996923
 20
2.283099999991236
 30
0.0
 40
0.9
100
AcDbArc
 50
270.0
 51
0.0
1001
ACAD
1000
ASC_BOUNDS
1002
{
1070
    19
1005
A378
1002
}
  0
ARC
  5
A375
330
A333
100
AcDbEntity
  8
0
100
AcDbCircle
 10
28.40199999996923
 20
2.373099999991211
 30
0.0
 40
2.34
100
AcDbArc
 50
270.0
 51
0.0
1001
ACAD
1000
ASC_BOUNDS
1002
{
1070
    19
1005
A378
1002
}
  0
INSERT
  5
A376
330
A333
100
AcDbEntity
  8
0
100
AcDbBlockReference
  2
*X19
 10
0.0
 20
0.0
 30
0.0
1001
ACAD
1000
HATCH
1002
{
1070
    19
1000
ANSI37
1040
0.15
1040
0.0
1000
ASC_BOUNDS
1070
     2
1070
     2
1070
    12
1005
A335
1005
A336
1005
A33D
1005
A34C
1005
A34F
1005
A34D
1005
A33E
1005
A343
1005
A341
1005
A345
1005
A344
1005
A346
1070
     2
1070
     3
1005
A351
1005
A353
1005
A352
1000
ASC_SEEDPOINT
1011
3.614004224891801
1021
2.996669441146025
1031
0.0
1000
R14_HATCH_DATA
1000
A376
1011
1.0
1021
0.0
1031
0.0
1011
0.0
1021
1.0
1031
0.0
1011
0.0
1021
0.0
1031
1.0
1040
0.0
1010
0.0
1020
0.0
1030
1.0
1000
ANSI37
1070
     0
1070
     1
1071
        2
1071
        7
1070
     0
1070
     1
1071
       17
1040
13.26299999998673
1040
-0.0001000000000317
1040
9.236999999990758
1040
8.999899999990987
1040
9.236999999990758
1040
8.999999999991019
1040
5.657999999994331
1040
0.9999999999989768
1040
3.181999999996833
1040
4.668599999995308
1040
6.432999999993513
1040
8.763099999991255
1040
4.617999999995391
1040
8.763099999991255
1040
1.420999999998571
1040
4.736799999995242
1040
4.617999999995391
1040
-0.0001000000000317
1040
4.617999999995391
1040
0.0
1040
6.766999999993232
1040
0.0
1040
6.766999999993232
1040
-0.0001000000000317
1040
7.826999999992154
1040
2.368399999997621
1040
10.64699999998936
1040
2.368399999997621
1040
11.70599999998831
1040
-0.0001000000000317
1040
11.70599999998831
1040
0.0
1040
13.26299999998673
1040
0.0
1071
       12
1005
A335
1005
A336
1005
A33D
1005
A34C
1005
A34F
1005
A34D
1005
A33E
1005
A343
1005
A341
1005
A345
1005
A344
1005
A346
1071
       22
1070
     0
1070
     1
1071
        3
1040
9.236999999990758
1040
5.5200999999945
1040
10.06399999998996
1040
3.670999999996297
1040
8.409999999991555
1040
3.670999999996297
1071
        3
1005
A351
1005
A353
1005
A352
1070
     0
1070
     1
1040
0.0
1040
0.15
1070
     0
1070
     2
1040
0.7853981633974483
1040
49.29960901727088
1040
-10.17736998311392
1040
-0.3367596045400932
1040
0.3367596045400932
1070
     0
1040
2.356194490192345
1040
49.29960901727088
1040
-10.17736998311392
1040
-0.3367596045400932
1040
-0.3367596045400932
1070
     0
1040
0.0110235143455945
1071
        2
1040
3.614004224891801
1040
2.996669441146025
1040
0.0
1040
3.614004224891801
1040
2.996669441146025
1040
0.0
1002
}
  0
INSERT
  5
A377
330
A333
100
AcDbEntity
  8
0
100
AcDbBlockReference
  2
*X20
 10
0.0
 20
0.0
 30
0.0
1001
ACAD
1000
HATCH
1002
{
1070
    19
1000
ANSI37
1040
0.15
1040
0.0
1000
ASC_BOUNDS
1070
     1
1070
     2
1070
    10
1005
A337
1005
A338
1005
A359
1005
A357
1005
A358
1005
A34B
1005
A350
1005
A354
1005
A33A
1005
A339
1000
ASC_SEEDPOINT
1011
14.73245321214324
1021
2.798246178283421
1031
0.0
1000
R14_HATCH_DATA
1000
A377
1011
1.0
1021
0.0
1031
0.0
1011
0.0
1021
1.0
1031
0.0
1011
0.0
1021
0.0
1031
1.0
1040
0.0
1010
0.0
1020
0.0
1030
1.0
1000
ANSI37
1070
     0
1070
     1
1071
        1
1071
        7
1070
     0
1070
     1
1071
       10
1040
16.46099999998353
1040
5.432899999994561
1040
18.59199999998134
1040
-0.2368999999997641
1040
22.38199999997767
1040
8.763099999991255
1040
20.89099999997916
1040
8.763099999991255
1040
18.59799999998143
1040
3.315799999996671
1040
16.46099999998353
1040
8.999899999990987
1040
14.32399999998563
1040
3.315799999996671
1040
12.02999999998792
1040
8.763099999991255
1040
10.53899999998941
1040
8.763099999991255
1040
14.32899999998563
1040
-0.2368999999997641
1071
       10
1005
A337
1005
A338
1005
A359
1005
A357
1005
A358
1005
A34B
1005
A350
1005
A354
1005
A33A
1005
A339
1070
     0
1070
     1
1040
0.0
1040
0.15
1070
     0
1070
     2
1040
0.7853981633974483
1040
49.29960901727088
1040
-10.17736998311392
1040
-0.3367596045400932
1040
0.3367596045400932
1070
     0
1040
2.356194490192345
1040
49.29960901727088
1040
-10.17736998311392
1040
-0.3367596045400932
1040
-0.3367596045400932
1070
     0
1040
0.0110235143455945
1071
        1
1040
14.73245321214324
1040
2.798246178283421
1040
0.0
1002
}
  0
INSERT
  5
A378
330
A333
100
AcDbEntity
  8
0
100
AcDbBlockReference
  2
*X21
 10
0.0
 20
0.0
 30
0.0
1001
ACAD
1000
HATCH
1002
{
1070
    19
1000
ANSI37
1040
0.15
1040
0.0
1000
ASC_BOUNDS
1070
     2
1070
     2
1070
    13
1005
A33B
1005
A348
1005
A349
1005
A347
1005
A34A
1005
A371
1005
A375
1005
A370
1005
A36F
1005
A372
1005
A374
1005
A373
1005
A33C
1070
     2
1070
     3
1005
A355
1005
A35A
1005
A356
1000
ASC_SEEDPOINT
1011
21.97929957367762
1021
3.294304244259308
1031
0.0
1000
R14_HATCH_DATA
1000
A378
1011
1.0
1021
0.0
1031
0.0
1011
0.0
1021
1.0
1031
0.0
1011
0.0
1021
0.0
1031
1.0
1040
0.0
1010
0.0
1020
0.0
1030
1.0
1000
ANSI37
1070
     0
1070
     1
1071
        2
1071
        7
1070
     1
1070
     1
1071
       15
1040
23.56599999997638
1040
8.999899999990987
1040
0.0
1040
19.53899999998043
1040
-0.0001000000000317
1040
0.0
1040
19.53899999998043
1040
0.0
1040
0.0
1040
21.09599999997886
1040
0.0
1040
0.0
1040
21.09599999997886
1040
-0.0001000000000317
1040
0.0
1040
22.15599999997789
1040
2.368399999997621
1040
0.0
1040
24.97599999997499
1040
2.368399999997621
1040
0.0
1040
26.02015566812236
1040
0.0330999999912365
1040
0.0
1040
28.40199999996923
1040
0.0330999999912365
1040
0.414213562373095
1040
30.74199999996923
1040
2.373099999991211
1040
0.0
1040
30.74199999996927
1040
8.763099999991255
1040
0.0
1040
29.30199999996933
1040
8.763099999991255
1040
0.0
1040
29.30199999996933
1040
2.283099999991236
1040
-0.414213562373095
1040
28.40199999996923
1040
1.383099999991237
1040
0.0
1040
26.97358892824991
1040
1.383099999991202
1040
0.0
1071
       13
1005
A33B
1005
A348
1005
A349
1005
A347
1005
A34A
1005
A371
1005
A375
1005
A370
1005
A36F
1005
A372
1005
A374
1005
A373
1005
A33C
1071
       22
1070
     0
1070
     1
1071
        3
1040
22.7389999999773
1040
3.670999999996297
1040
23.56599999997638
1040
5.5200999999945
1040
24.39299999997559
1040
3.670999999996297
1071
        3
1005
A355
1005
A35A
1005
A356
1070
     0
1070
     1
1040
0.0
1040
0.15
1070
     0
1070
     2
1040
0.7853981633974483
1040
49.29960901727088
1040
-10.17736998311392
1040
-0.3367596045400932
1040
0.3367596045400932
1070
     0
1040
2.356194490192345
1040
49.29960901727088
1040
-10.17736998311392
1040
-0.3367596045400932
1040
-0.3367596045400932
1070
     0
1040
0.0110235143455945
1071
        2
1040
21.97929957367762
1040
3.294304244259308
1040
0.0
1040
21.97929957367762
1040
3.294304244259308
1040
0.0
1002
}
  0
INSERT
  5
A379
330
A333
100
AcDbEntity
  8
0
100
AcDbBlockReference
  2
*X22
 10
0.0
 20
0.0
 30
0.0
1001
ACAD
1000
HATCH
1002
{
1070
    19
1000
ANSI37
1040
0.15
1040
0.0
1000
R14_HATCH_DATA
1000
A379
1011
1.0
1021
0.0
1031
0.0
1011
0.0
1021
1.0
1031
0.0
1011
0.0
1021
0.0
1031
1.0
1040
0.0
1010
0.0
1020
0.0
1030
1.0
1000
ANSI37
1070
     0
1070
     1
1071
        1
1071
        7
1070
     1
1070
     1
1071
       12
1040
31.64199999996833
1040
2.481619422925121
1040
0.2679491924310942
1040
32.94699999997067
1040
0.2212931190493919
1040
0.2679491924301353
1040
36.36699999995983
1040
0.2212931190459813
1040
0.2679491924321411
1040
37.67199999996831
1040
2.481619422928361
1040
0.0
1040
37.67199999996831
1040
8.763099999991255
1040
0.0
1040
36.23199999996837
1040
8.763099999991255
1040
0.0
1040
36.23199999996837
1040
2.481619422925064
1040
-0.2679491924310291
1040
35.64699999996708
1040
1.468369700498386
1040
-0.267949192430519
1040
33.66699999997093
1040
1.468369700497703
1040
-0.267949192431809
1040
33.08199999996839
1040
2.481619422926997
1040
0.0
1040
33.08199999996839
1040
8.763099999991255
1040
0.0
1040
31.64199999996833
1040
8.763099999991255
1040
0.0
1071
        0
1070
     0
1070
     1
1040
0.0
1040
0.15
1070
     0
1070
     2
1040
0.7853981633974483
1040
49.29960901727088
1040
-10.17736998311392
1040
-0.3367596045400932
1040
0.3367596045400932
1070
     0
1040
2.356194490192345
1040
49.29960901727088
1040
-10.17736998311392
1040
-0.3367596045400932
1040
-0.3367596045400932
1070
     0
1040
0.0110235143455945
1071
        1
1040
32.30357378967278
1040
3.988785755459219
1040
0.0
1002
}
  0
INSERT
  5
A37A
330
A333
100
AcDbEntity
  8
0
100
AcDbBlockReference
  2
*X23
 10
0.0
 20
0.0
 30
0.0
1001
ACAD
1000
HATCH
1002
{
1070
    19
1000
ANSI37
1040
0.15
1040
0.0
1000
ASC_BOUNDS
1070
     1
1070
     2
1070
     8
1005
A35B
1005
A35E
1005
A362
1005
A361
1005
A360
1005
A35D
1005
A35F
1005
A35C
1000
ASC_SEEDPOINT
1011
39.74896370716704
1021
4.484843821435049
1031
0.0
1000
R14_HATCH_DATA
1000
A37A
1011
1.0
1021
0.0
1031
0.0
1011
0.0
1021
1.0
1031
0.0
1011
0.0
1021
0.0
1031
1.0
1040
0.0
1010
0.0
1020
0.0
1030
1.0
1000
ANSI37
1070
     0
1070
     1
1071
        1
1071
        7
1070
     0
1070
     1
1071
        9
1040
40.02599999995994
1040
5.341799999994635
1040
44.99999999995498
1040
-0.2368999999997641
1040
44.99999999995498
1040
8.763099999991255
1040
43.57899999995641
1040
8.763099999991255
1040
43.57899999995641
1040
3.421199999996588
1040
38.60499999996136
1040
8.999899999990987
1040
38.60499999996136
1040
8.999999999991019
1040
38.60499999996136
1040
0.0
1040
40.02599999995994
1040
0.0
1071
        8
1005
A35B
1005
A35E
1005
A362
1005
A361
1005
A360
1005
A35D
1005
A35F
1005
A35C
1070
     0
1070
     1
1040
0.0
1040
0.15
1070
     0
1070
     2
1040
0.7853981633974483
1040
49.29960901727088
1040
-10.17736998311392
1040
-0.3367596045400932
1040
0.3367596045400932
1070
     0
1040
2.356194490192345
1040
49.29960901727088
1040
-10.17736998311392
1040
-0.3367596045400932
1040
-0.3367596045400932
1070
     0
1040
0.0110235143455945
1071
        1
1040
39.74896370716704
1040
4.484843821435049
1040
0.0
1002
}
  0
INSERT
  5
A37B
330
A333
100
AcDbEntity
  8
0
100
AcDbBlockReference
  2
*X24
 10
0.0
 20
0.0
 30
0.0
1001
ACAD
1000
HATCH
1002
{
1070
    19
1000
ANSI37
1040
0.15
1040
0.0
1000
ASC_BOUNDS
1070
     1
1070
     2
1070
     4
1005
A33F
1005
A34E
1005
A340
1005
A342
1000
ASC_SEEDPOINT
1011
1.079051535452663
1021
4.148538732891836
1031
0.0
1000
R14_HATCH_DATA
1000
A37B
1011
1.0
1021
0.0
1031
0.0
1011
0.0
1021
1.0
1031
0.0
1011
0.0
1021
0.0
1031
1.0
1040
0.0
1010
0.0
1020
0.0
1030
1.0
1000
ANSI37
1070
     0
1070
     1
1071
        1
1071
        7
1070
     0
1070
     1
1071
        4
1040
1.420999999998571
1040
0.0
1040
1.420999999998571
1040
8.763099999991255
1040
0.0
1040
8.763099999991255
1040
0.0
1040
0.0
1071
        4
1005
A33F
1005
A34E
1005
A340
1005
A342
1070
     0
1070
     1
1040
0.0
1040
0.15
1070
     0
1070
     2
1040
0.7853981633974483
1040
49.29960901727088
1040
-10.17736998311392
1040
-0.3367596045400932
1040
0.3367596045400932
1070
     0
1040
2.356194490192345
1040
49.29960901727088
1040
-10.17736998311392
1040
-0.3367596045400932
1040
-0.3367596045400932
1070
     0
1040
0.0053004257112761
1071
        1
1040
1.079051535452663
1040
4.148538732891836
1040
0.0
1002
}
  0
ENDBLK
  5
AA57
330
A333
100
AcDbEntity
  8
0
100
AcDbBlockEnd
  0
BLOCK
  5
E7B4
330
E626
100
AcDbEntity
  8
0
100
AcDbBlockBegin
  2
*X19
 70
     1
 10
0.0
 20
0.0
 30
0.0
  3
*X19
  1

  0
LINE
  5
E627
330
E626
100
AcDbEntity
  8
0
  6
CONTINUOUS
100
AcDbLine
 10
3.418023043697893
 20
7.251849696850613
 30
0.0
 11
4.929273346838536
 21
8.763099999991255
 31
0.0
  0
LINE
  5
E628
330
E626
100
AcDbEntity
  8
0
  6
CONTINUOUS
100
AcDbLine
 10
1.483656411257782
 20
4.643963855330318
 30
0.0
 11
5.60279255591872
 21
8.763099999991255
 31
0.0
  0
LINE
  5
E629
330
E626
100
AcDbEntity
  8
0
  6
CONTINUOUS
100
AcDbLine
 10
1.755053947328235
 20
4.241842182320584
 30
0.0
 11
6.276311764998907
 21
8.763099999991255
 31
0.0
  0
LINE
  5
E62A
330
E626
100
AcDbEntity
  8
0
  6
CONTINUOUS
100
AcDbLine
 10
2.026451483398688
 20
3.839720509310849
 30
0.0
 11
4.441040904851878
 21
6.254309930764039
 31
0.0
  0
LINE
  5
E62B
330
E626
100
AcDbEntity
  8
0
  6
CONTINUOUS
100
AcDbLine
 10
2.297849019469139
 20
3.437598836301114
 30
0.0
 11
3.321765168359338
 21
4.461514985191313
 31
0.0
  0
LINE
  5
E62C
330
E626
100
AcDbEntity
  8
0
  6
CONTINUOUS
100
AcDbLine
 10
2.569246555539591
 20
3.03547716329138
 30
0.0
 11
3.593163397972743
 21
4.059394005724531
 31
0.0
  0
LINE
  5
E62D
330
E626
100
AcDbEntity
  8
0
  6
CONTINUOUS
100
AcDbLine
 10
2.840644091610043
 20
2.633355490281646
 30
0.0
 11
3.864561627586149
 21
3.657273026257751
 31
0.0
  0
LINE
  5
E62E
330
E626
100
AcDbEntity
  8
0
  6
CONTINUOUS
100
AcDbLine
 10
3.112041627680496
 20
2.231233817271911
 30
0.0
 11
4.135959857199554
 21
3.25515204679097
 31
0.0
  0
LINE
  5
E62F
330
E626
100
AcDbEntity
  8
0
  6
CONTINUOUS
100
AcDbLine
 10
3.383439163750948
 20
1.829112144262177
 30
0.0
 11
4.40735808681296
 21
2.853031067324189
 31
0.0
  0
LINE
  5
E630
330
E626
100
AcDbEntity
  8
0
  6
CONTINUOUS
100
AcDbLine
 10
3.654836699821399
 20
1.426990471252442
 30
0.0
 11
4.678756316426365
 21
2.450910087857407
 31
0.0
  0
LINE
  5
E631
330
E626
100
AcDbEntity
  8
0
  6
CONTINUOUS
100
AcDbLine
 10
3.926234235891853
 20
1.024868798242709
 30
0.0
 11
4.95015454603977
 21
2.048789108390626
 31
0.0
  0
LINE
  5
E632
330
E626
100
AcDbEntity
  8
0
  6
CONTINUOUS
100
AcDbLine
 10
4.197631771962304
 20
0.6227471252329737
 30
0.0
 11
5.221552775653176
 21
1.646668128923846
 31
0.0
  0
LINE
  5
E633
330
E626
100
AcDbEntity
  8
0
  6
CONTINUOUS
100
AcDbLine
 10
8.715877546767851
 20
7.835069736359266
 30
0.0
 11
9.435953450375058
 21
8.555145639966472
 31
0.0
  0
LINE
  5
E634
330
E626
100
AcDbEntity
  8
0
  6
CONTINUOUS
100
AcDbLine
 10
8.170620868422267
 20
6.616293848933497
 30
0.0
 11
9.644120833743461
 21
8.08979381425469
 31
0.0
  0
LINE
  5
E635
330
E626
100
AcDbEntity
  8
0
  6
CONTINUOUS
100
AcDbLine
 10
7.625364190076684
 20
5.397517961507727
 30
0.0
 11
9.852288217111864
 21
7.624441988542907
 31
0.0
  0
LINE
  5
E636
330
E626
100
AcDbEntity
  8
0
  6
CONTINUOUS
100
AcDbLine
 10
7.080107511731101
 20
4.178742074081957
 30
0.0
 11
10.06045560048027
 21
7.159090162831124
 31
0.0
  0
LINE
  5
E637
330
E626
100
AcDbEntity
  8
0
  6
CONTINUOUS
100
AcDbLine
 10
6.534850833385518
 20
2.959966186656187
 30
0.0
 11
10.26862298384867
 21
6.693738337119342
 31
0.0
  0
LINE
  5
E638
330
E626
100
AcDbEntity
  8
0
  6
CONTINUOUS
100
AcDbLine
 10
4.469029308032756
 20
0.2206254522232385
 30
0.0
 11
5.492951005266582
 21
1.244547149457064
 31
0.0
  0
LINE
  5
E639
330
E626
100
AcDbEntity
  8
0
  6
CONTINUOUS
100
AcDbLine
 10
5.989594155039935
 20
1.741190299230417
 30
0.0
 11
8.806950407233131
 21
4.558546551423613
 31
0.0
  0
LINE
  5
E63A
330
E626
100
AcDbEntity
  8
0
  6
CONTINUOUS
100
AcDbLine
 10
9.401251593263643
 20
5.152847737454126
 30
0.0
 11
10.47679036721708
 21
6.228386511407559
 31
0.0
  0
LINE
  5
E63B
330
E626
100
AcDbEntity
  8
0
  6
CONTINUOUS
100
AcDbLine
 10
4.921837203428691
 20
-0.0000858614610131
 30
0.0
 11
8.592923064886001
 21
3.670999999996297
 31
0.0
  0
LINE
  5
E63C
330
E626
100
AcDbEntity
  8
0
  6
CONTINUOUS
100
AcDbLine
 10
9.609390446785305
 20
4.6874673818956
 30
0.0
 11
10.68495775058548
 21
5.763034685695775
 31
0.0
  0
LINE
  5
E63D
330
E626
100
AcDbEntity
  8
0
  6
CONTINUOUS
100
AcDbLine
 10
5.595387755019432
 20
-0.0000545189504582
 30
0.0
 11
7.716137258923768
 21
2.120694984953879
 31
0.0
  0
LINE
  5
E63E
330
E626
100
AcDbEntity
  8
0
  6
CONTINUOUS
100
AcDbLine
 10
6.268938306610172
 20
-0.000023176439905
 30
0.0
 11
7.170485805526503
 21
0.9015243224764267
 31
0.0
  0
LINE
  5
E63F
330
E626
100
AcDbEntity
  8
0
  6
CONTINUOUS
100
AcDbLine
 10
7.963842273967511
 20
2.368399999997621
 30
0.0
 11
9.266442273966188
 21
3.670999999996297
 31
0.0
  0
LINE
  5
E640
330
E626
100
AcDbEntity
  8
0
  6
CONTINUOUS
100
AcDbLine
 10
8.637361483047696
 20
2.368399999997621
 30
0.0
 11
9.939961483046375
 21
3.670999999996297
 31
0.0
  0
LINE
  5
E641
330
E626
100
AcDbEntity
  8
0
  6
CONTINUOUS
100
AcDbLine
 10
9.817529300306965
 20
4.222087026337075
 30
0.0
 11
10.89312513395388
 21
5.297682859983993
 31
0.0
  0
LINE
  5
E642
330
E626
100
AcDbEntity
  8
0
  6
CONTINUOUS
100
AcDbLine
 10
10.02566815382863
 20
3.756706670778549
 30
0.0
 11
11.10129251732229
 21
4.832331034272211
 31
0.0
  0
LINE
  5
E643
330
E626
100
AcDbEntity
  8
0
  6
CONTINUOUS
100
AcDbLine
 10
9.310880692127883
 20
2.368399999997621
 30
0.0
 11
11.30945990069069
 21
4.366979208560428
 31
0.0
  0
LINE
  5
E644
330
E626
100
AcDbEntity
  8
0
  6
CONTINUOUS
100
AcDbLine
 10
9.98439990120807
 20
2.36839999999762
 30
0.0
 11
11.5176272840591
 21
3.901627382848645
 31
0.0
  0
LINE
  5
E645
330
E626
100
AcDbEntity
  8
0
  6
CONTINUOUS
100
AcDbLine
 10
10.65037369446246
 20
2.36085458417182
 30
0.0
 11
11.7257946674275
 21
3.436275557136862
 31
0.0
  0
LINE
  5
E646
330
E626
100
AcDbEntity
  8
0
  6
CONTINUOUS
100
AcDbLine
 10
10.85847197087848
 20
1.895433651507656
 30
0.0
 11
11.9339620507959
 21
2.97092373142508
 31
0.0
  0
LINE
  5
E647
330
E626
100
AcDbEntity
  8
0
  6
CONTINUOUS
100
AcDbLine
 10
11.0665702472945
 20
1.430012718843491
 30
0.0
 11
12.14212943416431
 21
2.505571905713296
 31
0.0
  0
LINE
  5
E648
330
E626
100
AcDbEntity
  8
0
  6
CONTINUOUS
100
AcDbLine
 10
11.27466852371052
 20
0.9645917861793256
 30
0.0
 11
12.35029681753271
 21
2.040220080001513
 31
0.0
  0
LINE
  5
E649
330
E626
100
AcDbEntity
  8
0
  6
CONTINUOUS
100
AcDbLine
 10
11.48276680012654
 20
0.4991708535151611
 30
0.0
 11
12.55846420090111
 21
1.57486825428973
 31
0.0
  0
LINE
  5
E64A
330
E626
100
AcDbEntity
  8
0
  6
CONTINUOUS
100
AcDbLine
 10
11.69086507654257
 20
0.0337499208509957
 30
0.0
 11
12.76663158426952
 21
1.109516428577947
 31
0.0
  0
LINE
  5
E64B
330
E626
100
AcDbEntity
  8
0
  6
CONTINUOUS
100
AcDbLine
 10
12.33057447873954
 20
-0.0000598860322123
 30
0.0
 11
12.97479896763792
 21
0.6441646028661663
 31
0.0
  0
LINE
  5
E64C
330
E626
100
AcDbEntity
  8
0
  6
CONTINUOUS
100
AcDbLine
 10
13.00413694809395
 20
-0.0000166257579952
 30
0.0
 11
13.18296635100632
 21
0.1788127771543824
 31
0.0
  0
LINE
  5
E64D
330
E626
100
AcDbEntity
  8
0
  6
CONTINUOUS
100
AcDbLine
 10
4.772852165289667
 20
-0.000092794222212
 30
0.0
 11
4.296495091028902
 21
0.4762642800385528
 31
0.0
  0
LINE
  5
E64E
330
E626
100
AcDbEntity
  8
0
  6
CONTINUOUS
100
AcDbLine
 10
5.446340034776103
 20
-0.0000614546284616
 30
0.0
 11
2.898195908335625
 21
2.548082671812017
 31
0.0
  0
LINE
  5
E64F
330
E626
100
AcDbEntity
  8
0
  6
CONTINUOUS
100
AcDbLine
 10
6.119827904262539
 20
-0.0000301150347113
 30
0.0
 11
1.499896725642348
 21
4.61990106358548
 31
0.0
  0
LINE
  5
E650
330
E626
100
AcDbEntity
  8
0
  6
CONTINUOUS
100
AcDbLine
 10
6.775136745476159
 20
0.0181802528318542
 30
0.0
 11
5.699826040202669
 21
1.093490958105344
 31
0.0
  0
LINE
  5
E651
330
E626
100
AcDbEntity
  8
0
  6
CONTINUOUS
100
AcDbLine
 10
6.983376846288489
 20
0.4834593610997118
 30
0.0
 11
5.908008617934405
 21
1.558827589453796
 31
0.0
  0
LINE
  5
E652
330
E626
100
AcDbEntity
  8
0
  6
CONTINUOUS
100
AcDbLine
 10
5.377063484962296
 20
1.416253513345719
 30
0.0
 11
1.702276957014131
 21
5.091040041293883
 31
0.0
  0
LINE
  5
E653
330
E626
100
AcDbEntity
  8
0
  6
CONTINUOUS
100
AcDbLine
 10
3.978745891735324
 20
3.488090315652877
 30
0.0
 11
2.000373521109399
 21
5.466462686278803
 31
0.0
  0
LINE
  5
E654
330
E626
100
AcDbEntity
  8
0
  6
CONTINUOUS
100
AcDbLine
 10
7.191616947100819
 20
0.948738469367568
 30
0.0
 11
6.11619119566614
 21
2.024164220802247
 31
0.0
  0
LINE
  5
E655
330
E626
100
AcDbEntity
  8
0
  6
CONTINUOUS
100
AcDbLine
 10
7.399857047913149
 20
1.414017577635424
 30
0.0
 11
6.324373773397875
 21
2.489500852150698
 31
0.0
  0
LINE
  5
E656
330
E626
100
AcDbEntity
  8
0
  6
CONTINUOUS
100
AcDbLine
 10
7.608097148725479
 20
1.879296685903281
 30
0.0
 11
6.53255635112961
 21
2.95483748349915
 31
0.0
  0
LINE
  5
E657
330
E626
100
AcDbEntity
  8
0
  6
CONTINUOUS
100
AcDbLine
 10
7.816337249537808
 20
2.344575794171138
 30
0.0
 11
6.740738928861345
 21
3.420174114847601
 31
0.0
  0
LINE
  5
E658
330
E626
100
AcDbEntity
  8
0
  6
CONTINUOUS
100
AcDbLine
 10
3.310241080789734
 20
4.830114335678653
 30
0.0
 11
2.298470085204666
 21
5.84188533126372
 31
0.0
  0
LINE
  5
E659
330
E626
100
AcDbEntity
  8
0
  6
CONTINUOUS
100
AcDbLine
 10
3.60832983563551
 20
5.205544789913063
 30
0.0
 11
2.596566649299935
 21
6.217307976248638
 31
0.0
  0
LINE
  5
E65A
330
E626
100
AcDbEntity
  8
0
  6
CONTINUOUS
100
AcDbLine
 10
3.906418590481286
 20
5.580975244147473
 30
0.0
 11
2.894663213395203
 21
6.592730621233557
 31
0.0
  0
LINE
  5
E65B
330
E626
100
AcDbEntity
  8
0
  6
CONTINUOUS
100
AcDbLine
 10
4.204507345327062
 20
5.956405698381884
 30
0.0
 11
3.192759777490472
 21
6.968153266218474
 31
0.0
  0
LINE
  5
E65C
330
E626
100
AcDbEntity
  8
0
  6
CONTINUOUS
100
AcDbLine
 10
8.466032252791512
 20
2.368399999997621
 30
0.0
 11
6.948921506593081
 21
3.885510746196053
 31
0.0
  0
LINE
  5
E65D
330
E626
100
AcDbEntity
  8
0
  6
CONTINUOUS
100
AcDbLine
 10
9.139551461871699
 20
2.36839999999762
 30
0.0
 11
7.157104084324816
 21
4.350847377544504
 31
0.0
  0
LINE
  5
E65E
330
E626
100
AcDbEntity
  8
0
  6
CONTINUOUS
100
AcDbLine
 10
4.502596100172839
 20
6.331836152616295
 30
0.0
 11
3.49085634158574
 21
7.343575911203393
 31
0.0
  0
LINE
  5
E65F
330
E626
100
AcDbEntity
  8
0
  6
CONTINUOUS
100
AcDbLine
 10
4.800684855018615
 20
6.707266606850705
 30
0.0
 11
3.788952905681008
 21
7.718998556188312
 31
0.0
  0
LINE
  5
E660
330
E626
100
AcDbEntity
  8
0
  6
CONTINUOUS
100
AcDbLine
 10
12.18154012887317
 20
-0.0000694579236642
 30
0.0
 11
11.32140332908496
 21
0.8600673418645499
 31
0.0
  0
LINE
  5
E661
330
E626
100
AcDbEntity
  8
0
  6
CONTINUOUS
100
AcDbLine
 10
12.85501608323566
 20
-0.0000262032059659
 30
0.0
 11
10.77672456435345
 21
2.078265315676246
 31
0.0
  0
LINE
  5
E662
330
E626
100
AcDbEntity
  8
0
  6
CONTINUOUS
100
AcDbLine
 10
9.813070670951886
 20
2.36839999999762
 30
0.0
 11
8.51047067095321
 21
3.670999999996297
 31
0.0
  0
LINE
  5
E663
330
E626
100
AcDbEntity
  8
0
  6
CONTINUOUS
100
AcDbLine
 10
10.48658988003207
 20
2.36839999999762
 30
0.0
 11
9.183989880033396
 21
3.670999999996297
 31
0.0
  0
LINE
  5
E664
330
E626
100
AcDbEntity
  8
0
  6
CONTINUOUS
100
AcDbLine
 10
8.441048632286794
 20
3.740422038662712
 30
0.0
 11
7.365286662056551
 21
4.816184008892956
 31
0.0
  0
LINE
  5
E665
330
E626
100
AcDbEntity
  8
0
  6
CONTINUOUS
100
AcDbLine
 10
8.649187485808454
 20
4.205802394221237
 30
0.0
 11
7.573469239788285
 21
5.281520640241407
 31
0.0
  0
LINE
  5
E666
330
E626
100
AcDbEntity
  8
0
  6
CONTINUOUS
100
AcDbLine
 10
5.098773609864391
 20
7.082697061085115
 30
0.0
 11
4.087049469776277
 21
8.09442120117323
 31
0.0
  0
LINE
  5
E667
330
E626
100
AcDbEntity
  8
0
  6
CONTINUOUS
100
AcDbLine
 10
5.396862364710167
 20
7.458127515319526
 30
0.0
 11
4.385146033871544
 21
8.469843846158149
 31
0.0
  0
LINE
  5
E668
330
E626
100
AcDbEntity
  8
0
  6
CONTINUOUS
100
AcDbLine
 10
13.04801363231285
 20
0.4804954567970334
 30
0.0
 11
9.85750908911358
 21
3.670999999996297
 31
0.0
  0
LINE
  5
E669
330
E626
100
AcDbEntity
  8
0
  6
CONTINUOUS
100
AcDbLine
 10
8.857326339330116
 20
4.671182749779763
 30
0.0
 11
7.781651817520021
 21
5.746857271589858
 31
0.0
  0
LINE
  5
E66A
330
E626
100
AcDbEntity
  8
0
  6
CONTINUOUS
100
AcDbLine
 10
5.694951119555943
 20
7.833557969553937
 30
0.0
 11
4.765409089118624
 21
8.763099999991255
 31
0.0
  0
LINE
  5
E66B
330
E626
100
AcDbEntity
  8
0
  6
CONTINUOUS
100
AcDbLine
 10
12.50286117236978
 20
1.699167125820288
 30
0.0
 11
9.68611877250287
 21
4.515909525687196
 31
0.0
  0
LINE
  5
E66C
330
E626
100
AcDbEntity
  8
0
  6
CONTINUOUS
100
AcDbLine
 10
9.065465192851777
 20
5.136563105338288
 30
0.0
 11
7.989834395251757
 21
6.21219390293831
 31
0.0
  0
LINE
  5
E66D
330
E626
100
AcDbEntity
  8
0
  6
CONTINUOUS
100
AcDbLine
 10
5.993039874401719
 20
8.208988423788346
 30
0.0
 11
5.43892829819881
 21
8.763099999991255
 31
0.0
  0
LINE
  5
E66E
330
E626
100
AcDbEntity
  8
0
  6
CONTINUOUS
100
AcDbLine
 10
11.95770871242671
 20
2.917838794843543
 30
0.0
 11
8.19801697298349
 21
6.677530534286761
 31
0.0
  0
LINE
  5
E66F
330
E626
100
AcDbEntity
  8
0
  6
CONTINUOUS
100
AcDbLine
 10
6.291128629247495
 20
8.584418878022756
 30
0.0
 11
6.112447507278997
 21
8.763099999991255
 31
0.0
  0
LINE
  5
E670
330
E626
100
AcDbEntity
  8
0
  6
CONTINUOUS
100
AcDbLine
 10
11.41255625248364
 20
4.136510463866797
 30
0.0
 11
8.406199550715227
 21
7.142867165635211
 31
0.0
  0
LINE
  5
E671
330
E626
100
AcDbEntity
  8
0
  6
CONTINUOUS
100
AcDbLine
 10
10.86740379254057
 20
5.355182132890051
 30
0.0
 11
8.614382128446962
 21
7.608203796983664
 31
0.0
  0
LINE
  5
E672
330
E626
100
AcDbEntity
  8
0
  6
CONTINUOUS
100
AcDbLine
 10
10.3222513325975
 20
6.573853801913305
 30
0.0
 11
8.822564706178696
 21
8.073540428332114
 31
0.0
  0
LINE
  5
E673
330
E626
100
AcDbEntity
  8
0
  6
CONTINUOUS
100
AcDbLine
 10
9.777098872654436
 20
7.792525470936562
 30
0.0
 11
9.030747283910433
 21
8.538877059680566
 31
0.0
  0
ENDBLK
  5
E7B5
330
E626
100
AcDbEntity
  8
0
100
AcDbBlockEnd
  0
BLOCK
  5
E7B6
330
E674
100
AcDbEntity
  8
0
100
AcDbBlockBegin
  2
*X20
 70
     1
 10
0.0
 20
0.0
 30
0.0
  3
*X20
  1

  0
LINE
  5
E675
330
E674
100
AcDbEntity
  8
0
  6
CONTINUOUS
100
AcDbLine
 10
10.67292308101235
 20
8.445076852443387
 30
0.0
 11
10.99094622856022
 21
8.763099999991255
 31
0.0
  0
LINE
  5
E676
330
E674
100
AcDbEntity
  8
0
  6
CONTINUOUS
100
AcDbLine
 10
10.87250383178748
 20
7.971138394138331
 30
0.0
 11
11.6644654376404
 21
8.763099999991255
 31
0.0
  0
LINE
  5
E677
330
E674
100
AcDbEntity
  8
0
  6
CONTINUOUS
100
AcDbLine
 10
11.07208458256261
 20
7.497199935833273
 30
0.0
 11
12.12126590876355
 21
8.546381262034211
 31
0.0
  0
LINE
  5
E678
330
E674
100
AcDbEntity
  8
0
  6
CONTINUOUS
100
AcDbLine
 10
11.27166533333774
 20
7.023261477528216
 30
0.0
 11
12.32085164573666
 21
8.072447789927136
 31
0.0
  0
LINE
  5
E679
330
E674
100
AcDbEntity
  8
0
  6
CONTINUOUS
100
AcDbLine
 10
11.47124608411287
 20
6.549323019223158
 30
0.0
 11
12.52043738270977
 21
7.59851431782006
 31
0.0
  0
LINE
  5
E67A
330
E674
100
AcDbEntity
  8
0
  6
CONTINUOUS
100
AcDbLine
 10
11.670826834888
 20
6.075384560918101
 30
0.0
 11
12.72002311968288
 21
7.124580845712984
 31
0.0
  0
LINE
  5
E67B
330
E674
100
AcDbEntity
  8
0
  6
CONTINUOUS
100
AcDbLine
 10
11.87040758566313
 20
5.601446102613043
 30
0.0
 11
12.91960885665599
 21
6.650647373605907
 31
0.0
  0
LINE
  5
E67C
330
E674
100
AcDbEntity
  8
0
  6
CONTINUOUS
100
AcDbLine
 10
12.06998833643825
 20
5.127507644307986
 30
0.0
 11
13.1191945936291
 21
6.176713901498832
 31
0.0
  0
LINE
  5
E67D
330
E674
100
AcDbEntity
  8
0
  6
CONTINUOUS
100
AcDbLine
 10
12.26956908721338
 20
4.65356918600293
 30
0.0
 11
13.31878033060221
 21
5.702780429391757
 31
0.0
  0
LINE
  5
E67E
330
E674
100
AcDbEntity
  8
0
  6
CONTINUOUS
100
AcDbLine
 10
12.46914983798851
 20
4.179630727697873
 30
0.0
 11
13.51836606757532
 21
5.228846957284683
 31
0.0
  0
LINE
  5
E67F
330
E674
100
AcDbEntity
  8
0
  6
CONTINUOUS
100
AcDbLine
 10
12.66873058876364
 20
3.705692269392816
 30
0.0
 11
13.71795180454843
 21
4.754913485177607
 31
0.0
  0
LINE
  5
E680
330
E674
100
AcDbEntity
  8
0
  6
CONTINUOUS
100
AcDbLine
 10
12.86831133953877
 20
3.231753811087759
 30
0.0
 11
13.91753754152154
 21
4.280980013070531
 31
0.0
  0
LINE
  5
E681
330
E674
100
AcDbEntity
  8
0
  6
CONTINUOUS
100
AcDbLine
 10
13.0678920903139
 20
2.757815352782702
 30
0.0
 11
14.11712327849465
 21
3.807046540963456
 31
0.0
  0
LINE
  5
E682
330
E674
100
AcDbEntity
  8
0
  6
CONTINUOUS
100
AcDbLine
 10
13.26747284108903
 20
2.283876894477644
 30
0.0
 11
14.31670901546777
 21
3.333113068856379
 31
0.0
  0
LINE
  5
E683
330
E674
100
AcDbEntity
  8
0
  6
CONTINUOUS
100
AcDbLine
 10
16.36767838827179
 20
8.751678487061342
 30
0.0
 11
16.50332410898388
 21
8.887324207773432
 31
0.0
  0
LINE
  5
E684
330
E674
100
AcDbEntity
  8
0
  6
CONTINUOUS
100
AcDbLine
 10
15.96190732182191
 20
7.67238821153127
 30
0.0
 11
16.68735328004734
 21
8.397834169756699
 31
0.0
  0
LINE
  5
E685
330
E674
100
AcDbEntity
  8
0
  6
CONTINUOUS
100
AcDbLine
 10
15.55613625537202
 20
6.593097936001196
 30
0.0
 11
16.87138245111079
 21
7.908344131739965
 31
0.0
  0
LINE
  5
E686
330
E674
100
AcDbEntity
  8
0
  6
CONTINUOUS
100
AcDbLine
 10
15.15036518892213
 20
5.513807660471122
 30
0.0
 11
17.05541162217424
 21
7.418854093723231
 31
0.0
  0
LINE
  5
E687
330
E674
100
AcDbEntity
  8
0
  6
CONTINUOUS
100
AcDbLine
 10
14.74459412247225
 20
4.434517384941048
 30
0.0
 11
17.2394407932377
 21
6.929364055706499
 31
0.0
  0
LINE
  5
E688
330
E674
100
AcDbEntity
  8
0
  6
CONTINUOUS
100
AcDbLine
 10
14.33882305602236
 20
3.355227109410975
 30
0.0
 11
17.42346996430115
 21
6.439874017689766
 31
0.0
  0
LINE
  5
E689
330
E674
100
AcDbEntity
  8
0
  6
CONTINUOUS
100
AcDbLine
 10
13.46705359186416
 20
1.809938436172586
 30
0.0
 11
16.0819338255367
 21
4.424818669845129
 31
0.0
  0
LINE
  5
E68A
330
E674
100
AcDbEntity
  8
0
  6
CONTINUOUS
100
AcDbLine
 10
16.63283254238972
 20
4.975717386698149
 30
0.0
 11
17.60749913536461
 21
5.950383979673033
 31
0.0
  0
LINE
  5
E68B
330
E674
100
AcDbEntity
  8
0
  6
CONTINUOUS
100
AcDbLine
 10
13.66663434263929
 20
1.335999977867529
 30
0.0
 11
15.67604797733754
 21
3.345413612565779
 31
0.0
  0
LINE
  5
E68C
330
E674
100
AcDbEntity
  8
0
  6
CONTINUOUS
100
AcDbLine
 10
13.86621509341442
 20
0.8620615195624723
 30
0.0
 11
15.27016212913838
 21
2.26600855528643
 31
0.0
  0
LINE
  5
E68D
330
E674
100
AcDbEntity
  8
0
  6
CONTINUOUS
100
AcDbLine
 10
16.81682257348267
 20
4.486188208710908
 30
0.0
 11
17.79152830642806
 21
5.460893941656299
 31
0.0
  0
LINE
  5
E68E
330
E674
100
AcDbEntity
  8
0
  6
CONTINUOUS
100
AcDbLine
 10
17.00081260457561
 20
3.996659030723667
 30
0.0
 11
17.97555747749151
 21
4.971403903639565
 31
0.0
  0
LINE
  5
E68F
330
E674
100
AcDbEntity
  8
0
  6
CONTINUOUS
100
AcDbLine
 10
20.74362343514722
 20
8.412989070375462
 30
0.0
 11
21.09373436476302
 21
8.763099999991256
 31
0.0
  0
LINE
  5
E690
330
E674
100
AcDbEntity
  8
0
  6
CONTINUOUS
100
AcDbLine
 10
20.25401257174777
 20
7.249858997895826
 30
0.0
 11
21.7672535738432
 21
8.763099999991255
 31
0.0
  0
LINE
  5
E691
330
E674
100
AcDbEntity
  8
0
  6
CONTINUOUS
100
AcDbLine
 10
14.06579584418955
 20
0.3881230612574149
 30
0.0
 11
14.86427628093921
 21
1.186603498007082
 31
0.0
  0
LINE
  5
E692
330
E674
100
AcDbEntity
  8
0
  6
CONTINUOUS
100
AcDbLine
 10
14.26537659496467
 20
-0.0858153970476412
 30
0.0
 11
14.45839043274005
 21
0.1071984407277329
 31
0.0
  0
LINE
  5
E693
330
E674
100
AcDbEntity
  8
0
  6
CONTINUOUS
100
AcDbLine
 10
17.18480263566856
 20
3.507129852736426
 30
0.0
 11
18.15958664855496
 21
4.481913865622833
 31
0.0
  0
LINE
  5
E694
330
E674
100
AcDbEntity
  8
0
  6
CONTINUOUS
100
AcDbLine
 10
17.3687926667615
 20
3.017600674749186
 30
0.0
 11
18.34361581961842
 21
3.9924238276061
 31
0.0
  0
LINE
  5
E695
330
E674
100
AcDbEntity
  8
0
  6
CONTINUOUS
100
AcDbLine
 10
19.76440170834832
 20
6.086728925416191
 30
0.0
 11
22.33924590259489
 21
8.661573119662755
 31
0.0
  0
LINE
  5
E696
330
E674
100
AcDbEntity
  8
0
  6
CONTINUOUS
100
AcDbLine
 10
19.27479084494887
 20
4.923598852936555
 30
0.0
 11
21.84929622842713
 21
7.498104236414807
 31
0.0
  0
LINE
  5
E697
330
E674
100
AcDbEntity
  8
0
  6
CONTINUOUS
100
AcDbLine
 10
17.55278269785445
 20
2.528071496761945
 30
0.0
 11
18.52764499068187
 21
3.502933789589366
 31
0.0
  0
LINE
  5
E698
330
E674
100
AcDbEntity
  8
0
  6
CONTINUOUS
100
AcDbLine
 10
18.78517998154942
 20
3.760468780456919
 30
0.0
 11
21.35934655425936
 21
6.33463535316686
 31
0.0
  0
LINE
  5
E699
330
E674
100
AcDbEntity
  8
0
  6
CONTINUOUS
100
AcDbLine
 10
17.73677272894739
 20
2.038542318774704
 30
0.0
 11
20.8693968800916
 21
5.171166469918914
 31
0.0
  0
LINE
  5
E69A
330
E674
100
AcDbEntity
  8
0
  6
CONTINUOUS
100
AcDbLine
 10
17.92076276004034
 20
1.549013140787464
 30
0.0
 11
20.37944720592384
 21
4.007697586670968
 31
0.0
  0
LINE
  5
E69B
330
E674
100
AcDbEntity
  8
0
  6
CONTINUOUS
100
AcDbLine
 10
18.10475279113329
 20
1.059483962800223
 30
0.0
 11
19.88949753175608
 21
2.84422870342302
 31
0.0
  0
LINE
  5
E69C
330
E674
100
AcDbEntity
  8
0
  6
CONTINUOUS
100
AcDbLine
 10
18.28874282222623
 20
0.5699547848129822
 30
0.0
 11
19.39954785758832
 21
1.680759820175074
 31
0.0
  0
LINE
  5
E69D
330
E674
100
AcDbEntity
  8
0
  6
CONTINUOUS
100
AcDbLine
 10
18.47273285331918
 20
0.0804256068257416
 30
0.0
 11
18.90959818342056
 21
0.517290936927127
 31
0.0
  0
LINE
  5
E69E
330
E674
100
AcDbEntity
  8
0
  6
CONTINUOUS
100
AcDbLine
 10
14.3590401358224
 20
-0.1570118376323384
 30
0.0
 11
14.24903296539946
 21
-0.0470046672093929
 31
0.0
  0
LINE
  5
E69F
330
E674
100
AcDbEntity
  8
0
  6
CONTINUOUS
100
AcDbLine
 10
14.54309291258661
 20
0.332454594683643
 30
0.0
 11
13.75908329123172
 21
1.116464216038529
 31
0.0
  0
LINE
  5
E6A0
330
E674
100
AcDbEntity
  8
0
  6
CONTINUOUS
100
AcDbLine
 10
14.72714568935081
 20
0.8219210269996244
 30
0.0
 11
13.26913361706399
 21
2.27993309928645
 31
0.0
  0
LINE
  5
E6A1
330
E674
100
AcDbEntity
  8
0
  6
CONTINUOUS
100
AcDbLine
 10
14.91119846611502
 20
1.311387459315606
 30
0.0
 11
12.77918394289625
 21
3.443401982534371
 31
0.0
  0
LINE
  5
E6A2
330
E674
100
AcDbEntity
  8
0
  6
CONTINUOUS
100
AcDbLine
 10
15.09525124287922
 20
1.800853891631587
 30
0.0
 11
12.28923426872852
 21
4.606870865782293
 31
0.0
  0
LINE
  5
E6A3
330
E674
100
AcDbEntity
  8
0
  6
CONTINUOUS
100
AcDbLine
 10
15.27930401964343
 20
2.290320323947569
 30
0.0
 11
11.79928459456078
 21
5.770339749030213
 31
0.0
  0
LINE
  5
E6A4
330
E674
100
AcDbEntity
  8
0
  6
CONTINUOUS
100
AcDbLine
 10
15.46335679640763
 20
2.77978675626355
 30
0.0
 11
14.48885470994921
 21
3.754288842721972
 31
0.0
  0
LINE
  5
E6A5
330
E674
100
AcDbEntity
  8
0
  6
CONTINUOUS
100
AcDbLine
 10
13.88507249233704
 20
4.358071060334137
 30
0.0
 11
11.30933492039305
 21
6.933808632278135
 31
0.0
  0
LINE
  5
E6A6
330
E674
100
AcDbEntity
  8
0
  6
CONTINUOUS
100
AcDbLine
 10
18.75840522805855
 20
0.1582575336928151
 30
0.0
 11
18.25383727664818
 21
0.6628254851031863
 31
0.0
  0
LINE
  5
E6A7
330
E674
100
AcDbEntity
  8
0
  6
CONTINUOUS
100
AcDbLine
 10
15.64740957317184
 20
3.269253188579531
 30
0.0
 11
14.67288388101266
 21
4.243778880738705
 31
0.0
  0
LINE
  5
E6A8
330
E674
100
AcDbEntity
  8
0
  6
CONTINUOUS
100
AcDbLine
 10
13.39509276772158
 20
5.521569994029786
 30
0.0
 11
10.81938524622531
 21
8.097277515526056
 31
0.0
  0
LINE
  5
E6A9
330
E674
100
AcDbEntity
  8
0
  6
CONTINUOUS
100
AcDbLine
 10
18.95798597883369
 20
0.6321959919978686
 30
0.0
 11
17.84825644852853
 21
1.741925522303024
 31
0.0
  0
LINE
  5
E6AA
330
E674
100
AcDbEntity
  8
0
  6
CONTINUOUS
100
AcDbLine
 10
19.15756672960882
 20
1.106134450302922
 30
0.0
 11
17.44267562040888
 21
2.821025559502861
 31
0.0
  0
LINE
  5
E6AB
330
E674
100
AcDbEntity
  8
0
  6
CONTINUOUS
100
AcDbLine
 10
15.83146234993604
 20
3.758719620895513
 30
0.0
 11
14.85691305207612
 21
4.733268918755439
 31
0.0
  0
LINE
  5
E6AC
330
E674
100
AcDbEntity
  8
0
  6
CONTINUOUS
100
AcDbLine
 10
16.01551512670025
 20
4.248186053211494
 30
0.0
 11
15.04094222313957
 21
5.222758956772172
 31
0.0
  0
LINE
  5
E6AD
330
E674
100
AcDbEntity
  8
0
  6
CONTINUOUS
100
AcDbLine
 10
12.90511304310612
 20
6.685068927725435
 30
0.0
 11
10.8270819708403
 21
8.763099999991255
 31
0.0
  0
LINE
  5
E6AE
330
E674
100
AcDbEntity
  8
0
  6
CONTINUOUS
100
AcDbLine
 10
12.41513331849066
 20
7.848567861421083
 30
0.0
 11
11.50060117992049
 21
8.763099999991255
 31
0.0
  0
LINE
  5
E6AF
330
E674
100
AcDbEntity
  8
0
  6
CONTINUOUS
100
AcDbLine
 10
19.35714748038395
 20
1.580072908607975
 30
0.0
 11
17.03709479228923
 21
3.900125596702697
 31
0.0
  0
LINE
  5
E6B0
330
E674
100
AcDbEntity
  8
0
  6
CONTINUOUS
100
AcDbLine
 10
19.55672823115909
 20
2.054011366913028
 30
0.0
 11
16.63151396416958
 21
4.979225633902534
 31
0.0
  0
LINE
  5
E6B1
330
E674
100
AcDbEntity
  8
0
  6
CONTINUOUS
100
AcDbLine
 10
16.19956790346445
 20
4.737652485527476
 30
0.0
 11
15.22497139420302
 21
5.712248994788904
 31
0.0
  0
LINE
  5
E6B2
330
E674
100
AcDbEntity
  8
0
  6
CONTINUOUS
100
AcDbLine
 10
16.38362068022866
 20
5.227118917843457
 30
0.0
 11
15.40900056526648
 21
6.201739032805637
 31
0.0
  0
LINE
  5
E6B3
330
E674
100
AcDbEntity
  8
0
  6
CONTINUOUS
100
AcDbLine
 10
19.75630898193422
 20
2.527949825218081
 30
0.0
 11
18.70774536448286
 21
3.576513442669441
 31
0.0
  0
LINE
  5
E6B4
330
E674
100
AcDbEntity
  8
0
  6
CONTINUOUS
100
AcDbLine
 10
19.95588973270936
 20
3.001888283523134
 30
0.0
 11
18.90726987211446
 21
4.050508144118028
 31
0.0
  0
LINE
  5
E6B5
330
E674
100
AcDbEntity
  8
0
  6
CONTINUOUS
100
AcDbLine
 10
20.15547048348449
 20
3.475826741828186
 30
0.0
 11
19.10679437974606
 21
4.524502845566614
 31
0.0
  0
LINE
  5
E6B6
330
E674
100
AcDbEntity
  8
0
  6
CONTINUOUS
100
AcDbLine
 10
20.35505123425962
 20
3.94976520013324
 30
0.0
 11
19.30631888737766
 21
4.998497547015201
 31
0.0
  0
LINE
  5
E6B7
330
E674
100
AcDbEntity
  8
0
  6
CONTINUOUS
100
AcDbLine
 10
20.55463198503475
 20
4.423703658438292
 30
0.0
 11
19.50584339500926
 21
5.472492248463787
 31
0.0
  0
LINE
  5
E6B8
330
E674
100
AcDbEntity
  8
0
  6
CONTINUOUS
100
AcDbLine
 10
18.37481191085755
 20
3.909446896294752
 30
0.0
 11
15.59302973632993
 21
6.691229070822371
 31
0.0
  0
LINE
  5
E6B9
330
E674
100
AcDbEntity
  8
0
  6
CONTINUOUS
100
AcDbLine
 10
17.96904084440766
 20
4.988737171824825
 30
0.0
 11
15.77705890739338
 21
7.180719108839104
 31
0.0
  0
LINE
  5
E6BA
330
E674
100
AcDbEntity
  8
0
  6
CONTINUOUS
100
AcDbLine
 10
17.56326977795777
 20
6.068027447354899
 30
0.0
 11
15.96108807845684
 21
7.670209146855838
 31
0.0
  0
LINE
  5
E6BB
330
E674
100
AcDbEntity
  8
0
  6
CONTINUOUS
100
AcDbLine
 10
17.15749871150789
 20
7.147317722884972
 30
0.0
 11
16.14511724952029
 21
8.15969918487257
 31
0.0
  0
LINE
  5
E6BC
330
E674
100
AcDbEntity
  8
0
  6
CONTINUOUS
100
AcDbLine
 10
16.751727645058
 20
8.226607998415046
 30
0.0
 11
16.32914642058374
 21
8.649189222889303
 31
0.0
  0
LINE
  5
E6BD
330
E674
100
AcDbEntity
  8
0
  6
CONTINUOUS
100
AcDbLine
 10
20.75421273580989
 20
4.897642116743345
 30
0.0
 11
19.70536790264086
 21
5.946486949912374
 31
0.0
  0
LINE
  5
E6BE
330
E674
100
AcDbEntity
  8
0
  6
CONTINUOUS
100
AcDbLine
 10
20.95379348658502
 20
5.371580575048398
 30
0.0
 11
19.90489241027246
 21
6.42048165136096
 31
0.0
  0
LINE
  5
E6BF
330
E674
100
AcDbEntity
  8
0
  6
CONTINUOUS
100
AcDbLine
 10
21.15337423736015
 20
5.845519033353452
 30
0.0
 11
20.10441691790406
 21
6.894476352809547
 31
0.0
  0
LINE
  5
E6C0
330
E674
100
AcDbEntity
  8
0
  6
CONTINUOUS
100
AcDbLine
 10
21.35295498813529
 20
6.319457491658505
 30
0.0
 11
20.30394142553566
 21
7.368471054258134
 31
0.0
  0
LINE
  5
E6C1
330
E674
100
AcDbEntity
  8
0
  6
CONTINUOUS
100
AcDbLine
 10
21.55253573891042
 20
6.793395949963558
 30
0.0
 11
20.50346593316726
 21
7.842465755706721
 31
0.0
  0
LINE
  5
E6C2
330
E674
100
AcDbEntity
  8
0
  6
CONTINUOUS
100
AcDbLine
 10
21.75211648968556
 20
7.267334408268612
 30
0.0
 11
20.70299044079886
 21
8.316460457155308
 31
0.0
  0
LINE
  5
E6C3
330
E674
100
AcDbEntity
  8
0
  6
CONTINUOUS
100
AcDbLine
 10
21.95169724046069
 20
7.741272866573663
 30
0.0
 11
20.9298701070431
 21
8.763099999991256
 31
0.0
  0
LINE
  5
E6C4
330
E674
100
AcDbEntity
  8
0
  6
CONTINUOUS
100
AcDbLine
 10
22.15127799123582
 20
8.215211324878716
 30
0.0
 11
21.60338931612328
 21
8.763099999991256
 31
0.0
  0
LINE
  5
E6C5
330
E674
100
AcDbEntity
  8
0
  6
CONTINUOUS
100
AcDbLine
 10
22.35085874201096
 20
8.689149783183769
 30
0.0
 11
22.27690852520347
 21
8.763099999991255
 31
0.0
  0
ENDBLK
  5
E7B7
330
E674
100
AcDbEntity
  8
0
100
AcDbBlockEnd
  0
BLOCK
  5
E7B8
330
E6C6
100
AcDbEntity
  8
0
100
AcDbBlockBegin
  2
*X21
 70
     1
 10
0.0
 20
0.0
 30
0.0
  3
*X21
  1

  0
LINE
  5
E6C7
330
E6C6
100
AcDbEntity
  8
0
  6
CONTINUOUS
100
AcDbLine
 10
23.19462913593892
 20
8.169917934846424
 30
0.0
 11
23.70775465517246
 21
8.683043454079957
 31
0.0
  0
LINE
  5
E6C8
330
E6C6
100
AcDbEntity
  8
0
  6
CONTINUOUS
100
AcDbLine
 10
22.64923161835078
 20
6.951001208178088
 30
0.0
 11
23.9159364069932
 21
8.217705996820516
 31
0.0
  0
LINE
  5
E6C9
330
E6C6
100
AcDbEntity
  8
0
  6
CONTINUOUS
100
AcDbLine
 10
22.10383410076263
 20
5.732084481509751
 30
0.0
 11
24.12411815881395
 21
7.752368539561078
 31
0.0
  0
LINE
  5
E6CA
330
E6C6
100
AcDbEntity
  8
0
  6
CONTINUOUS
100
AcDbLine
 10
21.55843658317447
 20
4.513167754841414
 30
0.0
 11
24.3322999106347
 21
7.287031082301639
 31
0.0
  0
LINE
  5
E6CB
330
E6C6
100
AcDbEntity
  8
0
  6
CONTINUOUS
100
AcDbLine
 10
21.01303906558632
 20
3.294251028173077
 30
0.0
 11
24.54048166245544
 21
6.821693625042199
 31
0.0
  0
LINE
  5
E6CC
330
E6C6
100
AcDbEntity
  8
0
  6
CONTINUOUS
100
AcDbLine
 10
20.46764154799817
 20
2.075334301504738
 30
0.0
 11
23.28571549467848
 21
4.89340824818505
 31
0.0
  0
LINE
  5
E6CD
330
E6C6
100
AcDbEntity
  8
0
  6
CONTINUOUS
100
AcDbLine
 10
19.92224403041002
 20
0.8564175748364002
 30
0.0
 11
22.74075865492779
 21
3.674932199354171
 31
0.0
  0
LINE
  5
E6CE
330
E6C6
100
AcDbEntity
  8
0
  6
CONTINUOUS
100
AcDbLine
 10
23.67305085490148
 20
5.280743608408048
 30
0.0
 11
24.74866341427619
 21
6.356356167782759
 31
0.0
  0
LINE
  5
E6CF
330
E6C6
100
AcDbEntity
  8
0
  6
CONTINUOUS
100
AcDbLine
 10
23.88118970842314
 20
4.815363252849522
 30
0.0
 11
24.95684516609694
 21
5.89101871052332
 31
0.0
  0
LINE
  5
E6D0
330
E6C6
100
AcDbEntity
  8
0
  6
CONTINUOUS
100
AcDbLine
 10
19.73925852647308
 20
-0.0000871381807288
 30
0.0
 11
23.4103456646501
 21
3.670999999996297
 31
0.0
  0
LINE
  5
E6D1
330
E6C6
100
AcDbEntity
  8
0
  6
CONTINUOUS
100
AcDbLine
 10
24.0893285619448
 20
4.349982897290997
 30
0.0
 11
25.16502691791769
 21
5.42568125326388
 31
0.0
  0
LINE
  5
E6D2
330
E6C6
100
AcDbEntity
  8
0
  6
CONTINUOUS
100
AcDbLine
 10
20.41282099582748
 20
-0.0000438779065108
 30
0.0
 11
21.64944178675636
 21
1.236576913022366
 31
0.0
  0
LINE
  5
E6D3
330
E6C6
100
AcDbEntity
  8
0
  6
CONTINUOUS
100
AcDbLine
 10
22.78126487373161
 20
2.36839999999762
 30
0.0
 11
24.08386487373029
 21
3.670999999996297
 31
0.0
  0
LINE
  5
E6D4
330
E6C6
100
AcDbEntity
  8
0
  6
CONTINUOUS
100
AcDbLine
 10
24.29746741546646
 20
3.884602541732471
 30
0.0
 11
25.37320866973843
 21
4.960343796004441
 31
0.0
  0
LINE
  5
E6D5
330
E6C6
100
AcDbEntity
  8
0
  6
CONTINUOUS
100
AcDbLine
 10
21.08638346518189
 20
-0.0000006176322938
 30
0.0
 11
21.10379033335899
 21
0.0174062505448083
 31
0.0
  0
LINE
  5
E6D6
330
E6C6
100
AcDbEntity
  8
0
  6
CONTINUOUS
100
AcDbLine
 10
23.4547840828118
 20
2.36839999999762
 30
0.0
 11
25.58139042155918
 21
4.495006338745002
 31
0.0
  0
LINE
  5
E6D7
330
E6C6
100
AcDbEntity
  8
0
  6
CONTINUOUS
100
AcDbLine
 10
29.30199999996933
 20
8.215615917155148
 30
0.0
 11
29.84948408280543
 21
8.763099999991255
 31
0.0
  0
LINE
  5
E6D8
330
E6C6
100
AcDbEntity
  8
0
  6
CONTINUOUS
100
AcDbLine
 10
24.12830329189199
 20
2.36839999999762
 30
0.0
 11
25.78957217337993
 21
4.029668881485562
 31
0.0
  0
LINE
  5
E6D9
330
E6C6
100
AcDbEntity
  8
0
  6
CONTINUOUS
100
AcDbLine
 10
29.30199999996933
 20
7.54209670807496
 30
0.0
 11
30.52300329188562
 21
8.763099999991255
 31
0.0
  0
LINE
  5
E6DA
330
E6C6
100
AcDbEntity
  8
0
  6
CONTINUOUS
100
AcDbLine
 10
24.80182250097217
 20
2.36839999999762
 30
0.0
 11
25.99775392520067
 21
3.564331424226122
 31
0.0
  0
LINE
  5
E6DB
330
E6C6
100
AcDbEntity
  8
0
  6
CONTINUOUS
100
AcDbLine
 10
29.30199999996933
 20
6.868577498994774
 30
0.0
 11
30.74199999996926
 21
8.308577498994712
 31
0.0
  0
LINE
  5
E6DC
330
E6C6
100
AcDbEntity
  8
0
  6
CONTINUOUS
100
AcDbLine
 10
25.13028238392013
 20
2.023340673865392
 30
0.0
 11
26.20593567702142
 21
3.098993966966683
 31
0.0
  0
LINE
  5
E6DD
330
E6C6
100
AcDbEntity
  8
0
  6
CONTINUOUS
100
AcDbLine
 10
25.33838066033617
 20
1.557919741201244
 30
0.0
 11
26.41411742884217
 21
2.633656509707244
 31
0.0
  0
LINE
  5
E6DE
330
E6C6
100
AcDbEntity
  8
0
  6
CONTINUOUS
100
AcDbLine
 10
25.54647893675221
 20
1.092498808537098
 30
0.0
 11
26.62229918066291
 21
2.168319052447804
 31
0.0
  0
LINE
  5
E6DF
330
E6C6
100
AcDbEntity
  8
0
  6
CONTINUOUS
100
AcDbLine
 10
25.75457721316825
 20
0.62707787587295
 30
0.0
 11
26.83048093248366
 21
1.702981595188365
 31
0.0
  0
LINE
  5
E6E0
330
E6C6
100
AcDbEntity
  8
0
  6
CONTINUOUS
100
AcDbLine
 10
29.30199999996933
 20
6.195058289914587
 30
0.0
 11
30.74199999996926
 21
7.635058289914522
 31
0.0
  0
LINE
  5
E6E1
330
E6C6
100
AcDbEntity
  8
0
  6
CONTINUOUS
100
AcDbLine
 10
29.30199999996933
 20
5.521539080834401
 30
0.0
 11
30.74199999996926
 21
6.961539080834331
 31
0.0
  0
LINE
  5
E6E2
330
E6C6
100
AcDbEntity
  8
0
  6
CONTINUOUS
100
AcDbLine
 10
29.30199999996933
 20
4.848019871754214
 30
0.0
 11
30.74199999996925
 21
6.288019871754143
 31
0.0
  0
LINE
  5
E6E3
330
E6C6
100
AcDbEntity
  8
0
  6
CONTINUOUS
100
AcDbLine
 10
29.30199999996933
 20
4.174500662674028
 30
0.0
 11
30.74199999996925
 21
5.614500662673953
 31
0.0
  0
LINE
  5
E6E4
330
E6C6
100
AcDbEntity
  8
0
  6
CONTINUOUS
100
AcDbLine
 10
25.96267548958429
 20
0.1616569432088024
 30
0.0
 11
27.18411854636669
 21
1.383099999991207
 31
0.0
  0
LINE
  5
E6E5
330
E6C6
100
AcDbEntity
  8
0
  6
CONTINUOUS
100
AcDbLine
 10
29.30199999996933
 20
3.500981453593841
 30
0.0
 11
30.74199999996925
 21
4.940981453593762
 31
0.0
  0
LINE
  5
E6E6
330
E6C6
100
AcDbEntity
  8
0
  6
CONTINUOUS
100
AcDbLine
 10
26.50763775544691
 20
0.0330999999912356
 30
0.0
 11
27.85763775544689
 21
1.383099999991223
 31
0.0
  0
LINE
  5
E6E7
330
E6C6
100
AcDbEntity
  8
0
  6
CONTINUOUS
100
AcDbLine
 10
29.30199999996933
 20
2.827462244513656
 30
0.0
 11
30.74199999996925
 21
4.267462244513574
 31
0.0
  0
LINE
  5
E6E8
330
E6C6
100
AcDbEntity
  8
0
  6
CONTINUOUS
100
AcDbLine
 10
27.18115696452709
 20
0.0330999999912356
 30
0.0
 11
28.55073879889363
 21
1.402681834357775
 31
0.0
  0
LINE
  5
E6E9
330
E6C6
100
AcDbEntity
  8
0
  6
CONTINUOUS
100
AcDbLine
 10
29.28241816560272
 20
2.134361201066866
 30
0.0
 11
30.74199999996924
 21
3.593943035433383
 31
0.0
  0
LINE
  5
E6EA
330
E6C6
100
AcDbEntity
  8
0
  6
CONTINUOUS
100
AcDbLine
 10
27.85467617360728
 20
0.0330999999912356
 30
0.0
 11
30.74199999996924
 21
2.920423826353195
 31
0.0
  0
LINE
  5
E6EB
330
E6C6
100
AcDbEntity
  8
0
  6
CONTINUOUS
100
AcDbLine
 10
28.53897559587887
 20
0.0438802131826428
 30
0.0
 11
30.73121978677781
 21
2.236124404081585
 31
0.0
  0
LINE
  5
E6EC
330
E6C6
100
AcDbEntity
  8
0
  6
CONTINUOUS
100
AcDbLine
 10
29.45140055588722
 20
0.2827859641107988
 30
0.0
 11
30.49231403584965
 21
1.323699444073236
 31
0.0
  0
LINE
  5
E6ED
330
E6C6
100
AcDbEntity
  8
0
  6
CONTINUOUS
100
AcDbLine
 10
19.59027867740337
 20
-0.0000967065718083
 30
0.0
 11
19.55485265190471
 21
0.035329318926844
 31
0.0
  0
LINE
  5
E6EE
330
E6C6
100
AcDbEntity
  8
0
  6
CONTINUOUS
100
AcDbLine
 10
20.26375463176586
 20
-0.0000534518541091
 30
0.0
 11
19.76305575737534
 21
0.5006454225364014
 31
0.0
  0
LINE
  5
E6EF
330
E6C6
100
AcDbEntity
  8
0
  6
CONTINUOUS
100
AcDbLine
 10
20.93723058612834
 20
-0.0000101971364099
 30
0.0
 11
19.97125886284597
 21
0.965961526145958
 31
0.0
  0
LINE
  5
E6F0
330
E6C6
100
AcDbEntity
  8
0
  6
CONTINUOUS
100
AcDbLine
 10
21.25514828313686
 20
0.355591314935257
 30
0.0
 11
20.1794619683166
 21
1.431277629755512
 31
0.0
  0
LINE
  5
E6F1
330
E6C6
100
AcDbEntity
  8
0
  6
CONTINUOUS
100
AcDbLine
 10
21.46338838394921
 20
0.8208704232030986
 30
0.0
 11
20.38766507378723
 21
1.896593733365069
 31
0.0
  0
LINE
  5
E6F2
330
E6C6
100
AcDbEntity
  8
0
  6
CONTINUOUS
100
AcDbLine
 10
21.67162848476155
 20
1.28614953147094
 30
0.0
 11
20.59586817925786
 21
2.361909836974626
 31
0.0
  0
LINE
  5
E6F3
330
E6C6
100
AcDbEntity
  8
0
  6
CONTINUOUS
100
AcDbLine
 10
21.8798685855739
 20
1.751428639738782
 30
0.0
 11
20.80407128472849
 21
2.827225940584183
 31
0.0
  0
LINE
  5
E6F4
330
E6C6
100
AcDbEntity
  8
0
  6
CONTINUOUS
100
AcDbLine
 10
22.08810868638624
 20
2.216707748006623
 30
0.0
 11
21.01227439019912
 21
3.292542044193739
 31
0.0
  0
LINE
  5
E6F5
330
E6C6
100
AcDbEntity
  8
0
  6
CONTINUOUS
100
AcDbLine
 10
22.60993564347543
 20
2.36839999999762
 30
0.0
 11
21.22047749566975
 21
3.757858147803296
 31
0.0
  0
LINE
  5
E6F6
330
E6C6
100
AcDbEntity
  8
0
  6
CONTINUOUS
100
AcDbLine
 10
23.28345485255561
 20
2.36839999999762
 30
0.0
 11
21.42868060114038
 21
4.223174251412853
 31
0.0
  0
LINE
  5
E6F7
330
E6C6
100
AcDbEntity
  8
0
  6
CONTINUOUS
100
AcDbLine
 10
26.29227406164219
 20
0.0330999999912356
 30
0.0
 11
25.80009199592872
 21
0.5252820657046957
 31
0.0
  0
LINE
  5
E6F8
330
E6C6
100
AcDbEntity
  8
0
  6
CONTINUOUS
100
AcDbLine
 10
23.9569740616358
 20
2.36839999999762
 30
0.0
 11
21.63688370661101
 21
4.688490355022409
 31
0.0
  0
LINE
  5
E6F9
330
E6C6
100
AcDbEntity
  8
0
  6
CONTINUOUS
100
AcDbLine
 10
26.96579327072237
 20
0.0330999999912356
 30
0.0
 11
25.2554132311971
 21
1.743480039516508
 31
0.0
  0
LINE
  5
E6FA
330
E6C6
100
AcDbEntity
  8
0
  6
CONTINUOUS
100
AcDbLine
 10
24.63049327071599
 20
2.36839999999762
 30
0.0
 11
23.32789327071731
 21
3.670999999996297
 31
0.0
  0
LINE
  5
E6FB
330
E6C6
100
AcDbEntity
  8
0
  6
CONTINUOUS
100
AcDbLine
 10
22.92098674744635
 20
4.077906523267254
 30
0.0
 11
21.84508681208164
 21
5.153806458631966
 31
0.0
  0
LINE
  5
E6FC
330
E6C6
100
AcDbEntity
  8
0
  6
CONTINUOUS
100
AcDbLine
 10
27.63931247980256
 20
0.0330999999912356
 30
0.0
 11
24.0014124797975
 21
3.670999999996297
 31
0.0
  0
LINE
  5
E6FD
330
E6C6
100
AcDbEntity
  8
0
  6
CONTINUOUS
100
AcDbLine
 10
23.129125600968
 20
4.5432868788258
 30
0.0
 11
22.05328991755227
 21
5.619122562241522
 31
0.0
  0
LINE
  5
E6FE
330
E6C6
100
AcDbEntity
  8
0
  6
CONTINUOUS
100
AcDbLine
 10
28.31283168888275
 20
0.0330999999912356
 30
0.0
 11
24.16488385994816
 21
4.181047828925828
 31
0.0
  0
LINE
  5
E6FF
330
E6C6
100
AcDbEntity
  8
0
  6
CONTINUOUS
100
AcDbLine
 10
23.33726445448964
 20
5.008667234384345
 30
0.0
 11
22.2614930230229
 21
6.084438665851079
 31
0.0
  0
LINE
  5
E700
330
E6C6
100
AcDbEntity
  8
0
  6
CONTINUOUS
100
AcDbLine
 10
28.92085740005492
 20
0.0985934978992438
 30
0.0
 11
27.63635089796295
 21
1.383099999991217
 31
0.0
  0
LINE
  5
E701
330
E6C6
100
AcDbEntity
  8
0
  6
CONTINUOUS
100
AcDbLine
 10
26.43704649509776
 20
2.582404402856405
 30
0.0
 11
23.61992702019732
 21
5.399523877756844
 31
0.0
  0
LINE
  5
E702
330
E6C6
100
AcDbEntity
  8
0
  6
CONTINUOUS
100
AcDbLine
 10
23.54540330801128
 20
5.47404758994289
 30
0.0
 11
22.46969612849353
 21
6.549754769460635
 31
0.0
  0
LINE
  5
E703
330
E6C6
100
AcDbEntity
  8
0
  6
CONTINUOUS
100
AcDbLine
 10
29.42225615078443
 20
0.2707139562499279
 30
0.0
 11
28.30987010704312
 21
1.383099999991234
 31
0.0
  0
LINE
  5
E704
330
E6C6
100
AcDbEntity
  8
0
  6
CONTINUOUS
100
AcDbLine
 10
25.89179548232307
 20
3.801174624711282
 30
0.0
 11
22.67789923396416
 21
7.015070873070191
 31
0.0
  0
LINE
  5
E705
330
E6C6
100
AcDbEntity
  8
0
  6
CONTINUOUS
100
AcDbLine
 10
29.83624534690007
 20
0.5302439692144705
 30
0.0
 11
28.85811781497101
 21
1.508371501143527
 31
0.0
  0
LINE
  5
E706
330
E6C6
100
AcDbEntity
  8
0
  6
CONTINUOUS
100
AcDbLine
 10
25.34654446954838
 20
5.01994484656616
 30
0.0
 11
22.88610233943479
 21
7.480386976679748
 31
0.0
  0
LINE
  5
E707
330
E6C6
100
AcDbEntity
  8
0
  6
CONTINUOUS
100
AcDbLine
 10
30.17865975401872
 20
0.8613487711760022
 30
0.0
 11
29.18888744090175
 21
1.851121084292977
 31
0.0
  0
LINE
  5
E708
330
E6C6
100
AcDbEntity
  8
0
  6
CONTINUOUS
100
AcDbLine
 10
24.80129345677369
 20
6.238715068421037
 30
0.0
 11
23.09430544490542
 21
7.945703080289305
 31
0.0
  0
LINE
  5
E709
330
E6C6
100
AcDbEntity
  8
0
  6
CONTINUOUS
100
AcDbLine
 10
30.45496647202376
 20
1.258561262251155
 30
0.0
 11
29.30199999996933
 21
2.411527734305588
 31
0.0
  0
LINE
  5
E70A
330
E6C6
100
AcDbEntity
  8
0
  6
CONTINUOUS
100
AcDbLine
 10
24.256042443999
 20
7.457485290275915
 30
0.0
 11
23.30250855037605
 21
8.411019183898862
 31
0.0
  0
LINE
  5
E70B
330
E6C6
100
AcDbEntity
  8
0
  6
CONTINUOUS
100
AcDbLine
 10
30.64868582078271
 20
1.738361122572387
 30
0.0
 11
29.30199999996933
 21
3.085046943385775
 31
0.0
  0
LINE
  5
E70C
330
E6C6
100
AcDbEntity
  8
0
  6
CONTINUOUS
100
AcDbLine
 10
23.71079143122431
 20
8.676255512130794
 30
0.0
 11
23.51071165584668
 21
8.876335287508416
 31
0.0
  0
LINE
  5
E70D
330
E6C6
100
AcDbEntity
  8
0
  6
CONTINUOUS
100
AcDbLine
 10
30.73802122914428
 20
2.322544923291007
 30
0.0
 11
29.30199999996933
 21
3.758566152465961
 31
0.0
  0
LINE
  5
E70E
330
E6C6
100
AcDbEntity
  8
0
  6
CONTINUOUS
100
AcDbLine
 10
30.74199999996924
 20
2.992085361546236
 30
0.0
 11
29.30199999996933
 21
4.432085361546148
 31
0.0
  0
LINE
  5
E70F
330
E6C6
100
AcDbEntity
  8
0
  6
CONTINUOUS
100
AcDbLine
 10
30.74199999996924
 20
3.665604570626419
 30
0.0
 11
29.30199999996933
 21
5.105604570626333
 31
0.0
  0
LINE
  5
E710
330
E6C6
100
AcDbEntity
  8
0
  6
CONTINUOUS
100
AcDbLine
 10
30.74199999996925
 20
4.339123779706602
 30
0.0
 11
29.30199999996933
 21
5.77912377970652
 31
0.0
  0
LINE
  5
E711
330
E6C6
100
AcDbEntity
  8
0
  6
CONTINUOUS
100
AcDbLine
 10
30.74199999996925
 20
5.012642988786785
 30
0.0
 11
29.30199999996933
 21
6.452642988786707
 31
0.0
  0
LINE
  5
E712
330
E6C6
100
AcDbEntity
  8
0
  6
CONTINUOUS
100
AcDbLine
 10
30.74199999996925
 20
5.68616219786697
 30
0.0
 11
29.30199999996933
 21
7.126162197866894
 31
0.0
  0
LINE
  5
E713
330
E6C6
100
AcDbEntity
  8
0
  6
CONTINUOUS
100
AcDbLine
 10
30.74199999996925
 20
6.359681406947153
 30
0.0
 11
29.30199999996933
 21
7.799681406947081
 31
0.0
  0
LINE
  5
E714
330
E6C6
100
AcDbEntity
  8
0
  6
CONTINUOUS
100
AcDbLine
 10
30.74199999996926
 20
7.033200616027337
 30
0.0
 11
29.30199999996933
 21
8.473200616027269
 31
0.0
  0
LINE
  5
E715
330
E6C6
100
AcDbEntity
  8
0
  6
CONTINUOUS
100
AcDbLine
 10
30.74199999996926
 20
7.706719825107518
 30
0.0
 11
29.68561982508552
 21
8.763099999991255
 31
0.0
  0
LINE
  5
E716
330
E6C6
100
AcDbEntity
  8
0
  6
CONTINUOUS
100
AcDbLine
 10
30.74199999996926
 20
8.380239034187703
 30
0.0
 11
30.35913903416571
 21
8.763099999991255
 31
0.0
  0
ENDBLK
  5
E7B9
330
E6C6
100
AcDbEntity
  8
0
100
AcDbBlockEnd
  0
BLOCK
  5
E7BA
330
E717
100
AcDbEntity
  8
0
100
AcDbBlockBegin
  2
*X22
 70
     1
 10
0.0
 20
0.0
 30
0.0
  3
*X22
  1

  0
LINE
  5
E718
330
E717
100
AcDbEntity
  8
0
  6
CONTINUOUS
100
AcDbLine
 10
31.64199999996833
 20
8.535058289913598
 30
0.0
 11
31.87004171004599
 21
8.763099999991255
 31
0.0
  0
LINE
  5
E719
330
E717
100
AcDbEntity
  8
0
  6
CONTINUOUS
100
AcDbLine
 10
31.64199999996833
 20
7.861539080833412
 30
0.0
 11
32.54356091912618
 21
8.763099999991255
 31
0.0
  0
LINE
  5
E71A
330
E717
100
AcDbEntity
  8
0
  6
CONTINUOUS
100
AcDbLine
 10
31.64199999996833
 20
7.188019871753226
 30
0.0
 11
33.08199999996839
 21
8.628019871753281
 31
0.0
  0
LINE
  5
E71B
330
E717
100
AcDbEntity
  8
0
  6
CONTINUOUS
100
AcDbLine
 10
31.64199999996833
 20
6.51450066267304
 30
0.0
 11
33.08199999996839
 21
7.954500662673095
 31
0.0
  0
LINE
  5
E71C
330
E717
100
AcDbEntity
  8
0
  6
CONTINUOUS
100
AcDbLine
 10
31.64199999996833
 20
5.840981453592853
 30
0.0
 11
33.08199999996839
 21
7.280981453592908
 31
0.0
  0
LINE
  5
E71D
330
E717
100
AcDbEntity
  8
0
  6
CONTINUOUS
100
AcDbLine
 10
31.64199999996833
 20
5.167462244512667
 30
0.0
 11
33.08199999996839
 21
6.607462244512721
 31
0.0
  0
LINE
  5
E71E
330
E717
100
AcDbEntity
  8
0
  6
CONTINUOUS
100
AcDbLine
 10
31.64199999996833
 20
4.493943035432481
 30
0.0
 11
33.08199999996839
 21
5.933943035432535
 31
0.0
  0
LINE
  5
E71F
330
E717
100
AcDbEntity
  8
0
  6
CONTINUOUS
100
AcDbLine
 10
31.64199999996833
 20
3.820423826352293
 30
0.0
 11
33.08199999996839
 21
5.260423826352348
 31
0.0
  0
LINE
  5
E720
330
E717
100
AcDbEntity
  8
0
  6
CONTINUOUS
100
AcDbLine
 10
31.64199999996833
 20
3.146904617272106
 30
0.0
 11
33.08199999996839
 21
4.586904617272161
 31
0.0
  0
LINE
  5
E721
330
E717
100
AcDbEntity
  8
0
  6
CONTINUOUS
100
AcDbLine
 10
36.23199999996837
 20
8.410423826352325
 30
0.0
 11
36.5846761736073
 21
8.763099999991255
 31
0.0
  0
LINE
  5
E722
330
E717
100
AcDbEntity
  8
0
  6
CONTINUOUS
100
AcDbLine
 10
36.23199999996837
 20
7.73690461727214
 30
0.0
 11
37.25819538268748
 21
8.763099999991255
 31
0.0
  0
LINE
  5
E723
330
E717
100
AcDbEntity
  8
0
  6
CONTINUOUS
100
AcDbLine
 10
31.64257403601376
 20
2.473959444237348
 30
0.0
 11
33.08199999996839
 21
3.913385408191974
 31
0.0
  0
LINE
  5
E724
330
E717
100
AcDbEntity
  8
0
  6
CONTINUOUS
100
AcDbLine
 10
36.23199999996837
 20
7.063385408191953
 30
0.0
 11
37.67199999996831
 21
8.503385408191894
 31
0.0
  0
LINE
  5
E725
330
E717
100
AcDbEntity
  8
0
  6
CONTINUOUS
100
AcDbLine
 10
31.72013636841932
 20
1.87800256756272
 30
0.0
 11
33.08199999996839
 21
3.239866199111788
 31
0.0
  0
LINE
  5
E726
330
E717
100
AcDbEntity
  8
0
  6
CONTINUOUS
100
AcDbLine
 10
36.23199999996837
 20
6.389866199111767
 30
0.0
 11
37.67199999996831
 21
7.829866199111708
 31
0.0
  0
LINE
  5
E727
330
E717
100
AcDbEntity
  8
0
  6
CONTINUOUS
100
AcDbLine
 10
31.89042734314753
 20
1.374774333210744
 30
0.0
 11
33.08199999996839
 21
2.566346990031601
 31
0.0
  0
LINE
  5
E728
330
E717
100
AcDbEntity
  8
0
  6
CONTINUOUS
100
AcDbLine
 10
36.23199999996837
 20
5.71634699003158
 30
0.0
 11
37.67199999996831
 21
7.156346990031521
 31
0.0
  0
LINE
  5
E729
330
E717
100
AcDbEntity
  8
0
  6
CONTINUOUS
100
AcDbLine
 10
32.14210568064475
 20
0.952933461627778
 30
0.0
 11
33.18745552475986
 21
1.998283305742888
 31
0.0
  0
LINE
  5
E72A
330
E717
100
AcDbEntity
  8
0
  6
CONTINUOUS
100
AcDbLine
 10
36.23199999996837
 20
5.042827780951393
 30
0.0
 11
37.67199999996831
 21
6.482827780951334
 31
0.0
  0
LINE
  5
E72B
330
E717
100
AcDbEntity
  8
0
  6
CONTINUOUS
100
AcDbLine
 10
32.45820639400955
 20
0.5955149659123915
 30
0.0
 11
33.47242681921943
 21
1.60973539112227
 31
0.0
  0
LINE
  5
E72C
330
E717
100
AcDbEntity
  8
0
  6
CONTINUOUS
100
AcDbLine
 10
36.23199999996837
 20
4.369308571871207
 30
0.0
 11
37.67199999996831
 21
5.809308571871147
 31
0.0
  0
LINE
  5
E72D
330
E717
100
AcDbEntity
  8
0
  6
CONTINUOUS
100
AcDbLine
 10
32.83432456621412
 20
0.2981139290367771
 30
0.0
 11
33.89722476612215
 21
1.361014128944803
 31
0.0
  0
LINE
  5
E72E
330
E717
100
AcDbEntity
  8
0
  6
CONTINUOUS
100
AcDbLine
 10
36.23199999996837
 20
3.69578936279102
 30
0.0
 11
37.67199999996831
 21
5.135789362790962
 31
0.0
  0
LINE
  5
E72F
330
E717
100
AcDbEntity
  8
0
  6
CONTINUOUS
100
AcDbLine
 10
33.2711633111245
 20
0.0614334648669672
 30
0.0
 11
34.43247338014423
 21
1.222743533886696
 31
0.0
  0
LINE
  5
E730
330
E717
100
AcDbEntity
  8
0
  6
CONTINUOUS
100
AcDbLine
 10
36.23199999996837
 20
3.022270153710834
 30
0.0
 11
37.67199999996831
 21
4.462270153710775
 31
0.0
  0
LINE
  5
E731
330
E717
100
AcDbEntity
  8
0
  6
CONTINUOUS
100
AcDbLine
 10
33.76515245874577
 20
-0.1180965965919523
 30
0.0
 11
35.1587445516215
 21
1.27549549628378
 31
0.0
  0
LINE
  5
E732
330
E717
100
AcDbEntity
  8
0
  6
CONTINUOUS
100
AcDbLine
 10
36.21639478609585
 20
2.333145730758136
 30
0.0
 11
37.67199999996831
 21
3.788750944630588
 31
0.0
  0
LINE
  5
E733
330
E717
100
AcDbEntity
  8
0
  6
CONTINUOUS
100
AcDbLine
 10
34.34060583368432
 20
-0.2161624307335863
 30
0.0
 11
37.67199999996831
 21
3.115231735550401
 31
0.0
  0
LINE
  5
E734
330
E717
100
AcDbEntity
  8
0
  6
CONTINUOUS
100
AcDbLine
 10
35.01698193613905
 20
-0.2133055373590427
 30
0.0
 11
37.66876712070525
 21
2.438479647207154
 31
0.0
  0
LINE
  5
E735
330
E717
100
AcDbEntity
  8
0
  6
CONTINUOUS
100
AcDbLine
 10
35.90743367693304
 20
0.0036269943547609
 30
0.0
 11
37.51723902192366
 21
1.613432339345381
 31
0.0
  0
LINE
  5
E736
330
E717
100
AcDbEntity
  8
0
  6
CONTINUOUS
100
AcDbLine
 10
32.55309425579761
 20
0.5074718966376706
 30
0.0
 11
32.27784730925847
 21
0.7827188431768102
 31
0.0
  0
LINE
  5
E737
330
E717
100
AcDbEntity
  8
0
  6
CONTINUOUS
100
AcDbLine
 10
33.87496468909684
 20
-0.1408793275813673
 30
0.0
 11
31.67993083278052
 21
2.054154528734943
 31
0.0
  0
LINE
  5
E738
330
E717
100
AcDbEntity
  8
0
  6
CONTINUOUS
100
AcDbLine
 10
34.64362813207632
 20
-0.2360235614806649
 30
0.0
 11
31.64199999996833
 21
2.765604570627322
 31
0.0
  0
LINE
  5
E739
330
E717
100
AcDbEntity
  8
0
  6
CONTINUOUS
100
AcDbLine
 10
35.25801106796118
 20
-0.1768872882853429
 30
0.0
 11
31.64199999996833
 21
3.439123779707508
 31
0.0
  0
LINE
  5
E73A
330
E717
100
AcDbEntity
  8
0
  6
CONTINUOUS
100
AcDbLine
 10
35.79065650332146
 20
-0.0360135145654361
 30
0.0
 11
34.54143210838231
 21
1.213210880373721
 31
0.0
  0
LINE
  5
E73B
330
E717
100
AcDbEntity
  8
0
  6
CONTINUOUS
100
AcDbLine
 10
33.08199999996839
 20
2.67264298878764
 30
0.0
 11
31.64199999996833
 21
4.112642988787695
 31
0.0
  0
LINE
  5
E73C
330
E717
100
AcDbEntity
  8
0
  6
CONTINUOUS
100
AcDbLine
 10
36.25975597779143
 20
0.1684062200447833
 30
0.0
 11
35.15395110240023
 21
1.274211095435983
 31
0.0
  0
LINE
  5
E73D
330
E717
100
AcDbEntity
  8
0
  6
CONTINUOUS
100
AcDbLine
 10
33.08199999996839
 20
3.346162197867826
 30
0.0
 11
31.64199999996833
 21
4.786162197867881
 31
0.0
  0
LINE
  5
E73E
330
E717
100
AcDbEntity
  8
0
  6
CONTINUOUS
100
AcDbLine
 10
36.67226329638774
 20
0.4294181105286579
 30
0.0
 11
35.63766478748767
 21
1.464016619428737
 31
0.0
  0
LINE
  5
E73F
330
E717
100
AcDbEntity
  8
0
  6
CONTINUOUS
100
AcDbLine
 10
33.08199999996839
 20
4.019681406948012
 30
0.0
 11
31.64199999996833
 21
5.459681406948068
 31
0.0
  0
LINE
  5
E740
330
E717
100
AcDbEntity
  8
0
  6
CONTINUOUS
100
AcDbLine
 10
37.01677749710036
 20
0.7584231188962329
 30
0.0
 11
35.99563422741351
 21
1.779566388583076
 31
0.0
  0
LINE
  5
E741
330
E717
100
AcDbEntity
  8
0
  6
CONTINUOUS
100
AcDbLine
 10
33.08199999996839
 20
4.693200616028199
 30
0.0
 11
31.64199999996833
 21
6.133200616028255
 31
0.0
  0
LINE
  5
E742
330
E717
100
AcDbEntity
  8
0
  6
CONTINUOUS
100
AcDbLine
 10
37.29859977568887
 20
1.1501200493879
 30
0.0
 11
36.20680593341555
 21
2.241913891661226
 31
0.0
  0
LINE
  5
E743
330
E717
100
AcDbEntity
  8
0
  6
CONTINUOUS
100
AcDbLine
 10
33.08199999996839
 20
5.366719825108386
 30
0.0
 11
31.64199999996833
 21
6.80671982510844
 31
0.0
  0
LINE
  5
E744
330
E717
100
AcDbEntity
  8
0
  6
CONTINUOUS
100
AcDbLine
 10
37.5148623517228
 20
1.607376682434161
 30
0.0
 11
36.23199999996837
 21
2.890239034188594
 31
0.0
  0
LINE
  5
E745
330
E717
100
AcDbEntity
  8
0
  6
CONTINUOUS
100
AcDbLine
 10
33.08199999996839
 20
6.040239034188573
 30
0.0
 11
31.64199999996833
 21
7.480239034188627
 31
0.0
  0
LINE
  5
E746
330
E717
100
AcDbEntity
  8
0
  6
CONTINUOUS
100
AcDbLine
 10
37.64705163358367
 20
2.148706609653477
 30
0.0
 11
36.23199999996837
 21
3.56375824326878
 31
0.0
  0
LINE
  5
E747
330
E717
100
AcDbEntity
  8
0
  6
CONTINUOUS
100
AcDbLine
 10
33.08199999996839
 20
6.713758243268758
 30
0.0
 11
31.64199999996833
 21
8.153758243268815
 31
0.0
  0
LINE
  5
E748
330
E717
100
AcDbEntity
  8
0
  6
CONTINUOUS
100
AcDbLine
 10
37.67199999996831
 20
2.797277452349026
 30
0.0
 11
36.23199999996837
 21
4.237277452348967
 31
0.0
  0
LINE
  5
E749
330
E717
100
AcDbEntity
  8
0
  6
CONTINUOUS
100
AcDbLine
 10
37.67199999996831
 20
3.470796661429213
 30
0.0
 11
36.23199999996837
 21
4.910796661429154
 31
0.0
  0
LINE
  5
E74A
330
E717
100
AcDbEntity
  8
0
  6
CONTINUOUS
100
AcDbLine
 10
37.67199999996831
 20
4.144315870509399
 30
0.0
 11
36.23199999996837
 21
5.58431587050934
 31
0.0
  0
LINE
  5
E74B
330
E717
100
AcDbEntity
  8
0
  6
CONTINUOUS
100
AcDbLine
 10
33.08199999996839
 20
7.387277452348945
 30
0.0
 11
31.70617745232608
 21
8.763099999991255
 31
0.0
  0
LINE
  5
E74C
330
E717
100
AcDbEntity
  8
0
  6
CONTINUOUS
100
AcDbLine
 10
33.08199999996839
 20
8.060796661429132
 30
0.0
 11
32.37969666140626
 21
8.763099999991255
 31
0.0
  0
LINE
  5
E74D
330
E717
100
AcDbEntity
  8
0
  6
CONTINUOUS
100
AcDbLine
 10
33.08199999996839
 20
8.734315870509318
 30
0.0
 11
33.05321587048645
 21
8.763099999991255
 31
0.0
  0
LINE
  5
E74E
330
E717
100
AcDbEntity
  8
0
  6
CONTINUOUS
100
AcDbLine
 10
37.67199999996831
 20
4.817835079589585
 30
0.0
 11
36.23199999996837
 21
6.257835079589526
 31
0.0
  0
LINE
  5
E74F
330
E717
100
AcDbEntity
  8
0
  6
CONTINUOUS
100
AcDbLine
 10
37.67199999996831
 20
5.491354288669771
 30
0.0
 11
36.23199999996837
 21
6.931354288669713
 31
0.0
  0
LINE
  5
E750
330
E717
100
AcDbEntity
  8
0
  6
CONTINUOUS
100
AcDbLine
 10
37.67199999996831
 20
6.164873497749958
 30
0.0
 11
36.23199999996837
 21
7.6048734977499
 31
0.0
  0
LINE
  5
E751
330
E717
100
AcDbEntity
  8
0
  6
CONTINUOUS
100
AcDbLine
 10
37.67199999996831
 20
6.838392706830144
 30
0.0
 11
36.23199999996837
 21
8.278392706830086
 31
0.0
  0
LINE
  5
E752
330
E717
100
AcDbEntity
  8
0
  6
CONTINUOUS
100
AcDbLine
 10
37.67199999996831
 20
7.511911915910332
 30
0.0
 11
36.42081191588738
 21
8.763099999991255
 31
0.0
  0
LINE
  5
E753
330
E717
100
AcDbEntity
  8
0
  6
CONTINUOUS
100
AcDbLine
 10
37.67199999996831
 20
8.185431124990519
 30
0.0
 11
37.09433112496757
 21
8.763099999991255
 31
0.0
  0
ENDBLK
  5
E7BB
330
E717
100
AcDbEntity
  8
0
100
AcDbBlockEnd
  0
BLOCK
  5
E7BC
330
E754
100
AcDbEntity
  8
0
100
AcDbBlockBegin
  2
*X23
 70
     1
 10
0.0
 20
0.0
 30
0.0
  3
*X23
  1

  0
LINE
  5
E755
330
E754
100
AcDbEntity
  8
0
  6
CONTINUOUS
100
AcDbLine
 10
38.60499999996136
 20
8.762866199104765
 30
0.0
 11
38.71672554182345
 21
8.874591740966855
 31
0.0
  0
LINE
  5
E756
330
E754
100
AcDbEntity
  8
0
  6
CONTINUOUS
100
AcDbLine
 10
38.60499999996136
 20
8.089346990024577
 30
0.0
 11
39.03418785440363
 21
8.518534844466847
 31
0.0
  0
LINE
  5
E757
330
E754
100
AcDbEntity
  8
0
  6
CONTINUOUS
100
AcDbLine
 10
38.60499999996136
 20
7.41582778094439
 30
0.0
 11
39.35165016698382
 21
8.16247794796684
 31
0.0
  0
LINE
  5
E758
330
E754
100
AcDbEntity
  8
0
  6
CONTINUOUS
100
AcDbLine
 10
38.60499999996136
 20
6.742308571864204
 30
0.0
 11
39.66911247956399
 21
7.806421051466834
 31
0.0
  0
LINE
  5
E759
330
E754
100
AcDbEntity
  8
0
  6
CONTINUOUS
100
AcDbLine
 10
38.60499999996136
 20
6.068789362784018
 30
0.0
 11
39.98657479214418
 21
7.450364154966827
 31
0.0
  0
LINE
  5
E75A
330
E754
100
AcDbEntity
  8
0
  6
CONTINUOUS
100
AcDbLine
 10
38.60499999996136
 20
5.395270153703832
 30
0.0
 11
40.30403710472435
 21
7.09430725846682
 31
0.0
  0
LINE
  5
E75B
330
E754
100
AcDbEntity
  8
0
  6
CONTINUOUS
100
AcDbLine
 10
38.60499999996136
 20
4.721750944623645
 30
0.0
 11
40.62149941730453
 21
6.738250361966813
 31
0.0
  0
LINE
  5
E75C
330
E754
100
AcDbEntity
  8
0
  6
CONTINUOUS
100
AcDbLine
 10
38.60499999996136
 20
4.048231735543458
 30
0.0
 11
40.93896172988471
 21
6.382193465466806
 31
0.0
  0
LINE
  5
E75D
330
E754
100
AcDbEntity
  8
0
  6
CONTINUOUS
100
AcDbLine
 10
38.60499999996136
 20
3.374712526463272
 30
0.0
 11
40.02599999995994
 21
4.795712526461843
 31
0.0
  0
LINE
  5
E75E
330
E754
100
AcDbEntity
  8
0
  6
CONTINUOUS
100
AcDbLine
 10
38.60499999996136
 20
2.701193317383085
 30
0.0
 11
40.02599999995994
 21
4.122193317381657
 31
0.0
  0
LINE
  5
E75F
330
E754
100
AcDbEntity
  8
0
  6
CONTINUOUS
100
AcDbLine
 10
40.28339754687704
 20
5.053110073378947
 30
0.0
 11
41.25642404246489
 21
6.026136568966799
 31
0.0
  0
LINE
  5
E760
330
E754
100
AcDbEntity
  8
0
  6
CONTINUOUS
100
AcDbLine
 10
40.60085985945722
 20
4.697053176878939
 30
0.0
 11
41.57388635504507
 21
5.670079672466793
 31
0.0
  0
LINE
  5
E761
330
E754
100
AcDbEntity
  8
0
  6
CONTINUOUS
100
AcDbLine
 10
43.57899999995641
 20
8.348712526458318
 30
0.0
 11
43.99338747348935
 21
8.763099999991255
 31
0.0
  0
LINE
  5
E762
330
E754
100
AcDbEntity
  8
0
  6
CONTINUOUS
100
AcDbLine
 10
43.57899999995641
 20
7.675193317378131
 30
0.0
 11
44.66690668256953
 21
8.763099999991255
 31
0.0
  0
LINE
  5
E763
330
E754
100
AcDbEntity
  8
0
  6
CONTINUOUS
100
AcDbLine
 10
38.60499999996136
 20
2.027674108302898
 30
0.0
 11
40.02599999995994
 21
3.44867410830147
 31
0.0
  0
LINE
  5
E764
330
E754
100
AcDbEntity
  8
0
  6
CONTINUOUS
100
AcDbLine
 10
38.60499999996136
 20
1.354154899222712
 30
0.0
 11
40.02599999995994
 21
2.775154899221284
 31
0.0
  0
LINE
  5
E765
330
E754
100
AcDbEntity
  8
0
  6
CONTINUOUS
100
AcDbLine
 10
38.60499999996136
 20
0.6806356901425255
 30
0.0
 11
40.02599999995994
 21
2.101635690141098
 31
0.0
  0
LINE
  5
E766
330
E754
100
AcDbEntity
  8
0
  6
CONTINUOUS
100
AcDbLine
 10
38.60499999996136
 20
0.0071164810623383
 30
0.0
 11
40.02599999995994
 21
1.428116481060911
 31
0.0
  0
LINE
  5
E767
330
E754
100
AcDbEntity
  8
0
  6
CONTINUOUS
100
AcDbLine
 10
40.9183221720374
 20
4.340996280378933
 30
0.0
 11
41.89134866762525
 21
5.314022775966786
 31
0.0
  0
LINE
  5
E768
330
E754
100
AcDbEntity
  8
0
  6
CONTINUOUS
100
AcDbLine
 10
41.23578448461758
 20
3.984939383878926
 30
0.0
 11
42.20881098020543
 21
4.957965879466778
 31
0.0
  0
LINE
  5
E769
330
E754
100
AcDbEntity
  8
0
  6
CONTINUOUS
100
AcDbLine
 10
41.55324679719776
 20
3.628882487378919
 30
0.0
 11
42.52627329278561
 21
4.601908982966772
 31
0.0
  0
LINE
  5
E76A
330
E754
100
AcDbEntity
  8
0
  6
CONTINUOUS
100
AcDbLine
 10
41.87070910977793
 20
3.272825590878912
 30
0.0
 11
42.84373560536579
 21
4.245852086466765
 31
0.0
  0
LINE
  5
E76B
330
E754
100
AcDbEntity
  8
0
  6
CONTINUOUS
100
AcDbLine
 10
43.57899999995641
 20
7.001674108297943
 30
0.0
 11
44.99999999995498
 21
8.422674108296516
 31
0.0
  0
LINE
  5
E76C
330
E754
100
AcDbEntity
  8
0
  6
CONTINUOUS
100
AcDbLine
 10
43.57899999995641
 20
6.328154899217758
 30
0.0
 11
44.99999999995498
 21
7.749154899216329
 31
0.0
  0
LINE
  5
E76D
330
E754
100
AcDbEntity
  8
0
  6
CONTINUOUS
100
AcDbLine
 10
43.57899999995641
 20
5.654635690137571
 30
0.0
 11
44.99999999995498
 21
7.075635690136142
 31
0.0
  0
LINE
  5
E76E
330
E754
100
AcDbEntity
  8
0
  6
CONTINUOUS
100
AcDbLine
 10
43.57899999995641
 20
4.981116481057384
 30
0.0
 11
44.99999999995498
 21
6.402116481055955
 31
0.0
  0
LINE
  5
E76F
330
E754
100
AcDbEntity
  8
0
  6
CONTINUOUS
100
AcDbLine
 10
39.27140272797921
 20
-0.0000000000000009
 30
0.0
 11
40.02599999995994
 21
0.7545972719807246
 31
0.0
  0
LINE
  5
E770
330
E754
100
AcDbEntity
  8
0
  6
CONTINUOUS
100
AcDbLine
 10
39.9449219370594
 20
-0.0000000000000009
 30
0.0
 11
40.02599999995994
 21
0.0810780629005379
 31
0.0
  0
LINE
  5
E771
330
E754
100
AcDbEntity
  8
0
  6
CONTINUOUS
100
AcDbLine
 10
42.18817142235812
 20
2.916768694378905
 30
0.0
 11
43.16119791794597
 21
3.889795189966758
 31
0.0
  0
LINE
  5
E772
330
E754
100
AcDbEntity
  8
0
  6
CONTINUOUS
100
AcDbLine
 10
42.50563373493829
 20
2.560711797878898
 30
0.0
 11
43.47866023052615
 21
3.533738293466751
 31
0.0
  0
LINE
  5
E773
330
E754
100
AcDbEntity
  8
0
  6
CONTINUOUS
100
AcDbLine
 10
43.57899999995641
 20
4.307597271977198
 30
0.0
 11
44.99999999995498
 21
5.728597271975769
 31
0.0
  0
LINE
  5
E774
330
E754
100
AcDbEntity
  8
0
  6
CONTINUOUS
100
AcDbLine
 10
43.57899999995641
 20
3.634078062897011
 30
0.0
 11
44.99999999995498
 21
5.055078062895582
 31
0.0
  0
LINE
  5
E775
330
E754
100
AcDbEntity
  8
0
  6
CONTINUOUS
100
AcDbLine
 10
42.82309604751848
 20
2.204654901378891
 30
0.0
 11
44.99999999995498
 21
4.381558853815395
 31
0.0
  0
LINE
  5
E776
330
E754
100
AcDbEntity
  8
0
  6
CONTINUOUS
100
AcDbLine
 10
43.14055836009865
 20
1.848598004878885
 30
0.0
 11
44.99999999995498
 21
3.70803964473521
 31
0.0
  0
LINE
  5
E777
330
E754
100
AcDbEntity
  8
0
  6
CONTINUOUS
100
AcDbLine
 10
43.45802067267883
 20
1.492541108378878
 30
0.0
 11
44.99999999995498
 21
3.034520435655023
 31
0.0
  0
LINE
  5
E778
330
E754
100
AcDbEntity
  8
0
  6
CONTINUOUS
100
AcDbLine
 10
43.77548298525902
 20
1.136484211878871
 30
0.0
 11
44.99999999995498
 21
2.361001226574837
 31
0.0
  0
LINE
  5
E779
330
E754
100
AcDbEntity
  8
0
  6
CONTINUOUS
100
AcDbLine
 10
44.09294529783919
 20
0.7804273153788639
 30
0.0
 11
44.99999999995498
 21
1.687482017494649
 31
0.0
  0
LINE
  5
E77A
330
E754
100
AcDbEntity
  8
0
  6
CONTINUOUS
100
AcDbLine
 10
44.41040761041938
 20
0.4243704188788566
 30
0.0
 11
44.99999999995498
 21
1.013962808414463
 31
0.0
  0
LINE
  5
E77B
330
E754
100
AcDbEntity
  8
0
  6
CONTINUOUS
100
AcDbLine
 10
44.72786992299955
 20
0.0683135223788494
 30
0.0
 11
44.99999999995498
 21
0.340443599334276
 31
0.0
  0
LINE
  5
E77C
330
E754
100
AcDbEntity
  8
0
  6
CONTINUOUS
100
AcDbLine
 10
39.12223903415696
 20
-0.0000000000000009
 30
0.0
 11
38.60499999996136
 21
0.5172390341955961
 31
0.0
  0
LINE
  5
E77D
330
E754
100
AcDbEntity
  8
0
  6
CONTINUOUS
100
AcDbLine
 10
39.79575824323715
 20
-0.0000000000000009
 30
0.0
 11
38.60499999996136
 21
1.190758243275783
 31
0.0
  0
LINE
  5
E77E
330
E754
100
AcDbEntity
  8
0
  6
CONTINUOUS
100
AcDbLine
 10
40.02599999995994
 20
0.443277452357397
 30
0.0
 11
38.60499999996136
 21
1.864277452355969
 31
0.0
  0
LINE
  5
E77F
330
E754
100
AcDbEntity
  8
0
  6
CONTINUOUS
100
AcDbLine
 10
40.02599999995994
 20
1.116796661437583
 30
0.0
 11
38.60499999996136
 21
2.537796661436155
 31
0.0
  0
LINE
  5
E780
330
E754
100
AcDbEntity
  8
0
  6
CONTINUOUS
100
AcDbLine
 10
40.02599999995994
 20
1.79031587051777
 30
0.0
 11
38.60499999996136
 21
3.211315870516341
 31
0.0
  0
LINE
  5
E781
330
E754
100
AcDbEntity
  8
0
  6
CONTINUOUS
100
AcDbLine
 10
40.02599999995994
 20
2.463835079597956
 30
0.0
 11
38.60499999996136
 21
3.884835079596527
 31
0.0
  0
LINE
  5
E782
330
E754
100
AcDbEntity
  8
0
  6
CONTINUOUS
100
AcDbLine
 10
40.02599999995994
 20
3.137354288678143
 30
0.0
 11
38.60499999996136
 21
4.558354288676714
 31
0.0
  0
LINE
  5
E783
330
E754
100
AcDbEntity
  8
0
  6
CONTINUOUS
100
AcDbLine
 10
40.02599999995994
 20
3.810873497758329
 30
0.0
 11
38.60499999996136
 21
5.2318734977569
 31
0.0
  0
LINE
  5
E784
330
E754
100
AcDbEntity
  8
0
  6
CONTINUOUS
100
AcDbLine
 10
40.02599999995994
 20
4.484392706838515
 30
0.0
 11
38.60499999996136
 21
5.905392706837086
 31
0.0
  0
LINE
  5
E785
330
E754
100
AcDbEntity
  8
0
  6
CONTINUOUS
100
AcDbLine
 10
44.99999999995498
 20
0.183911915923658
 30
0.0
 11
41.53858364506288
 21
3.64532827081576
 31
0.0
  0
LINE
  5
E786
330
E754
100
AcDbEntity
  8
0
  6
CONTINUOUS
100
AcDbLine
 10
40.02599999995994
 20
5.157911915918703
 30
0.0
 11
38.60499999996136
 21
6.578911915917274
 31
0.0
  0
LINE
  5
E787
330
E754
100
AcDbEntity
  8
0
  6
CONTINUOUS
100
AcDbLine
 10
44.99999999995498
 20
0.8574311250038447
 30
0.0
 11
38.60499999996136
 21
7.25243112499746
 31
0.0
  0
LINE
  5
E788
330
E754
100
AcDbEntity
  8
0
  6
CONTINUOUS
100
AcDbLine
 10
44.99999999995498
 20
1.530950334084031
 30
0.0
 11
38.60499999996136
 21
7.925950334077647
 31
0.0
  0
LINE
  5
E789
330
E754
100
AcDbEntity
  8
0
  6
CONTINUOUS
100
AcDbLine
 10
44.99999999995498
 20
2.204469543164218
 30
0.0
 11
43.57899999995641
 21
3.625469543162789
 31
0.0
  0
LINE
  5
E78A
330
E754
100
AcDbEntity
  8
0
  6
CONTINUOUS
100
AcDbLine
 10
41.89876730984767
 20
5.305702233271528
 30
0.0
 11
38.60499999996136
 21
8.599469543157834
 31
0.0
  0
LINE
  5
E78B
330
E754
100
AcDbEntity
  8
0
  6
CONTINUOUS
100
AcDbLine
 10
44.99999999995498
 20
2.877988752244405
 30
0.0
 11
43.57899999995641
 21
4.298988752242975
 31
0.0
  0
LINE
  5
E78C
330
E754
100
AcDbEntity
  8
0
  6
CONTINUOUS
100
AcDbLine
 10
44.99999999995498
 20
3.551507961324591
 30
0.0
 11
43.57899999995641
 21
4.972507961323163
 31
0.0
  0
LINE
  5
E78D
330
E754
100
AcDbEntity
  8
0
  6
CONTINUOUS
100
AcDbLine
 10
44.99999999995498
 20
4.225027170404777
 30
0.0
 11
43.57899999995641
 21
5.646027170403348
 31
0.0
  0
LINE
  5
E78E
330
E754
100
AcDbEntity
  8
0
  6
CONTINUOUS
100
AcDbLine
 10
44.99999999995498
 20
4.898546379484964
 30
0.0
 11
43.57899999995641
 21
6.319546379483535
 31
0.0
  0
LINE
  5
E78F
330
E754
100
AcDbEntity
  8
0
  6
CONTINUOUS
100
AcDbLine
 10
44.99999999995498
 20
5.572065588565151
 30
0.0
 11
43.57899999995641
 21
6.993065588563722
 31
0.0
  0
LINE
  5
E790
330
E754
100
AcDbEntity
  8
0
  6
CONTINUOUS
100
AcDbLine
 10
44.99999999995498
 20
6.245584797645336
 30
0.0
 11
43.57899999995641
 21
7.666584797643908
 31
0.0
  0
LINE
  5
E791
330
E754
100
AcDbEntity
  8
0
  6
CONTINUOUS
100
AcDbLine
 10
44.99999999995498
 20
6.919104006725522
 30
0.0
 11
43.57899999995641
 21
8.340104006724093
 31
0.0
  0
LINE
  5
E792
330
E754
100
AcDbEntity
  8
0
  6
CONTINUOUS
100
AcDbLine
 10
44.99999999995498
 20
7.592623215805709
 30
0.0
 11
43.82952321576943
 21
8.763099999991255
 31
0.0
  0
LINE
  5
E793
330
E754
100
AcDbEntity
  8
0
  6
CONTINUOUS
100
AcDbLine
 10
44.99999999995498
 20
8.266142424885896
 30
0.0
 11
44.50304242484962
 21
8.763099999991255
 31
0.0
  0
ENDBLK
  5
E7BD
330
E754
100
AcDbEntity
  8
0
100
AcDbBlockEnd
  0
BLOCK
  5
E7BE
330
E794
100
AcDbEntity
  8
0
100
AcDbBlockBegin
  2
*X24
 70
     1
 10
0.0
 20
0.0
 30
0.0
  3
*X24
  1

  0
LINE
  5
E795
330
E794
100
AcDbEntity
  8
0
  6
CONTINUOUS
100
AcDbLine
 10
0.0
 20
8.548461116714023
 30
0.0
 11
0.2146388832772324
 21
8.763099999991255
 31
0.0
  0
LINE
  5
E796
330
E794
100
AcDbEntity
  8
0
  6
CONTINUOUS
100
AcDbLine
 10
-0.0000000000000002
 20
7.874941907633837
 30
0.0
 11
0.8881580923574184
 21
8.763099999991255
 31
0.0
  0
LINE
  5
E797
330
E794
100
AcDbEntity
  8
0
  6
CONTINUOUS
100
AcDbLine
 10
0.0
 20
7.20142269855365
 30
0.0
 11
1.420999999998572
 21
8.622422698552223
 31
0.0
  0
LINE
  5
E798
330
E794
100
AcDbEntity
  8
0
  6
CONTINUOUS
100
AcDbLine
 10
-0.0000000000000001
 20
6.527903489473465
 30
0.0
 11
1.420999999998571
 21
7.948903489472036
 31
0.0
  0
LINE
  5
E799
330
E794
100
AcDbEntity
  8
0
  6
CONTINUOUS
100
AcDbLine
 10
-0.0000000000000002
 20
5.854384280393278
 30
0.0
 11
1.420999999998571
 21
7.275384280391849
 31
0.0
  0
LINE
  5
E79A
330
E794
100
AcDbEntity
  8
0
  6
CONTINUOUS
100
AcDbLine
 10
-0.0000000000000002
 20
5.180865071313091
 30
0.0
 11
1.420999999998571
 21
6.601865071311663
 31
0.0
  0
LINE
  5
E79B
330
E794
100
AcDbEntity
  8
0
  6
CONTINUOUS
100
AcDbLine
 10
0.0
 20
4.507345862232905
 30
0.0
 11
1.420999999998571
 21
5.928345862231477
 31
0.0
  0
LINE
  5
E79C
330
E794
100
AcDbEntity
  8
0
  6
CONTINUOUS
100
AcDbLine
 10
-0.0000000000000003
 20
3.833826653152718
 30
0.0
 11
1.420999999998571
 21
5.25482665315129
 31
0.0
  0
LINE
  5
E79D
330
E794
100
AcDbEntity
  8
0
  6
CONTINUOUS
100
AcDbLine
 10
-0.0000000000000002
 20
3.160307444072532
 30
0.0
 11
1.420999999998571
 21
4.581307444071103
 31
0.0
  0
LINE
  5
E79E
330
E794
100
AcDbEntity
  8
0
  6
CONTINUOUS
100
AcDbLine
 10
-0.0000000000000001
 20
2.486788234992345
 30
0.0
 11
1.420999999998571
 21
3.907788234990917
 31
0.0
  0
LINE
  5
E79F
330
E794
100
AcDbEntity
  8
0
  6
CONTINUOUS
100
AcDbLine
 10
-0.0000000000000006
 20
1.813269025912159
 30
0.0
 11
1.420999999998571
 21
3.234269025910731
 31
0.0
  0
LINE
  5
E7A0
330
E794
100
AcDbEntity
  8
0
  6
CONTINUOUS
100
AcDbLine
 10
0.0
 20
1.139749816831973
 30
0.0
 11
1.420999999998571
 21
2.560749816830544
 31
0.0
  0
LINE
  5
E7A1
330
E794
100
AcDbEntity
  8
0
  6
CONTINUOUS
100
AcDbLine
 10
0.0000000000000002
 20
0.466230607751787
 30
0.0
 11
1.420999999998571
 21
1.887230607750358
 31
0.0
  0
LINE
  5
E7A2
330
E794
100
AcDbEntity
  8
0
  6
CONTINUOUS
100
AcDbLine
 10
0.2072886013284003
 20
-0.0000000000000009
 30
0.0
 11
1.420999999998571
 21
1.213711398670171
 31
0.0
  0
LINE
  5
E7A3
330
E794
100
AcDbEntity
  8
0
  6
CONTINUOUS
100
AcDbLine
 10
0.8808078104085864
 20
-0.0000000000000009
 30
0.0
 11
1.420999999998571
 21
0.5401921895899839
 31
0.0
  0
LINE
  5
E7A4
330
E794
100
AcDbEntity
  8
0
  6
CONTINUOUS
100
AcDbLine
 10
0.0581249075061505
 20
-0.0000000000000009
 30
0.0
 11
-0.0000000000000002
 21
0.0581249075061496
 31
0.0
  0
LINE
  5
E7A5
330
E794
100
AcDbEntity
  8
0
  6
CONTINUOUS
100
AcDbLine
 10
0.7316441165863372
 20
-0.0000000000000009
 30
0.0
 11
-0.0000000000000002
 21
0.7316441165863363
 31
0.0
  0
LINE
  5
E7A6
330
E794
100
AcDbEntity
  8
0
  6
CONTINUOUS
100
AcDbLine
 10
1.405163325666523
 20
-0.0000000000000009
 30
0.0
 11
-0.0000000000000002
 21
1.405163325666523
 31
0.0
  0
LINE
  5
E7A7
330
E794
100
AcDbEntity
  8
0
  6
CONTINUOUS
100
AcDbLine
 10
1.420999999998572
 20
0.6576825347481381
 30
0.0
 11
-0.0000000000000001
 21
2.07868253474671
 31
0.0
  0
LINE
  5
E7A8
330
E794
100
AcDbEntity
  8
0
  6
CONTINUOUS
100
AcDbLine
 10
1.420999999998571
 20
1.331201743828324
 30
0.0
 11
-0.0000000000000001
 21
2.752201743826896
 31
0.0
  0
LINE
  5
E7A9
330
E794
100
AcDbEntity
  8
0
  6
CONTINUOUS
100
AcDbLine
 10
1.420999999998571
 20
2.004720952908511
 30
0.0
 11
-0.0000000000000002
 21
3.425720952907082
 31
0.0
  0
LINE
  5
E7AA
330
E794
100
AcDbEntity
  8
0
  6
CONTINUOUS
100
AcDbLine
 10
1.420999999998571
 20
2.678240161988697
 30
0.0
 11
-0.0000000000000001
 21
4.099240161987269
 31
0.0
  0
LINE
  5
E7AB
330
E794
100
AcDbEntity
  8
0
  6
CONTINUOUS
100
AcDbLine
 10
1.420999999998572
 20
3.351759371068884
 30
0.0
 11
0.0
 21
4.772759371067455
 31
0.0
  0
LINE
  5
E7AC
330
E794
100
AcDbEntity
  8
0
  6
CONTINUOUS
100
AcDbLine
 10
1.420999999998571
 20
4.02527858014907
 30
0.0
 11
-0.0000000000000003
 21
5.446278580147642
 31
0.0
  0
LINE
  5
E7AD
330
E794
100
AcDbEntity
  8
0
  6
CONTINUOUS
100
AcDbLine
 10
1.420999999998571
 20
4.698797789229257
 30
0.0
 11
0.0
 21
6.119797789227828
 31
0.0
  0
LINE
  5
E7AE
330
E794
100
AcDbEntity
  8
0
  6
CONTINUOUS
100
AcDbLine
 10
1.420999999998571
 20
5.372316998309444
 30
0.0
 11
-0.0000000000000001
 21
6.793316998308015
 31
0.0
  0
LINE
  5
E7AF
330
E794
100
AcDbEntity
  8
0
  6
CONTINUOUS
100
AcDbLine
 10
1.420999999998572
 20
6.045836207389629
 30
0.0
 11
-0.0000000000000004
 21
7.466836207388202
 31
0.0
  0
LINE
  5
E7B0
330
E794
100
AcDbEntity
  8
0
  6
CONTINUOUS
100
AcDbLine
 10
1.420999999998571
 20
6.719355416469816
 30
0.0
 11
0.0
 21
8.140355416468388
 31
0.0
  0
LINE
  5
E7B1
330
E794
100
AcDbEntity
  8
0
  6
CONTINUOUS
100
AcDbLine
 10
1.420999999998571
 20
7.392874625550003
 30
0.0
 11
0.0507746255573185
 21
8.763099999991255
 31
0.0
  0
LINE
  5
E7B2
330
E794
100
AcDbEntity
  8
0
  6
CONTINUOUS
100
AcDbLine
 10
1.420999999998571
 20
8.06639383463019
 30
0.0
 11
0.7242938346375052
 21
8.763099999991255
 31
0.0
  0
LINE
  5
E7B3
330
E794
100
AcDbEntity
  8
0
  6
CONTINUOUS
100
AcDbLine
 10
1.420999999998571
 20
8.739913043710375
 30
0.0
 11
1.397813043717691
 21
8.763099999991255
 31
0.0
  0
ENDBLK
  5
E7BF
330
E794
100
AcDbEntity
  8
0
100
AcDbBlockEnd
  0
ENDSEC
  0
SECTION
  2
ENTITIES
  0
LINE
  5
E314
330
18
100
AcDbEntity
  8
01
100
AcDbLine
 10
4747.710529275346
 20
517.6281876669309
 30
0.0000000000563712
 11
4770.338814657776
 21
517.6281876669309
 31
0.0000000000563712
  0
LINE
  5
E315
330
18
100
AcDbEntity
  8
01
  6
BYBLOCK
100
AcDbLine
 10
4848.839582500093
 20
677.6268693538282
 30
0.0000000001127424
 11
5002.593962655124
 21
677.6268693538282
 31
0.0000000001127424
  0
LINE
  5
E316
330
18
100
AcDbEntity
  8
01
100
AcDbLine
 10
4899.838814657776
 20
682.6268693538282
 30
0.0000000001127424
 11
4899.838814657776
 21
656.1268693538282
 31
0.0000000001127424
  0
LINE
  5
E319
330
18
100
AcDbEntity
  8
01
100
AcDbLine
 10
4749.838814657776
 20
637.6281876669309
 30
0.0000000000563712
 11
4749.838814657776
 21
447.6281876669309
 31
0.0000000000563712
  0
LINE
  5
E31A
330
18
100
AcDbEntity
  8
1CENTER
100
AcDbLine
 10
4764.338814657776
 20
502.6281876669309
 30
0.0000000000563712
 11
4764.338814657776
 21
510.6281876669309
 31
0.0000000000563712
  0
LINE
  5
E31B
330
18
100
AcDbEntity
  8
01
100
AcDbLine
 10
4869.838814657776
 20
517.6281876669309
 30
0.0000000000563712
 11
4929.838814657776
 21
517.6281876669309
 31
0.0000000000563712
  0
LINE
  5
E31C
330
18
100
AcDbEntity
  8
01
100
AcDbLine
 10
4899.838814657776
 20
547.6281876669309
 30
0.0000000000563712
 11
4899.838814657776
 21
487.6281876669309
 31
0.0000000000563712
  0
LINE
  5
E31E
330
18
100
AcDbEntity
  8
01
100
AcDbLine
 10
4925.838814657776
 20
544.1281876669291
 30
0.0000000000563712
 11
4873.83881465778
 21
544.1281876669291
 31
0.0000000000563712
  0
LINE
  5
E31F
330
18
100
AcDbEntity
  8
01
100
AcDbLine
 10
4873.83881465778
 20
491.1281876669291
 30
0.0000000000563712
 11
4925.838814657776
 21
491.1281876669291
 31
0.0000000000563712
  0
LINE
  5
E320
330
18
100
AcDbEntity
  8
01
100
AcDbLine
 10
4873.33881465778
 20
543.6281876669291
 30
0.0000000000563712
 11
4873.33881465778
 21
491.6281876669291
 31
0.0000000000563712
  0
ARC
  5
E321
330
18
100
AcDbEntity
  8
01
100
AcDbCircle
 10
4873.83881465778
 20
491.6281876669291
 30
0.0000000000563712
 40
0.5
100
AcDbArc
 50
180.0
 51
270.0
  0
ARC
  5
E322
330
18
100
AcDbEntity
  8
01
100
AcDbCircle
 10
4873.83881465778
 20
543.6281876669291
 30
0.0000000000563712
 40
0.5
100
AcDbArc
 50
90.0
 51
180.0
  0
LINE
  5
E323
330
18
100
AcDbEntity
  8
01
100
AcDbLine
 10
4926.338814657776
 20
543.6281876669291
 30
0.0000000000563712
 11
4926.338814657776
 21
523.1878507525997
 31
0.0000000000563712
  0
ARC
  5
E324
330
18
100
AcDbEntity
  8
01
100
AcDbCircle
 10
4925.838814657776
 20
491.6281876669291
 30
0.0000000000563712
 40
0.5
100
AcDbArc
 50
270.0
 51
0.0
  0
ARC
  5
E325
330
18
100
AcDbEntity
  8
01
100
AcDbCircle
 10
4925.838814657776
 20
543.6281876669291
 30
0.0000000000563712
 40
0.5
100
AcDbArc
 50
0.0
 51
90.0
  0
LINE
  5
E326
330
18
100
AcDbEntity
  8
01
100
AcDbLine
 10
4873.33881465778
 20
677.6268693538282
 30
0.0000000001127424
 11
4926.338814657776
 21
677.6268693538282
 31
0.0000000001127424
  0
LINE
  5
E327
330
18
100
AcDbEntity
  8
01
100
AcDbLine
 10
4873.83881465778
 20
669.1268693538282
 30
0.0000000001127424
 11
4925.838814657776
 21
669.1268693538282
 31
0.0000000001127424
  0
LINE
  5
E328
330
18
100
AcDbEntity
  8
01
100
AcDbLine
 10
4926.338814657776
 20
677.6268693538282
 30
0.0000000001127424
 11
4926.338814657776
 21
669.6268693538282
 31
0.0000000001127424
  0
LINE
  5
E329
330
18
100
AcDbEntity
  8
01
100
AcDbLine
 10
4873.33881465778
 20
677.6268693538282
 30
0.0000000001127424
 11
4873.33881465778
 21
669.6268693538282
 31
0.0000000001127424
  0
ARC
  5
E32A
330
18
100
AcDbEntity
  8
01
100
AcDbCircle
 10
4873.83881465778
 20
669.6268693538282
 30
0.0000000001127424
 40
0.5
100
AcDbArc
 50
180.0
 51
270.0
  0
ARC
  5
E32B
330
18
100
AcDbEntity
  8
01
100
AcDbCircle
 10
4925.838814657776
 20
669.6268693538282
 30
0.0000000001127424
 40
0.5
100
AcDbArc
 50
270.0
 51
0.0
  0
LINE
  5
E32C
330
18
100
AcDbEntity
  8
01
100
AcDbLine
 10
4749.838814657776
 20
491.1281876669318
 30
0.0000000000563712
 11
4749.838814657776
 21
544.1281876669291
 31
0.0000000000563712
  0
LINE
  5
E32D
330
18
100
AcDbEntity
  8
01
100
AcDbLine
 10
4758.338814657776
 20
491.6281876669318
 30
0.0000000000563712
 11
4758.338814657776
 21
543.6281876669291
 31
0.0000000000563712
  0
LINE
  5
E32E
330
18
100
AcDbEntity
  8
01
100
AcDbLine
 10
4749.838814657776
 20
544.1281876669291
 30
0.0000000000563712
 11
4757.838814657776
 21
544.1281876669291
 31
0.0000000000563712
  0
LINE
  5
E32F
330
18
100
AcDbEntity
  8
01
100
AcDbLine
 10
4749.838814657776
 20
491.1281876669318
 30
0.0000000000563712
 11
4757.838814657776
 21
491.1281876669318
 31
0.0000000000563712
  0
ARC
  5
E330
330
18
100
AcDbEntity
  8
01
100
AcDbCircle
 10
4757.838814657776
 20
491.6281876669318
 30
0.0000000000563712
 40
0.5
100
AcDbArc
 50
270.0
 51
0.0
  0
ARC
  5
E331
330
18
100
AcDbEntity
  8
01
100
AcDbCircle
 10
4757.838814657776
 20
543.6281876669291
 30
0.0000000000563712
 40
0.5
100
AcDbArc
 50
0.0
 51
90.0
  0
TEXT
  5
E332
330
18
100
AcDbEntity
  8
1TEXT
100
AcDbText
 10
4749.838814657776
 20
677.6268693538277
 30
0.0
 40
10.0
  1
T9T
 41
1.0171875
100
AcDbText
  0
LINE
  5
E334
330
18
100
AcDbEntity
  8
01
100
AcDbLine
 10
4910.955291938617
 20
504.9025667745136
 30
0.0000000000563712
 11
4889.094286037895
 21
512.1823867594799
 31
0.0000000000563712
  0
LINE
  5
E336
330
18
100
AcDbEntity
  8
01
100
AcDbLine
 10
4889.094286037895
 20
512.1823867594799
 30
0.0000000000563712
 11
4889.067916017275
 21
512.1909430472465
 31
0.0000000000563712
  0
LINE
  5
E338
330
18
100
AcDbEntity
  8
01
100
AcDbLine
 10
4910.955291938615
 20
530.3538085593482
 30
0.0000000000563712
 11
4889.094286038315
 21
523.0739885745215
 31
0.0000000000563712
  0
LINE
  5
E33A
330
18
100
AcDbEntity
  8
01
100
AcDbLine
 10
4889.067916017271
 20
523.0654322866185
 30
0.0000000000563712
 11
4889.094286038317
 21
523.0739885745215
 31
0.0000000000563712
  0
LINE
  5
E33C
330
18
100
AcDbEntity
  8
01
100
AcDbLine
 10
4911.838789862239
 20
529.287849949254
 30
0.0000000000563712
 11
4911.838789862239
 21
523.0531166178766
 31
0.0000000000563712
  0
LINE
  5
E33D
330
18
100
AcDbEntity
  8
01
100
AcDbLine
 10
4911.16807640634
 20
530.2768431051331
 30
0.0000000000563712
 11
4910.955291938615
 21
530.3538085593482
 31
0.0000000000563712
  0
LINE
  5
E33F
330
18
100
AcDbEntity
  8
01
100
AcDbLine
 10
4911.838789862239
 20
505.9685253847319
 30
0.0000000000563712
 11
4911.838789862239
 21
512.2032587159856
 31
0.0000000000563712
  0
LINE
  5
E340
330
18
100
AcDbEntity
  8
01
100
AcDbLine
 10
4910.955291938615
 20
504.9025667745136
 30
0.0000000000563712
 11
4911.168076406379
 21
504.9795322287418
 31
0.0000000000563712
  0
LINE
  5
E342
330
18
100
AcDbEntity
  8
01
100
AcDbLine
 10
4885.83878986224
 20
525.7674329834704
 30
0.0000000000563712
 11
4885.838789862239
 21
521.7498302158692
 31
0.0000000000563712
  0
ARC
  5
E345
330
18
100
AcDbEntity
  8
01
100
AcDbCircle
 10
4889.076341638649
 20
539.0535119694814
 30
0.0000000000563712
 40
17.51475030036835
100
AcDbArc
 50
266.712768705312
 51
269.222876073268
  0
LINE
  5
E346
330
18
100
AcDbEntity
  8
01
100
AcDbLine
 10
4888.838789862239
 20
521.5403726952741
 30
0.0000000000563712
 11
5020.838789862239
 21
518.8090488591652
 31
0.0000000000563712
  0
LINE
  5
E348
330
18
100
AcDbEntity
  8
01
100
AcDbLine
 10
5023.838789862239
 20
519.2683488184648
 30
0.0000000000563712
 11
5023.838789862239
 21
523.0802593810295
 31
0.0000000000563712
  0
LINE
  5
E349
330
18
100
AcDbEntity
  8
01
100
AcDbLine
 10
5023.838789862239
 20
512.1761159528323
 30
0.0000000000563712
 11
5023.838789862239
 21
515.988026515397
 31
0.0000000000563712
  0
LINE
  5
E34B
330
18
100
AcDbEntity
  8
01
100
AcDbLine
 10
5020.838789862239
 20
516.4473264746971
 30
0.0000000000563712
 11
4888.838789862239
 21
513.7160026385873
 31
0.0000000000563712
  0
ARC
  5
E34C
330
18
100
AcDbEntity
  8
01
100
AcDbCircle
 10
4889.076341638649
 20
496.2028633643786
 30
0.0000000000563712
 40
17.51475030036995
100
AcDbArc
 50
90.77712392673203
 51
93.28723129468801
  0
LINE
  5
E34F
330
18
100
AcDbEntity
  8
01
100
AcDbLine
 10
4885.838789862239
 20
513.5065451179921
 30
0.0000000000563712
 11
4885.83878986224
 21
509.488942350391
 31
0.0000000000563712
  0
LINE
  5
E350
330
18
100
AcDbEntity
  8
01
100
AcDbLine
 10
4910.394699949793
 20
530.4060199880905
 30
0.0000000000563712
 11
4886.68715766543
 21
526.7587057904966
 31
0.0000000000563712
  0
LINE
  5
E351
330
18
100
AcDbEntity
  8
01
100
AcDbLine
 10
5023.838789862239
 20
515.988026515397
 30
0.0000000000563712
 11
5023.838789862239
 21
519.2683488184648
 31
0.0000000000563712
  0
LINE
  5
E352
330
18
100
AcDbEntity
  8
01
100
AcDbLine
 10
4885.838789862239
 20
521.7498302158692
 30
0.0000000000563712
 11
4885.838789862239
 21
513.5065451179921
 31
0.0000000000563712
  0
LINE
  5
E353
330
18
100
AcDbEntity
  8
01
100
AcDbLine
 10
4886.68715766543
 20
508.4976695433652
 30
0.0000000000563712
 11
4910.394699949795
 21
504.8503553457713
 31
0.0000000000563712
  0
ELLIPSE
  5
E354
330
18
100
AcDbEntity
  8
01
100
AcDbEllipse
 10
4886.83878986224
 20
525.7674329834704
 30
0.0000000000563712
 11
-2.178789743915240E-13
 21
-1.002868994438701
 31
0.0
210
0.0
220
0.0
230
-1.0
 40
0.9971392131428821
 41
1.57079632679468
 42
2.989373298454157
  0
ELLIPSE
  5
E355
330
18
100
AcDbEntity
  8
01
100
AcDbEllipse
 10
4886.83878986224
 20
509.488942350391
 30
0.0000000000563712
 11
1.871159528430565E-13
 21
-1.002868994438701
 31
0.0
210
0.0
220
0.0
230
1.0
 40
0.9971392131428819
 41
4.712388980384502
 42
6.130965952044095
  0
ARC
  5
E357
330
18
100
AcDbEntity
  8
01
100
AcDbCircle
 10
5022.836869977744
 20
512.1743279649313
 30
0.0000000000563712
 40
1.001921479881762
100
AcDbArc
 50
269.7023169156238
 51
0.1022477477154856
  0
ARC
  5
E358
330
18
100
AcDbEntity
  8
01
100
AcDbCircle
 10
5022.836869977742
 20
523.0820473689291
 30
0.0000000000563712
 40
1.00192147988356
100
AcDbArc
 50
359.8977522523887
 51
90.29768308427197
  0
LINE
  5
E359
330
18
100
AcDbEntity
  8
01
100
AcDbLine
 10
4889.5166482149
 20
522.8458867178342
 30
0.0000000000563712
 11
5022.831721181261
 21
524.0839714002591
 31
0.0000000000563712
  0
LINE
  5
E35A
330
18
100
AcDbEntity
  8
01
100
AcDbLine
 10
5022.831721401355
 20
511.1724039315559
 30
0.0000000000563712
 11
4889.5166482149
 21
512.4104924307248
 31
0.0000000000563712
  0
LINE
  5
E35D
330
18
100
AcDbEntity
  8
01
100
AcDbLine
 10
4758.838816503346
 20
525.7674729268265
 30
0.0000000000563712
 11
4811.838816854575
 21
521.749874792632
 31
0.0000000000563712
  0
ARC
  5
E35E
330
18
100
AcDbEntity
  8
01
100
AcDbCircle
 10
4813.302809465607
 20
550.693650877869
 30
0.0000000000563712
 40
28.98077722279882
100
AcDbArc
 50
267.1044146413484
 51
268.1014322526931
  0
ARC
  5
E363
330
18
100
AcDbEntity
  8
01
100
AcDbCircle
 10
4813.302813998932
 20
484.5628385625132
 30
0.0000000000563712
 40
28.98075249426445
100
AcDbArc
 50
91.89857691711943
 51
92.89559537889782
  0
LINE
  5
E364
330
18
100
AcDbEntity
  8
01
100
AcDbLine
 10
4811.838817575226
 20
513.5065896947553
 30
0.0000000000563712
 11
4758.838817926457
 21
509.4889822937466
 31
0.0000000000563712
  0
LINE
  5
E365
330
18
100
AcDbEntity
  8
01
100
AcDbLine
 10
4758.83881717527
 20
530.426746563885
 30
0.0000000000563712
 11
4758.838812140297
 21
504.8297054666491
 31
0.0000000000563712
  0
LINE
  5
E366
330
18
100
AcDbEntity
  8
01
100
AcDbLine
 10
4814.838817004021
 20
521.540417403171
 30
0.0000000000563712
 11
4814.838817688049
 21
513.7160473464846
 31
0.0000000000563712
  0
ARC
  5
E368
330
18
100
AcDbEntity
  8
01
100
AcDbCircle
 10
4813.10592628498
 20
515.7145035197682
 30
0.0000000000563712
 40
3.132483113655846
100
AcDbArc
 50
282.8930415923645
 51
288.2052046970687
  0
ARC
  5
E36B
330
18
100
AcDbEntity
  8
01
100
AcDbCircle
 10
4813.104809846218
 20
519.5379400847769
 30
0.0000000000563712
 40
3.136651429276243
100
AcDbArc
 50
71.79850107829537
 51
77.10341996754961
  0
LINE
  5
E36C
330
18
100
AcDbEntity
  8
01
100
AcDbLine
 10
4813.801307148897
 20
522.596191519403
 30
0.0000000000563712
 11
4812.834182448807
 21
522.8182915655243
 31
0.0000000000563712
  0
LINE
  5
E36D
330
18
100
AcDbEntity
  8
01
100
AcDbLine
 10
4813.80130780986
 20
512.6602730875638
 30
0.0000000000563712
 11
4812.834258071943
 21
512.4381899939517
 31
0.0000000000563712
  0
LINE
  5
E36E
330
18
100
AcDbEntity
  8
01
100
AcDbLine
 10
4810.453821999006
 20
523.1543723546711
 30
0.0000000000563712
 11
4810.391962356922
 21
523.1630334277252
 31
0.0000000000563712
  0
LINE
  5
E370
330
18
100
AcDbEntity
  8
01
100
AcDbLine
 10
4758.83881717527
 20
530.426746563885
 30
0.0000000000563712
 11
4810.391966177896
 21
523.1630328892807
 31
0.0000000000563712
  0
LINE
  5
E371
330
18
100
AcDbEntity
  8
01
100
AcDbLine
 10
4810.39196688387
 20
512.0934310496887
 30
0.0000000000563712
 11
4810.45378774959
 21
512.1020866932076
 31
0.0000000000563712
  0
LINE
  5
E372
330
18
100
AcDbEntity
  8
01
100
AcDbLine
 10
4812.834258671821
 20
512.4381901317129
 30
0.0000000000563712
 11
4812.802891804209
 21
512.4311062035395
 31
0.0000000000563712
  0
LINE
  5
E374
330
18
100
AcDbEntity
  8
01
100
AcDbLine
 10
4758.838812140297
 20
504.8297054666491
 30
0.0000000000563712
 11
4810.391967850188
 21
512.0934311860001
 31
0.0000000000563712
  0
LINE
  5
E377
330
18
100
AcDbEntity
  8
01
100
AcDbLine
 10
4910.394724745325
 20
668.6268695273093
 30
0.0000000001127424
 11
4888.614833078896
 21
617.1511567146395
 31
0.0000000001127424
  0
LINE
  5
E379
330
18
100
AcDbEntity
  8
01
100
AcDbLine
 10
4888.588690211662
 20
617.0893526921354
 30
0.0000000001127424
 11
4888.614833078895
 21
617.1511567146381
 31
0.0000000001127424
  0
LINE
  5
E37A
330
18
100
AcDbEntity
  8
01
100
AcDbLine
 10
4889.656121411135
 20
614.6593387884791
 30
0.0000000001127424
 11
4889.543116716361
 21
614.6459150198098
 31
0.0000000001127424
  0
LINE
  5
E37B
330
18
100
AcDbEntity
  8
01
100
AcDbLine
 10
4911.838814657769
 20
668.6268695435601
 30
0.0000000001127424
 11
4911.838814657771
 21
641.5383813591902
 31
0.0000000001127424
  0
ARC
  5
E37C
330
18
100
AcDbEntity
  8
01
100
AcDbCircle
 10
4916.081918874721
 20
640.7960546992863
 30
0.0000000001127424
 40
4.207157798564817
100
AcDbArc
 50
192.0191655653279
 51
254.0475091110439
  0
LINE
  5
E37D
330
18
100
AcDbEntity
  8
01
100
AcDbLine
 10
4911.838814657769
 20
668.6268695435601
 30
0.0000000001127424
 11
4885.838814657771
 21
668.6268691324744
 31
0.0000000001127424
  0
LINE
  5
E37E
330
18
100
AcDbEntity
  8
01
100
AcDbLine
 10
4885.838814657771
 20
668.6268691324744
 30
0.0000000001127424
 11
4885.838814657771
 21
615.6268699056845
 31
0.0000000001127424
  0
ARC
  5
E37F
330
18
100
AcDbEntity
  8
01
100
AcDbCircle
 10
4888.840589385325
 20
615.6270200065446
 30
0.0000000001127424
 40
3.001774731307769
100
AcDbArc
 50
180.002865020378
 51
189.6658580349467
  0
ARC
  5
E380
330
18
100
AcDbEntity
  8
01
100
AcDbCircle
 10
4888.83882265142
 20
615.6268772220351
 30
0.0000000001127424
 40
3.000009108742662
100
AcDbArc
 50
189.6688351265561
 51
255.1913208272755
  0
ARC
  5
E381
330
18
100
AcDbEntity
  8
01
100
AcDbCircle
 10
4888.839353589332
 20
615.6310170651077
 30
0.0000000001127424
 40
3.004147198609147
100
AcDbArc
 50
255.2017115487261
 51
269.9897213744634
  0
LINE
  5
E382
330
18
100
AcDbEntity
  8
01
100
AcDbLine
 10
4888.838814657771
 20
612.62686991484
 30
0.0000000001127424
 11
5020.838814657771
 21
612.6268700342298
 31
0.0000000001127424
  0
ARC
  5
E383
330
18
100
AcDbEntity
  8
01
100
AcDbCircle
 10
5020.838766136911
 20
615.6269185550896
 30
0.0000000001127424
 40
3.00004852125248
100
AcDbArc
 50
270.0009266651966
 51
359.999072951168
  0
LINE
  5
E384
330
18
100
AcDbEntity
  8
01
100
AcDbLine
 10
5023.838814657771
 20
615.6268700141532
 30
0.0000000001127424
 11
5023.838814657771
 21
633.644567884443
 31
0.0000000001127424
  0
LINE
  5
E385
330
18
100
AcDbEntity
  8
01
100
AcDbLine
 10
4889.656121411135
 20
614.6593387884791
 30
0.0000000001127424
 11
5023.838814657769
 21
630.7282441780126
 31
0.0000000001127424
  0
LINE
  5
E386
330
18
100
AcDbEntity
  8
01
100
AcDbLine
 10
4916.749543175685
 20
636.5391784361509
 30
0.0000000001127424
 11
5022.856668954186
 21
634.644408293495
 31
0.0000000001127424
  0
ARC
  5
E387
330
18
100
AcDbEntity
  8
01
100
AcDbCircle
 10
5022.838814657771
 20
633.6445676941494
 30
0.0000000001127424
 40
0.9999999999999953
100
AcDbArc
 50
6.844383495296855
 51
88.97696981139067
  0
ARC
  5
E388
330
18
100
AcDbEntity
  8
01
100
AcDbCircle
 10
5022.838817079099
 20
633.644567884443
 30
0.0000000001127424
 40
0.9999975786725184
100
AcDbArc
 50
359.9999925205698
 51
6.844389190702141
  0
LINE
  5
E389
330
18
100
AcDbEntity
  8
01
100
AcDbLine
 10
4916.749543167405
 20
636.5391784362992
 30
0.0000000001127424
 11
4916.751535984889
 21
636.5391428502703
 31
0.0000000001127424
  0
LINE
  5
E38A
330
18
100
AcDbEntity
  8
01
100
AcDbLine
 10
5022.856668954186
 20
634.644408293495
 30
0.0000000001127424
 11
5022.854668961934
 21
634.644444007642
 31
0.0000000001127424
  0
LINE
  5
E453
330
18
100
AcDbEntity
  8
01
100
AcDbLine
 10
4926.338814657777
 20
512.0685273423237
 30
0.0000000000563712
 11
4926.338814657776
 21
491.6281876669291
 31
0.0000000000563712
  0
LINE
  5
E501
330
18
100
AcDbEntity
  8
01
100
AcDbLine
 10
4873.83881465778
 20
544.1281876669291
 30
0.0
 11
4863.538814657776
 21
544.1281876669292
 31
0.0
1001
ACAD
1000
DSTYLE
1002
{
1070
     3
1000
□<>
1070
    40
1040
1.3
1070
    45
1040
0.5
1002
}
  0
LINE
  5
E502
330
18
100
AcDbEntity
  8
01
100
AcDbLine
 10
4873.83881465778
 20
491.1281876669291
 30
0.0
 11
4863.538814657776
 21
491.1281876669291
 31
0.0
1001
ACAD
1000
DSTYLE
1002
{
1070
     3
1000
□<>
1070
    40
1040
1.3
1070
    45
1040
0.5
1002
}
  0
LINE
  5
E503
330
18
100
AcDbEntity
  8
01
100
AcDbLine
 10
4864.838814657776
 20
541.528187666929
 30
0.0
 11
4864.838814657776
 21
493.7281876669291
 31
0.0
1001
ACAD
1000
DSTYLE
1002
{
1070
     3
1000
□<>
1070
    40
1040
1.3
1070
    45
1040
0.5
1002
}
  0
LINE
  5
E507
330
18
100
AcDbEntity
  8
01
100
AcDbLine
 10
4888.554490011775
 20
512.4006962881467
 30
0.0
 11
4888.428437155329
 21
512.3831639395139
 31
0.0
  0
LINE
  5
E508
330
18
100
AcDbEntity
  8
01
100
AcDbLine
 10
4888.428437155329
 20
512.3831639395139
 30
0.0
 11
4888.410752218806
 21
512.3630070791623
 31
0.0
  0
LINE
  5
E509
330
18
100
AcDbEntity
  8
01
100
AcDbLine
 10
4888.410752218806
 20
512.3630070791623
 30
0.0
 11
4888.4580544649
 21
512.3426976309202
 31
0.0
  0
LINE
  5
E50A
330
18
100
AcDbEntity
  8
01
100
AcDbLine
 10
4888.4580544649
 20
512.3426976309202
 30
0.0
 11
4888.536194723689
 21
512.3220372305295
 31
0.0
  0
LINE
  5
E50B
330
18
100
AcDbEntity
  8
01
100
AcDbLine
 10
4888.536194723689
 20
512.3220372305295
 30
0.0
 11
4888.630188864314
 21
512.3004613027952
 31
0.0
  0
LINE
  5
E50C
330
18
100
AcDbEntity
  8
01
100
AcDbLine
 10
4888.630188864314
 20
512.3004613027952
 30
0.0
 11
4888.732743185603
 21
512.2776036367795
 31
0.0
  0
LINE
  5
E50D
330
18
100
AcDbEntity
  8
01
100
AcDbLine
 10
4888.732743185603
 20
512.2776036367795
 30
0.0
 11
4888.839600485408
 21
512.2529149160764
 31
0.0
  0
LINE
  5
E50E
330
18
100
AcDbEntity
  8
01
100
AcDbLine
 10
4888.839600485408
 20
512.2529149160764
 30
0.0
 11
4888.94763271197
 21
512.2257390127561
 31
0.0
  0
LINE
  5
E50F
330
18
100
AcDbEntity
  8
01
100
AcDbLine
 10
4888.94763271197
 20
512.2257390127561
 30
0.0
 11
4889.06791774615
 21
512.1909489736936
 31
0.0
  0
LINE
  5
E510
330
18
100
AcDbEntity
  8
01
100
AcDbLine
 10
4910.394699972712
 20
504.8503575430295
 30
0.0
 11
4910.619919699275
 21
504.8298802481077
 31
0.0
  0
LINE
  5
E511
330
18
100
AcDbEntity
  8
01
100
AcDbLine
 10
4910.619919699275
 20
504.8298802481077
 30
0.0
 11
4910.955292624079
 21
504.9025731192014
 31
0.0
  0
LINE
  5
E512
330
18
100
AcDbEntity
  8
01
100
AcDbLine
 10
4888.553833883845
 20
522.8557133779905
 30
0.0
 11
4888.428299826228
 21
522.8732457266233
 31
0.0
  0
LINE
  5
E513
330
18
100
AcDbEntity
  8
01
100
AcDbLine
 10
4888.428299826228
 20
522.8732457266233
 30
0.0
 11
4888.410782736384
 21
522.8933720693967
 31
0.0
  0
LINE
  5
E514
330
18
100
AcDbEntity
  8
01
100
AcDbLine
 10
4888.410782736384
 20
522.8933720693967
 30
0.0
 11
4888.457978170954
 21
522.9136662588498
 31
0.0
  0
LINE
  5
E515
330
18
100
AcDbEntity
  8
01
100
AcDbLine
 10
4888.457978170954
 20
522.9136662588498
 30
0.0
 11
4888.536087912165
 21
522.9343114004514
 31
0.0
  0
LINE
  5
E516
330
18
100
AcDbEntity
  8
01
100
AcDbLine
 10
4888.536087912165
 20
522.9343114004514
 30
0.0
 11
4888.629898947322
 21
522.9558720693967
 31
0.0
  0
LINE
  5
E517
330
18
100
AcDbEntity
  8
01
100
AcDbLine
 10
4888.629898947322
 20
522.9558720693967
 30
0.0
 11
4888.732514303767
 21
522.9787297354123
 31
0.0
  0
LINE
  5
E518
330
18
100
AcDbEntity
  8
01
100
AcDbLine
 10
4888.732514303767
 20
522.9787297354123
 30
0.0
 11
4888.839325827204
 21
523.0033879385373
 31
0.0
  0
LINE
  5
E519
330
18
100
AcDbEntity
  8
01
100
AcDbLine
 10
4888.839325827204
 20
523.0033879385373
 30
0.0
 11
4888.947220724665
 21
523.0305180654905
 31
0.0
  0
LINE
  5
E51A
330
18
100
AcDbEntity
  8
01
100
AcDbLine
 10
4888.947220724665
 20
523.0305180654905
 30
0.0
 11
4889.06791774615
 21
523.0654301748655
 31
0.0
  0
LINE
  5
E51B
330
18
100
AcDbEntity
  8
01
100
AcDbLine
 10
4910.394699972712
 20
530.4060216055295
 30
0.0
 11
4910.619919699275
 21
530.4264989004514
 31
0.0
  0
LINE
  5
E51C
330
18
100
AcDbEntity
  8
01
100
AcDbLine
 10
4910.619919699275
 20
530.4264989004514
 30
0.0
 11
4910.955292624079
 21
530.3538060293577
 31
0.0
  0
LINE
  5
E51D
330
18
100
AcDbEntity
  8
01
100
AcDbLine
 10
4911.838791769587
 20
529.2878575430295
 30
0.0
 11
4911.816269796931
 21
529.6021275625608
 31
0.0
  0
LINE
  5
E51E
330
18
100
AcDbEntity
  8
01
100
AcDbLine
 10
4911.816269796931
 20
529.6021275625608
 30
0.0
 11
4911.701950949275
 21
529.8945164785764
 31
0.0
  0
LINE
  5
E51F
330
18
100
AcDbEntity
  8
01
100
AcDbLine
 10
4911.701950949275
 20
529.8945164785764
 30
0.0
 11
4911.486908835017
 21
530.1228795156858
 31
0.0
  0
LINE
  5
E520
330
18
100
AcDbEntity
  8
01
100
AcDbLine
 10
4911.486908835017
 20
530.1228795156858
 30
0.0
 11
4911.168076437556
 21
530.2768406973264
 31
0.0
  0
LINE
  5
E521
330
18
100
AcDbEntity
  8
01
100
AcDbLine
 10
4911.168076437556
 20
504.9795384512327
 30
0.0
 11
4911.454117697322
 21
505.1111455068967
 31
0.0
  0
LINE
  5
E522
330
18
100
AcDbEntity
  8
01
100
AcDbLine
 10
4911.454117697322
 20
505.1111455068967
 30
0.0
 11
4911.680039328181
 21
505.3287816152952
 31
0.0
  0
LINE
  5
E523
330
18
100
AcDbEntity
  8
01
100
AcDbLine
 10
4911.680039328181
 20
505.3287816152952
 30
0.0
 11
4911.807648581111
 21
505.615372191467
 31
0.0
  0
LINE
  5
E524
330
18
100
AcDbEntity
  8
01
100
AcDbLine
 10
4911.807648581111
 20
505.615372191467
 30
0.0
 11
4911.838791769587
 21
505.9685216055295
 31
0.0
  0
LINE
  5
E525
330
18
100
AcDbEntity
  8
01
100
AcDbLine
 10
4885.838791769587
 20
521.7498326406858
 30
0.0
 11
4885.881409567439
 21
521.7287449942014
 31
0.0
  0
LINE
  5
E526
330
18
100
AcDbEntity
  8
01
100
AcDbLine
 10
4885.881409567439
 20
521.7287449942014
 30
0.0
 11
4886.072556418025
 21
521.7125706777952
 31
0.0
  0
LINE
  5
E527
330
18
100
AcDbEntity
  8
01
100
AcDbLine
 10
4886.072556418025
 20
521.7125706777952
 30
0.0
 11
4886.407380026423
 21
521.6959538565061
 31
0.0
  0
LINE
  5
E528
330
18
100
AcDbEntity
  8
01
100
AcDbLine
 10
4886.407380026423
 20
521.6959538565061
 30
0.0
 11
4886.867676657283
 21
521.6636357412717
 31
0.0
  0
LINE
  5
E529
330
18
100
AcDbEntity
  8
01
100
AcDbLine
 10
4886.867676657283
 20
521.6636357412717
 30
0.0
 11
4887.428345602595
 21
521.6153264150998
 31
0.0
  0
LINE
  5
E52A
330
18
100
AcDbEntity
  8
01
100
AcDbLine
 10
4887.428345602595
 20
521.6153264150998
 30
0.0
 11
4888.072022360408
 21
521.5675816641233
 31
0.0
  0
LINE
  5
E52B
330
18
100
AcDbEntity
  8
01
100
AcDbLine
 10
5020.838776510798
 20
518.8090520010373
 30
0.0
 11
5021.503113669001
 21
518.8123173818967
 31
0.0
  0
LINE
  5
E52C
330
18
100
AcDbEntity
  8
01
100
AcDbLine
 10
5021.503113669001
 20
518.8123173818967
 30
0.0
 11
5022.134430807673
 21
518.8402714834592
 31
0.0
  0
LINE
  5
E52D
330
18
100
AcDbEntity
  8
01
100
AcDbLine
 10
5022.134430807673
 20
518.8402714834592
 30
0.0
 11
5022.701447409236
 21
518.8915562734983
 31
0.0
  0
LINE
  5
E52E
330
18
100
AcDbEntity
  8
01
100
AcDbLine
 10
5022.701447409236
 20
518.8915562734983
 30
0.0
 11
5023.175965231501
 21
518.9635930166623
 31
0.0
  0
LINE
  5
E52F
330
18
100
AcDbEntity
  8
01
100
AcDbLine
 10
5023.175965231501
 20
518.9635930166623
 30
0.0
 11
5023.534424704158
 21
519.0528111563108
 31
0.0
  0
LINE
  5
E530
330
18
100
AcDbEntity
  8
01
100
AcDbLine
 10
5023.534424704158
 20
519.0528111563108
 30
0.0
 11
5023.759064596736
 21
519.1547856436155
 31
0.0
  0
LINE
  5
E531
330
18
100
AcDbEntity
  8
01
100
AcDbLine
 10
5023.759064596736
 20
519.1547856436155
 30
0.0
 11
5023.838776510798
 21
519.2683415518186
 31
0.0
  0
LINE
  5
E532
330
18
100
AcDbEntity
  8
01
100
AcDbLine
 10
5020.838776510798
 20
516.4473271475217
 30
0.0
 11
5021.503113669001
 21
516.4440617666623
 31
0.0
  0
LINE
  5
E533
330
18
100
AcDbEntity
  8
01
100
AcDbLine
 10
5021.503113669001
 20
516.4440617666623
 30
0.0
 11
5022.134430807673
 21
516.4160924063108
 31
0.0
  0
LINE
  5
E534
330
18
100
AcDbEntity
  8
01
100
AcDbLine
 10
5022.134430807673
 20
516.4160924063108
 30
0.0
 11
5022.701447409236
 21
516.3648228750608
 31
0.0
  0
LINE
  5
E535
330
18
100
AcDbEntity
  8
01
100
AcDbLine
 10
5022.701447409236
 20
516.3648228750608
 30
0.0
 11
5023.175965231501
 21
516.2927861318967
 31
0.0
  0
LINE
  5
E536
330
18
100
AcDbEntity
  8
01
100
AcDbLine
 10
5023.175965231501
 20
516.2927861318967
 30
0.0
 11
5023.534424704158
 21
516.2035679922483
 31
0.0
  0
LINE
  5
E537
330
18
100
AcDbEntity
  8
01
100
AcDbLine
 10
5023.534424704158
 20
516.2035679922483
 30
0.0
 11
5023.759064596736
 21
516.1015935049436
 31
0.0
  0
LINE
  5
E538
330
18
100
AcDbEntity
  8
01
100
AcDbLine
 10
5023.759064596736
 20
516.1015935049436
 30
0.0
 11
5023.838776510798
 21
515.9880223379514
 31
0.0
  0
LINE
  5
E539
330
18
100
AcDbEntity
  8
01
100
AcDbLine
 10
4885.881409567439
 20
513.5276341543577
 30
0.0
 11
4886.072556418025
 21
513.5438084707639
 31
0.0
  0
LINE
  5
E53A
330
18
100
AcDbEntity
  8
01
100
AcDbLine
 10
4886.072556418025
 20
513.5438084707639
 30
0.0
 11
4886.407380026423
 21
513.560425292053
 31
0.0
  0
LINE
  5
E53B
330
18
100
AcDbEntity
  8
01
100
AcDbLine
 10
4886.407380026423
 20
513.560425292053
 30
0.0
 11
4886.867676657283
 21
513.5927281484983
 31
0.0
  0
LINE
  5
E53C
330
18
100
AcDbEntity
  8
01
100
AcDbLine
 10
4886.867676657283
 20
513.5927281484983
 30
0.0
 11
4887.428345602595
 21
513.6410527334592
 31
0.0
  0
LINE
  5
E53D
330
18
100
AcDbEntity
  8
01
100
AcDbLine
 10
4887.428345602595
 20
513.6410527334592
 30
0.0
 11
4888.072022360408
 21
513.6887974844358
 31
0.0
  0
LINE
  5
E53E
330
18
100
AcDbEntity
  8
01
100
AcDbLine
 10
4885.838791769587
 20
513.5065465078733
 30
0.0
 11
4885.881409567439
 21
513.5276341543577
 31
0.0
  0
LINE
  5
E53F
330
18
100
AcDbEntity
  8
01
100
AcDbLine
 10
4899.793305319392
 20
506.642227660217
 30
0.0
 11
4899.087220114314
 21
506.7565007315061
 31
0.0
  0
LINE
  5
E540
330
18
100
AcDbEntity
  8
01
100
AcDbLine
 10
4899.087220114314
 20
506.7565007315061
 30
0.0
 11
4898.411850851619
 21
506.8769841299436
 31
0.0
  0
LINE
  5
E541
330
18
100
AcDbEntity
  8
01
100
AcDbLine
 10
4898.411850851619
 20
506.8769841299436
 30
0.0
 11
4897.797043722712
 21
506.9984746084592
 31
0.0
  0
LINE
  5
E542
330
18
100
AcDbEntity
  8
01
100
AcDbLine
 10
4897.797043722712
 20
506.9984746084592
 30
0.0
 11
4897.268814962947
 21
507.1157078848264
 31
0.0
  0
LINE
  5
E543
330
18
100
AcDbEntity
  8
01
100
AcDbLine
 10
4897.268814962947
 20
507.1157078848264
 30
0.0
 11
4896.851105612361
 21
507.2234807119748
 31
0.0
  0
LINE
  5
E544
330
18
100
AcDbEntity
  8
01
100
AcDbLine
 10
4896.851105612361
 20
507.2234807119748
 30
0.0
 11
4896.561341208064
 21
507.3172001943967
 31
0.0
  0
LINE
  5
E545
330
18
100
AcDbEntity
  8
01
100
AcDbLine
 10
4896.561341208064
 20
507.3172001943967
 30
0.0
 11
4896.412751120173
 21
507.3926701650998
 31
0.0
  0
LINE
  5
E546
330
18
100
AcDbEntity
  8
01
100
AcDbLine
 10
4896.412751120173
 20
507.3926701650998
 30
0.0
 11
4896.41149989947
 21
507.4466862783811
 31
0.0
  0
LINE
  5
E547
330
18
100
AcDbEntity
  8
01
100
AcDbLine
 10
4896.41149989947
 20
507.4466862783811
 30
0.0
 11
4896.557587545954
 21
507.4768681631467
 31
0.0
  0
LINE
  5
E548
330
18
100
AcDbEntity
  8
01
100
AcDbLine
 10
4896.557587545954
 20
507.4768681631467
 30
0.0
 11
4896.845063131892
 21
507.4818577871702
 31
0.0
  0
LINE
  5
E549
330
18
100
AcDbEntity
  8
01
100
AcDbLine
 10
4896.845063131892
 20
507.4818577871702
 30
0.0
 11
4897.260697287165
 21
507.461548338928
 31
0.0
  0
LINE
  5
E54A
330
18
100
AcDbEntity
  8
01
100
AcDbLine
 10
4897.260697287165
 20
507.461548338928
 30
0.0
 11
4897.787217062556
 21
507.416641722717
 31
0.0
  0
LINE
  5
E54B
330
18
100
AcDbEntity
  8
01
100
AcDbLine
 10
4897.787217062556
 20
507.416641722717
 30
0.0
 11
4898.400788229548
 21
507.3493199453733
 31
0.0
  0
LINE
  5
E54C
330
18
100
AcDbEntity
  8
01
100
AcDbLine
 10
4898.400788229548
 20
507.3493199453733
 30
0.0
 11
4899.075409811579
 21
507.2622990713498
 31
0.0
  0
LINE
  5
E54D
330
18
100
AcDbEntity
  8
01
100
AcDbLine
 10
4899.075409811579
 20
507.2622990713498
 30
0.0
 11
4899.781159323298
 21
507.159561644592
 31
0.0
  0
LINE
  5
E54E
330
18
100
AcDbEntity
  8
01
100
AcDbLine
 10
4899.781159323298
 20
507.159561644592
 30
0.0
 11
4900.487442892634
 21
507.0454411611936
 31
0.0
  0
LINE
  5
E54F
330
18
100
AcDbEntity
  8
01
100
AcDbLine
 10
4900.487442892634
 20
507.0454411611936
 30
0.0
 11
4901.163636129939
 21
506.9250035391233
 31
0.0
  0
LINE
  5
E550
330
18
100
AcDbEntity
  8
01
100
AcDbLine
 10
4901.163636129939
 20
506.9250035391233
 30
0.0
 11
4901.779740255915
 21
506.8034978018186
 31
0.0
  0
LINE
  5
E551
330
18
100
AcDbEntity
  8
01
100
AcDbLine
 10
4901.779740255915
 20
506.8034978018186
 30
0.0
 11
4902.309647482478
 21
506.6861424551389
 31
0.0
  0
LINE
  5
E552
330
18
100
AcDbEntity
  8
01
100
AcDbLine
 10
4902.309647482478
 20
506.6861424551389
 30
0.0
 11
4902.729386252009
 21
506.5781712637327
 31
0.0
  0
LINE
  5
E553
330
18
100
AcDbEntity
  8
01
100
AcDbLine
 10
4902.729386252009
 20
506.5781712637327
 30
0.0
 11
4903.021454733454
 21
506.4841771231077
 31
0.0
  0
LINE
  5
E554
330
18
100
AcDbEntity
  8
01
100
AcDbLine
 10
4903.021454733454
 20
506.4841771231077
 30
0.0
 11
4903.172547262751
 21
506.4083562002561
 31
0.0
  0
LINE
  5
E555
330
18
100
AcDbEntity
  8
01
100
AcDbLine
 10
4903.172547262751
 20
506.4083562002561
 30
0.0
 11
4903.17631618365
 21
506.3539586172483
 31
0.0
  0
LINE
  5
E556
330
18
100
AcDbEntity
  8
01
100
AcDbLine
 10
4903.17631618365
 20
506.3539586172483
 30
0.0
 11
4903.032730978572
 21
506.3233494863889
 31
0.0
  0
LINE
  5
E557
330
18
100
AcDbEntity
  8
01
100
AcDbLine
 10
4903.032730978572
 20
506.3233494863889
 30
0.0
 11
4902.747559469783
 21
506.3179326162717
 31
0.0
  0
LINE
  5
E558
330
18
100
AcDbEntity
  8
01
100
AcDbLine
 10
4902.747559469783
 20
506.3179326162717
 30
0.0
 11
4902.333985251033
 21
506.3378148184202
 31
0.0
  0
LINE
  5
E559
330
18
100
AcDbEntity
  8
01
100
AcDbLine
 10
4902.333985251033
 20
506.3378148184202
 30
0.0
 11
4901.809159201228
 21
506.3823094473264
 31
0.0
  0
LINE
  5
E55A
330
18
100
AcDbEntity
  8
01
100
AcDbLine
 10
4901.809159201228
 20
506.3823094473264
 30
0.0
 11
4901.196885031306
 21
506.4492802725217
 31
0.0
  0
LINE
  5
E55B
330
18
100
AcDbEntity
  8
01
100
AcDbLine
 10
4901.196885031306
 20
506.4492802725217
 30
0.0
 11
4900.523102682673
 21
506.5359807119748
 31
0.0
  0
LINE
  5
E55C
330
18
100
AcDbEntity
  8
01
100
AcDbLine
 10
4900.523102682673
 20
506.5359807119748
 30
0.0
 11
4899.793305319392
 21
506.642227660217
 31
0.0
  0
LINE
  5
E55D
330
18
100
AcDbEntity
  8
01
100
AcDbLine
 10
4889.5166482149
 20
522.8458867178342
 30
0.0
 11
4889.405182760798
 21
522.8449406729123
 31
0.0
  0
LINE
  5
E55E
330
18
100
AcDbEntity
  8
01
100
AcDbLine
 10
4889.405182760798
 20
522.8449406729123
 30
0.0
 11
4889.293442648494
 21
522.8441472158811
 31
0.0
  0
LINE
  5
E55F
330
18
100
AcDbEntity
  8
01
100
AcDbLine
 10
4889.293442648494
 20
522.8441472158811
 30
0.0
 11
4889.181565207087
 21
522.843628417053
 31
0.0
  0
LINE
  5
E560
330
18
100
AcDbEntity
  8
01
100
AcDbLine
 10
4889.181565207087
 20
522.843628417053
 30
0.0
 11
4889.069489401423
 21
522.8435063467405
 31
0.0
  0
LINE
  5
E561
330
18
100
AcDbEntity
  8
01
100
AcDbLine
 10
4889.069489401423
 20
522.8435063467405
 30
0.0
 11
4888.957215231501
 21
522.8439335928342
 31
0.0
  0
LINE
  5
E562
330
18
100
AcDbEntity
  8
01
100
AcDbLine
 10
4888.957215231501
 20
522.8439335928342
 30
0.0
 11
4888.844971579158
 21
522.8451542959592
 31
0.0
  0
LINE
  5
E563
330
18
100
AcDbEntity
  8
01
100
AcDbLine
 10
4888.844971579158
 20
522.8451542959592
 30
0.0
 11
4888.73376552447
 21
522.8475194082639
 31
0.0
  0
LINE
  5
E564
330
18
100
AcDbEntity
  8
01
100
AcDbLine
 10
4888.73376552447
 20
522.8475194082639
 30
0.0
 11
4888.626465719783
 21
522.8514714346311
 31
0.0
  0
LINE
  5
E565
330
18
100
AcDbEntity
  8
01
100
AcDbLine
 10
4888.626465719783
 20
522.8514714346311
 30
0.0
 11
4888.54936305865
 21
522.8561101065061
 31
0.0
  0
LINE
  5
E566
330
18
100
AcDbEntity
  8
01
100
AcDbLine
 10
4889.5166482149
 20
512.4104924307248
 30
0.0
 11
4889.4160622774
 21
512.4113469229123
 31
0.0
  0
LINE
  5
E567
330
18
100
AcDbEntity
  8
01
100
AcDbLine
 10
4889.4160622774
 20
512.4113469229123
 30
0.0
 11
4889.315415304744
 21
512.4120946035764
 31
0.0
  0
LINE
  5
E568
330
18
100
AcDbEntity
  8
01
100
AcDbLine
 10
4889.315415304744
 20
512.4120946035764
 30
0.0
 11
4889.214646261775
 21
512.4126439199827
 31
0.0
  0
LINE
  5
E569
330
18
100
AcDbEntity
  8
01
100
AcDbLine
 10
4889.214646261775
 20
512.4126439199827
 30
0.0
 11
4889.113694113337
 21
512.4128880606077
 31
0.0
  0
LINE
  5
E56A
330
18
100
AcDbEntity
  8
01
100
AcDbLine
 10
4889.113694113337
 20
512.4128880606077
 30
0.0
 11
4889.012528341853
 21
512.412735472717
 31
0.0
  0
LINE
  5
E56B
330
18
100
AcDbEntity
  8
01
100
AcDbLine
 10
4889.012528341853
 20
512.412735472717
 30
0.0
 11
4888.911301535212
 21
512.4120488272092
 31
0.0
  0
LINE
  5
E56C
330
18
100
AcDbEntity
  8
01
100
AcDbLine
 10
4888.911301535212
 20
512.4120488272092
 30
0.0
 11
4888.810288351619
 21
512.4106145010373
 31
0.0
  0
LINE
  5
E56D
330
18
100
AcDbEntity
  8
01
100
AcDbLine
 10
4888.810288351619
 20
512.4106145010373
 30
0.0
 11
4888.710526388728
 21
512.4081730947873
 31
0.0
  0
LINE
  5
E56E
330
18
100
AcDbEntity
  8
01
100
AcDbLine
 10
4888.710526388728
 20
512.4081730947873
 30
0.0
 11
4888.614914816462
 21
512.4043431387327
 31
0.0
  0
LINE
  5
E56F
330
18
100
AcDbEntity
  8
01
100
AcDbLine
 10
4888.614914816462
 20
512.4043431387327
 30
0.0
 11
4888.549439352595
 21
512.400284300842
 31
0.0
  0
LINE
  5
E570
330
18
100
AcDbEntity
  8
01
100
AcDbLine
 10
4812.342668763751
 20
521.7287827758773
 30
0.0
 11
4812.996706239337
 21
521.7126765279754
 31
0.0
  0
LINE
  5
E571
330
18
100
AcDbEntity
  8
01
100
AcDbLine
 10
4812.996706239337
 20
521.7126765279754
 30
0.0
 11
4813.591142884845
 21
521.6961923866256
 31
0.0
  0
LINE
  5
E572
330
18
100
AcDbEntity
  8
01
100
AcDbLine
 10
4813.591142884845
 20
521.6961923866256
 30
0.0
 11
4814.094339601153
 21
521.6642514495834
 31
0.0
  0
LINE
  5
E573
330
18
100
AcDbEntity
  8
01
100
AcDbLine
 10
4814.094339601153
 20
521.6642514495834
 30
0.0
 11
4814.480791322345
 21
521.6162914066299
 31
0.0
  0
LINE
  5
E574
330
18
100
AcDbEntity
  8
01
100
AcDbLine
 10
4814.480791322345
 20
521.6162914066299
 30
0.0
 11
4814.739176026935
 21
521.5676248102172
 31
0.0
  0
LINE
  5
E575
330
18
100
AcDbEntity
  8
01
100
AcDbLine
 10
4814.739176026935
 20
521.5676248102172
 30
0.0
 11
4814.760599366778
 21
521.5628601341232
 31
0.0
  0
LINE
  5
E576
330
18
100
AcDbEntity
  8
01
100
AcDbLine
 10
4814.760599366778
 20
521.5628601341232
 30
0.0
 11
4814.838815919513
 21
521.5404174356445
 31
0.0
  0
LINE
  5
E577
330
18
100
AcDbEntity
  8
01
100
AcDbLine
 10
4814.739176026935
 20
513.6888401536926
 30
0.0
 11
4814.760599366778
 21
513.6936047105773
 31
0.0
  0
LINE
  5
E578
330
18
100
AcDbEntity
  8
01
100
AcDbLine
 10
4814.760599366778
 20
513.6936047105773
 30
0.0
 11
4814.838815919513
 21
513.7160475282653
 31
0.0
  0
LINE
  5
E579
330
18
100
AcDbEntity
  8
01
100
AcDbLine
 10
4812.342668763751
 20
513.527681591986
 30
0.0
 11
4812.996706239337
 21
513.5437881975158
 31
0.0
  0
LINE
  5
E57A
330
18
100
AcDbEntity
  8
01
100
AcDbLine
 10
4812.996706239337
 20
513.5437881975158
 30
0.0
 11
4813.591142884845
 21
513.5602724580749
 31
0.0
  0
LINE
  5
E57B
330
18
100
AcDbEntity
  8
01
100
AcDbLine
 10
4813.591142884845
 20
513.5602724580749
 30
0.0
 11
4814.094347230548
 21
513.5922133951171
 31
0.0
  0
LINE
  5
E57C
330
18
100
AcDbEntity
  8
01
100
AcDbLine
 10
4814.094347230548
 20
513.5922133951171
 30
0.0
 11
4814.480798951739
 21
513.640173199652
 31
0.0
  0
LINE
  5
E57D
330
18
100
AcDbEntity
  8
01
100
AcDbLine
 10
4814.480798951739
 20
513.640173199652
 30
0.0
 11
4814.739176026935
 21
513.6888401536926
 31
0.0
  0
LINE
  5
E57E
330
18
100
AcDbEntity
  8
01
100
AcDbLine
 10
4760.961233369464
 20
506.6422669916137
 30
0.0
 11
4761.035763017291
 21
506.7565705804809
 31
0.0
  0
LINE
  5
E57F
330
18
100
AcDbEntity
  8
01
100
AcDbLine
 10
4761.035763017291
 20
506.7565705804809
 30
0.0
 11
4761.25469612276
 21
506.8770921258911
 31
0.0
  0
LINE
  5
E580
330
18
100
AcDbEntity
  8
01
100
AcDbLine
 10
4761.25469612276
 20
506.8770921258911
 30
0.0
 11
4761.609728089923
 21
506.9986093072876
 31
0.0
  0
LINE
  5
E581
330
18
100
AcDbEntity
  8
01
100
AcDbLine
 10
4761.609728089923
 20
506.9986093072876
 30
0.0
 11
4762.084400407428
 21
507.1158635644897
 31
0.0
  0
LINE
  5
E582
330
18
100
AcDbEntity
  8
01
100
AcDbLine
 10
4762.084400407428
 20
507.1158635644897
 30
0.0
 11
4762.658615342731
 21
507.2236478357299
 31
0.0
  0
LINE
  5
E583
330
18
100
AcDbEntity
  8
01
100
AcDbLine
 10
4762.658615342731
 20
507.2236478357299
 30
0.0
 11
4763.307077638263
 21
507.3173663644775
 31
0.0
  0
LINE
  5
E584
330
18
100
AcDbEntity
  8
01
100
AcDbLine
 10
4763.307077638263
 20
507.3173663644775
 30
0.0
 11
4764.001423112506
 21
507.3928296594604
 31
0.0
  0
LINE
  5
E585
330
18
100
AcDbEntity
  8
01
100
AcDbLine
 10
4764.001423112506
 20
507.3928296594604
 30
0.0
 11
4764.71164344942
 21
507.4468181161865
 31
0.0
  0
LINE
  5
E586
330
18
100
AcDbEntity
  8
01
100
AcDbLine
 10
4764.71164344942
 20
507.4468181161865
 30
0.0
 11
4765.406402818317
 21
507.4769532709106
 31
0.0
  0
LINE
  5
E587
330
18
100
AcDbEntity
  8
01
100
AcDbLine
 10
4765.406402818317
 20
507.4769532709106
 30
0.0
 11
4766.055660478229
 21
507.4818828134521
 31
0.0
  0
LINE
  5
E588
330
18
100
AcDbEntity
  8
01
100
AcDbLine
 10
4766.055660478229
 20
507.4818828134521
 30
0.0
 11
4766.631042710895
 21
507.4614903955444
 31
0.0
  0
LINE
  5
E589
330
18
100
AcDbEntity
  8
01
100
AcDbLine
 10
4766.631042710895
 20
507.4614903955444
 30
0.0
 11
4767.107172242755
 21
507.4165151147827
 31
0.0
  0
LINE
  5
E58A
330
18
100
AcDbEntity
  8
01
100
AcDbLine
 10
4767.107172242755
 20
507.4165151147827
 30
0.0
 11
4767.463918916339
 21
507.3491027383789
 31
0.0
  0
LINE
  5
E58B
330
18
100
AcDbEntity
  8
01
100
AcDbLine
 10
4767.463918916339
 20
507.3491027383789
 30
0.0
 11
4767.684725038165
 21
507.2620008020385
 31
0.0
  0
LINE
  5
E58C
330
18
100
AcDbEntity
  8
01
100
AcDbLine
 10
4767.684725038165
 20
507.2620008020385
 30
0.0
 11
4767.761221162433
 21
507.1591851739868
 31
0.0
  0
LINE
  5
E58D
330
18
100
AcDbEntity
  8
01
100
AcDbLine
 10
4767.761221162433
 20
507.1591851739868
 30
0.0
 11
4767.688654176349
 21
507.0450084238037
 31
0.0
  0
LINE
  5
E58E
330
18
100
AcDbEntity
  8
01
100
AcDbLine
 10
4767.688654176349
 20
507.0450084238037
 30
0.0
 11
4767.471594087237
 21
506.9245269327148
 31
0.0
  0
LINE
  5
E58F
330
18
100
AcDbEntity
  8
01
100
AcDbLine
 10
4767.471594087237
 20
506.9245269327148
 30
0.0
 11
4767.118280641193
 21
506.8029859094604
 31
0.0
  0
LINE
  5
E590
330
18
100
AcDbEntity
  8
01
100
AcDbLine
 10
4767.118280641193
 20
506.8029859094604
 30
0.0
 11
4766.645067445392
 21
506.6856420068725
 31
0.0
  0
LINE
  5
E591
330
18
100
AcDbEntity
  8
01
100
AcDbLine
 10
4766.645067445392
 20
506.6856420068725
 30
0.0
 11
4766.072025529498
 21
506.5777013330444
 31
0.0
  0
LINE
  5
E592
330
18
100
AcDbEntity
  8
01
100
AcDbLine
 10
4766.072025529498
 20
506.5777013330444
 30
0.0
 11
4765.424364320392
 21
506.4837682275756
 31
0.0
  0
LINE
  5
E593
330
18
100
AcDbEntity
  8
01
100
AcDbLine
 10
4765.424364320392
 20
506.4837682275756
 30
0.0
 11
4764.730438462848
 21
506.4080369501098
 31
0.0
  0
LINE
  5
E594
330
18
100
AcDbEntity
  8
01
100
AcDbLine
 10
4764.730438462848
 20
506.4080369501098
 30
0.0
 11
4764.02022384798
 21
506.3537480859741
 31
0.0
  0
LINE
  5
E595
330
18
100
AcDbEntity
  8
01
100
AcDbLine
 10
4764.02022384798
 20
506.3537480859741
 30
0.0
 11
4763.325054399127
 21
506.3232820062622
 31
0.0
  0
LINE
  5
E596
330
18
100
AcDbEntity
  8
01
100
AcDbLine
 10
4763.325054399127
 20
506.3232820062622
 30
0.0
 11
4762.675007096881
 21
506.318015816687
 31
0.0
  0
LINE
  5
E597
330
18
100
AcDbEntity
  8
01
100
AcDbLine
 10
4762.675007096881
 20
506.318015816687
 30
0.0
 11
4762.098461381549
 21
506.3380734949096
 31
0.0
  0
LINE
  5
E598
330
18
100
AcDbEntity
  8
01
100
AcDbLine
 10
4762.098461381549
 20
506.3380734949096
 30
0.0
 11
4761.620876542682
 21
506.3827378778442
 31
0.0
  0
LINE
  5
E599
330
18
100
AcDbEntity
  8
01
100
AcDbLine
 10
4761.620876542682
 20
506.3827378778442
 30
0.0
 11
4761.262417070026
 21
506.4498641519531
 31
0.0
  0
LINE
  5
E59A
330
18
100
AcDbEntity
  8
01
100
AcDbLine
 10
4761.262417070026
 20
506.4498641519531
 30
0.0
 11
4761.039743653888
 21
506.5367209939941
 31
0.0
  0
LINE
  5
E59B
330
18
100
AcDbEntity
  8
01
100
AcDbLine
 10
4761.039743653888
 20
506.5367209939941
 30
0.0
 11
4760.961233369464
 21
506.6422669916137
 31
0.0
  0
LINE
  5
E59C
330
18
100
AcDbEntity
  8
01
100
AcDbLine
 10
4814.838815919513
 20
513.7160475282653
 30
0.0
 11
4814.806925050372
 21
513.4657018213256
 31
0.0
  0
LINE
  5
E59D
330
18
100
AcDbEntity
  8
01
100
AcDbLine
 10
4814.806925050372
 20
513.4657018213256
 30
0.0
 11
4814.713487855548
 21
513.2310578851684
 31
0.0
  0
LINE
  5
E59E
330
18
100
AcDbEntity
  8
01
100
AcDbLine
 10
4814.713487855548
 20
513.2310578851684
 30
0.0
 11
4814.564981690997
 21
513.028022053717
 31
0.0
  0
LINE
  5
E59F
330
18
100
AcDbEntity
  8
01
100
AcDbLine
 10
4814.564981690997
 20
513.028022053717
 30
0.0
 11
4814.375025025958
 21
512.870900872229
 31
0.0
  0
LINE
  5
E5A0
330
18
100
AcDbEntity
  8
01
100
AcDbLine
 10
4814.375025025958
 20
512.870900872229
 30
0.0
 11
4814.200639955157
 21
512.7809212236389
 31
0.0
  0
LINE
  5
E5A1
330
18
100
AcDbEntity
  8
01
100
AcDbLine
 10
4814.200639955157
 20
512.7809212236389
 30
0.0
 11
4814.084573976153
 21
512.7388188867553
 31
0.0
  0
LINE
  5
E5A2
330
18
100
AcDbEntity
  8
01
100
AcDbLine
 10
4814.084573976153
 20
522.5176456003173
 30
0.0
 11
4814.187013856525
 21
522.4810636072143
 31
0.0
  0
LINE
  5
E5A3
330
18
100
AcDbEntity
  8
01
100
AcDbLine
 10
4814.187013856525
 20
522.4810636072143
 30
0.0
 11
4814.354120484943
 21
522.3986144094451
 31
0.0
  0
LINE
  5
E5A4
330
18
100
AcDbEntity
  8
01
100
AcDbLine
 10
4814.354120484943
 20
522.3986144094451
 30
0.0
 11
4814.547144166583
 21
522.246868374823
 31
0.0
  0
LINE
  5
E5A5
330
18
100
AcDbEntity
  8
01
100
AcDbLine
 10
4814.547144166583
 20
522.246868374823
 30
0.0
 11
4814.70108246004
 21
522.0471512107833
 31
0.0
  0
LINE
  5
E5A6
330
18
100
AcDbEntity
  8
01
100
AcDbLine
 10
4814.70108246004
 20
522.0471512107833
 30
0.0
 11
4814.800577394122
 21
521.814218285559
 31
0.0
  0
LINE
  5
E5A7
330
18
100
AcDbEntity
  8
01
100
AcDbLine
 10
4814.800577394122
 20
521.814218285559
 30
0.0
 11
4814.838815919513
 21
521.5404174356445
 31
0.0
  0
LINE
  5
E5A8
330
18
100
AcDbEntity
  8
01
100
AcDbLine
 10
4810.453829042071
 20
523.1543715028747
 30
0.0
 11
4810.6043188492
 21
523.1331915884002
 31
0.0
  0
LINE
  5
E5A9
330
18
100
AcDbEntity
  8
01
100
AcDbLine
 10
4810.6043188492
 20
523.1331915884002
 30
0.0
 11
4810.755274049396
 21
523.1119172601684
 31
0.0
  0
LINE
  5
E5AA
330
18
100
AcDbEntity
  8
01
100
AcDbLine
 10
4810.755274049396
 20
523.1119172601684
 30
0.0
 11
4810.906213990802
 21
523.0906627206787
 31
0.0
  0
LINE
  5
E5AB
330
18
100
AcDbEntity
  8
01
100
AcDbLine
 10
4810.906213990802
 20
523.0906627206787
 30
0.0
 11
4811.058054200763
 21
523.0693309335693
 31
0.0
  0
LINE
  5
E5AC
330
18
100
AcDbEntity
  8
01
100
AcDbLine
 10
4811.058054200763
 20
523.0693309335693
 30
0.0
 11
4811.210581056232
 21
523.0479700593933
 31
0.0
  0
LINE
  5
E5AD
330
18
100
AcDbEntity
  8
01
100
AcDbLine
 10
4811.210581056232
 20
523.0479700593933
 30
0.0
 11
4811.364290467853
 21
523.026525500296
 31
0.0
  0
LINE
  5
E5AE
330
18
100
AcDbEntity
  8
01
100
AcDbLine
 10
4811.364290467853
 20
523.026525500296
 30
0.0
 11
4811.519380799884
 21
523.004985573767
 31
0.0
  0
LINE
  5
E5AF
330
18
100
AcDbEntity
  8
01
100
AcDbLine
 10
4811.519380799884
 20
523.004985573767
 30
0.0
 11
4811.676164857501
 21
522.9833302526458
 31
0.0
  0
LINE
  5
E5B0
330
18
100
AcDbEntity
  8
01
100
AcDbLine
 10
4811.676164857501
 20
522.9833302526458
 30
0.0
 11
4811.83495544588
 21
522.9615311651214
 31
0.0
  0
LINE
  5
E5B1
330
18
100
AcDbEntity
  8
01
100
AcDbLine
 10
4811.83495544588
 20
522.9615311651214
 30
0.0
 11
4811.995928041095
 21
522.9395790128692
 31
0.0
  0
LINE
  5
E5B2
330
18
100
AcDbEntity
  8
01
100
AcDbLine
 10
4811.995928041095
 20
522.9395790128692
 30
0.0
 11
4812.158724061603
 21
522.9175274400695
 31
0.0
  0
LINE
  5
E5B3
330
18
100
AcDbEntity
  8
01
100
AcDbLine
 10
4812.158724061603
 20
522.9175274400695
 30
0.0
 11
4812.320764772052
 21
522.8957066564544
 31
0.0
  0
LINE
  5
E5B4
330
18
100
AcDbEntity
  8
01
100
AcDbLine
 10
4812.320764772052
 20
522.8957066564544
 30
0.0
 11
4812.473337403888
 21
522.8752069501861
 31
0.0
  0
LINE
  5
E5B5
330
18
100
AcDbEntity
  8
01
100
AcDbLine
 10
4812.473337403888
 20
522.8752069501861
 30
0.0
 11
4812.59675811922
 21
522.8584828405365
 31
0.0
  0
LINE
  5
E5B6
330
18
100
AcDbEntity
  8
01
100
AcDbLine
 10
4812.59675811922
 20
522.8584828405365
 30
0.0
 11
4812.68000244295
 21
522.8468263177856
 31
0.0
  0
LINE
  5
E5B7
330
18
100
AcDbEntity
  8
01
100
AcDbLine
 10
4812.68000244295
 20
522.8468263177856
 30
0.0
 11
4812.73600219881
 21
522.8382492094024
 31
0.0
  0
LINE
  5
E5B8
330
18
100
AcDbEntity
  8
01
100
AcDbLine
 10
4812.73600219881
 20
522.8382492094024
 30
0.0
 11
4812.834184877032
 21
522.8182914285644
 31
0.0
  0
LINE
  5
E5B9
330
18
100
AcDbEntity
  8
01
100
AcDbLine
 10
4810.453829042071
 20
512.1020925073608
 30
0.0
 11
4810.731409303302
 21
512.1411731271728
 31
0.0
  0
LINE
  5
E5BA
330
18
100
AcDbEntity
  8
01
100
AcDbLine
 10
4810.731409303302
 20
512.1411731271728
 30
0.0
 11
4811.010004274005
 21
512.1803767709716
 31
0.0
  0
LINE
  5
E5BB
330
18
100
AcDbEntity
  8
01
100
AcDbLine
 10
4811.010004274005
 20
512.1803767709716
 30
0.0
 11
4811.2912619034
 21
512.2197611360534
 31
0.0
  0
LINE
  5
E5BC
330
18
100
AcDbEntity
  8
01
100
AcDbLine
 10
4811.2912619034
 20
512.2197611360534
 30
0.0
 11
4811.576853028888
 21
512.259431126593
 31
0.0
  0
LINE
  5
E5BD
330
18
100
AcDbEntity
  8
01
100
AcDbLine
 10
4811.576853028888
 20
512.259431126593
 30
0.0
 11
4811.868578187579
 21
512.2995297937377
 31
0.0
  0
LINE
  5
E5BE
330
18
100
AcDbEntity
  8
01
100
AcDbLine
 10
4811.868578187579
 20
512.2995297937377
 30
0.0
 11
4812.167162171954
 21
512.3400771646484
 31
0.0
  0
LINE
  5
E5BF
330
18
100
AcDbEntity
  8
01
100
AcDbLine
 10
4812.167162171954
 20
512.3400771646484
 30
0.0
 11
4812.457987062091
 21
512.3791902093872
 31
0.0
  0
LINE
  5
E5C0
330
18
100
AcDbEntity
  8
01
100
AcDbLine
 10
4812.457987062091
 20
512.3791902093872
 30
0.0
 11
4812.661737672443
 21
512.4070212869628
 31
0.0
  0
LINE
  5
E5C1
330
18
100
AcDbEntity
  8
01
100
AcDbLine
 10
4812.661737672443
 20
512.4070212869628
 30
0.0
 11
4812.777010194415
 21
512.4256794481262
 31
0.0
  0
LINE
  5
E5C2
330
18
100
AcDbEntity
  8
01
100
AcDbLine
 10
4889.543116491877
 20
614.6459130545959
 30
0.0000000001127424
 11
4889.274821203791
 21
614.620552947174
 31
0.0000000001127424
  0
LINE
  5
E5C3
330
18
100
AcDbEntity
  8
01
100
AcDbLine
 10
4889.274821203791
 20
614.620552947174
 30
0.0000000001127424
 11
4888.99978153094
 21
614.6158532401428
 31
0.0000000001127424
  0
LINE
  5
E5C4
330
18
100
AcDbEntity
  8
01
100
AcDbLine
 10
4888.99978153094
 20
614.6158532401428
 30
0.0000000001127424
 11
4888.718272131526
 21
614.649361540924
 31
0.0000000001127424
  0
LINE
  5
E5C5
330
18
100
AcDbEntity
  8
01
100
AcDbLine
 10
4888.718272131526
 20
614.649361540924
 30
0.0000000001127424
 11
4888.441706579768
 21
614.7569360038146
 31
0.0000000001127424
  0
LINE
  5
E5C6
330
18
100
AcDbEntity
  8
01
100
AcDbLine
 10
4888.441706579768
 20
614.7569360038146
 30
0.0000000001127424
 11
4888.227488440119
 21
614.9762353202209
 31
0.0000000001127424
  0
LINE
  5
E5C7
330
18
100
AcDbEntity
  8
01
100
AcDbLine
 10
4888.227488440119
 20
614.9762353202209
 30
0.0000000001127424
 11
4888.133433264338
 21
615.2586449881896
 31
0.0000000001127424
  0
LINE
  5
E5C8
330
18
100
AcDbEntity
  8
01
100
AcDbLine
 10
4888.133433264338
 20
615.2586449881896
 30
0.0000000001127424
 11
4888.124033850276
 21
615.5428857108459
 31
0.0000000001127424
  0
LINE
  5
E5C9
330
18
100
AcDbEntity
  8
01
100
AcDbLine
 10
4888.124033850276
 20
615.5428857108459
 30
0.0000000001127424
 11
4888.15976993426
 21
615.817330290924
 31
0.0000000001127424
  0
LINE
  5
E5CA
330
18
100
AcDbEntity
  8
01
100
AcDbLine
 10
4888.15976993426
 20
615.817330290924
 30
0.0000000001127424
 11
4888.221491736018
 21
616.0825890799865
 31
0.0000000001127424
  0
LINE
  5
E5CB
330
18
100
AcDbEntity
  8
01
100
AcDbLine
 10
4888.221491736018
 20
616.0825890799865
 30
0.0000000001127424
 11
4888.299784582698
 21
616.3406762381896
 31
0.0000000001127424
  0
LINE
  5
E5CC
330
18
100
AcDbEntity
  8
01
100
AcDbLine
 10
4888.299784582698
 20
616.3406762381896
 30
0.0000000001127424
 11
4888.388926428401
 21
616.593209197174
 31
0.0000000001127424
  0
LINE
  5
E5CD
330
18
100
AcDbEntity
  8
01
100
AcDbLine
 10
4888.388926428401
 20
616.593209197174
 30
0.0000000001127424
 11
4888.485819738948
 21
616.8414391776428
 31
0.0000000001127424
  0
LINE
  5
E5CE
330
18
100
AcDbEntity
  8
01
100
AcDbLine
 10
4888.485819738948
 20
616.8414391776428
 30
0.0000000001127424
 11
4888.588694494807
 21
617.0893639823303
 31
0.0000000001127424
  0
LINE
  5
E5CF
330
18
100
AcDbEntity
  8
01
100
AcDbLine
 10
4916.749537390315
 20
636.5391930838928
 30
0.0000000001127424
 11
4916.491328161799
 21
636.5444421073303
 31
0.0000000001127424
  0
LINE
  5
E5D0
330
18
100
AcDbEntity
  8
01
100
AcDbLine
 10
4916.491328161799
 20
636.5444421073303
 30
0.0000000001127424
 11
4916.232996862971
 21
636.5533227225646
 31
0.0000000001127424
  0
LINE
  5
E5D1
330
18
100
AcDbEntity
  8
01
100
AcDbLine
 10
4916.232996862971
 20
636.5533227225646
 30
0.0000000001127424
 11
4915.975016516291
 21
636.5690087577209
 31
0.0000000001127424
  0
LINE
  5
E5D2
330
18
100
AcDbEntity
  8
01
100
AcDbLine
 10
4915.975016516291
 20
636.5690087577209
 30
0.0000000001127424
 11
4915.71787540301
 21
636.593941619049
 31
0.0000000001127424
  0
LINE
  5
E5D3
330
18
100
AcDbEntity
  8
01
100
AcDbLine
 10
4915.71787540301
 20
636.593941619049
 30
0.0000000001127424
 11
4915.462077063166
 21
636.6301659842834
 31
0.0000000001127424
  0
LINE
  5
E5D4
330
18
100
AcDbEntity
  8
01
100
AcDbLine
 10
4915.462077063166
 20
636.6301659842834
 30
0.0000000001127424
 11
4915.20859805926
 21
636.6790551444396
 31
0.0000000001127424
  0
LINE
  5
E5D5
330
18
100
AcDbEntity
  8
01
100
AcDbLine
 10
4915.20859805926
 20
636.6790551444396
 30
0.0000000001127424
 11
4914.92556278094
 21
636.750924040924
 31
0.0000000001127424
  0
LINE
  5
E5D6
330
18
100
AcDbEntity
  8
01
100
AcDbLine
 10
4911.966990393244
 20
639.9199609061584
 30
0.0000000001127424
 11
4911.901072424494
 21
640.2891625663146
 31
0.0000000001127424
  0
LINE
  5
E5D7
330
18
100
AcDbEntity
  8
01
100
AcDbLine
 10
4911.901072424494
 20
640.2891625663146
 30
0.0000000001127424
 11
4911.86110965594
 21
640.6683129569396
 31
0.0000000001127424
  0
LINE
  5
E5D8
330
18
100
AcDbEntity
  8
01
100
AcDbLine
 10
4911.86110965594
 20
640.6683129569396
 30
0.0000000001127424
 11
4911.842860144221
 21
641.055611540924
 31
0.0000000001127424
  0
LINE
  5
E5D9
330
18
100
AcDbEntity
  8
01
100
AcDbLine
 10
4911.842860144221
 20
641.055611540924
 30
0.0000000001127424
 11
4911.838816565119
 21
641.5379113456115
 31
0.0000000001127424
  0
LINE
  5
E5DA
330
18
100
AcDbEntity
  8
01
  6
BYBLOCK
100
AcDbLine
 10
4864.142146763777
 20
541.528187666929
 30
0.0
 11
4864.838814657776
 21
544.1281876669291
 31
0.0
  0
LINE
  5
E5DB
330
18
100
AcDbEntity
  8
01
  6
BYBLOCK
100
AcDbLine
 10
4864.838814657776
 20
544.1281876669291
 30
0.0
 11
4865.535482551776
 21
541.528187666929
 31
0.0
  0
LINE
  5
E5DC
330
18
100
AcDbEntity
  8
01
  6
BYBLOCK
100
AcDbLine
 10
4864.838814657776
 20
544.1281876669291
 30
0.0
 11
4864.838814657776
 21
541.528187666929
 31
0.0
  0
LINE
  5
E5DD
330
18
100
AcDbEntity
  8
01
  6
BYBLOCK
100
AcDbLine
 10
4865.535482551776
 20
493.7281876669291
 30
0.0
 11
4864.838814657776
 21
491.1281876669291
 31
0.0
  0
LINE
  5
E5DE
330
18
100
AcDbEntity
  8
01
  6
BYBLOCK
100
AcDbLine
 10
4864.838814657776
 20
491.1281876669291
 30
0.0
 11
4864.142146763777
 21
493.7281876669291
 31
0.0
  0
LINE
  5
E5DF
330
18
100
AcDbEntity
  8
01
  6
BYBLOCK
100
AcDbLine
 10
4864.838814657776
 20
491.1281876669291
 30
0.0
 11
4864.838814657776
 21
493.7281876669291
 31
0.0
  0
TEXT
  5
E5E0
330
18
100
AcDbEntity
  8
01
  6
CONTINUOUS
100
AcDbText
 10
4863.928814657776
 20
509.5993097603323
 30
0.0
 40
4.55
  1
□53
 50
90.0
100
AcDbText
1001
ACAD
1000
DSTYLE
1002
{
1070
     3
1000
□<>
1070
    40
1040
1.3
1070
    45
1040
0.5
1002
}
  0
LINE
  5
E5E1
330
18
100
AcDbEntity
  8
1DIM
100
AcDbLine
 10
5023.743505713006
 20
634.6444082934881
 30
0.0000000001127424
 11
5056.138814657776
 21
634.6444082934881
 31
0.0000000001127424
1001
ACAD
1000
DSTYLE
1002
{
1070
    40
1040
1.3
1070
    45
1040
0.5
1002
}
  0
LINE
  5
E5E2
330
18
100
AcDbEntity
  8
1DIM
100
AcDbLine
 10
5002.593962655124
 20
677.6268693538282
 30
0.0000000001127424
 11
5056.138814657776
 21
677.6268693538282
 31
0.0000000001127424
1001
ACAD
1000
DSTYLE
1002
{
1070
    40
1040
1.3
1070
    45
1040
0.5
1002
}
  0
LINE
  5
E5E3
330
18
100
AcDbEntity
  8
1DIM
100
AcDbLine
 10
5054.838814657776
 20
637.2444082934882
 30
0.0000000001127424
 11
5054.838814657776
 21
675.0268693538281
 31
0.0000000001127424
1001
ACAD
1000
DSTYLE
1002
{
1070
    40
1040
1.3
1070
    45
1040
0.5
1002
}
  0
LINE
  5
E5E7
330
18
100
AcDbEntity
  8
1DIM
100
AcDbLine
 10
5021.205728566332
 20
612.6268700342298
 30
0.0000000001127424
 11
5066.138814657776
 21
612.6268700342298
 31
0.0000000001127424
1001
ACAD
1000
DSTYLE
1002
{
1070
    40
1040
1.3
1070
    45
1040
0.5
1002
}
  0
LINE
  5
E5E8
330
18
100
AcDbEntity
  8
1DIM
100
AcDbLine
 10
5002.593962655124
 20
677.6268693538282
 30
0.0000000001127424
 11
5066.138814657776
 21
677.6268693538282
 31
0.0000000001127424
1001
ACAD
1000
DSTYLE
1002
{
1070
    40
1040
1.3
1070
    45
1040
0.5
1002
}
  0
LINE
  5
E5E9
330
18
100
AcDbEntity
  8
1DIM
100
AcDbLine
 10
5064.838814657776
 20
615.2268700342298
 30
0.0000000001127424
 11
5064.838814657776
 21
675.0268693538281
 31
0.0000000001127424
1001
ACAD
1000
DSTYLE
1002
{
1070
    40
1040
1.3
1070
    45
1040
0.5
1002
}
  0
LINE
  5
E5ED
330
18
100
AcDbEntity
  8
1DIM
100
AcDbLine
 10
5022.831721401355
 20
511.1724039315559
 30
0.0
 11
5056.138814657776
 21
511.1724039315559
 31
0.0
1001
ACAD
1000
DSTYLE
1002
{
1070
    40
1040
1.3
1070
   271
1070
     0
1070
   279
1070
     2
1070
   289
1070
     3
1002
}
  0
LINE
  5
E5EE
330
18
100
AcDbEntity
  8
1DIM
100
AcDbLine
 10
5022.831664468069
 20
524.0839553260394
 30
0.0
 11
5056.138814657776
 21
524.0839553260394
 31
0.0
1001
ACAD
1000
DSTYLE
1002
{
1070
    40
1040
1.3
1070
   271
1070
     0
1070
   279
1070
     2
1070
   289
1070
     3
1002
}
  0
LINE
  5
E5EF
330
18
100
AcDbEntity
  8
1DIM
100
AcDbLine
 10
5054.838814657776
 20
513.7724039315559
 30
0.0
 11
5054.838814657776
 21
521.4839553260393
 31
0.0
1001
ACAD
1000
DSTYLE
1002
{
1070
    40
1040
1.3
1070
   271
1070
     0
1070
   279
1070
     2
1070
   289
1070
     3
1002
}
  0
LINE
  5
E5F3
330
18
100
AcDbEntity
  8
1DIM
100
AcDbLine
 10
4899.838814657774
 20
656.1268693538282
 30
0.0000000001127424
 11
4899.838814657774
 21
591.3268693538282
 31
0.0000000001127424
1001
ACAD
1000
DSTYLE
1002
{
1070
    40
1040
1.3
1070
   271
1070
     0
1002
}
  0
LINE
  5
E5F4
330
18
100
AcDbEntity
  8
1DIM
100
AcDbLine
 10
5023.838814657771
 20
615.6268700571595
 30
0.0000000001127424
 11
5023.838814657771
 21
591.3268693538282
 31
0.0000000001127424
1001
ACAD
1000
DSTYLE
1002
{
1070
    40
1040
1.3
1070
   271
1070
     0
1002
}
  0
LINE
  5
E5F5
330
18
100
AcDbEntity
  8
1DIM
100
AcDbLine
 10
4902.438814657775
 20
592.6268693538282
 30
0.0000000001127424
 11
5021.23881465777
 21
592.6268693538282
 31
0.0000000001127424
1001
ACAD
1000
DSTYLE
1002
{
1070
    40
1040
1.3
1070
   271
1070
     0
1002
}
  0
LINE
  5
E5F9
330
18
100
AcDbEntity
  8
1DIM
100
AcDbLine
 10
4885.838814657771
 20
615.6268699056845
 30
0.0000000001127424
 11
4885.838814657771
 21
581.3268693538282
 31
0.0000000001127424
1001
ACAD
1000
DSTYLE
1002
{
1070
    40
1040
1.3
1070
   271
1070
     0
1002
}
  0
LINE
  5
E5FA
330
18
100
AcDbEntity
  8
1DIM
100
AcDbLine
 10
5023.838814657771
 20
615.6268700571595
 30
0.0000000001127424
 11
5023.838814657771
 21
581.3268693538282
 31
0.0000000001127424
1001
ACAD
1000
DSTYLE
1002
{
1070
    40
1040
1.3
1070
   271
1070
     0
1002
}
  0
LINE
  5
E5FB
330
18
100
AcDbEntity
  8
1DIM
100
AcDbLine
 10
4888.438814657771
 20
582.6268693538282
 30
0.0000000001127424
 11
5021.23881465777
 21
582.6268693538282
 31
0.0000000001127424
1001
ACAD
1000
DSTYLE
1002
{
1070
    40
1040
1.3
1070
   271
1070
     0
1002
}
  0
LINE
  5
E5FF
330
18
100
AcDbEntity
  8
0
  6
BYBLOCK
100
AcDbLine
 10
5055.535482551776
 20
637.2444082934882
 30
0.0000000001127424
 11
5054.838814657776
 21
634.6444082934881
 31
0.0000000001127424
  0
LINE
  5
E600
330
18
100
AcDbEntity
  8
0
  6
BYBLOCK
100
AcDbLine
 10
5054.838814657776
 20
634.6444082934881
 30
0.0000000001127424
 11
5054.142146763777
 21
637.2444082934882
 31
0.0000000001127424
  0
LINE
  5
E601
330
18
100
AcDbEntity
  8
0
  6
BYBLOCK
100
AcDbLine
 10
5054.838814657776
 20
634.6444082934881
 30
0.0000000001127424
 11
5054.838814657776
 21
637.2444082934882
 31
0.0000000001127424
  0
LINE
  5
E602
330
18
100
AcDbEntity
  8
0
  6
BYBLOCK
100
AcDbLine
 10
5054.142146763777
 20
675.0268693538281
 30
0.0000000001127424
 11
5054.838814657776
 21
677.6268693538282
 31
0.0000000001127424
  0
LINE
  5
E603
330
18
100
AcDbEntity
  8
0
  6
BYBLOCK
100
AcDbLine
 10
5054.838814657776
 20
677.6268693538282
 30
0.0000000001127424
 11
5055.535482551776
 21
675.0268693538281
 31
0.0000000001127424
  0
LINE
  5
E604
330
18
100
AcDbEntity
  8
0
  6
BYBLOCK
100
AcDbLine
 10
5054.838814657776
 20
677.6268693538282
 30
0.0000000001127424
 11
5054.838814657776
 21
675.0268693538281
 31
0.0000000001127424
  0
TEXT
  5
E605
330
18
100
AcDbEntity
  8
1DIM
  6
CONTINUOUS
100
AcDbText
 10
5053.928814657776
 20
652.3439721569921
 30
0.0000000001127424
 40
4.55
  1
43
 50
90.0
100
AcDbText
1001
ACAD
1000
DSTYLE
1002
{
1070
    40
1040
1.3
1070
    45
1040
0.5
1002
}
  0
LINE
  5
E606
330
18
100
AcDbEntity
  8
0
  6
BYBLOCK
100
AcDbLine
 10
5065.535482551776
 20
615.2268700342298
 30
0.0000000001127424
 11
5064.838814657776
 21
612.6268700342298
 31
0.0000000001127424
  0
LINE
  5
E607
330
18
100
AcDbEntity
  8
0
  6
BYBLOCK
100
AcDbLine
 10
5064.838814657776
 20
612.6268700342298
 30
0.0000000001127424
 11
5064.142146763777
 21
615.2268700342298
 31
0.0000000001127424
  0
LINE
  5
E608
330
18
100
AcDbEntity
  8
0
  6
BYBLOCK
100
AcDbLine
 10
5064.838814657776
 20
612.6268700342298
 30
0.0000000001127424
 11
5064.838814657776
 21
615.2268700342298
 31
0.0000000001127424
  0
LINE
  5
E609
330
18
100
AcDbEntity
  8
0
  6
BYBLOCK
100
AcDbLine
 10
5064.142146763777
 20
675.0268693538281
 30
0.0000000001127424
 11
5064.838814657776
 21
677.6268693538282
 31
0.0000000001127424
  0
LINE
  5
E60A
330
18
100
AcDbEntity
  8
0
  6
BYBLOCK
100
AcDbLine
 10
5064.838814657776
 20
677.6268693538282
 30
0.0000000001127424
 11
5065.535482551776
 21
675.0268693538281
 31
0.0000000001127424
  0
LINE
  5
E60B
330
18
100
AcDbEntity
  8
0
  6
BYBLOCK
100
AcDbLine
 10
5064.838814657776
 20
677.6268693538282
 30
0.0000000001127424
 11
5064.838814657776
 21
675.0268693538281
 31
0.0000000001127424
  0
TEXT
  5
E60C
330
18
100
AcDbEntity
  8
1DIM
  6
CONTINUOUS
100
AcDbText
 10
5063.928814657776
 20
641.3194044162519
 30
0.0000000001127424
 40
4.55
  1
65
 50
90.0
100
AcDbText
1001
ACAD
1000
DSTYLE
1002
{
1070
    40
1040
1.3
1070
    45
1040
0.5
1002
}
  0
LINE
  5
E60D
330
18
100
AcDbEntity
  8
0
  6
BYBLOCK
100
AcDbLine
 10
5055.535482551776
 20
513.7724039315559
 30
0.0
 11
5054.838814657776
 21
511.1724039315559
 31
0.0
  0
LINE
  5
E60E
330
18
100
AcDbEntity
  8
0
  6
BYBLOCK
100
AcDbLine
 10
5054.838814657776
 20
511.1724039315559
 30
0.0
 11
5054.142146763777
 21
513.7724039315559
 31
0.0
  0
LINE
  5
E60F
330
18
100
AcDbEntity
  8
0
  6
BYBLOCK
100
AcDbLine
 10
5054.838814657776
 20
511.1724039315559
 30
0.0
 11
5054.838814657776
 21
513.7724039315559
 31
0.0
  0
LINE
  5
E610
330
18
100
AcDbEntity
  8
0
  6
BYBLOCK
100
AcDbLine
 10
5054.142146763777
 20
521.4839553260393
 30
0.0
 11
5054.838814657776
 21
524.0839553260394
 31
0.0
  0
LINE
  5
E611
330
18
100
AcDbEntity
  8
0
  6
BYBLOCK
100
AcDbLine
 10
5054.838814657776
 20
524.0839553260394
 30
0.0
 11
5055.535482551776
 21
521.4839553260393
 31
0.0
  0
LINE
  5
E612
330
18
100
AcDbEntity
  8
0
  6
BYBLOCK
100
AcDbLine
 10
5054.838814657776
 20
524.0839553260394
 30
0.0
 11
5054.838814657776
 21
521.4839553260393
 31
0.0
  0
TEXT
  5
E613
330
18
100
AcDbEntity
  8
1DIM
  6
CONTINUOUS
100
AcDbText
 10
5053.928814657776
 20
514.5948462954648
 30
0.0
 40
4.55
  1
13
 50
90.0
100
AcDbText
1001
ACAD
1000
DSTYLE
1002
{
1070
    40
1040
1.3
1070
   271
1070
     0
1070
   279
1070
     2
1070
   289
1070
     3
1002
}
  0
LINE
  5
E614
330
18
100
AcDbEntity
  8
0
  6
BYBLOCK
100
AcDbLine
 10
4902.438814657775
 20
591.9302014598281
 30
0.0000000001127424
 11
4899.838814657774
 21
592.6268693538282
 31
0.0000000001127424
  0
LINE
  5
E615
330
18
100
AcDbEntity
  8
0
  6
BYBLOCK
100
AcDbLine
 10
4899.838814657774
 20
592.6268693538282
 30
0.0000000001127424
 11
4902.438814657775
 21
593.3235372478282
 31
0.0000000001127424
  0
LINE
  5
E616
330
18
100
AcDbEntity
  8
0
  6
BYBLOCK
100
AcDbLine
 10
4899.838814657774
 20
592.6268693538282
 30
0.0000000001127424
 11
4902.438814657775
 21
592.6268693538282
 31
0.0000000001127424
  0
LINE
  5
E617
330
18
100
AcDbEntity
  8
0
  6
BYBLOCK
100
AcDbLine
 10
5021.23881465777
 20
593.3235372478282
 30
0.0000000001127424
 11
5023.838814657771
 21
592.6268693538282
 31
0.0000000001127424
  0
LINE
  5
E618
330
18
100
AcDbEntity
  8
0
  6
BYBLOCK
100
AcDbLine
 10
5023.838814657771
 20
592.6268693538282
 30
0.0000000001127424
 11
5021.23881465777
 21
591.9302014598281
 31
0.0000000001127424
  0
LINE
  5
E619
330
18
100
AcDbEntity
  8
0
  6
BYBLOCK
100
AcDbLine
 10
5023.838814657771
 20
592.6268693538282
 30
0.0000000001127424
 11
5021.23881465777
 21
592.6268693538282
 31
0.0000000001127424
  0
TEXT
  5
E61A
330
18
100
AcDbEntity
  8
1DIM
  6
CONTINUOUS
100
AcDbText
 10
4957.550017923583
 20
593.5368693538281
 30
0.0000000001127424
 40
4.55
  1
124
100
AcDbText
1001
ACAD
1000
DSTYLE
1002
{
1070
    40
1040
1.3
1070
   271
1070
     0
1002
}
  0
LINE
  5
E61B
330
18
100
AcDbEntity
  8
0
  6
BYBLOCK
100
AcDbLine
 10
4888.438814657771
 20
581.9302014598281
 30
0.0000000001127424
 11
4885.838814657771
 21
582.6268693538282
 31
0.0000000001127424
  0
LINE
  5
E61C
330
18
100
AcDbEntity
  8
0
  6
BYBLOCK
100
AcDbLine
 10
4885.838814657771
 20
582.6268693538282
 30
0.0000000001127424
 11
4888.438814657771
 21
583.3235372478282
 31
0.0000000001127424
  0
LINE
  5
E61D
330
18
100
AcDbEntity
  8
0
  6
BYBLOCK
100
AcDbLine
 10
4885.838814657771
 20
582.6268693538282
 30
0.0000000001127424
 11
4888.438814657771
 21
582.6268693538282
 31
0.0000000001127424
  0
LINE
  5
E61E
330
18
100
AcDbEntity
  8
0
  6
BYBLOCK
100
AcDbLine
 10
5021.23881465777
 20
583.3235372478282
 30
0.0000000001127424
 11
5023.838814657771
 21
582.6268693538282
 31
0.0000000001127424
  0
LINE
  5
E61F
330
18
100
AcDbEntity
  8
0
  6
BYBLOCK
100
AcDbLine
 10
5023.838814657771
 20
582.6268693538282
 30
0.0000000001127424
 11
5021.23881465777
 21
581.9302014598281
 31
0.0000000001127424
  0
LINE
  5
E620
330
18
100
AcDbEntity
  8
0
  6
BYBLOCK
100
AcDbLine
 10
5023.838814657771
 20
582.6268693538282
 30
0.0000000001127424
 11
5021.23881465777
 21
582.6268693538282
 31
0.0000000001127424
  0
TEXT
  5
E621
330
18
100
AcDbEntity
  8
1DIM
  6
CONTINUOUS
100
AcDbText
 10
4951.424024567849
 20
583.5368693538281
 30
0.0000000001127424
 40
4.55
  1
138
100
AcDbText
1001
ACAD
1000
DSTYLE
1002
{
1070
    40
1040
1.3
1070
   271
1070
     0
1002
}
  0
VIEWPORT
  5
57
330
15
100
AcDbEntity
 67
     1
  8
0
100
AcDbViewport
 68
     1
 10
0.0
 20
0.0
 30
0.0
 40
555.8298653610772
 41
297.0
 68
     1
 69
     1
1001
ACAD
1000
MVIEW
1002
{
1070
    16
1010
0.0
1020
0.0
1030
0.0
1010
0.0
1020
0.0
1030
1.0
1040
0.0
1040
297.0
1040
5.728000000000009
1040
25.339
1040
50.0
1040
0.0
1040
0.0
1070
    16
1070
   100
1070
     0
1070
     1
1070
     0
1070
     0
1070
     0
1070
     0
1040
0.0
1040
0.0
1040
0.0
1040
10.0
1040
10.0
1040
10.0
1040
10.0
1070
     0
1002
{
1002
}
1002
}
  0
ENDSEC
  0
SECTION
  2
OBJECTS
  0
DICTIONARY
  5
C
330
0
100
AcDbDictionary
  3
ACAD_CIP_PREVIOUS_PRODUCT_INFO
350
AEA8
  3
ACAD_COLOR
350
18D
  3
ACAD_GROUP
350
D
  3
ACAD_LAYOUT
350
18E
  3
ACAD_MATERIAL
350
18C
  3
ACAD_MLEADERSTYLE
350
9583
  3
ACAD_MLINESTYLE
350
1B
  3
ACAD_PLOTSETTINGS
350
18F
  3
ACAD_SCALELIST
350
9561
  3
ACAD_VISUALSTYLE
350
9550
  3
ACDBHEADERROUNDTRIPXREC
350
E622
  3
ACDBVARIABLEDICTIONARY
350
37
  3
CONTENTDICTIONARY
350
D8
  3
DRAWINGVARIABLESDICT
350
20
  3
DWGPROPS
350
E625
1001
ACAD
1000
TREAT_AS_HARD
1070
     0
  0
DICTIONARY
  5
96D9
330
2
100
AcDbDictionary
  3
ACAD_LAYERSTATES
360
96DA
1001
ACAD
1000
TREAT_AS_HARD
1070
     1
  0
DICTIONARY
  5
9593
330
E
100
AcDbDictionary
  3
ADSK_XREC_LAYER_RECONCILED
360
9594
1001
ACAD
1000
TREAT_AS_HARD
1070
     1
  0
DICTIONARY
  5
9595
330
29
100
AcDbDictionary
  3
ADSK_XREC_LAYER_RECONCILED
360
9596
1001
ACAD
1000
TREAT_AS_HARD
1070
     1
  0
DICTIONARY
  5
9597
330
31
100
AcDbDictionary
  3
ADSK_XREC_LAYER_RECONCILED
360
9598
1001
ACAD
1000
TREAT_AS_HARD
1070
     1
  0
DICTIONARY
  5
959D
330
243
100
AcDbDictionary
  3
ADSK_XREC_LAYER_RECONCILED
360
959E
1001
ACAD
1000
TREAT_AS_HARD
1070
     1
  0
DICTIONARY
  5
95A3
330
24E
100
AcDbDictionary
  3
ADSK_XREC_LAYER_RECONCILED
360
95A4
1001
ACAD
1000
TREAT_AS_HARD
1070
     1
  0
DICTIONARY
  5
88F
330
18
100
AcDbDictionary
  3
ACAD_SORTENTS
360
890
1001
ACAD
1000
TREAT_AS_HARD
1070
     1
  0
XRECORD
  5
AEA8
102
{ACAD_REACTORS
330
C
102
}
330
C
100
AcDbXrecord
300
ACDLT
300
2012
300
ACDLT_F_S
  0
DICTIONARY
  5
18D
102
{ACAD_REACTORS
330
C
102
}
330
C
100
AcDbDictionary
1001
ACAD
1000
TREAT_AS_HARD
1070
     0
  0
DICTIONARY
  5
D
102
{ACAD_REACTORS
330
C
102
}
330
C
100
AcDbDictionary
1001
ACAD
1000
TREAT_AS_HARD
1070
     0
  0
DICTIONARY
  5
18E
102
{ACAD_REACTORS
330
C
102
}
330
C
100
AcDbDictionary
1001
ACAD
1000
TREAT_AS_HARD
1070
     0
  0
DICTIONARY
  5
18C
102
{ACAD_REACTORS
330
C
102
}
330
C
100
AcDbDictionary
  3
BYBLOCK
350
9540
  3
BYLAYER
350
9538
  3
GLOBAL
350
9548
1001
ACAD
1000
TREAT_AS_HARD
1070
     0
  0
DICTIONARY
  5
9583
102
{ACAD_REACTORS
330
C
102
}
330
C
100
AcDbDictionary
  3
STANDARD
350
9584
1001
ACAD
1000
TREAT_AS_HARD
1070
     0
  0
DICTIONARY
  5
1B
102
{ACAD_REACTORS
330
C
102
}
330
C
100
AcDbDictionary
  3
STANDARD
350
1C
1001
ACAD
1000
TREAT_AS_HARD
1070
     0
  0
DICTIONARY
  5
18F
102
{ACAD_REACTORS
330
C
102
}
330
C
100
AcDbDictionary
1001
ACAD
1000
TREAT_AS_HARD
1070
     0
  0
DICTIONARY
  5
9561
102
{ACAD_REACTORS
330
C
102
}
330
C
100
AcDbDictionary
  3
A0
350
9562
  3
A1
350
9563
  3
A2
350
9564
  3
A3
350
9565
  3
A4
350
9566
  3
A5
350
9567
  3
A6
350
9568
  3
A7
350
9569
  3
A8
350
956A
  3
A9
350
956B
  3
B0
350
956C
  3
B1
350
956D
  3
B2
350
956E
  3
B3
350
956F
  3
B4
350
9570
  3
B5
350
9571
  3
B6
350
9572
  3
B7
350
9573
  3
B8
350
9574
  3
B9
350
9575
  3
C0
350
9576
  3
C1
350
9577
  3
C2
350
9578
  3
C3
350
9579
  3
C4
350
957A
  3
C5
350
957B
  3
C6
350
957C
  3
C7
350
957D
  3
C8
350
957E
  3
C9
350
957F
  3
D0
350
9580
  3
D1
350
9581
  3
D2
350
9582
1001
ACAD
1000
TREAT_AS_HARD
1070
     0
  0
DICTIONARY
  5
9550
102
{ACAD_REACTORS
330
C
102
}
330
C
100
AcDbDictionary
  3
2DWIREFRAME
350
9556
  3
3D_HIDDEN
350
9558
  3
3DWIREFRAME
350
9557
  3
BASIC
350
9555
  3
BRIGHTEN
350
955C
  3
COLORCHANGE
350
9560
  3
CONCEPTUAL
350
9559
  3
DIM
350
955B
  3
EDGECOLOROFF
350
A211
  3
FACEPATTERN
350
955F
  3
FLAT
350
9551
  3
FLATWITHEDGES
350
9552
  3
GOURAUD
350
9553
  3
GOURAUDWITHEDGES
350
9554
  3
HIDDEN
350
A260
  3
JITTEROFF
350
A20F
  3
LINEPATTERN
350
955E
  3
MODELING
350
A266
  3
OVERHANGOFF
350
A210
  3
REALISTIC
350
955A
  3
SHADED
350
A265
  3
SHADED_WITH_EDGES
350
A264
  3
SHADES_OF_GRAY
350
A261
  3
SKETCHY
350
A262
  3
THICKEN
350
955D
  3
WIREFRAME
350
A25F
  3
X-RAY
350
A263
1001
ACAD
1000
TREAT_AS_HARD
1070
     0
  0
DICTIONARY
  5
E622
102
{ACAD_REACTORS
330
C
102
}
330
C
100
AcDbDictionary
  3
COLORDICT
350
E623
  3
MATERIALDICT
350
E624
1001
ACAD
1000
TREAT_AS_HARD
1070
     0
  0
DICTIONARY
  5
37
102
{ACAD_REACTORS
330
C
102
}
330
C
100
AcDbDictionary
  3
CANNOSCALE
350
AAE0
  3
CMLEADERSTYLE
350
9627
  3
CTABLESTYLE
350
29E
  3
DIMADEC
350
38
  3
DIMASSOC
350
1CE
  3
HIDETEXT
350
704E
  3
INDEXCTL
350
962A
  3
INTERSECTIONCOLOR
350
7052
  3
INTERSECTIONDISPLAY
350
7051
  3
MSLTSCALE
350
AB30
  3
OBSCOLOR
350
704F
  3
OBSLTYPE
350
7050
  3
PROJECTNAME
350
1CF
  3
SORTENTS
350
9629
  3
XCLIPFRAME
350
E469
1001
ACAD
1000
TREAT_AS_HARD
1070
     0
  0
DICTIONARY
  5
D8
102
{ACAD_REACTORS
330
C
102
}
330
C
100
AcDbDictionary
1001
ACAD
1000
TREAT_AS_HARD
1070
     0
  0
DICTIONARY
  5
20
102
{ACAD_REACTORS
330
C
102
}
330
C
100
AcDbDictionary
1001
DRAWINGVARIABLESXDATA
1000
POLARANG
1000
0.261799387799149410000000
1000
POLARMODE
1000
1
1000
POLARSTYLE
1000
1
1001
ACAD
1000
TREAT_AS_HARD
1070
     0
  0
XRECORD
  5
E625
102
{ACAD_REACTORS
330
C
102
}
330
C
100
AcDbXrecord
  1
DWGPROPS COOKIE
  2

  3

  4

  6

  7

  8
3684
  9

300
=
301
=
302
=
303
=
304
=
305
=
306
=
307
=
308
=
309
=
 40
0.0
 41
2451318.246352917
 42
2458157.162750694
  1

 90
        0
  0
DICTIONARY
  5
96DA
102
{ACAD_REACTORS
330
96D9
102
}
330
96D9
100
AcDbDictionary
1001
ACAD
1000
TREAT_AS_HARD
1070
     0
  0
ACAD_PROXY_OBJECT
  5
9594
102
{ACAD_REACTORS
330
9593
102
}
330
9593
100
AcDbZombieObject
 90
      499
 91
      514
 93
       34
310
40C8804040
  0
ACAD_PROXY_OBJECT
  5
9596
102
{ACAD_REACTORS
330
9595
102
}
330
9595
100
AcDbZombieObject
 90
      499
 91
      514
 93
       34
310
40C8804040
  0
ACAD_PROXY_OBJECT
  5
9598
102
{ACAD_REACTORS
330
9597
102
}
330
9597
100
AcDbZombieObject
 90
      499
 91
      514
 93
       34
310
40C8804040
  0
ACAD_PROXY_OBJECT
  5
959E
102
{ACAD_REACTORS
330
959D
102
}
330
959D
100
AcDbZombieObject
 90
      499
 91
      514
 93
       34
310
40C8804040
  0
ACAD_PROXY_OBJECT
  5
95A4
102
{ACAD_REACTORS
330
95A3
102
}
330
95A3
100
AcDbZombieObject
 90
      499
 91
      514
 93
       34
310
40C8804040
  0
SORTENTSTABLE
  5
890
102
{ACAD_REACTORS
330
88F
102
}
330
88F
100
AcDbSortentsTable
330
18
331
E319
  5
E33A
331
E31A
  5
E33C
331
E31B
  5
E33E
331
E31C
  5
E33F
331
E31E
  5
E353
331
E31F
  5
E354
331
E320
  5
E355
331
E321
  5
E356
331
E322
  5
E357
331
E323
  5
E359
331
E324
  5
E35B
331
E325
  5
E35C
331
E326
  5
E35F
331
E327
  5
E360
331
E328
  5
E368
331
E329
  5
E36A
331
E32A
  5
E36D
331
E32B
  5
E36E
331
E32C
  5
E36F
331
E32D
  5
E370
331
E32E
  5
E372
331
E32F
  5
E373
331
E330
  5
E374
331
E331
  5
E376
331
E332
  5
E377
331
0
  5
E34B
331
E334
  5
E383
331
0
  5
E337
331
E336
  5
E501
331
0
  5
E339
331
E338
  5
E504
331
0
  5
E33B
331
E33A
  5
E50E
331
0
  5
E33D
331
E33C
  5
E511
331
E33D
  5
E512
331
0
  5
E340
331
E33F
  5
E517
331
E340
  5
E518
331
0
  5
E343
331
E342
  5
E51D
331
0
  5
E345
331
0
  5
E346
331
E345
  5
E524
331
E346
  5
E525
331
0
  5
E349
331
E348
  5
E52D
331
E349
  5
E52E
331
0
  5
E34C
331
E34B
  5
E536
331
E34C
  5
E537
331
0
  5
E34F
331
0
  5
E350
331
E34F
  5
E53E
331
E350
  5
E53F
331
E351
  5
E540
331
E352
  5
E541
331
E353
  5
E542
331
E354
  5
E543
331
E355
  5
E544
331
0
  5
E358
331
E357
  5
E563
331
E358
  5
E564
331
E359
  5
E565
331
E35A
  5
E566
331
0
  5
E35D
331
0
  5
E35E
331
E35D
  5
E57A
331
E35E
  5
E57B
331
0
  5
E361
331
0
  5
E362
331
0
  5
E363
331
0
  5
E364
331
E363
  5
E58A
331
E364
  5
E58B
331
E365
  5
E58C
331
E366
  5
E58D
331
0
  5
E369
331
E368
  5
E5AC
331
0
  5
E36B
331
0
  5
E36C
331
E36B
  5
E5BB
331
E36C
  5
E5BC
331
E36D
  5
E5BD
331
E36E
  5
E5BE
331
0
  5
E371
331
E370
  5
E5D6
331
E371
  5
E5D7
331
E372
  5
E5D8
331
0
  5
E375
331
E374
  5
E5E2
331
0
  5
E5B4
331
0
  5
E5B5
331
E377
  5
E5F7
331
0
  5
E37A
331
E379
  5
E605
331
E37A
  5
E606
331
E37B
  5
E607
331
E37C
  5
E608
331
E37D
  5
E609
331
E37E
  5
E60A
331
E37F
  5
E60B
331
E380
  5
E60C
331
E381
  5
E60D
331
E382
  5
E60E
331
E383
  5
E60F
331
E384
  5
E610
331
E385
  5
E611
331
E386
  5
E612
331
E387
  5
E613
331
E388
  5
E614
331
E389
  5
E615
331
E38A
  5
E616
331
0
  5
E452
331
0
  5
E453
331
E453
  5
E35A
331
E501
  5
E341
331
E502
  5
E342
331
E503
  5
E344
331
0
  5
E321
331
0
  5
E322
331
0
  5
E323
331
E507
  5
E384
331
E508
  5
E385
331
E509
  5
E386
331
E50A
  5
E387
331
E50B
  5
E388
331
E50C
  5
E389
331
E50D
  5
E38A
331
E50E
  5
E38B
331
E50F
  5
E38C
331
E510
  5
E502
331
E511
  5
E503
331
E512
  5
E505
331
E513
  5
E506
331
E514
  5
E507
331
E515
  5
E508
331
E516
  5
E509
331
E517
  5
E50A
331
E518
  5
E50B
331
E519
  5
E50C
331
E51A
  5
E50D
331
E51B
  5
E50F
331
E51C
  5
E510
331
E51D
  5
E513
331
E51E
  5
E514
331
E51F
  5
E515
331
E520
  5
E516
331
E521
  5
E519
331
E522
  5
E51A
331
E523
  5
E51B
331
E524
  5
E51C
331
E525
  5
E51E
331
E526
  5
E51F
331
E527
  5
E520
331
E528
  5
E521
331
E529
  5
E522
331
E52A
  5
E523
331
E52B
  5
E526
331
E52C
  5
E527
331
E52D
  5
E528
331
E52E
  5
E529
331
E52F
  5
E52A
331
E530
  5
E52B
331
E531
  5
E52C
331
E532
  5
E52F
331
E533
  5
E530
331
E534
  5
E531
331
E535
  5
E532
331
E536
  5
E533
331
E537
  5
E534
331
E538
  5
E535
331
E539
  5
E538
331
E53A
  5
E539
331
E53B
  5
E53A
331
E53C
  5
E53B
331
E53D
  5
E53C
331
E53E
  5
E53D
331
E53F
  5
E545
331
E540
  5
E546
331
E541
  5
E547
331
E542
  5
E548
331
E543
  5
E549
331
E544
  5
E54A
331
E545
  5
E54B
331
E546
  5
E54C
331
E547
  5
E54D
331
E548
  5
E54E
331
E549
  5
E54F
331
E54A
  5
E550
331
E54B
  5
E551
331
E54C
  5
E552
331
E54D
  5
E553
331
E54E
  5
E554
331
E54F
  5
E555
331
E550
  5
E556
331
E551
  5
E557
331
E552
  5
E558
331
E553
  5
E559
331
E554
  5
E55A
331
E555
  5
E55B
331
E556
  5
E55C
331
E557
  5
E55D
331
E558
  5
E55E
331
E559
  5
E55F
331
E55A
  5
E560
331
E55B
  5
E561
331
E55C
  5
E562
331
E55D
  5
E567
331
E55E
  5
E568
331
E55F
  5
E569
331
E560
  5
E56A
331
E561
  5
E56B
331
E562
  5
E56C
331
E563
  5
E56D
331
E564
  5
E56E
331
E565
  5
E56F
331
E566
  5
E570
331
E567
  5
E571
331
E568
  5
E572
331
E569
  5
E573
331
E56A
  5
E574
331
E56B
  5
E575
331
E56C
  5
E576
331
E56D
  5
E577
331
E56E
  5
E578
331
E56F
  5
E579
331
E570
  5
E57C
331
E571
  5
E57D
331
E572
  5
E57E
331
E573
  5
E57F
331
E574
  5
E580
331
E575
  5
E581
331
E576
  5
E582
331
E577
  5
E583
331
E578
  5
E584
331
E579
  5
E585
331
E57A
  5
E586
331
E57B
  5
E587
331
E57C
  5
E588
331
E57D
  5
E589
331
E57E
  5
E58E
331
E57F
  5
E58F
331
E580
  5
E590
331
E581
  5
E591
331
E582
  5
E592
331
E583
  5
E593
331
E584
  5
E594
331
E585
  5
E595
331
E586
  5
E596
331
E587
  5
E597
331
E588
  5
E598
331
E589
  5
E599
331
E58A
  5
E59A
331
E58B
  5
E59B
331
E58C
  5
E59C
331
E58D
  5
E59D
331
E58E
  5
E59E
331
E58F
  5
E59F
331
E590
  5
E5A0
331
E591
  5
E5A1
331
E592
  5
E5A2
331
E593
  5
E5A3
331
E594
  5
E5A4
331
E595
  5
E5A5
331
E596
  5
E5A6
331
E597
  5
E5A7
331
E598
  5
E5A8
331
E599
  5
E5A9
331
E59A
  5
E5AA
331
E59B
  5
E5AB
331
E59C
  5
E5AD
331
E59D
  5
E5AE
331
E59E
  5
E5AF
331
E59F
  5
E5B0
331
E5A0
  5
E5B1
331
E5A1
  5
E5B2
331
E5A2
  5
E5B3
331
E5A3
  5
E5B6
331
E5A4
  5
E5B7
331
E5A5
  5
E5B8
331
E5A6
  5
E5B9
331
E5A7
  5
E5BA
331
E5A8
  5
E5BF
331
E5A9
  5
E5C0
331
E5AA
  5
E5C1
331
E5AB
  5
E5C2
331
E5AC
  5
E5C3
331
E5AD
  5
E5C4
331
E5AE
  5
E5C5
331
E5AF
  5
E5C6
331
E5B0
  5
E5C7
331
E5B1
  5
E5C8
331
E5B2
  5
E5C9
331
E5B3
  5
E5CA
331
E5B4
  5
E5CE
331
E5B5
  5
E5CF
331
E5B6
  5
E5D0
331
E5B7
  5
E5D4
331
E5B8
  5
E5D5
331
E5B9
  5
E5D9
331
E5BA
  5
E5DA
331
E5BB
  5
E5DB
331
E5BC
  5
E5DC
331
E5BD
  5
E5DD
331
E5BE
  5
E5DE
331
E5BF
  5
E5DF
331
E5C0
  5
E5E0
331
E5C1
  5
E5E1
331
E5C2
  5
E5F8
331
E5C3
  5
E5F9
331
E5C4
  5
E5FA
331
E5C5
  5
E5FB
331
E5C6
  5
E5FC
331
E5C7
  5
E5FD
331
E5C8
  5
E5FE
331
E5C9
  5
E5FF
331
E5CA
  5
E600
331
E5CB
  5
E601
331
E5CC
  5
E602
331
E5CD
  5
E603
331
E5CE
  5
E604
331
E5CF
  5
E617
331
E5D0
  5
E618
331
E5D1
  5
E619
331
E5D2
  5
E61A
331
E5D3
  5
E61B
331
E5D4
  5
E61C
331
E5D5
  5
E61D
331
E5D6
  5
E61E
331
E5D7
  5
E61F
331
E5D8
  5
E620
331
E5D9
  5
E621
331
E5DA
  5
E347
331
E5DB
  5
E348
331
E5DC
  5
E34A
331
E5DD
  5
E34D
331
E5DE
  5
E34E
331
E5DF
  5
E351
331
E5E0
  5
E352
331
E5E1
  5
E319
331
E5E2
  5
E31A
331
E5E3
  5
E31B
331
0
  5
E31C
331
0
  5
E31E
331
0
  5
E31F
331
E5E7
  5
E32E
331
E5E8
  5
E32F
331
E5E9
  5
E330
331
0
  5
E327
331
0
  5
E328
331
0
  5
E329
331
E5ED
  5
E378
331
E5EE
  5
E379
331
E5EF
  5
E37B
331
0
  5
E365
331
0
  5
E366
331
0
  5
E367
331
E5F3
  5
E5E3
331
E5F4
  5
E5E4
331
E5F5
  5
E5E5
331
0
  5
E5CB
331
0
  5
E5CC
331
0
  5
E5CD
331
E5F9
  5
E5ED
331
E5FA
  5
E5EE
331
E5FB
  5
E5EF
331
0
  5
E5D1
331
0
  5
E5D2
331
0
  5
E5D3
331
E5FF
  5
E320
331
E600
  5
E325
331
E601
  5
E326
331
E602
  5
E32A
331
E603
  5
E32B
331
E604
  5
E32C
331
E605
  5
E32D
331
E606
  5
E331
331
E607
  5
E332
331
E608
  5
E333
331
E609
  5
E334
331
E60A
  5
E335
331
E60B
  5
E336
331
E60C
  5
E338
331
E60D
  5
E37C
331
E60E
  5
E37D
331
E60F
  5
E37E
331
E610
  5
E37F
331
E611
  5
E380
331
E612
  5
E381
331
E613
  5
E382
331
E614
  5
E5E6
331
E615
  5
E5E7
331
E616
  5
E5E8
331
E617
  5
E5E9
331
E618
  5
E5EA
331
E619
  5
E5EB
331
E61A
  5
E5EC
331
E61B
  5
E5F0
331
E61C
  5
E5F1
331
E61D
  5
E5F2
331
E61E
  5
E5F3
331
E61F
  5
E5F4
331
E620
  5
E5F5
331
E621
  5
E5F6
  0
MATERIAL
  5
9540
102
{ACAD_REACTORS
330
18C
102
}
102
{ACAD_XDICTIONARY
360
E7C0
102
}
330
18C
100
AcDbMaterial
  1
BYBLOCK
 72
     0
 73
     2
 43
0.0208333333333333
 43
0.0
 43
0.0
 43
0.0
 43
0.0
 43
0.0208333333333333
 43
0.0
 43
0.0
 43
0.0
 43
0.0
 43
1.0
 43
0.0
 43
0.0
 43
0.0
 43
0.0
 43
1.0
 77
     0
 78
     2
 47
0.0208333333333333
 47
0.0
 47
0.0
 47
0.0
 47
0.0
 47
0.0208333333333333
 47
0.0
 47
0.0
 47
0.0
 47
0.0
 47
1.0
 47
0.0
 47
0.0
 47
0.0
 47
0.0
 47
1.0
171
     0
172
     2
 49
0.0208333333333333
 49
0.0
 49
0.0
 49
0.0
 49
0.0
 49
0.0208333333333333
 49
0.0
 49
0.0
 49
0.0
 49
0.0
 49
1.0
 49
0.0
 49
0.0
 49
0.0
 49
0.0
 49
1.0
175
     0
176
     2
142
0.0208333333333333
142
0.0
142
0.0
142
0.0
142
0.0
142
0.0208333333333333
142
0.0
142
0.0
142
0.0
142
0.0
142
1.0
142
0.0
142
0.0
142
0.0
142
0.0
142
1.0
179
     0
270
     2
144
0.0208333333333333
144
0.0
144
0.0
144
0.0
144
0.0
144
0.0208333333333333
144
0.0
144
0.0
144
0.0
144
0.0
144
1.0
144
0.0
144
0.0
144
0.0
144
0.0
144
1.0
274
     2
147
0.0208333333333333
147
0.0
147
0.0
147
0.0
147
0.0
147
0.0208333333333333
147
0.0
147
0.0
147
0.0
147
0.0
147
1.0
147
0.0
147
0.0
147
0.0
147
0.0
147
1.0
  0
MATERIAL
  5
9538
102
{ACAD_REACTORS
330
18C
102
}
102
{ACAD_XDICTIONARY
360
E7C2
102
}
330
18C
100
AcDbMaterial
  1
BYLAYER
 72
     0
 73
     2
 43
0.0208333333333333
 43
0.0
 43
0.0
 43
0.0
 43
0.0
 43
0.0208333333333333
 43
0.0
 43
0.0
 43
0.0
 43
0.0
 43
1.0
 43
0.0
 43
0.0
 43
0.0
 43
0.0
 43
1.0
 77
     0
 78
     2
 47
0.0208333333333333
 47
0.0
 47
0.0
 47
0.0
 47
0.0
 47
0.0208333333333333
 47
0.0
 47
0.0
 47
0.0
 47
0.0
 47
1.0
 47
0.0
 47
0.0
 47
0.0
 47
0.0
 47
1.0
171
     0
172
     2
 49
0.0208333333333333
 49
0.0
 49
0.0
 49
0.0
 49
0.0
 49
0.0208333333333333
 49
0.0
 49
0.0
 49
0.0
 49
0.0
 49
1.0
 49
0.0
 49
0.0
 49
0.0
 49
0.0
 49
1.0
175
     0
176
     2
142
0.0208333333333333
142
0.0
142
0.0
142
0.0
142
0.0
142
0.0208333333333333
142
0.0
142
0.0
142
0.0
142
0.0
142
1.0
142
0.0
142
0.0
142
0.0
142
0.0
142
1.0
179
     0
270
     2
144
0.0208333333333333
144
0.0
144
0.0
144
0.0
144
0.0
144
0.0208333333333333
144
0.0
144
0.0
144
0.0
144
0.0
144
1.0
144
0.0
144
0.0
144
0.0
144
0.0
144
1.0
274
     2
147
0.0208333333333333
147
0.0
147
0.0
147
0.0
147
0.0
147
0.0208333333333333
147
0.0
147
0.0
147
0.0
147
0.0
147
1.0
147
0.0
147
0.0
147
0.0
147
0.0
147
1.0
  0
MATERIAL
  5
9548
102
{ACAD_REACTORS
330
18C
102
}
102
{ACAD_XDICTIONARY
360
E7C4
102
}
330
18C
100
AcDbMaterial
  1
GLOBAL
 72
     0
 73
     2
 43
0.0208333333333333
 43
0.0
 43
0.0
 43
0.0
 43
0.0
 43
0.0208333333333333
 43
0.0
 43
0.0
 43
0.0
 43
0.0
 43
1.0
 43
0.0
 43
0.0
 43
0.0
 43
0.0
 43
1.0
 77
     0
 78
     2
 47
0.0208333333333333
 47
0.0
 47
0.0
 47
0.0
 47
0.0
 47
0.0208333333333333
 47
0.0
 47
0.0
 47
0.0
 47
0.0
 47
1.0
 47
0.0
 47
0.0
 47
0.0
 47
0.0
 47
1.0
171
     0
172
     2
 49
0.0208333333333333
 49
0.0
 49
0.0
 49
0.0
 49
0.0
 49
0.0208333333333333
 49
0.0
 49
0.0
 49
0.0
 49
0.0
 49
1.0
 49
0.0
 49
0.0
 49
0.0
 49
0.0
 49
1.0
175
     0
176
     2
142
0.0208333333333333
142
0.0
142
0.0
142
0.0
142
0.0
142
0.0208333333333333
142
0.0
142
0.0
142
0.0
142
0.0
142
1.0
142
0.0
142
0.0
142
0.0
142
0.0
142
1.0
179
     0
270
     2
144
0.0208333333333333
144
0.0
144
0.0
144
0.0
144
0.0
144
0.0208333333333333
144
0.0
144
0.0
144
0.0
144
0.0
144
1.0
144
0.0
144
0.0
144
0.0
144
0.0
144
1.0
274
     2
147
0.0208333333333333
147
0.0
147
0.0
147
0.0
147
0.0
147
0.0208333333333333
147
0.0
147
0.0
147
0.0
147
0.0
147
1.0
147
0.0
147
0.0
147
0.0
147
0.0
147
1.0
  0
ACAD_PROXY_OBJECT
  5
9584
102
{ACAD_REACTORS
330
9583
102
}
330
9583
100
AcDbZombieObject
 90
      499
 91
      511
 93
      610
310
40901902A4063FBFFFFFE000000000000002040AD7A3703D0AD73F4214DD185B99185C990000000000000104090141901A00000000000004100000000000000041025764000000000000300FC0
340
12
340
0
340
F
340
0
 94
        0
1001
ACAD_MLEADERVER
1070
     2
  0
MLINESTYLE
  5
1C
102
{ACAD_REACTORS
330
1B
102
}
330
1B
100
AcDbMlineStyle
  2
STANDARD
 70
     0
  3

 62
   256
 51
90.0
 52
90.0
 71
     2
 49
0.5
 62
   256
  6
BYLAYER
 49
-0.5
 62
   256
  6
BYLAYER
  0
ACAD_PROXY_OBJECT
  5
9562
102
{ACAD_REACTORS
330
9561
102
}
330
9561
100
AcDbZombieObject
 90
      499
 91
      510
 93
       41
310
903313A31580
  0
ACAD_PROXY_OBJECT
  5
9563
102
{ACAD_REACTORS
330
9561
102
}
330
9561
100
AcDbZombieObject
 90
      499
 91
      510
 93
      105
310
903313A324000000000000004000
  0
ACAD_PROXY_OBJECT
  5
9564
102
{ACAD_REACTORS
330
9561
102
}
330
9561
100
AcDbZombieObject
 90
      499
 91
      510
 93
      105
310
903313A344000000000000104000
  0
ACAD_PROXY_OBJECT
  5
9565
102
{ACAD_REACTORS
330
9561
102
}
330
9561
100
AcDbZombieObject
 90
      499
 91
      510
 93
      105
310
903313A354000000000000144000
  0
ACAD_PROXY_OBJECT
  5
9566
102
{ACAD_REACTORS
330
9561
102
}
330
9561
100
AcDbZombieObject
 90
      499
 91
      510
 93
      105
310
903313A384000000000000204000
  0
ACAD_PROXY_OBJECT
  5
9567
102
{ACAD_REACTORS
330
9561
102
}
330
9561
100
AcDbZombieObject
 90
      499
 91
      510
 93
      113
310
904313A31304000000000000244000
  0
ACAD_PROXY_OBJECT
  5
9568
102
{ACAD_REACTORS
330
9561
102
}
330
9561
100
AcDbZombieObject
 90
      499
 91
      510
 93
      113
310
904313A31364000000000000304000
  0
ACAD_PROXY_OBJECT
  5
9569
102
{ACAD_REACTORS
330
9561
102
}
330
9561
100
AcDbZombieObject
 90
      499
 91
      510
 93
      113
310
904313A32304000000000000344000
  0
ACAD_PROXY_OBJECT
  5
956A
102
{ACAD_REACTORS
330
9561
102
}
330
9561
100
AcDbZombieObject
 90
      499
 91
      510
 93
      113
310
904313A333040000000000003E4000
  0
ACAD_PROXY_OBJECT
  5
956B
102
{ACAD_REACTORS
330
9561
102
}
330
9561
100
AcDbZombieObject
 90
      499
 91
      510
 93
      113
310
904313A34304000000000000444000
  0
ACAD_PROXY_OBJECT
  5
956C
102
{ACAD_REACTORS
330
9561
102
}
330
9561
100
AcDbZombieObject
 90
      499
 91
      510
 93
      113
310
904313A35304000000000000494000
  0
ACAD_PROXY_OBJECT
  5
956D
102
{ACAD_REACTORS
330
9561
102
}
330
9561
100
AcDbZombieObject
 90
      499
 91
      510
 93
      121
310
905313A3130304000000000000594000
  0
ACAD_PROXY_OBJECT
  5
956E
102
{ACAD_REACTORS
330
9561
102
}
330
9561
100
AcDbZombieObject
 90
      499
 91
      510
 93
      105
310
903323A310000000000000010100
  0
ACAD_PROXY_OBJECT
  5
956F
102
{ACAD_REACTORS
330
9561
102
}
330
9561
100
AcDbZombieObject
 90
      499
 91
      510
 93
      105
310
903343A310000000000000410100
  0
ACAD_PROXY_OBJECT
  5
9570
102
{ACAD_REACTORS
330
9561
102
}
330
9561
100
AcDbZombieObject
 90
      499
 91
      510
 93
      105
310
903383A310000000000000810100
  0
ACAD_PROXY_OBJECT
  5
9571
102
{ACAD_REACTORS
330
9561
102
}
330
9561
100
AcDbZombieObject
 90
      499
 91
      510
 93
      113
310
90431303A310000000000000910100
  0
ACAD_PROXY_OBJECT
  5
9572
102
{ACAD_REACTORS
330
9561
102
}
330
9561
100
AcDbZombieObject
 90
      499
 91
      510
 93
      121
310
9053130303A310000000000001650100
  0
ACAD_PROXY_OBJECT
  5
9573
102
{ACAD_REACTORS
330
9561
102
}
330
9561
100
AcDbZombieObject
 90
      499
 91
      510
 93
      257
310
90E312F31323822203D2031272D3022000000000000200FC000000000000284000
  0
ACAD_PROXY_OBJECT
  5
9574
102
{ACAD_REACTORS
330
9561
102
}
330
9561
100
AcDbZombieObject
 90
      499
 91
      510
 93
      249
310
90D312F363422203D2031272D3022000000000000240FC000000000000284000
  0
ACAD_PROXY_OBJECT
  5
9575
102
{ACAD_REACTORS
330
9561
102
}
330
9561
100
AcDbZombieObject
 90
      499
 91
      510
 93
      249
310
90D312F333222203D2031272D3022000000000000280FC000000000000284000
  0
ACAD_PROXY_OBJECT
  5
9576
102
{ACAD_REACTORS
330
9561
102
}
330
9561
100
AcDbZombieObject
 90
      499
 91
      510
 93
      249
310
90D312F313622203D2031272D30220000000000002C0FC000000000000284000
  0
ACAD_PROXY_OBJECT
  5
9577
102
{ACAD_REACTORS
330
9561
102
}
330
9561
100
AcDbZombieObject
 90
      499
 91
      510
 93
      249
310
90D332F333222203D2031272D30220000000000002E0FC000000000000284000
  0
ACAD_PROXY_OBJECT
  5
9578
102
{ACAD_REACTORS
330
9561
102
}
330
9561
100
AcDbZombieObject
 90
      499
 91
      510
 93
      241
310
90C312F3822203D2031272D3022000000000000300FC000000000000284000
  0
ACAD_PROXY_OBJECT
  5
9579
102
{ACAD_REACTORS
330
9561
102
}
330
9561
100
AcDbZombieObject
 90
      499
 91
      510
 93
      249
310
90D332F313622203D2031272D3022000000000000320FC000000000000284000
  0
ACAD_PROXY_OBJECT
  5
957A
102
{ACAD_REACTORS
330
9561
102
}
330
9561
100
AcDbZombieObject
 90
      499
 91
      510
 93
      241
310
90C312F3422203D2031272D3022000000000000340FC000000000000284000
  0
ACAD_PROXY_OBJECT
  5
957B
102
{ACAD_REACTORS
330
9561
102
}
330
9561
100
AcDbZombieObject
 90
      499
 91
      510
 93
      241
310
90C332F3822203D2031272D3022000000000000360FC000000000000284000
  0
ACAD_PROXY_OBJECT
  5
957C
102
{ACAD_REACTORS
330
9561
102
}
330
9561
100
AcDbZombieObject
 90
      499
 91
      510
 93
      241
310
90C312F3222203D2031272D3022000000000000380FC000000000000284000
  0
ACAD_PROXY_OBJECT
  5
957D
102
{ACAD_REACTORS
330
9561
102
}
330
9561
100
AcDbZombieObject
 90
      499
 91
      510
 93
      241
310
90C332F3422203D2031272D30220000000000003A0FC000000000000284000
  0
ACAD_PROXY_OBJECT
  5
957E
102
{ACAD_REACTORS
330
9561
102
}
330
9561
100
AcDbZombieObject
 90
      499
 91
      510
 93
      161
310
90A3122203D2031272D30224000000000000284000
  0
ACAD_PROXY_OBJECT
  5
957F
102
{ACAD_REACTORS
330
9561
102
}
330
9561
100
AcDbZombieObject
 90
      499
 91
      510
 93
      257
310
90E312D312F3222203D2031272D30220000000000003E0FC000000000000284000
  0
ACAD_PROXY_OBJECT
  5
9580
102
{ACAD_REACTORS
330
9561
102
}
330
9561
100
AcDbZombieObject
 90
      499
 91
      510
 93
      225
310
90A3322203D2031272D302200000000000002100000000000000284000
  0
ACAD_PROXY_OBJECT
  5
9581
102
{ACAD_REACTORS
330
9561
102
}
330
9561
100
AcDbZombieObject
 90
      499
 91
      510
 93
      225
310
90A3622203D2031272D302200000000000006100000000000000284000
  0
ACAD_PROXY_OBJECT
  5
9582
102
{ACAD_REACTORS
330
9561
102
}
330
9561
100
AcDbZombieObject
 90
      499
 91
      510
 93
      249
310
90D31272D3022203D2031272D30220000000000000A100000000000000284000
  0
ACAD_PROXY_OBJECT
  5
9556
102
{ACAD_REACTORS
330
9550
102
}
330
9550
100
AcDbZombieObject
 90
      499
 91
      509
 93
      436
310
42CC9915DA5C99599C985B595049028333333333333E3BF0000000000000FB0107901411070040501600405405064090741402480A0340
1001
ACAD
1000
AcDbSavedByObjectVersion
1070
     0
  0
ACAD_PROXY_OBJECT
  5
9558
102
{ACAD_REACTORS
330
9550
102
}
330
9550
100
AcDbZombieObject
 90
      499
 91
      509
 93
      500
310
424CD108121A5919195B90640502408333333333333E3BF0000000000000FB01079024090700405020000000000001110200405405064090740C02480A0340
1001
ACAD
1000
AcDbSavedByObjectVersion
1070
     0
  0
ACAD_PROXY_OBJECT
  5
9557
102
{ACAD_REACTORS
330
9550
102
}
330
9550
100
AcDbZombieObject
 90
      499
 91
      509
 93
      436
310
42CCD915DA5C99599C985B595059028333333333333E3BF0000000000000FB0107901411070040501600405405064090741402480A0340
1001
ACAD
1000
AcDbSavedByObjectVersion
1070
     0
  0
ACAD_PROXY_OBJECT
  5
9555
102
{ACAD_REACTORS
330
9550
102
}
330
9550
100
AcDbZombieObject
 90
      499
 91
      509
 93
      388
310
4150985CDA58D07406404333333333333E3BF0000000000000FB0107A41107004050150841D405064090741402480A0350
1001
ACAD
1000
AcDbSavedByObjectVersion
1070
     0
  0
ACAD_PROXY_OBJECT
  5
955C
102
{ACAD_REACTORS
330
9550
102
}
330
9550
100
AcDbZombieObject
 90
      499
 91
      509
 93
      428
310
42109C9A59DA1D195B90C409028333333333333E3BF0000000000000FB010790141107004050150841D405064090741402480A029950
1001
ACAD
1000
AcDbSavedByObjectVersion
1070
     0
  0
ACAD_PROXY_OBJECT
  5
9560
102
{ACAD_REACTORS
330
9550
102
}
330
9550
100
AcDbZombieObject
 90
      499
 91
      509
 93
      452
310
42D0DBDB1BDC90DA185B99D95104090240C333333333333E3BF0000000000000FB0108901411070040501508421405064090741402480A0350
1001
ACAD
1000
AcDbSavedByObjectVersion
1070
     0
  0
ACAD_PROXY_OBJECT
  5
9559
102
{ACAD_REACTORS
330
9550
102
}
330
9550
100
AcDbZombieObject
 90
      499
 91
      509
 93
      500
310
4290DBDB98D95C1D1D585B10940D028333333333333E3BF0000000000000FB0107902409070040501000000000000111010841D405064090740C02480A0340
1001
ACAD
1000
AcDbSavedByObjectVersion
1070
     0
  0
ACAD_PROXY_OBJECT
  5
955B
102
{ACAD_REACTORS
330
9550
102
}
330
9550
100
AcDbZombieObject
 90
      499
 91
      509
 93
      412
310
40D11A5B50B409028333333333333E3BF0000000000000FB010790141107004050150841D405064090741402480A02677FFFFFD0
1001
ACAD
1000
AcDbSavedByObjectVersion
1070
     0
  0
ACAD_PROXY_OBJECT
  5
A211
102
{ACAD_REACTORS
330
9550
102
}
330
9550
100
AcDbZombieObject
 90
      499
 91
      509
 93
      452
310
43115919D950DBDB1BDC93D999916409028333333333333E3BF0000000000000FB010790141107004050150841D405064090741402480A0350
1001
ACAD
1000
AcDbSavedByObjectVersion
1070
     0
  0
ACAD_PROXY_OBJECT
  5
955F
102
{ACAD_REACTORS
330
9550
102
}
330
9550
100
AcDbZombieObject
 90
      499
 91
      509
 93
      444
310
42D19858D95C185D1D195C9B90F409028333333333333E3BF0000000000000FB010790141107004050150841D405064090741402480A0350
1001
ACAD
1000
AcDbSavedByObjectVersion
1070
     0
  0
ACAD_PROXY_OBJECT
  5
9551
102
{ACAD_REACTORS
330
9550
102
}
330
9550
100
AcDbZombieObject
 90
      499
 91
      509
 93
      388
310
41119B185D240901404333333333333E3BF0000000000000F9010740A41107004050150841D405064090741402480A1B50
1001
ACAD
1000
AcDbSavedByObjectVersion
1070
     0
  0
ACAD_PROXY_OBJECT
  5
9552
102
{ACAD_REACTORS
330
9550
102
}
330
9550
100
AcDbZombieObject
 90
      499
 91
      509
 93
      476
310
43519B185D15DA5D1A115919D95CD0140901404333333333333E3BF0000000000000F9010740901411070040501600405405064090741402480A1B50
1001
ACAD
1000
AcDbSavedByObjectVersion
1070
     0
  0
ACAD_PROXY_OBJECT
  5
9553
102
{ACAD_REACTORS
330
9550
102
}
330
9550
100
AcDbZombieObject
 90
      499
 91
      509
 93
      412
310
41D1DBDD5C985D5910240902404333333333333E3BF0000000000000F9010740A411070040501641D405064090741402480A1B50
1001
ACAD
1000
AcDbSavedByObjectVersion
1070
     0
  0
ACAD_PROXY_OBJECT
  5
9554
102
{ACAD_REACTORS
330
9550
102
}
330
9550
100
AcDbZombieObject
 90
      499
 91
      509
 93
      500
310
4411DBDD5C985D5915DA5D1A115919D95CD0340902404333333333333E3BF0000000000000F9010740901411070040501600405405064090741402480A1B50
1001
ACAD
1000
AcDbSavedByObjectVersion
1070
     0
  0
ACAD_PROXY_OBJECT
  5
A260
102
{ACAD_REACTORS
330
9550
102
}
330
9550
100
AcDbZombieObject
 90
      499
 91
      509
 93
      476
310
41921A5919195B90640502408333333333333E3BF0000000000000FB01079024090700405020000000000001110200405405064090740C02480A0340
1001
ACAD
1000
AcDbSavedByObjectVersion
1070
     0
  0
ACAD_PROXY_OBJECT
  5
A20F
102
{ACAD_REACTORS
330
9550
102
}
330
9550
100
AcDbZombieObject
 90
      499
 91
      509
 93
      428
310
42529A5D1D195C93D999914409028333333333333E3BF0000000000000FB010790141107004050150A41D405064090741402480A0350
1001
ACAD
1000
AcDbSavedByObjectVersion
1070
     0
  0
ACAD_PROXY_OBJECT
  5
955E
102
{ACAD_REACTORS
330
9550
102
}
330
9550
100
AcDbZombieObject
 90
      499
 91
      509
 93
      444
310
42D31A5B995C185D1D195C9B90E409028333333333333E3BF0000000000000FB010790141107004050750841D405064090741402483A0350
1001
ACAD
1000
AcDbSavedByObjectVersion
1070
     0
  0
ACAD_PROXY_OBJECT
  5
A266
102
{ACAD_REACTORS
330
9550
102
}
330
9550
100
AcDbZombieObject
 90
      499
 91
      509
 93
      484
310
42135BD9195B1A5B99D0A409028333333333333E3BF0000000000000F901074090290700405010000000000201990108421405064090741402480A1B40
1001
ACAD
1000
AcDbSavedByObjectVersion
1070
     0
  0
ACAD_PROXY_OBJECT
  5
A210
102
{ACAD_REACTORS
330
9550
102
}
330
9550
100
AcDbZombieObject
 90
      499
 91
      509
 93
      444
310
42D3DD995C9A185B99D3D999915409028333333333333E3BF0000000000000FB010790141107004050150941D405064090741402480A0350
1001
ACAD
1000
AcDbSavedByObjectVersion
1070
     0
  0
ACAD_PROXY_OBJECT
  5
955A
102
{ACAD_REACTORS
330
9550
102
}
330
9550
100
AcDbZombieObject
 90
      499
 91
      509
 93
      420
310
425499585B1A5CDD1A58D08409028333333333333E3BF0000000000000FB01079019070040501508421405064090741402480A1B40
1001
ACAD
1000
AcDbSavedByObjectVersion
1070
     0
  0
ACAD_PROXY_OBJECT
  5
A265
102
{ACAD_REACTORS
330
9550
102
}
330
9550
100
AcDbZombieObject
 90
      499
 91
      509
 93
      420
310
4194DA1859195911B40902404333333333333E3BF0000000000000F9010740A41107004050150800405405064090840C02480A0B40
1001
ACAD
1000
AcDbSavedByObjectVersion
1070
     0
  0
ACAD_PROXY_OBJECT
  5
A264
102
{ACAD_REACTORS
330
9550
102
}
330
9550
100
AcDbZombieObject
 90
      499
 91
      509
 93
      516
310
4454DA18591959081DDA5D1A08195919D95CD1A40902404333333333333E3BF0000000000000F901074090142907004050250800405405064090740C02480A0B40
1001
ACAD
1000
AcDbSavedByObjectVersion
1070
     0
  0
ACAD_PROXY_OBJECT
  5
A261
102
{ACAD_REACTORS
330
9550
102
}
330
9550
100
AcDbZombieObject
 90
      499
 91
      509
 93
      532
310
4394DA1859195CC81BD98811DC985E5174090240C333333333333E3BF0000000000000FB01079024090741D01000000000000111010841D405064090740C02480A0340
1001
ACAD
1000
AcDbSavedByObjectVersion
1070
     0
  0
ACAD_PROXY_OBJECT
  5
A262
102
{ACAD_REACTORS
330
9550
102
}
330
9550
100
AcDbZombieObject
 90
      499
 91
      509
 93
      476
310
41D4DAD95D18DA1E51840502408333333333333E3BF0000000000000FB01079024090741D01000000000000111010B41D405064090741802480A0340
1001
ACAD
1000
AcDbSavedByObjectVersion
1070
     0
  0
ACAD_PROXY_OBJECT
  5
955D
102
{ACAD_REACTORS
330
9550
102
}
330
9550
100
AcDbZombieObject
 90
      499
 91
      509
 93
      412
310
41D51A1A58DAD95B90D409028333333333333E3BF0000000000000FB010790141107004050150C41D405064090741402480A0350
1001
ACAD
1000
AcDbSavedByObjectVersion
1070
     0
  0
ACAD_PROXY_OBJECT
  5
A25F
102
{ACAD_REACTORS
330
9550
102
}
330
9550
100
AcDbZombieObject
 90
      499
 91
      509
 93
      420
310
4255DA5C99599C985B595059028333333333333E3BF0000000000000FB0107901411070040501600405405064090740C02480A0340
1001
ACAD
1000
AcDbSavedByObjectVersion
1070
     0
  0
ACAD_PROXY_OBJECT
  5
A263
102
{ACAD_REACTORS
330
9550
102
}
330
9550
100
AcDbZombieObject
 90
      499
 91
      509
 93
      404
310
41560B54985E51940902404000000000000E03F0000000000000FB010740501907004050150841D405064090740C02480A1B40
1001
ACAD
1000
AcDbSavedByObjectVersion
1070
     0
  0
XRECORD
  5
E623
102
{ACAD_REACTORS
330
E622
102
}
330
E622
100
AcDbXrecord
340
18D
  0
XRECORD
  5
E624
102
{ACAD_REACTORS
330
E622
102
}
330
E622
100
AcDbXrecord
340
18C
  0
DICTIONARYVAR
  5
AAE0
102
{ACAD_REACTORS
330
37
102
}
330
37
100
DictionaryVariables
280
     0
  1
1:1
  0
DICTIONARYVAR
  5
9627
102
{ACAD_REACTORS
330
37
102
}
330
37
100
DictionaryVariables
280
     0
  1
Standard
  0
DICTIONARYVAR
  5
29E
102
{ACAD_REACTORS
330
37
102
}
330
37
100
DictionaryVariables
280
     0
  1
Standard
  0
DICTIONARYVAR
  5
38
102
{ACAD_REACTORS
330
37
102
}
330
37
100
DictionaryVariables
280
     0
  1
-1
  0
DICTIONARYVAR
  5
1CE
102
{ACAD_REACTORS
330
37
102
}
330
37
100
DictionaryVariables
280
     0
  1
2
  0
DICTIONARYVAR
  5
704E
102
{ACAD_REACTORS
330
37
102
}
330
37
100
DictionaryVariables
280
     0
  1
1
  0
DICTIONARYVAR
  5
962A
102
{ACAD_REACTORS
330
37
102
}
330
37
100
DictionaryVariables
280
     0
  1
0
  0
DICTIONARYVAR
  5
7052
102
{ACAD_REACTORS
330
37
102
}
330
37
100
DictionaryVariables
280
     0
  1
8
  0
DICTIONARYVAR
  5
7051
102
{ACAD_REACTORS
330
37
102
}
330
37
100
DictionaryVariables
280
     0
  1
1
  0
DICTIONARYVAR
  5
AB30
102
{ACAD_REACTORS
330
37
102
}
330
37
100
DictionaryVariables
280
     0
  1
0
  0
DICTIONARYVAR
  5
704F
102
{ACAD_REACTORS
330
37
102
}
330
37
100
DictionaryVariables
280
     0
  1
8
  0
DICTIONARYVAR
  5
7050
102
{ACAD_REACTORS
330
37
102
}
330
37
100
DictionaryVariables
280
     0
  1
2
  0
DICTIONARYVAR
  5
1CF
102
{ACAD_REACTORS
330
37
102
}
330
37
100
DictionaryVariables
280
     0
  1

  0
DICTIONARYVAR
  5
9629
102
{ACAD_REACTORS
330
37
102
}
330
37
100
DictionaryVariables
280
     0
  1
127
  0
DICTIONARYVAR
  5
E469
102
{ACAD_REACTORS
330
37
102
}
330
37
100
DictionaryVariables
280
     0
  1
2
  0
DICTIONARY
  5
E7C0
330
9540
100
AcDbDictionary
  3
ACAD_XREC_ROUNDTRIP
360
E7C1
1001
ACAD
1000
TREAT_AS_HARD
1070
     1
  0
DICTIONARY
  5
E7C2
330
9538
100
AcDbDictionary
  3
ACAD_XREC_ROUNDTRIP
360
E7C3
1001
ACAD
1000
TREAT_AS_HARD
1070
     1
  0
DICTIONARY
  5
E7C4
330
9548
100
AcDbDictionary
  3
ACAD_XREC_ROUNDTRIP
360
E7C5
1001
ACAD
1000
TREAT_AS_HARD
1070
     1
  0
XRECORD
  5
E7C1
102
{ACAD_REACTORS
330
E7C0
102
}
330
E7C0
100
AcDbXrecord
102
MATERIAL
148
0.0
149
0.0
149
0.0
 93
        0
 94
      127
282
     0
 72
     0
 77
     0
171
     0
175
     0
179
     0
273
     0
  0
XRECORD
  5
E7C3
102
{ACAD_REACTORS
330
E7C2
102
}
330
E7C2
100
AcDbXrecord
102
MATERIAL
148
0.0
149
0.0
149
0.0
 93
        0
 94
      127
282
     0
 72
     0
 77
     0
171
     0
175
     0
179
     0
273
     0
  0
XRECORD
  5
E7C5
102
{ACAD_REACTORS
330
E7C4
102
}
330
E7C4
100
AcDbXrecord
102
MATERIAL
148
0.0
149
0.0
149
0.0
 93
        0
 94
      127
282
     0
 72
     0
 77
     0
171
     0
175
     0
179
     0
273
     0
  0
ENDSEC
  0
EOF
