  0
SECTION
  2
HEADER
  9
$ACADVER
  1
AC1012
  9
$DWGCODEPAGE
  3
ansi_932
  9
$INSBASE
 10
0.0
 20
0.0
 30
0.0
  9
$EXTMIN
 10
4952.207141041865
 20
-375.6637124169366
 30
0.0
  9
$EXTMAX
 10
5270.635426424295
 20
-135.6650307300397
 30
0.0000000001127424
  9
$LIMMIN
 10
0.0
 20
0.0
  9
$LIMMAX
 10
420.0
 20
297.0
  9
$ORTHOMODE
 70
     0
  9
$REGENMODE
 70
     1
  9
$FILLMODE
 70
     1
  9
$QTEXTMODE
 70
     0
  9
$MIRRTEXT
 70
     0
  9
$DRAGMODE
 70
     2
  9
$LTSCALE
 40
0.5
  9
$OSMODE
 70
  2175
  9
$ATTMODE
 70
     1
  9
$TEXTSIZE
 40
4.0
  9
$TRACEWID
 40
1.0
  9
$TEXTSTYLE
  7
STANDARD
  9
$CLAYER
  8
1TEXT
  9
$CELTYPE
  6
BYLAYER
  9
$CECOLOR
 62
   256
  9
$CELTSCALE
 40
1.0
  9
$DELOBJ
 70
     1
  9
$DISPSILH
 70
     0
  9
$DIMSCALE
 40
1.0
  9
$DIMASZ
 40
2.0
  9
$DIMEXO
 40
0.0
  9
$DIMDLI
 40
7.0
  9
$DIMRND
 40
0.0
  9
$DIMDLE
 40
0.0
  9
$DIMEXE
 40
1.0
  9
$DIMTP
 40
0.0
  9
$DIMTM
 40
0.0
  9
$DIMTXT
 40
3.5
  9
$DIMCEN
 40
0.0
  9
$DIMTSZ
 40
0.0
  9
$DIMTOL
 70
     0
  9
$DIMLIM
 70
     0
  9
$DIMTIH
 70
     0
  9
$DIMTOH
 70
     0
  9
$DIMSE1
 70
     0
  9
$DIMSE2
 70
     0
  9
$DIMTAD
 70
     1
  9
$DIMZIN
 70
     8
  9
$DIMBLK
  1

  9
$DIMASO
 70
     1
  9
$DIMSHO
 70
     1
  9
$DIMPOST
  1
 
  9
$DIMAPOST
  1

  9
$DIMALT
 70
     0
  9
$DIMALTD
 70
     2
  9
$DIMALTF
 40
25.4
  9
$DIMLFAC
 40
1.0
  9
$DIMTOFL
 70
     1
  9
$DIMTVP
 40
0.0
  9
$DIMTIX
 70
     0
  9
$DIMSOXD
 70
     0
  9
$DIMSAH
 70
     1
  9
$DIMBLK1
  1
OPEN30
  9
$DIMBLK2
  1
OPEN30
  9
$DIMSTYLE
  2
NEWX10
  9
$DIMCLRD
 70
   256
  9
$DIMCLRE
 70
   256
  9
$DIMCLRT
 70
   201
  9
$DIMTFAC
 40
0.7
  9
$DIMGAP
 40
0.7
  9
$DIMJUST
 70
     0
  9
$DIMSD1
 70
     0
  9
$DIMSD2
 70
     0
  9
$DIMTOLJ
 70
     1
  9
$DIMTZIN
 70
     8
  9
$DIMALTZ
 70
     0
  9
$DIMALTTZ
 70
     0
  9
$DIMFIT
 70
     2
  9
$DIMUPT
 70
     0
  9
$DIMUNIT
 70
     2
  9
$DIMDEC
 70
     2
  9
$DIMTDEC
 70
     4
  9
$DIMALTU
 70
     2
  9
$DIMALTTD
 70
     2
  9
$DIMTXSTY
  7
STANDARD
  9
$DIMAUNIT
 70
     0
  9
$LUNITS
 70
     2
  9
$LUPREC
 70
     4
  9
$SKETCHINC
 40
1.0
  9
$FILLETRAD
 40
0.0
  9
$AUNITS
 70
     0
  9
$AUPREC
 70
     2
  9
$MENU
  1
acad
  9
$ELEVATION
 40
0.0
  9
$PELEVATION
 40
0.0
  9
$THICKNESS
 40
0.0
  9
$LIMCHECK
 70
     0
  9
$CHAMFERA
 40
10.0
  9
$CHAMFERB
 40
10.0
  9
$CHAMFERC
 40
20.0
  9
$CHAMFERD
 40
0.0
  9
$SKPOLY
 70
     0
  9
$TDCREATE
 40
2451318.621352917
  9
$TDUPDATE
 40
2459087.374394086
  9
$TDINDWG
 40
1.4784349653
  9
$TDUSRTIMER
 40
1.4784349653
  9
$USRTIMER
 70
     1
  9
$ANGBASE
 50
0.0
  9
$ANGDIR
 70
     0
  9
$PDMODE
 70
     0
  9
$PDSIZE
 40
0.0
  9
$PLINEWID
 40
0.0
  9
$COORDS
 70
     2
  9
$SPLFRAME
 70
     0
  9
$SPLINETYPE
 70
     6
  9
$SPLINESEGS
 70
     8
  9
$ATTDIA
 70
     0
  9
$ATTREQ
 70
     1
  9
$HANDLING
 70
     1
  9
$HANDSEED
  5
B969
  9
$SURFTAB1
 70
     6
  9
$SURFTAB2
 70
     6
  9
$SURFTYPE
 70
     6
  9
$SURFU
 70
     6
  9
$SURFV
 70
     6
  9
$UCSNAME
  2

  9
$UCSORG
 10
0.0
 20
0.0
 30
0.0
  9
$UCSXDIR
 10
1.0
 20
0.0
 30
0.0
  9
$UCSYDIR
 10
0.0
 20
1.0
 30
0.0
  9
$PUCSNAME
  2

  9
$PUCSORG
 10
0.0
 20
0.0
 30
0.0
  9
$PUCSXDIR
 10
1.0
 20
0.0
 30
0.0
  9
$PUCSYDIR
 10
0.0
 20
1.0
 30
0.0
  9
$USERI1
 70
     0
  9
$USERI2
 70
     0
  9
$USERI3
 70
     0
  9
$USERI4
 70
     0
  9
$USERI5
 70
     0
  9
$USERR1
 40
0.0
  9
$USERR2
 40
0.0
  9
$USERR3
 40
0.0
  9
$USERR4
 40
0.0
  9
$USERR5
 40
0.0
  9
$WORLDVIEW
 70
     1
  9
$SHADEDGE
 70
     3
  9
$SHADEDIF
 70
    70
  9
$TILEMODE
 70
     1
  9
$MAXACTVP
 70
    48
  9
$PINSBASE
 10
0.0
 20
0.0
 30
0.0
  9
$PLIMCHECK
 70
     0
  9
$PEXTMIN
 10
1.000000000000000E+20
 20
1.000000000000000E+20
 30
1.000000000000000E+20
  9
$PEXTMAX
 10
-1.000000000000000E+20
 20
-1.000000000000000E+20
 30
-1.000000000000000E+20
  9
$PLIMMIN
 10
0.0
 20
0.0
  9
$PLIMMAX
 10
420.0
 20
297.0
  9
$UNITMODE
 70
     0
  9
$VISRETAIN
 70
     1
  9
$PLINEGEN
 70
     0
  9
$PSLTSCALE
 70
     1
  9
$TREEDEPTH
 70
  3020
  9
$PICKSTYLE
 70
     1
  9
$CMLSTYLE
  2
STANDARD
  9
$CMLJUST
 70
     0
  9
$CMLSCALE
 40
20.0
  9
$SAVEIMAGES
 70
     1
  0
ENDSEC
  0
SECTION
  2
CLASSES
  0
CLASS
  1
DICTIONARYVAR
  2
AcDbDictionaryVar
  3
ObjectDBX Classes
 90
        0
280
     0
281
     0
  0
CLASS
  1
IDBUFFER
  2
AcDbIdBuffer
  3
ObjectDBX Classes
 90
    32768
280
     0
281
     0
  0
CLASS
  1
LWPOLYLINE
  2
AcDbPolyline
  3
ObjectDBX Classes
 90
    32768
280
     0
281
     1
  0
CLASS
  1
ACDBDICTIONARYWDFLT
  2
AcDbDictionaryWithDefault
  3
ObjectDBX Classes
 90
    32768
280
     0
281
     0
  0
CLASS
  1
ACDBPLACEHOLDER
  2
AcDbPlaceHolder
  3
ObjectDBX Classes
 90
        0
280
     0
281
     0
  0
CLASS
  1
LAYOUT
  2
AcDbLayout
  3
ObjectDBX Classes
 90
        0
280
     0
281
     0
  0
CLASS
  1
TABLESTYLE
  2
AcDbTableStyle
  3
ObjectDBX Classes
 90
     4095
280
     0
281
     0
  0
CLASS
  1
SORTENTSTABLE
  2
AcDbSortentsTable
  3
ObjectDBX Classes
 90
    32768
280
     0
281
     0
  0
CLASS
  1
MATERIAL
  2
AcDbMaterial
  3
ObjectDBX Classes
 90
     1153
280
     0
281
     0
  0
CLASS
  1
VISUALSTYLE
  2
AcDbVisualStyle
  3
ObjectDBX Classes
 90
     4095
280
     0
281
     0
  0
CLASS
  1
SCALE
  2
AcDbScale
  3
ObjectDBX Classes
 90
     1153
280
     0
281
     0
  0
CLASS
  1
MLEADERSTYLE
  2
AcDbMLeaderStyle
  3
ACDB_MLEADERSTYLE_CLASS
 90
     4095
280
     0
281
     0
  0
CLASS
  1
CELLSTYLEMAP
  2
AcDbCellStyleMap
  3
ObjectDBX Classes
 90
     1152
280
     0
281
     0
  0
CLASS
  1
SUN
  2
AcDbSun
  3
SCENEOE
 90
     1153
280
     0
281
     0
  0
CLASS
  1
XRECORD
  2
AcDbXrecord
  3
ObjectDBX Classes
 90
    32768
280
     0
281
     0
  0
CLASS
  1
HATCH
  2
AcDbHatch
  3
ObjectDBX Classes
 90
    32768
280
     0
281
     1
  0
ENDSEC
  0
SECTION
  2
TABLES
  0
TABLE
  2
VPORT
  5
8
330
0
100
AcDbSymbolTable
 70
     1
  0
VPORT
  5
952D
330
8
100
AcDbSymbolTableRecord
100
AcDbViewportTableRecord
  2
*ACTIVE
 70
     0
 10
0.0
 20
0.0
 11
1.0
 21
1.0
 12
5111.42128373308
 22
-255.6643715734882
 13
0.0
 23
0.0
 14
10.0
 24
10.0
 15
10.0
 25
10.0
 16
0.0
 26
0.0
 36
1.0
 17
0.0
 27
0.0
 37
0.0
 40
257.6827950743524
 41
1.803066037735849
 42
50.0
 43
0.0
 44
0.0
 50
0.0
 51
0.0
 71
    16
 72
   100
 73
     1
 74
     1
 75
     0
 76
     0
 77
     0
 78
     0
  0
ENDTAB
  0
TABLE
  2
LTYPE
  5
5
330
0
100
AcDbSymbolTable
 70
     3
  0
LTYPE
  5
12
330
5
100
AcDbSymbolTableRecord
100
AcDbLinetypeTableRecord
  2
BYBLOCK
 70
     0
  3

 72
    65
 73
     0
 40
0.0
  0
LTYPE
  5
13
330
5
100
AcDbSymbolTableRecord
100
AcDbLinetypeTableRecord
  2
BYLAYER
 70
     0
  3

 72
    65
 73
     0
 40
0.0
  0
LTYPE
  5
14
330
5
100
AcDbSymbolTableRecord
100
AcDbLinetypeTableRecord
  2
CONTINUOUS
 70
     0
  3
Solid line
 72
    65
 73
     0
 40
0.0
  0
LTYPE
  5
9837
330
5
100
AcDbSymbolTableRecord
100
AcDbLinetypeTableRecord
  2
CENTER2
 70
     0
  3
Center (.5x) ___ _ ___ _ ___ _ ___ _ ___ _ ___
 72
    65
 73
     4
 40
28.575
 49
19.05
 74
     0
 49
-3.175
 74
     0
 49
3.175
 74
     0
 49
-3.175
 74
     0
  0
LTYPE
  5
B049
330
5
100
AcDbSymbolTableRecord
100
AcDbLinetypeTableRecord
  2
PHANTOM2
 70
     0
  3
Phantom (0.5x) ___ _ _ ___ _ _ ___ _ _ ___ _ _
 72
    65
 73
     6
 40
31.75
 49
15.875
 74
     0
 49
-3.175
 74
     0
 49
3.175
 74
     0
 49
-3.175
 74
     0
 49
3.175
 74
     0
 49
-3.175
 74
     0
  0
ENDTAB
  0
TABLE
  2
LAYER
  5
2
102
{ACAD_XDICTIONARY
360
96D9
102
}
330
0
100
AcDbSymbolTable
 70
     6
  0
LAYER
  5
E
102
{ACAD_XDICTIONARY
360
9593
102
}
330
2
100
AcDbSymbolTableRecord
100
AcDbLayerTableRecord
  2
0
 70
     0
 62
     7
  6
CONTINUOUS
  0
LAYER
  5
29
102
{ACAD_XDICTIONARY
360
9595
102
}
330
2
100
AcDbSymbolTableRecord
100
AcDbLayerTableRecord
  2
1CENTER
 70
     0
 62
     7
  6
CENTER2
  0
LAYER
  5
31
102
{ACAD_XDICTIONARY
360
9597
102
}
330
2
100
AcDbSymbolTableRecord
100
AcDbLayerTableRecord
  2
1TEXT
 70
     0
 62
     7
  6
CONTINUOUS
  0
LAYER
  5
243
102
{ACAD_XDICTIONARY
360
959D
102
}
330
2
100
AcDbSymbolTableRecord
100
AcDbLayerTableRecord
  2
01
 70
     0
 62
     1
  6
CONTINUOUS
  0
LAYER
  5
24E
102
{ACAD_XDICTIONARY
360
95A3
102
}
330
2
100
AcDbSymbolTableRecord
100
AcDbLayerTableRecord
  2
1DIM
 70
     0
 62
     7
  6
CONTINUOUS
  0
LAYER
  5
B048
330
2
100
AcDbSymbolTableRecord
100
AcDbLayerTableRecord
  2
1PHANTOM
 70
     0
 62
     7
  6
PHANTOM2
  0
ENDTAB
  0
TABLE
  2
STYLE
  5
3
330
0
100
AcDbSymbolTable
 70
     1
  0
STYLE
  5
F
330
3
100
AcDbSymbolTableRecord
100
AcDbTextStyleTableRecord
  2
STANDARD
 70
     0
 40
0.0
 41
1.0
 50
0.0
 71
     0
 42
4.0
  3
txt.shx
  4
extfont.shx
  0
ENDTAB
  0
TABLE
  2
VIEW
  5
6
330
0
100
AcDbSymbolTable
 70
     0
  0
ENDTAB
  0
TABLE
  2
UCS
  5
7
330
0
100
AcDbSymbolTable
 70
     0
  0
ENDTAB
  0
TABLE
  2
APPID
  5
9
330
0
100
AcDbSymbolTable
 70
    12
  0
APPID
  5
10
330
9
100
AcDbSymbolTableRecord
100
AcDbRegAppTableRecord
  2
ACAD
 70
     0
  0
APPID
  5
21
330
9
100
AcDbSymbolTableRecord
100
AcDbRegAppTableRecord
  2
DRAWINGVARIABLESXDATA
 70
     0
  0
APPID
  5
64
330
9
100
AcDbSymbolTableRecord
100
AcDbRegAppTableRecord
  2
CONTENTTABDATA
 70
     0
  0
APPID
  5
65
330
9
100
AcDbSymbolTableRecord
100
AcDbRegAppTableRecord
  2
CONTENTCURRENTTAB
 70
     0
  0
APPID
  5
66
330
9
100
AcDbSymbolTableRecord
100
AcDbRegAppTableRecord
  2
CONTENTBLOCKDESCRIPTION
 70
     0
  0
APPID
  5
67
330
9
100
AcDbSymbolTableRecord
100
AcDbRegAppTableRecord
  2
CONTENTBLOCKICON
 70
     0
  0
APPID
  5
68
330
9
100
AcDbSymbolTableRecord
100
AcDbRegAppTableRecord
  2
CONTENTLONGBLOCKNAME
 70
     0
  0
APPID
  5
2AE
330
9
100
AcDbSymbolTableRecord
100
AcDbRegAppTableRecord
  2
ACAD_PSEXT
 70
     0
  0
APPID
  5
9585
330
9
100
AcDbSymbolTableRecord
100
AcDbRegAppTableRecord
  2
ACAD_MLEADERVER
 70
     0
  0
APPID
  5
A2E3
330
9
100
AcDbSymbolTableRecord
100
AcDbRegAppTableRecord
  2
ACADANNOTATIVE
 70
     0
  0
APPID
  5
A2E4
330
9
100
AcDbSymbolTableRecord
100
AcDbRegAppTableRecord
  2
ACDBBLOCKREPETAG
 70
     0
  0
APPID
  5
AD65
330
9
100
AcDbSymbolTableRecord
100
AcDbRegAppTableRecord
  2
ACAECLAYERSTANDARD
 70
     0
  0
ENDTAB
  0
TABLE
  2
DIMSTYLE
  5
A
330
0
100
AcDbSymbolTable
 70
     1
  0
DIMSTYLE
105
48
330
A
100
AcDbSymbolTableRecord
100
AcDbDimStyleTableRecord
  2
NEWX10
 70
     0
  3
 
  4

  5

  6
OPEN30
  7
OPEN30
 40
1.0
 41
2.0
 42
0.0
 43
7.0
 44
1.0
 45
0.0
 46
0.0
 47
0.0
 48
0.0
140
3.5
141
0.0
142
0.0
143
25.4
144
1.0
145
0.0
146
0.7
147
0.7
 71
     0
 72
     0
 73
     0
 74
     0
 75
     0
 76
     0
 77
     1
 78
     8
170
     0
171
     2
172
     1
173
     1
174
     0
175
     0
176
   256
177
   256
178
   201
179
     2
270
     2
271
     2
272
     4
273
     2
274
     2
340
F
275
     0
280
     0
281
     0
282
     0
283
     1
284
     8
285
     0
286
     0
287
     2
288
     0
  0
ENDTAB
  0
TABLE
  2
BLOCK_RECORD
  5
1
330
0
100
AcDbSymbolTable
 70
     8
  0
BLOCK_RECORD
  5
18
102
{ACAD_XDICTIONARY
360
88F
102
}
330
1
100
AcDbSymbolTableRecord
100
AcDbBlockTableRecord
  2
*MODEL_SPACE
  0
BLOCK_RECORD
  5
15
330
1
100
AcDbSymbolTableRecord
100
AcDbBlockTableRecord
  2
*PAPER_SPACE
  0
BLOCK_RECORD
  5
42
330
1
100
AcDbSymbolTableRecord
100
AcDbBlockTableRecord
  2
_OPEN30
  0
BLOCK_RECORD
  5
A333
330
1
100
AcDbSymbolTableRecord
100
AcDbBlockTableRecord
  2
A3WAKUKAWAJUN2017_HYOUDAI_
  0
BLOCK_RECORD
  5
B7C9
330
1
100
AcDbSymbolTableRecord
100
AcDbBlockTableRecord
  2
*X85
  0
BLOCK_RECORD
  5
B817
330
1
100
AcDbSymbolTableRecord
100
AcDbBlockTableRecord
  2
*X86
  0
BLOCK_RECORD
  5
B869
330
1
100
AcDbSymbolTableRecord
100
AcDbBlockTableRecord
  2
*X87
  0
BLOCK_RECORD
  5
B8BA
330
1
100
AcDbSymbolTableRecord
100
AcDbBlockTableRecord
  2
*X88
  0
BLOCK_RECORD
  5
B8F7
330
1
100
AcDbSymbolTableRecord
100
AcDbBlockTableRecord
  2
*X89
  0
BLOCK_RECORD
  5
B937
330
1
100
AcDbSymbolTableRecord
100
AcDbBlockTableRecord
  2
*X90
  0
ENDTAB
  0
ENDSEC
  0
SECTION
  2
BLOCKS
  0
BLOCK
  5
19
330
18
100
AcDbEntity
  8
0
100
AcDbBlockBegin
  2
*MODEL_SPACE
 70
     0
 10
0.0
 20
0.0
 30
0.0
  3
*MODEL_SPACE
  1

  0
ENDBLK
  5
1A
330
18
100
AcDbEntity
  8
0
100
AcDbBlockEnd
  0
BLOCK
  5
16
330
15
100
AcDbEntity
 67
     1
  8
0
100
AcDbBlockBegin
  2
*PAPER_SPACE
 70
     0
 10
0.0
 20
0.0
 30
0.0
  3
*PAPER_SPACE
  1

  0
ENDBLK
  5
17
330
15
100
AcDbEntity
 67
     1
  8
0
100
AcDbBlockEnd
  0
BLOCK
  5
43
330
42
100
AcDbEntity
  8
0
100
AcDbBlockBegin
  2
_OPEN30
 70
     0
 10
0.0
 20
0.0
 30
0.0
  3
_OPEN30
  1

  0
LINE
  5
44
330
42
100
AcDbEntity
  8
0
  6
BYBLOCK
 62
     0
100
AcDbLine
 10
-1.0
 20
0.26794919
 30
0.0
 11
0.0
 21
0.0
 31
0.0
  0
LINE
  5
45
330
42
100
AcDbEntity
  8
0
  6
BYBLOCK
 62
     0
100
AcDbLine
 10
0.0
 20
0.0
 30
0.0
 11
-1.0
 21
-0.26794919
 31
0.0
  0
LINE
  5
46
330
42
100
AcDbEntity
  8
0
  6
BYBLOCK
 62
     0
100
AcDbLine
 10
0.0
 20
0.0
 30
0.0
 11
-1.0
 21
0.0
 31
0.0
  0
ENDBLK
  5
47
330
42
100
AcDbEntity
  8
0
100
AcDbBlockEnd
  0
BLOCK
  5
AA56
330
A333
100
AcDbEntity
  8
0
100
AcDbBlockBegin
  2
A3WAKUKAWAJUN2017_HYOUDAI_
 70
     0
 10
0.0
 20
0.0
 30
0.0
  3
A3WAKUKAWAJUN2017_HYOUDAI_
  1

  0
LINE
  5
A335
330
A333
100
AcDbEntity
  8
0
100
AcDbLine
 10
13.26299999998673
 20
-0.0001000000000317
 30
0.0
 11
9.236999999990758
 21
8.999899999990987
 31
0.0
1001
ACAD
1000
ASC_BOUNDS
1002
{
1070
    19
1005
A376
1002
}
  0
LINE
  5
A336
330
A333
100
AcDbEntity
  8
0
100
AcDbLine
 10
5.657999999994331
 20
0.9999999999989768
 30
0.0
 11
9.236999999990758
 21
8.999999999991019
 31
0.0
1001
ACAD
1000
ASC_BOUNDS
1002
{
1070
    19
1005
A376
1002
}
  0
LINE
  5
A337
330
A333
100
AcDbEntity
  8
0
100
AcDbLine
 10
18.59199999998134
 20
-0.2368999999997641
 30
0.0
 11
16.46099999998353
 21
5.432899999994561
 31
0.0
1001
ACAD
1000
ASC_BOUNDS
1002
{
1070
    19
1005
A377
1002
}
  0
LINE
  5
A338
330
A333
100
AcDbEntity
  8
0
100
AcDbLine
 10
18.59199999998134
 20
-0.2368999999997641
 30
0.0
 11
22.38199999997767
 21
8.763099999991255
 31
0.0
1001
ACAD
1000
ASC_BOUNDS
1002
{
1070
    19
1005
A377
1002
}
  0
LINE
  5
A339
330
A333
100
AcDbEntity
  8
0
100
AcDbLine
 10
14.32899999998563
 20
-0.2368999999997641
 30
0.0
 11
16.46099999998353
 21
5.432899999994561
 31
0.0
1001
ACAD
1000
ASC_BOUNDS
1002
{
1070
    19
1005
A377
1002
}
  0
LINE
  5
A33A
330
A333
100
AcDbEntity
  8
0
100
AcDbLine
 10
14.32899999998563
 20
-0.2368999999997641
 30
0.0
 11
10.53899999998941
 21
8.763099999991255
 31
0.0
1001
ACAD
1000
ASC_BOUNDS
1002
{
1070
    19
1005
A377
1002
}
  0
LINE
  5
A33B
330
A333
100
AcDbEntity
  8
0
100
AcDbLine
 10
19.53899999998043
 20
-0.0001000000000317
 30
0.0
 11
23.56599999997638
 21
8.999899999990987
 31
0.0
1001
ACAD
1000
ASC_BOUNDS
1002
{
1070
    19
1005
A378
1002
}
  0
LINE
  5
A33C
330
A333
100
AcDbEntity
  8
0
100
AcDbLine
 10
26.97358892824991
 20
1.383099999991202
 30
0.0
 11
23.56599999997638
 21
8.999899999990987
 31
0.0
1001
ACAD
1000
ASC_BOUNDS
1002
{
1070
    19
1005
A378
1002
}
  0
LINE
  5
A33D
330
A333
100
AcDbEntity
  8
0
100
AcDbLine
 10
5.657999999994331
 20
0.9999999999989768
 30
0.0
 11
3.181999999996833
 21
4.668599999995308
 31
0.0
1001
ACAD
1000
ASC_BOUNDS
1002
{
1070
    19
1005
A376
1002
}
  0
LINE
  5
A33E
330
A333
100
AcDbEntity
  8
0
100
AcDbLine
 10
4.617999999995391
 20
-0.0001000000000317
 30
0.0
 11
1.420999999998571
 21
4.736799999995242
 31
0.0
1001
ACAD
1000
ASC_BOUNDS
1002
{
1070
    19
1005
A376
1002
}
  0
LINE
  5
A33F
330
A333
100
AcDbEntity
  8
0
100
AcDbLine
 10
1.420999999998571
 20
8.763099999991255
 30
0.0
 11
1.420999999998571
 21
0.0
 31
0.0
1001
ACAD
1000
ASC_BOUNDS
1002
{
1070
    19
1005
A37B
1002
}
  0
LINE
  5
A340
330
A333
100
AcDbEntity
  8
0
100
AcDbLine
 10
0.0
 20
8.763099999991255
 30
0.0
 11
0.0
 21
0.0
 31
0.0
1001
ACAD
1000
ASC_BOUNDS
1002
{
1070
    19
1005
A37B
1002
}
  0
LINE
  5
A341
330
A333
100
AcDbEntity
  8
0
100
AcDbLine
 10
6.766999999993232
 20
-0.0001000000000317
 30
0.0
 11
7.826999999992154
 21
2.368399999997621
 31
0.0
1001
ACAD
1000
ASC_BOUNDS
1002
{
1070
    19
1005
A376
1002
}
  0
LINE
  5
A342
330
A333
100
AcDbEntity
  8
0
100
AcDbLine
 10
0.0
 20
0.0
 30
0.0
 11
1.420999999998571
 21
0.0
 31
0.0
1001
ACAD
1000
ASC_BOUNDS
1002
{
1070
    19
1005
A37B
1002
}
  0
LINE
  5
A343
330
A333
100
AcDbEntity
  8
0
100
AcDbLine
 10
4.617999999995391
 20
0.0
 30
0.0
 11
6.766999999993232
 21
0.0
 31
0.0
1001
ACAD
1000
ASC_BOUNDS
1002
{
1070
    19
1005
A376
1002
}
  0
LINE
  5
A344
330
A333
100
AcDbEntity
  8
0
100
AcDbLine
 10
11.70599999998831
 20
-0.0001000000000317
 30
0.0
 11
10.64699999998936
 21
2.368399999997621
 31
0.0
1001
ACAD
1000
ASC_BOUNDS
1002
{
1070
    19
1005
A376
1002
}
  0
LINE
  5
A345
330
A333
100
AcDbEntity
  8
0
100
AcDbLine
 10
7.826999999992154
 20
2.368399999997621
 30
0.0
 11
10.64699999998936
 21
2.368399999997621
 31
0.0
1001
ACAD
1000
ASC_BOUNDS
1002
{
1070
    19
1005
A376
1002
}
  0
LINE
  5
A346
330
A333
100
AcDbEntity
  8
0
100
AcDbLine
 10
11.70599999998831
 20
0.0
 30
0.0
 11
13.26299999998673
 21
0.0
 31
0.0
1001
ACAD
1000
ASC_BOUNDS
1002
{
1070
    19
1005
A376
1002
}
  0
LINE
  5
A347
330
A333
100
AcDbEntity
  8
0
100
AcDbLine
 10
22.15599999997789
 20
2.368399999997621
 30
0.0
 11
24.97599999997499
 21
2.368399999997621
 31
0.0
1001
ACAD
1000
ASC_BOUNDS
1002
{
1070
    19
1005
A378
1002
}
  0
LINE
  5
A348
330
A333
100
AcDbEntity
  8
0
100
AcDbLine
 10
19.53899999998043
 20
0.0
 30
0.0
 11
21.09599999997886
 21
0.0
 31
0.0
1001
ACAD
1000
ASC_BOUNDS
1002
{
1070
    19
1005
A378
1002
}
  0
LINE
  5
A349
330
A333
100
AcDbEntity
  8
0
100
AcDbLine
 10
21.09599999997886
 20
-0.0001000000000317
 30
0.0
 11
22.15599999997789
 21
2.368399999997621
 31
0.0
1001
ACAD
1000
ASC_BOUNDS
1002
{
1070
    19
1005
A378
1002
}
  0
LINE
  5
A34A
330
A333
100
AcDbEntity
  8
0
100
AcDbLine
 10
26.02015566812236
 20
0.0330999999912365
 30
0.0
 11
24.97599999997499
 21
2.368399999997621
 31
0.0
1001
ACAD
1000
ASC_BOUNDS
1002
{
1070
    19
1005
A378
1002
}
  0
LINE
  5
A34B
330
A333
100
AcDbEntity
  8
0
100
AcDbLine
 10
14.32399999998563
 20
3.315799999996671
 30
0.0
 11
16.46099999998353
 21
8.999899999990987
 31
0.0
1001
ACAD
1000
ASC_BOUNDS
1002
{
1070
    19
1005
A377
1002
}
  0
LINE
  5
A34C
330
A333
100
AcDbEntity
  8
0
100
AcDbLine
 10
6.432999999993513
 20
8.763099999991255
 30
0.0
 11
3.181999999996833
 21
4.668599999995308
 31
0.0
1001
ACAD
1000
ASC_BOUNDS
1002
{
1070
    19
1005
A376
1002
}
  0
LINE
  5
A34D
330
A333
100
AcDbEntity
  8
0
100
AcDbLine
 10
4.617999999995391
 20
8.763099999991255
 30
0.0
 11
1.420999999998571
 21
4.736799999995242
 31
0.0
1001
ACAD
1000
ASC_BOUNDS
1002
{
1070
    19
1005
A376
1002
}
  0
LINE
  5
A34E
330
A333
100
AcDbEntity
  8
0
100
AcDbLine
 10
0.0
 20
8.763099999991255
 30
0.0
 11
1.420999999998571
 21
8.763099999991255
 31
0.0
1001
ACAD
1000
ASC_BOUNDS
1002
{
1070
    19
1005
A37B
1002
}
  0
LINE
  5
A34F
330
A333
100
AcDbEntity
  8
0
100
AcDbLine
 10
4.617999999995391
 20
8.763099999991255
 30
0.0
 11
6.432999999993513
 21
8.763099999991255
 31
0.0
1001
ACAD
1000
ASC_BOUNDS
1002
{
1070
    19
1005
A376
1002
}
  0
LINE
  5
A350
330
A333
100
AcDbEntity
  8
0
100
AcDbLine
 10
14.32399999998563
 20
3.315799999996671
 30
0.0
 11
12.02999999998792
 21
8.763099999991255
 31
0.0
1001
ACAD
1000
ASC_BOUNDS
1002
{
1070
    19
1005
A377
1002
}
  0
LINE
  5
A351
330
A333
100
AcDbEntity
  8
0
100
AcDbLine
 10
10.06399999998996
 20
3.670999999996297
 30
0.0
 11
9.236999999990758
 21
5.5200999999945
 31
0.0
1001
ACAD
1000
ASC_BOUNDS
1002
{
1070
    19
1005
A376
1002
}
  0
LINE
  5
A352
330
A333
100
AcDbEntity
  8
0
100
AcDbLine
 10
8.409999999991555
 20
3.670999999996297
 30
0.0
 11
9.236999999990758
 21
5.5200999999945
 31
0.0
1001
ACAD
1000
ASC_BOUNDS
1002
{
1070
    19
1005
A376
1002
}
  0
LINE
  5
A353
330
A333
100
AcDbEntity
  8
0
100
AcDbLine
 10
8.409999999991555
 20
3.670999999996297
 30
0.0
 11
10.06399999998996
 21
3.670999999996297
 31
0.0
1001
ACAD
1000
ASC_BOUNDS
1002
{
1070
    19
1005
A376
1002
}
  0
LINE
  5
A354
330
A333
100
AcDbEntity
  8
0
100
AcDbLine
 10
10.53899999998941
 20
8.763099999991255
 30
0.0
 11
12.02999999998792
 21
8.763099999991255
 31
0.0
1001
ACAD
1000
ASC_BOUNDS
1002
{
1070
    19
1005
A377
1002
}
  0
LINE
  5
A355
330
A333
100
AcDbEntity
  8
0
100
AcDbLine
 10
22.7389999999773
 20
3.670999999996297
 30
0.0
 11
23.56599999997638
 21
5.5200999999945
 31
0.0
1001
ACAD
1000
ASC_BOUNDS
1002
{
1070
    19
1005
A378
1002
}
  0
LINE
  5
A356
330
A333
100
AcDbEntity
  8
0
100
AcDbLine
 10
22.7389999999773
 20
3.670999999996297
 30
0.0
 11
24.39299999997559
 21
3.670999999996297
 31
0.0
1001
ACAD
1000
ASC_BOUNDS
1002
{
1070
    19
1005
A378
1002
}
  0
LINE
  5
A357
330
A333
100
AcDbEntity
  8
0
100
AcDbLine
 10
18.59799999998143
 20
3.315799999996671
 30
0.0
 11
20.89099999997916
 21
8.763099999991255
 31
0.0
1001
ACAD
1000
ASC_BOUNDS
1002
{
1070
    19
1005
A377
1002
}
  0
LINE
  5
A358
330
A333
100
AcDbEntity
  8
0
100
AcDbLine
 10
18.59799999998143
 20
3.315799999996671
 30
0.0
 11
16.46099999998353
 21
8.999899999990987
 31
0.0
1001
ACAD
1000
ASC_BOUNDS
1002
{
1070
    19
1005
A377
1002
}
  0
LINE
  5
A359
330
A333
100
AcDbEntity
  8
0
100
AcDbLine
 10
20.89099999997916
 20
8.763099999991255
 30
0.0
 11
22.38199999997767
 21
8.763099999991255
 31
0.0
1001
ACAD
1000
ASC_BOUNDS
1002
{
1070
    19
1005
A377
1002
}
  0
LINE
  5
A35A
330
A333
100
AcDbEntity
  8
0
100
AcDbLine
 10
24.39299999997559
 20
3.670999999996297
 30
0.0
 11
23.56599999997638
 21
5.5200999999945
 31
0.0
1001
ACAD
1000
ASC_BOUNDS
1002
{
1070
    19
1005
A378
1002
}
  0
LINE
  5
A35B
330
A333
100
AcDbEntity
  8
0
100
AcDbLine
 10
44.99999999995498
 20
-0.2368999999997641
 30
0.0
 11
40.02599999995994
 21
5.341799999994635
 31
0.0
1001
ACAD
1000
ASC_BOUNDS
1002
{
1070
    19
1005
A37A
1002
}
  0
LINE
  5
A35C
330
A333
100
AcDbEntity
  8
0
100
AcDbLine
 10
40.02599999995994
 20
5.341799999994635
 30
0.0
 11
40.02599999995994
 21
0.0
 31
0.0
1001
ACAD
1000
ASC_BOUNDS
1002
{
1070
    19
1005
A37A
1002
}
  0
LINE
  5
A35D
330
A333
100
AcDbEntity
  8
0
100
AcDbLine
 10
38.60499999996136
 20
8.999999999991019
 30
0.0
 11
38.60499999996136
 21
0.0
 31
0.0
1001
ACAD
1000
ASC_BOUNDS
1002
{
1070
    19
1005
A37A
1002
}
  0
LINE
  5
A35E
330
A333
100
AcDbEntity
  8
0
100
AcDbLine
 10
44.99999999995498
 20
8.763099999991255
 30
0.0
 11
44.99999999995498
 21
-0.2368999999997641
 31
0.0
1001
ACAD
1000
ASC_BOUNDS
1002
{
1070
    19
1005
A37A
1002
}
  0
LINE
  5
A35F
330
A333
100
AcDbEntity
  8
0
100
AcDbLine
 10
38.60499999996136
 20
0.0
 30
0.0
 11
40.02599999995994
 21
0.0
 31
0.0
1001
ACAD
1000
ASC_BOUNDS
1002
{
1070
    19
1005
A37A
1002
}
  0
LINE
  5
A360
330
A333
100
AcDbEntity
  8
0
100
AcDbLine
 10
43.57899999995641
 20
3.421199999996588
 30
0.0
 11
38.60499999996136
 21
8.999899999990987
 31
0.0
1001
ACAD
1000
ASC_BOUNDS
1002
{
1070
    19
1005
A37A
1002
}
  0
LINE
  5
A361
330
A333
100
AcDbEntity
  8
0
100
AcDbLine
 10
43.57899999995641
 20
8.763099999991255
 30
0.0
 11
43.57899999995641
 21
3.421199999996588
 31
0.0
1001
ACAD
1000
ASC_BOUNDS
1002
{
1070
    19
1005
A37A
1002
}
  0
LINE
  5
A362
330
A333
100
AcDbEntity
  8
0
100
AcDbLine
 10
43.57899999995641
 20
8.763099999991255
 30
0.0
 11
44.99999999995498
 21
8.763099999991255
 31
0.0
1001
ACAD
1000
ASC_BOUNDS
1002
{
1070
    19
1005
A37A
1002
}
  0
LINE
  5
A363
330
A333
100
AcDbEntity
  8
0
100
AcDbLine
 10
37.67199999996831
 20
8.763099999991255
 30
0.0
 11
36.23199999996837
 21
8.763099999991255
 31
0.0
  0
LINE
  5
A364
330
A333
100
AcDbEntity
  8
0
100
AcDbLine
 10
31.64199999996833
 20
8.763099999991255
 30
0.0
 11
31.64199999996833
 21
2.481619422925121
 31
0.0
  0
LINE
  5
A365
330
A333
100
AcDbEntity
  8
0
100
AcDbLine
 10
37.67199999996831
 20
8.763099999991255
 30
0.0
 11
37.67199999996831
 21
2.481619422925121
 31
0.0
  0
LINE
  5
A366
330
A333
100
AcDbEntity
  8
0
100
AcDbLine
 10
36.23199999996837
 20
8.763099999991255
 30
0.0
 11
36.23199999996837
 21
2.481619422925064
 31
0.0
  0
LINE
  5
A367
330
A333
100
AcDbEntity
  8
0
100
AcDbLine
 10
33.08199999996839
 20
8.763099999991255
 30
0.0
 11
33.08199999996839
 21
2.481619422925121
 31
0.0
  0
ARC
  5
A368
330
A333
100
AcDbEntity
  8
0
100
AcDbCircle
 10
34.65699999996832
 20
3.183099999991214
 30
0.0
 40
3.420000000000007
100
AcDbArc
 50
240.0000000000255
 51
299.9999999999766
  0
ARC
  5
A369
330
A333
100
AcDbEntity
  8
0
100
AcDbCircle
 10
34.65699999996832
 20
3.183099999991214
 30
0.0
 40
1.97999999999999
100
AcDbArc
 50
240.000000000026
 51
299.9999999999703
  0
LINE
  5
A36A
330
A333
100
AcDbEntity
  8
0
100
AcDbLine
 10
33.08199999996828
 20
8.763099999991255
 30
0.0
 11
31.64199999996833
 21
8.763099999991255
 31
0.0
  0
ARC
  5
A36B
330
A333
100
AcDbEntity
  8
0
100
AcDbCircle
 10
35.06199999996829
 20
2.481619422925064
 30
0.0
 40
1.17
100
AcDbArc
 50
299.9999999999699
 51
0.0
  0
ARC
  5
A36C
330
A333
100
AcDbEntity
  8
0
100
AcDbCircle
 10
34.25199999996835
 20
2.481619422925121
 30
0.0
 40
1.17
100
AcDbArc
 50
180.0
 51
240.0000000000238
  0
ARC
  5
A36D
330
A333
100
AcDbEntity
  8
0
100
AcDbCircle
 10
35.06199999996841
 20
2.481619422925121
 30
0.0
 40
2.61
100
AcDbArc
 50
299.9999999999756
 51
0.0
  0
ARC
  5
A36E
330
A333
100
AcDbEntity
  8
0
100
AcDbCircle
 10
34.25199999996835
 20
2.481619422925121
 30
0.0
 40
2.61
100
AcDbArc
 50
180.0
 51
240.0000000000244
  0
LINE
  5
A36F
330
A333
100
AcDbEntity
  8
0
100
AcDbLine
 10
29.30199999996933
 20
8.763099999991255
 30
0.0
 11
30.74199999996927
 21
8.763099999991255
 31
0.0
1001
ACAD
1000
ASC_BOUNDS
1002
{
1070
    19
1005
A378
1002
}
  0
LINE
  5
A370
330
A333
100
AcDbEntity
  8
0
100
AcDbLine
 10
30.74199999996927
 20
8.763099999991255
 30
0.0
 11
30.74199999996927
 21
2.373099999991211
 31
0.0
1001
ACAD
1000
ASC_BOUNDS
1002
{
1070
    19
1005
A378
1002
}
  0
LINE
  5
A371
330
A333
100
AcDbEntity
  8
0
100
AcDbLine
 10
26.02015566812236
 20
0.0330999999912365
 30
0.0
 11
28.40199999996923
 21
0.0330999999912365
 31
0.0
1001
ACAD
1000
ASC_BOUNDS
1002
{
1070
    19
1005
A378
1002
}
  0
LINE
  5
A372
330
A333
100
AcDbEntity
  8
0
100
AcDbLine
 10
29.30199999996933
 20
8.763099999991255
 30
0.0
 11
29.30199999996933
 21
2.283099999991236
 31
0.0
1001
ACAD
1000
ASC_BOUNDS
1002
{
1070
    19
1005
A378
1002
}
  0
LINE
  5
A373
330
A333
100
AcDbEntity
  8
0
100
AcDbLine
 10
26.97358892824991
 20
1.383099999991202
 30
0.0
 11
28.40199999996923
 21
1.383099999991202
 31
0.0
1001
ACAD
1000
ASC_BOUNDS
1002
{
1070
    19
1005
A378
1002
}
  0
ARC
  5
A374
330
A333
100
AcDbEntity
  8
0
100
AcDbCircle
 10
28.40199999996923
 20
2.283099999991236
 30
0.0
 40
0.9
100
AcDbArc
 50
270.0
 51
0.0
1001
ACAD
1000
ASC_BOUNDS
1002
{
1070
    19
1005
A378
1002
}
  0
ARC
  5
A375
330
A333
100
AcDbEntity
  8
0
100
AcDbCircle
 10
28.40199999996923
 20
2.373099999991211
 30
0.0
 40
2.34
100
AcDbArc
 50
270.0
 51
0.0
1001
ACAD
1000
ASC_BOUNDS
1002
{
1070
    19
1005
A378
1002
}
  0
INSERT
  5
A376
330
A333
100
AcDbEntity
  8
0
100
AcDbBlockReference
  2
*X85
 10
0.0
 20
0.0
 30
0.0
1001
ACAD
1000
HATCH
1002
{
1070
    19
1000
ANSI37
1040
0.15
1040
0.0
1000
ASC_BOUNDS
1070
     2
1070
     2
1070
    12
1005
A335
1005
A336
1005
A33D
1005
A34C
1005
A34F
1005
A34D
1005
A33E
1005
A343
1005
A341
1005
A345
1005
A344
1005
A346
1070
     2
1070
     3
1005
A351
1005
A353
1005
A352
1000
ASC_SEEDPOINT
1011
3.614004224891801
1021
2.996669441146025
1031
0.0
1000
R14_HATCH_DATA
1000
A376
1011
1.0
1021
0.0
1031
0.0
1011
0.0
1021
1.0
1031
0.0
1011
0.0
1021
0.0
1031
1.0
1040
0.0
1010
0.0
1020
0.0
1030
1.0
1000
ANSI37
1070
     0
1070
     1
1071
        2
1071
        7
1070
     0
1070
     1
1071
       17
1040
13.26299999998673
1040
-0.0001000000000317
1040
9.236999999990758
1040
8.999899999990987
1040
9.236999999990758
1040
8.999999999991019
1040
5.657999999994331
1040
0.9999999999989768
1040
3.181999999996833
1040
4.668599999995308
1040
6.432999999993513
1040
8.763099999991255
1040
4.617999999995391
1040
8.763099999991255
1040
1.420999999998571
1040
4.736799999995242
1040
4.617999999995391
1040
-0.0001000000000317
1040
4.617999999995391
1040
0.0
1040
6.766999999993232
1040
0.0
1040
6.766999999993232
1040
-0.0001000000000317
1040
7.826999999992154
1040
2.368399999997621
1040
10.64699999998936
1040
2.368399999997621
1040
11.70599999998831
1040
-0.0001000000000317
1040
11.70599999998831
1040
0.0
1040
13.26299999998673
1040
0.0
1071
       12
1005
A335
1005
A336
1005
A33D
1005
A34C
1005
A34F
1005
A34D
1005
A33E
1005
A343
1005
A341
1005
A345
1005
A344
1005
A346
1071
       22
1070
     0
1070
     1
1071
        3
1040
9.236999999990758
1040
5.5200999999945
1040
10.06399999998996
1040
3.670999999996297
1040
8.409999999991555
1040
3.670999999996297
1071
        3
1005
A351
1005
A353
1005
A352
1070
     0
1070
     1
1040
0.0
1040
0.15
1070
     0
1070
     2
1040
0.7853981633974483
1040
49.29960901727088
1040
-10.17736998311392
1040
-0.3367596045400932
1040
0.3367596045400932
1070
     0
1040
2.356194490192345
1040
49.29960901727088
1040
-10.17736998311392
1040
-0.3367596045400932
1040
-0.3367596045400932
1070
     0
1040
0.0110235143455945
1071
        2
1040
3.614004224891801
1040
2.996669441146025
1040
0.0
1040
3.614004224891801
1040
2.996669441146025
1040
0.0
1002
}
  0
INSERT
  5
A377
330
A333
100
AcDbEntity
  8
0
100
AcDbBlockReference
  2
*X86
 10
0.0
 20
0.0
 30
0.0
1001
ACAD
1000
HATCH
1002
{
1070
    19
1000
ANSI37
1040
0.15
1040
0.0
1000
ASC_BOUNDS
1070
     1
1070
     2
1070
    10
1005
A337
1005
A338
1005
A359
1005
A357
1005
A358
1005
A34B
1005
A350
1005
A354
1005
A33A
1005
A339
1000
ASC_SEEDPOINT
1011
14.73245321214324
1021
2.798246178283421
1031
0.0
1000
R14_HATCH_DATA
1000
A377
1011
1.0
1021
0.0
1031
0.0
1011
0.0
1021
1.0
1031
0.0
1011
0.0
1021
0.0
1031
1.0
1040
0.0
1010
0.0
1020
0.0
1030
1.0
1000
ANSI37
1070
     0
1070
     1
1071
        1
1071
        7
1070
     0
1070
     1
1071
       10
1040
16.46099999998353
1040
5.432899999994561
1040
18.59199999998134
1040
-0.2368999999997641
1040
22.38199999997767
1040
8.763099999991255
1040
20.89099999997916
1040
8.763099999991255
1040
18.59799999998143
1040
3.315799999996671
1040
16.46099999998353
1040
8.999899999990987
1040
14.32399999998563
1040
3.315799999996671
1040
12.02999999998792
1040
8.763099999991255
1040
10.53899999998941
1040
8.763099999991255
1040
14.32899999998563
1040
-0.2368999999997641
1071
       10
1005
A337
1005
A338
1005
A359
1005
A357
1005
A358
1005
A34B
1005
A350
1005
A354
1005
A33A
1005
A339
1070
     0
1070
     1
1040
0.0
1040
0.15
1070
     0
1070
     2
1040
0.7853981633974483
1040
49.29960901727088
1040
-10.17736998311392
1040
-0.3367596045400932
1040
0.3367596045400932
1070
     0
1040
2.356194490192345
1040
49.29960901727088
1040
-10.17736998311392
1040
-0.3367596045400932
1040
-0.3367596045400932
1070
     0
1040
0.0110235143455945
1071
        1
1040
14.73245321214324
1040
2.798246178283421
1040
0.0
1002
}
  0
INSERT
  5
A378
330
A333
100
AcDbEntity
  8
0
100
AcDbBlockReference
  2
*X87
 10
0.0
 20
0.0
 30
0.0
1001
ACAD
1000
HATCH
1002
{
1070
    19
1000
ANSI37
1040
0.15
1040
0.0
1000
ASC_BOUNDS
1070
     2
1070
     2
1070
    13
1005
A33B
1005
A348
1005
A349
1005
A347
1005
A34A
1005
A371
1005
A375
1005
A370
1005
A36F
1005
A372
1005
A374
1005
A373
1005
A33C
1070
     2
1070
     3
1005
A355
1005
A35A
1005
A356
1000
ASC_SEEDPOINT
1011
21.97929957367762
1021
3.294304244259308
1031
0.0
1000
R14_HATCH_DATA
1000
A378
1011
1.0
1021
0.0
1031
0.0
1011
0.0
1021
1.0
1031
0.0
1011
0.0
1021
0.0
1031
1.0
1040
0.0
1010
0.0
1020
0.0
1030
1.0
1000
ANSI37
1070
     0
1070
     1
1071
        2
1071
        7
1070
     1
1070
     1
1071
       15
1040
23.56599999997638
1040
8.999899999990987
1040
0.0
1040
19.53899999998043
1040
-0.0001000000000317
1040
0.0
1040
19.53899999998043
1040
0.0
1040
0.0
1040
21.09599999997886
1040
0.0
1040
0.0
1040
21.09599999997886
1040
-0.0001000000000317
1040
0.0
1040
22.15599999997789
1040
2.368399999997621
1040
0.0
1040
24.97599999997499
1040
2.368399999997621
1040
0.0
1040
26.02015566812236
1040
0.0330999999912365
1040
0.0
1040
28.40199999996923
1040
0.0330999999912365
1040
0.414213562373095
1040
30.74199999996923
1040
2.373099999991211
1040
0.0
1040
30.74199999996927
1040
8.763099999991255
1040
0.0
1040
29.30199999996933
1040
8.763099999991255
1040
0.0
1040
29.30199999996933
1040
2.283099999991236
1040
-0.414213562373095
1040
28.40199999996923
1040
1.383099999991237
1040
0.0
1040
26.97358892824991
1040
1.383099999991202
1040
0.0
1071
       13
1005
A33B
1005
A348
1005
A349
1005
A347
1005
A34A
1005
A371
1005
A375
1005
A370
1005
A36F
1005
A372
1005
A374
1005
A373
1005
A33C
1071
       22
1070
     0
1070
     1
1071
        3
1040
22.7389999999773
1040
3.670999999996297
1040
23.56599999997638
1040
5.5200999999945
1040
24.39299999997559
1040
3.670999999996297
1071
        3
1005
A355
1005
A35A
1005
A356
1070
     0
1070
     1
1040
0.0
1040
0.15
1070
     0
1070
     2
1040
0.7853981633974483
1040
49.29960901727088
1040
-10.17736998311392
1040
-0.3367596045400932
1040
0.3367596045400932
1070
     0
1040
2.356194490192345
1040
49.29960901727088
1040
-10.17736998311392
1040
-0.3367596045400932
1040
-0.3367596045400932
1070
     0
1040
0.0110235143455945
1071
        2
1040
21.97929957367762
1040
3.294304244259308
1040
0.0
1040
21.97929957367762
1040
3.294304244259308
1040
0.0
1002
}
  0
INSERT
  5
A379
330
A333
100
AcDbEntity
  8
0
100
AcDbBlockReference
  2
*X88
 10
0.0
 20
0.0
 30
0.0
1001
ACAD
1000
HATCH
1002
{
1070
    19
1000
ANSI37
1040
0.15
1040
0.0
1000
R14_HATCH_DATA
1000
A379
1011
1.0
1021
0.0
1031
0.0
1011
0.0
1021
1.0
1031
0.0
1011
0.0
1021
0.0
1031
1.0
1040
0.0
1010
0.0
1020
0.0
1030
1.0
1000
ANSI37
1070
     0
1070
     1
1071
        1
1071
        7
1070
     1
1070
     1
1071
       12
1040
31.64199999996833
1040
2.481619422925121
1040
0.2679491924310942
1040
32.94699999997067
1040
0.2212931190493919
1040
0.2679491924301353
1040
36.36699999995983
1040
0.2212931190459813
1040
0.2679491924321411
1040
37.67199999996831
1040
2.481619422928361
1040
0.0
1040
37.67199999996831
1040
8.763099999991255
1040
0.0
1040
36.23199999996837
1040
8.763099999991255
1040
0.0
1040
36.23199999996837
1040
2.481619422925064
1040
-0.2679491924310291
1040
35.64699999996708
1040
1.468369700498386
1040
-0.267949192430519
1040
33.66699999997093
1040
1.468369700497703
1040
-0.267949192431809
1040
33.08199999996839
1040
2.481619422926997
1040
0.0
1040
33.08199999996839
1040
8.763099999991255
1040
0.0
1040
31.64199999996833
1040
8.763099999991255
1040
0.0
1071
        0
1070
     0
1070
     1
1040
0.0
1040
0.15
1070
     0
1070
     2
1040
0.7853981633974483
1040
49.29960901727088
1040
-10.17736998311392
1040
-0.3367596045400932
1040
0.3367596045400932
1070
     0
1040
2.356194490192345
1040
49.29960901727088
1040
-10.17736998311392
1040
-0.3367596045400932
1040
-0.3367596045400932
1070
     0
1040
0.0110235143455945
1071
        1
1040
32.30357378967278
1040
3.988785755459219
1040
0.0
1002
}
  0
INSERT
  5
A37A
330
A333
100
AcDbEntity
  8
0
100
AcDbBlockReference
  2
*X89
 10
0.0
 20
0.0
 30
0.0
1001
ACAD
1000
HATCH
1002
{
1070
    19
1000
ANSI37
1040
0.15
1040
0.0
1000
ASC_BOUNDS
1070
     1
1070
     2
1070
     8
1005
A35B
1005
A35E
1005
A362
1005
A361
1005
A360
1005
A35D
1005
A35F
1005
A35C
1000
ASC_SEEDPOINT
1011
39.74896370716704
1021
4.484843821435049
1031
0.0
1000
R14_HATCH_DATA
1000
A37A
1011
1.0
1021
0.0
1031
0.0
1011
0.0
1021
1.0
1031
0.0
1011
0.0
1021
0.0
1031
1.0
1040
0.0
1010
0.0
1020
0.0
1030
1.0
1000
ANSI37
1070
     0
1070
     1
1071
        1
1071
        7
1070
     0
1070
     1
1071
        9
1040
40.02599999995994
1040
5.341799999994635
1040
44.99999999995498
1040
-0.2368999999997641
1040
44.99999999995498
1040
8.763099999991255
1040
43.57899999995641
1040
8.763099999991255
1040
43.57899999995641
1040
3.421199999996588
1040
38.60499999996136
1040
8.999899999990987
1040
38.60499999996136
1040
8.999999999991019
1040
38.60499999996136
1040
0.0
1040
40.02599999995994
1040
0.0
1071
        8
1005
A35B
1005
A35E
1005
A362
1005
A361
1005
A360
1005
A35D
1005
A35F
1005
A35C
1070
     0
1070
     1
1040
0.0
1040
0.15
1070
     0
1070
     2
1040
0.7853981633974483
1040
49.29960901727088
1040
-10.17736998311392
1040
-0.3367596045400932
1040
0.3367596045400932
1070
     0
1040
2.356194490192345
1040
49.29960901727088
1040
-10.17736998311392
1040
-0.3367596045400932
1040
-0.3367596045400932
1070
     0
1040
0.0110235143455945
1071
        1
1040
39.74896370716704
1040
4.484843821435049
1040
0.0
1002
}
  0
INSERT
  5
A37B
330
A333
100
AcDbEntity
  8
0
100
AcDbBlockReference
  2
*X90
 10
0.0
 20
0.0
 30
0.0
1001
ACAD
1000
HATCH
1002
{
1070
    19
1000
ANSI37
1040
0.15
1040
0.0
1000
ASC_BOUNDS
1070
     1
1070
     2
1070
     4
1005
A33F
1005
A34E
1005
A340
1005
A342
1000
ASC_SEEDPOINT
1011
1.079051535452663
1021
4.148538732891836
1031
0.0
1000
R14_HATCH_DATA
1000
A37B
1011
1.0
1021
0.0
1031
0.0
1011
0.0
1021
1.0
1031
0.0
1011
0.0
1021
0.0
1031
1.0
1040
0.0
1010
0.0
1020
0.0
1030
1.0
1000
ANSI37
1070
     0
1070
     1
1071
        1
1071
        7
1070
     0
1070
     1
1071
        4
1040
1.420999999998571
1040
0.0
1040
1.420999999998571
1040
8.763099999991255
1040
0.0
1040
8.763099999991255
1040
0.0
1040
0.0
1071
        4
1005
A33F
1005
A34E
1005
A340
1005
A342
1070
     0
1070
     1
1040
0.0
1040
0.15
1070
     0
1070
     2
1040
0.7853981633974483
1040
49.29960901727088
1040
-10.17736998311392
1040
-0.3367596045400932
1040
0.3367596045400932
1070
     0
1040
2.356194490192345
1040
49.29960901727088
1040
-10.17736998311392
1040
-0.3367596045400932
1040
-0.3367596045400932
1070
     0
1040
0.0053004257112761
1071
        1
1040
1.079051535452663
1040
4.148538732891836
1040
0.0
1002
}
  0
ENDBLK
  5
AA57
330
A333
100
AcDbEntity
  8
0
100
AcDbBlockEnd
  0
BLOCK
  5
B957
330
B7C9
100
AcDbEntity
  8
0
100
AcDbBlockBegin
  2
*X85
 70
     1
 10
0.0
 20
0.0
 30
0.0
  3
*X85
  1

  0
LINE
  5
B7CA
330
B7C9
100
AcDbEntity
  8
0
  6
CONTINUOUS
100
AcDbLine
 10
3.418023043697893
 20
7.251849696850613
 30
0.0
 11
4.929273346838536
 21
8.763099999991255
 31
0.0
  0
LINE
  5
B7CB
330
B7C9
100
AcDbEntity
  8
0
  6
CONTINUOUS
100
AcDbLine
 10
1.483656411257782
 20
4.643963855330318
 30
0.0
 11
5.60279255591872
 21
8.763099999991255
 31
0.0
  0
LINE
  5
B7CC
330
B7C9
100
AcDbEntity
  8
0
  6
CONTINUOUS
100
AcDbLine
 10
1.755053947328235
 20
4.241842182320584
 30
0.0
 11
6.276311764998907
 21
8.763099999991255
 31
0.0
  0
LINE
  5
B7CD
330
B7C9
100
AcDbEntity
  8
0
  6
CONTINUOUS
100
AcDbLine
 10
2.026451483398688
 20
3.839720509310849
 30
0.0
 11
4.441040904851878
 21
6.254309930764039
 31
0.0
  0
LINE
  5
B7CE
330
B7C9
100
AcDbEntity
  8
0
  6
CONTINUOUS
100
AcDbLine
 10
2.297849019469139
 20
3.437598836301114
 30
0.0
 11
3.321765168359338
 21
4.461514985191313
 31
0.0
  0
LINE
  5
B7CF
330
B7C9
100
AcDbEntity
  8
0
  6
CONTINUOUS
100
AcDbLine
 10
2.569246555539591
 20
3.03547716329138
 30
0.0
 11
3.593163397972743
 21
4.059394005724531
 31
0.0
  0
LINE
  5
B7D0
330
B7C9
100
AcDbEntity
  8
0
  6
CONTINUOUS
100
AcDbLine
 10
2.840644091610043
 20
2.633355490281646
 30
0.0
 11
3.864561627586149
 21
3.657273026257751
 31
0.0
  0
LINE
  5
B7D1
330
B7C9
100
AcDbEntity
  8
0
  6
CONTINUOUS
100
AcDbLine
 10
3.112041627680496
 20
2.231233817271911
 30
0.0
 11
4.135959857199554
 21
3.25515204679097
 31
0.0
  0
LINE
  5
B7D2
330
B7C9
100
AcDbEntity
  8
0
  6
CONTINUOUS
100
AcDbLine
 10
3.383439163750948
 20
1.829112144262177
 30
0.0
 11
4.40735808681296
 21
2.853031067324189
 31
0.0
  0
LINE
  5
B7D3
330
B7C9
100
AcDbEntity
  8
0
  6
CONTINUOUS
100
AcDbLine
 10
3.654836699821399
 20
1.426990471252442
 30
0.0
 11
4.678756316426365
 21
2.450910087857407
 31
0.0
  0
LINE
  5
B7D4
330
B7C9
100
AcDbEntity
  8
0
  6
CONTINUOUS
100
AcDbLine
 10
3.926234235891853
 20
1.024868798242709
 30
0.0
 11
4.95015454603977
 21
2.048789108390626
 31
0.0
  0
LINE
  5
B7D5
330
B7C9
100
AcDbEntity
  8
0
  6
CONTINUOUS
100
AcDbLine
 10
4.197631771962304
 20
0.6227471252329737
 30
0.0
 11
5.221552775653176
 21
1.646668128923846
 31
0.0
  0
LINE
  5
B7D6
330
B7C9
100
AcDbEntity
  8
0
  6
CONTINUOUS
100
AcDbLine
 10
8.715877546767851
 20
7.835069736359266
 30
0.0
 11
9.435953450375058
 21
8.555145639966472
 31
0.0
  0
LINE
  5
B7D7
330
B7C9
100
AcDbEntity
  8
0
  6
CONTINUOUS
100
AcDbLine
 10
8.170620868422267
 20
6.616293848933497
 30
0.0
 11
9.644120833743461
 21
8.08979381425469
 31
0.0
  0
LINE
  5
B7D8
330
B7C9
100
AcDbEntity
  8
0
  6
CONTINUOUS
100
AcDbLine
 10
7.625364190076684
 20
5.397517961507727
 30
0.0
 11
9.852288217111864
 21
7.624441988542907
 31
0.0
  0
LINE
  5
B7D9
330
B7C9
100
AcDbEntity
  8
0
  6
CONTINUOUS
100
AcDbLine
 10
7.080107511731101
 20
4.178742074081957
 30
0.0
 11
10.06045560048027
 21
7.159090162831124
 31
0.0
  0
LINE
  5
B7DA
330
B7C9
100
AcDbEntity
  8
0
  6
CONTINUOUS
100
AcDbLine
 10
6.534850833385518
 20
2.959966186656187
 30
0.0
 11
10.26862298384867
 21
6.693738337119342
 31
0.0
  0
LINE
  5
B7DB
330
B7C9
100
AcDbEntity
  8
0
  6
CONTINUOUS
100
AcDbLine
 10
4.469029308032756
 20
0.2206254522232385
 30
0.0
 11
5.492951005266582
 21
1.244547149457064
 31
0.0
  0
LINE
  5
B7DC
330
B7C9
100
AcDbEntity
  8
0
  6
CONTINUOUS
100
AcDbLine
 10
5.989594155039935
 20
1.741190299230417
 30
0.0
 11
8.806950407233131
 21
4.558546551423613
 31
0.0
  0
LINE
  5
B7DD
330
B7C9
100
AcDbEntity
  8
0
  6
CONTINUOUS
100
AcDbLine
 10
9.401251593263643
 20
5.152847737454126
 30
0.0
 11
10.47679036721708
 21
6.228386511407559
 31
0.0
  0
LINE
  5
B7DE
330
B7C9
100
AcDbEntity
  8
0
  6
CONTINUOUS
100
AcDbLine
 10
4.921837203428691
 20
-0.0000858614610131
 30
0.0
 11
8.592923064886001
 21
3.670999999996297
 31
0.0
  0
LINE
  5
B7DF
330
B7C9
100
AcDbEntity
  8
0
  6
CONTINUOUS
100
AcDbLine
 10
9.609390446785305
 20
4.6874673818956
 30
0.0
 11
10.68495775058548
 21
5.763034685695775
 31
0.0
  0
LINE
  5
B7E0
330
B7C9
100
AcDbEntity
  8
0
  6
CONTINUOUS
100
AcDbLine
 10
5.595387755019432
 20
-0.0000545189504582
 30
0.0
 11
7.716137258923768
 21
2.120694984953879
 31
0.0
  0
LINE
  5
B7E1
330
B7C9
100
AcDbEntity
  8
0
  6
CONTINUOUS
100
AcDbLine
 10
6.268938306610172
 20
-0.000023176439905
 30
0.0
 11
7.170485805526503
 21
0.9015243224764267
 31
0.0
  0
LINE
  5
B7E2
330
B7C9
100
AcDbEntity
  8
0
  6
CONTINUOUS
100
AcDbLine
 10
7.963842273967511
 20
2.368399999997621
 30
0.0
 11
9.266442273966188
 21
3.670999999996297
 31
0.0
  0
LINE
  5
B7E3
330
B7C9
100
AcDbEntity
  8
0
  6
CONTINUOUS
100
AcDbLine
 10
8.637361483047696
 20
2.368399999997621
 30
0.0
 11
9.939961483046375
 21
3.670999999996297
 31
0.0
  0
LINE
  5
B7E4
330
B7C9
100
AcDbEntity
  8
0
  6
CONTINUOUS
100
AcDbLine
 10
9.817529300306965
 20
4.222087026337075
 30
0.0
 11
10.89312513395388
 21
5.297682859983993
 31
0.0
  0
LINE
  5
B7E5
330
B7C9
100
AcDbEntity
  8
0
  6
CONTINUOUS
100
AcDbLine
 10
10.02566815382863
 20
3.756706670778549
 30
0.0
 11
11.10129251732229
 21
4.832331034272211
 31
0.0
  0
LINE
  5
B7E6
330
B7C9
100
AcDbEntity
  8
0
  6
CONTINUOUS
100
AcDbLine
 10
9.310880692127883
 20
2.368399999997621
 30
0.0
 11
11.30945990069069
 21
4.366979208560428
 31
0.0
  0
LINE
  5
B7E7
330
B7C9
100
AcDbEntity
  8
0
  6
CONTINUOUS
100
AcDbLine
 10
9.98439990120807
 20
2.36839999999762
 30
0.0
 11
11.5176272840591
 21
3.901627382848645
 31
0.0
  0
LINE
  5
B7E8
330
B7C9
100
AcDbEntity
  8
0
  6
CONTINUOUS
100
AcDbLine
 10
10.65037369446246
 20
2.36085458417182
 30
0.0
 11
11.7257946674275
 21
3.436275557136862
 31
0.0
  0
LINE
  5
B7E9
330
B7C9
100
AcDbEntity
  8
0
  6
CONTINUOUS
100
AcDbLine
 10
10.85847197087848
 20
1.895433651507656
 30
0.0
 11
11.9339620507959
 21
2.97092373142508
 31
0.0
  0
LINE
  5
B7EA
330
B7C9
100
AcDbEntity
  8
0
  6
CONTINUOUS
100
AcDbLine
 10
11.0665702472945
 20
1.430012718843491
 30
0.0
 11
12.14212943416431
 21
2.505571905713296
 31
0.0
  0
LINE
  5
B7EB
330
B7C9
100
AcDbEntity
  8
0
  6
CONTINUOUS
100
AcDbLine
 10
11.27466852371052
 20
0.9645917861793256
 30
0.0
 11
12.35029681753271
 21
2.040220080001513
 31
0.0
  0
LINE
  5
B7EC
330
B7C9
100
AcDbEntity
  8
0
  6
CONTINUOUS
100
AcDbLine
 10
11.48276680012654
 20
0.4991708535151611
 30
0.0
 11
12.55846420090111
 21
1.57486825428973
 31
0.0
  0
LINE
  5
B7ED
330
B7C9
100
AcDbEntity
  8
0
  6
CONTINUOUS
100
AcDbLine
 10
11.69086507654257
 20
0.0337499208509957
 30
0.0
 11
12.76663158426952
 21
1.109516428577947
 31
0.0
  0
LINE
  5
B7EE
330
B7C9
100
AcDbEntity
  8
0
  6
CONTINUOUS
100
AcDbLine
 10
12.33057447873954
 20
-0.0000598860322123
 30
0.0
 11
12.97479896763792
 21
0.6441646028661663
 31
0.0
  0
LINE
  5
B7EF
330
B7C9
100
AcDbEntity
  8
0
  6
CONTINUOUS
100
AcDbLine
 10
13.00413694809395
 20
-0.0000166257579952
 30
0.0
 11
13.18296635100632
 21
0.1788127771543824
 31
0.0
  0
LINE
  5
B7F0
330
B7C9
100
AcDbEntity
  8
0
  6
CONTINUOUS
100
AcDbLine
 10
4.772852165289667
 20
-0.000092794222212
 30
0.0
 11
4.296495091028902
 21
0.4762642800385528
 31
0.0
  0
LINE
  5
B7F1
330
B7C9
100
AcDbEntity
  8
0
  6
CONTINUOUS
100
AcDbLine
 10
5.446340034776103
 20
-0.0000614546284616
 30
0.0
 11
2.898195908335625
 21
2.548082671812017
 31
0.0
  0
LINE
  5
B7F2
330
B7C9
100
AcDbEntity
  8
0
  6
CONTINUOUS
100
AcDbLine
 10
6.119827904262539
 20
-0.0000301150347113
 30
0.0
 11
1.499896725642348
 21
4.61990106358548
 31
0.0
  0
LINE
  5
B7F3
330
B7C9
100
AcDbEntity
  8
0
  6
CONTINUOUS
100
AcDbLine
 10
6.775136745476159
 20
0.0181802528318542
 30
0.0
 11
5.699826040202669
 21
1.093490958105344
 31
0.0
  0
LINE
  5
B7F4
330
B7C9
100
AcDbEntity
  8
0
  6
CONTINUOUS
100
AcDbLine
 10
6.983376846288489
 20
0.4834593610997118
 30
0.0
 11
5.908008617934405
 21
1.558827589453796
 31
0.0
  0
LINE
  5
B7F5
330
B7C9
100
AcDbEntity
  8
0
  6
CONTINUOUS
100
AcDbLine
 10
5.377063484962296
 20
1.416253513345719
 30
0.0
 11
1.702276957014131
 21
5.091040041293883
 31
0.0
  0
LINE
  5
B7F6
330
B7C9
100
AcDbEntity
  8
0
  6
CONTINUOUS
100
AcDbLine
 10
3.978745891735324
 20
3.488090315652877
 30
0.0
 11
2.000373521109399
 21
5.466462686278803
 31
0.0
  0
LINE
  5
B7F7
330
B7C9
100
AcDbEntity
  8
0
  6
CONTINUOUS
100
AcDbLine
 10
7.191616947100819
 20
0.948738469367568
 30
0.0
 11
6.11619119566614
 21
2.024164220802247
 31
0.0
  0
LINE
  5
B7F8
330
B7C9
100
AcDbEntity
  8
0
  6
CONTINUOUS
100
AcDbLine
 10
7.399857047913149
 20
1.414017577635424
 30
0.0
 11
6.324373773397875
 21
2.489500852150698
 31
0.0
  0
LINE
  5
B7F9
330
B7C9
100
AcDbEntity
  8
0
  6
CONTINUOUS
100
AcDbLine
 10
7.608097148725479
 20
1.879296685903281
 30
0.0
 11
6.53255635112961
 21
2.95483748349915
 31
0.0
  0
LINE
  5
B7FA
330
B7C9
100
AcDbEntity
  8
0
  6
CONTINUOUS
100
AcDbLine
 10
7.816337249537808
 20
2.344575794171138
 30
0.0
 11
6.740738928861345
 21
3.420174114847601
 31
0.0
  0
LINE
  5
B7FB
330
B7C9
100
AcDbEntity
  8
0
  6
CONTINUOUS
100
AcDbLine
 10
3.310241080789734
 20
4.830114335678653
 30
0.0
 11
2.298470085204666
 21
5.84188533126372
 31
0.0
  0
LINE
  5
B7FC
330
B7C9
100
AcDbEntity
  8
0
  6
CONTINUOUS
100
AcDbLine
 10
3.60832983563551
 20
5.205544789913063
 30
0.0
 11
2.596566649299935
 21
6.217307976248638
 31
0.0
  0
LINE
  5
B7FD
330
B7C9
100
AcDbEntity
  8
0
  6
CONTINUOUS
100
AcDbLine
 10
3.906418590481286
 20
5.580975244147473
 30
0.0
 11
2.894663213395203
 21
6.592730621233557
 31
0.0
  0
LINE
  5
B7FE
330
B7C9
100
AcDbEntity
  8
0
  6
CONTINUOUS
100
AcDbLine
 10
4.204507345327062
 20
5.956405698381884
 30
0.0
 11
3.192759777490472
 21
6.968153266218474
 31
0.0
  0
LINE
  5
B7FF
330
B7C9
100
AcDbEntity
  8
0
  6
CONTINUOUS
100
AcDbLine
 10
8.466032252791512
 20
2.368399999997621
 30
0.0
 11
6.948921506593081
 21
3.885510746196053
 31
0.0
  0
LINE
  5
B800
330
B7C9
100
AcDbEntity
  8
0
  6
CONTINUOUS
100
AcDbLine
 10
9.139551461871699
 20
2.36839999999762
 30
0.0
 11
7.157104084324816
 21
4.350847377544504
 31
0.0
  0
LINE
  5
B801
330
B7C9
100
AcDbEntity
  8
0
  6
CONTINUOUS
100
AcDbLine
 10
4.502596100172839
 20
6.331836152616295
 30
0.0
 11
3.49085634158574
 21
7.343575911203393
 31
0.0
  0
LINE
  5
B802
330
B7C9
100
AcDbEntity
  8
0
  6
CONTINUOUS
100
AcDbLine
 10
4.800684855018615
 20
6.707266606850705
 30
0.0
 11
3.788952905681008
 21
7.718998556188312
 31
0.0
  0
LINE
  5
B803
330
B7C9
100
AcDbEntity
  8
0
  6
CONTINUOUS
100
AcDbLine
 10
12.18154012887317
 20
-0.0000694579236642
 30
0.0
 11
11.32140332908496
 21
0.8600673418645499
 31
0.0
  0
LINE
  5
B804
330
B7C9
100
AcDbEntity
  8
0
  6
CONTINUOUS
100
AcDbLine
 10
12.85501608323566
 20
-0.0000262032059659
 30
0.0
 11
10.77672456435345
 21
2.078265315676246
 31
0.0
  0
LINE
  5
B805
330
B7C9
100
AcDbEntity
  8
0
  6
CONTINUOUS
100
AcDbLine
 10
9.813070670951886
 20
2.36839999999762
 30
0.0
 11
8.51047067095321
 21
3.670999999996297
 31
0.0
  0
LINE
  5
B806
330
B7C9
100
AcDbEntity
  8
0
  6
CONTINUOUS
100
AcDbLine
 10
10.48658988003207
 20
2.36839999999762
 30
0.0
 11
9.183989880033396
 21
3.670999999996297
 31
0.0
  0
LINE
  5
B807
330
B7C9
100
AcDbEntity
  8
0
  6
CONTINUOUS
100
AcDbLine
 10
8.441048632286794
 20
3.740422038662712
 30
0.0
 11
7.365286662056551
 21
4.816184008892956
 31
0.0
  0
LINE
  5
B808
330
B7C9
100
AcDbEntity
  8
0
  6
CONTINUOUS
100
AcDbLine
 10
8.649187485808454
 20
4.205802394221237
 30
0.0
 11
7.573469239788285
 21
5.281520640241407
 31
0.0
  0
LINE
  5
B809
330
B7C9
100
AcDbEntity
  8
0
  6
CONTINUOUS
100
AcDbLine
 10
5.098773609864391
 20
7.082697061085115
 30
0.0
 11
4.087049469776277
 21
8.09442120117323
 31
0.0
  0
LINE
  5
B80A
330
B7C9
100
AcDbEntity
  8
0
  6
CONTINUOUS
100
AcDbLine
 10
5.396862364710167
 20
7.458127515319526
 30
0.0
 11
4.385146033871544
 21
8.469843846158149
 31
0.0
  0
LINE
  5
B80B
330
B7C9
100
AcDbEntity
  8
0
  6
CONTINUOUS
100
AcDbLine
 10
13.04801363231285
 20
0.4804954567970334
 30
0.0
 11
9.85750908911358
 21
3.670999999996297
 31
0.0
  0
LINE
  5
B80C
330
B7C9
100
AcDbEntity
  8
0
  6
CONTINUOUS
100
AcDbLine
 10
8.857326339330116
 20
4.671182749779763
 30
0.0
 11
7.781651817520021
 21
5.746857271589858
 31
0.0
  0
LINE
  5
B80D
330
B7C9
100
AcDbEntity
  8
0
  6
CONTINUOUS
100
AcDbLine
 10
5.694951119555943
 20
7.833557969553937
 30
0.0
 11
4.765409089118624
 21
8.763099999991255
 31
0.0
  0
LINE
  5
B80E
330
B7C9
100
AcDbEntity
  8
0
  6
CONTINUOUS
100
AcDbLine
 10
12.50286117236978
 20
1.699167125820288
 30
0.0
 11
9.68611877250287
 21
4.515909525687196
 31
0.0
  0
LINE
  5
B80F
330
B7C9
100
AcDbEntity
  8
0
  6
CONTINUOUS
100
AcDbLine
 10
9.065465192851777
 20
5.136563105338288
 30
0.0
 11
7.989834395251757
 21
6.21219390293831
 31
0.0
  0
LINE
  5
B810
330
B7C9
100
AcDbEntity
  8
0
  6
CONTINUOUS
100
AcDbLine
 10
5.993039874401719
 20
8.208988423788346
 30
0.0
 11
5.43892829819881
 21
8.763099999991255
 31
0.0
  0
LINE
  5
B811
330
B7C9
100
AcDbEntity
  8
0
  6
CONTINUOUS
100
AcDbLine
 10
11.95770871242671
 20
2.917838794843543
 30
0.0
 11
8.19801697298349
 21
6.677530534286761
 31
0.0
  0
LINE
  5
B812
330
B7C9
100
AcDbEntity
  8
0
  6
CONTINUOUS
100
AcDbLine
 10
6.291128629247495
 20
8.584418878022756
 30
0.0
 11
6.112447507278997
 21
8.763099999991255
 31
0.0
  0
LINE
  5
B813
330
B7C9
100
AcDbEntity
  8
0
  6
CONTINUOUS
100
AcDbLine
 10
11.41255625248364
 20
4.136510463866797
 30
0.0
 11
8.406199550715227
 21
7.142867165635211
 31
0.0
  0
LINE
  5
B814
330
B7C9
100
AcDbEntity
  8
0
  6
CONTINUOUS
100
AcDbLine
 10
10.86740379254057
 20
5.355182132890051
 30
0.0
 11
8.614382128446962
 21
7.608203796983664
 31
0.0
  0
LINE
  5
B815
330
B7C9
100
AcDbEntity
  8
0
  6
CONTINUOUS
100
AcDbLine
 10
10.3222513325975
 20
6.573853801913305
 30
0.0
 11
8.822564706178696
 21
8.073540428332114
 31
0.0
  0
LINE
  5
B816
330
B7C9
100
AcDbEntity
  8
0
  6
CONTINUOUS
100
AcDbLine
 10
9.777098872654436
 20
7.792525470936562
 30
0.0
 11
9.030747283910433
 21
8.538877059680566
 31
0.0
  0
ENDBLK
  5
B958
330
B7C9
100
AcDbEntity
  8
0
100
AcDbBlockEnd
  0
BLOCK
  5
B959
330
B817
100
AcDbEntity
  8
0
100
AcDbBlockBegin
  2
*X86
 70
     1
 10
0.0
 20
0.0
 30
0.0
  3
*X86
  1

  0
LINE
  5
B818
330
B817
100
AcDbEntity
  8
0
  6
CONTINUOUS
100
AcDbLine
 10
10.67292308101235
 20
8.445076852443387
 30
0.0
 11
10.99094622856022
 21
8.763099999991255
 31
0.0
  0
LINE
  5
B819
330
B817
100
AcDbEntity
  8
0
  6
CONTINUOUS
100
AcDbLine
 10
10.87250383178748
 20
7.971138394138331
 30
0.0
 11
11.6644654376404
 21
8.763099999991255
 31
0.0
  0
LINE
  5
B81A
330
B817
100
AcDbEntity
  8
0
  6
CONTINUOUS
100
AcDbLine
 10
11.07208458256261
 20
7.497199935833273
 30
0.0
 11
12.12126590876355
 21
8.546381262034211
 31
0.0
  0
LINE
  5
B81B
330
B817
100
AcDbEntity
  8
0
  6
CONTINUOUS
100
AcDbLine
 10
11.27166533333774
 20
7.023261477528216
 30
0.0
 11
12.32085164573666
 21
8.072447789927136
 31
0.0
  0
LINE
  5
B81C
330
B817
100
AcDbEntity
  8
0
  6
CONTINUOUS
100
AcDbLine
 10
11.47124608411287
 20
6.549323019223158
 30
0.0
 11
12.52043738270977
 21
7.59851431782006
 31
0.0
  0
LINE
  5
B81D
330
B817
100
AcDbEntity
  8
0
  6
CONTINUOUS
100
AcDbLine
 10
11.670826834888
 20
6.075384560918101
 30
0.0
 11
12.72002311968288
 21
7.124580845712984
 31
0.0
  0
LINE
  5
B81E
330
B817
100
AcDbEntity
  8
0
  6
CONTINUOUS
100
AcDbLine
 10
11.87040758566313
 20
5.601446102613043
 30
0.0
 11
12.91960885665599
 21
6.650647373605907
 31
0.0
  0
LINE
  5
B81F
330
B817
100
AcDbEntity
  8
0
  6
CONTINUOUS
100
AcDbLine
 10
12.06998833643825
 20
5.127507644307986
 30
0.0
 11
13.1191945936291
 21
6.176713901498832
 31
0.0
  0
LINE
  5
B820
330
B817
100
AcDbEntity
  8
0
  6
CONTINUOUS
100
AcDbLine
 10
12.26956908721338
 20
4.65356918600293
 30
0.0
 11
13.31878033060221
 21
5.702780429391757
 31
0.0
  0
LINE
  5
B821
330
B817
100
AcDbEntity
  8
0
  6
CONTINUOUS
100
AcDbLine
 10
12.46914983798851
 20
4.179630727697873
 30
0.0
 11
13.51836606757532
 21
5.228846957284683
 31
0.0
  0
LINE
  5
B822
330
B817
100
AcDbEntity
  8
0
  6
CONTINUOUS
100
AcDbLine
 10
12.66873058876364
 20
3.705692269392816
 30
0.0
 11
13.71795180454843
 21
4.754913485177607
 31
0.0
  0
LINE
  5
B823
330
B817
100
AcDbEntity
  8
0
  6
CONTINUOUS
100
AcDbLine
 10
12.86831133953877
 20
3.231753811087759
 30
0.0
 11
13.91753754152154
 21
4.280980013070531
 31
0.0
  0
LINE
  5
B824
330
B817
100
AcDbEntity
  8
0
  6
CONTINUOUS
100
AcDbLine
 10
13.0678920903139
 20
2.757815352782702
 30
0.0
 11
14.11712327849465
 21
3.807046540963456
 31
0.0
  0
LINE
  5
B825
330
B817
100
AcDbEntity
  8
0
  6
CONTINUOUS
100
AcDbLine
 10
13.26747284108903
 20
2.283876894477644
 30
0.0
 11
14.31670901546777
 21
3.333113068856379
 31
0.0
  0
LINE
  5
B826
330
B817
100
AcDbEntity
  8
0
  6
CONTINUOUS
100
AcDbLine
 10
16.36767838827179
 20
8.751678487061342
 30
0.0
 11
16.50332410898388
 21
8.887324207773432
 31
0.0
  0
LINE
  5
B827
330
B817
100
AcDbEntity
  8
0
  6
CONTINUOUS
100
AcDbLine
 10
15.96190732182191
 20
7.67238821153127
 30
0.0
 11
16.68735328004734
 21
8.397834169756699
 31
0.0
  0
LINE
  5
B828
330
B817
100
AcDbEntity
  8
0
  6
CONTINUOUS
100
AcDbLine
 10
15.55613625537202
 20
6.593097936001196
 30
0.0
 11
16.87138245111079
 21
7.908344131739965
 31
0.0
  0
LINE
  5
B829
330
B817
100
AcDbEntity
  8
0
  6
CONTINUOUS
100
AcDbLine
 10
15.15036518892213
 20
5.513807660471122
 30
0.0
 11
17.05541162217424
 21
7.418854093723231
 31
0.0
  0
LINE
  5
B82A
330
B817
100
AcDbEntity
  8
0
  6
CONTINUOUS
100
AcDbLine
 10
14.74459412247225
 20
4.434517384941048
 30
0.0
 11
17.2394407932377
 21
6.929364055706499
 31
0.0
  0
LINE
  5
B82B
330
B817
100
AcDbEntity
  8
0
  6
CONTINUOUS
100
AcDbLine
 10
14.33882305602236
 20
3.355227109410975
 30
0.0
 11
17.42346996430115
 21
6.439874017689766
 31
0.0
  0
LINE
  5
B82C
330
B817
100
AcDbEntity
  8
0
  6
CONTINUOUS
100
AcDbLine
 10
13.46705359186416
 20
1.809938436172586
 30
0.0
 11
16.0819338255367
 21
4.424818669845129
 31
0.0
  0
LINE
  5
B82D
330
B817
100
AcDbEntity
  8
0
  6
CONTINUOUS
100
AcDbLine
 10
16.63283254238972
 20
4.975717386698149
 30
0.0
 11
17.60749913536461
 21
5.950383979673033
 31
0.0
  0
LINE
  5
B82E
330
B817
100
AcDbEntity
  8
0
  6
CONTINUOUS
100
AcDbLine
 10
13.66663434263929
 20
1.335999977867529
 30
0.0
 11
15.67604797733754
 21
3.345413612565779
 31
0.0
  0
LINE
  5
B82F
330
B817
100
AcDbEntity
  8
0
  6
CONTINUOUS
100
AcDbLine
 10
13.86621509341442
 20
0.8620615195624723
 30
0.0
 11
15.27016212913838
 21
2.26600855528643
 31
0.0
  0
LINE
  5
B830
330
B817
100
AcDbEntity
  8
0
  6
CONTINUOUS
100
AcDbLine
 10
16.81682257348267
 20
4.486188208710908
 30
0.0
 11
17.79152830642806
 21
5.460893941656299
 31
0.0
  0
LINE
  5
B831
330
B817
100
AcDbEntity
  8
0
  6
CONTINUOUS
100
AcDbLine
 10
17.00081260457561
 20
3.996659030723667
 30
0.0
 11
17.97555747749151
 21
4.971403903639565
 31
0.0
  0
LINE
  5
B832
330
B817
100
AcDbEntity
  8
0
  6
CONTINUOUS
100
AcDbLine
 10
20.74362343514722
 20
8.412989070375462
 30
0.0
 11
21.09373436476302
 21
8.763099999991256
 31
0.0
  0
LINE
  5
B833
330
B817
100
AcDbEntity
  8
0
  6
CONTINUOUS
100
AcDbLine
 10
20.25401257174777
 20
7.249858997895826
 30
0.0
 11
21.7672535738432
 21
8.763099999991255
 31
0.0
  0
LINE
  5
B834
330
B817
100
AcDbEntity
  8
0
  6
CONTINUOUS
100
AcDbLine
 10
14.06579584418955
 20
0.3881230612574149
 30
0.0
 11
14.86427628093921
 21
1.186603498007082
 31
0.0
  0
LINE
  5
B835
330
B817
100
AcDbEntity
  8
0
  6
CONTINUOUS
100
AcDbLine
 10
14.26537659496467
 20
-0.0858153970476412
 30
0.0
 11
14.45839043274005
 21
0.1071984407277329
 31
0.0
  0
LINE
  5
B836
330
B817
100
AcDbEntity
  8
0
  6
CONTINUOUS
100
AcDbLine
 10
17.18480263566856
 20
3.507129852736426
 30
0.0
 11
18.15958664855496
 21
4.481913865622833
 31
0.0
  0
LINE
  5
B837
330
B817
100
AcDbEntity
  8
0
  6
CONTINUOUS
100
AcDbLine
 10
17.3687926667615
 20
3.017600674749186
 30
0.0
 11
18.34361581961842
 21
3.9924238276061
 31
0.0
  0
LINE
  5
B838
330
B817
100
AcDbEntity
  8
0
  6
CONTINUOUS
100
AcDbLine
 10
19.76440170834832
 20
6.086728925416191
 30
0.0
 11
22.33924590259489
 21
8.661573119662755
 31
0.0
  0
LINE
  5
B839
330
B817
100
AcDbEntity
  8
0
  6
CONTINUOUS
100
AcDbLine
 10
19.27479084494887
 20
4.923598852936555
 30
0.0
 11
21.84929622842713
 21
7.498104236414807
 31
0.0
  0
LINE
  5
B83A
330
B817
100
AcDbEntity
  8
0
  6
CONTINUOUS
100
AcDbLine
 10
17.55278269785445
 20
2.528071496761945
 30
0.0
 11
18.52764499068187
 21
3.502933789589366
 31
0.0
  0
LINE
  5
B83B
330
B817
100
AcDbEntity
  8
0
  6
CONTINUOUS
100
AcDbLine
 10
18.78517998154942
 20
3.760468780456919
 30
0.0
 11
21.35934655425936
 21
6.33463535316686
 31
0.0
  0
LINE
  5
B83C
330
B817
100
AcDbEntity
  8
0
  6
CONTINUOUS
100
AcDbLine
 10
17.73677272894739
 20
2.038542318774704
 30
0.0
 11
20.8693968800916
 21
5.171166469918914
 31
0.0
  0
LINE
  5
B83D
330
B817
100
AcDbEntity
  8
0
  6
CONTINUOUS
100
AcDbLine
 10
17.92076276004034
 20
1.549013140787464
 30
0.0
 11
20.37944720592384
 21
4.007697586670968
 31
0.0
  0
LINE
  5
B83E
330
B817
100
AcDbEntity
  8
0
  6
CONTINUOUS
100
AcDbLine
 10
18.10475279113329
 20
1.059483962800223
 30
0.0
 11
19.88949753175608
 21
2.84422870342302
 31
0.0
  0
LINE
  5
B83F
330
B817
100
AcDbEntity
  8
0
  6
CONTINUOUS
100
AcDbLine
 10
18.28874282222623
 20
0.5699547848129822
 30
0.0
 11
19.39954785758832
 21
1.680759820175074
 31
0.0
  0
LINE
  5
B840
330
B817
100
AcDbEntity
  8
0
  6
CONTINUOUS
100
AcDbLine
 10
18.47273285331918
 20
0.0804256068257416
 30
0.0
 11
18.90959818342056
 21
0.517290936927127
 31
0.0
  0
LINE
  5
B841
330
B817
100
AcDbEntity
  8
0
  6
CONTINUOUS
100
AcDbLine
 10
14.3590401358224
 20
-0.1570118376323384
 30
0.0
 11
14.24903296539946
 21
-0.0470046672093929
 31
0.0
  0
LINE
  5
B842
330
B817
100
AcDbEntity
  8
0
  6
CONTINUOUS
100
AcDbLine
 10
14.54309291258661
 20
0.332454594683643
 30
0.0
 11
13.75908329123172
 21
1.116464216038529
 31
0.0
  0
LINE
  5
B843
330
B817
100
AcDbEntity
  8
0
  6
CONTINUOUS
100
AcDbLine
 10
14.72714568935081
 20
0.8219210269996244
 30
0.0
 11
13.26913361706399
 21
2.27993309928645
 31
0.0
  0
LINE
  5
B844
330
B817
100
AcDbEntity
  8
0
  6
CONTINUOUS
100
AcDbLine
 10
14.91119846611502
 20
1.311387459315606
 30
0.0
 11
12.77918394289625
 21
3.443401982534371
 31
0.0
  0
LINE
  5
B845
330
B817
100
AcDbEntity
  8
0
  6
CONTINUOUS
100
AcDbLine
 10
15.09525124287922
 20
1.800853891631587
 30
0.0
 11
12.28923426872852
 21
4.606870865782293
 31
0.0
  0
LINE
  5
B846
330
B817
100
AcDbEntity
  8
0
  6
CONTINUOUS
100
AcDbLine
 10
15.27930401964343
 20
2.290320323947569
 30
0.0
 11
11.79928459456078
 21
5.770339749030213
 31
0.0
  0
LINE
  5
B847
330
B817
100
AcDbEntity
  8
0
  6
CONTINUOUS
100
AcDbLine
 10
15.46335679640763
 20
2.77978675626355
 30
0.0
 11
14.48885470994921
 21
3.754288842721972
 31
0.0
  0
LINE
  5
B848
330
B817
100
AcDbEntity
  8
0
  6
CONTINUOUS
100
AcDbLine
 10
13.88507249233704
 20
4.358071060334137
 30
0.0
 11
11.30933492039305
 21
6.933808632278135
 31
0.0
  0
LINE
  5
B849
330
B817
100
AcDbEntity
  8
0
  6
CONTINUOUS
100
AcDbLine
 10
18.75840522805855
 20
0.1582575336928151
 30
0.0
 11
18.25383727664818
 21
0.6628254851031863
 31
0.0
  0
LINE
  5
B84A
330
B817
100
AcDbEntity
  8
0
  6
CONTINUOUS
100
AcDbLine
 10
15.64740957317184
 20
3.269253188579531
 30
0.0
 11
14.67288388101266
 21
4.243778880738705
 31
0.0
  0
LINE
  5
B84B
330
B817
100
AcDbEntity
  8
0
  6
CONTINUOUS
100
AcDbLine
 10
13.39509276772158
 20
5.521569994029786
 30
0.0
 11
10.81938524622531
 21
8.097277515526056
 31
0.0
  0
LINE
  5
B84C
330
B817
100
AcDbEntity
  8
0
  6
CONTINUOUS
100
AcDbLine
 10
18.95798597883369
 20
0.6321959919978686
 30
0.0
 11
17.84825644852853
 21
1.741925522303024
 31
0.0
  0
LINE
  5
B84D
330
B817
100
AcDbEntity
  8
0
  6
CONTINUOUS
100
AcDbLine
 10
19.15756672960882
 20
1.106134450302922
 30
0.0
 11
17.44267562040888
 21
2.821025559502861
 31
0.0
  0
LINE
  5
B84E
330
B817
100
AcDbEntity
  8
0
  6
CONTINUOUS
100
AcDbLine
 10
15.83146234993604
 20
3.758719620895513
 30
0.0
 11
14.85691305207612
 21
4.733268918755439
 31
0.0
  0
LINE
  5
B84F
330
B817
100
AcDbEntity
  8
0
  6
CONTINUOUS
100
AcDbLine
 10
16.01551512670025
 20
4.248186053211494
 30
0.0
 11
15.04094222313957
 21
5.222758956772172
 31
0.0
  0
LINE
  5
B850
330
B817
100
AcDbEntity
  8
0
  6
CONTINUOUS
100
AcDbLine
 10
12.90511304310612
 20
6.685068927725435
 30
0.0
 11
10.8270819708403
 21
8.763099999991255
 31
0.0
  0
LINE
  5
B851
330
B817
100
AcDbEntity
  8
0
  6
CONTINUOUS
100
AcDbLine
 10
12.41513331849066
 20
7.848567861421083
 30
0.0
 11
11.50060117992049
 21
8.763099999991255
 31
0.0
  0
LINE
  5
B852
330
B817
100
AcDbEntity
  8
0
  6
CONTINUOUS
100
AcDbLine
 10
19.35714748038395
 20
1.580072908607975
 30
0.0
 11
17.03709479228923
 21
3.900125596702697
 31
0.0
  0
LINE
  5
B853
330
B817
100
AcDbEntity
  8
0
  6
CONTINUOUS
100
AcDbLine
 10
19.55672823115909
 20
2.054011366913028
 30
0.0
 11
16.63151396416958
 21
4.979225633902534
 31
0.0
  0
LINE
  5
B854
330
B817
100
AcDbEntity
  8
0
  6
CONTINUOUS
100
AcDbLine
 10
16.19956790346445
 20
4.737652485527476
 30
0.0
 11
15.22497139420302
 21
5.712248994788904
 31
0.0
  0
LINE
  5
B855
330
B817
100
AcDbEntity
  8
0
  6
CONTINUOUS
100
AcDbLine
 10
16.38362068022866
 20
5.227118917843457
 30
0.0
 11
15.40900056526648
 21
6.201739032805637
 31
0.0
  0
LINE
  5
B856
330
B817
100
AcDbEntity
  8
0
  6
CONTINUOUS
100
AcDbLine
 10
19.75630898193422
 20
2.527949825218081
 30
0.0
 11
18.70774536448286
 21
3.576513442669441
 31
0.0
  0
LINE
  5
B857
330
B817
100
AcDbEntity
  8
0
  6
CONTINUOUS
100
AcDbLine
 10
19.95588973270936
 20
3.001888283523134
 30
0.0
 11
18.90726987211446
 21
4.050508144118028
 31
0.0
  0
LINE
  5
B858
330
B817
100
AcDbEntity
  8
0
  6
CONTINUOUS
100
AcDbLine
 10
20.15547048348449
 20
3.475826741828186
 30
0.0
 11
19.10679437974606
 21
4.524502845566614
 31
0.0
  0
LINE
  5
B859
330
B817
100
AcDbEntity
  8
0
  6
CONTINUOUS
100
AcDbLine
 10
20.35505123425962
 20
3.94976520013324
 30
0.0
 11
19.30631888737766
 21
4.998497547015201
 31
0.0
  0
LINE
  5
B85A
330
B817
100
AcDbEntity
  8
0
  6
CONTINUOUS
100
AcDbLine
 10
20.55463198503475
 20
4.423703658438292
 30
0.0
 11
19.50584339500926
 21
5.472492248463787
 31
0.0
  0
LINE
  5
B85B
330
B817
100
AcDbEntity
  8
0
  6
CONTINUOUS
100
AcDbLine
 10
18.37481191085755
 20
3.909446896294752
 30
0.0
 11
15.59302973632993
 21
6.691229070822371
 31
0.0
  0
LINE
  5
B85C
330
B817
100
AcDbEntity
  8
0
  6
CONTINUOUS
100
AcDbLine
 10
17.96904084440766
 20
4.988737171824825
 30
0.0
 11
15.77705890739338
 21
7.180719108839104
 31
0.0
  0
LINE
  5
B85D
330
B817
100
AcDbEntity
  8
0
  6
CONTINUOUS
100
AcDbLine
 10
17.56326977795777
 20
6.068027447354899
 30
0.0
 11
15.96108807845684
 21
7.670209146855838
 31
0.0
  0
LINE
  5
B85E
330
B817
100
AcDbEntity
  8
0
  6
CONTINUOUS
100
AcDbLine
 10
17.15749871150789
 20
7.147317722884972
 30
0.0
 11
16.14511724952029
 21
8.15969918487257
 31
0.0
  0
LINE
  5
B85F
330
B817
100
AcDbEntity
  8
0
  6
CONTINUOUS
100
AcDbLine
 10
16.751727645058
 20
8.226607998415046
 30
0.0
 11
16.32914642058374
 21
8.649189222889303
 31
0.0
  0
LINE
  5
B860
330
B817
100
AcDbEntity
  8
0
  6
CONTINUOUS
100
AcDbLine
 10
20.75421273580989
 20
4.897642116743345
 30
0.0
 11
19.70536790264086
 21
5.946486949912374
 31
0.0
  0
LINE
  5
B861
330
B817
100
AcDbEntity
  8
0
  6
CONTINUOUS
100
AcDbLine
 10
20.95379348658502
 20
5.371580575048398
 30
0.0
 11
19.90489241027246
 21
6.42048165136096
 31
0.0
  0
LINE
  5
B862
330
B817
100
AcDbEntity
  8
0
  6
CONTINUOUS
100
AcDbLine
 10
21.15337423736015
 20
5.845519033353452
 30
0.0
 11
20.10441691790406
 21
6.894476352809547
 31
0.0
  0
LINE
  5
B863
330
B817
100
AcDbEntity
  8
0
  6
CONTINUOUS
100
AcDbLine
 10
21.35295498813529
 20
6.319457491658505
 30
0.0
 11
20.30394142553566
 21
7.368471054258134
 31
0.0
  0
LINE
  5
B864
330
B817
100
AcDbEntity
  8
0
  6
CONTINUOUS
100
AcDbLine
 10
21.55253573891042
 20
6.793395949963558
 30
0.0
 11
20.50346593316726
 21
7.842465755706721
 31
0.0
  0
LINE
  5
B865
330
B817
100
AcDbEntity
  8
0
  6
CONTINUOUS
100
AcDbLine
 10
21.75211648968556
 20
7.267334408268612
 30
0.0
 11
20.70299044079886
 21
8.316460457155308
 31
0.0
  0
LINE
  5
B866
330
B817
100
AcDbEntity
  8
0
  6
CONTINUOUS
100
AcDbLine
 10
21.95169724046069
 20
7.741272866573663
 30
0.0
 11
20.9298701070431
 21
8.763099999991256
 31
0.0
  0
LINE
  5
B867
330
B817
100
AcDbEntity
  8
0
  6
CONTINUOUS
100
AcDbLine
 10
22.15127799123582
 20
8.215211324878716
 30
0.0
 11
21.60338931612328
 21
8.763099999991256
 31
0.0
  0
LINE
  5
B868
330
B817
100
AcDbEntity
  8
0
  6
CONTINUOUS
100
AcDbLine
 10
22.35085874201096
 20
8.689149783183769
 30
0.0
 11
22.27690852520347
 21
8.763099999991255
 31
0.0
  0
ENDBLK
  5
B95A
330
B817
100
AcDbEntity
  8
0
100
AcDbBlockEnd
  0
BLOCK
  5
B95B
330
B869
100
AcDbEntity
  8
0
100
AcDbBlockBegin
  2
*X87
 70
     1
 10
0.0
 20
0.0
 30
0.0
  3
*X87
  1

  0
LINE
  5
B86A
330
B869
100
AcDbEntity
  8
0
  6
CONTINUOUS
100
AcDbLine
 10
23.19462913593892
 20
8.169917934846424
 30
0.0
 11
23.70775465517246
 21
8.683043454079957
 31
0.0
  0
LINE
  5
B86B
330
B869
100
AcDbEntity
  8
0
  6
CONTINUOUS
100
AcDbLine
 10
22.64923161835078
 20
6.951001208178088
 30
0.0
 11
23.9159364069932
 21
8.217705996820516
 31
0.0
  0
LINE
  5
B86C
330
B869
100
AcDbEntity
  8
0
  6
CONTINUOUS
100
AcDbLine
 10
22.10383410076263
 20
5.732084481509751
 30
0.0
 11
24.12411815881395
 21
7.752368539561078
 31
0.0
  0
LINE
  5
B86D
330
B869
100
AcDbEntity
  8
0
  6
CONTINUOUS
100
AcDbLine
 10
21.55843658317447
 20
4.513167754841414
 30
0.0
 11
24.3322999106347
 21
7.287031082301639
 31
0.0
  0
LINE
  5
B86E
330
B869
100
AcDbEntity
  8
0
  6
CONTINUOUS
100
AcDbLine
 10
21.01303906558632
 20
3.294251028173077
 30
0.0
 11
24.54048166245544
 21
6.821693625042199
 31
0.0
  0
LINE
  5
B86F
330
B869
100
AcDbEntity
  8
0
  6
CONTINUOUS
100
AcDbLine
 10
20.46764154799817
 20
2.075334301504738
 30
0.0
 11
23.28571549467848
 21
4.89340824818505
 31
0.0
  0
LINE
  5
B870
330
B869
100
AcDbEntity
  8
0
  6
CONTINUOUS
100
AcDbLine
 10
19.92224403041002
 20
0.8564175748364002
 30
0.0
 11
22.74075865492779
 21
3.674932199354171
 31
0.0
  0
LINE
  5
B871
330
B869
100
AcDbEntity
  8
0
  6
CONTINUOUS
100
AcDbLine
 10
23.67305085490148
 20
5.280743608408048
 30
0.0
 11
24.74866341427619
 21
6.356356167782759
 31
0.0
  0
LINE
  5
B872
330
B869
100
AcDbEntity
  8
0
  6
CONTINUOUS
100
AcDbLine
 10
23.88118970842314
 20
4.815363252849522
 30
0.0
 11
24.95684516609694
 21
5.89101871052332
 31
0.0
  0
LINE
  5
B873
330
B869
100
AcDbEntity
  8
0
  6
CONTINUOUS
100
AcDbLine
 10
19.73925852647308
 20
-0.0000871381807288
 30
0.0
 11
23.4103456646501
 21
3.670999999996297
 31
0.0
  0
LINE
  5
B874
330
B869
100
AcDbEntity
  8
0
  6
CONTINUOUS
100
AcDbLine
 10
24.0893285619448
 20
4.349982897290997
 30
0.0
 11
25.16502691791769
 21
5.42568125326388
 31
0.0
  0
LINE
  5
B875
330
B869
100
AcDbEntity
  8
0
  6
CONTINUOUS
100
AcDbLine
 10
20.41282099582748
 20
-0.0000438779065108
 30
0.0
 11
21.64944178675636
 21
1.236576913022366
 31
0.0
  0
LINE
  5
B876
330
B869
100
AcDbEntity
  8
0
  6
CONTINUOUS
100
AcDbLine
 10
22.78126487373161
 20
2.36839999999762
 30
0.0
 11
24.08386487373029
 21
3.670999999996297
 31
0.0
  0
LINE
  5
B877
330
B869
100
AcDbEntity
  8
0
  6
CONTINUOUS
100
AcDbLine
 10
24.29746741546646
 20
3.884602541732471
 30
0.0
 11
25.37320866973843
 21
4.960343796004441
 31
0.0
  0
LINE
  5
B878
330
B869
100
AcDbEntity
  8
0
  6
CONTINUOUS
100
AcDbLine
 10
21.08638346518189
 20
-0.0000006176322938
 30
0.0
 11
21.10379033335899
 21
0.0174062505448083
 31
0.0
  0
LINE
  5
B879
330
B869
100
AcDbEntity
  8
0
  6
CONTINUOUS
100
AcDbLine
 10
23.4547840828118
 20
2.36839999999762
 30
0.0
 11
25.58139042155918
 21
4.495006338745002
 31
0.0
  0
LINE
  5
B87A
330
B869
100
AcDbEntity
  8
0
  6
CONTINUOUS
100
AcDbLine
 10
29.30199999996933
 20
8.215615917155148
 30
0.0
 11
29.84948408280543
 21
8.763099999991255
 31
0.0
  0
LINE
  5
B87B
330
B869
100
AcDbEntity
  8
0
  6
CONTINUOUS
100
AcDbLine
 10
24.12830329189199
 20
2.36839999999762
 30
0.0
 11
25.78957217337993
 21
4.029668881485562
 31
0.0
  0
LINE
  5
B87C
330
B869
100
AcDbEntity
  8
0
  6
CONTINUOUS
100
AcDbLine
 10
29.30199999996933
 20
7.54209670807496
 30
0.0
 11
30.52300329188562
 21
8.763099999991255
 31
0.0
  0
LINE
  5
B87D
330
B869
100
AcDbEntity
  8
0
  6
CONTINUOUS
100
AcDbLine
 10
24.80182250097217
 20
2.36839999999762
 30
0.0
 11
25.99775392520067
 21
3.564331424226122
 31
0.0
  0
LINE
  5
B87E
330
B869
100
AcDbEntity
  8
0
  6
CONTINUOUS
100
AcDbLine
 10
29.30199999996933
 20
6.868577498994774
 30
0.0
 11
30.74199999996926
 21
8.308577498994712
 31
0.0
  0
LINE
  5
B87F
330
B869
100
AcDbEntity
  8
0
  6
CONTINUOUS
100
AcDbLine
 10
25.13028238392013
 20
2.023340673865392
 30
0.0
 11
26.20593567702142
 21
3.098993966966683
 31
0.0
  0
LINE
  5
B880
330
B869
100
AcDbEntity
  8
0
  6
CONTINUOUS
100
AcDbLine
 10
25.33838066033617
 20
1.557919741201244
 30
0.0
 11
26.41411742884217
 21
2.633656509707244
 31
0.0
  0
LINE
  5
B881
330
B869
100
AcDbEntity
  8
0
  6
CONTINUOUS
100
AcDbLine
 10
25.54647893675221
 20
1.092498808537098
 30
0.0
 11
26.62229918066291
 21
2.168319052447804
 31
0.0
  0
LINE
  5
B882
330
B869
100
AcDbEntity
  8
0
  6
CONTINUOUS
100
AcDbLine
 10
25.75457721316825
 20
0.62707787587295
 30
0.0
 11
26.83048093248366
 21
1.702981595188365
 31
0.0
  0
LINE
  5
B883
330
B869
100
AcDbEntity
  8
0
  6
CONTINUOUS
100
AcDbLine
 10
29.30199999996933
 20
6.195058289914587
 30
0.0
 11
30.74199999996926
 21
7.635058289914522
 31
0.0
  0
LINE
  5
B884
330
B869
100
AcDbEntity
  8
0
  6
CONTINUOUS
100
AcDbLine
 10
29.30199999996933
 20
5.521539080834401
 30
0.0
 11
30.74199999996926
 21
6.961539080834331
 31
0.0
  0
LINE
  5
B885
330
B869
100
AcDbEntity
  8
0
  6
CONTINUOUS
100
AcDbLine
 10
29.30199999996933
 20
4.848019871754214
 30
0.0
 11
30.74199999996925
 21
6.288019871754143
 31
0.0
  0
LINE
  5
B886
330
B869
100
AcDbEntity
  8
0
  6
CONTINUOUS
100
AcDbLine
 10
29.30199999996933
 20
4.174500662674028
 30
0.0
 11
30.74199999996925
 21
5.614500662673953
 31
0.0
  0
LINE
  5
B887
330
B869
100
AcDbEntity
  8
0
  6
CONTINUOUS
100
AcDbLine
 10
25.96267548958429
 20
0.1616569432088024
 30
0.0
 11
27.18411854636669
 21
1.383099999991207
 31
0.0
  0
LINE
  5
B888
330
B869
100
AcDbEntity
  8
0
  6
CONTINUOUS
100
AcDbLine
 10
29.30199999996933
 20
3.500981453593841
 30
0.0
 11
30.74199999996925
 21
4.940981453593762
 31
0.0
  0
LINE
  5
B889
330
B869
100
AcDbEntity
  8
0
  6
CONTINUOUS
100
AcDbLine
 10
26.50763775544691
 20
0.0330999999912356
 30
0.0
 11
27.85763775544689
 21
1.383099999991223
 31
0.0
  0
LINE
  5
B88A
330
B869
100
AcDbEntity
  8
0
  6
CONTINUOUS
100
AcDbLine
 10
29.30199999996933
 20
2.827462244513656
 30
0.0
 11
30.74199999996925
 21
4.267462244513574
 31
0.0
  0
LINE
  5
B88B
330
B869
100
AcDbEntity
  8
0
  6
CONTINUOUS
100
AcDbLine
 10
27.18115696452709
 20
0.0330999999912356
 30
0.0
 11
28.55073879889363
 21
1.402681834357775
 31
0.0
  0
LINE
  5
B88C
330
B869
100
AcDbEntity
  8
0
  6
CONTINUOUS
100
AcDbLine
 10
29.28241816560272
 20
2.134361201066866
 30
0.0
 11
30.74199999996924
 21
3.593943035433383
 31
0.0
  0
LINE
  5
B88D
330
B869
100
AcDbEntity
  8
0
  6
CONTINUOUS
100
AcDbLine
 10
27.85467617360728
 20
0.0330999999912356
 30
0.0
 11
30.74199999996924
 21
2.920423826353195
 31
0.0
  0
LINE
  5
B88E
330
B869
100
AcDbEntity
  8
0
  6
CONTINUOUS
100
AcDbLine
 10
28.53897559587887
 20
0.0438802131826428
 30
0.0
 11
30.73121978677781
 21
2.236124404081585
 31
0.0
  0
LINE
  5
B88F
330
B869
100
AcDbEntity
  8
0
  6
CONTINUOUS
100
AcDbLine
 10
29.45140055588722
 20
0.2827859641107988
 30
0.0
 11
30.49231403584965
 21
1.323699444073236
 31
0.0
  0
LINE
  5
B890
330
B869
100
AcDbEntity
  8
0
  6
CONTINUOUS
100
AcDbLine
 10
19.59027867740337
 20
-0.0000967065718083
 30
0.0
 11
19.55485265190471
 21
0.035329318926844
 31
0.0
  0
LINE
  5
B891
330
B869
100
AcDbEntity
  8
0
  6
CONTINUOUS
100
AcDbLine
 10
20.26375463176586
 20
-0.0000534518541091
 30
0.0
 11
19.76305575737534
 21
0.5006454225364014
 31
0.0
  0
LINE
  5
B892
330
B869
100
AcDbEntity
  8
0
  6
CONTINUOUS
100
AcDbLine
 10
20.93723058612834
 20
-0.0000101971364099
 30
0.0
 11
19.97125886284597
 21
0.965961526145958
 31
0.0
  0
LINE
  5
B893
330
B869
100
AcDbEntity
  8
0
  6
CONTINUOUS
100
AcDbLine
 10
21.25514828313686
 20
0.355591314935257
 30
0.0
 11
20.1794619683166
 21
1.431277629755512
 31
0.0
  0
LINE
  5
B894
330
B869
100
AcDbEntity
  8
0
  6
CONTINUOUS
100
AcDbLine
 10
21.46338838394921
 20
0.8208704232030986
 30
0.0
 11
20.38766507378723
 21
1.896593733365069
 31
0.0
  0
LINE
  5
B895
330
B869
100
AcDbEntity
  8
0
  6
CONTINUOUS
100
AcDbLine
 10
21.67162848476155
 20
1.28614953147094
 30
0.0
 11
20.59586817925786
 21
2.361909836974626
 31
0.0
  0
LINE
  5
B896
330
B869
100
AcDbEntity
  8
0
  6
CONTINUOUS
100
AcDbLine
 10
21.8798685855739
 20
1.751428639738782
 30
0.0
 11
20.80407128472849
 21
2.827225940584183
 31
0.0
  0
LINE
  5
B897
330
B869
100
AcDbEntity
  8
0
  6
CONTINUOUS
100
AcDbLine
 10
22.08810868638624
 20
2.216707748006623
 30
0.0
 11
21.01227439019912
 21
3.292542044193739
 31
0.0
  0
LINE
  5
B898
330
B869
100
AcDbEntity
  8
0
  6
CONTINUOUS
100
AcDbLine
 10
22.60993564347543
 20
2.36839999999762
 30
0.0
 11
21.22047749566975
 21
3.757858147803296
 31
0.0
  0
LINE
  5
B899
330
B869
100
AcDbEntity
  8
0
  6
CONTINUOUS
100
AcDbLine
 10
23.28345485255561
 20
2.36839999999762
 30
0.0
 11
21.42868060114038
 21
4.223174251412853
 31
0.0
  0
LINE
  5
B89A
330
B869
100
AcDbEntity
  8
0
  6
CONTINUOUS
100
AcDbLine
 10
26.29227406164219
 20
0.0330999999912356
 30
0.0
 11
25.80009199592872
 21
0.5252820657046957
 31
0.0
  0
LINE
  5
B89B
330
B869
100
AcDbEntity
  8
0
  6
CONTINUOUS
100
AcDbLine
 10
23.9569740616358
 20
2.36839999999762
 30
0.0
 11
21.63688370661101
 21
4.688490355022409
 31
0.0
  0
LINE
  5
B89C
330
B869
100
AcDbEntity
  8
0
  6
CONTINUOUS
100
AcDbLine
 10
26.96579327072237
 20
0.0330999999912356
 30
0.0
 11
25.2554132311971
 21
1.743480039516508
 31
0.0
  0
LINE
  5
B89D
330
B869
100
AcDbEntity
  8
0
  6
CONTINUOUS
100
AcDbLine
 10
24.63049327071599
 20
2.36839999999762
 30
0.0
 11
23.32789327071731
 21
3.670999999996297
 31
0.0
  0
LINE
  5
B89E
330
B869
100
AcDbEntity
  8
0
  6
CONTINUOUS
100
AcDbLine
 10
22.92098674744635
 20
4.077906523267254
 30
0.0
 11
21.84508681208164
 21
5.153806458631966
 31
0.0
  0
LINE
  5
B89F
330
B869
100
AcDbEntity
  8
0
  6
CONTINUOUS
100
AcDbLine
 10
27.63931247980256
 20
0.0330999999912356
 30
0.0
 11
24.0014124797975
 21
3.670999999996297
 31
0.0
  0
LINE
  5
B8A0
330
B869
100
AcDbEntity
  8
0
  6
CONTINUOUS
100
AcDbLine
 10
23.129125600968
 20
4.5432868788258
 30
0.0
 11
22.05328991755227
 21
5.619122562241522
 31
0.0
  0
LINE
  5
B8A1
330
B869
100
AcDbEntity
  8
0
  6
CONTINUOUS
100
AcDbLine
 10
28.31283168888275
 20
0.0330999999912356
 30
0.0
 11
24.16488385994816
 21
4.181047828925828
 31
0.0
  0
LINE
  5
B8A2
330
B869
100
AcDbEntity
  8
0
  6
CONTINUOUS
100
AcDbLine
 10
23.33726445448964
 20
5.008667234384345
 30
0.0
 11
22.2614930230229
 21
6.084438665851079
 31
0.0
  0
LINE
  5
B8A3
330
B869
100
AcDbEntity
  8
0
  6
CONTINUOUS
100
AcDbLine
 10
28.92085740005492
 20
0.0985934978992438
 30
0.0
 11
27.63635089796295
 21
1.383099999991217
 31
0.0
  0
LINE
  5
B8A4
330
B869
100
AcDbEntity
  8
0
  6
CONTINUOUS
100
AcDbLine
 10
26.43704649509776
 20
2.582404402856405
 30
0.0
 11
23.61992702019732
 21
5.399523877756844
 31
0.0
  0
LINE
  5
B8A5
330
B869
100
AcDbEntity
  8
0
  6
CONTINUOUS
100
AcDbLine
 10
23.54540330801128
 20
5.47404758994289
 30
0.0
 11
22.46969612849353
 21
6.549754769460635
 31
0.0
  0
LINE
  5
B8A6
330
B869
100
AcDbEntity
  8
0
  6
CONTINUOUS
100
AcDbLine
 10
29.42225615078443
 20
0.2707139562499279
 30
0.0
 11
28.30987010704312
 21
1.383099999991234
 31
0.0
  0
LINE
  5
B8A7
330
B869
100
AcDbEntity
  8
0
  6
CONTINUOUS
100
AcDbLine
 10
25.89179548232307
 20
3.801174624711282
 30
0.0
 11
22.67789923396416
 21
7.015070873070191
 31
0.0
  0
LINE
  5
B8A8
330
B869
100
AcDbEntity
  8
0
  6
CONTINUOUS
100
AcDbLine
 10
29.83624534690007
 20
0.5302439692144705
 30
0.0
 11
28.85811781497101
 21
1.508371501143527
 31
0.0
  0
LINE
  5
B8A9
330
B869
100
AcDbEntity
  8
0
  6
CONTINUOUS
100
AcDbLine
 10
25.34654446954838
 20
5.01994484656616
 30
0.0
 11
22.88610233943479
 21
7.480386976679748
 31
0.0
  0
LINE
  5
B8AA
330
B869
100
AcDbEntity
  8
0
  6
CONTINUOUS
100
AcDbLine
 10
30.17865975401872
 20
0.8613487711760022
 30
0.0
 11
29.18888744090175
 21
1.851121084292977
 31
0.0
  0
LINE
  5
B8AB
330
B869
100
AcDbEntity
  8
0
  6
CONTINUOUS
100
AcDbLine
 10
24.80129345677369
 20
6.238715068421037
 30
0.0
 11
23.09430544490542
 21
7.945703080289305
 31
0.0
  0
LINE
  5
B8AC
330
B869
100
AcDbEntity
  8
0
  6
CONTINUOUS
100
AcDbLine
 10
30.45496647202376
 20
1.258561262251155
 30
0.0
 11
29.30199999996933
 21
2.411527734305588
 31
0.0
  0
LINE
  5
B8AD
330
B869
100
AcDbEntity
  8
0
  6
CONTINUOUS
100
AcDbLine
 10
24.256042443999
 20
7.457485290275915
 30
0.0
 11
23.30250855037605
 21
8.411019183898862
 31
0.0
  0
LINE
  5
B8AE
330
B869
100
AcDbEntity
  8
0
  6
CONTINUOUS
100
AcDbLine
 10
30.64868582078271
 20
1.738361122572387
 30
0.0
 11
29.30199999996933
 21
3.085046943385775
 31
0.0
  0
LINE
  5
B8AF
330
B869
100
AcDbEntity
  8
0
  6
CONTINUOUS
100
AcDbLine
 10
23.71079143122431
 20
8.676255512130794
 30
0.0
 11
23.51071165584668
 21
8.876335287508416
 31
0.0
  0
LINE
  5
B8B0
330
B869
100
AcDbEntity
  8
0
  6
CONTINUOUS
100
AcDbLine
 10
30.73802122914428
 20
2.322544923291007
 30
0.0
 11
29.30199999996933
 21
3.758566152465961
 31
0.0
  0
LINE
  5
B8B1
330
B869
100
AcDbEntity
  8
0
  6
CONTINUOUS
100
AcDbLine
 10
30.74199999996924
 20
2.992085361546236
 30
0.0
 11
29.30199999996933
 21
4.432085361546148
 31
0.0
  0
LINE
  5
B8B2
330
B869
100
AcDbEntity
  8
0
  6
CONTINUOUS
100
AcDbLine
 10
30.74199999996924
 20
3.665604570626419
 30
0.0
 11
29.30199999996933
 21
5.105604570626333
 31
0.0
  0
LINE
  5
B8B3
330
B869
100
AcDbEntity
  8
0
  6
CONTINUOUS
100
AcDbLine
 10
30.74199999996925
 20
4.339123779706602
 30
0.0
 11
29.30199999996933
 21
5.77912377970652
 31
0.0
  0
LINE
  5
B8B4
330
B869
100
AcDbEntity
  8
0
  6
CONTINUOUS
100
AcDbLine
 10
30.74199999996925
 20
5.012642988786785
 30
0.0
 11
29.30199999996933
 21
6.452642988786707
 31
0.0
  0
LINE
  5
B8B5
330
B869
100
AcDbEntity
  8
0
  6
CONTINUOUS
100
AcDbLine
 10
30.74199999996925
 20
5.68616219786697
 30
0.0
 11
29.30199999996933
 21
7.126162197866894
 31
0.0
  0
LINE
  5
B8B6
330
B869
100
AcDbEntity
  8
0
  6
CONTINUOUS
100
AcDbLine
 10
30.74199999996925
 20
6.359681406947153
 30
0.0
 11
29.30199999996933
 21
7.799681406947081
 31
0.0
  0
LINE
  5
B8B7
330
B869
100
AcDbEntity
  8
0
  6
CONTINUOUS
100
AcDbLine
 10
30.74199999996926
 20
7.033200616027337
 30
0.0
 11
29.30199999996933
 21
8.473200616027269
 31
0.0
  0
LINE
  5
B8B8
330
B869
100
AcDbEntity
  8
0
  6
CONTINUOUS
100
AcDbLine
 10
30.74199999996926
 20
7.706719825107518
 30
0.0
 11
29.68561982508552
 21
8.763099999991255
 31
0.0
  0
LINE
  5
B8B9
330
B869
100
AcDbEntity
  8
0
  6
CONTINUOUS
100
AcDbLine
 10
30.74199999996926
 20
8.380239034187703
 30
0.0
 11
30.35913903416571
 21
8.763099999991255
 31
0.0
  0
ENDBLK
  5
B95C
330
B869
100
AcDbEntity
  8
0
100
AcDbBlockEnd
  0
BLOCK
  5
B95D
330
B8BA
100
AcDbEntity
  8
0
100
AcDbBlockBegin
  2
*X88
 70
     1
 10
0.0
 20
0.0
 30
0.0
  3
*X88
  1

  0
LINE
  5
B8BB
330
B8BA
100
AcDbEntity
  8
0
  6
CONTINUOUS
100
AcDbLine
 10
31.64199999996833
 20
8.535058289913598
 30
0.0
 11
31.87004171004599
 21
8.763099999991255
 31
0.0
  0
LINE
  5
B8BC
330
B8BA
100
AcDbEntity
  8
0
  6
CONTINUOUS
100
AcDbLine
 10
31.64199999996833
 20
7.861539080833412
 30
0.0
 11
32.54356091912618
 21
8.763099999991255
 31
0.0
  0
LINE
  5
B8BD
330
B8BA
100
AcDbEntity
  8
0
  6
CONTINUOUS
100
AcDbLine
 10
31.64199999996833
 20
7.188019871753226
 30
0.0
 11
33.08199999996839
 21
8.628019871753281
 31
0.0
  0
LINE
  5
B8BE
330
B8BA
100
AcDbEntity
  8
0
  6
CONTINUOUS
100
AcDbLine
 10
31.64199999996833
 20
6.51450066267304
 30
0.0
 11
33.08199999996839
 21
7.954500662673095
 31
0.0
  0
LINE
  5
B8BF
330
B8BA
100
AcDbEntity
  8
0
  6
CONTINUOUS
100
AcDbLine
 10
31.64199999996833
 20
5.840981453592853
 30
0.0
 11
33.08199999996839
 21
7.280981453592908
 31
0.0
  0
LINE
  5
B8C0
330
B8BA
100
AcDbEntity
  8
0
  6
CONTINUOUS
100
AcDbLine
 10
31.64199999996833
 20
5.167462244512667
 30
0.0
 11
33.08199999996839
 21
6.607462244512721
 31
0.0
  0
LINE
  5
B8C1
330
B8BA
100
AcDbEntity
  8
0
  6
CONTINUOUS
100
AcDbLine
 10
31.64199999996833
 20
4.493943035432481
 30
0.0
 11
33.08199999996839
 21
5.933943035432535
 31
0.0
  0
LINE
  5
B8C2
330
B8BA
100
AcDbEntity
  8
0
  6
CONTINUOUS
100
AcDbLine
 10
31.64199999996833
 20
3.820423826352293
 30
0.0
 11
33.08199999996839
 21
5.260423826352348
 31
0.0
  0
LINE
  5
B8C3
330
B8BA
100
AcDbEntity
  8
0
  6
CONTINUOUS
100
AcDbLine
 10
31.64199999996833
 20
3.146904617272106
 30
0.0
 11
33.08199999996839
 21
4.586904617272161
 31
0.0
  0
LINE
  5
B8C4
330
B8BA
100
AcDbEntity
  8
0
  6
CONTINUOUS
100
AcDbLine
 10
36.23199999996837
 20
8.410423826352325
 30
0.0
 11
36.5846761736073
 21
8.763099999991255
 31
0.0
  0
LINE
  5
B8C5
330
B8BA
100
AcDbEntity
  8
0
  6
CONTINUOUS
100
AcDbLine
 10
36.23199999996837
 20
7.73690461727214
 30
0.0
 11
37.25819538268748
 21
8.763099999991255
 31
0.0
  0
LINE
  5
B8C6
330
B8BA
100
AcDbEntity
  8
0
  6
CONTINUOUS
100
AcDbLine
 10
31.64257403601376
 20
2.473959444237348
 30
0.0
 11
33.08199999996839
 21
3.913385408191974
 31
0.0
  0
LINE
  5
B8C7
330
B8BA
100
AcDbEntity
  8
0
  6
CONTINUOUS
100
AcDbLine
 10
36.23199999996837
 20
7.063385408191953
 30
0.0
 11
37.67199999996831
 21
8.503385408191894
 31
0.0
  0
LINE
  5
B8C8
330
B8BA
100
AcDbEntity
  8
0
  6
CONTINUOUS
100
AcDbLine
 10
31.72013636841932
 20
1.87800256756272
 30
0.0
 11
33.08199999996839
 21
3.239866199111788
 31
0.0
  0
LINE
  5
B8C9
330
B8BA
100
AcDbEntity
  8
0
  6
CONTINUOUS
100
AcDbLine
 10
36.23199999996837
 20
6.389866199111767
 30
0.0
 11
37.67199999996831
 21
7.829866199111708
 31
0.0
  0
LINE
  5
B8CA
330
B8BA
100
AcDbEntity
  8
0
  6
CONTINUOUS
100
AcDbLine
 10
31.89042734314753
 20
1.374774333210744
 30
0.0
 11
33.08199999996839
 21
2.566346990031601
 31
0.0
  0
LINE
  5
B8CB
330
B8BA
100
AcDbEntity
  8
0
  6
CONTINUOUS
100
AcDbLine
 10
36.23199999996837
 20
5.71634699003158
 30
0.0
 11
37.67199999996831
 21
7.156346990031521
 31
0.0
  0
LINE
  5
B8CC
330
B8BA
100
AcDbEntity
  8
0
  6
CONTINUOUS
100
AcDbLine
 10
32.14210568064475
 20
0.952933461627778
 30
0.0
 11
33.18745552475986
 21
1.998283305742888
 31
0.0
  0
LINE
  5
B8CD
330
B8BA
100
AcDbEntity
  8
0
  6
CONTINUOUS
100
AcDbLine
 10
36.23199999996837
 20
5.042827780951393
 30
0.0
 11
37.67199999996831
 21
6.482827780951334
 31
0.0
  0
LINE
  5
B8CE
330
B8BA
100
AcDbEntity
  8
0
  6
CONTINUOUS
100
AcDbLine
 10
32.45820639400955
 20
0.5955149659123915
 30
0.0
 11
33.47242681921943
 21
1.60973539112227
 31
0.0
  0
LINE
  5
B8CF
330
B8BA
100
AcDbEntity
  8
0
  6
CONTINUOUS
100
AcDbLine
 10
36.23199999996837
 20
4.369308571871207
 30
0.0
 11
37.67199999996831
 21
5.809308571871147
 31
0.0
  0
LINE
  5
B8D0
330
B8BA
100
AcDbEntity
  8
0
  6
CONTINUOUS
100
AcDbLine
 10
32.83432456621412
 20
0.2981139290367771
 30
0.0
 11
33.89722476612215
 21
1.361014128944803
 31
0.0
  0
LINE
  5
B8D1
330
B8BA
100
AcDbEntity
  8
0
  6
CONTINUOUS
100
AcDbLine
 10
36.23199999996837
 20
3.69578936279102
 30
0.0
 11
37.67199999996831
 21
5.135789362790962
 31
0.0
  0
LINE
  5
B8D2
330
B8BA
100
AcDbEntity
  8
0
  6
CONTINUOUS
100
AcDbLine
 10
33.2711633111245
 20
0.0614334648669672
 30
0.0
 11
34.43247338014423
 21
1.222743533886696
 31
0.0
  0
LINE
  5
B8D3
330
B8BA
100
AcDbEntity
  8
0
  6
CONTINUOUS
100
AcDbLine
 10
36.23199999996837
 20
3.022270153710834
 30
0.0
 11
37.67199999996831
 21
4.462270153710775
 31
0.0
  0
LINE
  5
B8D4
330
B8BA
100
AcDbEntity
  8
0
  6
CONTINUOUS
100
AcDbLine
 10
33.76515245874577
 20
-0.1180965965919523
 30
0.0
 11
35.1587445516215
 21
1.27549549628378
 31
0.0
  0
LINE
  5
B8D5
330
B8BA
100
AcDbEntity
  8
0
  6
CONTINUOUS
100
AcDbLine
 10
36.21639478609585
 20
2.333145730758136
 30
0.0
 11
37.67199999996831
 21
3.788750944630588
 31
0.0
  0
LINE
  5
B8D6
330
B8BA
100
AcDbEntity
  8
0
  6
CONTINUOUS
100
AcDbLine
 10
34.34060583368432
 20
-0.2161624307335863
 30
0.0
 11
37.67199999996831
 21
3.115231735550401
 31
0.0
  0
LINE
  5
B8D7
330
B8BA
100
AcDbEntity
  8
0
  6
CONTINUOUS
100
AcDbLine
 10
35.01698193613905
 20
-0.2133055373590427
 30
0.0
 11
37.66876712070525
 21
2.438479647207154
 31
0.0
  0
LINE
  5
B8D8
330
B8BA
100
AcDbEntity
  8
0
  6
CONTINUOUS
100
AcDbLine
 10
35.90743367693304
 20
0.0036269943547609
 30
0.0
 11
37.51723902192366
 21
1.613432339345381
 31
0.0
  0
LINE
  5
B8D9
330
B8BA
100
AcDbEntity
  8
0
  6
CONTINUOUS
100
AcDbLine
 10
32.55309425579761
 20
0.5074718966376706
 30
0.0
 11
32.27784730925847
 21
0.7827188431768102
 31
0.0
  0
LINE
  5
B8DA
330
B8BA
100
AcDbEntity
  8
0
  6
CONTINUOUS
100
AcDbLine
 10
33.87496468909684
 20
-0.1408793275813673
 30
0.0
 11
31.67993083278052
 21
2.054154528734943
 31
0.0
  0
LINE
  5
B8DB
330
B8BA
100
AcDbEntity
  8
0
  6
CONTINUOUS
100
AcDbLine
 10
34.64362813207632
 20
-0.2360235614806649
 30
0.0
 11
31.64199999996833
 21
2.765604570627322
 31
0.0
  0
LINE
  5
B8DC
330
B8BA
100
AcDbEntity
  8
0
  6
CONTINUOUS
100
AcDbLine
 10
35.25801106796118
 20
-0.1768872882853429
 30
0.0
 11
31.64199999996833
 21
3.439123779707508
 31
0.0
  0
LINE
  5
B8DD
330
B8BA
100
AcDbEntity
  8
0
  6
CONTINUOUS
100
AcDbLine
 10
35.79065650332146
 20
-0.0360135145654361
 30
0.0
 11
34.54143210838231
 21
1.213210880373721
 31
0.0
  0
LINE
  5
B8DE
330
B8BA
100
AcDbEntity
  8
0
  6
CONTINUOUS
100
AcDbLine
 10
33.08199999996839
 20
2.67264298878764
 30
0.0
 11
31.64199999996833
 21
4.112642988787695
 31
0.0
  0
LINE
  5
B8DF
330
B8BA
100
AcDbEntity
  8
0
  6
CONTINUOUS
100
AcDbLine
 10
36.25975597779143
 20
0.1684062200447833
 30
0.0
 11
35.15395110240023
 21
1.274211095435983
 31
0.0
  0
LINE
  5
B8E0
330
B8BA
100
AcDbEntity
  8
0
  6
CONTINUOUS
100
AcDbLine
 10
33.08199999996839
 20
3.346162197867826
 30
0.0
 11
31.64199999996833
 21
4.786162197867881
 31
0.0
  0
LINE
  5
B8E1
330
B8BA
100
AcDbEntity
  8
0
  6
CONTINUOUS
100
AcDbLine
 10
36.67226329638774
 20
0.4294181105286579
 30
0.0
 11
35.63766478748767
 21
1.464016619428737
 31
0.0
  0
LINE
  5
B8E2
330
B8BA
100
AcDbEntity
  8
0
  6
CONTINUOUS
100
AcDbLine
 10
33.08199999996839
 20
4.019681406948012
 30
0.0
 11
31.64199999996833
 21
5.459681406948068
 31
0.0
  0
LINE
  5
B8E3
330
B8BA
100
AcDbEntity
  8
0
  6
CONTINUOUS
100
AcDbLine
 10
37.01677749710036
 20
0.7584231188962329
 30
0.0
 11
35.99563422741351
 21
1.779566388583076
 31
0.0
  0
LINE
  5
B8E4
330
B8BA
100
AcDbEntity
  8
0
  6
CONTINUOUS
100
AcDbLine
 10
33.08199999996839
 20
4.693200616028199
 30
0.0
 11
31.64199999996833
 21
6.133200616028255
 31
0.0
  0
LINE
  5
B8E5
330
B8BA
100
AcDbEntity
  8
0
  6
CONTINUOUS
100
AcDbLine
 10
37.29859977568887
 20
1.1501200493879
 30
0.0
 11
36.20680593341555
 21
2.241913891661226
 31
0.0
  0
LINE
  5
B8E6
330
B8BA
100
AcDbEntity
  8
0
  6
CONTINUOUS
100
AcDbLine
 10
33.08199999996839
 20
5.366719825108386
 30
0.0
 11
31.64199999996833
 21
6.80671982510844
 31
0.0
  0
LINE
  5
B8E7
330
B8BA
100
AcDbEntity
  8
0
  6
CONTINUOUS
100
AcDbLine
 10
37.5148623517228
 20
1.607376682434161
 30
0.0
 11
36.23199999996837
 21
2.890239034188594
 31
0.0
  0
LINE
  5
B8E8
330
B8BA
100
AcDbEntity
  8
0
  6
CONTINUOUS
100
AcDbLine
 10
33.08199999996839
 20
6.040239034188573
 30
0.0
 11
31.64199999996833
 21
7.480239034188627
 31
0.0
  0
LINE
  5
B8E9
330
B8BA
100
AcDbEntity
  8
0
  6
CONTINUOUS
100
AcDbLine
 10
37.64705163358367
 20
2.148706609653477
 30
0.0
 11
36.23199999996837
 21
3.56375824326878
 31
0.0
  0
LINE
  5
B8EA
330
B8BA
100
AcDbEntity
  8
0
  6
CONTINUOUS
100
AcDbLine
 10
33.08199999996839
 20
6.713758243268758
 30
0.0
 11
31.64199999996833
 21
8.153758243268815
 31
0.0
  0
LINE
  5
B8EB
330
B8BA
100
AcDbEntity
  8
0
  6
CONTINUOUS
100
AcDbLine
 10
37.67199999996831
 20
2.797277452349026
 30
0.0
 11
36.23199999996837
 21
4.237277452348967
 31
0.0
  0
LINE
  5
B8EC
330
B8BA
100
AcDbEntity
  8
0
  6
CONTINUOUS
100
AcDbLine
 10
37.67199999996831
 20
3.470796661429213
 30
0.0
 11
36.23199999996837
 21
4.910796661429154
 31
0.0
  0
LINE
  5
B8ED
330
B8BA
100
AcDbEntity
  8
0
  6
CONTINUOUS
100
AcDbLine
 10
37.67199999996831
 20
4.144315870509399
 30
0.0
 11
36.23199999996837
 21
5.58431587050934
 31
0.0
  0
LINE
  5
B8EE
330
B8BA
100
AcDbEntity
  8
0
  6
CONTINUOUS
100
AcDbLine
 10
33.08199999996839
 20
7.387277452348945
 30
0.0
 11
31.70617745232608
 21
8.763099999991255
 31
0.0
  0
LINE
  5
B8EF
330
B8BA
100
AcDbEntity
  8
0
  6
CONTINUOUS
100
AcDbLine
 10
33.08199999996839
 20
8.060796661429132
 30
0.0
 11
32.37969666140626
 21
8.763099999991255
 31
0.0
  0
LINE
  5
B8F0
330
B8BA
100
AcDbEntity
  8
0
  6
CONTINUOUS
100
AcDbLine
 10
33.08199999996839
 20
8.734315870509318
 30
0.0
 11
33.05321587048645
 21
8.763099999991255
 31
0.0
  0
LINE
  5
B8F1
330
B8BA
100
AcDbEntity
  8
0
  6
CONTINUOUS
100
AcDbLine
 10
37.67199999996831
 20
4.817835079589585
 30
0.0
 11
36.23199999996837
 21
6.257835079589526
 31
0.0
  0
LINE
  5
B8F2
330
B8BA
100
AcDbEntity
  8
0
  6
CONTINUOUS
100
AcDbLine
 10
37.67199999996831
 20
5.491354288669771
 30
0.0
 11
36.23199999996837
 21
6.931354288669713
 31
0.0
  0
LINE
  5
B8F3
330
B8BA
100
AcDbEntity
  8
0
  6
CONTINUOUS
100
AcDbLine
 10
37.67199999996831
 20
6.164873497749958
 30
0.0
 11
36.23199999996837
 21
7.6048734977499
 31
0.0
  0
LINE
  5
B8F4
330
B8BA
100
AcDbEntity
  8
0
  6
CONTINUOUS
100
AcDbLine
 10
37.67199999996831
 20
6.838392706830144
 30
0.0
 11
36.23199999996837
 21
8.278392706830086
 31
0.0
  0
LINE
  5
B8F5
330
B8BA
100
AcDbEntity
  8
0
  6
CONTINUOUS
100
AcDbLine
 10
37.67199999996831
 20
7.511911915910332
 30
0.0
 11
36.42081191588738
 21
8.763099999991255
 31
0.0
  0
LINE
  5
B8F6
330
B8BA
100
AcDbEntity
  8
0
  6
CONTINUOUS
100
AcDbLine
 10
37.67199999996831
 20
8.185431124990519
 30
0.0
 11
37.09433112496757
 21
8.763099999991255
 31
0.0
  0
ENDBLK
  5
B95E
330
B8BA
100
AcDbEntity
  8
0
100
AcDbBlockEnd
  0
BLOCK
  5
B95F
330
B8F7
100
AcDbEntity
  8
0
100
AcDbBlockBegin
  2
*X89
 70
     1
 10
0.0
 20
0.0
 30
0.0
  3
*X89
  1

  0
LINE
  5
B8F8
330
B8F7
100
AcDbEntity
  8
0
  6
CONTINUOUS
100
AcDbLine
 10
38.60499999996136
 20
8.762866199104765
 30
0.0
 11
38.71672554182345
 21
8.874591740966855
 31
0.0
  0
LINE
  5
B8F9
330
B8F7
100
AcDbEntity
  8
0
  6
CONTINUOUS
100
AcDbLine
 10
38.60499999996136
 20
8.089346990024577
 30
0.0
 11
39.03418785440363
 21
8.518534844466847
 31
0.0
  0
LINE
  5
B8FA
330
B8F7
100
AcDbEntity
  8
0
  6
CONTINUOUS
100
AcDbLine
 10
38.60499999996136
 20
7.41582778094439
 30
0.0
 11
39.35165016698382
 21
8.16247794796684
 31
0.0
  0
LINE
  5
B8FB
330
B8F7
100
AcDbEntity
  8
0
  6
CONTINUOUS
100
AcDbLine
 10
38.60499999996136
 20
6.742308571864204
 30
0.0
 11
39.66911247956399
 21
7.806421051466834
 31
0.0
  0
LINE
  5
B8FC
330
B8F7
100
AcDbEntity
  8
0
  6
CONTINUOUS
100
AcDbLine
 10
38.60499999996136
 20
6.068789362784018
 30
0.0
 11
39.98657479214418
 21
7.450364154966827
 31
0.0
  0
LINE
  5
B8FD
330
B8F7
100
AcDbEntity
  8
0
  6
CONTINUOUS
100
AcDbLine
 10
38.60499999996136
 20
5.395270153703832
 30
0.0
 11
40.30403710472435
 21
7.09430725846682
 31
0.0
  0
LINE
  5
B8FE
330
B8F7
100
AcDbEntity
  8
0
  6
CONTINUOUS
100
AcDbLine
 10
38.60499999996136
 20
4.721750944623645
 30
0.0
 11
40.62149941730453
 21
6.738250361966813
 31
0.0
  0
LINE
  5
B8FF
330
B8F7
100
AcDbEntity
  8
0
  6
CONTINUOUS
100
AcDbLine
 10
38.60499999996136
 20
4.048231735543458
 30
0.0
 11
40.93896172988471
 21
6.382193465466806
 31
0.0
  0
LINE
  5
B900
330
B8F7
100
AcDbEntity
  8
0
  6
CONTINUOUS
100
AcDbLine
 10
38.60499999996136
 20
3.374712526463272
 30
0.0
 11
40.02599999995994
 21
4.795712526461843
 31
0.0
  0
LINE
  5
B901
330
B8F7
100
AcDbEntity
  8
0
  6
CONTINUOUS
100
AcDbLine
 10
38.60499999996136
 20
2.701193317383085
 30
0.0
 11
40.02599999995994
 21
4.122193317381657
 31
0.0
  0
LINE
  5
B902
330
B8F7
100
AcDbEntity
  8
0
  6
CONTINUOUS
100
AcDbLine
 10
40.28339754687704
 20
5.053110073378947
 30
0.0
 11
41.25642404246489
 21
6.026136568966799
 31
0.0
  0
LINE
  5
B903
330
B8F7
100
AcDbEntity
  8
0
  6
CONTINUOUS
100
AcDbLine
 10
40.60085985945722
 20
4.697053176878939
 30
0.0
 11
41.57388635504507
 21
5.670079672466793
 31
0.0
  0
LINE
  5
B904
330
B8F7
100
AcDbEntity
  8
0
  6
CONTINUOUS
100
AcDbLine
 10
43.57899999995641
 20
8.348712526458318
 30
0.0
 11
43.99338747348935
 21
8.763099999991255
 31
0.0
  0
LINE
  5
B905
330
B8F7
100
AcDbEntity
  8
0
  6
CONTINUOUS
100
AcDbLine
 10
43.57899999995641
 20
7.675193317378131
 30
0.0
 11
44.66690668256953
 21
8.763099999991255
 31
0.0
  0
LINE
  5
B906
330
B8F7
100
AcDbEntity
  8
0
  6
CONTINUOUS
100
AcDbLine
 10
38.60499999996136
 20
2.027674108302898
 30
0.0
 11
40.02599999995994
 21
3.44867410830147
 31
0.0
  0
LINE
  5
B907
330
B8F7
100
AcDbEntity
  8
0
  6
CONTINUOUS
100
AcDbLine
 10
38.60499999996136
 20
1.354154899222712
 30
0.0
 11
40.02599999995994
 21
2.775154899221284
 31
0.0
  0
LINE
  5
B908
330
B8F7
100
AcDbEntity
  8
0
  6
CONTINUOUS
100
AcDbLine
 10
38.60499999996136
 20
0.6806356901425255
 30
0.0
 11
40.02599999995994
 21
2.101635690141098
 31
0.0
  0
LINE
  5
B909
330
B8F7
100
AcDbEntity
  8
0
  6
CONTINUOUS
100
AcDbLine
 10
38.60499999996136
 20
0.0071164810623383
 30
0.0
 11
40.02599999995994
 21
1.428116481060911
 31
0.0
  0
LINE
  5
B90A
330
B8F7
100
AcDbEntity
  8
0
  6
CONTINUOUS
100
AcDbLine
 10
40.9183221720374
 20
4.340996280378933
 30
0.0
 11
41.89134866762525
 21
5.314022775966786
 31
0.0
  0
LINE
  5
B90B
330
B8F7
100
AcDbEntity
  8
0
  6
CONTINUOUS
100
AcDbLine
 10
41.23578448461758
 20
3.984939383878926
 30
0.0
 11
42.20881098020543
 21
4.957965879466778
 31
0.0
  0
LINE
  5
B90C
330
B8F7
100
AcDbEntity
  8
0
  6
CONTINUOUS
100
AcDbLine
 10
41.55324679719776
 20
3.628882487378919
 30
0.0
 11
42.52627329278561
 21
4.601908982966772
 31
0.0
  0
LINE
  5
B90D
330
B8F7
100
AcDbEntity
  8
0
  6
CONTINUOUS
100
AcDbLine
 10
41.87070910977793
 20
3.272825590878912
 30
0.0
 11
42.84373560536579
 21
4.245852086466765
 31
0.0
  0
LINE
  5
B90E
330
B8F7
100
AcDbEntity
  8
0
  6
CONTINUOUS
100
AcDbLine
 10
43.57899999995641
 20
7.001674108297943
 30
0.0
 11
44.99999999995498
 21
8.422674108296516
 31
0.0
  0
LINE
  5
B90F
330
B8F7
100
AcDbEntity
  8
0
  6
CONTINUOUS
100
AcDbLine
 10
43.57899999995641
 20
6.328154899217758
 30
0.0
 11
44.99999999995498
 21
7.749154899216329
 31
0.0
  0
LINE
  5
B910
330
B8F7
100
AcDbEntity
  8
0
  6
CONTINUOUS
100
AcDbLine
 10
43.57899999995641
 20
5.654635690137571
 30
0.0
 11
44.99999999995498
 21
7.075635690136142
 31
0.0
  0
LINE
  5
B911
330
B8F7
100
AcDbEntity
  8
0
  6
CONTINUOUS
100
AcDbLine
 10
43.57899999995641
 20
4.981116481057384
 30
0.0
 11
44.99999999995498
 21
6.402116481055955
 31
0.0
  0
LINE
  5
B912
330
B8F7
100
AcDbEntity
  8
0
  6
CONTINUOUS
100
AcDbLine
 10
39.27140272797921
 20
-0.0000000000000009
 30
0.0
 11
40.02599999995994
 21
0.7545972719807246
 31
0.0
  0
LINE
  5
B913
330
B8F7
100
AcDbEntity
  8
0
  6
CONTINUOUS
100
AcDbLine
 10
39.9449219370594
 20
-0.0000000000000009
 30
0.0
 11
40.02599999995994
 21
0.0810780629005379
 31
0.0
  0
LINE
  5
B914
330
B8F7
100
AcDbEntity
  8
0
  6
CONTINUOUS
100
AcDbLine
 10
42.18817142235812
 20
2.916768694378905
 30
0.0
 11
43.16119791794597
 21
3.889795189966758
 31
0.0
  0
LINE
  5
B915
330
B8F7
100
AcDbEntity
  8
0
  6
CONTINUOUS
100
AcDbLine
 10
42.50563373493829
 20
2.560711797878898
 30
0.0
 11
43.47866023052615
 21
3.533738293466751
 31
0.0
  0
LINE
  5
B916
330
B8F7
100
AcDbEntity
  8
0
  6
CONTINUOUS
100
AcDbLine
 10
43.57899999995641
 20
4.307597271977198
 30
0.0
 11
44.99999999995498
 21
5.728597271975769
 31
0.0
  0
LINE
  5
B917
330
B8F7
100
AcDbEntity
  8
0
  6
CONTINUOUS
100
AcDbLine
 10
43.57899999995641
 20
3.634078062897011
 30
0.0
 11
44.99999999995498
 21
5.055078062895582
 31
0.0
  0
LINE
  5
B918
330
B8F7
100
AcDbEntity
  8
0
  6
CONTINUOUS
100
AcDbLine
 10
42.82309604751848
 20
2.204654901378891
 30
0.0
 11
44.99999999995498
 21
4.381558853815395
 31
0.0
  0
LINE
  5
B919
330
B8F7
100
AcDbEntity
  8
0
  6
CONTINUOUS
100
AcDbLine
 10
43.14055836009865
 20
1.848598004878885
 30
0.0
 11
44.99999999995498
 21
3.70803964473521
 31
0.0
  0
LINE
  5
B91A
330
B8F7
100
AcDbEntity
  8
0
  6
CONTINUOUS
100
AcDbLine
 10
43.45802067267883
 20
1.492541108378878
 30
0.0
 11
44.99999999995498
 21
3.034520435655023
 31
0.0
  0
LINE
  5
B91B
330
B8F7
100
AcDbEntity
  8
0
  6
CONTINUOUS
100
AcDbLine
 10
43.77548298525902
 20
1.136484211878871
 30
0.0
 11
44.99999999995498
 21
2.361001226574837
 31
0.0
  0
LINE
  5
B91C
330
B8F7
100
AcDbEntity
  8
0
  6
CONTINUOUS
100
AcDbLine
 10
44.09294529783919
 20
0.7804273153788639
 30
0.0
 11
44.99999999995498
 21
1.687482017494649
 31
0.0
  0
LINE
  5
B91D
330
B8F7
100
AcDbEntity
  8
0
  6
CONTINUOUS
100
AcDbLine
 10
44.41040761041938
 20
0.4243704188788566
 30
0.0
 11
44.99999999995498
 21
1.013962808414463
 31
0.0
  0
LINE
  5
B91E
330
B8F7
100
AcDbEntity
  8
0
  6
CONTINUOUS
100
AcDbLine
 10
44.72786992299955
 20
0.0683135223788494
 30
0.0
 11
44.99999999995498
 21
0.340443599334276
 31
0.0
  0
LINE
  5
B91F
330
B8F7
100
AcDbEntity
  8
0
  6
CONTINUOUS
100
AcDbLine
 10
39.12223903415696
 20
-0.0000000000000009
 30
0.0
 11
38.60499999996136
 21
0.5172390341955961
 31
0.0
  0
LINE
  5
B920
330
B8F7
100
AcDbEntity
  8
0
  6
CONTINUOUS
100
AcDbLine
 10
39.79575824323715
 20
-0.0000000000000009
 30
0.0
 11
38.60499999996136
 21
1.190758243275783
 31
0.0
  0
LINE
  5
B921
330
B8F7
100
AcDbEntity
  8
0
  6
CONTINUOUS
100
AcDbLine
 10
40.02599999995994
 20
0.443277452357397
 30
0.0
 11
38.60499999996136
 21
1.864277452355969
 31
0.0
  0
LINE
  5
B922
330
B8F7
100
AcDbEntity
  8
0
  6
CONTINUOUS
100
AcDbLine
 10
40.02599999995994
 20
1.116796661437583
 30
0.0
 11
38.60499999996136
 21
2.537796661436155
 31
0.0
  0
LINE
  5
B923
330
B8F7
100
AcDbEntity
  8
0
  6
CONTINUOUS
100
AcDbLine
 10
40.02599999995994
 20
1.79031587051777
 30
0.0
 11
38.60499999996136
 21
3.211315870516341
 31
0.0
  0
LINE
  5
B924
330
B8F7
100
AcDbEntity
  8
0
  6
CONTINUOUS
100
AcDbLine
 10
40.02599999995994
 20
2.463835079597956
 30
0.0
 11
38.60499999996136
 21
3.884835079596527
 31
0.0
  0
LINE
  5
B925
330
B8F7
100
AcDbEntity
  8
0
  6
CONTINUOUS
100
AcDbLine
 10
40.02599999995994
 20
3.137354288678143
 30
0.0
 11
38.60499999996136
 21
4.558354288676714
 31
0.0
  0
LINE
  5
B926
330
B8F7
100
AcDbEntity
  8
0
  6
CONTINUOUS
100
AcDbLine
 10
40.02599999995994
 20
3.810873497758329
 30
0.0
 11
38.60499999996136
 21
5.2318734977569
 31
0.0
  0
LINE
  5
B927
330
B8F7
100
AcDbEntity
  8
0
  6
CONTINUOUS
100
AcDbLine
 10
40.02599999995994
 20
4.484392706838515
 30
0.0
 11
38.60499999996136
 21
5.905392706837086
 31
0.0
  0
LINE
  5
B928
330
B8F7
100
AcDbEntity
  8
0
  6
CONTINUOUS
100
AcDbLine
 10
44.99999999995498
 20
0.183911915923658
 30
0.0
 11
41.53858364506288
 21
3.64532827081576
 31
0.0
  0
LINE
  5
B929
330
B8F7
100
AcDbEntity
  8
0
  6
CONTINUOUS
100
AcDbLine
 10
40.02599999995994
 20
5.157911915918703
 30
0.0
 11
38.60499999996136
 21
6.578911915917274
 31
0.0
  0
LINE
  5
B92A
330
B8F7
100
AcDbEntity
  8
0
  6
CONTINUOUS
100
AcDbLine
 10
44.99999999995498
 20
0.8574311250038447
 30
0.0
 11
38.60499999996136
 21
7.25243112499746
 31
0.0
  0
LINE
  5
B92B
330
B8F7
100
AcDbEntity
  8
0
  6
CONTINUOUS
100
AcDbLine
 10
44.99999999995498
 20
1.530950334084031
 30
0.0
 11
38.60499999996136
 21
7.925950334077647
 31
0.0
  0
LINE
  5
B92C
330
B8F7
100
AcDbEntity
  8
0
  6
CONTINUOUS
100
AcDbLine
 10
44.99999999995498
 20
2.204469543164218
 30
0.0
 11
43.57899999995641
 21
3.625469543162789
 31
0.0
  0
LINE
  5
B92D
330
B8F7
100
AcDbEntity
  8
0
  6
CONTINUOUS
100
AcDbLine
 10
41.89876730984767
 20
5.305702233271528
 30
0.0
 11
38.60499999996136
 21
8.599469543157834
 31
0.0
  0
LINE
  5
B92E
330
B8F7
100
AcDbEntity
  8
0
  6
CONTINUOUS
100
AcDbLine
 10
44.99999999995498
 20
2.877988752244405
 30
0.0
 11
43.57899999995641
 21
4.298988752242975
 31
0.0
  0
LINE
  5
B92F
330
B8F7
100
AcDbEntity
  8
0
  6
CONTINUOUS
100
AcDbLine
 10
44.99999999995498
 20
3.551507961324591
 30
0.0
 11
43.57899999995641
 21
4.972507961323163
 31
0.0
  0
LINE
  5
B930
330
B8F7
100
AcDbEntity
  8
0
  6
CONTINUOUS
100
AcDbLine
 10
44.99999999995498
 20
4.225027170404777
 30
0.0
 11
43.57899999995641
 21
5.646027170403348
 31
0.0
  0
LINE
  5
B931
330
B8F7
100
AcDbEntity
  8
0
  6
CONTINUOUS
100
AcDbLine
 10
44.99999999995498
 20
4.898546379484964
 30
0.0
 11
43.57899999995641
 21
6.319546379483535
 31
0.0
  0
LINE
  5
B932
330
B8F7
100
AcDbEntity
  8
0
  6
CONTINUOUS
100
AcDbLine
 10
44.99999999995498
 20
5.572065588565151
 30
0.0
 11
43.57899999995641
 21
6.993065588563722
 31
0.0
  0
LINE
  5
B933
330
B8F7
100
AcDbEntity
  8
0
  6
CONTINUOUS
100
AcDbLine
 10
44.99999999995498
 20
6.245584797645336
 30
0.0
 11
43.57899999995641
 21
7.666584797643908
 31
0.0
  0
LINE
  5
B934
330
B8F7
100
AcDbEntity
  8
0
  6
CONTINUOUS
100
AcDbLine
 10
44.99999999995498
 20
6.919104006725522
 30
0.0
 11
43.57899999995641
 21
8.340104006724093
 31
0.0
  0
LINE
  5
B935
330
B8F7
100
AcDbEntity
  8
0
  6
CONTINUOUS
100
AcDbLine
 10
44.99999999995498
 20
7.592623215805709
 30
0.0
 11
43.82952321576943
 21
8.763099999991255
 31
0.0
  0
LINE
  5
B936
330
B8F7
100
AcDbEntity
  8
0
  6
CONTINUOUS
100
AcDbLine
 10
44.99999999995498
 20
8.266142424885896
 30
0.0
 11
44.50304242484962
 21
8.763099999991255
 31
0.0
  0
ENDBLK
  5
B960
330
B8F7
100
AcDbEntity
  8
0
100
AcDbBlockEnd
  0
BLOCK
  5
B961
330
B937
100
AcDbEntity
  8
0
100
AcDbBlockBegin
  2
*X90
 70
     1
 10
0.0
 20
0.0
 30
0.0
  3
*X90
  1

  0
LINE
  5
B938
330
B937
100
AcDbEntity
  8
0
  6
CONTINUOUS
100
AcDbLine
 10
0.0
 20
8.548461116714023
 30
0.0
 11
0.2146388832772324
 21
8.763099999991255
 31
0.0
  0
LINE
  5
B939
330
B937
100
AcDbEntity
  8
0
  6
CONTINUOUS
100
AcDbLine
 10
-0.0000000000000002
 20
7.874941907633837
 30
0.0
 11
0.8881580923574184
 21
8.763099999991255
 31
0.0
  0
LINE
  5
B93A
330
B937
100
AcDbEntity
  8
0
  6
CONTINUOUS
100
AcDbLine
 10
0.0
 20
7.20142269855365
 30
0.0
 11
1.420999999998572
 21
8.622422698552223
 31
0.0
  0
LINE
  5
B93B
330
B937
100
AcDbEntity
  8
0
  6
CONTINUOUS
100
AcDbLine
 10
-0.0000000000000001
 20
6.527903489473465
 30
0.0
 11
1.420999999998571
 21
7.948903489472036
 31
0.0
  0
LINE
  5
B93C
330
B937
100
AcDbEntity
  8
0
  6
CONTINUOUS
100
AcDbLine
 10
-0.0000000000000002
 20
5.854384280393278
 30
0.0
 11
1.420999999998571
 21
7.275384280391849
 31
0.0
  0
LINE
  5
B93D
330
B937
100
AcDbEntity
  8
0
  6
CONTINUOUS
100
AcDbLine
 10
-0.0000000000000002
 20
5.180865071313091
 30
0.0
 11
1.420999999998571
 21
6.601865071311663
 31
0.0
  0
LINE
  5
B93E
330
B937
100
AcDbEntity
  8
0
  6
CONTINUOUS
100
AcDbLine
 10
0.0
 20
4.507345862232905
 30
0.0
 11
1.420999999998571
 21
5.928345862231477
 31
0.0
  0
LINE
  5
B93F
330
B937
100
AcDbEntity
  8
0
  6
CONTINUOUS
100
AcDbLine
 10
-0.0000000000000003
 20
3.833826653152718
 30
0.0
 11
1.420999999998571
 21
5.25482665315129
 31
0.0
  0
LINE
  5
B940
330
B937
100
AcDbEntity
  8
0
  6
CONTINUOUS
100
AcDbLine
 10
-0.0000000000000002
 20
3.160307444072532
 30
0.0
 11
1.420999999998571
 21
4.581307444071103
 31
0.0
  0
LINE
  5
B941
330
B937
100
AcDbEntity
  8
0
  6
CONTINUOUS
100
AcDbLine
 10
-0.0000000000000001
 20
2.486788234992345
 30
0.0
 11
1.420999999998571
 21
3.907788234990917
 31
0.0
  0
LINE
  5
B942
330
B937
100
AcDbEntity
  8
0
  6
CONTINUOUS
100
AcDbLine
 10
-0.0000000000000006
 20
1.813269025912159
 30
0.0
 11
1.420999999998571
 21
3.234269025910731
 31
0.0
  0
LINE
  5
B943
330
B937
100
AcDbEntity
  8
0
  6
CONTINUOUS
100
AcDbLine
 10
0.0
 20
1.139749816831973
 30
0.0
 11
1.420999999998571
 21
2.560749816830544
 31
0.0
  0
LINE
  5
B944
330
B937
100
AcDbEntity
  8
0
  6
CONTINUOUS
100
AcDbLine
 10
0.0000000000000002
 20
0.466230607751787
 30
0.0
 11
1.420999999998571
 21
1.887230607750358
 31
0.0
  0
LINE
  5
B945
330
B937
100
AcDbEntity
  8
0
  6
CONTINUOUS
100
AcDbLine
 10
0.2072886013284003
 20
-0.0000000000000009
 30
0.0
 11
1.420999999998571
 21
1.213711398670171
 31
0.0
  0
LINE
  5
B946
330
B937
100
AcDbEntity
  8
0
  6
CONTINUOUS
100
AcDbLine
 10
0.8808078104085864
 20
-0.0000000000000009
 30
0.0
 11
1.420999999998571
 21
0.5401921895899839
 31
0.0
  0
LINE
  5
B947
330
B937
100
AcDbEntity
  8
0
  6
CONTINUOUS
100
AcDbLine
 10
0.0581249075061505
 20
-0.0000000000000009
 30
0.0
 11
-0.0000000000000002
 21
0.0581249075061496
 31
0.0
  0
LINE
  5
B948
330
B937
100
AcDbEntity
  8
0
  6
CONTINUOUS
100
AcDbLine
 10
0.7316441165863372
 20
-0.0000000000000009
 30
0.0
 11
-0.0000000000000002
 21
0.7316441165863363
 31
0.0
  0
LINE
  5
B949
330
B937
100
AcDbEntity
  8
0
  6
CONTINUOUS
100
AcDbLine
 10
1.405163325666523
 20
-0.0000000000000009
 30
0.0
 11
-0.0000000000000002
 21
1.405163325666523
 31
0.0
  0
LINE
  5
B94A
330
B937
100
AcDbEntity
  8
0
  6
CONTINUOUS
100
AcDbLine
 10
1.420999999998572
 20
0.6576825347481381
 30
0.0
 11
-0.0000000000000001
 21
2.07868253474671
 31
0.0
  0
LINE
  5
B94B
330
B937
100
AcDbEntity
  8
0
  6
CONTINUOUS
100
AcDbLine
 10
1.420999999998571
 20
1.331201743828324
 30
0.0
 11
-0.0000000000000001
 21
2.752201743826896
 31
0.0
  0
LINE
  5
B94C
330
B937
100
AcDbEntity
  8
0
  6
CONTINUOUS
100
AcDbLine
 10
1.420999999998571
 20
2.004720952908511
 30
0.0
 11
-0.0000000000000002
 21
3.425720952907082
 31
0.0
  0
LINE
  5
B94D
330
B937
100
AcDbEntity
  8
0
  6
CONTINUOUS
100
AcDbLine
 10
1.420999999998571
 20
2.678240161988697
 30
0.0
 11
-0.0000000000000001
 21
4.099240161987269
 31
0.0
  0
LINE
  5
B94E
330
B937
100
AcDbEntity
  8
0
  6
CONTINUOUS
100
AcDbLine
 10
1.420999999998572
 20
3.351759371068884
 30
0.0
 11
0.0
 21
4.772759371067455
 31
0.0
  0
LINE
  5
B94F
330
B937
100
AcDbEntity
  8
0
  6
CONTINUOUS
100
AcDbLine
 10
1.420999999998571
 20
4.02527858014907
 30
0.0
 11
-0.0000000000000003
 21
5.446278580147642
 31
0.0
  0
LINE
  5
B950
330
B937
100
AcDbEntity
  8
0
  6
CONTINUOUS
100
AcDbLine
 10
1.420999999998571
 20
4.698797789229257
 30
0.0
 11
0.0
 21
6.119797789227828
 31
0.0
  0
LINE
  5
B951
330
B937
100
AcDbEntity
  8
0
  6
CONTINUOUS
100
AcDbLine
 10
1.420999999998571
 20
5.372316998309444
 30
0.0
 11
-0.0000000000000001
 21
6.793316998308015
 31
0.0
  0
LINE
  5
B952
330
B937
100
AcDbEntity
  8
0
  6
CONTINUOUS
100
AcDbLine
 10
1.420999999998572
 20
6.045836207389629
 30
0.0
 11
-0.0000000000000004
 21
7.466836207388202
 31
0.0
  0
LINE
  5
B953
330
B937
100
AcDbEntity
  8
0
  6
CONTINUOUS
100
AcDbLine
 10
1.420999999998571
 20
6.719355416469816
 30
0.0
 11
0.0
 21
8.140355416468388
 31
0.0
  0
LINE
  5
B954
330
B937
100
AcDbEntity
  8
0
  6
CONTINUOUS
100
AcDbLine
 10
1.420999999998571
 20
7.392874625550003
 30
0.0
 11
0.0507746255573185
 21
8.763099999991255
 31
0.0
  0
LINE
  5
B955
330
B937
100
AcDbEntity
  8
0
  6
CONTINUOUS
100
AcDbLine
 10
1.420999999998571
 20
8.06639383463019
 30
0.0
 11
0.7242938346375052
 21
8.763099999991255
 31
0.0
  0
LINE
  5
B956
330
B937
100
AcDbEntity
  8
0
  6
CONTINUOUS
100
AcDbLine
 10
1.420999999998571
 20
8.739913043710375
 30
0.0
 11
1.397813043717691
 21
8.763099999991255
 31
0.0
  0
ENDBLK
  5
B962
330
B937
100
AcDbEntity
  8
0
100
AcDbBlockEnd
  0
ENDSEC
  0
SECTION
  2
ENTITIES
  0
LINE
  5
B373
330
18
100
AcDbEntity
  8
01
100
AcDbLine
 10
4952.207141041865
 20
-305.6637124169366
 30
0.0000000000563712
 11
4974.835426424295
 21
-305.6637124169366
 31
0.0000000000563712
  0
LINE
  5
B374
330
18
100
AcDbEntity
  8
01
  6
BYBLOCK
100
AcDbLine
 10
5053.336194266612
 20
-145.6650307300393
 30
0.0000000001127424
 11
5207.090574421643
 21
-145.6650307300393
 31
0.0000000001127424
  0
LINE
  5
B375
330
18
100
AcDbEntity
  8
01
100
AcDbLine
 10
5104.335426424295
 20
-140.6650307300393
 30
0.0000000001127424
 11
5104.335426424295
 21
-167.1650307300393
 31
0.0000000001127424
  0
LINE
  5
B37B
330
18
100
AcDbEntity
  8
01
100
AcDbLine
 10
4954.335426424295
 20
-185.6637124169366
 30
0.0000000000563712
 11
4954.335426424295
 21
-375.6637124169366
 31
0.0000000000563712
  0
LINE
  5
B37C
330
18
100
AcDbEntity
  8
1CENTER
100
AcDbLine
 10
4968.835426424295
 20
-320.6637124169366
 30
0.0000000000563712
 11
4968.835426424295
 21
-312.6637124169366
 31
0.0000000000563712
  0
LINE
  5
B37D
330
18
100
AcDbEntity
  8
01
100
AcDbLine
 10
5074.335426424295
 20
-305.6637124169366
 30
0.0000000000563712
 11
5134.335426424295
 21
-305.6637124169366
 31
0.0000000000563712
  0
LINE
  5
B37E
330
18
100
AcDbEntity
  8
01
100
AcDbLine
 10
5104.335426424295
 20
-275.6637124169366
 30
0.0000000000563712
 11
5104.335426424295
 21
-335.6637124169366
 31
0.0000000000563712
  0
LINE
  5
B380
330
18
100
AcDbEntity
  8
01
100
AcDbLine
 10
5130.335426424295
 20
-279.1637124169384
 30
0.0000000000563712
 11
5078.335426424299
 21
-279.1637124169384
 31
0.0000000000563712
  0
LINE
  5
B381
330
18
100
AcDbEntity
  8
01
100
AcDbLine
 10
5078.335426424299
 20
-332.1637124169384
 30
0.0000000000563712
 11
5130.335426424295
 21
-332.1637124169384
 31
0.0000000000563712
  0
LINE
  5
B382
330
18
100
AcDbEntity
  8
01
100
AcDbLine
 10
5077.835426424299
 20
-279.6637124169384
 30
0.0000000000563712
 11
5077.835426424299
 21
-331.6637124169384
 31
0.0000000000563712
  0
ARC
  5
B383
330
18
100
AcDbEntity
  8
01
100
AcDbCircle
 10
5078.335426424299
 20
-331.6637124169384
 30
0.0000000000563712
 40
0.5
100
AcDbArc
 50
180.0
 51
270.0
  0
ARC
  5
B384
330
18
100
AcDbEntity
  8
01
100
AcDbCircle
 10
5078.335426424299
 20
-279.6637124169384
 30
0.0000000000563712
 40
0.5
100
AcDbArc
 50
90.0
 51
180.0
  0
LINE
  5
B385
330
18
100
AcDbEntity
  8
01
100
AcDbLine
 10
5130.835426424295
 20
-279.6637124169384
 30
0.0000000000563712
 11
5130.835426424295
 21
-294.6637049840172
 31
0.0000000000563712
  0
ARC
  5
B386
330
18
100
AcDbEntity
  8
01
100
AcDbCircle
 10
5130.335426424295
 20
-331.6637124169384
 30
0.0000000000563712
 40
0.5
100
AcDbArc
 50
270.0
 51
0.0
  0
ARC
  5
B387
330
18
100
AcDbEntity
  8
01
100
AcDbCircle
 10
5130.335426424295
 20
-279.6637124169384
 30
0.0000000000563712
 40
0.5
100
AcDbArc
 50
0.0
 51
90.0
  0
LINE
  5
B388
330
18
100
AcDbEntity
  8
01
100
AcDbLine
 10
5077.835426424299
 20
-145.6650307300393
 30
0.0000000001127424
 11
5130.835426424295
 21
-145.6650307300393
 31
0.0000000001127424
  0
LINE
  5
B389
330
18
100
AcDbEntity
  8
01
100
AcDbLine
 10
5078.335426424299
 20
-154.1650307300393
 30
0.0000000001127424
 11
5130.335426424295
 21
-154.1650307300393
 31
0.0000000001127424
  0
LINE
  5
B38A
330
18
100
AcDbEntity
  8
01
100
AcDbLine
 10
5130.835426424295
 20
-145.6650307300393
 30
0.0000000001127424
 11
5130.835426424295
 21
-153.6650307300393
 31
0.0000000001127424
  0
LINE
  5
B38B
330
18
100
AcDbEntity
  8
01
100
AcDbLine
 10
5077.835426424299
 20
-145.6650307300393
 30
0.0000000001127424
 11
5077.835426424299
 21
-153.6650307300393
 31
0.0000000001127424
  0
ARC
  5
B38C
330
18
100
AcDbEntity
  8
01
100
AcDbCircle
 10
5078.335426424299
 20
-153.6650307300393
 30
0.0000000001127424
 40
0.5
100
AcDbArc
 50
180.0
 51
270.0
  0
ARC
  5
B38D
330
18
100
AcDbEntity
  8
01
100
AcDbCircle
 10
5130.335426424295
 20
-153.6650307300393
 30
0.0000000001127424
 40
0.5
100
AcDbArc
 50
270.0
 51
0.0
  0
LINE
  5
B38E
330
18
100
AcDbEntity
  8
01
100
AcDbLine
 10
4954.335426424295
 20
-332.1637124169357
 30
0.0000000000563712
 11
4954.335426424295
 21
-279.1637124169384
 31
0.0000000000563712
  0
LINE
  5
B38F
330
18
100
AcDbEntity
  8
01
100
AcDbLine
 10
4962.835426424295
 20
-331.6637124169357
 30
0.0000000000563712
 11
4962.835426424295
 21
-279.6637124169384
 31
0.0000000000563712
  0
LINE
  5
B390
330
18
100
AcDbEntity
  8
01
100
AcDbLine
 10
4954.335426424295
 20
-279.1637124169384
 30
0.0000000000563712
 11
4962.335426424295
 21
-279.1637124169384
 31
0.0000000000563712
  0
LINE
  5
B391
330
18
100
AcDbEntity
  8
01
100
AcDbLine
 10
4954.335426424295
 20
-332.1637124169357
 30
0.0000000000563712
 11
4962.335426424295
 21
-332.1637124169357
 31
0.0000000000563712
  0
ARC
  5
B392
330
18
100
AcDbEntity
  8
01
100
AcDbCircle
 10
4962.335426424295
 20
-331.6637124169357
 30
0.0000000000563712
 40
0.5
100
AcDbArc
 50
270.0
 51
0.0
  0
ARC
  5
B393
330
18
100
AcDbEntity
  8
01
100
AcDbCircle
 10
4962.335426424295
 20
-279.6637124169384
 30
0.0000000000563712
 40
0.5
100
AcDbArc
 50
0.0
 51
90.0
  0
TEXT
  5
B394
330
18
100
AcDbEntity
  8
1TEXT
100
AcDbText
 10
4954.335426424295
 20
-145.6650307300397
 30
0.0
 40
10.0
  1
TNT
 41
1.0171875
100
AcDbText
  0
ARC
  5
B395
330
18
100
AcDbEntity
  8
01
100
AcDbCircle
 10
5228.317796506206
 20
-305.6637049845938
 30
0.0000000000563887
 40
1.000013757898667
100
AcDbArc
 50
345.2561099405562
 51
14.74405825494138
  0
ARC
  5
B396
330
18
100
AcDbEntity
  8
01
100
AcDbCircle
 10
5224.998011390432
 20
-314.7848246176516
 30
0.0000000000563887
 40
1.900082450413217
100
AcDbArc
 50
280.2582929564528
 51
352.0374466249658
  0
ARC
  5
B397
330
18
100
AcDbEntity
  8
01
100
AcDbCircle
 10
5224.998011390877
 20
-296.542585349718
 30
0.0000000000563887
 40
1.900082449679558
100
AcDbArc
 50
7.962553407692428
 51
79.74170705317171
  0
LINE
  5
B398
330
18
100
AcDbEntity
  8
01
100
AcDbLine
 10
5102.014717266562
 20
-316.6637049840172
 30
0.0000000000563887
 11
5101.18895292766
 21
-316.6637049840172
 31
0.0000000000563887
  0
LINE
  5
B399
330
18
100
AcDbEntity
  8
01
100
AcDbLine
 10
5103.522350756526
 20
-316.6637049840172
 30
0.0000000000563887
 11
5102.089720230192
 21
-316.6637049840172
 31
0.0000000000563887
  0
LINE
  5
B39A
330
18
100
AcDbEntity
  8
01
100
AcDbLine
 10
5103.522350756526
 20
-294.6637049840172
 30
0.0000000000563887
 11
5101.204838997412
 21
-294.6637049840172
 31
0.0000000000563887
  0
LINE
  5
B39B
330
18
100
AcDbEntity
  8
01
100
AcDbLine
 10
5103.522350756526
 20
-294.6637049840172
 30
0.0000000000563887
 11
5118.879862975689
 21
-294.6637049840172
 31
0.0000000000563887
  0
LINE
  5
B39C
330
18
100
AcDbEntity
  8
01
100
AcDbLine
 10
5103.522350756526
 20
-316.6637049840172
 30
0.0000000000563887
 11
5118.879862975567
 21
-316.6637049840172
 31
0.0000000000563887
  0
LINE
  5
B39D
330
18
100
AcDbEntity
  8
01
100
AcDbLine
 10
5220.634404237558
 20
-294.6637049840172
 30
0.0000000000563887
 11
5220.61279388507
 21
-294.6637049840172
 31
0.0000000000563887
  0
LINE
  5
B39E
330
18
100
AcDbEntity
  8
01
100
AcDbLine
 10
5221.030519657372
 20
-316.6637049840172
 30
0.0000000000563887
 11
5221.008910665457
 21
-316.6637049840172
 31
0.0000000000563887
  0
LINE
  5
B39F
330
18
100
AcDbEntity
  8
01
100
AcDbLine
 10
5229.284033528184
 20
-305.9214409595605
 30
0.0000000000563887
 11
5226.880358999841
 21
-315.045819904701
 31
0.0000000000563887
  0
LINE
  5
B3A0
330
18
100
AcDbEntity
  8
01
100
AcDbLine
 10
5226.880358999841
 20
-296.2815900633335
 30
0.0000000000563887
 11
5229.284033527965
 21
-305.4059690076413
 31
0.0000000000563887
  0
ARC
  5
B3A1
330
18
100
AcDbEntity
  8
1PHANTOM
100
AcDbCircle
 10
5228.233228474127
 20
-305.6637049840177
 30
0.0000000000563887
 40
1.034054330707189
100
AcDbArc
 50
345.258871986081
 51
14.74112801405671
  0
LINE
  5
B3A2
330
18
100
AcDbEntity
  8
1PHANTOM
100
AcDbLine
 10
5229.233247269754
 20
-305.9268223860425
 30
0.0000000000563887
 11
5229.284874826997
 21
-305.9181954183417
 31
0.0000000000563887
  0
LINE
  5
B3A3
330
18
100
AcDbEntity
  8
1PHANTOM
100
AcDbLine
 10
5229.233247269753
 20
-305.4005875819906
 30
0.0000000000563887
 11
5229.284874316509
 21
-305.4092116462651
 31
0.0000000000563887
  0
LINE
  5
B3A4
330
18
100
AcDbEntity
  8
1PHANTOM
100
AcDbLine
 10
5217.947039177106
 20
-305.4005875607793
 30
0.0000000000563887
 11
5217.947039176946
 21
-305.9268224072555
 31
0.0000000000563887
  0
LINE
  5
B3A5
330
18
100
AcDbEntity
  8
1PHANTOM
100
AcDbLine
 10
5229.233247263262
 20
-305.4005875573519
 30
0.0000000000563887
 11
5086.374449526393
 21
-305.4005876007312
 31
0.0000000000563887
  0
LINE
  5
B3A6
330
18
100
AcDbEntity
  8
1PHANTOM
100
AcDbLine
 10
5103.523291812807
 20
-305.9268223725106
 30
0.0000000000563887
 11
5103.523291812829
 21
-305.4005875955239
 31
0.0000000000563887
  0
LINE
  5
B3A7
330
18
100
AcDbEntity
  8
1PHANTOM
100
AcDbLine
 10
5229.233247263262
 20
-305.926822410683
 30
0.0000000000563887
 11
5086.374449526393
 21
-305.9268223673033
 31
0.0000000000563887
  0
ARC
  5
B3A8
330
18
100
AcDbEntity
  8
1PHANTOM
100
AcDbCircle
 10
5095.897974456567
 20
-305.6637049840959
 30
0.0000000000563887
 40
1.034054251724325
100
AcDbArc
 50
165.2588714154372
 51
194.7411285755417
  0
ARC
  5
B3A9
330
18
100
AcDbEntity
  8
1PHANTOM
100
AcDbCircle
 10
5225.946862862179
 20
-305.6637049840222
 30
0.0000000000563887
 40
1.034054347340943
100
AcDbArc
 50
345.2588728167772
 51
14.74112860601284
  0
LINE
  5
B3AA
330
18
100
AcDbEntity
  8
01
100
AcDbLine
 10
5089.093901343722
 20
-295.7690288753291
 30
0.0000000000563887
 11
5086.374449532756
 21
-305.4005875782253
 31
0.0000000000563887
  0
LINE
  5
B3AB
330
18
100
AcDbEntity
  8
1PHANTOM
100
AcDbLine
 10
5094.897955739943
 20
-305.4005875922088
 30
0.0000000000563887
 11
5097.435379110809
 21
-295.7690288751249
 31
0.0000000000563887
  0
LINE
  5
B3AC
330
18
100
AcDbEntity
  8
01
100
AcDbLine
 10
5086.374449532756
 20
-305.9268223898092
 30
0.0000000000563887
 11
5089.093901343722
 21
-315.5583810927058
 31
0.0000000000563887
  0
LINE
  5
B3AD
330
18
100
AcDbEntity
  8
1PHANTOM
100
AcDbLine
 10
5094.897955739902
 20
-305.9268223758257
 30
0.0000000000563887
 11
5097.435379110799
 21
-315.5583810928736
 31
0.0000000000563887
  0
LINE
  5
B3AE
330
18
100
AcDbEntity
  8
1PHANTOM
100
AcDbLine
 10
5217.947980233188
 20
-295.769028880646
 30
0.0000000000563887
 11
5217.947039177106
 21
-305.4005875607793
 31
0.0000000000563887
  0
LINE
  5
B3AF
330
18
100
AcDbEntity
  8
1PHANTOM
100
AcDbLine
 10
5226.946881671172
 20
-305.4005875674309
 30
0.0000000000563887
 11
5224.409458307233
 21
-295.7690288765451
 31
0.0000000000563887
  0
LINE
  5
B3B0
330
18
100
AcDbEntity
  8
1PHANTOM
100
AcDbLine
 10
5217.947980233188
 20
-315.5583810873885
 30
0.0000000000563887
 11
5217.947039176946
 21
-305.9268224072555
 31
0.0000000000563887
  0
LINE
  5
B3B1
330
18
100
AcDbEntity
  8
01
100
AcDbLine
 10
5223.066919221819
 20
-316.6637049840172
 30
0.0000000000563887
 11
5225.168719241609
 21
-316.6637049840172
 31
0.0000000000563887
  0
ARC
  5
B3B2
330
18
100
AcDbEntity
  8
1PHANTOM
100
AcDbCircle
 10
5225.151936214074
 20
-315.2059401337968
 30
0.0000000000563887
 40
1.457861457255826
100
AcDbArc
 50
270.659608552964
 51
346.0100306303643
  0
LINE
  5
B3B3
330
18
100
AcDbEntity
  8
01
100
AcDbLine
 10
5225.16871924161
 20
-294.6637049840172
 30
0.0000000000563887
 11
5223.066918600865
 21
-294.6637049840172
 31
0.0000000000563887
  0
ARC
  5
B3B4
330
18
100
AcDbEntity
  8
1PHANTOM
100
AcDbCircle
 10
5225.151936214075
 20
-296.1214698342372
 30
0.0000000000563887
 40
1.457861457255252
100
AcDbArc
 50
13.98996936961838
 51
89.34039144703574
  0
LINE
  5
B3B5
330
18
100
AcDbEntity
  8
01
100
AcDbLine
 10
5101.204838997412
 20
-294.6637049840172
 30
0.0000000000563887
 11
5098.833220981918
 21
-294.6637049840172
 31
0.0000000000563887
  0
LINE
  5
B3B6
330
18
100
AcDbEntity
  8
1PHANTOM
100
AcDbLine
 10
5103.522350756526
 20
-294.6637049840172
 30
0.0000000000563887
 11
5103.522350756582
 21
-295.7690288921584
 31
0.0000000000563887
  0
LINE
  5
B3B7
330
18
100
AcDbEntity
  8
01
100
AcDbLine
 10
5118.879862975689
 20
-294.6637049840172
 30
0.0000000000563887
 11
5217.947980233131
 21
-294.6637049840172
 31
0.0000000000563887
  0
LINE
  5
B3B8
330
18
100
AcDbEntity
  8
1PHANTOM
100
AcDbLine
 10
5103.522350756526
 20
-316.6637049840172
 30
0.0000000000563887
 11
5103.522350756582
 21
-315.5583810758761
 31
0.0000000000563887
  0
ARC
  5
B3B9
330
18
100
AcDbEntity
  8
1PHANTOM
100
AcDbCircle
 10
5098.850003299985
 20
-296.1214771721428
 30
0.0000000000563887
 40
1.45786878650699
100
AcDbArc
 50
90.65957735200666
 51
166.009805183661
  0
LINE
  5
B3BA
330
18
100
AcDbEntity
  8
01
100
AcDbLine
 10
5098.833220981918
 20
-294.6637049840172
 30
0.0000000000563887
 11
5090.592096849728
 21
-294.6637049840172
 31
0.0000000000563887
  0
ARC
  5
B3BB
330
18
100
AcDbEntity
  8
1PHANTOM
100
AcDbCircle
 10
5098.85000330002
 20
-315.2059327958462
 30
0.0000000000563887
 40
1.457868786552965
100
AcDbArc
 50
193.9901948162711
 51
269.3404226465843
  0
LINE
  5
B3BC
330
18
100
AcDbEntity
  8
01
100
AcDbLine
 10
5098.833220981917
 20
-316.6637049840172
 30
0.0000000000563887
 11
5090.592096849728
 21
-316.6637049840172
 31
0.0000000000563887
  0
ARC
  5
B3BD
330
18
100
AcDbEntity
  8
1PHANTOM
100
AcDbCircle
 10
5222.994834116344
 20
-296.1214771738622
 30
0.0000000000563887
 40
1.457868788241864
100
AcDbArc
 50
13.99019481146752
 51
89.34042259612374
  0
LINE
  5
B3BE
330
18
100
AcDbEntity
  8
01
100
AcDbLine
 10
5220.634404237559
 20
-294.6637049840172
 30
0.0000000000563887
 11
5217.947980233131
 21
-294.6637049840172
 31
0.0000000000563887
  0
LINE
  5
B3BF
330
18
100
AcDbEntity
  8
01
100
AcDbLine
 10
5223.011616420064
 20
-294.6637049840172
 30
0.0000000000563887
 11
5220.634404237559
 21
-294.6637049840172
 31
0.0000000000563887
  0
LINE
  5
B3C0
330
18
100
AcDbEntity
  8
1PHANTOM
100
AcDbLine
 10
5217.947980233188
 20
-295.769028880646
 30
0.0000000000563887
 11
5217.947980233131
 21
-294.6637049840172
 31
0.0000000000563887
  0
ARC
  5
B3C1
330
18
100
AcDbEntity
  8
1PHANTOM
100
AcDbCircle
 10
5222.994834116343
 20
-315.2059327941709
 30
0.0000000000563887
 40
1.457868788243489
100
AcDbArc
 50
270.6595774039113
 51
346.0098051884891
  0
LINE
  5
B3C2
330
18
100
AcDbEntity
  8
1PHANTOM
100
AcDbLine
 10
5217.947980233188
 20
-315.5583810873885
 30
0.0000000000563887
 11
5217.947980233131
 21
-316.6637049840172
 31
0.0000000000563887
  0
LINE
  5
B3C3
330
18
100
AcDbEntity
  8
1PHANTOM
100
AcDbLine
 10
5226.880357592302
 20
-315.0458252348442
 30
0.0000000000563887
 11
5226.827681357314
 21
-315.0583810947613
 31
0.0000000000563887
  0
LINE
  5
B3C4
330
18
100
AcDbEntity
  8
01
100
AcDbLine
 10
5226.880357592797
 20
-296.2815847331274
 30
0.0000000000563887
 11
5226.827681357314
 21
-296.2690288732732
 31
0.0000000000563887
  0
LINE
  5
B3C5
330
18
100
AcDbEntity
  8
1PHANTOM
100
AcDbLine
 10
5226.827681357314
 20
-296.2690288732732
 30
0.0000000000563887
 11
5229.233247269753
 21
-305.4005875819906
 31
0.0000000000563887
  0
ARC
  5
B3C6
330
18
100
AcDbEntity
  8
1PHANTOM
100
AcDbCircle
 10
5226.049136398528
 20
-296.3574394524088
 30
0.0000000000563887
 40
0.7835487753511892
100
AcDbArc
 50
6.478682453769729
 51
48.67324901696702
  0
LINE
  5
B3C7
330
18
100
AcDbEntity
  8
1PHANTOM
100
AcDbLine
 10
5089.09390133856
 20
-295.7690288936099
 30
0.0000000000563887
 11
5226.192048251416
 21
-295.7690288798165
 31
0.0000000000563887
  0
LINE
  5
B3C8
330
18
100
AcDbEntity
  8
1PHANTOM
100
AcDbLine
 10
5103.523291812829
 20
-305.4005875955239
 30
0.0000000000563887
 11
5103.522350756582
 21
-295.7690288921584
 31
0.0000000000563887
  0
LINE
  5
B3C9
330
18
100
AcDbEntity
  8
1PHANTOM
100
AcDbLine
 10
5089.09390133856
 20
-315.5583810744245
 30
0.0000000000563887
 11
5226.192048251416
 21
-315.5583810882179
 31
0.0000000000563887
  0
LINE
  5
B3CA
330
18
100
AcDbEntity
  8
1PHANTOM
100
AcDbLine
 10
5103.523291812807
 20
-305.9268223725106
 30
0.0000000000563887
 11
5103.522350756582
 21
-315.5583810758761
 31
0.0000000000563887
  0
ARC
  5
B3CB
330
18
100
AcDbEntity
  8
01
100
AcDbCircle
 10
5087.30511809398
 20
-305.6637049840172
 30
0.0000000000563887
 40
0.9671477343630455
100
AcDbArc
 50
164.2134102296706
 51
195.7865897703068
  0
ARC
  5
B3CC
330
18
100
AcDbEntity
  8
01
100
AcDbCircle
 10
5090.575422034155
 20
-315.1182908125396
 30
0.0000000000563887
 40
1.545504128392426
100
AcDbArc
 50
196.5442140686835
 51
270.6181899328535
  0
ARC
  5
B3CD
330
18
100
AcDbEntity
  8
01
100
AcDbCircle
 10
5090.575422680273
 20
-296.2091200312655
 30
0.0000000000563887
 40
1.545504997141388
100
AcDbArc
 50
89.38183436926703
 51
163.4557616292129
  0
LINE
  5
B3CE
330
18
100
AcDbEntity
  8
1PHANTOM
100
AcDbLine
 10
5226.827681357314
 20
-315.0583810947613
 30
0.0000000000563887
 11
5229.233247269754
 21
-305.9268223860425
 31
0.0000000000563887
  0
ARC
  5
B3CF
330
18
100
AcDbEntity
  8
1PHANTOM
100
AcDbCircle
 10
5226.049136398528
 20
-314.9699705156261
 30
0.0000000000563887
 40
0.7835487753506793
100
AcDbArc
 50
311.3267509830659
 51
353.5213175462558
  0
LINE
  5
B3D0
330
18
100
AcDbEntity
  8
1PHANTOM
100
AcDbLine
 10
5226.946881677706
 20
-305.9268223757807
 30
0.0000000000563887
 11
5224.409458307233
 21
-315.5583810914894
 31
0.0000000000563887
  0
LINE
  5
B3D1
330
18
100
AcDbEntity
  8
01
100
AcDbLine
 10
5220.634404237559
 20
-316.6637049840172
 30
0.0000000000563887
 11
5217.947980233131
 21
-316.6637049840172
 31
0.0000000000563887
  0
LINE
  5
B3D2
330
18
100
AcDbEntity
  8
01
100
AcDbLine
 10
5223.01161643575
 20
-316.6637049840172
 30
0.0000000000563887
 11
5220.634404237559
 21
-316.6637049840172
 31
0.0000000000563887
  0
LINE
  5
B3D3
330
18
100
AcDbEntity
  8
01
100
AcDbLine
 10
5118.879862975567
 20
-316.6637049840172
 30
0.0000000000563887
 11
5217.947980233131
 21
-316.6637049840172
 31
0.0000000000563887
  0
LINE
  5
B3D4
330
18
100
AcDbEntity
  8
01
100
AcDbLine
 10
5101.18895292766
 20
-316.6637049840172
 30
0.0000000000563887
 11
5098.833220981917
 21
-316.6637049840172
 31
0.0000000000563887
  0
LINE
  5
B3D5
330
18
100
AcDbEntity
  8
01
100
AcDbLine
 10
5102.089720230192
 20
-316.6637049840172
 30
0.0000000000563887
 11
5102.014717266562
 21
-316.6637049840172
 31
0.0000000000563887
  0
ARC
  5
B3D6
330
18
100
AcDbEntity
  8
01
100
AcDbCircle
 10
5103.522888069736
 20
-184.3640522780325
 30
0.0000000001127424
 40
8.964455030753967
100
AcDbArc
 50
195.0005590375478
 51
270.0025251142305
  0
LINE
  5
B3D7
330
18
100
AcDbEntity
  8
01
100
AcDbLine
 10
5217.947030568353
 20
-193.3285074666338
 30
0.0000000001127424
 11
5103.52328320408
 21
-193.3285073887669
 31
0.0000000001127424
  0
LINE
  5
B3D8
330
18
100
AcDbEntity
  8
01
100
AcDbLine
 10
5086.337978964838
 20
-154.8650949654812
 30
0.0000000001127424
 11
5086.337970359617
 21
-154.8650628503611
 31
0.0000000001127424
  0
LINE
  5
B3D9
330
18
100
AcDbEntity
  8
01
100
AcDbLine
 10
5094.863911499571
 20
-186.6843082933056
 30
0.0000000001127424
 11
5086.338030571538
 21
-154.8652875643089
 31
0.0000000001127424
  0
ARC
  5
B3DA
330
18
100
AcDbEntity
  8
01
100
AcDbCircle
 10
5217.947425394438
 20
-184.3640514001063
 30
0.0000000001127424
 40
8.964455792034892
100
AcDbArc
 50
269.9974783015634
 51
344.999437658871
  0
ARC
  5
B3DB
330
18
100
AcDbEntity
  8
01
100
AcDbCircle
 10
5214.111541530587
 20
-179.3650303788564
 30
0.0000000001127424
 40
3.000000255412839
100
AcDbArc
 50
270.0000048076874
 51
344.9999951640943
  0
LINE
  5
B3DC
330
18
100
AcDbEntity
  8
1PHANTOM
100
AcDbLine
 10
5124.643902607286
 20
-182.3169788579399
 30
0.0000000001127424
 11
5124.414699696413
 21
-182.2803884698938
 31
0.0000000001127424
  0
LINE
  5
B3DD
330
18
100
AcDbEntity
  8
01
100
AcDbLine
 10
5112.285426424295
 20
-154.1650307300393
 30
0.0000000001127424
 11
5112.285426424295
 21
-154.6650307300393
 31
0.0000000001127424
  0
ARC
  5
B3DE
330
18
100
AcDbEntity
  8
1PHANTOM
100
AcDbCircle
 10
5103.52243483432
 20
-184.3646425277571
 30
0.0000000001127424
 40
8.928628707995582
100
AcDbArc
 50
194.9976534632362
 51
270.005444097537
  0
LINE
  5
B3DF
330
18
100
AcDbEntity
  8
1PHANTOM
100
AcDbLine
 10
5217.947030573921
 20
-193.2932712349753
 30
0.0000000001127424
 11
5217.947030568353
 21
-193.3279471290735
 31
0.0000000001127424
  0
LINE
  5
B3E0
330
18
100
AcDbEntity
  8
1PHANTOM
100
AcDbLine
 10
5217.947030573921
 20
-193.2932712349753
 30
0.0000000001127424
 11
5103.523283209644
 21
-193.2932711954477
 31
0.0000000001127424
  0
LINE
  5
B3E1
330
18
100
AcDbEntity
  8
01
100
AcDbLine
 10
5103.523283204081
 20
-193.3279470874864
 30
0.0000000001127424
 11
5103.523283204009
 21
-193.3284001037792
 31
0.0000000001127424
  0
LINE
  5
B3E2
330
18
100
AcDbEntity
  8
01
100
AcDbLine
 10
5103.523283204009
 20
-193.3284001037792
 30
0.0000000001127424
 11
5103.523283203995
 21
-193.3284936870683
 31
0.0000000001127424
  0
LINE
  5
B3E3
330
18
100
AcDbEntity
  8
01
100
AcDbLine
 10
5103.523283203995
 20
-193.3284936870683
 30
0.0000000001127424
 11
5103.523283203993
 21
-193.3285072327436
 31
0.0000000001127424
  0
LINE
  5
B3E4
330
18
100
AcDbEntity
  8
01
100
AcDbLine
 10
5103.523283203993
 20
-193.3285072327436
 30
0.0000000001127424
 11
5103.523283203993
 21
-193.3285071557789
 31
0.0000000001127424
  0
LINE
  5
B3E5
330
18
100
AcDbEntity
  8
01
100
AcDbLine
 10
5103.523283203993
 20
-193.3285071557789
 30
0.0000000001127424
 11
5103.523283203993
 21
-193.3285056934529
 31
0.0000000001127424
  0
LINE
  5
B3E6
330
18
100
AcDbEntity
  8
01
100
AcDbLine
 10
5103.523283203993
 20
-193.3285056934529
 30
0.0000000001127424
 11
5103.523283203995
 21
-193.3284986127474
 31
0.0000000001127424
  0
LINE
  5
B3E7
330
18
100
AcDbEntity
  8
01
100
AcDbLine
 10
5103.523283203995
 20
-193.3284986127474
 30
0.0000000001127424
 11
5103.523283204135
 21
-193.3276320667442
 31
0.0000000001127424
  0
LINE
  5
B3E8
330
18
100
AcDbEntity
  8
01
100
AcDbLine
 10
5103.523283204135
 20
-193.3276320667442
 30
0.0000000001127424
 11
5103.523283205093
 21
-193.321665476869
 31
0.0000000001127424
  0
LINE
  5
B3E9
330
18
100
AcDbEntity
  8
1PHANTOM
100
AcDbLine
 10
5103.523283205093
 20
-193.321665476869
 30
0.0000000001127424
 11
5103.523283209644
 21
-193.2932711954477
 31
0.0000000001127424
  0
LINE
  5
B3EA
330
18
100
AcDbEntity
  8
1PHANTOM
100
AcDbLine
 10
5094.897947136758
 20
-186.6751884718688
 30
0.0000000001127424
 11
5094.864452792666
 21
-186.6841632542678
 31
0.0000000001127424
  0
LINE
  5
B3EB
330
18
100
AcDbEntity
  8
1PHANTOM
100
AcDbLine
 10
5094.897947136758
 20
-186.6751884718688
 30
0.0000000001127424
 11
5086.37444092957
 21
-154.8650307300387
 31
0.0000000001127424
  0
ARC
  5
B3EC
330
18
100
AcDbEntity
  8
1PHANTOM
100
AcDbCircle
 10
5217.947878757792
 20
-184.3646423491578
 30
0.0000000001127424
 40
8.9286289261045
100
AcDbArc
 50
269.9945571311617
 51
345.0023458934003
  0
LINE
  5
B3ED
330
18
100
AcDbEntity
  8
01
100
AcDbLine
 10
5226.605860987845
 20
-186.6841632300221
 30
0.0000000001127424
 11
5226.606298567784
 21
-186.6842804792128
 31
0.0000000001127424
  0
LINE
  5
B3EE
330
18
100
AcDbEntity
  8
01
100
AcDbLine
 10
5226.606298567784
 20
-186.6842804792128
 30
0.0000000001127424
 11
5226.606388962206
 21
-186.6843047003245
 31
0.0000000001127424
  0
LINE
  5
B3EF
330
18
100
AcDbEntity
  8
01
100
AcDbLine
 10
5226.606388962206
 20
-186.6843047003245
 30
0.0000000001127424
 11
5226.606402046277
 21
-186.6843082061906
 31
0.0000000001127424
  0
LINE
  5
B3F0
330
18
100
AcDbEntity
  8
01
100
AcDbLine
 10
5226.606402046277
 20
-186.6843082061906
 30
0.0000000001127424
 11
5226.606401971923
 21
-186.6843081862681
 31
0.0000000001127424
  0
LINE
  5
B3F1
330
18
100
AcDbEntity
  8
01
100
AcDbLine
 10
5226.606401971923
 20
-186.6843081862681
 30
0.0000000001127424
 11
5226.606400559414
 21
-186.6843078077869
 31
0.0000000001127424
  0
LINE
  5
B3F2
330
18
100
AcDbEntity
  8
01
100
AcDbLine
 10
5226.606400559414
 20
-186.6843078077869
 30
0.0000000001127424
 11
5226.606393719955
 21
-186.6843059751591
 31
0.0000000001127424
  0
LINE
  5
B3F3
330
18
100
AcDbEntity
  8
01
100
AcDbLine
 10
5226.606393719955
 20
-186.6843059751591
 30
0.0000000001127424
 11
5226.605556700462
 21
-186.6840816964605
 31
0.0000000001127424
  0
LINE
  5
B3F4
330
18
100
AcDbEntity
  8
01
100
AcDbLine
 10
5226.605556700462
 20
-186.6840816964605
 30
0.0000000001127424
 11
5226.599793416714
 21
-186.6825374292271
 31
0.0000000001127424
  0
LINE
  5
B3F5
330
18
100
AcDbEntity
  8
1PHANTOM
100
AcDbLine
 10
5226.599793416714
 20
-186.6825374292271
 30
0.0000000001127424
 11
5226.572366646627
 21
-186.6751884483065
 31
0.0000000001127424
  0
LINE
  5
B3F6
330
18
100
AcDbEntity
  8
01
100
AcDbLine
 10
5089.093892740536
 20
-154.8650307300396
 30
0.0000000001127424
 11
5086.37444092957
 21
-154.8650307300387
 31
0.0000000001127424
  0
LINE
  5
B3F7
330
18
100
AcDbEntity
  8
1PHANTOM
100
AcDbLine
 10
5097.435370507623
 20
-185.9958494761759
 30
0.0000000001127424
 11
5089.093892740536
 21
-154.8650307300396
 31
0.0000000001127424
  0
LINE
  5
B3F8
330
18
100
AcDbEntity
  8
1PHANTOM
100
AcDbLine
 10
5094.897947136758
 20
-186.6751884718688
 30
0.0000000001127424
 11
5097.435370507623
 21
-185.9958494761759
 31
0.0000000001127424
  0
LINE
  5
B3F9
330
18
100
AcDbEntity
  8
1PHANTOM
100
AcDbLine
 10
5217.947971630002
 20
-190.6664826532111
 30
0.0000000001127424
 11
5217.947030573921
 21
-193.2932712349753
 31
0.0000000001127424
  0
ARC
  5
B3FA
330
18
100
AcDbEntity
  8
1PHANTOM
100
AcDbCircle
 10
5217.947466690593
 20
-184.3641053425054
 30
0.0000000001127424
 40
6.302377330932894
100
AcDbArc
 50
270.004590473655
 51
344.9946462185817
  0
LINE
  5
B3FB
330
18
100
AcDbEntity
  8
1PHANTOM
100
AcDbLine
 10
5226.572366640088
 20
-186.6751884465548
 30
0.0000000001127424
 11
5224.034943276149
 21
-185.9958494528847
 31
0.0000000001127424
  0
ARC
  5
B3FC
330
18
100
AcDbEntity
  8
1PHANTOM
100
AcDbCircle
 10
5125.337514647347
 20
-177.2999938225071
 30
0.0000000001127424
 40
5.065060410678349
100
AcDbArc
 50
264.9521418961185
 51
268.6695036416094
  0
LINE
  5
B3FD
330
18
100
AcDbEntity
  8
1PHANTOM
100
AcDbLine
 10
5118.835426424297
 20
-154.8650307300396
 30
0.0000000001127424
 11
5118.835429483995
 21
-157.9070635375948
 31
0.0000000001127424
  0
LINE
  5
B3FE
330
18
100
AcDbEntity
  8
01
100
AcDbLine
 10
5120.335560196891
 20
-157.9430231537881
 30
0.0000000001127424
 11
5120.335426424296
 21
-154.8650307300391
 31
0.0000000001127424
  0
LINE
  5
B3FF
330
18
100
AcDbEntity
  8
1PHANTOM
100
AcDbLine
 10
5217.009319260734
 20
-180.1414878436336
 30
0.0000000001127424
 11
5220.183623617423
 21
-184.7519262756146
 31
0.0000000001127424
  0
LINE
  5
B400
330
18
100
AcDbEntity
  8
1PHANTOM
100
AcDbLine
 10
5106.924725410934
 20
-187.1233733432655
 30
0.0000000001127424
 11
5217.742681966529
 21
-187.123493379685
 31
0.0000000001127424
  0
ARC
  5
B401
330
18
100
AcDbEntity
  8
1PHANTOM
100
AcDbCircle
 10
5218.038771744921
 20
-184.4603392917134
 30
0.0000000001127424
 40
2.18439353169442
100
AcDbArc
 50
262.2221207054498
 51
307.1314592376481
  0
LINE
  5
B402
330
18
100
AcDbEntity
  8
1PHANTOM
100
AcDbLine
 10
5217.742681966529
 20
-187.123493379685
 30
0.0000000001127424
 11
5217.743151094404
 21
-186.6246367602462
 31
0.0000000001127424
  0
ARC
  5
B403
330
18
100
AcDbEntity
  8
1PHANTOM
100
AcDbCircle
 10
5217.737078757104
 20
-184.0803403916521
 30
0.0000000001127424
 40
3.043158146487037
100
AcDbArc
 50
270.1054958098433
 51
307.3864697271586
  0
ARC
  5
B404
330
18
100
AcDbEntity
  8
1PHANTOM
100
AcDbCircle
 10
5218.016178935425
 20
-184.4771773445123
 30
0.0000000001127424
 40
2.184789103017534
100
AcDbArc
 50
307.8704016625357
 51
352.7756212905512
  0
ARC
  5
B405
330
18
100
AcDbEntity
  8
1PHANTOM
100
AcDbCircle
 10
5217.727563825156
 20
-184.0874925133058
 30
0.0000000001127424
 40
3.043276002710035
100
AcDbArc
 50
307.610565335081
 51
344.8908073969784
  0
LINE
  5
B406
330
18
100
AcDbEntity
  8
1PHANTOM
100
AcDbLine
 10
5219.357371778374
 20
-186.2018527292399
 30
0.0000000001127424
 11
5219.584848545951
 21
-186.4983061300273
 31
0.0000000001127424
  0
LINE
  5
B407
330
18
100
AcDbEntity
  8
1PHANTOM
100
AcDbLine
 10
5106.924679691205
 20
-186.6244916510296
 30
0.0000000001127424
 11
5217.743151094404
 21
-186.6246367602462
 31
0.0000000001127424
  0
ARC
  5
B408
330
18
100
AcDbEntity
  8
1PHANTOM
100
AcDbCircle
 10
765.2435856447446
 20
-3979.011136340413
 30
0.0000000001127424
 40
5848.670596172032
100
AcDbArc
 50
40.42247307034008
 51
40.47730901093085
  0
LINE
  5
B409
330
18
100
AcDbEntity
  8
1PHANTOM
100
AcDbLine
 10
5106.924679691205
 20
-186.6244916510296
 30
0.0000000001127424
 11
5125.335426424293
 21
-182.3650307300396
 31
0.0000000001127424
  0
LINE
  5
B40A
330
18
100
AcDbEntity
  8
1PHANTOM
100
AcDbLine
 10
5102.369442904137
 20
-178.628953745505
 30
0.0000000001127424
 11
5119.715299530528
 21
-177.4086572118659
 31
0.0000000001127424
  0
LINE
  5
B40B
330
18
100
AcDbEntity
  8
1PHANTOM
100
AcDbLine
 10
5124.871471945085
 20
-182.3435621999025
 30
0.0000000001127424
 11
5124.668048882465
 21
-182.3178682714725
 31
0.0000000001127424
  0
LINE
  5
B40C
330
18
100
AcDbEntity
  8
1PHANTOM
100
AcDbLine
 10
5124.668048882465
 20
-182.3178682714725
 30
0.0000000001127424
 11
5124.465612533733
 21
-182.2853007251088
 31
0.0000000001127424
  0
LINE
  5
B40D
330
18
100
AcDbEntity
  8
1PHANTOM
100
AcDbLine
 10
5124.465612533733
 20
-182.2853007251088
 30
0.0000000001127424
 11
5124.264395088871
 21
-182.2458969150617
 31
0.0000000001127424
  0
LINE
  5
B40E
330
18
100
AcDbEntity
  8
1PHANTOM
100
AcDbLine
 10
5124.264395088871
 20
-182.2458969150617
 30
0.0000000001127424
 11
5124.064627339797
 21
-182.1997020366221
 31
0.0000000001127424
  0
LINE
  5
B40F
330
18
100
AcDbEntity
  8
1PHANTOM
100
AcDbLine
 10
5124.064627339797
 20
-182.1997020366221
 30
0.0000000001127424
 11
5123.86653841567
 21
-182.1467690742862
 31
0.0000000001127424
  0
LINE
  5
B410
330
18
100
AcDbEntity
  8
1PHANTOM
100
AcDbLine
 10
5123.86653841567
 20
-182.1467690742862
 30
0.0000000001127424
 11
5123.670355520067
 21
-182.0871587409811
 31
0.0000000001127424
  0
LINE
  5
B411
330
18
100
AcDbEntity
  8
1PHANTOM
100
AcDbLine
 10
5123.670355520067
 20
-182.0871587409811
 30
0.0000000001127424
 11
5123.476303670397
 21
-182.0209394084305
 31
0.0000000001127424
  0
LINE
  5
B412
330
18
100
AcDbEntity
  8
1PHANTOM
100
AcDbLine
 10
5123.476303670397
 20
-182.0209394084305
 30
0.0000000001127424
 11
5123.284605439805
 21
-181.9481870287332
 31
0.0000000001127424
  0
LINE
  5
B413
330
18
100
AcDbEntity
  8
1PHANTOM
100
AcDbLine
 10
5123.284605439805
 20
-181.9481870287332
 30
0.0000000001127424
 11
5123.095480701889
 21
-181.8689850472456
 31
0.0000000001127424
  0
LINE
  5
B414
330
18
100
AcDbEntity
  8
1PHANTOM
100
AcDbLine
 10
5123.095480701889
 20
-181.8689850472456
 30
0.0000000001127424
 11
5122.909146378504
 21
-181.7834243068756
 31
0.0000000001127424
  0
LINE
  5
B415
330
18
100
AcDbEntity
  8
1PHANTOM
100
AcDbLine
 10
5122.909146378504
 20
-181.7834243068756
 30
0.0000000001127424
 11
5122.725816190969
 21
-181.6916029438844
 31
0.0000000001127424
  0
LINE
  5
B416
330
18
100
AcDbEntity
  8
1PHANTOM
100
AcDbLine
 10
5122.725816190969
 20
-181.6916029438844
 30
0.0000000001127424
 11
5122.545700414918
 21
-181.593626275329
 31
0.0000000001127424
  0
LINE
  5
B417
330
18
100
AcDbEntity
  8
1PHANTOM
100
AcDbLine
 10
5122.545700414918
 20
-181.593626275329
 30
0.0000000001127424
 11
5122.369005639132
 21
-181.4896066782631
 31
0.0000000001127424
  0
LINE
  5
B418
330
18
100
AcDbEntity
  8
1PHANTOM
100
AcDbLine
 10
5122.369005639132
 20
-181.4896066782631
 30
0.0000000001127424
 11
5122.19593452858
 21
-181.3796634608462
 31
0.0000000001127424
  0
LINE
  5
B419
330
18
100
AcDbEntity
  8
1PHANTOM
100
AcDbLine
 10
5122.19593452858
 20
-181.3796634608462
 30
0.0000000001127424
 11
5122.026685591967
 21
-181.2639227254968
 31
0.0000000001127424
  0
LINE
  5
B41A
330
18
100
AcDbEntity
  8
1PHANTOM
100
AcDbLine
 10
5122.026685591967
 20
-181.2639227254968
 30
0.0000000001127424
 11
5121.861452954051
 21
-181.1425172242585
 31
0.0000000001127424
  0
LINE
  5
B41B
330
18
100
AcDbEntity
  8
1PHANTOM
100
AcDbLine
 10
5121.861452954051
 20
-181.1425172242585
 30
0.0000000001127424
 11
5121.700426132982
 21
-181.0155862065349
 31
0.0000000001127424
  0
LINE
  5
B41C
330
18
100
AcDbEntity
  8
1PHANTOM
100
AcDbLine
 10
5121.700426132982
 20
-181.0155862065349
 30
0.0000000001127424
 11
5121.543789822937
 21
-180.8832752593731
 31
0.0000000001127424
  0
LINE
  5
B41D
330
18
100
AcDbEntity
  8
1PHANTOM
100
AcDbLine
 10
5121.543789822937
 20
-180.8832752593731
 30
0.0000000001127424
 11
5121.391723682268
 21
-180.74573614048
 31
0.0000000001127424
  0
LINE
  5
B41E
330
18
100
AcDbEntity
  8
1PHANTOM
100
AcDbLine
 10
5121.391723682268
 20
-180.74573614048
 30
0.0000000001127424
 11
5121.24440212745
 21
-180.6031266041587
 31
0.0000000001127424
  0
LINE
  5
B41F
330
18
100
AcDbEntity
  8
1PHANTOM
100
AcDbLine
 10
5121.24440212745
 20
-180.6031266041587
 30
0.0000000001127424
 11
5121.101994133022
 21
-180.4556102203679
 31
0.0000000001127424
  0
LINE
  5
B420
330
18
100
AcDbEntity
  8
1PHANTOM
100
AcDbLine
 10
5121.101994133022
 20
-180.4556102203679
 30
0.0000000001127424
 11
5120.964663037779
 21
-180.3033561871108
 31
0.0000000001127424
  0
LINE
  5
B421
330
18
100
AcDbEntity
  8
1PHANTOM
100
AcDbLine
 10
5120.964663037779
 20
-180.3033561871108
 30
0.0000000001127424
 11
5120.832566357425
 21
-180.1465391363695
 31
0.0000000001127424
  0
LINE
  5
B422
330
18
100
AcDbEntity
  8
1PHANTOM
100
AcDbLine
 10
5120.832566357425
 20
-180.1465391363695
 30
0.0000000001127424
 11
5120.705855603908
 21
-179.9853389338055
 31
0.0000000001127424
  0
LINE
  5
B423
330
18
100
AcDbEntity
  8
1PHANTOM
100
AcDbLine
 10
5120.705855603908
 20
-179.9853389338055
 30
0.0000000001127424
 11
5120.584676111636
 21
-179.8199404724565
 31
0.0000000001127424
  0
LINE
  5
B424
330
18
100
AcDbEntity
  8
1PHANTOM
100
AcDbLine
 10
5120.584676111636
 20
-179.8199404724565
 30
0.0000000001127424
 11
5120.469166870787
 21
-179.6505334606709
 31
0.0000000001127424
  0
LINE
  5
B425
330
18
100
AcDbEntity
  8
01
100
AcDbLine
 10
5120.469166870787
 20
-179.6505334606709
 30
0.0000000001127424
 11
5120.359460367884
 21
-179.4773122045145
 31
0.0000000001127424
  0
LINE
  5
B426
330
18
100
AcDbEntity
  8
1PHANTOM
100
AcDbLine
 10
5120.359460367884
 20
-179.4773122045145
 30
0.0000000001127424
 11
5120.25568243384
 21
-179.3004753849064
 31
0.0000000001127424
  0
LINE
  5
B427
330
18
100
AcDbEntity
  8
1PHANTOM
100
AcDbLine
 10
5120.25568243384
 20
-179.3004753849064
 30
0.0000000001127424
 11
5120.157952099632
 21
-179.1202258297354
 31
0.0000000001127424
  0
LINE
  5
B428
330
18
100
AcDbEntity
  8
1PHANTOM
100
AcDbLine
 10
5120.157952099632
 20
-179.1202258297354
 30
0.0000000001127424
 11
5120.066381459774
 21
-178.9367702812238
 31
0.0000000001127424
  0
LINE
  5
B429
330
18
100
AcDbEntity
  8
1PHANTOM
100
AcDbLine
 10
5120.066381459774
 20
-178.9367702812238
 30
0.0000000001127424
 11
5119.981075543749
 21
-178.7503191587953
 31
0.0000000001127424
  0
LINE
  5
B42A
330
18
100
AcDbEntity
  8
1PHANTOM
100
AcDbLine
 10
5119.981075543749
 20
-178.7503191587953
 30
0.0000000001127424
 11
5119.939443295269
 21
-178.6410690266544
 31
0.0000000001127424
  0
LINE
  5
B42B
330
18
100
AcDbEntity
  8
1PHANTOM
100
AcDbLine
 10
5119.939443295269
 20
-178.6410690266544
 30
0.0000000001127424
 11
5119.900915048271
 21
-178.5306860131528
 31
0.0000000001127424
  0
LINE
  5
B42C
330
18
100
AcDbEntity
  8
1PHANTOM
100
AcDbLine
 10
5119.900915048271
 20
-178.5306860131528
 30
0.0000000001127424
 11
5119.865521577936
 21
-178.4192582888468
 31
0.0000000001127424
  0
LINE
  5
B42D
330
18
100
AcDbEntity
  8
1PHANTOM
100
AcDbLine
 10
5119.865521577936
 20
-178.4192582888468
 30
0.0000000001127424
 11
5119.83329115548
 21
-178.3068748587753
 31
0.0000000001127424
  0
LINE
  5
B42E
330
18
100
AcDbEntity
  8
1PHANTOM
100
AcDbLine
 10
5119.83329115548
 20
-178.3068748587753
 30
0.0000000001127424
 11
5119.804872348734
 21
-178.1952138717621
 31
0.0000000001127424
  0
LINE
  5
B42F
330
18
100
AcDbEntity
  8
1PHANTOM
100
AcDbLine
 10
5119.804872348734
 20
-178.1952138717621
 30
0.0000000001127424
 11
5119.78013224726
 21
-178.0826806234459
 31
0.0000000001127424
  0
LINE
  5
B430
330
18
100
AcDbEntity
  8
1PHANTOM
100
AcDbLine
 10
5119.78013224726
 20
-178.0826806234459
 30
0.0000000001127424
 11
5119.759097488078
 21
-177.9693962754373
 31
0.0000000001127424
  0
LINE
  5
B431
330
18
100
AcDbEntity
  8
1PHANTOM
100
AcDbLine
 10
5119.759097488078
 20
-177.9693962754373
 30
0.0000000001127424
 11
5119.741790718765
 21
-177.8554827980366
 31
0.0000000001127424
  0
LINE
  5
B432
330
18
100
AcDbEntity
  8
1PHANTOM
100
AcDbLine
 10
5119.741790718765
 20
-177.8554827980366
 30
0.0000000001127424
 11
5119.715299530528
 21
-177.4086572118659
 31
0.0000000001127424
  0
ARC
  5
B433
330
18
100
AcDbEntity
  8
01
100
AcDbCircle
 10
5125.334833859929
 20
-177.3648496720789
 30
0.0000000001127424
 40
4.999407423974707
100
AcDbArc
 50
180.0180959270834
 51
270.0067900415285
  0
ARC
  5
B434
330
18
100
AcDbEntity
  8
1PHANTOM
100
AcDbCircle
 10
5103.522902276967
 20
-184.3640334025213
 30
0.0000000001127424
 40
4.855303551411462
100
AcDbArc
 50
195.0078947356863
 51
269.9933901723099
  0
LINE
  5
B435
330
18
100
AcDbEntity
  8
1PHANTOM
100
AcDbLine
 10
5103.522342153341
 20
-189.2193369216239
 30
0.0000000001127424
 11
5103.522342153396
 21
-190.6664826608044
 31
0.0000000001127424
  0
LINE
  5
B436
330
18
100
AcDbEntity
  8
1PHANTOM
100
AcDbLine
 10
5103.522342153341
 20
-189.2193369216239
 30
0.0000000001127424
 11
5217.947971629946
 21
-189.2193369179127
 31
0.0000000001127424
  0
LINE
  5
B437
330
18
100
AcDbEntity
  8
1PHANTOM
100
AcDbLine
 10
5098.833212378732
 20
-185.6213246316111
 30
0.0000000001127424
 11
5097.435370507623
 21
-185.9958494761759
 31
0.0000000001127424
  0
LINE
  5
B438
330
18
100
AcDbEntity
  8
1PHANTOM
100
AcDbLine
 10
5098.833212378732
 20
-185.6213246316111
 30
0.0000000001127424
 11
5090.592088246542
 21
-154.8650307300396
 31
0.0000000001127424
  0
LINE
  5
B439
330
18
100
AcDbEntity
  8
1PHANTOM
100
AcDbLine
 10
5222.637101404665
 20
-185.6213246082198
 30
0.0000000001127424
 11
5224.034943276149
 21
-185.9958494528847
 31
0.0000000001127424
  0
ARC
  5
B43A
330
18
100
AcDbEntity
  8
1PHANTOM
100
AcDbCircle
 10
5217.947421616036
 20
-184.3640465810859
 30
0.0000000001127424
 40
4.855290367979764
100
AcDbArc
 50
270.0064905439984
 51
344.9922248493951
  0
LINE
  5
B43B
330
18
100
AcDbEntity
  8
1PHANTOM
100
AcDbLine
 10
5217.947971630002
 20
-190.6664826532111
 30
0.0000000001127424
 11
5217.947971629946
 21
-189.2193369179127
 31
0.0000000001127424
  0
ARC
  5
B43C
330
18
100
AcDbEntity
  8
1PHANTOM
100
AcDbCircle
 10
5103.522705742876
 20
-184.364289558459
 30
0.0000000001127424
 40
6.302193112833455
100
AcDbArc
 50
195.0040690289754
 51
269.9966944613936
  0
LINE
  5
B43D
330
18
100
AcDbEntity
  8
1PHANTOM
100
AcDbLine
 10
5103.522342153396
 20
-190.6664826608044
 30
0.0000000001127424
 11
5217.947971630002
 21
-190.6664826532111
 31
0.0000000001127424
  0
LINE
  5
B43E
330
18
100
AcDbEntity
  8
1PHANTOM
100
AcDbLine
 10
5103.523283209644
 20
-193.2932711954477
 30
0.0000000001127424
 11
5103.522342153396
 21
-190.6664826608044
 31
0.0000000001127424
  0
LINE
  5
B43F
330
18
100
AcDbEntity
  8
01
100
AcDbLine
 10
5086.338090234291
 20
-154.8650307300396
 30
0.0000000001127424
 11
5086.37444092957
 21
-154.8650307300387
 31
0.0000000001127424
  0
LINE
  5
B440
330
18
100
AcDbEntity
  8
01
100
AcDbLine
 10
5118.835426424297
 20
-154.8650307300396
 30
0.0000000001127424
 11
5120.335426424296
 21
-154.8650307300391
 31
0.0000000001127424
  0
LINE
  5
B441
330
18
100
AcDbEntity
  8
01
100
AcDbLine
 10
5090.592088246542
 20
-154.8650307300396
 30
0.0000000001127424
 11
5118.835426424297
 21
-154.8650307300396
 31
0.0000000001127424
  0
LINE
  5
B442
330
18
100
AcDbEntity
  8
01
100
AcDbLine
 10
5089.093892740536
 20
-154.8650307300396
 30
0.0000000001127424
 11
5090.592088246542
 21
-154.8650307300396
 31
0.0000000001127424
  0
LINE
  5
B443
330
18
100
AcDbEntity
  8
01
100
AcDbLine
 10
5094.335426424295
 20
-154.6650307300393
 30
0.0000000001127424
 11
5114.334813288666
 21
-154.6650307300393
 31
0.0000000001127424
  0
LINE
  5
B444
330
18
100
AcDbEntity
  8
01
100
AcDbLine
 10
5096.385426424295
 20
-154.6650307300393
 30
0.0000000001127424
 11
5096.385426424295
 21
-154.1650307300393
 31
0.0000000001127424
  0
LINE
  5
B445
330
18
100
AcDbEntity
  8
01
100
AcDbLine
 10
5094.335426424295
 20
-154.8650307300396
 30
0.0000000001127424
 11
5094.335426424295
 21
-154.6650307300393
 31
0.0000000001127424
  0
LINE
  5
B446
330
18
100
AcDbEntity
  8
01
100
AcDbLine
 10
5114.335426424295
 20
-154.6650307300393
 30
0.0000000001127424
 11
5114.335426424295
 21
-154.8650307300396
 31
0.0000000001127424
  0
ARC
  5
B447
330
18
100
AcDbEntity
  8
01
100
AcDbCircle
 10
5214.111106341721
 20
-179.3525712051433
 30
0.0000000001127424
 40
3.004193930626743
100
AcDbArc
 50
335.5149466270022
 51
337.8401221358996
  0
LINE
  5
B448
330
18
100
AcDbEntity
  8
01
100
AcDbLine
 10
5214.474068716465
 20
-182.3421504377325
 30
0.0000000001127424
 11
5214.534429730193
 21
-182.3339449114979
 31
0.0000000001127424
  0
LINE
  5
B449
330
18
100
AcDbEntity
  8
01
100
AcDbLine
 10
5125.335426424293
 20
-182.3650307300396
 30
0.0000000001127424
 11
5214.111541782316
 21
-182.3650307124954
 31
0.0000000001127424
  0
LINE
  5
B44A
330
18
100
AcDbEntity
  8
1PHANTOM
100
AcDbLine
 10
5119.934300176908
 20
-158.427670513524
 30
0.0000000001127424
 11
5119.934210897156
 21
-158.4083653302101
 31
0.0000000001127424
  0
LINE
  5
B44B
330
18
100
AcDbEntity
  8
1PHANTOM
100
AcDbLine
 10
5119.934210897156
 20
-158.4083653302101
 30
0.0000000001127424
 11
5119.93359812787
 21
-158.38906966781
 31
0.0000000001127424
  0
LINE
  5
B44C
330
18
100
AcDbEntity
  8
1PHANTOM
100
AcDbLine
 10
5119.93359812787
 20
-158.38906966781
 30
0.0000000001127424
 11
5119.93246231976
 21
-158.3697977189309
 31
0.0000000001127424
  0
LINE
  5
B44D
330
18
100
AcDbEntity
  8
1PHANTOM
100
AcDbLine
 10
5119.93246231976
 20
-158.3697977189309
 30
0.0000000001127424
 11
5119.93087984422
 21
-158.3520211934425
 31
0.0000000001127424
  0
LINE
  5
B44E
330
18
100
AcDbEntity
  8
1PHANTOM
100
AcDbLine
 10
5119.93087984422
 20
-158.3520211934425
 30
0.0000000001127424
 11
5119.928680408169
 21
-158.3343104179563
 31
0.0000000001127424
  0
LINE
  5
B44F
330
18
100
AcDbEntity
  8
1PHANTOM
100
AcDbLine
 10
5119.928680408169
 20
-158.3343104179563
 30
0.0000000001127424
 11
5119.925866669937
 21
-158.3166867984519
 31
0.0000000001127424
  0
LINE
  5
B450
330
18
100
AcDbEntity
  8
1PHANTOM
100
AcDbLine
 10
5119.925866669937
 20
-158.3166867984519
 30
0.0000000001127424
 11
5119.923618688435
 21
-158.3050946289227
 31
0.0000000001127424
  0
LINE
  5
B451
330
18
100
AcDbEntity
  8
1PHANTOM
100
AcDbLine
 10
5119.923618688435
 20
-158.3050946289227
 30
0.0000000001127424
 11
5119.92098981758
 21
-158.2935828587179
 31
0.0000000001127424
  0
LINE
  5
B452
330
18
100
AcDbEntity
  8
1PHANTOM
100
AcDbLine
 10
5119.92098981758
 20
-158.2935828587179
 30
0.0000000001127424
 11
5119.917982914545
 21
-158.282163999345
 31
0.0000000001127424
  0
LINE
  5
B453
330
18
100
AcDbEntity
  8
1PHANTOM
100
AcDbLine
 10
5119.917982914545
 20
-158.282163999345
 30
0.0000000001127424
 11
5119.91460124737
 21
-158.2708504613329
 31
0.0000000001127424
  0
LINE
  5
B454
330
18
100
AcDbEntity
  8
1PHANTOM
100
AcDbLine
 10
5119.91460124737
 20
-158.2708504613329
 30
0.0000000001127424
 11
5119.911934538193
 21
-158.2628800970752
 31
0.0000000001127424
  0
LINE
  5
B455
330
18
100
AcDbEntity
  8
1PHANTOM
100
AcDbLine
 10
5119.911934538193
 20
-158.2628800970752
 30
0.0000000001127424
 11
5119.90899445347
 21
-158.2550064736366
 31
0.0000000001127424
  0
LINE
  5
B456
330
18
100
AcDbEntity
  8
1PHANTOM
100
AcDbLine
 10
5119.90899445347
 20
-158.2550064736366
 30
0.0000000001127424
 11
5119.905784493301
 21
-158.2472389643863
 31
0.0000000001127424
  0
LINE
  5
B457
330
18
100
AcDbEntity
  8
1PHANTOM
100
AcDbLine
 10
5119.905784493301
 20
-158.2472389643863
 30
0.0000000001127424
 11
5119.902308479075
 21
-158.2395868163654
 31
0.0000000001127424
  0
LINE
  5
B458
330
18
100
AcDbEntity
  8
1PHANTOM
100
AcDbLine
 10
5119.902308479075
 20
-158.2395868163654
 30
0.0000000001127424
 11
5119.898570548903
 21
-158.2320591392818
 31
0.0000000001127424
  0
LINE
  5
B459
330
18
100
AcDbEntity
  8
1PHANTOM
100
AcDbLine
 10
5119.898570548903
 20
-158.2320591392818
 30
0.0000000001127424
 11
5119.896366670575
 21
-158.227787736114
 31
0.0000000001127424
  0
LINE
  5
B45A
330
18
100
AcDbEntity
  8
1PHANTOM
100
AcDbLine
 10
5119.896366670575
 20
-158.227787736114
 30
0.0000000001127424
 11
5119.894022998054
 21
-158.2235914086937
 31
0.0000000001127424
  0
LINE
  5
B45B
330
18
100
AcDbEntity
  8
1PHANTOM
100
AcDbLine
 10
5119.894022998054
 20
-158.2235914086937
 30
0.0000000001127424
 11
5119.891542085701
 21
-158.2194747305899
 31
0.0000000001127424
  0
LINE
  5
B45C
330
18
100
AcDbEntity
  8
1PHANTOM
100
AcDbLine
 10
5119.891542085701
 20
-158.2194747305899
 30
0.0000000001127424
 11
5119.888926637461
 21
-158.2154421885617
 31
0.0000000001127424
  0
LINE
  5
B45D
330
18
100
AcDbEntity
  8
1PHANTOM
100
AcDbLine
 10
5119.888926637461
 20
-158.2154421885617
 30
0.0000000001127424
 11
5119.886179503903
 21
-158.2114981776691
 31
0.0000000001127424
  0
LINE
  5
B45E
330
18
100
AcDbEntity
  8
1PHANTOM
100
AcDbLine
 10
5119.886179503903
 20
-158.2114981776691
 30
0.0000000001127424
 11
5119.883303679123
 21
-158.2076469964805
 31
0.0000000001127424
  0
LINE
  5
B45F
330
18
100
AcDbEntity
  8
1PHANTOM
100
AcDbLine
 10
5119.883303679123
 20
-158.2076469964805
 30
0.0000000001127424
 11
5119.880302297477
 21
-158.2038928423913
 31
0.0000000001127424
  0
LINE
  5
B460
330
18
100
AcDbEntity
  8
1PHANTOM
100
AcDbLine
 10
5119.880302297477
 20
-158.2038928423913
 30
0.0000000001127424
 11
5119.877178630165
 21
-158.2002398070463
 31
0.0000000001127424
  0
LINE
  5
B461
330
18
100
AcDbEntity
  8
1PHANTOM
100
AcDbLine
 10
5119.877178630165
 20
-158.2002398070463
 30
0.0000000001127424
 11
5119.873936081665
 21
-158.1966918718813
 31
0.0000000001127424
  0
LINE
  5
B462
330
18
100
AcDbEntity
  8
1PHANTOM
100
AcDbLine
 10
5119.873936081665
 20
-158.1966918718813
 30
0.0000000001127424
 11
5119.870578186024
 21
-158.1932529037836
 31
0.0000000001127424
  0
LINE
  5
B463
330
18
100
AcDbEntity
  8
1PHANTOM
100
AcDbLine
 10
5119.870578186024
 20
-158.1932529037836
 30
0.0000000001127424
 11
5119.867108603008
 21
-158.1899266508777
 31
0.0000000001127424
  0
LINE
  5
B464
330
18
100
AcDbEntity
  8
1PHANTOM
100
AcDbLine
 10
5119.867108603008
 20
-158.1899266508777
 30
0.0000000001127424
 11
5119.863531114105
 21
-158.1867167384394
 31
0.0000000001127424
  0
LINE
  5
B465
330
18
100
AcDbEntity
  8
1PHANTOM
100
AcDbLine
 10
5119.863531114105
 20
-158.1867167384394
 30
0.0000000001127424
 11
5119.859849618415
 21
-158.1836266649466
 31
0.0000000001127424
  0
LINE
  5
B466
330
18
100
AcDbEntity
  8
1PHANTOM
100
AcDbLine
 10
5119.859849618415
 20
-158.1836266649466
 30
0.0000000001127424
 11
5119.856068128392
 21
-158.1806597982637
 31
0.0000000001127424
  0
LINE
  5
B467
330
18
100
AcDbEntity
  8
1PHANTOM
100
AcDbLine
 10
5119.856068128392
 20
-158.1806597982637
 30
0.0000000001127424
 11
5119.852190765474
 21
-158.1778193719725
 31
0.0000000001127424
  0
LINE
  5
B468
330
18
100
AcDbEntity
  8
1PHANTOM
100
AcDbLine
 10
5119.852190765474
 20
-158.1778193719725
 30
0.0000000001127424
 11
5119.787493330585
 21
-158.1578944245844
 31
0.0000000001127424
  0
LINE
  5
B469
330
18
100
AcDbEntity
  8
1PHANTOM
100
AcDbLine
 10
5119.787493330585
 20
-158.1578944245844
 30
0.0000000001127424
 11
5119.782005950577
 21
-158.1578863457653
 31
0.0000000001127424
  0
LINE
  5
B46A
330
18
100
AcDbEntity
  8
1PHANTOM
100
AcDbLine
 10
5119.782005950577
 20
-158.1578863457653
 30
0.0000000001127424
 11
5119.776521173573
 21
-158.1580555375422
 31
0.0000000001127424
  0
LINE
  5
B46B
330
18
100
AcDbEntity
  8
1PHANTOM
100
AcDbLine
 10
5119.776521173573
 20
-158.1580555375422
 30
0.0000000001127424
 11
5119.771044724834
 21
-158.1584018233062
 31
0.0000000001127424
  0
LINE
  5
B46C
330
18
100
AcDbEntity
  8
1PHANTOM
100
AcDbLine
 10
5119.771044724834
 20
-158.1584018233062
 30
0.0000000001127424
 11
5119.765582320922
 21
-158.1589248415885
 31
0.0000000001127424
  0
LINE
  5
B46D
330
18
100
AcDbEntity
  8
1PHANTOM
100
AcDbLine
 10
5119.765582320922
 20
-158.1589248415885
 30
0.0000000001127424
 11
5119.760139663739
 21
-158.1596240464383
 31
0.0000000001127424
  0
LINE
  5
B46E
330
18
100
AcDbEntity
  8
1PHANTOM
100
AcDbLine
 10
5119.760139663739
 20
-158.1596240464383
 30
0.0000000001127424
 11
5119.754722434578
 21
-158.1604987079946
 31
0.0000000001127424
  0
LINE
  5
B46F
330
18
100
AcDbEntity
  8
1PHANTOM
100
AcDbLine
 10
5119.754722434578
 20
-158.1604987079946
 30
0.0000000001127424
 11
5119.749336288185
 21
-158.1615479132461
 31
0.0000000001127424
  0
LINE
  5
B470
330
18
100
AcDbEntity
  8
1PHANTOM
100
AcDbLine
 10
5119.749336288185
 20
-158.1615479132461
 30
0.0000000001127424
 11
5119.740966401152
 21
-158.1634725239488
 31
0.0000000001127424
  0
LINE
  5
B471
330
18
100
AcDbEntity
  8
1PHANTOM
100
AcDbLine
 10
5119.740966401152
 20
-158.1634725239488
 30
0.0000000001127424
 11
5119.732668473807
 21
-158.1656869171125
 31
0.0000000001127424
  0
LINE
  5
B472
330
18
100
AcDbEntity
  8
1PHANTOM
100
AcDbLine
 10
5119.732668473807
 20
-158.1656869171125
 30
0.0000000001127424
 11
5119.724452535789
 21
-158.1681884162181
 31
0.0000000001127424
  0
LINE
  5
B473
330
18
100
AcDbEntity
  8
1PHANTOM
100
AcDbLine
 10
5119.724452535789
 20
-158.1681884162181
 30
0.0000000001127424
 11
5119.716328517635
 21
-158.1709739977242
 31
0.0000000001127424
  0
LINE
  5
B474
330
18
100
AcDbEntity
  8
1PHANTOM
100
AcDbLine
 10
5119.716328517635
 20
-158.1709739977242
 30
0.0000000001127424
 11
5119.708306238779
 21
-158.1740402947199
 31
0.0000000001127424
  0
LINE
  5
B475
330
18
100
AcDbEntity
  8
1PHANTOM
100
AcDbLine
 10
5119.708306238779
 20
-158.1740402947199
 30
0.0000000001127424
 11
5119.695082298214
 21
-158.1797797706668
 31
0.0000000001127424
  0
LINE
  5
B476
330
18
100
AcDbEntity
  8
1PHANTOM
100
AcDbLine
 10
5119.695082298214
 20
-158.1797797706668
 30
0.0000000001127424
 11
5119.682057164968
 21
-158.1859571562091
 31
0.0000000001127424
  0
LINE
  5
B477
330
18
100
AcDbEntity
  8
1PHANTOM
100
AcDbLine
 10
5119.682057164968
 20
-158.1859571562091
 30
0.0000000001127424
 11
5119.669245335511
 21
-158.1925655761557
 31
0.0000000001127424
  0
LINE
  5
B478
330
18
100
AcDbEntity
  8
1PHANTOM
100
AcDbLine
 10
5119.669245335511
 20
-158.1925655761557
 30
0.0000000001127424
 11
5119.656661068915
 21
-158.1995976755903
 31
0.0000000001127424
  0
LINE
  5
B479
330
18
100
AcDbEntity
  8
1PHANTOM
100
AcDbLine
 10
5119.656661068915
 20
-158.1995976755903
 30
0.0000000001127424
 11
5119.644318370982
 21
-158.2070456280576
 31
0.0000000001127424
  0
LINE
  5
B47A
330
18
100
AcDbEntity
  8
1PHANTOM
100
AcDbLine
 10
5119.644318370982
 20
-158.2070456280576
 30
0.0000000001127424
 11
5119.632230978658
 21
-158.2149011442744
 31
0.0000000001127424
  0
LINE
  5
B47B
330
18
100
AcDbEntity
  8
1PHANTOM
100
AcDbLine
 10
5119.632230978658
 20
-158.2149011442744
 30
0.0000000001127424
 11
5119.620412344745
 21
-158.2231554813553
 31
0.0000000001127424
  0
LINE
  5
B47C
330
18
100
AcDbEntity
  8
1PHANTOM
100
AcDbLine
 10
5119.620412344745
 20
-158.2231554813553
 30
0.0000000001127424
 11
5119.604666348154
 21
-158.2346366991351
 31
0.0000000001127424
  0
LINE
  5
B47D
330
18
100
AcDbEntity
  8
1PHANTOM
100
AcDbLine
 10
5119.604666348154
 20
-158.2346366991351
 30
0.0000000001127424
 11
5119.589245535059
 21
-158.2465511145156
 31
0.0000000001127424
  0
LINE
  5
B47E
330
18
100
AcDbEntity
  8
1PHANTOM
100
AcDbLine
 10
5119.589245535059
 20
-158.2465511145156
 30
0.0000000001127424
 11
5119.574161819821
 21
-158.2588895222326
 31
0.0000000001127424
  0
LINE
  5
B47F
330
18
100
AcDbEntity
  8
1PHANTOM
100
AcDbLine
 10
5119.574161819821
 20
-158.2588895222326
 30
0.0000000001127424
 11
5119.55062755992
 21
-158.2793546620397
 31
0.0000000001127424
  0
LINE
  5
B480
330
18
100
AcDbEntity
  8
1PHANTOM
100
AcDbLine
 10
5119.55062755992
 20
-158.2793546620397
 30
0.0000000001127424
 11
5119.527794796837
 21
-158.3005996206503
 31
0.0000000001127424
  0
LINE
  5
B481
330
18
100
AcDbEntity
  8
1PHANTOM
100
AcDbLine
 10
5119.527794796837
 20
-158.3005996206503
 30
0.0000000001127424
 11
5119.433941426713
 21
-158.401640344705
 31
0.0000000001127424
  0
LINE
  5
B482
330
18
100
AcDbEntity
  8
1PHANTOM
100
AcDbLine
 10
5120.335560196891
 20
-157.9430231537881
 30
0.0000000001127424
 11
5120.335493561479
 21
-157.9357087720373
 31
0.0000000001127424
  0
LINE
  5
B483
330
18
100
AcDbEntity
  8
1PHANTOM
100
AcDbLine
 10
5120.335493561479
 20
-157.9357087720373
 30
0.0000000001127424
 11
5120.335213161679
 21
-157.9283713498654
 31
0.0000000001127424
  0
LINE
  5
B484
330
18
100
AcDbEntity
  8
1PHANTOM
100
AcDbLine
 10
5120.335213161679
 20
-157.9283713498654
 30
0.0000000001127424
 11
5120.334717566363
 21
-157.9210217329733
 31
0.0000000001127424
  0
LINE
  5
B485
330
18
100
AcDbEntity
  8
1PHANTOM
100
AcDbLine
 10
5120.334717566363
 20
-157.9210217329733
 30
0.0000000001127424
 11
5120.334005344401
 21
-157.9136707670623
 31
0.0000000001127424
  0
LINE
  5
B486
330
18
100
AcDbEntity
  8
1PHANTOM
100
AcDbLine
 10
5120.334005344401
 20
-157.9136707670623
 30
0.0000000001127424
 11
5120.333075064663
 21
-157.9063292978336
 31
0.0000000001127424
  0
LINE
  5
B487
330
18
100
AcDbEntity
  8
1PHANTOM
100
AcDbLine
 10
5120.333075064663
 20
-157.9063292978336
 30
0.0000000001127424
 11
5120.331925296022
 21
-157.8990081709881
 31
0.0000000001127424
  0
LINE
  5
B488
330
18
100
AcDbEntity
  8
1PHANTOM
100
AcDbLine
 10
5120.331925296022
 20
-157.8990081709881
 30
0.0000000001127424
 11
5120.330554607348
 21
-157.8917182322262
 31
0.0000000001127424
  0
LINE
  5
B489
330
18
100
AcDbEntity
  8
1PHANTOM
100
AcDbLine
 10
5120.330554607348
 20
-157.8917182322262
 30
0.0000000001127424
 11
5120.328961567513
 21
-157.8844703272499
 31
0.0000000001127424
  0
LINE
  5
B48A
330
18
100
AcDbEntity
  8
1PHANTOM
100
AcDbLine
 10
5120.328961567513
 20
-157.8844703272499
 30
0.0000000001127424
 11
5120.327144745386
 21
-157.8772753017602
 31
0.0000000001127424
  0
LINE
  5
B48B
330
18
100
AcDbEntity
  8
1PHANTOM
100
AcDbLine
 10
5120.327144745386
 20
-157.8772753017602
 30
0.0000000001127424
 11
5120.325102709841
 21
-157.8701440014575
 31
0.0000000001127424
  0
LINE
  5
B48C
330
18
100
AcDbEntity
  8
1PHANTOM
100
AcDbLine
 10
5120.325102709841
 20
-157.8701440014575
 30
0.0000000001127424
 11
5120.322834029748
 21
-157.8630872720433
 31
0.0000000001127424
  0
LINE
  5
B48D
330
18
100
AcDbEntity
  8
1PHANTOM
100
AcDbLine
 10
5120.322834029748
 20
-157.8630872720433
 30
0.0000000001127424
 11
5120.320337273977
 21
-157.8561159592187
 31
0.0000000001127424
  0
LINE
  5
B48E
330
18
100
AcDbEntity
  8
1PHANTOM
100
AcDbLine
 10
5120.320337273977
 20
-157.8561159592187
 30
0.0000000001127424
 11
5120.3176110114
 21
-157.8492409086844
 31
0.0000000001127424
  0
LINE
  5
B48F
330
18
100
AcDbEntity
  8
1PHANTOM
100
AcDbLine
 10
5120.3176110114
 20
-157.8492409086844
 30
0.0000000001127424
 11
5120.314653810889
 21
-157.842472966142
 31
0.0000000001127424
  0
LINE
  5
B490
330
18
100
AcDbEntity
  8
1PHANTOM
100
AcDbLine
 10
5120.314653810889
 20
-157.842472966142
 30
0.0000000001127424
 11
5120.313088161679
 21
-157.8391325496492
 31
0.0000000001127424
  0
LINE
  5
B491
330
18
100
AcDbEntity
  8
1PHANTOM
100
AcDbLine
 10
5120.313088161679
 20
-157.8391325496492
 30
0.0000000001127424
 11
5120.311464241313
 21
-157.8358229772921
 31
0.0000000001127424
  0
LINE
  5
B492
330
18
100
AcDbEntity
  8
1PHANTOM
100
AcDbLine
 10
5120.311464241313
 20
-157.8358229772921
 30
0.0000000001127424
 11
5120.309781870897
 21
-157.8325456047833
 31
0.0000000001127424
  0
LINE
  5
B493
330
18
100
AcDbEntity
  8
1PHANTOM
100
AcDbLine
 10
5120.309781870897
 20
-157.8325456047833
 30
0.0000000001127424
 11
5120.308040871544
 21
-157.829301787836
 31
0.0000000001127424
  0
LINE
  5
B494
330
18
100
AcDbEntity
  8
1PHANTOM
100
AcDbLine
 10
5120.308040871544
 20
-157.829301787836
 30
0.0000000001127424
 11
5120.306183426922
 21
-157.8259917579972
 31
0.0000000001127424
  0
LINE
  5
B495
330
18
100
AcDbEntity
  8
1PHANTOM
100
AcDbLine
 10
5120.306183426922
 20
-157.8259917579972
 30
0.0000000001127424
 11
5120.304264643593
 21
-157.8227189867953
 31
0.0000000001127424
  0
LINE
  5
B496
330
18
100
AcDbEntity
  8
1PHANTOM
100
AcDbLine
 10
5120.304264643593
 20
-157.8227189867953
 30
0.0000000001127424
 11
5120.302285768955
 21
-157.8194835786217
 31
0.0000000001127424
  0
LINE
  5
B497
330
18
100
AcDbEntity
  8
1PHANTOM
100
AcDbLine
 10
5120.302285768955
 20
-157.8194835786217
 30
0.0000000001127424
 11
5120.3002480504
 21
-157.8162856378677
 31
0.0000000001127424
  0
LINE
  5
B498
330
18
100
AcDbEntity
  8
1PHANTOM
100
AcDbLine
 10
5120.3002480504
 20
-157.8162856378677
 30
0.0000000001127424
 11
5120.298152735326
 21
-157.8131252689255
 31
0.0000000001127424
  0
LINE
  5
B499
330
18
100
AcDbEntity
  8
1PHANTOM
100
AcDbLine
 10
5120.298152735326
 20
-157.8131252689255
 30
0.0000000001127424
 11
5120.296001071127
 21
-157.8100025761869
 31
0.0000000001127424
  0
LINE
  5
B49A
330
18
100
AcDbEntity
  8
1PHANTOM
100
AcDbLine
 10
5120.296001071127
 20
-157.8100025761869
 30
0.0000000001127424
 11
5120.291533684936
 21
-157.8038706368862
 31
0.0000000001127424
  0
LINE
  5
B49B
330
18
100
AcDbEntity
  8
1PHANTOM
100
AcDbLine
 10
5120.291533684936
 20
-157.8038706368862
 30
0.0000000001127424
 11
5120.286855870992
 21
-157.7978906550994
 31
0.0000000001127424
  0
LINE
  5
B49C
330
18
100
AcDbEntity
  8
1PHANTOM
100
AcDbLine
 10
5120.286855870992
 20
-157.7978906550994
 30
0.0000000001127424
 11
5120.281977608458
 21
-157.7920634659604
 31
0.0000000001127424
  0
LINE
  5
B49D
330
18
100
AcDbEntity
  8
1PHANTOM
100
AcDbLine
 10
5120.281977608458
 20
-157.7920634659604
 30
0.0000000001127424
 11
5120.276908876498
 21
-157.7863899046029
 31
0.0000000001127424
  0
LINE
  5
B49E
330
18
100
AcDbEntity
  8
1PHANTOM
100
AcDbLine
 10
5120.276908876498
 20
-157.7863899046029
 30
0.0000000001127424
 11
5120.271659654274
 21
-157.7808708061607
 31
0.0000000001127424
  0
LINE
  5
B49F
330
18
100
AcDbEntity
  8
1PHANTOM
100
AcDbLine
 10
5120.271659654274
 20
-157.7808708061607
 30
0.0000000001127424
 11
5120.26623992095
 21
-157.7755070057675
 31
0.0000000001127424
  0
LINE
  5
B4A0
330
18
100
AcDbEntity
  8
1PHANTOM
100
AcDbLine
 10
5120.26623992095
 20
-157.7755070057675
 30
0.0000000001127424
 11
5120.26065965569
 21
-157.770299338557
 31
0.0000000001127424
  0
LINE
  5
B4A1
330
18
100
AcDbEntity
  8
1PHANTOM
100
AcDbLine
 10
5120.26065965569
 20
-157.770299338557
 30
0.0000000001127424
 11
5120.254928837656
 21
-157.7652486396628
 31
0.0000000001127424
  0
LINE
  5
B4A2
330
18
100
AcDbEntity
  8
1PHANTOM
100
AcDbLine
 10
5120.254928837656
 20
-157.7652486396628
 30
0.0000000001127424
 11
5120.249057446013
 21
-157.7603557442195
 31
0.0000000001127424
  0
LINE
  5
B4A3
330
18
100
AcDbEntity
  8
1PHANTOM
100
AcDbLine
 10
5120.249057446013
 20
-157.7603557442195
 30
0.0000000001127424
 11
5120.243055459922
 21
-157.7556214873594
 31
0.0000000001127424
  0
LINE
  5
B4A4
330
18
100
AcDbEntity
  8
1PHANTOM
100
AcDbLine
 10
5120.243055459922
 20
-157.7556214873594
 30
0.0000000001127424
 11
5120.236932858549
 21
-157.7510467042176
 31
0.0000000001127424
  0
LINE
  5
B4A5
330
18
100
AcDbEntity
  8
1PHANTOM
100
AcDbLine
 10
5120.236932858549
 20
-157.7510467042176
 30
0.0000000001127424
 11
5120.230699621055
 21
-157.746632229927
 31
0.0000000001127424
  0
LINE
  5
B4A6
330
18
100
AcDbEntity
  8
1PHANTOM
100
AcDbLine
 10
5120.230699621055
 20
-157.746632229927
 30
0.0000000001127424
 11
5120.224365726606
 21
-157.7423788996217
 31
0.0000000001127424
  0
LINE
  5
B4A7
330
18
100
AcDbEntity
  8
1PHANTOM
100
AcDbLine
 10
5120.224365726606
 20
-157.7423788996217
 30
0.0000000001127424
 11
5120.216353100492
 21
-157.7373088110645
 31
0.0000000001127424
  0
LINE
  5
B4A8
330
18
100
AcDbEntity
  8
1PHANTOM
100
AcDbLine
 10
5120.216353100492
 20
-157.7373088110645
 30
0.0000000001127424
 11
5120.208207298758
 21
-157.7324820825525
 31
0.0000000001127424
  0
LINE
  5
B4A9
330
18
100
AcDbEntity
  8
1PHANTOM
100
AcDbLine
 10
5120.208207298758
 20
-157.7324820825525
 30
0.0000000001127424
 11
5120.199935676356
 21
-157.7278910422374
 31
0.0000000001127424
  0
LINE
  5
B4AA
330
18
100
AcDbEntity
  8
1PHANTOM
100
AcDbLine
 10
5120.199935676356
 20
-157.7278910422374
 30
0.0000000001127424
 11
5120.191545588236
 21
-157.7235280182722
 31
0.0000000001127424
  0
LINE
  5
B4AB
330
18
100
AcDbEntity
  8
1PHANTOM
100
AcDbLine
 10
5120.191545588236
 20
-157.7235280182722
 30
0.0000000001127424
 11
5120.183044389351
 21
-157.7193853388072
 31
0.0000000001127424
  0
LINE
  5
B4AC
330
18
100
AcDbEntity
  8
1PHANTOM
100
AcDbLine
 10
5120.183044389351
 20
-157.7193853388072
 30
0.0000000001127424
 11
5120.174439434652
 21
-157.7154553319957
 31
0.0000000001127424
  0
LINE
  5
B4AD
330
18
100
AcDbEntity
  8
1PHANTOM
100
AcDbLine
 10
5120.174439434652
 20
-157.7154553319957
 30
0.0000000001127424
 11
5120.165738079088
 21
-157.7117303259893
 31
0.0000000001127424
  0
LINE
  5
B4AE
330
18
100
AcDbEntity
  8
1PHANTOM
100
AcDbLine
 10
5120.165738079088
 20
-157.7117303259893
 30
0.0000000001127424
 11
5120.156947677611
 21
-157.7082026489393
 31
0.0000000001127424
  0
LINE
  5
B4AF
330
18
100
AcDbEntity
  8
1PHANTOM
100
AcDbLine
 10
5120.156947677611
 20
-157.7082026489393
 30
0.0000000001127424
 11
5120.148075585174
 21
-157.7048646289987
 31
0.0000000001127424
  0
LINE
  5
B4B0
330
18
100
AcDbEntity
  8
1PHANTOM
100
AcDbLine
 10
5120.148075585174
 20
-157.7048646289987
 30
0.0000000001127424
 11
5120.139129156728
 21
-157.701708594319
 31
0.0000000001127424
  0
LINE
  5
B4B1
330
18
100
AcDbEntity
  8
1PHANTOM
100
AcDbLine
 10
5120.139129156728
 20
-157.701708594319
 30
0.0000000001127424
 11
5120.130115747223
 21
-157.6987268730523
 31
0.0000000001127424
  0
LINE
  5
B4B2
330
18
100
AcDbEntity
  8
1PHANTOM
100
AcDbLine
 10
5120.130115747223
 20
-157.6987268730523
 30
0.0000000001127424
 11
5120.121042711611
 21
-157.6959117933503
 31
0.0000000001127424
  0
LINE
  5
B4B3
330
18
100
AcDbEntity
  8
1PHANTOM
100
AcDbLine
 10
5120.121042711611
 20
-157.6959117933503
 30
0.0000000001127424
 11
5120.102747181869
 21
-157.6907508712493
 31
0.0000000001127424
  0
LINE
  5
B4B4
330
18
100
AcDbEntity
  8
1PHANTOM
100
AcDbLine
 10
5120.102747181869
 20
-157.6907508712493
 30
0.0000000001127424
 11
5120.084301407114
 21
-157.6861644532319
 31
0.0000000001127424
  0
LINE
  5
B4B5
330
18
100
AcDbEntity
  8
1PHANTOM
100
AcDbLine
 10
5120.084301407114
 20
-157.6861644532319
 30
0.0000000001127424
 11
5120.061682746767
 21
-157.6812728309629
 31
0.0000000001127424
  0
LINE
  5
B4B6
330
18
100
AcDbEntity
  8
1PHANTOM
100
AcDbLine
 10
5120.061682746767
 20
-157.6812728309629
 30
0.0000000001127424
 11
5120.038944736904
 21
-157.6771007667012
 31
0.0000000001127424
  0
LINE
  5
B4B7
330
18
100
AcDbEntity
  8
1PHANTOM
100
AcDbLine
 10
5120.038944736904
 20
-157.6771007667012
 30
0.0000000001127424
 11
5120.016103858019
 21
-157.6736052994666
 31
0.0000000001127424
  0
LINE
  5
B4B8
330
18
100
AcDbEntity
  8
1PHANTOM
100
AcDbLine
 10
5120.016103858019
 20
-157.6736052994666
 30
0.0000000001127424
 11
5119.993176590603
 21
-157.6707434682776
 31
0.0000000001127424
  0
LINE
  5
B4B9
330
18
100
AcDbEntity
  8
1PHANTOM
100
AcDbLine
 10
5119.993176590603
 20
-157.6707434682776
 30
0.0000000001127424
 11
5119.970179415148
 21
-157.6684723121548
 31
0.0000000001127424
  0
LINE
  5
B4BA
330
18
100
AcDbEntity
  8
1PHANTOM
100
AcDbLine
 10
5119.970179415148
 20
-157.6684723121548
 30
0.0000000001127424
 11
5119.947128812145
 21
-157.6667488701174
 31
0.0000000001127424
  0
LINE
  5
B4BB
330
18
100
AcDbEntity
  8
1PHANTOM
100
AcDbLine
 10
5119.947128812145
 20
-157.6667488701174
 30
0.0000000001127424
 11
5119.924041262087
 21
-157.6655301811848
 31
0.0000000001127424
  0
LINE
  5
B4BC
330
18
100
AcDbEntity
  8
1PHANTOM
100
AcDbLine
 10
5119.924041262087
 20
-157.6655301811848
 30
0.0000000001127424
 11
5119.900933245466
 21
-157.6647732843767
 31
0.0000000001127424
  0
LINE
  5
B4BD
330
18
100
AcDbEntity
  8
1PHANTOM
100
AcDbLine
 10
5119.900933245466
 20
-157.6647732843767
 30
0.0000000001127424
 11
5119.872996189973
 21
-157.6644210441846
 31
0.0000000001127424
  0
LINE
  5
B4BE
330
18
100
AcDbEntity
  8
1PHANTOM
100
AcDbLine
 10
5119.872996189973
 20
-157.6644210441846
 30
0.0000000001127424
 11
5119.845060218414
 21
-157.6646500342568
 31
0.0000000001127424
  0
LINE
  5
B4BF
330
18
100
AcDbEntity
  8
1PHANTOM
100
AcDbLine
 10
5119.845060218414
 20
-157.6646500342568
 30
0.0000000001127424
 11
5119.817132237737
 21
-157.6654296390157
 31
0.0000000001127424
  0
LINE
  5
B4C0
330
18
100
AcDbEntity
  8
1PHANTOM
100
AcDbLine
 10
5119.817132237737
 20
-157.6654296390157
 30
0.0000000001127424
 11
5119.789219154895
 21
-157.6667292428857
 31
0.0000000001127424
  0
LINE
  5
B4C1
330
18
100
AcDbEntity
  8
1PHANTOM
100
AcDbLine
 10
5119.789219154895
 20
-157.6667292428857
 30
0.0000000001127424
 11
5119.733465310515
 21
-157.6707659856507
 31
0.0000000001127424
  0
LINE
  5
B4C2
330
18
100
AcDbEntity
  8
1PHANTOM
100
AcDbLine
 10
5119.733465310515
 20
-157.6707659856507
 30
0.0000000001127424
 11
5119.67785394088
 21
-157.6765153379384
 31
0.0000000001127424
  0
LINE
  5
B4C3
330
18
100
AcDbEntity
  8
1PHANTOM
100
AcDbLine
 10
5119.67785394088
 20
-157.6765153379384
 30
0.0000000001127424
 11
5119.61205401946
 21
-157.6852698152089
 31
0.0000000001127424
  0
LINE
  5
B4C4
330
18
100
AcDbEntity
  8
1PHANTOM
100
AcDbLine
 10
5119.61205401946
 20
-157.6852698152089
 30
0.0000000001127424
 11
5119.546543819364
 21
-157.6959206216944
 31
0.0000000001127424
  0
LINE
  5
B4C5
330
18
100
AcDbEntity
  8
1PHANTOM
100
AcDbLine
 10
5119.546543819364
 20
-157.6959206216944
 30
0.0000000001127424
 11
5119.481334153897
 21
-157.7082938475333
 31
0.0000000001127424
  0
LINE
  5
B4C6
330
18
100
AcDbEntity
  8
1PHANTOM
100
AcDbLine
 10
5119.481334153897
 20
-157.7082938475333
 30
0.0000000001127424
 11
5119.416435836359
 21
-157.7222155828654
 31
0.0000000001127424
  0
LINE
  5
B4C7
330
18
100
AcDbEntity
  8
1PHANTOM
100
AcDbLine
 10
5119.416435836359
 20
-157.7222155828654
 30
0.0000000001127424
 11
5119.342238319593
 21
-157.7399333106583
 31
0.0000000001127424
  0
LINE
  5
B4C8
330
18
100
AcDbEntity
  8
1PHANTOM
100
AcDbLine
 10
5119.342238319593
 20
-157.7399333106583
 30
0.0000000001127424
 11
5119.26847423762
 21
-157.759374899868
 31
0.0000000001127424
  0
LINE
  5
B4C9
330
18
100
AcDbEntity
  8
1PHANTOM
100
AcDbLine
 10
5119.26847423762
 20
-157.759374899868
 30
0.0000000001127424
 11
5119.19515140486
 21
-157.7804481721506
 31
0.0000000001127424
  0
LINE
  5
B4CA
330
18
100
AcDbEntity
  8
1PHANTOM
100
AcDbLine
 10
5119.19515140486
 20
-157.7804481721506
 30
0.0000000001127424
 11
5119.122277635734
 21
-157.8030609491607
 31
0.0000000001127424
  0
LINE
  5
B4CB
330
18
100
AcDbEntity
  8
1PHANTOM
100
AcDbLine
 10
5119.122277635734
 20
-157.8030609491607
 30
0.0000000001127424
 11
5119.049860744663
 21
-157.827121052555
 31
0.0000000001127424
  0
LINE
  5
B4CC
330
18
100
AcDbEntity
  8
1PHANTOM
100
AcDbLine
 10
5119.049860744663
 20
-157.827121052555
 30
0.0000000001127424
 11
5118.97790854607
 21
-157.8525363039885
 31
0.0000000001127424
  0
LINE
  5
B4CD
330
18
100
AcDbEntity
  8
1PHANTOM
100
AcDbLine
 10
5118.97790854607
 20
-157.8525363039885
 30
0.0000000001127424
 11
5118.835429483995
 21
-157.9070635375948
 31
0.0000000001127424
  0
LINE
  5
B4CE
330
18
100
AcDbEntity
  8
1PHANTOM
100
AcDbLine
 10
5118.835429483995
 20
-157.9070635375948
 30
0.0000000001127424
 11
5101.990154680112
 21
-178.3164011840273
 31
0.0000000001127424
  0
LINE
  5
B4CF
330
18
100
AcDbEntity
  8
1PHANTOM
100
AcDbLine
 10
5119.433941426713
 20
-158.401640344705
 30
0.0000000001127424
 11
5118.835429483995
 21
-157.9070635375948
 31
0.0000000001127424
  0
LINE
  5
B4D0
330
18
100
AcDbEntity
  8
1PHANTOM
100
AcDbLine
 10
5119.433941426713
 20
-158.401640344705
 30
0.0000000001127424
 11
5102.369442904137
 21
-178.628953745505
 31
0.0000000001127424
  0
LINE
  5
B4D1
330
18
100
AcDbEntity
  8
1PHANTOM
100
AcDbLine
 10
5120.335426473745
 20
-177.3650308684565
 30
0.0000000001127424
 11
5119.715299530528
 21
-177.4086572118659
 31
0.0000000001127424
  0
LINE
  5
B4D2
330
18
100
AcDbEntity
  8
1PHANTOM
100
AcDbLine
 10
5119.934300176908
 20
-158.427670513524
 30
0.0000000001127424
 11
5119.715299530528
 21
-177.4086572118659
 31
0.0000000001127424
  0
ARC
  5
B4D3
330
18
100
AcDbEntity
  8
1PHANTOM
100
AcDbCircle
 10
5119.758414671584
 20
-157.8736137350143
 30
0.0000000001127424
 40
0.5813042446050184
100
AcDbArc
 50
287.6120578190174
 51
353.1423558801089
  0
LINE
  5
B4D4
330
18
100
AcDbEntity
  8
01
100
AcDbLine
 10
5120.335560196891
 20
-157.9430231537881
 30
0.0000000001127424
 11
5120.335426473745
 21
-177.3650308684565
 31
0.0000000001127424
  0
LINE
  5
B4D5
330
18
100
AcDbEntity
  8
1PHANTOM
100
AcDbLine
 10
5106.924679691205
 20
-186.6244916510296
 30
0.0000000001127424
 11
5106.924725410934
 21
-187.1233733432655
 31
0.0000000001127424
  0
LINE
  5
B4D6
330
18
100
AcDbEntity
  8
1PHANTOM
100
AcDbLine
 10
5101.990154680112
 20
-178.3164011840273
 30
0.0000000001127424
 11
5101.927169647495
 21
-178.3943488240657
 31
0.0000000001127424
  0
LINE
  5
B4D7
330
18
100
AcDbEntity
  8
1PHANTOM
100
AcDbLine
 10
5101.927169647495
 20
-178.3943488240657
 30
0.0000000001127424
 11
5101.865643853999
 21
-178.4734316369186
 31
0.0000000001127424
  0
LINE
  5
B4D8
330
18
100
AcDbEntity
  8
1PHANTOM
100
AcDbLine
 10
5101.865643853999
 20
-178.4734316369186
 30
0.0000000001127424
 11
5101.805590414167
 21
-178.553621103989
 31
0.0000000001127424
  0
LINE
  5
B4D9
330
18
100
AcDbEntity
  8
1PHANTOM
100
AcDbLine
 10
5101.805590414167
 20
-178.553621103989
 30
0.0000000001127424
 11
5101.747022442541
 21
-178.6348887066816
 31
0.0000000001127424
  0
LINE
  5
B4DA
330
18
100
AcDbEntity
  8
1PHANTOM
100
AcDbLine
 10
5101.747022442541
 20
-178.6348887066816
 30
0.0000000001127424
 11
5101.689953053663
 21
-178.7172059264004
 31
0.0000000001127424
  0
LINE
  5
B4DB
330
18
100
AcDbEntity
  8
1PHANTOM
100
AcDbLine
 10
5101.689953053663
 20
-178.7172059264004
 30
0.0000000001127424
 11
5101.634395362075
 21
-178.8005442445493
 31
0.0000000001127424
  0
LINE
  5
B4DC
330
18
100
AcDbEntity
  8
1PHANTOM
100
AcDbLine
 10
5101.634395362075
 20
-178.8005442445493
 30
0.0000000001127424
 11
5101.580362482322
 21
-178.8848751425331
 31
0.0000000001127424
  0
LINE
  5
B4DD
330
18
100
AcDbEntity
  8
1PHANTOM
100
AcDbLine
 10
5101.580362482322
 20
-178.8848751425331
 30
0.0000000001127424
 11
5101.527867528943
 21
-178.9701701017553
 31
0.0000000001127424
  0
LINE
  5
B4DE
330
18
100
AcDbEntity
  8
1PHANTOM
100
AcDbLine
 10
5101.527867528943
 20
-178.9701701017553
 30
0.0000000001127424
 11
5101.476923616483
 21
-179.0564006036203
 31
0.0000000001127424
  0
LINE
  5
B4DF
330
18
100
AcDbEntity
  8
1PHANTOM
100
AcDbLine
 10
5101.476923616483
 20
-179.0564006036203
 30
0.0000000001127424
 11
5101.427543859483
 21
-179.1435381295319
 31
0.0000000001127424
  0
LINE
  5
B4E0
330
18
100
AcDbEntity
  8
1PHANTOM
100
AcDbLine
 10
5101.427543859483
 20
-179.1435381295319
 30
0.0000000001127424
 11
5101.379741372487
 21
-179.2315541608951
 31
0.0000000001127424
  0
LINE
  5
B4E1
330
18
100
AcDbEntity
  8
1PHANTOM
100
AcDbLine
 10
5101.379741372487
 20
-179.2315541608951
 30
0.0000000001127424
 11
5101.333529270036
 21
-179.3204201791128
 31
0.0000000001127424
  0
LINE
  5
B4E2
330
18
100
AcDbEntity
  8
1PHANTOM
100
AcDbLine
 10
5101.333529270036
 20
-179.3204201791128
 30
0.0000000001127424
 11
5101.288920666673
 21
-179.4101076655898
 31
0.0000000001127424
  0
LINE
  5
B4E3
330
18
100
AcDbEntity
  8
1PHANTOM
100
AcDbLine
 10
5101.288920666673
 20
-179.4101076655898
 30
0.0000000001127424
 11
5101.24592867694
 21
-179.5005881017306
 31
0.0000000001127424
  0
LINE
  5
B4E4
330
18
100
AcDbEntity
  8
1PHANTOM
100
AcDbLine
 10
5101.24592867694
 20
-179.5005881017306
 30
0.0000000001127424
 11
5101.20456641538
 21
-179.5918329689389
 31
0.0000000001127424
  0
LINE
  5
B4E5
330
18
100
AcDbEntity
  8
1PHANTOM
100
AcDbLine
 10
5101.20456641538
 20
-179.5918329689389
 30
0.0000000001127424
 11
5101.164846996536
 21
-179.6838137486189
 31
0.0000000001127424
  0
LINE
  5
B4E6
330
18
100
AcDbEntity
  8
1PHANTOM
100
AcDbLine
 10
5101.164846996536
 20
-179.6838137486189
 30
0.0000000001127424
 11
5101.12606416085
 21
-179.7783011791972
 31
0.0000000001127424
  0
LINE
  5
B4E7
330
18
100
AcDbEntity
  8
1PHANTOM
100
AcDbLine
 10
5101.12606416085
 20
-179.7783011791972
 30
0.0000000001127424
 11
5101.089019079062
 21
-179.8734901395738
 31
0.0000000001127424
  0
LINE
  5
B4E8
330
18
100
AcDbEntity
  8
1PHANTOM
100
AcDbLine
 10
5101.089019079062
 20
-179.8734901395738
 30
0.0000000001127424
 11
5101.053728860297
 21
-179.9693471323781
 31
0.0000000001127424
  0
LINE
  5
B4E9
330
18
100
AcDbEntity
  8
1PHANTOM
100
AcDbLine
 10
5101.053728860297
 20
-179.9693471323781
 30
0.0000000001127424
 11
5101.020210613679
 21
-180.0658386602386
 31
0.0000000001127424
  0
LINE
  5
B4EA
330
18
100
AcDbEntity
  8
1PHANTOM
100
AcDbLine
 10
5101.020210613679
 20
-180.0658386602386
 30
0.0000000001127424
 11
5100.988481448332
 21
-180.1629312257847
 31
0.0000000001127424
  0
LINE
  5
B4EB
330
18
100
AcDbEntity
  8
1PHANTOM
100
AcDbLine
 10
5100.988481448332
 20
-180.1629312257847
 30
0.0000000001127424
 11
5100.958558473382
 21
-180.2605913316466
 31
0.0000000001127424
  0
LINE
  5
B4EC
330
18
100
AcDbEntity
  8
1PHANTOM
100
AcDbLine
 10
5100.958558473382
 20
-180.2605913316466
 30
0.0000000001127424
 11
5100.930458797954
 21
-180.3587854804519
 31
0.0000000001127424
  0
LINE
  5
B4ED
330
18
100
AcDbEntity
  8
1PHANTOM
100
AcDbLine
 10
5100.930458797954
 20
-180.3587854804519
 30
0.0000000001127424
 11
5100.904199531172
 21
-180.4574801748313
 31
0.0000000001127424
  0
LINE
  5
B4EE
330
18
100
AcDbEntity
  8
1PHANTOM
100
AcDbLine
 10
5100.904199531172
 20
-180.4574801748313
 30
0.0000000001127424
 11
5100.87979778216
 21
-180.5566419174129
 31
0.0000000001127424
  0
LINE
  5
B4EF
330
18
100
AcDbEntity
  8
1PHANTOM
100
AcDbLine
 10
5100.87979778216
 20
-180.5566419174129
 30
0.0000000001127424
 11
5100.857270660044
 21
-180.6562372108265
 31
0.0000000001127424
  0
LINE
  5
B4F0
330
18
100
AcDbEntity
  8
1PHANTOM
100
AcDbLine
 10
5100.857270660044
 20
-180.6562372108265
 30
0.0000000001127424
 11
5100.836635273949
 21
-180.7562325577019
 31
0.0000000001127424
  0
LINE
  5
B4F1
330
18
100
AcDbEntity
  8
1PHANTOM
100
AcDbLine
 10
5100.836635273949
 20
-180.7562325577019
 30
0.0000000001127424
 11
5100.817908732997
 21
-180.8565944606672
 31
0.0000000001127424
  0
LINE
  5
B4F2
330
18
100
AcDbEntity
  8
1PHANTOM
100
AcDbLine
 10
5100.817908732997
 20
-180.8565944606672
 30
0.0000000001127424
 11
5100.801108146316
 21
-180.9572894223521
 31
0.0000000001127424
  0
LINE
  5
B4F3
330
18
100
AcDbEntity
  8
1PHANTOM
100
AcDbLine
 10
5100.801108146316
 20
-180.9572894223521
 30
0.0000000001127424
 11
5100.786250623029
 21
-181.058283945386
 31
0.0000000001127424
  0
LINE
  5
B4F4
330
18
100
AcDbEntity
  8
1PHANTOM
100
AcDbLine
 10
5100.786250623029
 20
-181.058283945386
 30
0.0000000001127424
 11
5100.773353272261
 21
-181.1595445323979
 31
0.0000000001127424
  0
LINE
  5
B4F5
330
18
100
AcDbEntity
  8
1PHANTOM
100
AcDbLine
 10
5100.773353272261
 20
-181.1595445323979
 30
0.0000000001127424
 11
5100.762433203136
 21
-181.2610376860171
 31
0.0000000001127424
  0
LINE
  5
B4F6
330
18
100
AcDbEntity
  8
1PHANTOM
100
AcDbLine
 10
5100.762433203136
 20
-181.2610376860171
 30
0.0000000001127424
 11
5100.753576383866
 21
-181.3618024124608
 31
0.0000000001127424
  0
LINE
  5
B4F7
330
18
100
AcDbEntity
  8
1PHANTOM
100
AcDbLine
 10
5100.753576383866
 20
-181.3618024124608
 30
0.0000000001127424
 11
5100.746674301417
 21
-181.4627250295267
 31
0.0000000001127424
  0
LINE
  5
B4F8
330
18
100
AcDbEntity
  8
1PHANTOM
100
AcDbLine
 10
5100.746674301417
 20
-181.4627250295267
 30
0.0000000001127424
 11
5100.741723452853
 21
-181.5637679669963
 31
0.0000000001127424
  0
LINE
  5
B4F9
330
18
100
AcDbEntity
  8
1PHANTOM
100
AcDbLine
 10
5100.741723452853
 20
-181.5637679669963
 30
0.0000000001127424
 11
5100.738720335234
 21
-181.6648936546517
 31
0.0000000001127424
  0
LINE
  5
B4FA
330
18
100
AcDbEntity
  8
1PHANTOM
100
AcDbLine
 10
5100.738720335234
 20
-181.6648936546517
 30
0.0000000001127424
 11
5100.737661445623
 21
-181.7660645222759
 31
0.0000000001127424
  0
LINE
  5
B4FB
330
18
100
AcDbEntity
  8
1PHANTOM
100
AcDbLine
 10
5100.737661445623
 20
-181.7660645222759
 30
0.0000000001127424
 11
5100.738543281079
 21
-181.86724299965
 31
0.0000000001127424
  0
LINE
  5
B4FC
330
18
100
AcDbEntity
  8
1PHANTOM
100
AcDbLine
 10
5100.738543281079
 20
-181.86724299965
 30
0.0000000001127424
 11
5100.741362338665
 21
-181.9683915165566
 31
0.0000000001127424
  0
LINE
  5
B4FD
330
18
100
AcDbEntity
  8
1PHANTOM
100
AcDbLine
 10
5100.741362338665
 20
-181.9683915165566
 30
0.0000000001127424
 11
5100.746115115442
 21
-182.069472502778
 31
0.0000000001127424
  0
LINE
  5
B4FE
330
18
100
AcDbEntity
  8
1PHANTOM
100
AcDbLine
 10
5100.746115115442
 20
-182.069472502778
 30
0.0000000001127424
 11
5100.752798108472
 21
-182.1704483880958
 31
0.0000000001127424
  0
LINE
  5
B4FF
330
18
100
AcDbEntity
  8
1PHANTOM
100
AcDbLine
 10
5100.752798108472
 20
-182.1704483880958
 30
0.0000000001127424
 11
5100.761407814816
 21
-182.2712816022923
 31
0.0000000001127424
  0
LINE
  5
B500
330
18
100
AcDbEntity
  8
1PHANTOM
100
AcDbLine
 10
5100.761407814816
 20
-182.2712816022923
 30
0.0000000001127424
 11
5100.771940731536
 21
-182.3719345751497
 31
0.0000000001127424
  0
LINE
  5
B501
330
18
100
AcDbEntity
  8
1PHANTOM
100
AcDbLine
 10
5100.771940731536
 20
-182.3719345751497
 30
0.0000000001127424
 11
5100.784393355694
 21
-182.4723697364507
 31
0.0000000001127424
  0
LINE
  5
B502
330
18
100
AcDbEntity
  8
1PHANTOM
100
AcDbLine
 10
5100.784393355694
 20
-182.4723697364507
 30
0.0000000001127424
 11
5100.798762184349
 21
-182.5725495159768
 31
0.0000000001127424
  0
LINE
  5
B503
330
18
100
AcDbEntity
  8
1PHANTOM
100
AcDbLine
 10
5100.798762184349
 20
-182.5725495159768
 30
0.0000000001127424
 11
5100.815043714566
 21
-182.6724363435097
 31
0.0000000001127424
  0
LINE
  5
B504
330
18
100
AcDbEntity
  8
1PHANTOM
100
AcDbLine
 10
5100.815043714566
 20
-182.6724363435097
 30
0.0000000001127424
 11
5100.833234443404
 21
-182.7719926488326
 31
0.0000000001127424
  0
LINE
  5
B505
330
18
100
AcDbEntity
  8
1PHANTOM
100
AcDbLine
 10
5100.833234443404
 20
-182.7719926488326
 30
0.0000000001127424
 11
5100.853330867924
 21
-182.8711808617273
 31
0.0000000001127424
  0
LINE
  5
B506
330
18
100
AcDbEntity
  8
1PHANTOM
100
AcDbLine
 10
5100.853330867924
 20
-182.8711808617273
 30
0.0000000001127424
 11
5100.87488537985
 21
-182.9680590139379
 31
0.0000000001127424
  0
LINE
  5
B507
330
18
100
AcDbEntity
  8
1PHANTOM
100
AcDbLine
 10
5100.87488537985
 20
-182.9680590139379
 30
0.0000000001127424
 11
5100.898259677618
 21
-183.064512718358
 31
0.0000000001127424
  0
LINE
  5
B508
330
18
100
AcDbEntity
  8
1PHANTOM
100
AcDbLine
 10
5100.898259677618
 20
-183.064512718358
 30
0.0000000001127424
 11
5100.923444152022
 21
-183.1605076649681
 31
0.0000000001127424
  0
LINE
  5
B509
330
18
100
AcDbEntity
  8
1PHANTOM
100
AcDbLine
 10
5100.923444152022
 20
-183.1605076649681
 30
0.0000000001127424
 11
5100.950429193855
 21
-183.2560095437485
 31
0.0000000001127424
  0
LINE
  5
B50A
330
18
100
AcDbEntity
  8
1PHANTOM
100
AcDbLine
 10
5100.950429193855
 20
-183.2560095437485
 30
0.0000000001127424
 11
5100.979205193909
 21
-183.3509840446796
 31
0.0000000001127424
  0
LINE
  5
B50B
330
18
100
AcDbEntity
  8
1PHANTOM
100
AcDbLine
 10
5100.979205193909
 20
-183.3509840446796
 30
0.0000000001127424
 11
5101.009762542977
 21
-183.4453968577409
 31
0.0000000001127424
  0
LINE
  5
B50C
330
18
100
AcDbEntity
  8
1PHANTOM
100
AcDbLine
 10
5101.009762542977
 20
-183.4453968577409
 30
0.0000000001127424
 11
5101.042091631852
 21
-183.5392136729143
 31
0.0000000001127424
  0
LINE
  5
B50D
330
18
100
AcDbEntity
  8
1PHANTOM
100
AcDbLine
 10
5101.042091631852
 20
-183.5392136729143
 30
0.0000000001127424
 11
5101.076182851326
 21
-183.6324001801791
 31
0.0000000001127424
  0
LINE
  5
B50E
330
18
100
AcDbEntity
  8
1PHANTOM
100
AcDbLine
 10
5101.076182851326
 20
-183.6324001801791
 30
0.0000000001127424
 11
5101.112026592193
 21
-183.7249220695158
 31
0.0000000001127424
  0
LINE
  5
B50F
330
18
100
AcDbEntity
  8
1PHANTOM
100
AcDbLine
 10
5101.112026592193
 20
-183.7249220695158
 30
0.0000000001127424
 11
5101.149613245243
 21
-183.8167450309052
 31
0.0000000001127424
  0
LINE
  5
B510
330
18
100
AcDbEntity
  8
1PHANTOM
100
AcDbLine
 10
5101.149613245243
 20
-183.8167450309052
 30
0.0000000001127424
 11
5101.188933201272
 21
-183.9078347543273
 31
0.0000000001127424
  0
LINE
  5
B511
330
18
100
AcDbEntity
  8
1PHANTOM
100
AcDbLine
 10
5101.188933201272
 20
-183.9078347543273
 30
0.0000000001127424
 11
5101.229976851071
 21
-183.998156929763
 31
0.0000000001127424
  0
LINE
  5
B512
330
18
100
AcDbEntity
  8
1PHANTOM
100
AcDbLine
 10
5101.229976851071
 20
-183.998156929763
 30
0.0000000001127424
 11
5101.272734585434
 21
-184.0876772471921
 31
0.0000000001127424
  0
LINE
  5
B513
330
18
100
AcDbEntity
  8
1PHANTOM
100
AcDbLine
 10
5101.272734585434
 20
-184.0876772471921
 30
0.0000000001127424
 11
5101.317196795151
 21
-184.176361396595
 31
0.0000000001127424
  0
LINE
  5
B514
330
18
100
AcDbEntity
  8
1PHANTOM
100
AcDbLine
 10
5101.317196795151
 20
-184.176361396595
 30
0.0000000001127424
 11
5101.363353871018
 21
-184.2641750679518
 31
0.0000000001127424
  0
LINE
  5
B515
330
18
100
AcDbEntity
  8
1PHANTOM
100
AcDbLine
 10
5101.363353871018
 20
-184.2641750679518
 30
0.0000000001127424
 11
5101.411196203825
 21
-184.3510839512438
 31
0.0000000001127424
  0
LINE
  5
B516
330
18
100
AcDbEntity
  8
1PHANTOM
100
AcDbLine
 10
5101.411196203825
 20
-184.3510839512438
 30
0.0000000001127424
 11
5101.460647893757
 21
-184.4369468574219
 31
0.0000000001127424
  0
LINE
  5
B517
330
18
100
AcDbEntity
  8
1PHANTOM
100
AcDbLine
 10
5101.460647893757
 20
-184.4369468574219
 30
0.0000000001127424
 11
5101.51174582651
 21
-184.5218464159703
 31
0.0000000001127424
  0
LINE
  5
B518
330
18
100
AcDbEntity
  8
1PHANTOM
100
AcDbLine
 10
5101.51174582651
 20
-184.5218464159703
 30
0.0000000001127424
 11
5101.56446483366
 21
-184.6057560030541
 31
0.0000000001127424
  0
LINE
  5
B519
330
18
100
AcDbEntity
  8
1PHANTOM
100
AcDbLine
 10
5101.56446483366
 20
-184.6057560030541
 30
0.0000000001127424
 11
5101.618779746777
 21
-184.6886489948379
 31
0.0000000001127424
  0
LINE
  5
B51A
330
18
100
AcDbEntity
  8
1PHANTOM
100
AcDbLine
 10
5101.618779746777
 20
-184.6886489948379
 30
0.0000000001127424
 11
5101.674665397433
 21
-184.7704987674875
 31
0.0000000001127424
  0
LINE
  5
B51B
330
18
100
AcDbEntity
  8
1PHANTOM
100
AcDbLine
 10
5101.674665397433
 20
-184.7704987674875
 30
0.0000000001127424
 11
5101.732096617203
 21
-184.8512786971679
 31
0.0000000001127424
  0
LINE
  5
B51C
330
18
100
AcDbEntity
  8
1PHANTOM
100
AcDbLine
 10
5101.732096617203
 20
-184.8512786971679
 30
0.0000000001127424
 11
5101.791048237656
 21
-184.9309621600442
 31
0.0000000001127424
  0
LINE
  5
B51D
330
18
100
AcDbEntity
  8
1PHANTOM
100
AcDbLine
 10
5101.791048237656
 20
-184.9309621600442
 30
0.0000000001127424
 11
5101.851495090366
 21
-185.0095225322821
 31
0.0000000001127424
  0
LINE
  5
B51E
330
18
100
AcDbEntity
  8
1PHANTOM
100
AcDbLine
 10
5101.851495090366
 20
-185.0095225322821
 30
0.0000000001127424
 11
5101.913412006905
 21
-185.0869331900458
 31
0.0000000001127424
  0
LINE
  5
B51F
330
18
100
AcDbEntity
  8
1PHANTOM
100
AcDbLine
 10
5101.913412006905
 20
-185.0869331900458
 30
0.0000000001127424
 11
5101.976773818846
 21
-185.1631675095014
 31
0.0000000001127424
  0
LINE
  5
B520
330
18
100
AcDbEntity
  8
1PHANTOM
100
AcDbLine
 10
5101.976773818846
 20
-185.1631675095014
 30
0.0000000001127424
 11
5102.04155535776
 21
-185.2381988668135
 31
0.0000000001127424
  0
LINE
  5
B521
330
18
100
AcDbEntity
  8
1PHANTOM
100
AcDbLine
 10
5102.04155535776
 20
-185.2381988668135
 30
0.0000000001127424
 11
5102.10773145522
 21
-185.3120006381478
 31
0.0000000001127424
  0
LINE
  5
B522
330
18
100
AcDbEntity
  8
1PHANTOM
100
AcDbLine
 10
5102.10773145522
 20
-185.3120006381478
 30
0.0000000001127424
 11
5102.175276942799
 21
-185.3845461996689
 31
0.0000000001127424
  0
LINE
  5
B523
330
18
100
AcDbEntity
  8
1PHANTOM
100
AcDbLine
 10
5102.175276942799
 20
-185.3845461996689
 30
0.0000000001127424
 11
5102.244166652068
 21
-185.4558089275425
 31
0.0000000001127424
  0
LINE
  5
B524
330
18
100
AcDbEntity
  8
1PHANTOM
100
AcDbLine
 10
5102.244166652068
 20
-185.4558089275425
 30
0.0000000001127424
 11
5102.314375414599
 21
-185.5257621979336
 31
0.0000000001127424
  0
LINE
  5
B525
330
18
100
AcDbEntity
  8
1PHANTOM
100
AcDbLine
 10
5102.314375414599
 20
-185.5257621979336
 30
0.0000000001127424
 11
5102.385878061967
 21
-185.594379387007
 31
0.0000000001127424
  0
LINE
  5
B526
330
18
100
AcDbEntity
  8
1PHANTOM
100
AcDbLine
 10
5102.385878061967
 20
-185.594379387007
 30
0.0000000001127424
 11
5102.455076550023
 21
-185.6583901659929
 31
0.0000000001127424
  0
LINE
  5
B527
330
18
100
AcDbEntity
  8
1PHANTOM
100
AcDbLine
 10
5102.455076550023
 20
-185.6583901659929
 30
0.0000000001127424
 11
5102.525405412012
 21
-185.7211455718007
 31
0.0000000001127424
  0
LINE
  5
B528
330
18
100
AcDbEntity
  8
1PHANTOM
100
AcDbLine
 10
5102.525405412012
 20
-185.7211455718007
 30
0.0000000001127424
 11
5102.596846887602
 21
-185.7826234213258
 31
0.0000000001127424
  0
LINE
  5
B529
330
18
100
AcDbEntity
  8
1PHANTOM
100
AcDbLine
 10
5102.596846887602
 20
-185.7826234213258
 30
0.0000000001127424
 11
5102.669383216456
 21
-185.8428015314644
 31
0.0000000001127424
  0
LINE
  5
B52A
330
18
100
AcDbEntity
  8
1PHANTOM
100
AcDbLine
 10
5102.669383216456
 20
-185.8428015314644
 30
0.0000000001127424
 11
5102.742996638241
 21
-185.9016577191128
 31
0.0000000001127424
  0
LINE
  5
B52B
330
18
100
AcDbEntity
  8
1PHANTOM
100
AcDbLine
 10
5102.742996638241
 20
-185.9016577191128
 30
0.0000000001127424
 11
5102.817669392623
 21
-185.9591698011664
 31
0.0000000001127424
  0
LINE
  5
B52C
330
18
100
AcDbEntity
  8
1PHANTOM
100
AcDbLine
 10
5102.817669392623
 20
-185.9591698011664
 30
0.0000000001127424
 11
5102.893383719271
 21
-186.0153155945218
 31
0.0000000001127424
  0
LINE
  5
B52D
330
18
100
AcDbEntity
  8
1PHANTOM
100
AcDbLine
 10
5102.893383719271
 20
-186.0153155945218
 30
0.0000000001127424
 11
5102.970121857848
 21
-186.0700729160745
 31
0.0000000001127424
  0
LINE
  5
B52E
330
18
100
AcDbEntity
  8
1PHANTOM
100
AcDbLine
 10
5102.970121857848
 20
-186.0700729160745
 30
0.0000000001127424
 11
5103.050232890222
 21
-186.1250148941081
 31
0.0000000001127424
  0
LINE
  5
B52F
330
18
100
AcDbEntity
  8
1PHANTOM
100
AcDbLine
 10
5103.050232890222
 20
-186.1250148941081
 30
0.0000000001127424
 11
5103.13137432933
 21
-186.178447469381
 31
0.0000000001127424
  0
LINE
  5
B530
330
18
100
AcDbEntity
  8
1PHANTOM
100
AcDbLine
 10
5103.13137432933
 20
-186.178447469381
 30
0.0000000001127424
 11
5103.213508674628
 21
-186.2303586261924
 31
0.0000000001127424
  0
LINE
  5
B531
330
18
100
AcDbEntity
  8
1PHANTOM
100
AcDbLine
 10
5103.213508674628
 20
-186.2303586261924
 30
0.0000000001127424
 11
5103.296598425566
 21
-186.2807363488424
 31
0.0000000001127424
  0
LINE
  5
B532
330
18
100
AcDbEntity
  8
1PHANTOM
100
AcDbLine
 10
5103.296598425566
 20
-186.2807363488424
 30
0.0000000001127424
 11
5103.380606081603
 21
-186.3295686216316
 31
0.0000000001127424
  0
LINE
  5
B533
330
18
100
AcDbEntity
  8
1PHANTOM
100
AcDbLine
 10
5103.380606081603
 20
-186.3295686216316
 30
0.0000000001127424
 11
5103.465494142191
 21
-186.3768434288605
 31
0.0000000001127424
  0
LINE
  5
B534
330
18
100
AcDbEntity
  8
1PHANTOM
100
AcDbLine
 10
5103.465494142191
 20
-186.3768434288605
 30
0.0000000001127424
 11
5103.551225106787
 21
-186.4225487548284
 31
0.0000000001127424
  0
LINE
  5
B535
330
18
100
AcDbEntity
  8
1PHANTOM
100
AcDbLine
 10
5103.551225106787
 20
-186.4225487548284
 30
0.0000000001127424
 11
5103.637761474842
 21
-186.4666725838352
 31
0.0000000001127424
  0
LINE
  5
B536
330
18
100
AcDbEntity
  8
1PHANTOM
100
AcDbLine
 10
5103.637761474842
 20
-186.4666725838352
 30
0.0000000001127424
 11
5103.726464870962
 21
-186.5098722231074
 31
0.0000000001127424
  0
LINE
  5
B537
330
18
100
AcDbEntity
  8
1PHANTOM
100
AcDbLine
 10
5103.726464870962
 20
-186.5098722231074
 30
0.0000000001127424
 11
5103.815927939553
 21
-186.5514394966177
 31
0.0000000001127424
  0
LINE
  5
B538
330
18
100
AcDbEntity
  8
1PHANTOM
100
AcDbLine
 10
5103.815927939553
 20
-186.5514394966177
 30
0.0000000001127424
 11
5103.906117766957
 21
-186.5913867725877
 31
0.0000000001127424
  0
LINE
  5
B539
330
18
100
AcDbEntity
  8
1PHANTOM
100
AcDbLine
 10
5103.906117766957
 20
-186.5913867725877
 30
0.0000000001127424
 11
5103.997001439522
 21
-186.6297264192395
 31
0.0000000001127424
  0
LINE
  5
B53A
330
18
100
AcDbEntity
  8
1PHANTOM
100
AcDbLine
 10
5103.997001439522
 20
-186.6297264192395
 30
0.0000000001127424
 11
5104.180718665515
 21
-186.7016322974778
 31
0.0000000001127424
  0
LINE
  5
B53B
330
18
100
AcDbEntity
  8
1PHANTOM
100
AcDbLine
 10
5104.180718665515
 20
-186.7016322974778
 30
0.0000000001127424
 11
5104.366816308298
 21
-186.7672560771098
 31
0.0000000001127424
  0
LINE
  5
B53C
330
18
100
AcDbEntity
  8
1PHANTOM
100
AcDbLine
 10
5104.366816308298
 20
-186.7672560771098
 30
0.0000000001127424
 11
5104.555031058637
 21
-186.8266967039127
 31
0.0000000001127424
  0
LINE
  5
B53D
330
18
100
AcDbEntity
  8
1PHANTOM
100
AcDbLine
 10
5104.555031058637
 20
-186.8266967039127
 30
0.0000000001127424
 11
5104.745099607296
 21
-186.8800531236621
 31
0.0000000001127424
  0
LINE
  5
B53E
330
18
100
AcDbEntity
  8
1PHANTOM
100
AcDbLine
 10
5104.745099607296
 20
-186.8800531236621
 30
0.0000000001127424
 11
5104.936758645043
 21
-186.9274242821357
 31
0.0000000001127424
  0
LINE
  5
B53F
330
18
100
AcDbEntity
  8
1PHANTOM
100
AcDbLine
 10
5104.936758645043
 20
-186.9274242821357
 30
0.0000000001127424
 11
5105.129744862642
 21
-186.9689091251099
 31
0.0000000001127424
  0
LINE
  5
B540
330
18
100
AcDbEntity
  8
1PHANTOM
100
AcDbLine
 10
5105.129744862642
 20
-186.9689091251099
 30
0.0000000001127424
 11
5105.339758735554
 21
-187.0073302990355
 31
0.0000000001127424
  0
LINE
  5
B541
330
18
100
AcDbEntity
  8
1PHANTOM
100
AcDbLine
 10
5105.339758735554
 20
-187.0073302990355
 30
0.0000000001127424
 11
5105.550813408873
 21
-187.0394120395468
 31
0.0000000001127424
  0
LINE
  5
B542
330
18
100
AcDbEntity
  8
1PHANTOM
100
AcDbLine
 10
5105.550813408873
 20
-187.0394120395468
 30
0.0000000001127424
 11
5105.762704289398
 21
-187.0655897532648
 31
0.0000000001127424
  0
LINE
  5
B543
330
18
100
AcDbEntity
  8
1PHANTOM
100
AcDbLine
 10
5105.762704289398
 20
-187.0655897532648
 30
0.0000000001127424
 11
5105.975226783928
 21
-187.0862988468103
 31
0.0000000001127424
  0
LINE
  5
B544
330
18
100
AcDbEntity
  8
1PHANTOM
100
AcDbLine
 10
5105.975226783928
 20
-187.0862988468103
 30
0.0000000001127424
 11
5106.21222855166
 21
-187.1034441500011
 31
0.0000000001127424
  0
LINE
  5
B545
330
18
100
AcDbEntity
  8
1PHANTOM
100
AcDbLine
 10
5106.21222855166
 20
-187.1034441500011
 30
0.0000000001127424
 11
5106.449590981781
 21
-187.1149457910988
 31
0.0000000001127424
  0
LINE
  5
B546
330
18
100
AcDbEntity
  8
1PHANTOM
100
AcDbLine
 10
5106.449590981781
 20
-187.1149457910988
 30
0.0000000001127424
 11
5106.687145969726
 21
-187.1213925841667
 31
0.0000000001127424
  0
LINE
  5
B547
330
18
100
AcDbEntity
  8
1PHANTOM
100
AcDbLine
 10
5106.687145969726
 20
-187.1213925841667
 30
0.0000000001127424
 11
5106.924725410934
 21
-187.1233733432651
 31
0.0000000001127424
  0
LINE
  5
B548
330
18
100
AcDbEntity
  8
1PHANTOM
100
AcDbLine
 10
5101.990154680112
 20
-178.3164011840273
 30
0.0000000001127424
 11
5102.369442904137
 21
-178.628953745505
 31
0.0000000001127424
  0
ARC
  5
B549
330
18
100
AcDbEntity
  8
1PHANTOM
100
AcDbCircle
 10
5105.836527035772
 20
-181.9490574615848
 30
0.0000000001127424
 40
4.800391761237224
100
AcDbArc
 50
136.2405788088784
 51
283.1016860682285
  0
LINE
  5
B54A
330
18
100
AcDbEntity
  8
1PHANTOM
100
AcDbLine
 10
5220.665636280459
 20
-184.8807510311036
 30
0.0000000001127424
 11
5220.183623617423
 21
-184.7519262756146
 31
0.0000000001127424
  0
ARC
  5
B54B
330
18
100
AcDbEntity
  8
01
100
AcDbCircle
 10
5000.998903146767
 20
-305.6637049840177
 30
0.0000000000563712
 40
1.000000014123913
100
AcDbArc
 50
344.7448819599412
 51
13.36669107599606
  0
LINE
  5
B54C
330
18
100
AcDbEntity
  8
01
100
AcDbLine
 10
4963.335426424295
 20
-295.6637049840172
 30
0.0000000000563712
 11
4963.535426424296
 21
-295.6637049840172
 31
0.0000000000563712
  0
LINE
  5
B54D
330
18
100
AcDbEntity
  8
01
100
AcDbLine
 10
4962.835426424295
 20
-297.7137049840174
 30
0.0000000000563712
 11
4963.335426424295
 21
-297.7137049840174
 31
0.0000000000563712
  0
LINE
  5
B54E
330
18
100
AcDbEntity
  8
01
100
AcDbLine
 10
4962.835426424295
 20
-313.6137049840175
 30
0.0000000000563712
 11
4963.335426424295
 21
-313.6137049840175
 31
0.0000000000563712
  0
LINE
  5
B54F
330
18
100
AcDbEntity
  8
01
100
AcDbLine
 10
4963.335426424295
 20
-315.6637049840172
 30
0.0000000000563712
 11
4963.535426424296
 21
-315.6637049840172
 31
0.0000000000563712
  0
LINE
  5
B550
330
18
100
AcDbEntity
  8
01
100
AcDbLine
 10
4997.889732617308
 20
-316.6637049840172
 30
0.0000000000563712
 11
4963.535426424296
 21
-316.6637049840172
 31
0.0000000000563712
  0
ARC
  5
B551
330
18
100
AcDbEntity
  8
01
100
AcDbCircle
 10
5000.99890291875
 20
-305.6637049812683
 30
0.0000000000563712
 40
1.000000186442485
100
AcDbArc
 50
13.36668790332522
 51
15.25511533782049
  0
LINE
  5
B552
330
18
100
AcDbEntity
  8
1PHANTOM
100
AcDbLine
 10
4963.535426424296
 20
-305.9268224140363
 30
0.0000000000563712
 11
5001.963666939986
 21
-305.9268223678217
 31
0.0000000000563712
  0
LINE
  5
B553
330
18
100
AcDbEntity
  8
01
100
AcDbLine
 10
4999.336878347467
 20
-295.769028880646
 30
0.0000000000563712
 11
5001.963667006456
 21
-305.4005878439332
 31
0.0000000000563712
  0
LINE
  5
B554
330
18
100
AcDbEntity
  8
01
100
AcDbLine
 10
4999.336878347467
 20
-315.5583810873885
 30
0.0000000000563712
 11
5001.963747558892
 21
-305.9265267651502
 31
0.0000000000563712
  0
ARC
  5
B555
330
18
100
AcDbEntity
  8
01
100
AcDbCircle
 10
4997.889732617306
 20
-296.1637049798986
 30
0.0000000000563712
 40
1.499999995881516
100
AcDbArc
 50
15.25511837239016
 51
90.00000019624704
  0
ARC
  5
B556
330
18
100
AcDbEntity
  8
01
100
AcDbCircle
 10
4997.889732617308
 20
-315.1637049881377
 30
0.0000000000563712
 40
1.499999995879549
100
AcDbArc
 50
269.9999998036834
 51
344.7448816276565
  0
LINE
  5
B557
330
18
100
AcDbEntity
  8
01
100
AcDbLine
 10
4963.535426424296
 20
-315.1637049840172
 30
0.0000000000563712
 11
4963.535426424296
 21
-316.6637049840172
 31
0.0000000000563712
  0
LINE
  5
B558
330
18
100
AcDbEntity
  8
01
100
AcDbLine
 10
4963.535426424295
 20
-296.1637049840172
 30
0.0000000000563712
 11
4963.535426424296
 21
-315.1637049840172
 31
0.0000000000563712
  0
LINE
  5
B559
330
18
100
AcDbEntity
  8
01
100
AcDbLine
 10
4963.535426424296
 20
-294.6637106175575
 30
0.0000000000563712
 11
4963.535426424295
 21
-296.1637049840172
 31
0.0000000000563712
  0
LINE
  5
B55A
330
18
100
AcDbEntity
  8
01
100
AcDbLine
 10
4963.335426424295
 20
-295.6643181196467
 30
0.0000000000563712
 11
4963.335426424295
 21
-305.6637049840172
 31
0.0000000000563712
  0
LINE
  5
B55B
330
18
100
AcDbEntity
  8
01
100
AcDbLine
 10
4963.335426424295
 20
-315.6630918483882
 30
0.0000000000563712
 11
4963.335426424295
 21
-305.6637049840172
 31
0.0000000000563712
  0
LINE
  5
B55C
330
18
100
AcDbEntity
  8
1PHANTOM
100
AcDbLine
 10
4999.336878346541
 20
-315.5583810907841
 30
0.0000000000563712
 11
4963.535426424296
 21
-315.5583810961919
 31
0.0000000000563712
  0
LINE
  5
B55D
330
18
100
AcDbEntity
  8
1DIM
100
AcDbLine
 10
5001.963667006456
 20
-305.4005878439332
 30
0.0000000000563712
 11
5002.035426222403
 21
-305.6637049840177
 31
0.0000000000563712
  0
LINE
  5
B55E
330
18
100
AcDbEntity
  8
1DIM
100
AcDbLine
 10
5001.963666926755
 20
-305.9268224163368
 30
0.0000000000563712
 11
5002.035426222403
 21
-305.6637049840177
 31
0.0000000000563712
  0
LINE
  5
B55F
330
18
100
AcDbEntity
  8
01
100
AcDbLine
 10
4997.889732617308
 20
-294.6637106175575
 30
0.0000000000563712
 11
4963.535426424296
 21
-294.6637106175575
 31
0.0000000000563712
  0
LINE
  5
B560
330
18
100
AcDbEntity
  8
1PHANTOM
100
AcDbLine
 10
4963.535426424296
 20
-305.4005931875384
 30
0.0000000000563712
 11
5001.963666939986
 21
-305.400593233753
 31
0.0000000000563712
  0
LINE
  5
B561
330
18
100
AcDbEntity
  8
1PHANTOM
100
AcDbLine
 10
4999.336878346541
 20
-295.7690345107906
 30
0.0000000000563712
 11
4963.535426424296
 21
-295.7690345053828
 31
0.0000000000563712
  0
LINE
  5
B562
330
18
100
AcDbEntity
  8
01
100
AcDbLine
 10
5225.259574105415
 20
-174.8650311281754
 30
0.0000000001127424
 11
5225.258491879431
 21
-174.8650306757414
 31
0.0000000001127424
  0
LINE
  5
B563
330
18
100
AcDbEntity
  8
01
100
AcDbLine
 10
5219.190468670451
 20
-174.8650307066474
 30
0.0000000001127424
 11
5222.046115086683
 21
-174.8650307066478
 31
0.0000000001127424
  0
LINE
  5
B564
330
18
100
AcDbEntity
  8
01
100
AcDbLine
 10
5229.268640462816
 20
-176.7486993846006
 30
0.0000000001127424
 11
5226.606500155014
 21
-186.6839422201329
 31
0.0000000001127424
  0
LINE
  5
B565
330
18
100
AcDbEntity
  8
01
100
AcDbLine
 10
5227.800952560213
 20
-174.865031282513
 30
0.0000000001127424
 11
5227.799624153231
 21
-174.8650307066474
 31
0.0000000001127424
  0
ARC
  5
B566
330
18
100
AcDbEntity
  8
01
100
AcDbCircle
 10
5227.817512969224
 20
-176.3677519254439
 30
0.0000000001127424
 40
1.500297294880884
100
AcDbArc
 50
345.290718006017
 51
80.82470723654778
  0
LINE
  5
B567
330
18
100
AcDbEntity
  8
01
100
AcDbLine
 10
5221.703436960348
 20
-174.8650307066478
 30
0.0000000001127424
 11
5225.258491879418
 21
-174.8650307066474
 31
0.0000000001127424
  0
ARC
  5
B568
330
18
100
AcDbEntity
  8
1PHANTOM
100
AcDbCircle
 10
5227.122760470075
 20
-177.3219632125984
 30
0.0000000001127424
 40
0.7461437995126257
100
AcDbArc
 50
128.6913632011413
 51
173.6609031525003
  0
ARC
  5
B569
330
18
100
AcDbEntity
  8
1PHANTOM
100
AcDbCircle
 10
5232.357664856099
 20
-176.8606211934844
 30
0.0000000001127424
 40
7.374322907494114
100
AcDbArc
 50
164.2992298944101
 51
180.0342602985429
  0
LINE
  5
B56A
330
18
100
AcDbEntity
  8
1PHANTOM
100
AcDbLine
 10
5224.98334326695
 20
-176.8650307065664
 30
0.0000000001127424
 11
5226.38117870956
 21
-177.2395795854496
 31
0.0000000001127424
  0
LINE
  5
B56B
330
18
100
AcDbEntity
  8
1PHANTOM
100
AcDbLine
 10
5226.38117870956
 20
-177.2395795854496
 30
0.0000000001127424
 11
5224.034950381573
 21
-185.9958229182949
 31
0.0000000001127424
  0
LINE
  5
B56C
330
18
100
AcDbEntity
  8
01
100
AcDbLine
 10
5217.009319260734
 20
-180.1414878436336
 30
0.0000000001127424
 11
5218.224542843788
 21
-175.6062116629387
 31
0.0000000001127424
  0
LINE
  5
B56D
330
18
100
AcDbEntity
  8
1PHANTOM
100
AcDbLine
 10
5229.234604937077
 20
-176.7395795792823
 30
0.0000000001127424
 11
5226.656327322404
 21
-176.7395795861935
 31
0.0000000001127424
  0
ARC
  5
B56E
330
18
100
AcDbEntity
  8
1PHANTOM
100
AcDbCircle
 10
5225.219275443542
 20
-176.3527256225726
 30
0.0000000001127424
 40
1.488211709304688
100
AcDbArc
 50
344.9331706004916
 51
88.49000221259715
  0
LINE
  5
B56F
330
18
100
AcDbEntity
  8
01
100
AcDbLine
 10
5227.799624153231
 20
-174.8650307066474
 30
0.0000000001127424
 11
5225.259574105366
 21
-174.8650307066474
 31
0.0000000001127424
  0
LINE
  5
B570
330
18
100
AcDbEntity
  8
1PHANTOM
100
AcDbLine
 10
5222.331553607112
 20
-176.7359090806804
 30
0.0000000001127424
 11
5220.183575065133
 21
-184.7521873820056
 31
0.0000000001127424
  0
LINE
  5
B571
330
18
100
AcDbEntity
  8
1PHANTOM
100
AcDbLine
 10
5222.331553607112
 20
-176.7359090806804
 30
0.0000000001127424
 11
5222.813442074081
 21
-176.8650307066437
 31
0.0000000001127424
  0
LINE
  5
B572
330
18
100
AcDbEntity
  8
1PHANTOM
100
AcDbLine
 10
5222.331553607112
 20
-176.7359090806804
 30
0.0000000001127424
 11
5222.334344029732
 21
-176.7251052383263
 31
0.0000000001127424
  0
LINE
  5
B573
330
18
100
AcDbEntity
  8
1PHANTOM
100
AcDbLine
 10
5222.334344029732
 20
-176.7251052383263
 30
0.0000000001127424
 11
5222.336900291974
 21
-176.7142386409087
 31
0.0000000001127424
  0
LINE
  5
B574
330
18
100
AcDbEntity
  8
1PHANTOM
100
AcDbLine
 10
5222.336900291974
 20
-176.7142386409087
 30
0.0000000001127424
 11
5222.339221004881
 21
-176.7033151520796
 31
0.0000000001127424
  0
LINE
  5
B575
330
18
100
AcDbEntity
  8
1PHANTOM
100
AcDbLine
 10
5222.339221004881
 20
-176.7033151520796
 30
0.0000000001127424
 11
5222.341304779499
 21
-176.69234063549
 31
0.0000000001127424
  0
LINE
  5
B576
330
18
100
AcDbEntity
  8
1PHANTOM
100
AcDbLine
 10
5222.341304779499
 20
-176.69234063549
 30
0.0000000001127424
 11
5222.34315022687
 21
-176.6813209547918
 31
0.0000000001127424
  0
LINE
  5
B577
330
18
100
AcDbEntity
  8
1PHANTOM
100
AcDbLine
 10
5222.34315022687
 20
-176.6813209547918
 30
0.0000000001127424
 11
5222.344755958038
 21
-176.6702619736362
 31
0.0000000001127424
  0
LINE
  5
B578
330
18
100
AcDbEntity
  8
1PHANTOM
100
AcDbLine
 10
5222.344755958038
 20
-176.6702619736362
 30
0.0000000001127424
 11
5222.346120584049
 21
-176.659169555675
 31
0.0000000001127424
  0
LINE
  5
B579
330
18
100
AcDbEntity
  8
1PHANTOM
100
AcDbLine
 10
5222.346120584049
 20
-176.659169555675
 30
0.0000000001127424
 11
5222.347242715943
 21
-176.6480495645592
 31
0.0000000001127424
  0
LINE
  5
B57A
330
18
100
AcDbEntity
  8
1PHANTOM
100
AcDbLine
 10
5222.347242715943
 20
-176.6480495645592
 30
0.0000000001127424
 11
5222.348120964766
 21
-176.636907863941
 31
0.0000000001127424
  0
LINE
  5
B57B
330
18
100
AcDbEntity
  8
1PHANTOM
100
AcDbLine
 10
5222.348120964766
 20
-176.636907863941
 30
0.0000000001127424
 11
5222.348753941562
 21
-176.6257503174707
 31
0.0000000001127424
  0
LINE
  5
B57C
330
18
100
AcDbEntity
  8
1PHANTOM
100
AcDbLine
 10
5222.348753941562
 20
-176.6257503174707
 30
0.0000000001127424
 11
5222.349140257375
 21
-176.6145827888004
 31
0.0000000001127424
  0
LINE
  5
B57D
330
18
100
AcDbEntity
  8
1PHANTOM
100
AcDbLine
 10
5222.349140257375
 20
-176.6145827888004
 30
0.0000000001127424
 11
5222.349278523247
 21
-176.6034111415821
 31
0.0000000001127424
  0
LINE
  5
B57E
330
18
100
AcDbEntity
  8
1PHANTOM
100
AcDbLine
 10
5222.349278523247
 20
-176.6034111415821
 30
0.0000000001127424
 11
5222.349167350223
 21
-176.5922412394662
 31
0.0000000001127424
  0
LINE
  5
B57F
330
18
100
AcDbEntity
  8
1PHANTOM
100
AcDbLine
 10
5222.349167350223
 20
-176.5922412394662
 30
0.0000000001127424
 11
5222.348805349347
 21
-176.5810789461048
 31
0.0000000001127424
  0
LINE
  5
B580
330
18
100
AcDbEntity
  8
1PHANTOM
100
AcDbLine
 10
5222.348805349347
 20
-176.5810789461048
 30
0.0000000001127424
 11
5222.348191131663
 21
-176.5699301251494
 31
0.0000000001127424
  0
LINE
  5
B581
330
18
100
AcDbEntity
  8
1PHANTOM
100
AcDbLine
 10
5222.348191131663
 20
-176.5699301251494
 30
0.0000000001127424
 11
5222.347323308214
 21
-176.5588006402509
 31
0.0000000001127424
  0
LINE
  5
B582
330
18
100
AcDbEntity
  8
1PHANTOM
100
AcDbLine
 10
5222.347323308214
 20
-176.5588006402509
 30
0.0000000001127424
 11
5222.346202846532
 21
-176.5477081302707
 31
0.0000000001127424
  0
LINE
  5
B583
330
18
100
AcDbEntity
  8
1PHANTOM
100
AcDbLine
 10
5222.346202846532
 20
-176.5477081302707
 30
0.0000000001127424
 11
5222.344832501787
 21
-176.5366445504229
 31
0.0000000001127424
  0
LINE
  5
B584
330
18
100
AcDbEntity
  8
1PHANTOM
100
AcDbLine
 10
5222.344832501787
 20
-176.5366445504229
 30
0.0000000001127424
 11
5222.343216828651
 21
-176.5256136861759
 31
0.0000000001127424
  0
LINE
  5
B585
330
18
100
AcDbEntity
  8
1PHANTOM
100
AcDbLine
 10
5222.343216828651
 20
-176.5256136861759
 30
0.0000000001127424
 11
5222.341360381793
 21
-176.5146193229971
 31
0.0000000001127424
  0
LINE
  5
B586
330
18
100
AcDbEntity
  8
1PHANTOM
100
AcDbLine
 10
5222.341360381793
 20
-176.5146193229971
 30
0.0000000001127424
 11
5222.339267715884
 21
-176.5036652463555
 31
0.0000000001127424
  0
LINE
  5
B587
330
18
100
AcDbEntity
  8
1PHANTOM
100
AcDbLine
 10
5222.339267715884
 20
-176.5036652463555
 30
0.0000000001127424
 11
5222.336943385595
 21
-176.492755241719
 31
0.0000000001127424
  0
LINE
  5
B588
330
18
100
AcDbEntity
  8
1PHANTOM
100
AcDbLine
 10
5222.336943385595
 20
-176.492755241719
 30
0.0000000001127424
 11
5222.334391945595
 21
-176.4818930945549
 31
0.0000000001127424
  0
LINE
  5
B589
330
18
100
AcDbEntity
  8
1PHANTOM
100
AcDbLine
 10
5222.334391945595
 20
-176.4818930945549
 30
0.0000000001127424
 11
5222.331617950554
 21
-176.4710825903313
 31
0.0000000001127424
  0
LINE
  5
B58A
330
18
100
AcDbEntity
  8
1PHANTOM
100
AcDbLine
 10
5222.331617950554
 20
-176.4710825903313
 30
0.0000000001127424
 11
5222.328625955142
 21
-176.4603275145169
 31
0.0000000001127424
  0
LINE
  5
B58B
330
18
100
AcDbEntity
  8
1PHANTOM
100
AcDbLine
 10
5222.328625955142
 20
-176.4603275145169
 30
0.0000000001127424
 11
5222.325420514031
 21
-176.4496316525793
 31
0.0000000001127424
  0
LINE
  5
B58C
330
18
100
AcDbEntity
  8
1PHANTOM
100
AcDbLine
 10
5222.325420514031
 20
-176.4496316525793
 30
0.0000000001127424
 11
5222.32200618189
 21
-176.4389987899868
 31
0.0000000001127424
  0
LINE
  5
B58D
330
18
100
AcDbEntity
  8
1PHANTOM
100
AcDbLine
 10
5222.32200618189
 20
-176.4389987899868
 30
0.0000000001127424
 11
5222.318387513389
 21
-176.4284327122069
 31
0.0000000001127424
  0
LINE
  5
B58E
330
18
100
AcDbEntity
  8
1PHANTOM
100
AcDbLine
 10
5222.318387513389
 20
-176.4284327122069
 30
0.0000000001127424
 11
5222.314569063199
 21
-176.4179372047084
 31
0.0000000001127424
  0
LINE
  5
B58F
330
18
100
AcDbEntity
  8
1PHANTOM
100
AcDbLine
 10
5222.314569063199
 20
-176.4179372047084
 30
0.0000000001127424
 11
5222.310555385989
 21
-176.4075160529583
 31
0.0000000001127424
  0
LINE
  5
B590
330
18
100
AcDbEntity
  8
1PHANTOM
100
AcDbLine
 10
5222.310555385989
 20
-176.4075160529583
 30
0.0000000001127424
 11
5222.30635103643
 21
-176.3971730424255
 31
0.0000000001127424
  0
LINE
  5
B591
330
18
100
AcDbEntity
  8
1PHANTOM
100
AcDbLine
 10
5222.30635103643
 20
-176.3971730424255
 30
0.0000000001127424
 11
5222.301960569192
 21
-176.3869119585775
 31
0.0000000001127424
  0
LINE
  5
B592
330
18
100
AcDbEntity
  8
1PHANTOM
100
AcDbLine
 10
5222.301960569192
 20
-176.3869119585775
 30
0.0000000001127424
 11
5222.296728895876
 21
-176.37530674446
 31
0.0000000001127424
  0
LINE
  5
B593
330
18
100
AcDbEntity
  8
1PHANTOM
100
AcDbLine
 10
5222.296728895876
 20
-176.37530674446
 30
0.0000000001127424
 11
5222.291267337588
 21
-176.3638132509632
 31
0.0000000001127424
  0
LINE
  5
B594
330
18
100
AcDbEntity
  8
1PHANTOM
100
AcDbLine
 10
5222.291267337588
 20
-176.3638132509632
 30
0.0000000001127424
 11
5222.285582436333
 21
-176.3524315864066
 31
0.0000000001127424
  0
LINE
  5
B595
330
18
100
AcDbEntity
  8
1PHANTOM
100
AcDbLine
 10
5222.285582436333
 20
-176.3524315864066
 30
0.0000000001127424
 11
5222.279680734118
 21
-176.3411618591095
 31
0.0000000001127424
  0
LINE
  5
B596
330
18
100
AcDbEntity
  8
1PHANTOM
100
AcDbLine
 10
5222.279680734118
 20
-176.3411618591095
 30
0.0000000001127424
 11
5222.273568772948
 21
-176.330004177391
 31
0.0000000001127424
  0
LINE
  5
B597
330
18
100
AcDbEntity
  8
1PHANTOM
100
AcDbLine
 10
5222.273568772948
 20
-176.330004177391
 30
0.0000000001127424
 11
5222.267253094828
 21
-176.318958649571
 31
0.0000000001127424
  0
LINE
  5
B598
330
18
100
AcDbEntity
  8
1PHANTOM
100
AcDbLine
 10
5222.267253094828
 20
-176.318958649571
 30
0.0000000001127424
 11
5222.25403675576
 21
-176.297204488903
 31
0.0000000001127424
  0
LINE
  5
B599
330
18
100
AcDbEntity
  8
1PHANTOM
100
AcDbLine
 10
5222.25403675576
 20
-176.297204488903
 30
0.0000000001127424
 11
5222.240084052958
 21
-176.2759002436606
 31
0.0000000001127424
  0
LINE
  5
B59A
330
18
100
AcDbEntity
  8
1PHANTOM
100
AcDbLine
 10
5222.240084052958
 20
-176.2759002436606
 30
0.0000000001127424
 11
5222.225447322466
 21
-176.2550467803986
 31
0.0000000001127424
  0
LINE
  5
B59B
330
18
100
AcDbEntity
  8
1PHANTOM
100
AcDbLine
 10
5222.225447322466
 20
-176.2550467803986
 30
0.0000000001127424
 11
5222.210178900326
 21
-176.2346449656725
 31
0.0000000001127424
  0
LINE
  5
B59C
330
18
100
AcDbEntity
  8
1PHANTOM
100
AcDbLine
 10
5222.210178900326
 20
-176.2346449656725
 30
0.0000000001127424
 11
5222.194331122582
 21
-176.2146956660368
 31
0.0000000001127424
  0
LINE
  5
B59D
330
18
100
AcDbEntity
  8
1PHANTOM
100
AcDbLine
 10
5222.194331122582
 20
-176.2146956660368
 30
0.0000000001127424
 11
5222.175433734333
 21
-176.19229235377
 31
0.0000000001127424
  0
LINE
  5
B59E
330
18
100
AcDbEntity
  8
1PHANTOM
100
AcDbLine
 10
5222.175433734333
 20
-176.19229235377
 30
0.0000000001127424
 11
5222.15587665097
 21
-176.1704772681779
 31
0.0000000001127424
  0
LINE
  5
B59F
330
18
100
AcDbEntity
  8
1PHANTOM
100
AcDbLine
 10
5222.15587665097
 20
-176.1704772681779
 30
0.0000000001127424
 11
5222.13569841566
 21
-176.1492379591387
 31
0.0000000001127424
  0
LINE
  5
B5A0
330
18
100
AcDbEntity
  8
1PHANTOM
100
AcDbLine
 10
5222.13569841566
 20
-176.1492379591387
 30
0.0000000001127424
 11
5222.114937571569
 21
-176.1285619765318
 31
0.0000000001127424
  0
LINE
  5
B5A1
330
18
100
AcDbEntity
  8
1PHANTOM
100
AcDbLine
 10
5222.114937571569
 20
-176.1285619765318
 30
0.0000000001127424
 11
5222.093632661863
 21
-176.1084368702369
 31
0.0000000001127424
  0
LINE
  5
B5A2
330
18
100
AcDbEntity
  8
1PHANTOM
100
AcDbLine
 10
5222.093632661863
 20
-176.1084368702369
 30
0.0000000001127424
 11
5222.07182222971
 21
-176.0888501901323
 31
0.0000000001127424
  0
LINE
  5
B5A3
330
18
100
AcDbEntity
  8
1PHANTOM
100
AcDbLine
 10
5222.07182222971
 20
-176.0888501901323
 30
0.0000000001127424
 11
5222.049544818275
 21
-176.0697894860978
 31
0.0000000001127424
  0
LINE
  5
B5A4
330
18
100
AcDbEntity
  8
1PHANTOM
100
AcDbLine
 10
5222.049544818275
 20
-176.0697894860978
 30
0.0000000001127424
 11
5222.026838970724
 21
-176.0512423080127
 31
0.0000000001127424
  0
LINE
  5
B5A5
330
18
100
AcDbEntity
  8
1PHANTOM
100
AcDbLine
 10
5222.026838970724
 20
-176.0512423080127
 30
0.0000000001127424
 11
5222.000541038162
 21
-176.0307602086614
 31
0.0000000001127424
  0
LINE
  5
B5A6
330
18
100
AcDbEntity
  8
1PHANTOM
100
AcDbLine
 10
5222.000541038162
 20
-176.0307602086614
 30
0.0000000001127424
 11
5221.973763907205
 21
-176.0109165437717
 31
0.0000000001127424
  0
LINE
  5
B5A7
330
18
100
AcDbEntity
  8
1PHANTOM
100
AcDbLine
 10
5221.973763907205
 20
-176.0109165437717
 30
0.0000000001127424
 11
5221.946532594685
 21
-175.9917017492635
 31
0.0000000001127424
  0
LINE
  5
B5A8
330
18
100
AcDbEntity
  8
1PHANTOM
100
AcDbLine
 10
5221.946532594685
 20
-175.9917017492635
 30
0.0000000001127424
 11
5221.918872117434
 21
-175.9731062610572
 31
0.0000000001127424
  0
LINE
  5
B5A9
330
18
100
AcDbEntity
  8
1PHANTOM
100
AcDbLine
 10
5221.918872117434
 20
-175.9731062610572
 30
0.0000000001127424
 11
5221.890807492284
 21
-175.9551205150715
 31
0.0000000001127424
  0
LINE
  5
B5AA
330
18
100
AcDbEntity
  8
1PHANTOM
100
AcDbLine
 10
5221.890807492284
 20
-175.9551205150715
 30
0.0000000001127424
 11
5221.862363736067
 21
-175.9377349472271
 31
0.0000000001127424
  0
LINE
  5
B5AB
330
18
100
AcDbEntity
  8
1PHANTOM
100
AcDbLine
 10
5221.862363736067
 20
-175.9377349472271
 30
0.0000000001127424
 11
5221.833565865616
 21
-175.9209399934426
 31
0.0000000001127424
  0
LINE
  5
B5AC
330
18
100
AcDbEntity
  8
1PHANTOM
100
AcDbLine
 10
5221.833565865616
 20
-175.9209399934426
 30
0.0000000001127424
 11
5221.804438897762
 21
-175.9047260896387
 31
0.0000000001127424
  0
LINE
  5
B5AD
330
18
100
AcDbEntity
  8
1PHANTOM
100
AcDbLine
 10
5221.804438897762
 20
-175.9047260896387
 30
0.0000000001127424
 11
5221.77367483779
 21
-175.8883949068746
 31
0.0000000001127424
  0
LINE
  5
B5AE
330
18
100
AcDbEntity
  8
1PHANTOM
100
AcDbLine
 10
5221.77367483779
 20
-175.8883949068746
 30
0.0000000001127424
 11
5221.742592575128
 21
-175.8726862085128
 31
0.0000000001127424
  0
LINE
  5
B5AF
330
18
100
AcDbEntity
  8
1PHANTOM
100
AcDbLine
 10
5221.742592575128
 20
-175.8726862085128
 30
0.0000000001127424
 11
5221.711205958121
 21
-175.8575984256445
 31
0.0000000001127424
  0
LINE
  5
B5B0
330
18
100
AcDbEntity
  8
1PHANTOM
100
AcDbLine
 10
5221.711205958121
 20
-175.8575984256445
 30
0.0000000001127424
 11
5221.67952883512
 21
-175.8431299893614
 31
0.0000000001127424
  0
LINE
  5
B5B1
330
18
100
AcDbEntity
  8
1PHANTOM
100
AcDbLine
 10
5221.67952883512
 20
-175.8431299893614
 30
0.0000000001127424
 11
5221.647575054471
 21
-175.8292793307551
 31
0.0000000001127424
  0
LINE
  5
B5B2
330
18
100
AcDbEntity
  8
1PHANTOM
100
AcDbLine
 10
5221.647575054471
 20
-175.8292793307551
 30
0.0000000001127424
 11
5221.615358464522
 21
-175.8160448809172
 31
0.0000000001127424
  0
LINE
  5
B5B3
330
18
100
AcDbEntity
  8
1PHANTOM
100
AcDbLine
 10
5221.615358464522
 20
-175.8160448809172
 30
0.0000000001127424
 11
5221.582892913621
 21
-175.8034250709389
 31
0.0000000001127424
  0
LINE
  5
B5B4
330
18
100
AcDbEntity
  8
1PHANTOM
100
AcDbLine
 10
5221.582892913621
 20
-175.8034250709389
 30
0.0000000001127424
 11
5221.550192250117
 21
-175.7914183319118
 31
0.0000000001127424
  0
LINE
  5
B5B5
330
18
100
AcDbEntity
  8
1PHANTOM
100
AcDbLine
 10
5221.550192250117
 20
-175.7914183319118
 30
0.0000000001127424
 11
5221.51814221997
 21
-175.7803178459463
 31
0.0000000001127424
  0
LINE
  5
B5B6
330
18
100
AcDbEntity
  8
1PHANTOM
100
AcDbLine
 10
5221.51814221997
 20
-175.7803178459463
 30
0.0000000001127424
 11
5221.485893246562
 21
-175.7698053782834
 31
0.0000000001127424
  0
LINE
  5
B5B7
330
18
100
AcDbEntity
  8
1PHANTOM
100
AcDbLine
 10
5221.485893246562
 20
-175.7698053782834
 30
0.0000000001127424
 11
5221.453456117593
 21
-175.7598893194327
 31
0.0000000001127424
  0
LINE
  5
B5B8
330
18
100
AcDbEntity
  8
1PHANTOM
100
AcDbLine
 10
5221.453456117593
 20
-175.7598893194327
 30
0.0000000001127424
 11
5221.420841620768
 21
-175.7505780599036
 31
0.0000000001127424
  0
LINE
  5
B5B9
330
18
100
AcDbEntity
  8
1PHANTOM
100
AcDbLine
 10
5221.420841620768
 20
-175.7505780599036
 30
0.0000000001127424
 11
5221.388060543785
 21
-175.7418799902044
 31
0.0000000001127424
  0
LINE
  5
B5BA
330
18
100
AcDbEntity
  8
1PHANTOM
100
AcDbLine
 10
5221.388060543785
 20
-175.7418799902044
 30
0.0000000001127424
 11
5221.355123674348
 21
-175.7338035008452
 31
0.0000000001127424
  0
LINE
  5
B5BB
330
18
100
AcDbEntity
  8
1PHANTOM
100
AcDbLine
 10
5221.355123674348
 20
-175.7338035008452
 30
0.0000000001127424
 11
5221.322041800158
 21
-175.7263569823345
 31
0.0000000001127424
  0
LINE
  5
B5BC
330
18
100
AcDbEntity
  8
1PHANTOM
100
AcDbLine
 10
5221.322041800158
 20
-175.7263569823345
 30
0.0000000001127424
 11
5221.288825708918
 21
-175.7195488251814
 31
0.0000000001127424
  0
LINE
  5
B5BD
330
18
100
AcDbEntity
  8
1PHANTOM
100
AcDbLine
 10
5221.288825708918
 20
-175.7195488251814
 30
0.0000000001127424
 11
5221.255486188329
 21
-175.7133874198958
 31
0.0000000001127424
  0
LINE
  5
B5BE
330
18
100
AcDbEntity
  8
1PHANTOM
100
AcDbLine
 10
5221.255486188329
 20
-175.7133874198958
 30
0.0000000001127424
 11
5221.222034026093
 21
-175.7078811569864
 31
0.0000000001127424
  0
LINE
  5
B5BF
330
18
100
AcDbEntity
  8
1PHANTOM
100
AcDbLine
 10
5221.222034026093
 20
-175.7078811569864
 30
0.0000000001127424
 11
5221.188480009911
 21
-175.703038426962
 31
0.0000000001127424
  0
LINE
  5
B5C0
330
18
100
AcDbEntity
  8
1PHANTOM
100
AcDbLine
 10
5221.188480009911
 20
-175.703038426962
 30
0.0000000001127424
 11
5221.154834927486
 21
-175.6988676203324
 31
0.0000000001127424
  0
LINE
  5
B5C1
330
18
100
AcDbEntity
  8
1PHANTOM
100
AcDbLine
 10
5221.154834927486
 20
-175.6988676203324
 30
0.0000000001127424
 11
5221.121109566518
 21
-175.6953771276063
 31
0.0000000001127424
  0
LINE
  5
B5C2
330
18
100
AcDbEntity
  8
1PHANTOM
100
AcDbLine
 10
5221.121109566518
 20
-175.6953771276063
 30
0.0000000001127424
 11
5221.087314714712
 21
-175.692575339293
 31
0.0000000001127424
  0
LINE
  5
B5C3
330
18
100
AcDbEntity
  8
1PHANTOM
100
AcDbLine
 10
5221.087314714712
 20
-175.692575339293
 30
0.0000000001127424
 11
5221.053461159767
 21
-175.6904706459018
 31
0.0000000001127424
  0
LINE
  5
B5C4
330
18
100
AcDbEntity
  8
1PHANTOM
100
AcDbLine
 10
5221.053461159767
 20
-175.6904706459018
 30
0.0000000001127424
 11
5221.019559689385
 21
-175.6890714379415
 31
0.0000000001127424
  0
LINE
  5
B5C5
330
18
100
AcDbEntity
  8
1PHANTOM
100
AcDbLine
 10
5222.813442074081
 20
-176.8650307066437
 30
0.0000000001127424
 11
5222.8188718929
 21
-176.8212271858861
 31
0.0000000001127424
  0
LINE
  5
B5C6
330
18
100
AcDbEntity
  8
1PHANTOM
100
AcDbLine
 10
5222.8188718929
 20
-176.8212271858861
 30
0.0000000001127424
 11
5222.823452013891
 21
-176.7773159801764
 31
0.0000000001127424
  0
LINE
  5
B5C7
330
18
100
AcDbEntity
  8
1PHANTOM
100
AcDbLine
 10
5222.823452013891
 20
-176.7773159801764
 30
0.0000000001127424
 11
5222.827175081256
 21
-176.7333165212427
 31
0.0000000001127424
  0
LINE
  5
B5C8
330
18
100
AcDbEntity
  8
1PHANTOM
100
AcDbLine
 10
5222.827175081256
 20
-176.7333165212427
 30
0.0000000001127424
 11
5222.830033739197
 21
-176.6892482408135
 31
0.0000000001127424
  0
LINE
  5
B5C9
330
18
100
AcDbEntity
  8
1PHANTOM
100
AcDbLine
 10
5222.830033739197
 20
-176.6892482408135
 30
0.0000000001127424
 11
5222.832020631919
 21
-176.6451305706178
 31
0.0000000001127424
  0
LINE
  5
B5CA
330
18
100
AcDbEntity
  8
1PHANTOM
100
AcDbLine
 10
5222.832020631919
 20
-176.6451305706178
 30
0.0000000001127424
 11
5222.83312840362
 21
-176.6009829423838
 31
0.0000000001127424
  0
LINE
  5
B5CB
330
18
100
AcDbEntity
  8
1PHANTOM
100
AcDbLine
 10
5222.83312840362
 20
-176.6009829423838
 30
0.0000000001127424
 11
5222.833349698508
 21
-176.5568247878405
 31
0.0000000001127424
  0
LINE
  5
B5CC
330
18
100
AcDbEntity
  8
1PHANTOM
100
AcDbLine
 10
5222.833349698508
 20
-176.5568247878405
 30
0.0000000001127424
 11
5222.832677160782
 21
-176.512675538716
 31
0.0000000001127424
  0
LINE
  5
B5CD
330
18
100
AcDbEntity
  8
1PHANTOM
100
AcDbLine
 10
5222.832677160782
 20
-176.512675538716
 30
0.0000000001127424
 11
5222.831176968599
 21
-176.4701378290447
 31
0.0000000001127424
  0
LINE
  5
B5CE
330
18
100
AcDbEntity
  8
1PHANTOM
100
AcDbLine
 10
5222.831176968599
 20
-176.4701378290447
 30
0.0000000001127424
 11
5222.82884060614
 21
-176.4276415385166
 31
0.0000000001127424
  0
LINE
  5
B5CF
330
18
100
AcDbEntity
  8
1PHANTOM
100
AcDbLine
 10
5222.82884060614
 20
-176.4276415385166
 30
0.0000000001127424
 11
5222.825669533457
 21
-176.3852017476593
 31
0.0000000001127424
  0
LINE
  5
B5D0
330
18
100
AcDbEntity
  8
1PHANTOM
100
AcDbLine
 10
5222.825669533457
 20
-176.3852017476593
 30
0.0000000001127424
 11
5222.8216652106
 21
-176.3428335370023
 31
0.0000000001127424
  0
LINE
  5
B5D1
330
18
100
AcDbEntity
  8
1PHANTOM
100
AcDbLine
 10
5222.8216652106
 20
-176.3428335370023
 30
0.0000000001127424
 11
5222.81682909762
 21
-176.3005519870727
 31
0.0000000001127424
  0
LINE
  5
B5D2
330
18
100
AcDbEntity
  8
1PHANTOM
100
AcDbLine
 10
5222.81682909762
 20
-176.3005519870727
 30
0.0000000001127424
 11
5222.811162654567
 21
-176.2583721783995
 31
0.0000000001127424
  0
LINE
  5
B5D3
330
18
100
AcDbEntity
  8
1PHANTOM
100
AcDbLine
 10
5222.811162654567
 20
-176.2583721783995
 30
0.0000000001127424
 11
5222.804667341493
 21
-176.2163091915109
 31
0.0000000001127424
  0
LINE
  5
B5D4
330
18
100
AcDbEntity
  8
1PHANTOM
100
AcDbLine
 10
5222.804667341493
 20
-176.2163091915109
 30
0.0000000001127424
 11
5222.797344618448
 21
-176.1743781069354
 31
0.0000000001127424
  0
LINE
  5
B5D5
330
18
100
AcDbEntity
  8
1PHANTOM
100
AcDbLine
 10
5222.797344618448
 20
-176.1743781069354
 30
0.0000000001127424
 11
5222.78902940646
 21
-176.1317841444152
 31
0.0000000001127424
  0
LINE
  5
B5D6
330
18
100
AcDbEntity
  8
1PHANTOM
100
AcDbLine
 10
5222.78902940646
 20
-176.1317841444152
 30
0.0000000001127424
 11
5222.779857302315
 21
-176.0893623992552
 31
0.0000000001127424
  0
LINE
  5
B5D7
330
18
100
AcDbEntity
  8
1PHANTOM
100
AcDbLine
 10
5222.779857302315
 20
-176.0893623992552
 30
0.0000000001127424
 11
5222.769829777395
 21
-176.0471323377715
 31
0.0000000001127424
  0
LINE
  5
B5D8
330
18
100
AcDbEntity
  8
1PHANTOM
100
AcDbLine
 10
5222.769829777395
 20
-176.0471323377715
 30
0.0000000001127424
 11
5222.758948303083
 21
-176.0051134262804
 31
0.0000000001127424
  0
LINE
  5
B5D9
330
18
100
AcDbEntity
  8
1PHANTOM
100
AcDbLine
 10
5222.758948303083
 20
-176.0051134262804
 30
0.0000000001127424
 11
5222.747214350763
 21
-175.9633251310984
 31
0.0000000001127424
  0
LINE
  5
B5DA
330
18
100
AcDbEntity
  8
1PHANTOM
100
AcDbLine
 10
5222.747214350763
 20
-175.9633251310984
 30
0.0000000001127424
 11
5222.734629391817
 21
-175.9217869185423
 31
0.0000000001127424
  0
LINE
  5
B5DB
330
18
100
AcDbEntity
  8
1PHANTOM
100
AcDbLine
 10
5222.734629391817
 20
-175.9217869185423
 30
0.0000000001127424
 11
5222.721194897627
 21
-175.8805182549286
 31
0.0000000001127424
  0
LINE
  5
B5DC
330
18
100
AcDbEntity
  8
1PHANTOM
100
AcDbLine
 10
5222.721194897627
 20
-175.8805182549286
 30
0.0000000001127424
 11
5222.706912339579
 21
-175.8395386065732
 31
0.0000000001127424
  0
LINE
  5
B5DD
330
18
100
AcDbEntity
  8
1PHANTOM
100
AcDbLine
 10
5222.706912339579
 20
-175.8395386065732
 30
0.0000000001127424
 11
5222.691783189052
 21
-175.798867439793
 31
0.0000000001127424
  0
LINE
  5
B5DE
330
18
100
AcDbEntity
  8
1PHANTOM
100
AcDbLine
 10
5222.691783189052
 20
-175.798867439793
 30
0.0000000001127424
 11
5222.675808917432
 21
-175.7585242209039
 31
0.0000000001127424
  0
LINE
  5
B5DF
330
18
100
AcDbEntity
  8
1PHANTOM
100
AcDbLine
 10
5222.675808917432
 20
-175.7585242209039
 30
0.0000000001127424
 11
5222.658990996099
 21
-175.7185284162234
 31
0.0000000001127424
  0
LINE
  5
B5E0
330
18
100
AcDbEntity
  8
1PHANTOM
100
AcDbLine
 10
5222.658990996099
 20
-175.7185284162234
 30
0.0000000001127424
 11
5222.641330896439
 21
-175.6788994920667
 31
0.0000000001127424
  0
LINE
  5
B5E1
330
18
100
AcDbEntity
  8
1PHANTOM
100
AcDbLine
 10
5222.641330896439
 20
-175.6788994920667
 30
0.0000000001127424
 11
5222.622830089834
 21
-175.639656914751
 31
0.0000000001127424
  0
LINE
  5
B5E2
330
18
100
AcDbEntity
  8
1PHANTOM
100
AcDbLine
 10
5222.622830089834
 20
-175.639656914751
 30
0.0000000001127424
 11
5222.603490047666
 21
-175.600820150592
 31
0.0000000001127424
  0
LINE
  5
B5E3
330
18
100
AcDbEntity
  8
1PHANTOM
100
AcDbLine
 10
5222.603490047666
 20
-175.600820150592
 30
0.0000000001127424
 11
5222.583312241319
 21
-175.5624086659073
 31
0.0000000001127424
  0
LINE
  5
B5E4
330
18
100
AcDbEntity
  8
1PHANTOM
100
AcDbLine
 10
5222.583312241319
 20
-175.5624086659073
 30
0.0000000001127424
 11
5222.562298142175
 21
-175.524441927013
 31
0.0000000001127424
  0
LINE
  5
B5E5
330
18
100
AcDbEntity
  8
1PHANTOM
100
AcDbLine
 10
5222.562298142175
 20
-175.524441927013
 30
0.0000000001127424
 11
5222.540968281692
 21
-175.487814168811
 31
0.0000000001127424
  0
LINE
  5
B5E6
330
18
100
AcDbEntity
  8
1PHANTOM
100
AcDbLine
 10
5222.540968281692
 20
-175.487814168811
 30
0.0000000001127424
 11
5222.518833734357
 21
-175.4516641749411
 31
0.0000000001127424
  0
LINE
  5
B5E7
330
18
100
AcDbEntity
  8
1PHANTOM
100
AcDbLine
 10
5222.518833734357
 20
-175.4516641749411
 30
0.0000000001127424
 11
5222.495886028959
 21
-175.4160269648142
 31
0.0000000001127424
  0
LINE
  5
B5E8
330
18
100
AcDbEntity
  8
1PHANTOM
100
AcDbLine
 10
5222.495886028959
 20
-175.4160269648142
 30
0.0000000001127424
 11
5222.472116694287
 21
-175.3809375578422
 31
0.0000000001127424
  0
LINE
  5
B5E9
330
18
100
AcDbEntity
  8
1PHANTOM
100
AcDbLine
 10
5222.472116694287
 20
-175.3809375578422
 30
0.0000000001127424
 11
5222.447517259132
 21
-175.3464309734364
 31
0.0000000001127424
  0
LINE
  5
B5EA
330
18
100
AcDbEntity
  8
1PHANTOM
100
AcDbLine
 10
5222.447517259132
 20
-175.3464309734364
 30
0.0000000001127424
 11
5222.422079252281
 21
-175.3125422310091
 31
0.0000000001127424
  0
LINE
  5
B5EB
330
18
100
AcDbEntity
  8
1PHANTOM
100
AcDbLine
 10
5222.422079252281
 20
-175.3125422310091
 30
0.0000000001127424
 11
5222.395794202523
 21
-175.2793063499713
 31
0.0000000001127424
  0
LINE
  5
B5EC
330
18
100
AcDbEntity
  8
1PHANTOM
100
AcDbLine
 10
5222.395794202523
 20
-175.2793063499713
 30
0.0000000001127424
 11
5222.368653638649
 21
-175.2467583497342
 31
0.0000000001127424
  0
LINE
  5
B5ED
330
18
100
AcDbEntity
  8
1PHANTOM
100
AcDbLine
 10
5222.368653638649
 20
-175.2467583497342
 30
0.0000000001127424
 11
5222.343340478346
 21
-175.2179220112421
 31
0.0000000001127424
  0
LINE
  5
B5EE
330
18
100
AcDbEntity
  8
1PHANTOM
100
AcDbLine
 10
5222.343340478346
 20
-175.2179220112421
 30
0.0000000001127424
 11
5222.317310941274
 21
-175.1897288705532
 31
0.0000000001127424
  0
LINE
  5
B5EF
330
18
100
AcDbEntity
  8
1PHANTOM
100
AcDbLine
 10
5222.317310941274
 20
-175.1897288705532
 30
0.0000000001127424
 11
5222.290556610451
 21
-175.1622297724912
 31
0.0000000001127424
  0
LINE
  5
B5F0
330
18
100
AcDbEntity
  8
1PHANTOM
100
AcDbLine
 10
5222.290556610451
 20
-175.1622297724912
 30
0.0000000001127424
 11
5222.263069068901
 21
-175.1354755618777
 31
0.0000000001127424
  0
LINE
  5
B5F1
330
18
100
AcDbEntity
  8
1PHANTOM
100
AcDbLine
 10
5222.263069068901
 20
-175.1354755618777
 30
0.0000000001127424
 11
5222.234839899644
 21
-175.1095170835361
 31
0.0000000001127424
  0
LINE
  5
B5F2
330
18
100
AcDbEntity
  8
1PHANTOM
100
AcDbLine
 10
5222.234839899644
 20
-175.1095170835361
 30
0.0000000001127424
 11
5222.205860685702
 21
-175.0844051822883
 31
0.0000000001127424
  0
LINE
  5
B5F3
330
18
100
AcDbEntity
  8
1PHANTOM
100
AcDbLine
 10
5222.205860685702
 20
-175.0844051822883
 30
0.0000000001127424
 11
5222.176123010096
 21
-175.0601907029578
 31
0.0000000001127424
  0
LINE
  5
B5F4
330
18
100
AcDbEntity
  8
1PHANTOM
100
AcDbLine
 10
5222.176123010096
 20
-175.0601907029578
 30
0.0000000001127424
 11
5222.145618455847
 21
-175.0369244903664
 31
0.0000000001127424
  0
LINE
  5
B5F5
330
18
100
AcDbEntity
  8
1PHANTOM
100
AcDbLine
 10
5222.145618455847
 20
-175.0369244903664
 30
0.0000000001127424
 11
5222.118906483825
 21
-175.0178157095052
 31
0.0000000001127424
  0
LINE
  5
B5F6
330
18
100
AcDbEntity
  8
1PHANTOM
100
AcDbLine
 10
5222.118906483825
 20
-175.0178157095052
 30
0.0000000001127424
 11
5222.091633776152
 21
-174.9995062941226
 31
0.0000000001127424
  0
LINE
  5
B5F7
330
18
100
AcDbEntity
  8
1PHANTOM
100
AcDbLine
 10
5222.091633776152
 20
-174.9995062941226
 30
0.0000000001127424
 11
5222.063807117946
 21
-174.9820642543969
 31
0.0000000001127424
  0
LINE
  5
B5F8
330
18
100
AcDbEntity
  8
1PHANTOM
100
AcDbLine
 10
5222.063807117946
 20
-174.9820642543969
 30
0.0000000001127424
 11
5222.035433294326
 21
-174.9655576005067
 31
0.0000000001127424
  0
LINE
  5
B5F9
330
18
100
AcDbEntity
  8
1PHANTOM
100
AcDbLine
 10
5222.035433294326
 20
-174.9655576005067
 30
0.0000000001127424
 11
5222.021043315835
 21
-174.9576762964307
 31
0.0000000001127424
  0
LINE
  5
B5FA
330
18
100
AcDbEntity
  8
1PHANTOM
100
AcDbLine
 10
5222.021043315835
 20
-174.9576762964307
 30
0.0000000001127424
 11
5222.006519090408
 21
-174.9500543426303
 31
0.0000000001127424
  0
LINE
  5
B5FB
330
18
100
AcDbEntity
  8
1PHANTOM
100
AcDbLine
 10
5222.006519090408
 20
-174.9500543426303
 30
0.0000000001127424
 11
5221.991861466187
 21
-174.9427002403782
 31
0.0000000001127424
  0
LINE
  5
B5FC
330
18
100
AcDbEntity
  8
1PHANTOM
100
AcDbLine
 10
5221.991861466187
 20
-174.9427002403782
 30
0.0000000001127424
 11
5221.977071291311
 21
-174.9356224909462
 31
0.0000000001127424
  0
LINE
  5
B5FD
330
18
100
AcDbEntity
  8
1PHANTOM
100
AcDbLine
 10
5221.977071291311
 20
-174.9356224909462
 30
0.0000000001127424
 11
5221.96214941392
 21
-174.9288295956067
 31
0.0000000001127424
  0
LINE
  5
B5FE
330
18
100
AcDbEntity
  8
1PHANTOM
100
AcDbLine
 10
5221.96214941392
 20
-174.9288295956067
 30
0.0000000001127424
 11
5221.947096682154
 21
-174.9223300556328
 31
0.0000000001127424
  0
LINE
  5
B5FF
330
18
100
AcDbEntity
  8
1PHANTOM
100
AcDbLine
 10
5221.947096682154
 20
-174.9223300556328
 30
0.0000000001127424
 11
5221.93191394415
 21
-174.9161323722956
 31
0.0000000001127424
  0
LINE
  5
B600
330
18
100
AcDbEntity
  8
1PHANTOM
100
AcDbLine
 10
5221.93191394415
 20
-174.9161323722956
 30
0.0000000001127424
 11
5221.916602048052
 21
-174.9102450468682
 31
0.0000000001127424
  0
LINE
  5
B601
330
18
100
AcDbEntity
  8
1PHANTOM
100
AcDbLine
 10
5221.916602048052
 20
-174.9102450468682
 30
0.0000000001127424
 11
5221.902152158198
 21
-174.905022343668
 31
0.0000000001127424
  0
LINE
  5
B602
330
18
100
AcDbEntity
  8
1PHANTOM
100
AcDbLine
 10
5221.902152158198
 20
-174.905022343668
 30
0.0000000001127424
 11
5221.887596196779
 21
-174.9000861733758
 31
0.0000000001127424
  0
LINE
  5
B603
330
18
100
AcDbEntity
  8
1PHANTOM
100
AcDbLine
 10
5221.887596196779
 20
-174.9000861733758
 30
0.0000000001127424
 11
5221.872940544858
 21
-174.8954436162817
 31
0.0000000001127424
  0
LINE
  5
B604
330
18
100
AcDbEntity
  8
1PHANTOM
100
AcDbLine
 10
5221.872940544858
 20
-174.8954436162817
 30
0.0000000001127424
 11
5221.858191583498
 21
-174.8911017526748
 31
0.0000000001127424
  0
LINE
  5
B605
330
18
100
AcDbEntity
  8
1PHANTOM
100
AcDbLine
 10
5221.858191583498
 20
-174.8911017526748
 30
0.0000000001127424
 11
5221.843355693762
 21
-174.887067662844
 31
0.0000000001127424
  0
LINE
  5
B606
330
18
100
AcDbEntity
  8
1PHANTOM
100
AcDbLine
 10
5221.843355693762
 20
-174.887067662844
 30
0.0000000001127424
 11
5221.828439256714
 21
-174.8833484270791
 31
0.0000000001127424
  0
LINE
  5
B607
330
18
100
AcDbEntity
  8
1PHANTOM
100
AcDbLine
 10
5221.828439256714
 20
-174.8833484270791
 30
0.0000000001127424
 11
5221.813448653417
 21
-174.879951125668
 31
0.0000000001127424
  0
LINE
  5
B608
330
18
100
AcDbEntity
  8
1PHANTOM
100
AcDbLine
 10
5221.813448653417
 20
-174.879951125668
 30
0.0000000001127424
 11
5221.798390264936
 21
-174.8768828389012
 31
0.0000000001127424
  0
LINE
  5
B609
330
18
100
AcDbEntity
  8
1PHANTOM
100
AcDbLine
 10
5221.798390264936
 20
-174.8768828389012
 30
0.0000000001127424
 11
5221.783270472333
 21
-174.8741506470674
 31
0.0000000001127424
  0
LINE
  5
B60A
330
18
100
AcDbEntity
  8
1PHANTOM
100
AcDbLine
 10
5221.783270472333
 20
-174.8741506470674
 30
0.0000000001127424
 11
5221.768095656673
 21
-174.8717616304558
 31
0.0000000001127424
  0
LINE
  5
B60B
330
18
100
AcDbEntity
  8
1PHANTOM
100
AcDbLine
 10
5221.768095656673
 20
-174.8717616304558
 30
0.0000000001127424
 11
5221.752872199018
 21
-174.8697228693555
 31
0.0000000001127424
  0
LINE
  5
B60C
330
18
100
AcDbEntity
  8
1PHANTOM
100
AcDbLine
 10
5221.752872199018
 20
-174.8697228693555
 30
0.0000000001127424
 11
5221.737606480432
 21
-174.868041444056
 31
0.0000000001127424
  0
LINE
  5
B60D
330
18
100
AcDbEntity
  8
1PHANTOM
100
AcDbLine
 10
5221.737606480432
 20
-174.868041444056
 30
0.0000000001127424
 11
5221.72230488198
 21
-174.8667244348463
 31
0.0000000001127424
  0
LINE
  5
B60E
330
18
100
AcDbEntity
  8
1PHANTOM
100
AcDbLine
 10
5221.72230488198
 20
-174.8667244348463
 30
0.0000000001127424
 11
5221.706973784722
 21
-174.8657789220156
 31
0.0000000001127424
  0
LINE
  5
B60F
330
18
100
AcDbEntity
  8
1PHANTOM
100
AcDbLine
 10
5221.706973784722
 20
-174.8657789220156
 30
0.0000000001127424
 11
5221.691619569725
 21
-174.865211985853
 31
0.0000000001127424
  0
LINE
  5
B610
330
18
100
AcDbEntity
  8
1PHANTOM
100
AcDbLine
 10
5221.691619569725
 20
-174.865211985853
 30
0.0000000001127424
 11
5221.676248618051
 21
-174.8650307066478
 31
0.0000000001127424
  0
ARC
  5
B611
330
18
100
AcDbEntity
  8
1PHANTOM
100
AcDbCircle
 10
5221.834006513681
 20
-175.6644324551112
 30
0.0000000001127424
 40
0.8148194334207798
100
AcDbArc
 50
101.163585631801
 51
181.7328071671386
  0
LINE
  5
B612
330
18
100
AcDbEntity
  8
1PHANTOM
100
AcDbLine
 10
5218.224542843869
 20
-175.6062116626377
 30
0.0000000001127424
 11
5221.019559689385
 21
-175.6890714379415
 31
0.0000000001127424
  0
LINE
  5
B613
330
18
100
AcDbEntity
  8
1PHANTOM
100
AcDbLine
 10
5229.234604937077
 20
-176.7395795792823
 30
0.0000000001127424
 11
5226.572405737441
 21
-186.6750424013499
 31
0.0000000001127424
  0
ARC
  5
B614
330
18
100
AcDbEntity
  8
1PHANTOM
100
AcDbCircle
 10
5227.787366197114
 20
-176.360924109044
 30
0.0000000001127424
 40
1.495954523236159
100
AcDbArc
 50
345.3378064930391
 51
89.47963188551809
  0
LINE
  5
B615
330
18
100
AcDbEntity
  8
1PHANTOM
100
AcDbLine
 10
5229.234604937077
 20
-176.7395795792823
 30
0.0000000001127424
 11
5229.268099276731
 21
-176.7485543613239
 31
0.0000000001127424
  0
LINE
  5
B616
330
18
100
AcDbEntity
  8
1PHANTOM
100
AcDbLine
 10
5224.98334326695
 20
-176.8650307065664
 30
0.0000000001127424
 11
5222.63711399893
 21
-185.6212775606846
 31
0.0000000001127424
  0
LINE
  5
B617
330
18
100
AcDbEntity
  8
1PHANTOM
100
AcDbLine
 10
5222.813442074081
 20
-176.8650307066437
 30
0.0000000001127424
 11
5224.98334326695
 21
-176.8650307065664
 31
0.0000000001127424
  0
LINE
  5
B618
330
18
100
AcDbEntity
  8
1PHANTOM
100
AcDbLine
 10
5223.012040912782
 20
-176.1238497524587
 30
0.0000000001127424
 11
5220.665515247971
 21
-184.8812027291106
 31
0.0000000001127424
  0
ARC
  5
B619
330
18
100
AcDbEntity
  8
1DIM
100
AcDbCircle
 10
5222.046115086683
 20
-175.8650307066478
 30
0.0000000001127424
 40
1.0
100
AcDbArc
 50
344.9999999579729
 51
90.0
  0
ARC
  5
B61A
330
18
100
AcDbEntity
  8
01
100
AcDbCircle
 10
5219.190468670451
 20
-175.8650307066474
 30
0.0000000001127424
 40
1.0
100
AcDbArc
 50
90.0
 51
165.0000000826849
  0
LINE
  5
B61B
330
18
100
AcDbEntity
  8
01
100
AcDbLine
 10
5130.835426424295
 20
-316.6637049840172
 30
0.0000000000563712
 11
5130.835426424295
 21
-331.6637124169384
 31
0.0000000000563712
  0
LINE
  5
B777
330
18
100
AcDbEntity
  8
01
100
AcDbLine
 10
5078.335426424299
 20
-279.1637124169384
 30
0.0
 11
5068.035426424295
 21
-279.1637124169384
 31
0.0
1001
ACAD
1000
DSTYLE
1002
{
1070
     3
1000
□<>
1070
    40
1040
1.3
1070
    45
1040
0.5
1002
}
  0
LINE
  5
B778
330
18
100
AcDbEntity
  8
01
100
AcDbLine
 10
5078.335426424299
 20
-332.1637124169384
 30
0.0
 11
5068.035426424295
 21
-332.1637124169384
 31
0.0
1001
ACAD
1000
DSTYLE
1002
{
1070
     3
1000
□<>
1070
    40
1040
1.3
1070
    45
1040
0.5
1002
}
  0
LINE
  5
B779
330
18
100
AcDbEntity
  8
01
100
AcDbLine
 10
5069.335426424295
 20
-281.7637124169384
 30
0.0
 11
5069.335426424295
 21
-329.5637124169384
 31
0.0
1001
ACAD
1000
DSTYLE
1002
{
1070
     3
1000
□<>
1070
    40
1040
1.3
1070
    45
1040
0.5
1002
}
  0
LINE
  5
B77D
330
18
100
AcDbEntity
  8
01
  6
BYBLOCK
100
AcDbLine
 10
5068.638758530295
 20
-281.7637124169384
 30
0.0
 11
5069.335426424295
 21
-279.1637124169384
 31
0.0
  0
LINE
  5
B77E
330
18
100
AcDbEntity
  8
01
  6
BYBLOCK
100
AcDbLine
 10
5069.335426424295
 20
-279.1637124169384
 30
0.0
 11
5070.032094318295
 21
-281.7637124169384
 31
0.0
  0
LINE
  5
B77F
330
18
100
AcDbEntity
  8
01
  6
BYBLOCK
100
AcDbLine
 10
5069.335426424295
 20
-279.1637124169384
 30
0.0
 11
5069.335426424295
 21
-281.7637124169384
 31
0.0
  0
LINE
  5
B780
330
18
100
AcDbEntity
  8
01
  6
BYBLOCK
100
AcDbLine
 10
5070.032094318295
 20
-329.5637124169384
 30
0.0
 11
5069.335426424295
 21
-332.1637124169384
 31
0.0
  0
LINE
  5
B781
330
18
100
AcDbEntity
  8
01
  6
BYBLOCK
100
AcDbLine
 10
5069.335426424295
 20
-332.1637124169384
 30
0.0
 11
5068.638758530295
 21
-329.5637124169384
 31
0.0
  0
LINE
  5
B782
330
18
100
AcDbEntity
  8
01
  6
BYBLOCK
100
AcDbLine
 10
5069.335426424295
 20
-332.1637124169384
 30
0.0
 11
5069.335426424295
 21
-329.5637124169384
 31
0.0
  0
TEXT
  5
B783
330
18
100
AcDbEntity
  8
01
  6
CONTINUOUS
100
AcDbText
 10
5068.425426424295
 20
-313.6925903235351
 30
0.0
 40
4.55
  1
□53
 50
90.0
100
AcDbText
1001
ACAD
1000
DSTYLE
1002
{
1070
     3
1000
□<>
1070
    40
1040
1.3
1070
    45
1040
0.5
1002
}
  0
LINE
  5
B784
330
18
100
AcDbEntity
  8
1DIM
100
AcDbLine
 10
5104.335426424295
 20
-167.1650307300393
 30
0.0000000001127424
 11
5104.335426424295
 21
-231.9650307300393
 31
0.0000000001127424
1001
ACAD
1000
DSTYLE
1002
{
1070
    40
1040
1.3
1070
    45
1040
0.5
1002
}
  0
LINE
  5
B785
330
18
100
AcDbEntity
  8
1DIM
100
AcDbLine
 10
5229.317810264105
 20
-176.3677519254439
 30
0.0000000001127424
 11
5229.317810264105
 21
-231.9650307300393
 31
0.0000000001127424
1001
ACAD
1000
DSTYLE
1002
{
1070
    40
1040
1.3
1070
    45
1040
0.5
1002
}
  0
LINE
  5
B786
330
18
100
AcDbEntity
  8
1DIM
100
AcDbLine
 10
5106.935426424296
 20
-230.6650307300393
 30
0.0000000001127424
 11
5226.717810264105
 21
-230.6650307300393
 31
0.0000000001127424
1001
ACAD
1000
DSTYLE
1002
{
1070
    40
1040
1.3
1070
    45
1040
0.5
1002
}
  0
LINE
  5
B78A
330
18
100
AcDbEntity
  8
1DIM
100
AcDbLine
 10
5086.338030571538
 20
-154.8652875643089
 30
0.0000000001127424
 11
5086.338030571538
 21
-241.9650307300393
 31
0.0000000001127424
1001
ACAD
1000
DSTYLE
1002
{
1070
    40
1040
1.3
1070
    45
1040
0.5
1002
}
  0
LINE
  5
B78B
330
18
100
AcDbEntity
  8
1DIM
100
AcDbLine
 10
5229.317810264105
 20
-176.3677519254439
 30
0.0000000001127424
 11
5229.317810264105
 21
-241.9650307300393
 31
0.0000000001127424
1001
ACAD
1000
DSTYLE
1002
{
1070
    40
1040
1.3
1070
    45
1040
0.5
1002
}
  0
LINE
  5
B78C
330
18
100
AcDbEntity
  8
1DIM
100
AcDbLine
 10
5088.938030571539
 20
-240.6650307300393
 30
0.0000000001127424
 11
5226.717810264105
 21
-240.6650307300393
 31
0.0000000001127424
1001
ACAD
1000
DSTYLE
1002
{
1070
    40
1040
1.3
1070
    45
1040
0.5
1002
}
  0
LINE
  5
B790
330
18
100
AcDbEntity
  8
1DIM
100
AcDbLine
 10
5227.799624153231
 20
-174.8650307066474
 30
0.0000000001127424
 11
5260.635426424295
 21
-174.8650307066474
 31
0.0000000001127424
1001
ACAD
1000
DSTYLE
1002
{
1070
    40
1040
1.3
1070
    45
1040
0.5
1002
}
  0
LINE
  5
B791
330
18
100
AcDbEntity
  8
1DIM
100
AcDbLine
 10
5207.090574421643
 20
-145.6650307300393
 30
0.0000000001127424
 11
5260.635426424295
 21
-145.6650307300393
 31
0.0000000001127424
1001
ACAD
1000
DSTYLE
1002
{
1070
    40
1040
1.3
1070
    45
1040
0.5
1002
}
  0
LINE
  5
B792
330
18
100
AcDbEntity
  8
1DIM
100
AcDbLine
 10
5259.335426424295
 20
-172.2650307066474
 30
0.0000000001127424
 11
5259.335426424295
 21
-148.2650307300393
 31
0.0000000001127424
1001
ACAD
1000
DSTYLE
1002
{
1070
    40
1040
1.3
1070
    45
1040
0.5
1002
}
  0
LINE
  5
B796
330
18
100
AcDbEntity
  8
1DIM
100
AcDbLine
 10
5217.947425394438
 20
-193.3285071921412
 30
0.0000000001127424
 11
5270.635426424295
 21
-193.3285071921412
 31
0.0000000001127424
1001
ACAD
1000
DSTYLE
1002
{
1070
    40
1040
1.3
1070
    45
1040
0.5
1002
}
  0
LINE
  5
B797
330
18
100
AcDbEntity
  8
1DIM
100
AcDbLine
 10
5207.090574421643
 20
-145.6650307300393
 30
0.0000000001127424
 11
5270.635426424295
 21
-145.6650307300393
 31
0.0000000001127424
1001
ACAD
1000
DSTYLE
1002
{
1070
    40
1040
1.3
1070
    45
1040
0.5
1002
}
  0
LINE
  5
B798
330
18
100
AcDbEntity
  8
1DIM
100
AcDbLine
 10
5269.335426424295
 20
-190.7285071921412
 30
0.0000000001127424
 11
5269.335426424295
 21
-148.2650307300393
 31
0.0000000001127424
1001
ACAD
1000
DSTYLE
1002
{
1070
    40
1040
1.3
1070
    45
1040
0.5
1002
}
  0
LINE
  5
B79C
330
18
100
AcDbEntity
  8
1DIM
100
AcDbLine
 10
5225.168719241609
 20
-316.6637049840172
 30
0.0
 11
5260.635426424295
 21
-316.6637049840172
 31
0.0
1001
ACAD
1000
DSTYLE
1002
{
1070
    40
1040
1.3
1070
    45
1040
0.5
1002
}
  0
LINE
  5
B79D
330
18
100
AcDbEntity
  8
1DIM
100
AcDbLine
 10
5225.16871924161
 20
-294.6637049840172
 30
0.0
 11
5260.635426424295
 21
-294.6637049840172
 31
0.0
1001
ACAD
1000
DSTYLE
1002
{
1070
    40
1040
1.3
1070
    45
1040
0.5
1002
}
  0
LINE
  5
B79E
330
18
100
AcDbEntity
  8
1DIM
100
AcDbLine
 10
5259.335426424295
 20
-314.0637049840172
 30
0.0
 11
5259.335426424295
 21
-297.2637049840172
 31
0.0
1001
ACAD
1000
DSTYLE
1002
{
1070
    40
1040
1.3
1070
    45
1040
0.5
1002
}
  0
LINE
  5
B7A2
330
18
100
AcDbEntity
  8
0
  6
BYBLOCK
100
AcDbLine
 10
5106.935426424296
 20
-231.3616986240393
 30
0.0000000001127424
 11
5104.335426424295
 21
-230.6650307300393
 31
0.0000000001127424
  0
LINE
  5
B7A3
330
18
100
AcDbEntity
  8
0
  6
BYBLOCK
100
AcDbLine
 10
5104.335426424295
 20
-230.6650307300393
 30
0.0000000001127424
 11
5106.935426424296
 21
-229.9683628360393
 31
0.0000000001127424
  0
LINE
  5
B7A4
330
18
100
AcDbEntity
  8
0
  6
BYBLOCK
100
AcDbLine
 10
5104.335426424295
 20
-230.6650307300393
 30
0.0000000001127424
 11
5106.935426424296
 21
-230.6650307300393
 31
0.0000000001127424
  0
LINE
  5
B7A5
330
18
100
AcDbEntity
  8
0
  6
BYBLOCK
100
AcDbLine
 10
5226.717810264105
 20
-229.9683628360393
 30
0.0000000001127424
 11
5229.317810264105
 21
-230.6650307300393
 31
0.0000000001127424
  0
LINE
  5
B7A6
330
18
100
AcDbEntity
  8
0
  6
BYBLOCK
100
AcDbLine
 10
5229.317810264105
 20
-230.6650307300393
 30
0.0000000001127424
 11
5226.717810264105
 21
-231.3616986240393
 31
0.0000000001127424
  0
LINE
  5
B7A7
330
18
100
AcDbEntity
  8
0
  6
BYBLOCK
100
AcDbLine
 10
5229.317810264105
 20
-230.6650307300393
 30
0.0000000001127424
 11
5226.717810264105
 21
-230.6650307300393
 31
0.0000000001127424
  0
TEXT
  5
B7A8
330
18
100
AcDbEntity
  8
1DIM
  6
CONTINUOUS
100
AcDbText
 10
5161.518285010867
 20
-229.7550307300393
 30
0.0000000001127424
 40
4.55
  1
125
100
AcDbText
1001
ACAD
1000
DSTYLE
1002
{
1070
    40
1040
1.3
1070
    45
1040
0.5
1002
}
  0
LINE
  5
B7A9
330
18
100
AcDbEntity
  8
0
  6
BYBLOCK
100
AcDbLine
 10
5088.938030571539
 20
-241.3616986240393
 30
0.0000000001127424
 11
5086.338030571538
 21
-240.6650307300393
 31
0.0000000001127424
  0
LINE
  5
B7AA
330
18
100
AcDbEntity
  8
0
  6
BYBLOCK
100
AcDbLine
 10
5086.338030571538
 20
-240.6650307300393
 30
0.0000000001127424
 11
5088.938030571539
 21
-239.9683628360393
 31
0.0000000001127424
  0
LINE
  5
B7AB
330
18
100
AcDbEntity
  8
0
  6
BYBLOCK
100
AcDbLine
 10
5086.338030571538
 20
-240.6650307300393
 30
0.0000000001127424
 11
5088.938030571539
 21
-240.6650307300393
 31
0.0000000001127424
  0
LINE
  5
B7AC
330
18
100
AcDbEntity
  8
0
  6
BYBLOCK
100
AcDbLine
 10
5226.717810264105
 20
-239.9683628360393
 30
0.0000000001127424
 11
5229.317810264105
 21
-240.6650307300393
 31
0.0000000001127424
  0
LINE
  5
B7AD
330
18
100
AcDbEntity
  8
0
  6
BYBLOCK
100
AcDbLine
 10
5229.317810264105
 20
-240.6650307300393
 30
0.0000000001127424
 11
5226.717810264105
 21
-241.3616986240393
 31
0.0000000001127424
  0
LINE
  5
B7AE
330
18
100
AcDbEntity
  8
0
  6
BYBLOCK
100
AcDbLine
 10
5229.317810264105
 20
-240.6650307300393
 30
0.0000000001127424
 11
5226.717810264105
 21
-240.6650307300393
 31
0.0000000001127424
  0
TEXT
  5
B7AF
330
18
100
AcDbEntity
  8
1DIM
  6
CONTINUOUS
100
AcDbText
 10
5152.519587084488
 20
-239.7550307300393
 30
0.0000000001127424
 40
4.55
  1
143
100
AcDbText
1001
ACAD
1000
DSTYLE
1002
{
1070
    40
1040
1.3
1070
    45
1040
0.5
1002
}
  0
LINE
  5
B7B0
330
18
100
AcDbEntity
  8
0
  6
BYBLOCK
100
AcDbLine
 10
5260.032094318295
 20
-172.2650307066474
 30
0.0000000001127424
 11
5259.335426424295
 21
-174.8650307066474
 31
0.0000000001127424
  0
LINE
  5
B7B1
330
18
100
AcDbEntity
  8
0
  6
BYBLOCK
100
AcDbLine
 10
5259.335426424295
 20
-174.8650307066474
 30
0.0000000001127424
 11
5258.638758530295
 21
-172.2650307066474
 31
0.0000000001127424
  0
LINE
  5
B7B2
330
18
100
AcDbEntity
  8
0
  6
BYBLOCK
100
AcDbLine
 10
5259.335426424295
 20
-174.8650307066474
 30
0.0000000001127424
 11
5259.335426424295
 21
-172.2650307066474
 31
0.0000000001127424
  0
LINE
  5
B7B3
330
18
100
AcDbEntity
  8
0
  6
BYBLOCK
100
AcDbLine
 10
5258.638758530295
 20
-148.2650307300393
 30
0.0000000001127424
 11
5259.335426424295
 21
-145.6650307300393
 31
0.0000000001127424
  0
LINE
  5
B7B4
330
18
100
AcDbEntity
  8
0
  6
BYBLOCK
100
AcDbLine
 10
5259.335426424295
 20
-145.6650307300393
 30
0.0000000001127424
 11
5260.032094318295
 21
-148.2650307300393
 31
0.0000000001127424
  0
LINE
  5
B7B5
330
18
100
AcDbEntity
  8
0
  6
BYBLOCK
100
AcDbLine
 10
5259.335426424295
 20
-145.6650307300393
 30
0.0000000001127424
 11
5259.335426424295
 21
-148.2650307300393
 31
0.0000000001127424
  0
TEXT
  5
B7B6
330
18
100
AcDbEntity
  8
1DIM
  6
CONTINUOUS
100
AcDbText
 10
5258.425426424295
 20
-164.0577506257505
 30
0.0000000001127424
 40
4.55
  1
29
 50
90.0
100
AcDbText
1001
ACAD
1000
DSTYLE
1002
{
1070
    40
1040
1.3
1070
    45
1040
0.5
1002
}
  0
LINE
  5
B7B7
330
18
100
AcDbEntity
  8
0
  6
BYBLOCK
100
AcDbLine
 10
5270.032094318295
 20
-190.7285071921412
 30
0.0000000001127424
 11
5269.335426424295
 21
-193.3285071921412
 31
0.0000000001127424
  0
LINE
  5
B7B8
330
18
100
AcDbEntity
  8
0
  6
BYBLOCK
100
AcDbLine
 10
5269.335426424295
 20
-193.3285071921412
 30
0.0000000001127424
 11
5268.638758530295
 21
-190.7285071921412
 31
0.0000000001127424
  0
LINE
  5
B7B9
330
18
100
AcDbEntity
  8
0
  6
BYBLOCK
100
AcDbLine
 10
5269.335426424295
 20
-193.3285071921412
 30
0.0000000001127424
 11
5269.335426424295
 21
-190.7285071921412
 31
0.0000000001127424
  0
LINE
  5
B7BA
330
18
100
AcDbEntity
  8
0
  6
BYBLOCK
100
AcDbLine
 10
5268.638758530295
 20
-148.2650307300393
 30
0.0000000001127424
 11
5269.335426424295
 21
-145.6650307300393
 31
0.0000000001127424
  0
LINE
  5
B7BB
330
18
100
AcDbEntity
  8
0
  6
BYBLOCK
100
AcDbLine
 10
5269.335426424295
 20
-145.6650307300393
 30
0.0000000001127424
 11
5270.032094318295
 21
-148.2650307300393
 31
0.0000000001127424
  0
LINE
  5
B7BC
330
18
100
AcDbEntity
  8
0
  6
BYBLOCK
100
AcDbLine
 10
5269.335426424295
 20
-145.6650307300393
 30
0.0000000001127424
 11
5269.335426424295
 21
-148.2650307300393
 31
0.0000000001127424
  0
TEXT
  5
B7BD
330
18
100
AcDbEntity
  8
1DIM
  6
CONTINUOUS
100
AcDbText
 10
5268.425426424295
 20
-176.3217689610901
 30
0.0000000001127424
 40
4.55
  1
47.5
 50
90.0
100
AcDbText
1001
ACAD
1000
DSTYLE
1002
{
1070
    40
1040
1.3
1070
    45
1040
0.5
1002
}
  0
LINE
  5
B7BE
330
18
100
AcDbEntity
  8
0
  6
BYBLOCK
100
AcDbLine
 10
5260.032094318295
 20
-314.0637049840172
 30
0.0
 11
5259.335426424295
 21
-316.6637049840172
 31
0.0
  0
LINE
  5
B7BF
330
18
100
AcDbEntity
  8
0
  6
BYBLOCK
100
AcDbLine
 10
5259.335426424295
 20
-316.6637049840172
 30
0.0
 11
5258.638758530295
 21
-314.0637049840172
 31
0.0
  0
LINE
  5
B7C0
330
18
100
AcDbEntity
  8
0
  6
BYBLOCK
100
AcDbLine
 10
5259.335426424295
 20
-316.6637049840172
 30
0.0
 11
5259.335426424295
 21
-314.0637049840172
 31
0.0
  0
LINE
  5
B7C1
330
18
100
AcDbEntity
  8
0
  6
BYBLOCK
100
AcDbLine
 10
5258.638758530295
 20
-297.2637049840172
 30
0.0
 11
5259.335426424295
 21
-294.6637049840172
 31
0.0
  0
LINE
  5
B7C2
330
18
100
AcDbEntity
  8
0
  6
BYBLOCK
100
AcDbLine
 10
5259.335426424295
 20
-294.6637049840172
 30
0.0
 11
5260.032094318295
 21
-297.2637049840172
 31
0.0
  0
LINE
  5
B7C3
330
18
100
AcDbEntity
  8
0
  6
BYBLOCK
100
AcDbLine
 10
5259.335426424295
 20
-294.6637049840172
 30
0.0
 11
5259.335426424295
 21
-297.2637049840172
 31
0.0
  0
TEXT
  5
B7C4
330
18
100
AcDbEntity
  8
1DIM
  6
CONTINUOUS
100
AcDbText
 10
5258.425426424295
 20
-309.4553716506844
 30
0.0
 40
4.55
  1
22
 50
90.0
100
AcDbText
1001
ACAD
1000
DSTYLE
1002
{
1070
    40
1040
1.3
1070
    45
1040
0.5
1002
}
  0
VIEWPORT
  5
57
330
15
100
AcDbEntity
 67
     1
  8
0
100
AcDbViewport
 68
     1
 10
0.0
 20
0.0
 30
0.0
 40
535.5106132075472
 41
297.0
 68
     1
 69
     1
1001
ACAD
1000
MVIEW
1002
{
1070
    16
1010
0.0
1020
0.0
1030
0.0
1010
0.0
1020
0.0
1030
1.0
1040
0.0
1040
297.0
1040
5.728000000000009
1040
25.339
1040
50.0
1040
0.0
1040
0.0
1070
    16
1070
   100
1070
     0
1070
     1
1070
     0
1070
     0
1070
     0
1070
     0
1040
0.0
1040
0.0
1040
0.0
1040
10.0
1040
10.0
1040
10.0
1040
10.0
1070
     0
1002
{
1002
}
1002
}
  0
ENDSEC
  0
SECTION
  2
OBJECTS
  0
DICTIONARY
  5
C
330
0
100
AcDbDictionary
  3
ACAD_COLOR
350
18D
  3
ACAD_GROUP
350
D
  3
ACAD_LAYOUT
350
18E
  3
ACAD_MATERIAL
350
18C
  3
ACAD_MLEADERSTYLE
350
9583
  3
ACAD_MLINESTYLE
350
1B
  3
ACAD_PLOTSETTINGS
350
18F
  3
ACAD_SCALELIST
350
9561
  3
ACAD_VISUALSTYLE
350
9550
  3
ACDBHEADERROUNDTRIPXREC
350
B7C5
  3
ACDBVARIABLEDICTIONARY
350
37
  3
CONTENTDICTIONARY
350
D8
  3
DRAWINGVARIABLESDICT
350
20
  3
DWGPROPS
350
B7C8
1001
ACAD
1000
TREAT_AS_HARD
1070
     0
  0
DICTIONARY
  5
96D9
330
2
100
AcDbDictionary
  3
ACAD_LAYERSTATES
360
96DA
1001
ACAD
1000
TREAT_AS_HARD
1070
     1
  0
DICTIONARY
  5
9593
330
E
100
AcDbDictionary
  3
ADSK_XREC_LAYER_RECONCILED
360
9594
1001
ACAD
1000
TREAT_AS_HARD
1070
     1
  0
DICTIONARY
  5
9595
330
29
100
AcDbDictionary
  3
ADSK_XREC_LAYER_RECONCILED
360
9596
1001
ACAD
1000
TREAT_AS_HARD
1070
     1
  0
DICTIONARY
  5
9597
330
31
100
AcDbDictionary
  3
ADSK_XREC_LAYER_RECONCILED
360
9598
1001
ACAD
1000
TREAT_AS_HARD
1070
     1
  0
DICTIONARY
  5
959D
330
243
100
AcDbDictionary
  3
ADSK_XREC_LAYER_RECONCILED
360
959E
1001
ACAD
1000
TREAT_AS_HARD
1070
     1
  0
DICTIONARY
  5
95A3
330
24E
100
AcDbDictionary
  3
ADSK_XREC_LAYER_RECONCILED
360
95A4
1001
ACAD
1000
TREAT_AS_HARD
1070
     1
  0
DICTIONARY
  5
88F
330
18
100
AcDbDictionary
  3
ACAD_SORTENTS
360
890
1001
ACAD
1000
TREAT_AS_HARD
1070
     1
  0
DICTIONARY
  5
18D
102
{ACAD_REACTORS
330
C
102
}
330
C
100
AcDbDictionary
1001
ACAD
1000
TREAT_AS_HARD
1070
     0
  0
DICTIONARY
  5
D
102
{ACAD_REACTORS
330
C
102
}
330
C
100
AcDbDictionary
1001
ACAD
1000
TREAT_AS_HARD
1070
     0
  0
DICTIONARY
  5
18E
102
{ACAD_REACTORS
330
C
102
}
330
C
100
AcDbDictionary
1001
ACAD
1000
TREAT_AS_HARD
1070
     0
  0
DICTIONARY
  5
18C
102
{ACAD_REACTORS
330
C
102
}
330
C
100
AcDbDictionary
  3
BYBLOCK
350
9540
  3
BYLAYER
350
9538
  3
GLOBAL
350
9548
1001
ACAD
1000
TREAT_AS_HARD
1070
     0
  0
DICTIONARY
  5
9583
102
{ACAD_REACTORS
330
C
102
}
330
C
100
AcDbDictionary
  3
STANDARD
350
9584
1001
ACAD
1000
TREAT_AS_HARD
1070
     0
  0
DICTIONARY
  5
1B
102
{ACAD_REACTORS
330
C
102
}
330
C
100
AcDbDictionary
  3
STANDARD
350
1C
1001
ACAD
1000
TREAT_AS_HARD
1070
     0
  0
DICTIONARY
  5
18F
102
{ACAD_REACTORS
330
C
102
}
330
C
100
AcDbDictionary
1001
ACAD
1000
TREAT_AS_HARD
1070
     0
  0
DICTIONARY
  5
9561
102
{ACAD_REACTORS
330
C
102
}
330
C
100
AcDbDictionary
  3
A0
350
9562
  3
A1
350
9563
  3
A2
350
9564
  3
A3
350
9565
  3
A4
350
9566
  3
A5
350
9567
  3
A6
350
9568
  3
A7
350
9569
  3
A8
350
956A
  3
A9
350
956B
  3
B0
350
956C
  3
B1
350
956D
  3
B2
350
956E
  3
B3
350
956F
  3
B4
350
9570
  3
B5
350
9571
  3
B6
350
9572
  3
B7
350
9573
  3
B8
350
9574
  3
B9
350
9575
  3
C0
350
9576
  3
C1
350
9577
  3
C2
350
9578
  3
C3
350
9579
  3
C4
350
957A
  3
C5
350
957B
  3
C6
350
957C
  3
C7
350
957D
  3
C8
350
957E
  3
C9
350
957F
  3
D0
350
9580
  3
D1
350
9581
  3
D2
350
9582
1001
ACAD
1000
TREAT_AS_HARD
1070
     0
  0
DICTIONARY
  5
9550
102
{ACAD_REACTORS
330
C
102
}
330
C
100
AcDbDictionary
  3
2DWIREFRAME
350
9556
  3
3D_HIDDEN
350
9558
  3
3DWIREFRAME
350
9557
  3
BASIC
350
9555
  3
BRIGHTEN
350
955C
  3
COLORCHANGE
350
9560
  3
CONCEPTUAL
350
9559
  3
DIM
350
955B
  3
EDGECOLOROFF
350
A211
  3
FACEPATTERN
350
955F
  3
FLAT
350
9551
  3
FLATWITHEDGES
350
9552
  3
GOURAUD
350
9553
  3
GOURAUDWITHEDGES
350
9554
  3
HIDDEN
350
A260
  3
JITTEROFF
350
A20F
  3
LINEPATTERN
350
955E
  3
MODELING
350
A266
  3
OVERHANGOFF
350
A210
  3
REALISTIC
350
955A
  3
SHADED
350
A265
  3
SHADED_WITH_EDGES
350
A264
  3
SHADES_OF_GRAY
350
A261
  3
SKETCHY
350
A262
  3
THICKEN
350
955D
  3
WIREFRAME
350
A25F
  3
X-RAY
350
A263
1001
ACAD
1000
TREAT_AS_HARD
1070
     0
  0
DICTIONARY
  5
B7C5
102
{ACAD_REACTORS
330
C
102
}
330
C
100
AcDbDictionary
  3
COLORDICT
350
B7C6
  3
MATERIALDICT
350
B7C7
1001
ACAD
1000
TREAT_AS_HARD
1070
     0
  0
DICTIONARY
  5
37
102
{ACAD_REACTORS
330
C
102
}
330
C
100
AcDbDictionary
  3
CANNOSCALE
350
AAE0
  3
CMLEADERSTYLE
350
9627
  3
CTABLESTYLE
350
29E
  3
DIMADEC
350
38
  3
DIMASSOC
350
1CE
  3
HIDETEXT
350
704E
  3
INDEXCTL
350
962A
  3
INTERSECTIONCOLOR
350
7052
  3
INTERSECTIONDISPLAY
350
7051
  3
MSLTSCALE
350
AB30
  3
OBSCOLOR
350
704F
  3
OBSLTYPE
350
7050
  3
PROJECTNAME
350
1CF
  3
SORTENTS
350
9629
  3
XCLIPFRAME
350
A25E
1001
ACAD
1000
TREAT_AS_HARD
1070
     0
  0
DICTIONARY
  5
D8
102
{ACAD_REACTORS
330
C
102
}
330
C
100
AcDbDictionary
1001
ACAD
1000
TREAT_AS_HARD
1070
     0
  0
DICTIONARY
  5
20
102
{ACAD_REACTORS
330
C
102
}
330
C
100
AcDbDictionary
1001
DRAWINGVARIABLESXDATA
1000
POLARANG
1000
0.261799387799149410000000
1000
POLARMODE
1000
1
1000
POLARSTYLE
1000
1
1001
ACAD
1000
TREAT_AS_HARD
1070
     0
  0
XRECORD
  5
B7C8
102
{ACAD_REACTORS
330
C
102
}
330
C
100
AcDbXrecord
  1
DWGPROPS COOKIE
  2

  3

  4

  6

  7

  8
3684
  9

300
=
301
=
302
=
303
=
304
=
305
=
306
=
307
=
308
=
309
=
 40
0.0
 41
2451318.246352917
 42
2459086.999394086
  1

 90
        0
  0
DICTIONARY
  5
96DA
102
{ACAD_REACTORS
330
96D9
102
}
330
96D9
100
AcDbDictionary
1001
ACAD
1000
TREAT_AS_HARD
1070
     0
  0
ACAD_PROXY_OBJECT
  5
9594
102
{ACAD_REACTORS
330
9593
102
}
330
9593
100
AcDbZombieObject
 90
      499
 91
      514
 93
       34
310
40C8804040
  0
ACAD_PROXY_OBJECT
  5
9596
102
{ACAD_REACTORS
330
9595
102
}
330
9595
100
AcDbZombieObject
 90
      499
 91
      514
 93
       34
310
40C8804040
  0
ACAD_PROXY_OBJECT
  5
9598
102
{ACAD_REACTORS
330
9597
102
}
330
9597
100
AcDbZombieObject
 90
      499
 91
      514
 93
       34
310
40C8804040
  0
ACAD_PROXY_OBJECT
  5
959E
102
{ACAD_REACTORS
330
959D
102
}
330
959D
100
AcDbZombieObject
 90
      499
 91
      514
 93
       34
310
40C8804040
  0
ACAD_PROXY_OBJECT
  5
95A4
102
{ACAD_REACTORS
330
95A3
102
}
330
95A3
100
AcDbZombieObject
 90
      499
 91
      514
 93
       34
310
40C8804040
  0
SORTENTSTABLE
  5
890
102
{ACAD_REACTORS
330
88F
102
}
330
88F
100
AcDbSortentsTable
330
18
331
B37B
  5
B3C0
331
B37C
  5
B3C1
331
B37D
  5
B3C2
331
B37E
  5
B3C3
331
B380
  5
B3CE
331
B381
  5
B3CF
331
B382
  5
B3D0
331
B383
  5
B3D1
331
B384
  5
B3D2
331
B385
  5
B3D3
331
B386
  5
B3D4
331
B387
  5
B3D5
331
B388
  5
B3D6
331
B389
  5
B3D7
331
B38A
  5
B3D8
331
B38B
  5
B3D9
331
B38C
  5
B3DA
331
B38D
  5
B3DB
331
B38E
  5
B3DC
331
B38F
  5
B3DD
331
B390
  5
B3DE
331
B391
  5
B3DF
331
B392
  5
B3E0
331
B393
  5
B3E1
331
B394
  5
B3E2
331
B395
  5
B3E3
331
B396
  5
B3E4
331
B397
  5
B3E5
331
B398
  5
B3E6
331
B399
  5
B3E7
331
B39A
  5
B3E8
331
B39B
  5
B3E9
331
B39C
  5
B3EA
331
B39D
  5
B3EB
331
B39E
  5
B3EC
331
B39F
  5
B3ED
331
B3A0
  5
B3EE
331
B3A1
  5
B3EF
331
B3A2
  5
B3F0
331
B3A3
  5
B3F1
331
B3A4
  5
B3F2
331
B3A5
  5
B3F3
331
B3A6
  5
B3F4
331
B3A7
  5
B3F5
331
B3A8
  5
B3F6
331
B3A9
  5
B3F7
331
B3AA
  5
B3F8
331
B3AB
  5
B3F9
331
B3AC
  5
B3FA
331
B3AD
  5
B3FB
331
B3AE
  5
B3FC
331
B3AF
  5
B3FD
331
B3B0
  5
B3FE
331
B3B1
  5
B3FF
331
B3B2
  5
B400
331
B3B3
  5
B401
331
B3B4
  5
B402
331
B3B5
  5
B403
331
B3B6
  5
B404
331
B3B7
  5
B405
331
B3B8
  5
B406
331
B3B9
  5
B407
331
B3BA
  5
B408
331
B3BB
  5
B409
331
B3BC
  5
B40A
331
B3BD
  5
B40B
331
B3BE
  5
B40C
331
B3BF
  5
B40D
331
B3C0
  5
B40E
331
B3C1
  5
B40F
331
B3C2
  5
B410
331
B3C3
  5
B411
331
B3C4
  5
B412
331
B3C5
  5
B413
331
B3C6
  5
B414
331
B3C7
  5
B415
331
B3C8
  5
B416
331
B3C9
  5
B417
331
B3CA
  5
B418
331
B3CB
  5
B419
331
B3CC
  5
B41A
331
B3CD
  5
B41B
331
B3CE
  5
B41C
331
B3CF
  5
B41D
331
B3D0
  5
B41E
331
B3D1
  5
B41F
331
B3D2
  5
B420
331
B3D3
  5
B421
331
B3D4
  5
B422
331
B3D5
  5
B423
331
B3D6
  5
B424
331
B3D7
  5
B425
331
B3D8
  5
B426
331
B3D9
  5
B427
331
B3DA
  5
B428
331
B3DB
  5
B429
331
B3DC
  5
B42A
331
B3DD
  5
B42B
331
B3DE
  5
B42C
331
B3DF
  5
B42D
331
B3E0
  5
B42E
331
B3E1
  5
B42F
331
B3E2
  5
B430
331
B3E3
  5
B431
331
B3E4
  5
B432
331
B3E5
  5
B433
331
B3E6
  5
B434
331
B3E7
  5
B435
331
B3E8
  5
B436
331
B3E9
  5
B437
331
B3EA
  5
B438
331
B3EB
  5
B439
331
B3EC
  5
B43A
331
B3ED
  5
B43B
331
B3EE
  5
B43C
331
B3EF
  5
B43D
331
B3F0
  5
B43E
331
B3F1
  5
B43F
331
B3F2
  5
B440
331
B3F3
  5
B441
331
B3F4
  5
B442
331
B3F5
  5
B443
331
B3F6
  5
B444
331
B3F7
  5
B445
331
B3F8
  5
B446
331
B3F9
  5
B447
331
B3FA
  5
B448
331
B3FB
  5
B449
331
B3FC
  5
B44A
331
B3FD
  5
B44B
331
B3FE
  5
B44C
331
B3FF
  5
B44D
331
B400
  5
B44E
331
B401
  5
B44F
331
B402
  5
B450
331
B403
  5
B451
331
B404
  5
B452
331
B405
  5
B453
331
B406
  5
B454
331
B407
  5
B455
331
B408
  5
B456
331
B409
  5
B457
331
B40A
  5
B458
331
B40B
  5
B459
331
B40C
  5
B45A
331
B40D
  5
B45B
331
B40E
  5
B45C
331
B40F
  5
B45D
331
B410
  5
B45E
331
B411
  5
B45F
331
B412
  5
B460
331
B413
  5
B461
331
B414
  5
B462
331
B415
  5
B463
331
B416
  5
B464
331
B417
  5
B465
331
B418
  5
B466
331
B419
  5
B467
331
B41A
  5
B468
331
B41B
  5
B469
331
B41C
  5
B46A
331
B41D
  5
B46B
331
B41E
  5
B46C
331
B41F
  5
B46D
331
B420
  5
B46E
331
B421
  5
B46F
331
B422
  5
B470
331
B423
  5
B471
331
B424
  5
B472
331
B425
  5
B473
331
B426
  5
B474
331
B427
  5
B475
331
B428
  5
B476
331
B429
  5
B477
331
B42A
  5
B478
331
B42B
  5
B479
331
B42C
  5
B47A
331
B42D
  5
B47B
331
B42E
  5
B47C
331
B42F
  5
B47D
331
B430
  5
B47E
331
B431
  5
B47F
331
B432
  5
B480
331
B433
  5
B481
331
B434
  5
B482
331
B435
  5
B483
331
B436
  5
B484
331
B437
  5
B485
331
B438
  5
B486
331
B439
  5
B487
331
B43A
  5
B488
331
B43B
  5
B489
331
B43C
  5
B48A
331
B43D
  5
B48B
331
B43E
  5
B48C
331
B43F
  5
B48D
331
B440
  5
B48E
331
B441
  5
B48F
331
B442
  5
B490
331
B443
  5
B491
331
B444
  5
B492
331
B445
  5
B493
331
B446
  5
B494
331
B447
  5
B495
331
B448
  5
B496
331
B449
  5
B497
331
B44A
  5
B498
331
B44B
  5
B499
331
B44C
  5
B49A
331
B44D
  5
B49B
331
B44E
  5
B49C
331
B44F
  5
B49D
331
B450
  5
B49E
331
B451
  5
B49F
331
B452
  5
B4A0
331
B453
  5
B4A1
331
B454
  5
B4A2
331
B455
  5
B4A3
331
B456
  5
B4A4
331
B457
  5
B4A5
331
B458
  5
B4A6
331
B459
  5
B4A7
331
B45A
  5
B4A8
331
B45B
  5
B4A9
331
B45C
  5
B4AA
331
B45D
  5
B4AB
331
B45E
  5
B4AC
331
B45F
  5
B4AD
331
B460
  5
B4AE
331
B461
  5
B4AF
331
B462
  5
B4B0
331
B463
  5
B4B1
331
B464
  5
B4B2
331
B465
  5
B4B3
331
B466
  5
B4B4
331
B467
  5
B4B5
331
B468
  5
B4B6
331
B469
  5
B4B7
331
B46A
  5
B4B8
331
B46B
  5
B4B9
331
B46C
  5
B4BA
331
B46D
  5
B4BB
331
B46E
  5
B4BC
331
B46F
  5
B4BD
331
B470
  5
B4BE
331
B471
  5
B4BF
331
B472
  5
B4C0
331
B473
  5
B4C1
331
B474
  5
B4C2
331
B475
  5
B4C3
331
B476
  5
B4C4
331
B477
  5
B4C5
331
B478
  5
B4C6
331
B479
  5
B4C7
331
B47A
  5
B4C8
331
B47B
  5
B4C9
331
B47C
  5
B4CA
331
B47D
  5
B4CB
331
B47E
  5
B4CC
331
B47F
  5
B4CD
331
B480
  5
B4CE
331
B481
  5
B4CF
331
B482
  5
B4D0
331
B483
  5
B4D1
331
B484
  5
B4D2
331
B485
  5
B4D3
331
B486
  5
B4D4
331
B487
  5
B4D5
331
B488
  5
B4D6
331
B489
  5
B4D7
331
B48A
  5
B4D8
331
B48B
  5
B4D9
331
B48C
  5
B4DA
331
B48D
  5
B4DB
331
B48E
  5
B4DC
331
B48F
  5
B4DD
331
B490
  5
B4DE
331
B491
  5
B4DF
331
B492
  5
B4E0
331
B493
  5
B4E1
331
B494
  5
B4E2
331
B495
  5
B4E3
331
B496
  5
B4E4
331
B497
  5
B4E5
331
B498
  5
B4E6
331
B499
  5
B4E7
331
B49A
  5
B4E8
331
B49B
  5
B4E9
331
B49C
  5
B4EA
331
B49D
  5
B4EB
331
B49E
  5
B4EC
331
B49F
  5
B4ED
331
B4A0
  5
B4EE
331
B4A1
  5
B4EF
331
B4A2
  5
B4F0
331
B4A3
  5
B4F1
331
B4A4
  5
B4F2
331
B4A5
  5
B4F3
331
B4A6
  5
B4F4
331
B4A7
  5
B4F5
331
B4A8
  5
B4F6
331
B4A9
  5
B4F7
331
B4AA
  5
B4F8
331
B4AB
  5
B4F9
331
B4AC
  5
B4FA
331
B4AD
  5
B4FB
331
B4AE
  5
B4FC
331
B4AF
  5
B4FD
331
B4B0
  5
B4FE
331
B4B1
  5
B4FF
331
B4B2
  5
B500
331
B4B3
  5
B501
331
B4B4
  5
B502
331
B4B5
  5
B503
331
B4B6
  5
B504
331
B4B7
  5
B505
331
B4B8
  5
B506
331
B4B9
  5
B507
331
B4BA
  5
B508
331
B4BB
  5
B509
331
B4BC
  5
B50A
331
B4BD
  5
B50B
331
B4BE
  5
B50C
331
B4BF
  5
B50D
331
B4C0
  5
B50E
331
B4C1
  5
B50F
331
B4C2
  5
B510
331
B4C3
  5
B511
331
B4C4
  5
B512
331
B4C5
  5
B513
331
B4C6
  5
B514
331
B4C7
  5
B515
331
B4C8
  5
B516
331
B4C9
  5
B517
331
B4CA
  5
B518
331
B4CB
  5
B519
331
B4CC
  5
B51A
331
B4CD
  5
B51B
331
B4CE
  5
B51C
331
B4CF
  5
B51D
331
B4D0
  5
B51E
331
B4D1
  5
B51F
331
B4D2
  5
B520
331
B4D3
  5
B521
331
B4D4
  5
B522
331
B4D5
  5
B523
331
B4D6
  5
B524
331
B4D7
  5
B525
331
B4D8
  5
B526
331
B4D9
  5
B527
331
B4DA
  5
B528
331
B4DB
  5
B529
331
B4DC
  5
B52A
331
B4DD
  5
B52B
331
B4DE
  5
B52C
331
B4DF
  5
B52D
331
B4E0
  5
B52E
331
B4E1
  5
B52F
331
B4E2
  5
B530
331
B4E3
  5
B531
331
B4E4
  5
B532
331
B4E5
  5
B533
331
B4E6
  5
B534
331
B4E7
  5
B535
331
B4E8
  5
B536
331
B4E9
  5
B537
331
B4EA
  5
B538
331
B4EB
  5
B539
331
B4EC
  5
B53A
331
B4ED
  5
B53B
331
B4EE
  5
B53C
331
B4EF
  5
B53D
331
B4F0
  5
B53E
331
B4F1
  5
B53F
331
B4F2
  5
B540
331
B4F3
  5
B541
331
B4F4
  5
B542
331
B4F5
  5
B543
331
B4F6
  5
B544
331
B4F7
  5
B545
331
B4F8
  5
B546
331
B4F9
  5
B547
331
B4FA
  5
B548
331
B4FB
  5
B549
331
B4FC
  5
B54A
331
B4FD
  5
B54B
331
B4FE
  5
B54C
331
B4FF
  5
B54D
331
B500
  5
B54E
331
B501
  5
B54F
331
B502
  5
B550
331
B503
  5
B551
331
B504
  5
B552
331
B505
  5
B553
331
B506
  5
B554
331
B507
  5
B555
331
B508
  5
B556
331
B509
  5
B557
331
B50A
  5
B558
331
B50B
  5
B559
331
B50C
  5
B55A
331
B50D
  5
B55B
331
B50E
  5
B55C
331
B50F
  5
B55D
331
B510
  5
B55E
331
B511
  5
B55F
331
B512
  5
B560
331
B513
  5
B561
331
B514
  5
B562
331
B515
  5
B563
331
B516
  5
B564
331
B517
  5
B565
331
B518
  5
B566
331
B519
  5
B567
331
B51A
  5
B568
331
B51B
  5
B569
331
B51C
  5
B56A
331
B51D
  5
B56B
331
B51E
  5
B56C
331
B51F
  5
B56D
331
B520
  5
B56E
331
B521
  5
B56F
331
B522
  5
B570
331
B523
  5
B571
331
B524
  5
B572
331
B525
  5
B573
331
B526
  5
B574
331
B527
  5
B575
331
B528
  5
B576
331
B529
  5
B577
331
B52A
  5
B578
331
B52B
  5
B579
331
B52C
  5
B57A
331
B52D
  5
B57B
331
B52E
  5
B57C
331
B52F
  5
B57D
331
B530
  5
B57E
331
B531
  5
B57F
331
B532
  5
B580
331
B533
  5
B581
331
B534
  5
B582
331
B535
  5
B583
331
B536
  5
B584
331
B537
  5
B585
331
B538
  5
B586
331
B539
  5
B587
331
B53A
  5
B588
331
B53B
  5
B589
331
B53C
  5
B58A
331
B53D
  5
B58B
331
B53E
  5
B58C
331
B53F
  5
B58D
331
B540
  5
B58E
331
B541
  5
B58F
331
B542
  5
B590
331
B543
  5
B591
331
B544
  5
B592
331
B545
  5
B593
331
B546
  5
B594
331
B547
  5
B595
331
B548
  5
B596
331
B549
  5
B597
331
B54A
  5
B598
331
B54B
  5
B599
331
B54C
  5
B59A
331
B54D
  5
B59B
331
B54E
  5
B59C
331
B54F
  5
B59D
331
B550
  5
B59E
331
B551
  5
B59F
331
B552
  5
B5A0
331
B553
  5
B5A1
331
B554
  5
B5A2
331
B555
  5
B5A3
331
B556
  5
B5A4
331
B557
  5
B5A5
331
B558
  5
B5A6
331
B559
  5
B5A7
331
B55A
  5
B5A8
331
B55B
  5
B5A9
331
B55C
  5
B5AA
331
B55D
  5
B5AB
331
B55E
  5
B5AC
331
B55F
  5
B5AD
331
B560
  5
B5AE
331
B561
  5
B5AF
331
B562
  5
B5B0
331
B563
  5
B5B1
331
B564
  5
B5B2
331
B565
  5
B5B3
331
B566
  5
B5B4
331
B567
  5
B5B5
331
B568
  5
B5B6
331
B569
  5
B5B7
331
B56A
  5
B5B8
331
B56B
  5
B5B9
331
B56C
  5
B5BA
331
B56D
  5
B5BB
331
B56E
  5
B5BC
331
B56F
  5
B5BD
331
B570
  5
B5BE
331
B571
  5
B5BF
331
B572
  5
B5C0
331
B573
  5
B5C1
331
B574
  5
B5C2
331
B575
  5
B5C3
331
B576
  5
B5C4
331
B577
  5
B5C5
331
B578
  5
B5C6
331
B579
  5
B5C7
331
B57A
  5
B5C8
331
B57B
  5
B5C9
331
B57C
  5
B5CA
331
B57D
  5
B5CB
331
B57E
  5
B5CC
331
B57F
  5
B5CD
331
B580
  5
B5CE
331
B581
  5
B5CF
331
B582
  5
B5D0
331
B583
  5
B5D1
331
B584
  5
B5D2
331
B585
  5
B5D3
331
B586
  5
B5D4
331
B587
  5
B5D5
331
B588
  5
B5D6
331
B589
  5
B5D7
331
B58A
  5
B5D8
331
B58B
  5
B5D9
331
B58C
  5
B5DA
331
B58D
  5
B5DB
331
B58E
  5
B5DC
331
B58F
  5
B5DD
331
B590
  5
B5DE
331
B591
  5
B5DF
331
B592
  5
B5E0
331
B593
  5
B5E1
331
B594
  5
B5E2
331
B595
  5
B5E3
331
B596
  5
B5E4
331
B597
  5
B5E5
331
B598
  5
B5E6
331
B599
  5
B5E7
331
B59A
  5
B5E8
331
B59B
  5
B5E9
331
B59C
  5
B5EA
331
B59D
  5
B5EB
331
B59E
  5
B5EC
331
B59F
  5
B5ED
331
B5A0
  5
B5EE
331
B5A1
  5
B5EF
331
B5A2
  5
B5F0
331
B5A3
  5
B5F1
331
B5A4
  5
B5F2
331
B5A5
  5
B5F3
331
B5A6
  5
B5F4
331
B5A7
  5
B5F5
331
B5A8
  5
B5F6
331
B5A9
  5
B5F7
331
B5AA
  5
B5F8
331
B5AB
  5
B5F9
331
B5AC
  5
B5FA
331
B5AD
  5
B5FB
331
B5AE
  5
B5FC
331
B5AF
  5
B5FD
331
B5B0
  5
B5FE
331
B5B1
  5
B5FF
331
B5B2
  5
B600
331
B5B3
  5
B601
331
B5B4
  5
B602
331
B5B5
  5
B603
331
B5B6
  5
B604
331
B5B7
  5
B605
331
B5B8
  5
B606
331
B5B9
  5
B607
331
B5BA
  5
B608
331
B5BB
  5
B609
331
B5BC
  5
B60A
331
B5BD
  5
B60B
331
B5BE
  5
B60C
331
B5BF
  5
B60D
331
B5C0
  5
B60E
331
B5C1
  5
B60F
331
B5C2
  5
B610
331
B5C3
  5
B611
331
B5C4
  5
B612
331
B5C5
  5
B613
331
B5C6
  5
B614
331
B5C7
  5
B615
331
B5C8
  5
B616
331
B5C9
  5
B617
331
B5CA
  5
B618
331
B5CB
  5
B619
331
B5CC
  5
B61A
331
B5CD
  5
B61B
331
B5CE
  5
B777
331
B5CF
  5
B778
331
B5D0
  5
B779
331
B5D1
  5
B77A
331
B5D2
  5
B77B
331
B5D3
  5
B77C
331
B5D4
  5
B77D
331
B5D5
  5
B77E
331
B5D6
  5
B77F
331
B5D7
  5
B780
331
B5D8
  5
B781
331
B5D9
  5
B782
331
B5DA
  5
B783
331
B5DB
  5
B784
331
B5DC
  5
B785
331
B5DD
  5
B786
331
B5DE
  5
B787
331
B5DF
  5
B788
331
B5E0
  5
B789
331
B5E1
  5
B78A
331
B5E2
  5
B78B
331
B5E3
  5
B78C
331
B5E4
  5
B78D
331
B5E5
  5
B78E
331
B5E6
  5
B78F
331
B5E7
  5
B790
331
B5E8
  5
B791
331
B5E9
  5
B792
331
B5EA
  5
B793
331
B5EB
  5
B794
331
B5EC
  5
B795
331
B5ED
  5
B796
331
B5EE
  5
B797
331
B5EF
  5
B798
331
B5F0
  5
B799
331
B5F1
  5
B79A
331
B5F2
  5
B79B
331
B5F3
  5
B79C
331
B5F4
  5
B79D
331
B5F5
  5
B79E
331
B5F6
  5
B79F
331
B5F7
  5
B7A0
331
B5F8
  5
B7A1
331
B5F9
  5
B7A2
331
B5FA
  5
B7A3
331
B5FB
  5
B7A4
331
B5FC
  5
B7A5
331
B5FD
  5
B7A6
331
B5FE
  5
B7A7
331
B5FF
  5
B7A8
331
B600
  5
B7A9
331
B601
  5
B7AA
331
B602
  5
B7AB
331
B603
  5
B7AC
331
B604
  5
B7AD
331
B605
  5
B7AE
331
B606
  5
B7AF
331
B607
  5
B7B0
331
B608
  5
B7B1
331
B609
  5
B7B2
331
B60A
  5
B7B3
331
B60B
  5
B7B4
331
B60C
  5
B7B5
331
B60D
  5
B7B6
331
B60E
  5
B7B7
331
B60F
  5
B7B8
331
B610
  5
B7B9
331
B611
  5
B7BA
331
B612
  5
B7BB
331
B613
  5
B7BC
331
B614
  5
B7BD
331
B615
  5
B7BE
331
B616
  5
B7BF
331
B617
  5
B7C0
331
B618
  5
B7C1
331
B619
  5
B7C2
331
B61A
  5
B7C3
331
B61B
  5
B7C4
331
B777
  5
B3C4
331
B778
  5
B3C5
331
B779
  5
B3C6
331
0
  5
B383
331
0
  5
B384
331
0
  5
B385
331
B77D
  5
B3C7
331
B77E
  5
B3C8
331
B77F
  5
B3C9
331
B780
  5
B3CA
331
B781
  5
B3CB
331
B782
  5
B3CC
331
B783
  5
B3CD
331
B784
  5
B37B
331
B785
  5
B37C
331
B786
  5
B37D
331
0
  5
B37E
331
0
  5
B380
331
0
  5
B381
331
B78A
  5
B392
331
B78B
  5
B393
331
B78C
  5
B397
331
0
  5
B388
331
0
  5
B389
331
0
  5
B38A
331
B790
  5
B3A2
331
B791
  5
B3A3
331
B792
  5
B3A4
331
0
  5
B38E
331
0
  5
B38F
331
0
  5
B390
331
B796
  5
B3AC
331
B797
  5
B3AD
331
B798
  5
B3AE
331
0
  5
B394
331
0
  5
B395
331
0
  5
B396
331
B79C
  5
B3B6
331
B79D
  5
B3B7
331
B79E
  5
B3B8
331
0
  5
B39A
331
0
  5
B39B
331
0
  5
B39C
331
B7A2
  5
B382
331
B7A3
  5
B386
331
B7A4
  5
B387
331
B7A5
  5
B38B
331
B7A6
  5
B38C
331
B7A7
  5
B38D
331
B7A8
  5
B391
331
B7A9
  5
B398
331
B7AA
  5
B399
331
B7AB
  5
B39D
331
B7AC
  5
B39E
331
B7AD
  5
B39F
331
B7AE
  5
B3A0
331
B7AF
  5
B3A1
331
B7B0
  5
B3A5
331
B7B1
  5
B3A6
331
B7B2
  5
B3A7
331
B7B3
  5
B3A8
331
B7B4
  5
B3A9
331
B7B5
  5
B3AA
331
B7B6
  5
B3AB
331
B7B7
  5
B3AF
331
B7B8
  5
B3B0
331
B7B9
  5
B3B1
331
B7BA
  5
B3B2
331
B7BB
  5
B3B3
331
B7BC
  5
B3B4
331
B7BD
  5
B3B5
331
B7BE
  5
B3B9
331
B7BF
  5
B3BA
331
B7C0
  5
B3BB
331
B7C1
  5
B3BC
331
B7C2
  5
B3BD
331
B7C3
  5
B3BE
331
B7C4
  5
B3BF
  0
MATERIAL
  5
9540
102
{ACAD_REACTORS
330
18C
102
}
102
{ACAD_XDICTIONARY
360
B963
102
}
330
18C
100
AcDbMaterial
  1
BYBLOCK
 72
     0
 73
     2
 43
0.0208333333333333
 43
0.0
 43
0.0
 43
0.0
 43
0.0
 43
0.0208333333333333
 43
0.0
 43
0.0
 43
0.0
 43
0.0
 43
1.0
 43
0.0
 43
0.0
 43
0.0
 43
0.0
 43
1.0
 77
     0
 78
     2
 47
0.0208333333333333
 47
0.0
 47
0.0
 47
0.0
 47
0.0
 47
0.0208333333333333
 47
0.0
 47
0.0
 47
0.0
 47
0.0
 47
1.0
 47
0.0
 47
0.0
 47
0.0
 47
0.0
 47
1.0
171
     0
172
     2
 49
0.0208333333333333
 49
0.0
 49
0.0
 49
0.0
 49
0.0
 49
0.0208333333333333
 49
0.0
 49
0.0
 49
0.0
 49
0.0
 49
1.0
 49
0.0
 49
0.0
 49
0.0
 49
0.0
 49
1.0
175
     0
176
     2
142
0.0208333333333333
142
0.0
142
0.0
142
0.0
142
0.0
142
0.0208333333333333
142
0.0
142
0.0
142
0.0
142
0.0
142
1.0
142
0.0
142
0.0
142
0.0
142
0.0
142
1.0
179
     0
270
     2
144
0.0208333333333333
144
0.0
144
0.0
144
0.0
144
0.0
144
0.0208333333333333
144
0.0
144
0.0
144
0.0
144
0.0
144
1.0
144
0.0
144
0.0
144
0.0
144
0.0
144
1.0
274
     2
147
0.0208333333333333
147
0.0
147
0.0
147
0.0
147
0.0
147
0.0208333333333333
147
0.0
147
0.0
147
0.0
147
0.0
147
1.0
147
0.0
147
0.0
147
0.0
147
0.0
147
1.0
  0
MATERIAL
  5
9538
102
{ACAD_REACTORS
330
18C
102
}
102
{ACAD_XDICTIONARY
360
B965
102
}
330
18C
100
AcDbMaterial
  1
BYLAYER
 72
     0
 73
     2
 43
0.0208333333333333
 43
0.0
 43
0.0
 43
0.0
 43
0.0
 43
0.0208333333333333
 43
0.0
 43
0.0
 43
0.0
 43
0.0
 43
1.0
 43
0.0
 43
0.0
 43
0.0
 43
0.0
 43
1.0
 77
     0
 78
     2
 47
0.0208333333333333
 47
0.0
 47
0.0
 47
0.0
 47
0.0
 47
0.0208333333333333
 47
0.0
 47
0.0
 47
0.0
 47
0.0
 47
1.0
 47
0.0
 47
0.0
 47
0.0
 47
0.0
 47
1.0
171
     0
172
     2
 49
0.0208333333333333
 49
0.0
 49
0.0
 49
0.0
 49
0.0
 49
0.0208333333333333
 49
0.0
 49
0.0
 49
0.0
 49
0.0
 49
1.0
 49
0.0
 49
0.0
 49
0.0
 49
0.0
 49
1.0
175
     0
176
     2
142
0.0208333333333333
142
0.0
142
0.0
142
0.0
142
0.0
142
0.0208333333333333
142
0.0
142
0.0
142
0.0
142
0.0
142
1.0
142
0.0
142
0.0
142
0.0
142
0.0
142
1.0
179
     0
270
     2
144
0.0208333333333333
144
0.0
144
0.0
144
0.0
144
0.0
144
0.0208333333333333
144
0.0
144
0.0
144
0.0
144
0.0
144
1.0
144
0.0
144
0.0
144
0.0
144
0.0
144
1.0
274
     2
147
0.0208333333333333
147
0.0
147
0.0
147
0.0
147
0.0
147
0.0208333333333333
147
0.0
147
0.0
147
0.0
147
0.0
147
1.0
147
0.0
147
0.0
147
0.0
147
0.0
147
1.0
  0
MATERIAL
  5
9548
102
{ACAD_REACTORS
330
18C
102
}
102
{ACAD_XDICTIONARY
360
B967
102
}
330
18C
100
AcDbMaterial
  1
GLOBAL
 72
     0
 73
     2
 43
0.0208333333333333
 43
0.0
 43
0.0
 43
0.0
 43
0.0
 43
0.0208333333333333
 43
0.0
 43
0.0
 43
0.0
 43
0.0
 43
1.0
 43
0.0
 43
0.0
 43
0.0
 43
0.0
 43
1.0
 77
     0
 78
     2
 47
0.0208333333333333
 47
0.0
 47
0.0
 47
0.0
 47
0.0
 47
0.0208333333333333
 47
0.0
 47
0.0
 47
0.0
 47
0.0
 47
1.0
 47
0.0
 47
0.0
 47
0.0
 47
0.0
 47
1.0
171
     0
172
     2
 49
0.0208333333333333
 49
0.0
 49
0.0
 49
0.0
 49
0.0
 49
0.0208333333333333
 49
0.0
 49
0.0
 49
0.0
 49
0.0
 49
1.0
 49
0.0
 49
0.0
 49
0.0
 49
0.0
 49
1.0
175
     0
176
     2
142
0.0208333333333333
142
0.0
142
0.0
142
0.0
142
0.0
142
0.0208333333333333
142
0.0
142
0.0
142
0.0
142
0.0
142
1.0
142
0.0
142
0.0
142
0.0
142
0.0
142
1.0
179
     0
270
     2
144
0.0208333333333333
144
0.0
144
0.0
144
0.0
144
0.0
144
0.0208333333333333
144
0.0
144
0.0
144
0.0
144
0.0
144
1.0
144
0.0
144
0.0
144
0.0
144
0.0
144
1.0
274
     2
147
0.0208333333333333
147
0.0
147
0.0
147
0.0
147
0.0
147
0.0208333333333333
147
0.0
147
0.0
147
0.0
147
0.0
147
1.0
147
0.0
147
0.0
147
0.0
147
0.0
147
1.0
  0
ACAD_PROXY_OBJECT
  5
9584
102
{ACAD_REACTORS
330
9583
102
}
330
9583
100
AcDbZombieObject
 90
      499
 91
      511
 93
      610
310
40901902A4063FBFFFFFE000000000000002040AD7A3703D0AD73F4214DD185B99185C990000000000000104090141901A00000000000004100000000000000041025764000000000000300FC0
340
12
340
0
340
F
340
0
 94
        0
1001
ACAD_MLEADERVER
1070
     2
  0
MLINESTYLE
  5
1C
102
{ACAD_REACTORS
330
1B
102
}
330
1B
100
AcDbMlineStyle
  2
STANDARD
 70
     0
  3

 62
   256
 51
90.0
 52
90.0
 71
     2
 49
0.5
 62
   256
  6
BYLAYER
 49
-0.5
 62
   256
  6
BYLAYER
  0
ACAD_PROXY_OBJECT
  5
9562
102
{ACAD_REACTORS
330
9561
102
}
330
9561
100
AcDbZombieObject
 90
      499
 91
      510
 93
       41
310
903313A31580
  0
ACAD_PROXY_OBJECT
  5
9563
102
{ACAD_REACTORS
330
9561
102
}
330
9561
100
AcDbZombieObject
 90
      499
 91
      510
 93
      105
310
903313A324000000000000004000
  0
ACAD_PROXY_OBJECT
  5
9564
102
{ACAD_REACTORS
330
9561
102
}
330
9561
100
AcDbZombieObject
 90
      499
 91
      510
 93
      105
310
903313A344000000000000104000
  0
ACAD_PROXY_OBJECT
  5
9565
102
{ACAD_REACTORS
330
9561
102
}
330
9561
100
AcDbZombieObject
 90
      499
 91
      510
 93
      105
310
903313A354000000000000144000
  0
ACAD_PROXY_OBJECT
  5
9566
102
{ACAD_REACTORS
330
9561
102
}
330
9561
100
AcDbZombieObject
 90
      499
 91
      510
 93
      105
310
903313A384000000000000204000
  0
ACAD_PROXY_OBJECT
  5
9567
102
{ACAD_REACTORS
330
9561
102
}
330
9561
100
AcDbZombieObject
 90
      499
 91
      510
 93
      113
310
904313A31304000000000000244000
  0
ACAD_PROXY_OBJECT
  5
9568
102
{ACAD_REACTORS
330
9561
102
}
330
9561
100
AcDbZombieObject
 90
      499
 91
      510
 93
      113
310
904313A31364000000000000304000
  0
ACAD_PROXY_OBJECT
  5
9569
102
{ACAD_REACTORS
330
9561
102
}
330
9561
100
AcDbZombieObject
 90
      499
 91
      510
 93
      113
310
904313A32304000000000000344000
  0
ACAD_PROXY_OBJECT
  5
956A
102
{ACAD_REACTORS
330
9561
102
}
330
9561
100
AcDbZombieObject
 90
      499
 91
      510
 93
      113
310
904313A333040000000000003E4000
  0
ACAD_PROXY_OBJECT
  5
956B
102
{ACAD_REACTORS
330
9561
102
}
330
9561
100
AcDbZombieObject
 90
      499
 91
      510
 93
      113
310
904313A34304000000000000444000
  0
ACAD_PROXY_OBJECT
  5
956C
102
{ACAD_REACTORS
330
9561
102
}
330
9561
100
AcDbZombieObject
 90
      499
 91
      510
 93
      113
310
904313A35304000000000000494000
  0
ACAD_PROXY_OBJECT
  5
956D
102
{ACAD_REACTORS
330
9561
102
}
330
9561
100
AcDbZombieObject
 90
      499
 91
      510
 93
      121
310
905313A3130304000000000000594000
  0
ACAD_PROXY_OBJECT
  5
956E
102
{ACAD_REACTORS
330
9561
102
}
330
9561
100
AcDbZombieObject
 90
      499
 91
      510
 93
      105
310
903323A310000000000000010100
  0
ACAD_PROXY_OBJECT
  5
956F
102
{ACAD_REACTORS
330
9561
102
}
330
9561
100
AcDbZombieObject
 90
      499
 91
      510
 93
      105
310
903343A310000000000000410100
  0
ACAD_PROXY_OBJECT
  5
9570
102
{ACAD_REACTORS
330
9561
102
}
330
9561
100
AcDbZombieObject
 90
      499
 91
      510
 93
      105
310
903383A310000000000000810100
  0
ACAD_PROXY_OBJECT
  5
9571
102
{ACAD_REACTORS
330
9561
102
}
330
9561
100
AcDbZombieObject
 90
      499
 91
      510
 93
      113
310
90431303A310000000000000910100
  0
ACAD_PROXY_OBJECT
  5
9572
102
{ACAD_REACTORS
330
9561
102
}
330
9561
100
AcDbZombieObject
 90
      499
 91
      510
 93
      121
310
9053130303A310000000000001650100
  0
ACAD_PROXY_OBJECT
  5
9573
102
{ACAD_REACTORS
330
9561
102
}
330
9561
100
AcDbZombieObject
 90
      499
 91
      510
 93
      257
310
90E312F31323822203D2031272D3022000000000000200FC000000000000284000
  0
ACAD_PROXY_OBJECT
  5
9574
102
{ACAD_REACTORS
330
9561
102
}
330
9561
100
AcDbZombieObject
 90
      499
 91
      510
 93
      249
310
90D312F363422203D2031272D3022000000000000240FC000000000000284000
  0
ACAD_PROXY_OBJECT
  5
9575
102
{ACAD_REACTORS
330
9561
102
}
330
9561
100
AcDbZombieObject
 90
      499
 91
      510
 93
      249
310
90D312F333222203D2031272D3022000000000000280FC000000000000284000
  0
ACAD_PROXY_OBJECT
  5
9576
102
{ACAD_REACTORS
330
9561
102
}
330
9561
100
AcDbZombieObject
 90
      499
 91
      510
 93
      249
310
90D312F313622203D2031272D30220000000000002C0FC000000000000284000
  0
ACAD_PROXY_OBJECT
  5
9577
102
{ACAD_REACTORS
330
9561
102
}
330
9561
100
AcDbZombieObject
 90
      499
 91
      510
 93
      249
310
90D332F333222203D2031272D30220000000000002E0FC000000000000284000
  0
ACAD_PROXY_OBJECT
  5
9578
102
{ACAD_REACTORS
330
9561
102
}
330
9561
100
AcDbZombieObject
 90
      499
 91
      510
 93
      241
310
90C312F3822203D2031272D3022000000000000300FC000000000000284000
  0
ACAD_PROXY_OBJECT
  5
9579
102
{ACAD_REACTORS
330
9561
102
}
330
9561
100
AcDbZombieObject
 90
      499
 91
      510
 93
      249
310
90D332F313622203D2031272D3022000000000000320FC000000000000284000
  0
ACAD_PROXY_OBJECT
  5
957A
102
{ACAD_REACTORS
330
9561
102
}
330
9561
100
AcDbZombieObject
 90
      499
 91
      510
 93
      241
310
90C312F3422203D2031272D3022000000000000340FC000000000000284000
  0
ACAD_PROXY_OBJECT
  5
957B
102
{ACAD_REACTORS
330
9561
102
}
330
9561
100
AcDbZombieObject
 90
      499
 91
      510
 93
      241
310
90C332F3822203D2031272D3022000000000000360FC000000000000284000
  0
ACAD_PROXY_OBJECT
  5
957C
102
{ACAD_REACTORS
330
9561
102
}
330
9561
100
AcDbZombieObject
 90
      499
 91
      510
 93
      241
310
90C312F3222203D2031272D3022000000000000380FC000000000000284000
  0
ACAD_PROXY_OBJECT
  5
957D
102
{ACAD_REACTORS
330
9561
102
}
330
9561
100
AcDbZombieObject
 90
      499
 91
      510
 93
      241
310
90C332F3422203D2031272D30220000000000003A0FC000000000000284000
  0
ACAD_PROXY_OBJECT
  5
957E
102
{ACAD_REACTORS
330
9561
102
}
330
9561
100
AcDbZombieObject
 90
      499
 91
      510
 93
      161
310
90A3122203D2031272D30224000000000000284000
  0
ACAD_PROXY_OBJECT
  5
957F
102
{ACAD_REACTORS
330
9561
102
}
330
9561
100
AcDbZombieObject
 90
      499
 91
      510
 93
      257
310
90E312D312F3222203D2031272D30220000000000003E0FC000000000000284000
  0
ACAD_PROXY_OBJECT
  5
9580
102
{ACAD_REACTORS
330
9561
102
}
330
9561
100
AcDbZombieObject
 90
      499
 91
      510
 93
      225
310
90A3322203D2031272D302200000000000002100000000000000284000
  0
ACAD_PROXY_OBJECT
  5
9581
102
{ACAD_REACTORS
330
9561
102
}
330
9561
100
AcDbZombieObject
 90
      499
 91
      510
 93
      225
310
90A3622203D2031272D302200000000000006100000000000000284000
  0
ACAD_PROXY_OBJECT
  5
9582
102
{ACAD_REACTORS
330
9561
102
}
330
9561
100
AcDbZombieObject
 90
      499
 91
      510
 93
      249
310
90D31272D3022203D2031272D30220000000000000A100000000000000284000
  0
ACAD_PROXY_OBJECT
  5
9556
102
{ACAD_REACTORS
330
9550
102
}
330
9550
100
AcDbZombieObject
 90
      499
 91
      509
 93
      436
310
42CC9915DA5C99599C985B595049028333333333333E3BF0000000000000FB0107901411070040501600405405064090741402480A0340
1001
ACAD
1000
AcDbSavedByObjectVersion
1070
     0
  0
ACAD_PROXY_OBJECT
  5
9558
102
{ACAD_REACTORS
330
9550
102
}
330
9550
100
AcDbZombieObject
 90
      499
 91
      509
 93
      500
310
424CD108121A5919195B90640502408333333333333E3BF0000000000000FB01079024090700405020000000000001110200405405064090740C02480A0340
1001
ACAD
1000
AcDbSavedByObjectVersion
1070
     0
  0
ACAD_PROXY_OBJECT
  5
9557
102
{ACAD_REACTORS
330
9550
102
}
330
9550
100
AcDbZombieObject
 90
      499
 91
      509
 93
      436
310
42CCD915DA5C99599C985B595059028333333333333E3BF0000000000000FB0107901411070040501600405405064090741402480A0340
1001
ACAD
1000
AcDbSavedByObjectVersion
1070
     0
  0
ACAD_PROXY_OBJECT
  5
9555
102
{ACAD_REACTORS
330
9550
102
}
330
9550
100
AcDbZombieObject
 90
      499
 91
      509
 93
      388
310
4150985CDA58D07406404333333333333E3BF0000000000000FB0107A41107004050150841D405064090741402480A0350
1001
ACAD
1000
AcDbSavedByObjectVersion
1070
     0
  0
ACAD_PROXY_OBJECT
  5
955C
102
{ACAD_REACTORS
330
9550
102
}
330
9550
100
AcDbZombieObject
 90
      499
 91
      509
 93
      428
310
42109C9A59DA1D195B90C409028333333333333E3BF0000000000000FB010790141107004050150841D405064090741402480A029950
1001
ACAD
1000
AcDbSavedByObjectVersion
1070
     0
  0
ACAD_PROXY_OBJECT
  5
9560
102
{ACAD_REACTORS
330
9550
102
}
330
9550
100
AcDbZombieObject
 90
      499
 91
      509
 93
      452
310
42D0DBDB1BDC90DA185B99D95104090240C333333333333E3BF0000000000000FB0108901411070040501508421405064090741402480A0350
1001
ACAD
1000
AcDbSavedByObjectVersion
1070
     0
  0
ACAD_PROXY_OBJECT
  5
9559
102
{ACAD_REACTORS
330
9550
102
}
330
9550
100
AcDbZombieObject
 90
      499
 91
      509
 93
      500
310
4290DBDB98D95C1D1D585B10940D028333333333333E3BF0000000000000FB0107902409070040501000000000000111010841D405064090740C02480A0340
1001
ACAD
1000
AcDbSavedByObjectVersion
1070
     0
  0
ACAD_PROXY_OBJECT
  5
955B
102
{ACAD_REACTORS
330
9550
102
}
330
9550
100
AcDbZombieObject
 90
      499
 91
      509
 93
      412
310
40D11A5B50B409028333333333333E3BF0000000000000FB010790141107004050150841D405064090741402480A02677FFFFFD0
1001
ACAD
1000
AcDbSavedByObjectVersion
1070
     0
  0
ACAD_PROXY_OBJECT
  5
A211
102
{ACAD_REACTORS
330
9550
102
}
330
9550
100
AcDbZombieObject
 90
      499
 91
      509
 93
      452
310
43115919D950DBDB1BDC93D999916409028333333333333E3BF0000000000000FB010790141107004050150841D405064090741402480A0350
1001
ACAD
1000
AcDbSavedByObjectVersion
1070
     0
  0
ACAD_PROXY_OBJECT
  5
955F
102
{ACAD_REACTORS
330
9550
102
}
330
9550
100
AcDbZombieObject
 90
      499
 91
      509
 93
      444
310
42D19858D95C185D1D195C9B90F409028333333333333E3BF0000000000000FB010790141107004050150841D405064090741402480A0350
1001
ACAD
1000
AcDbSavedByObjectVersion
1070
     0
  0
ACAD_PROXY_OBJECT
  5
9551
102
{ACAD_REACTORS
330
9550
102
}
330
9550
100
AcDbZombieObject
 90
      499
 91
      509
 93
      388
310
41119B185D240901404333333333333E3BF0000000000000F9010740A41107004050150841D405064090741402480A1B50
1001
ACAD
1000
AcDbSavedByObjectVersion
1070
     0
  0
ACAD_PROXY_OBJECT
  5
9552
102
{ACAD_REACTORS
330
9550
102
}
330
9550
100
AcDbZombieObject
 90
      499
 91
      509
 93
      476
310
43519B185D15DA5D1A115919D95CD0140901404333333333333E3BF0000000000000F9010740901411070040501600405405064090741402480A1B50
1001
ACAD
1000
AcDbSavedByObjectVersion
1070
     0
  0
ACAD_PROXY_OBJECT
  5
9553
102
{ACAD_REACTORS
330
9550
102
}
330
9550
100
AcDbZombieObject
 90
      499
 91
      509
 93
      412
310
41D1DBDD5C985D5910240902404333333333333E3BF0000000000000F9010740A411070040501641D405064090741402480A1B50
1001
ACAD
1000
AcDbSavedByObjectVersion
1070
     0
  0
ACAD_PROXY_OBJECT
  5
9554
102
{ACAD_REACTORS
330
9550
102
}
330
9550
100
AcDbZombieObject
 90
      499
 91
      509
 93
      500
310
4411DBDD5C985D5915DA5D1A115919D95CD0340902404333333333333E3BF0000000000000F9010740901411070040501600405405064090741402480A1B50
1001
ACAD
1000
AcDbSavedByObjectVersion
1070
     0
  0
ACAD_PROXY_OBJECT
  5
A260
102
{ACAD_REACTORS
330
9550
102
}
330
9550
100
AcDbZombieObject
 90
      499
 91
      509
 93
      476
310
41921A5919195B90640502408333333333333E33F0000000000000F901079024090700405020000000000001110200405405064090740C02480A0340
1001
ACAD
1000
AcDbSavedByObjectVersion
1070
     0
  0
ACAD_PROXY_OBJECT
  5
A20F
102
{ACAD_REACTORS
330
9550
102
}
330
9550
100
AcDbZombieObject
 90
      499
 91
      509
 93
      428
310
42529A5D1D195C93D999914409028333333333333E3BF0000000000000FB010790141107004050150A41D405064090741402480A0350
1001
ACAD
1000
AcDbSavedByObjectVersion
1070
     0
  0
ACAD_PROXY_OBJECT
  5
955E
102
{ACAD_REACTORS
330
9550
102
}
330
9550
100
AcDbZombieObject
 90
      499
 91
      509
 93
      444
310
42D31A5B995C185D1D195C9B90E409028333333333333E3BF0000000000000FB010790141107004050750841D405064090741402483A0350
1001
ACAD
1000
AcDbSavedByObjectVersion
1070
     0
  0
ACAD_PROXY_OBJECT
  5
A266
102
{ACAD_REACTORS
330
9550
102
}
330
9550
100
AcDbZombieObject
 90
      499
 91
      509
 93
      484
310
42135BD9195B1A5B99D0A409038333333333333E33F0000000000000F901074090290700405010000000000201990108421405064090741402480A1B40
1001
ACAD
1000
AcDbSavedByObjectVersion
1070
     0
  0
ACAD_PROXY_OBJECT
  5
A210
102
{ACAD_REACTORS
330
9550
102
}
330
9550
100
AcDbZombieObject
 90
      499
 91
      509
 93
      444
310
42D3DD995C9A185B99D3D999915409028333333333333E3BF0000000000000FB010790141107004050150941D405064090741402480A0350
1001
ACAD
1000
AcDbSavedByObjectVersion
1070
     0
  0
ACAD_PROXY_OBJECT
  5
955A
102
{ACAD_REACTORS
330
9550
102
}
330
9550
100
AcDbZombieObject
 90
      499
 91
      509
 93
      420
310
425499585B1A5CDD1A58D08409028333333333333E3BF0000000000000FB01079019070040501508421405064090741402480A1B40
1001
ACAD
1000
AcDbSavedByObjectVersion
1070
     0
  0
ACAD_PROXY_OBJECT
  5
A265
102
{ACAD_REACTORS
330
9550
102
}
330
9550
100
AcDbZombieObject
 90
      499
 91
      509
 93
      420
310
4194DA1859195911B40902404333333333333E33F0000000000000F9010740A41107004050150800405405064090840C02480A0B40
1001
ACAD
1000
AcDbSavedByObjectVersion
1070
     0
  0
ACAD_PROXY_OBJECT
  5
A264
102
{ACAD_REACTORS
330
9550
102
}
330
9550
100
AcDbZombieObject
 90
      499
 91
      509
 93
      516
310
4454DA18591959081DDA5D1A08195919D95CD1A40902404333333333333E33F0000000000000F901074090142907004050250800405405064090740C02480A0B40
1001
ACAD
1000
AcDbSavedByObjectVersion
1070
     0
  0
ACAD_PROXY_OBJECT
  5
A261
102
{ACAD_REACTORS
330
9550
102
}
330
9550
100
AcDbZombieObject
 90
      499
 91
      509
 93
      532
310
4394DA1859195CC81BD98811DC985E5174090240C333333333333E33F0000000000000F901079024090741D01000000000000111010841D405064090740C02480A0340
1001
ACAD
1000
AcDbSavedByObjectVersion
1070
     0
  0
ACAD_PROXY_OBJECT
  5
A262
102
{ACAD_REACTORS
330
9550
102
}
330
9550
100
AcDbZombieObject
 90
      499
 91
      509
 93
      476
310
41D4DAD95D18DA1E51840502408333333333333E33F0000000000000F901079024090741D01000000000000111010B41D405064090741802480A0340
1001
ACAD
1000
AcDbSavedByObjectVersion
1070
     0
  0
ACAD_PROXY_OBJECT
  5
955D
102
{ACAD_REACTORS
330
9550
102
}
330
9550
100
AcDbZombieObject
 90
      499
 91
      509
 93
      412
310
41D51A1A58DAD95B90D409028333333333333E3BF0000000000000FB010790141107004050150C41D405064090741402480A0350
1001
ACAD
1000
AcDbSavedByObjectVersion
1070
     0
  0
ACAD_PROXY_OBJECT
  5
A25F
102
{ACAD_REACTORS
330
9550
102
}
330
9550
100
AcDbZombieObject
 90
      499
 91
      509
 93
      420
310
4255DA5C99599C985B595059028333333333333E33F0000000000000F90107901411070040501600405405064090740C02480A0340
1001
ACAD
1000
AcDbSavedByObjectVersion
1070
     0
  0
ACAD_PROXY_OBJECT
  5
A263
102
{ACAD_REACTORS
330
9550
102
}
330
9550
100
AcDbZombieObject
 90
      499
 91
      509
 93
      404
310
41560B54985E51940902404000000000000E03F0000000000000F9010740501907004050150841D405064090740C02480A1B40
1001
ACAD
1000
AcDbSavedByObjectVersion
1070
     0
  0
XRECORD
  5
B7C6
102
{ACAD_REACTORS
330
B7C5
102
}
330
B7C5
100
AcDbXrecord
340
18D
  0
XRECORD
  5
B7C7
102
{ACAD_REACTORS
330
B7C5
102
}
330
B7C5
100
AcDbXrecord
340
18C
  0
DICTIONARYVAR
  5
AAE0
102
{ACAD_REACTORS
330
37
102
}
330
37
100
DictionaryVariables
280
     0
  1
1:1
  0
DICTIONARYVAR
  5
9627
102
{ACAD_REACTORS
330
37
102
}
330
37
100
DictionaryVariables
280
     0
  1
Standard
  0
DICTIONARYVAR
  5
29E
102
{ACAD_REACTORS
330
37
102
}
330
37
100
DictionaryVariables
280
     0
  1
Standard
  0
DICTIONARYVAR
  5
38
102
{ACAD_REACTORS
330
37
102
}
330
37
100
DictionaryVariables
280
     0
  1
-1
  0
DICTIONARYVAR
  5
1CE
102
{ACAD_REACTORS
330
37
102
}
330
37
100
DictionaryVariables
280
     0
  1
2
  0
DICTIONARYVAR
  5
704E
102
{ACAD_REACTORS
330
37
102
}
330
37
100
DictionaryVariables
280
     0
  1
1
  0
DICTIONARYVAR
  5
962A
102
{ACAD_REACTORS
330
37
102
}
330
37
100
DictionaryVariables
280
     0
  1
0
  0
DICTIONARYVAR
  5
7052
102
{ACAD_REACTORS
330
37
102
}
330
37
100
DictionaryVariables
280
     0
  1
8
  0
DICTIONARYVAR
  5
7051
102
{ACAD_REACTORS
330
37
102
}
330
37
100
DictionaryVariables
280
     0
  1
1
  0
DICTIONARYVAR
  5
AB30
102
{ACAD_REACTORS
330
37
102
}
330
37
100
DictionaryVariables
280
     0
  1
0
  0
DICTIONARYVAR
  5
704F
102
{ACAD_REACTORS
330
37
102
}
330
37
100
DictionaryVariables
280
     0
  1
8
  0
DICTIONARYVAR
  5
7050
102
{ACAD_REACTORS
330
37
102
}
330
37
100
DictionaryVariables
280
     0
  1
2
  0
DICTIONARYVAR
  5
1CF
102
{ACAD_REACTORS
330
37
102
}
330
37
100
DictionaryVariables
280
     0
  1

  0
DICTIONARYVAR
  5
9629
102
{ACAD_REACTORS
330
37
102
}
330
37
100
DictionaryVariables
280
     0
  1
127
  0
DICTIONARYVAR
  5
A25E
102
{ACAD_REACTORS
330
37
102
}
330
37
100
DictionaryVariables
280
     0
  1
2
  0
DICTIONARY
  5
B963
330
9540
100
AcDbDictionary
  3
ACAD_XREC_ROUNDTRIP
360
B964
1001
ACAD
1000
TREAT_AS_HARD
1070
     1
  0
DICTIONARY
  5
B965
330
9538
100
AcDbDictionary
  3
ACAD_XREC_ROUNDTRIP
360
B966
1001
ACAD
1000
TREAT_AS_HARD
1070
     1
  0
DICTIONARY
  5
B967
330
9548
100
AcDbDictionary
  3
ACAD_XREC_ROUNDTRIP
360
B968
1001
ACAD
1000
TREAT_AS_HARD
1070
     1
  0
XRECORD
  5
B964
102
{ACAD_REACTORS
330
B963
102
}
330
B963
100
AcDbXrecord
102
MATERIAL
148
0.0
149
0.0
149
0.0
 93
        0
 94
      127
282
     0
 72
     0
 77
     0
171
     0
175
     0
179
     0
273
     0
  0
XRECORD
  5
B966
102
{ACAD_REACTORS
330
B965
102
}
330
B965
100
AcDbXrecord
102
MATERIAL
148
0.0
149
0.0
149
0.0
 93
        0
 94
      127
282
     0
 72
     0
 77
     0
171
     0
175
     0
179
     0
273
     0
  0
XRECORD
  5
B968
102
{ACAD_REACTORS
330
B967
102
}
330
B967
100
AcDbXrecord
102
MATERIAL
148
0.0
149
0.0
149
0.0
 93
        0
 94
      127
282
     0
 72
     0
 77
     0
171
     0
175
     0
179
     0
273
     0
  0
ENDSEC
  0
EOF
