  0
SECTION
  2
HEADER
  9
$ACADVER
  1
AC1009
  9
$DWGCODEPAGE
  3
ansi_932
  9
$INSBASE
 10
0.0
 20
0.0
 30
0.0
  9
$EXTMIN
 10
212.2862763472694
 20
-1049.601347609804
 30
-0.0000000000004547
  9
$EXTMAX
 10
514.8287690106046
 20
-824.4425340756743
 30
9.499999990254992
  9
$LIMMIN
 10
0.0
 20
0.0
  9
$LIMMAX
 10
420.0
 20
297.0
  9
$ORTHOMODE
 70
     0
  9
$REGENMODE
 70
     1
  9
$FILLMODE
 70
     1
  9
$QTEXTMODE
 70
     0
  9
$MIRRTEXT
 70
     0
  9
$DRAGMODE
 70
     2
  9
$LTSCALE
 40
0.5
  9
$OSMODE
 70
 15199
  9
$ATTMODE
 70
     1
  9
$TEXTSIZE
 40
116.3508
  9
$TRACEWID
 40
1.0
  9
$TEXTSTYLE
  7
STANDARD
  9
$CLAYER
  8
1TEXT
  9
$CELTYPE
  6
BYLAYER
  9
$CECOLOR
 62
   256
  9
$DIMSCALE
 40
1.0
  9
$DIMASZ
 40
2.0
  9
$DIMEXO
 40
0.0
  9
$DIMDLI
 40
7.0
  9
$DIMRND
 40
0.0
  9
$DIMDLE
 40
0.0
  9
$DIMEXE
 40
1.0
  9
$DIMTP
 40
0.0
  9
$DIMTM
 40
0.0
  9
$DIMTXT
 40
2.0
  9
$DIMCEN
 40
0.0
  9
$DIMTSZ
 40
0.0
  9
$DIMTOL
 70
     0
  9
$DIMLIM
 70
     0
  9
$DIMTIH
 70
     0
  9
$DIMTOH
 70
     0
  9
$DIMSE1
 70
     0
  9
$DIMSE2
 70
     0
  9
$DIMTAD
 70
     1
  9
$DIMZIN
 70
     8
  9
$DIMBLK
  1

  9
$DIMASO
 70
     1
  9
$DIMSHO
 70
     1
  9
$DIMPOST
  1
 
  9
$DIMAPOST
  1

  9
$DIMALT
 70
     0
  9
$DIMALTD
 70
     2
  9
$DIMALTF
 40
25.4
  9
$DIMLFAC
 40
1.0
  9
$DIMTOFL
 70
     1
  9
$DIMTVP
 40
0.0
  9
$DIMTIX
 70
     0
  9
$DIMSOXD
 70
     0
  9
$DIMSAH
 70
     1
  9
$DIMBLK1
  1
OPEN30
  9
$DIMBLK2
  1
OPEN30
  9
$DIMSTYLE
  2
NEWX10
  9
$DIMCLRD
 70
   256
  9
$DIMCLRE
 70
   256
  9
$DIMCLRT
 70
   201
  9
$DIMTFAC
 40
0.7
  9
$DIMGAP
 40
0.7
  9
$LUNITS
 70
     2
  9
$LUPREC
 70
     4
  9
$SKETCHINC
 40
1.0
  9
$FILLETRAD
 40
1.0
  9
$AUNITS
 70
     0
  9
$AUPREC
 70
     2
  9
$MENU
  1
acad
  9
$ELEVATION
 40
0.0
  9
$PELEVATION
 40
0.0
  9
$THICKNESS
 40
0.0
  9
$LIMCHECK
 70
     0
  9
$CHAMFERA
 40
0.5
  9
$CHAMFERB
 40
0.5
  9
$SKPOLY
 70
     0
  9
$TDCREATE
 40
2451027.585754618
  9
$TDUPDATE
 40
2459097.479200903
  9
$TDINDWG
 40
20.5684988079
  9
$TDUSRTIMER
 40
20.5684984259
  9
$USRTIMER
 70
     1
  9
$ANGBASE
 50
0.0
  9
$ANGDIR
 70
     0
  9
$PDMODE
 70
     0
  9
$PDSIZE
 40
0.0
  9
$PLINEWID
 40
0.0
  9
$COORDS
 70
     2
  9
$SPLFRAME
 70
     0
  9
$SPLINETYPE
 70
     6
  9
$SPLINESEGS
 70
     8
  9
$ATTDIA
 70
     0
  9
$ATTREQ
 70
     1
  9
$HANDLING
 70
     1
  9
$HANDSEED
  5
A9C67
  9
$SURFTAB1
 70
     6
  9
$SURFTAB2
 70
     6
  9
$SURFTYPE
 70
     6
  9
$SURFU
 70
     6
  9
$SURFV
 70
     6
  9
$UCSNAME
  2

  9
$UCSORG
 10
0.0
 20
0.0
 30
0.0
  9
$UCSXDIR
 10
1.0
 20
0.0
 30
0.0
  9
$UCSYDIR
 10
0.0
 20
1.0
 30
0.0
  9
$PUCSNAME
  2

  9
$PUCSORG
 10
0.0
 20
0.0
 30
0.0
  9
$PUCSXDIR
 10
1.0
 20
0.0
 30
0.0
  9
$PUCSYDIR
 10
0.0
 20
1.0
 30
0.0
  9
$USERI1
 70
     0
  9
$USERI2
 70
     0
  9
$USERI3
 70
     0
  9
$USERI4
 70
     0
  9
$USERI5
 70
     0
  9
$USERR1
 40
0.0
  9
$USERR2
 40
0.0
  9
$USERR3
 40
0.0
  9
$USERR4
 40
0.0
  9
$USERR5
 40
4.5
  9
$WORLDVIEW
 70
     1
  9
$SHADEDGE
 70
     1
  9
$SHADEDIF
 70
    70
  9
$TILEMODE
 70
     1
  9
$MAXACTVP
 70
    48
  9
$PLIMCHECK
 70
     0
  9
$PEXTMIN
 10
1.000000000000000E+20
 20
1.000000000000000E+20
 30
1.000000000000000E+20
  9
$PEXTMAX
 10
-1.000000000000000E+20
 20
-1.000000000000000E+20
 30
-1.000000000000000E+20
  9
$PLIMMIN
 10
0.0
 20
0.0
  9
$PLIMMAX
 10
420.0
 20
297.0
  9
$UNITMODE
 70
     0
  9
$VISRETAIN
 70
     1
  9
$PLINEGEN
 70
     0
  9
$PSLTSCALE
 70
     1
  0
ENDSEC
  0
SECTION
  2
TABLES
  0
TABLE
  2
VPORT
 70
     1
  0
VPORT
  2
*ACTIVE
 70
     0
 10
0.0
 20
0.0
 11
1.0
 21
1.0
 12
-10698.10302232106
 22
-8423.605589842738
 13
0.0
 23
0.0
 14
10.0
 24
10.0
 15
10.0
 25
10.0
 16
0.0
 26
0.0
 36
1.0
 17
11061.660545
 27
7486.583649
 37
474.311593
 40
241.7494629524337
 41
2.07168458781362
 42
50.0
 43
0.0
 44
0.0
 50
0.0
 51
0.0
 71
    16
 72
    20
 73
     1
 74
     1
 75
     0
 76
     0
 77
     0
 78
     0
  0
ENDTAB
  0
TABLE
  2
LTYPE
 70
    15
  0
LTYPE
  2
CONTINUOUS
 70
     0
  3
Solid line
 72
    65
 73
     0
 40
0.0
  0
LTYPE
  2
CENTER2
 70
     0
  3
Center (.5x) ___ _ ___ _ ___ _ ___ _ ___ _ ___
 72
    65
 73
     4
 40
28.575
 49
19.05
 49
-3.175
 49
3.175
 49
-3.175
  0
ENDTAB
  0
TABLE
  2
LAYER
 70
    70
  0
LAYER
  2
0
 70
     0
 62
     7
  6
CONTINUOUS
  0
LAYER
  2
01
 70
     0
 62
     1
  6
CONTINUOUS
  0
LAYER
  2
1CENTER
 70
     0
 62
     7
  6
CENTER2
  0
LAYER
  2
1DIM
 70
     0
 62
     7
  6
CONTINUOUS
  0
LAYER
  2
1TEXT
 70
     0
 62
     7
  6
CONTINUOUS
  0
LAYER
  2
1HATCH
 70
     0
 62
     7
  6
CONTINUOUS
  0
ENDTAB
  0
TABLE
  2
STYLE
 70
    35
  0
STYLE
  2
STANDARD
 70
     0
 40
0.0
 41
1.0
 50
0.0
 71
     0
 42
116.3508
  3
txt.shx
  4
extfont.shx
  0
STYLE
  2
MAKER
 70
     0
 40
0.0
 41
1.0
 50
0.0
 71
     0
 42
4.0
  3

  4

  0
ENDTAB
  0
TABLE
  2
VIEW
 70
     0
  0
ENDTAB
  0
TABLE
  2
UCS
 70
     5
  0
UCS
  2
U
 70
     0
 10
0.0
 20
0.0
 30
0.0
 11
1.0
 21
0.0
 31
0.0
 12
0.0
 22
2.000000000000000E-16
 32
1.0
  0
UCS
  2
L
 70
     0
 10
0.0
 20
0.0
 30
0.0
 11
-2.000000000000000E-16
 21
-1.0
 31
2.000000000000000E-16
 12
0.0
 22
2.000000000000000E-16
 32
1.0
  0
UCS
  2
R
 70
     0
 10
0.0
 20
0.0
 30
0.0
 11
3.000000000000000E-16
 21
1.0
 31
-2.000000000000000E-16
 12
0.0
 22
2.000000000000000E-16
 32
1.0
  0
UCS
  2
ISOME
 70
     0
 10
0.0
 20
0.0
 30
0.0
 11
0.7071450863198266
 21
-0.7070684729403536
 31
-3.830824619470000E-5
 12
0.4082704059428736
 22
0.408270407740115
 32
0.8164744636514736
  0
UCS
  2
PERSPECTIVE
 70
     0
 10
0.0
 20
0.0
 30
0.0
 11
0.8191477691768962
 21
-0.5735823260466403
 31
-0.0004974931557765
 12
0.1584844715982971
 22
0.225502028986108
 32
0.9612655757829659
  0
ENDTAB
  0
TABLE
  2
APPID
 70
    37
  0
APPID
  2
ACAD
 70
     0
  0
APPID
  2
CONTENTTABDATA
 70
     0
  0
APPID
  2
CONTENTCURRENTTAB
 70
     0
  0
APPID
  2
CONTENTBLOCKICON
 70
     0
  0
APPID
  2
CONTENTBLOCKDESCRIPTION
 70
     0
  0
APPID
  2
DRAWINGVARIABLESXDATA
 70
     0
  0
APPID
  2
CONTENTLONGBLOCKNAME
 70
     0
  0
APPID
  2
ACAD_PSEXT
 70
     0
  0
APPID
  2
ACAD_MLEADERVER
 70
     0
  0
APPID
  2
ACAD_DSTYLE_DIMRADIAL_EXTE
 70
     0
  0
APPID
  2
ACDBBLOCKREPETAG
 70
     0
  0
APPID
  2
ACDBDYNAMICBLOCKTRUENAME
 70
     0
  0
APPID
  2
ACDBDYNAMICBLOCKGUID
 70
     0
  0
APPID
  2
ACDBBLOCKREPBTAG
 70
     0
  0
APPID
  2
ACADANNOTATIVE
 70
     0
  0
APPID
  2
ACAUTHENVIRON
 70
     0
  0
APPID
  2
ACADANNOPO
 70
     0
  0
APPID
  2
ACLAYERTOOLS
 70
     0
  0
APPID
  2
ACAD_EXEMPT_FROM_CAD_STAND
 70
     0
  0
APPID
  2
ACAECLAYERSTANDARD
 70
     0
  0
APPID
  2
ACAD_DSTYLE_DIMJOGGED_JOGA
 70
     0
  0
APPID
  2
ACAD_DSTYLE_DIM_LINETYPE
 70
     0
  0
APPID
  2
ACAD_DSTYLE_DIM_EXT1_LINET
 70
     0
  0
APPID
  2
ACAD_DSTYLE_DIM_EXT2_LINET
 70
     0
  0
APPID
  2
ACAD_DIMASSOC_CALC_DIMLFAC
 70
     0
  0
APPID
  2
ACAD_DIMASSOC_DIMLFAC
 70
     0
  0
APPID
  2
ACAD_DIMASSOC_OVERRIDDEN_D
 70
     0
  0
APPID
  2
ACAD_NAV_VCDISPLAY
 70
     0
  0
APPID
  2
ACAD_OBJECT_CHANGE_GUID
 70
     0
  0
APPID
  2
ACADANNOTATIVEDECOMPOSITIO
 70
     0
  0
APPID
  2
ACAD_DSTYLE_DIMJAG
 70
     0
  0
APPID
  2
ACAD_DSTYLE_DIMTALN
 70
     0
  0
APPID
  2
ACADSTRINGINFO
 70
     0
  0
APPID
  2
GRADIENTCOLOR1ACI
 70
     0
  0
APPID
  2
GRADIENTCOLOR2ACI
 70
     0
  0
APPID
  2
ACADANNOMONITORALERTICONDI
 70
     0
  0
APPID
  2
ACADANNOAV
 70
     0
  0
ENDTAB
  0
TABLE
  2
DIMSTYLE
 70
     6
  0
DIMSTYLE
  2
NEWX10
 70
     0
  3
 
  4

  5

  6
OPEN30
  7
OPEN30
 40
1.0
 41
2.0
 42
0.0
 43
7.0
 44
1.0
 45
0.0
 46
0.0
 47
0.0
 48
0.0
140
2.0
141
0.0
142
0.0
143
25.4
144
1.0
145
0.0
146
0.7
147
0.7
 71
     0
 72
     0
 73
     0
 74
     0
 75
     0
 76
     0
 77
     1
 78
     8
170
     0
171
     2
172
     1
173
     1
174
     0
175
     0
176
   256
177
   256
178
   201
  0
DIMSTYLE
  2
ISO-25
 70
     0
  3

  4

  5

  6

  7

 40
1.0
 41
20.0
 42
3.0
 43
3.75
 44
2.0
 45
0.0
 46
0.0
 47
0.0
 48
0.0
140
30.0
141
5.0
142
0.0
143
0.03937
144
1.0
145
0.0
146
1.0
147
8.0
 71
     0
 72
     0
 73
     0
 74
     0
 75
     0
 76
     0
 77
     1
 78
     8
170
     0
171
     3
172
     1
173
     0
174
     0
175
     0
176
     1
177
     1
178
     1
  0
ENDTAB
  0
ENDSEC
  0
SECTION
  2
BLOCKS
  0
BLOCK
  8
0
  2
$MODEL_SPACE
 70
     0
 10
0.0
 20
0.0
 30
0.0
  3
$MODEL_SPACE
  1

  0
ENDBLK
  5
1A
  8
0
  0
BLOCK
 67
     1
  8
0
  2
$PAPER_SPACE
 70
     0
 10
0.0
 20
0.0
 30
0.0
  3
$PAPER_SPACE
  1

  0
ENDBLK
  5
A6F5B
 67
     1
  8
0
  0
BLOCK
  8
0
  2
_OPEN30
 70
     0
 10
0.0
 20
0.0
 30
0.0
  3
_OPEN30
  1

  0
LINE
  5
2F1
  8
0
  6
BYBLOCK
 62
     0
 10
-1.0
 20
0.267949
 30
0.0
 11
0.0
 21
0.0
 31
0.0
  0
LINE
  5
2F2
  8
0
  6
BYBLOCK
 62
     0
 10
0.0
 20
0.0
 30
0.0
 11
-1.0
 21
-0.267949
 31
0.0
  0
LINE
  5
2F3
  8
0
  6
BYBLOCK
 62
     0
 10
0.0
 20
0.0
 30
0.0
 11
-1.0
 21
0.0
 31
0.0
  0
ENDBLK
  5
2F4
  8
0
  0
BLOCK
  8
0
  2
A3WAKUKAWAJUN2017_HYOUDAI_
 70
     0
 10
0.0
 20
0.0
 30
0.0
  3
A3WAKUKAWAJUN2017_HYOUDAI_
  1

  0
LINE
  5
940D1
  8
0
 10
13.26299999998673
 20
-0.0001000000000317
 30
0.0
 11
9.236999999990758
 21
8.999899999990987
 31
0.0
1001
ACAD
1000
ASC_BOUNDS
1002
{
1070
    19
1005
94112
1002
}
  0
LINE
  5
940D2
  8
0
 10
5.657999999994331
 20
0.9999999999989768
 30
0.0
 11
9.236999999990758
 21
8.999999999991019
 31
0.0
1001
ACAD
1000
ASC_BOUNDS
1002
{
1070
    19
1005
94112
1002
}
  0
LINE
  5
940D3
  8
0
 10
18.59199999998134
 20
-0.2368999999997641
 30
0.0
 11
16.46099999998353
 21
5.432899999994561
 31
0.0
1001
ACAD
1000
ASC_BOUNDS
1002
{
1070
    19
1005
94113
1002
}
  0
LINE
  5
940D4
  8
0
 10
18.59199999998134
 20
-0.2368999999997641
 30
0.0
 11
22.38199999997767
 21
8.763099999991255
 31
0.0
1001
ACAD
1000
ASC_BOUNDS
1002
{
1070
    19
1005
94113
1002
}
  0
LINE
  5
940D5
  8
0
 10
14.32899999998563
 20
-0.2368999999997641
 30
0.0
 11
16.46099999998353
 21
5.432899999994561
 31
0.0
1001
ACAD
1000
ASC_BOUNDS
1002
{
1070
    19
1005
94113
1002
}
  0
LINE
  5
940D6
  8
0
 10
14.32899999998563
 20
-0.2368999999997641
 30
0.0
 11
10.53899999998941
 21
8.763099999991255
 31
0.0
1001
ACAD
1000
ASC_BOUNDS
1002
{
1070
    19
1005
94113
1002
}
  0
LINE
  5
940D7
  8
0
 10
19.53899999998043
 20
-0.0001000000000317
 30
0.0
 11
23.56599999997638
 21
8.999899999990987
 31
0.0
1001
ACAD
1000
ASC_BOUNDS
1002
{
1070
    19
1005
94114
1002
}
  0
LINE
  5
940D8
  8
0
 10
26.97358892824991
 20
1.383099999991202
 30
0.0
 11
23.56599999997638
 21
8.999899999990987
 31
0.0
1001
ACAD
1000
ASC_BOUNDS
1002
{
1070
    19
1005
94114
1002
}
  0
LINE
  5
940D9
  8
0
 10
5.657999999994331
 20
0.9999999999989768
 30
0.0
 11
3.181999999996833
 21
4.668599999995308
 31
0.0
1001
ACAD
1000
ASC_BOUNDS
1002
{
1070
    19
1005
94112
1002
}
  0
LINE
  5
940DA
  8
0
 10
4.617999999995391
 20
-0.0001000000000317
 30
0.0
 11
1.420999999998571
 21
4.736799999995242
 31
0.0
1001
ACAD
1000
ASC_BOUNDS
1002
{
1070
    19
1005
94112
1002
}
  0
LINE
  5
940DB
  8
0
 10
1.420999999998571
 20
8.763099999991255
 30
0.0
 11
1.420999999998571
 21
0.0
 31
0.0
1001
ACAD
1000
ASC_BOUNDS
1002
{
1070
    19
1005
94117
1002
}
  0
LINE
  5
940DC
  8
0
 10
0.0
 20
8.763099999991255
 30
0.0
 11
0.0
 21
0.0
 31
0.0
1001
ACAD
1000
ASC_BOUNDS
1002
{
1070
    19
1005
94117
1002
}
  0
LINE
  5
940DD
  8
0
 10
6.766999999993232
 20
-0.0001000000000317
 30
0.0
 11
7.826999999992154
 21
2.368399999997621
 31
0.0
1001
ACAD
1000
ASC_BOUNDS
1002
{
1070
    19
1005
94112
1002
}
  0
LINE
  5
940DE
  8
0
 10
0.0
 20
0.0
 30
0.0
 11
1.420999999998571
 21
0.0
 31
0.0
1001
ACAD
1000
ASC_BOUNDS
1002
{
1070
    19
1005
94117
1002
}
  0
LINE
  5
940DF
  8
0
 10
4.617999999995391
 20
0.0
 30
0.0
 11
6.766999999993232
 21
0.0
 31
0.0
1001
ACAD
1000
ASC_BOUNDS
1002
{
1070
    19
1005
94112
1002
}
  0
LINE
  5
940E0
  8
0
 10
11.70599999998831
 20
-0.0001000000000317
 30
0.0
 11
10.64699999998936
 21
2.368399999997621
 31
0.0
1001
ACAD
1000
ASC_BOUNDS
1002
{
1070
    19
1005
94112
1002
}
  0
LINE
  5
940E1
  8
0
 10
7.826999999992154
 20
2.368399999997621
 30
0.0
 11
10.64699999998936
 21
2.368399999997621
 31
0.0
1001
ACAD
1000
ASC_BOUNDS
1002
{
1070
    19
1005
94112
1002
}
  0
LINE
  5
940E2
  8
0
 10
11.70599999998831
 20
0.0
 30
0.0
 11
13.26299999998673
 21
0.0
 31
0.0
1001
ACAD
1000
ASC_BOUNDS
1002
{
1070
    19
1005
94112
1002
}
  0
LINE
  5
940E3
  8
0
 10
22.15599999997789
 20
2.368399999997621
 30
0.0
 11
24.97599999997499
 21
2.368399999997621
 31
0.0
1001
ACAD
1000
ASC_BOUNDS
1002
{
1070
    19
1005
94114
1002
}
  0
LINE
  5
940E4
  8
0
 10
19.53899999998043
 20
0.0
 30
0.0
 11
21.09599999997886
 21
0.0
 31
0.0
1001
ACAD
1000
ASC_BOUNDS
1002
{
1070
    19
1005
94114
1002
}
  0
LINE
  5
940E5
  8
0
 10
21.09599999997886
 20
-0.0001000000000317
 30
0.0
 11
22.15599999997789
 21
2.368399999997621
 31
0.0
1001
ACAD
1000
ASC_BOUNDS
1002
{
1070
    19
1005
94114
1002
}
  0
LINE
  5
940E6
  8
0
 10
26.02015566812236
 20
0.0330999999912365
 30
0.0
 11
24.97599999997499
 21
2.368399999997621
 31
0.0
1001
ACAD
1000
ASC_BOUNDS
1002
{
1070
    19
1005
94114
1002
}
  0
LINE
  5
940E7
  8
0
 10
14.32399999998563
 20
3.315799999996671
 30
0.0
 11
16.46099999998353
 21
8.999899999990987
 31
0.0
1001
ACAD
1000
ASC_BOUNDS
1002
{
1070
    19
1005
94113
1002
}
  0
LINE
  5
940E8
  8
0
 10
6.432999999993513
 20
8.763099999991255
 30
0.0
 11
3.181999999996833
 21
4.668599999995308
 31
0.0
1001
ACAD
1000
ASC_BOUNDS
1002
{
1070
    19
1005
94112
1002
}
  0
LINE
  5
940E9
  8
0
 10
4.617999999995391
 20
8.763099999991255
 30
0.0
 11
1.420999999998571
 21
4.736799999995242
 31
0.0
1001
ACAD
1000
ASC_BOUNDS
1002
{
1070
    19
1005
94112
1002
}
  0
LINE
  5
940EA
  8
0
 10
0.0
 20
8.763099999991255
 30
0.0
 11
1.420999999998571
 21
8.763099999991255
 31
0.0
1001
ACAD
1000
ASC_BOUNDS
1002
{
1070
    19
1005
94117
1002
}
  0
LINE
  5
940EB
  8
0
 10
4.617999999995391
 20
8.763099999991255
 30
0.0
 11
6.432999999993513
 21
8.763099999991255
 31
0.0
1001
ACAD
1000
ASC_BOUNDS
1002
{
1070
    19
1005
94112
1002
}
  0
LINE
  5
940EC
  8
0
 10
14.32399999998563
 20
3.315799999996671
 30
0.0
 11
12.02999999998792
 21
8.763099999991255
 31
0.0
1001
ACAD
1000
ASC_BOUNDS
1002
{
1070
    19
1005
94113
1002
}
  0
LINE
  5
940ED
  8
0
 10
10.06399999998996
 20
3.670999999996297
 30
0.0
 11
9.236999999990758
 21
5.5200999999945
 31
0.0
1001
ACAD
1000
ASC_BOUNDS
1002
{
1070
    19
1005
94112
1002
}
  0
LINE
  5
940EE
  8
0
 10
8.409999999991555
 20
3.670999999996297
 30
0.0
 11
9.236999999990758
 21
5.5200999999945
 31
0.0
1001
ACAD
1000
ASC_BOUNDS
1002
{
1070
    19
1005
94112
1002
}
  0
LINE
  5
940EF
  8
0
 10
8.409999999991555
 20
3.670999999996297
 30
0.0
 11
10.06399999998996
 21
3.670999999996297
 31
0.0
1001
ACAD
1000
ASC_BOUNDS
1002
{
1070
    19
1005
94112
1002
}
  0
LINE
  5
940F0
  8
0
 10
10.53899999998941
 20
8.763099999991255
 30
0.0
 11
12.02999999998792
 21
8.763099999991255
 31
0.0
1001
ACAD
1000
ASC_BOUNDS
1002
{
1070
    19
1005
94113
1002
}
  0
LINE
  5
940F1
  8
0
 10
22.7389999999773
 20
3.670999999996297
 30
0.0
 11
23.56599999997638
 21
5.5200999999945
 31
0.0
1001
ACAD
1000
ASC_BOUNDS
1002
{
1070
    19
1005
94114
1002
}
  0
LINE
  5
940F2
  8
0
 10
22.7389999999773
 20
3.670999999996297
 30
0.0
 11
24.39299999997559
 21
3.670999999996297
 31
0.0
1001
ACAD
1000
ASC_BOUNDS
1002
{
1070
    19
1005
94114
1002
}
  0
LINE
  5
940F3
  8
0
 10
18.59799999998143
 20
3.315799999996671
 30
0.0
 11
20.89099999997916
 21
8.763099999991255
 31
0.0
1001
ACAD
1000
ASC_BOUNDS
1002
{
1070
    19
1005
94113
1002
}
  0
LINE
  5
940F4
  8
0
 10
18.59799999998143
 20
3.315799999996671
 30
0.0
 11
16.46099999998353
 21
8.999899999990987
 31
0.0
1001
ACAD
1000
ASC_BOUNDS
1002
{
1070
    19
1005
94113
1002
}
  0
LINE
  5
940F5
  8
0
 10
20.89099999997916
 20
8.763099999991255
 30
0.0
 11
22.38199999997767
 21
8.763099999991255
 31
0.0
1001
ACAD
1000
ASC_BOUNDS
1002
{
1070
    19
1005
94113
1002
}
  0
LINE
  5
940F6
  8
0
 10
24.39299999997559
 20
3.670999999996297
 30
0.0
 11
23.56599999997638
 21
5.5200999999945
 31
0.0
1001
ACAD
1000
ASC_BOUNDS
1002
{
1070
    19
1005
94114
1002
}
  0
LINE
  5
940F7
  8
0
 10
44.99999999995498
 20
-0.2368999999997641
 30
0.0
 11
40.02599999995994
 21
5.341799999994635
 31
0.0
1001
ACAD
1000
ASC_BOUNDS
1002
{
1070
    19
1005
94116
1002
}
  0
LINE
  5
940F8
  8
0
 10
40.02599999995994
 20
5.341799999994635
 30
0.0
 11
40.02599999995994
 21
0.0
 31
0.0
1001
ACAD
1000
ASC_BOUNDS
1002
{
1070
    19
1005
94116
1002
}
  0
LINE
  5
940F9
  8
0
 10
38.60499999996136
 20
8.999999999991019
 30
0.0
 11
38.60499999996136
 21
0.0
 31
0.0
1001
ACAD
1000
ASC_BOUNDS
1002
{
1070
    19
1005
94116
1002
}
  0
LINE
  5
940FA
  8
0
 10
44.99999999995498
 20
8.763099999991255
 30
0.0
 11
44.99999999995498
 21
-0.2368999999997641
 31
0.0
1001
ACAD
1000
ASC_BOUNDS
1002
{
1070
    19
1005
94116
1002
}
  0
LINE
  5
940FB
  8
0
 10
38.60499999996136
 20
0.0
 30
0.0
 11
40.02599999995994
 21
0.0
 31
0.0
1001
ACAD
1000
ASC_BOUNDS
1002
{
1070
    19
1005
94116
1002
}
  0
LINE
  5
940FC
  8
0
 10
43.57899999995641
 20
3.421199999996588
 30
0.0
 11
38.60499999996136
 21
8.999899999990987
 31
0.0
1001
ACAD
1000
ASC_BOUNDS
1002
{
1070
    19
1005
94116
1002
}
  0
LINE
  5
940FD
  8
0
 10
43.57899999995641
 20
8.763099999991255
 30
0.0
 11
43.57899999995641
 21
3.421199999996588
 31
0.0
1001
ACAD
1000
ASC_BOUNDS
1002
{
1070
    19
1005
94116
1002
}
  0
LINE
  5
940FE
  8
0
 10
43.57899999995641
 20
8.763099999991255
 30
0.0
 11
44.99999999995498
 21
8.763099999991255
 31
0.0
1001
ACAD
1000
ASC_BOUNDS
1002
{
1070
    19
1005
94116
1002
}
  0
LINE
  5
940FF
  8
0
 10
37.67199999996831
 20
8.763099999991255
 30
0.0
 11
36.23199999996837
 21
8.763099999991255
 31
0.0
  0
LINE
  5
94100
  8
0
 10
31.64199999996833
 20
8.763099999991255
 30
0.0
 11
31.64199999996833
 21
2.481619422925121
 31
0.0
  0
LINE
  5
94101
  8
0
 10
37.67199999996831
 20
8.763099999991255
 30
0.0
 11
37.67199999996831
 21
2.481619422925121
 31
0.0
  0
LINE
  5
94102
  8
0
 10
36.23199999996837
 20
8.763099999991255
 30
0.0
 11
36.23199999996837
 21
2.481619422925064
 31
0.0
  0
LINE
  5
94103
  8
0
 10
33.08199999996839
 20
8.763099999991255
 30
0.0
 11
33.08199999996839
 21
2.481619422925121
 31
0.0
  0
ARC
  5
94104
  8
0
 10
34.65699999996832
 20
3.183099999991214
 30
0.0
 40
3.420000000000007
 50
240.0000000000255
 51
299.9999999999766
  0
ARC
  5
94105
  8
0
 10
34.65699999996832
 20
3.183099999991214
 30
0.0
 40
1.97999999999999
 50
240.000000000026
 51
299.9999999999703
  0
LINE
  5
94106
  8
0
 10
33.08199999996828
 20
8.763099999991255
 30
0.0
 11
31.64199999996833
 21
8.763099999991255
 31
0.0
  0
ARC
  5
94107
  8
0
 10
35.06199999996829
 20
2.481619422925064
 30
0.0
 40
1.17
 50
299.9999999999699
 51
0.0
  0
ARC
  5
94108
  8
0
 10
34.25199999996835
 20
2.481619422925121
 30
0.0
 40
1.17
 50
180.0
 51
240.0000000000238
  0
ARC
  5
94109
  8
0
 10
35.06199999996841
 20
2.481619422925121
 30
0.0
 40
2.61
 50
299.9999999999756
 51
0.0
  0
ARC
  5
9410A
  8
0
 10
34.25199999996835
 20
2.481619422925121
 30
0.0
 40
2.61
 50
180.0
 51
240.0000000000244
  0
LINE
  5
9410B
  8
0
 10
29.30199999996933
 20
8.763099999991255
 30
0.0
 11
30.74199999996927
 21
8.763099999991255
 31
0.0
1001
ACAD
1000
ASC_BOUNDS
1002
{
1070
    19
1005
94114
1002
}
  0
LINE
  5
9410C
  8
0
 10
30.74199999996927
 20
8.763099999991255
 30
0.0
 11
30.74199999996927
 21
2.373099999991211
 31
0.0
1001
ACAD
1000
ASC_BOUNDS
1002
{
1070
    19
1005
94114
1002
}
  0
LINE
  5
9410D
  8
0
 10
26.02015566812236
 20
0.0330999999912365
 30
0.0
 11
28.40199999996923
 21
0.0330999999912365
 31
0.0
1001
ACAD
1000
ASC_BOUNDS
1002
{
1070
    19
1005
94114
1002
}
  0
LINE
  5
9410E
  8
0
 10
29.30199999996933
 20
8.763099999991255
 30
0.0
 11
29.30199999996933
 21
2.283099999991236
 31
0.0
1001
ACAD
1000
ASC_BOUNDS
1002
{
1070
    19
1005
94114
1002
}
  0
LINE
  5
9410F
  8
0
 10
26.97358892824991
 20
1.383099999991202
 30
0.0
 11
28.40199999996923
 21
1.383099999991202
 31
0.0
1001
ACAD
1000
ASC_BOUNDS
1002
{
1070
    19
1005
94114
1002
}
  0
ARC
  5
94110
  8
0
 10
28.40199999996923
 20
2.283099999991236
 30
0.0
 40
0.9
 50
270.0
 51
0.0
1001
ACAD
1000
ASC_BOUNDS
1002
{
1070
    19
1005
94114
1002
}
  0
ARC
  5
94111
  8
0
 10
28.40199999996923
 20
2.373099999991211
 30
0.0
 40
2.34
 50
270.0
 51
0.0
1001
ACAD
1000
ASC_BOUNDS
1002
{
1070
    19
1005
94114
1002
}
  0
INSERT
  5
94112
  8
0
  2
*X208
 10
0.0
 20
0.0
 30
0.0
1001
ACAD
1000
HATCH
1002
{
1070
    19
1000
ANSI37
1040
0.15
1040
0.0
1000
ASC_BOUNDS
1070
     2
1070
     2
1070
    12
1005
940D1
1005
940D2
1005
940D9
1005
940E8
1005
940EB
1005
940E9
1005
940DA
1005
940DF
1005
940DD
1005
940E1
1005
940E0
1005
940E2
1070
     2
1070
     3
1005
940ED
1005
940EF
1005
940EE
1000
ASC_SEEDPOINT
1011
3.614004224891801
1021
2.996669441146025
1031
0.0
1021
2.996669441146025
1031
0.0
1000
R14_HATCH_DATA
1000
94112
1011
1.0
1021
0.0
1031
0.0
1021
0.0
1031
0.0
1011
0.0
1021
1.0
1031
0.0
1021
1.0
1031
0.0
1011
0.0
1021
0.0
1031
1.0
1021
0.0
1031
1.0
1040
0.0
1010
0.0
1020
0.0
1030
1.0
1000
ANSI37
1070
     0
1070
     1
1071
        2
1071
        7
1070
     0
1070
     1
1071
       17
1040
13.26299999998673
1040
-0.0001000000000317
1040
9.236999999990758
1040
8.999899999990987
1040
9.236999999990758
1040
8.999999999991019
1040
5.657999999994331
1040
0.9999999999989768
1040
3.181999999996833
1040
4.668599999995308
1040
6.432999999993513
1040
8.763099999991255
1040
4.617999999995391
1040
8.763099999991255
1040
1.420999999998571
1040
4.736799999995242
1040
4.617999999995391
1040
-0.0001000000000317
1040
4.617999999995391
1040
0.0
1040
6.766999999993232
1040
0.0
1040
6.766999999993232
1040
-0.0001000000000317
1040
7.826999999992154
1040
2.368399999997621
1040
10.64699999998936
1040
2.368399999997621
1040
11.70599999998831
1040
-0.0001000000000317
1040
11.70599999998831
1040
0.0
1040
13.26299999998673
1040
0.0
1071
       12
1005
940D1
1005
940D2
1005
940D9
1005
940E8
1005
940EB
1005
940E9
1005
940DA
1005
940DF
1005
940DD
1005
940E1
1005
940E0
1005
940E2
1071
       22
1070
     0
1070
     1
1071
        3
1040
9.236999999990758
1040
5.5200999999945
1040
10.06399999998996
1040
3.670999999996297
1040
8.409999999991555
1040
3.670999999996297
1071
        3
1005
940ED
1005
940EF
1005
940EE
1070
     0
1070
     1
1040
0.0
1040
0.15
1070
     0
1070
     2
1040
0.7853981633974483
1040
49.29960901727088
1040
-10.17736998311392
1040
-0.3367596045400932
1040
0.3367596045400932
1070
     0
1040
2.356194490192345
1040
49.29960901727088
1040
-10.17736998311392
1040
-0.3367596045400932
1040
-0.3367596045400932
1070
     0
1040
0.0110235143455945
1071
        2
1040
3.614004224891801
1040
2.996669441146025
1040
0.0
1040
3.614004224891801
1040
2.996669441146025
1040
0.0
1002
}
  0
INSERT
  5
94113
  8
0
  2
*X209
 10
0.0
 20
0.0
 30
0.0
1001
ACAD
1000
HATCH
1002
{
1070
    19
1000
ANSI37
1040
0.15
1040
0.0
1000
ASC_BOUNDS
1070
     1
1070
     2
1070
    10
1005
940D3
1005
940D4
1005
940F5
1005
940F3
1005
940F4
1005
940E7
1005
940EC
1005
940F0
1005
940D6
1005
940D5
1000
ASC_SEEDPOINT
1011
14.73245321214324
1021
2.798246178283421
1031
0.0
1021
2.798246178283421
1031
0.0
1000
R14_HATCH_DATA
1000
94113
1011
1.0
1021
0.0
1031
0.0
1021
0.0
1031
0.0
1011
0.0
1021
1.0
1031
0.0
1021
1.0
1031
0.0
1011
0.0
1021
0.0
1031
1.0
1021
0.0
1031
1.0
1040
0.0
1010
0.0
1020
0.0
1030
1.0
1000
ANSI37
1070
     0
1070
     1
1071
        1
1071
        7
1070
     0
1070
     1
1071
       10
1040
16.46099999998353
1040
5.432899999994561
1040
18.59199999998134
1040
-0.2368999999997641
1040
22.38199999997767
1040
8.763099999991255
1040
20.89099999997916
1040
8.763099999991255
1040
18.59799999998143
1040
3.315799999996671
1040
16.46099999998353
1040
8.999899999990987
1040
14.32399999998563
1040
3.315799999996671
1040
12.02999999998792
1040
8.763099999991255
1040
10.53899999998941
1040
8.763099999991255
1040
14.32899999998563
1040
-0.2368999999997641
1071
       10
1005
940D3
1005
940D4
1005
940F5
1005
940F3
1005
940F4
1005
940E7
1005
940EC
1005
940F0
1005
940D6
1005
940D5
1070
     0
1070
     1
1040
0.0
1040
0.15
1070
     0
1070
     2
1040
0.7853981633974483
1040
49.29960901727088
1040
-10.17736998311392
1040
-0.3367596045400932
1040
0.3367596045400932
1070
     0
1040
2.356194490192345
1040
49.29960901727088
1040
-10.17736998311392
1040
-0.3367596045400932
1040
-0.3367596045400932
1070
     0
1040
0.0110235143455945
1071
        1
1040
14.73245321214324
1040
2.798246178283421
1040
0.0
1002
}
  0
INSERT
  5
94114
  8
0
  2
*X210
 10
0.0
 20
0.0
 30
0.0
1001
ACAD
1000
HATCH
1002
{
1070
    19
1000
ANSI37
1040
0.15
1040
0.0
1000
ASC_BOUNDS
1070
     2
1070
     2
1070
    13
1005
940D7
1005
940E4
1005
940E5
1005
940E3
1005
940E6
1005
9410D
1005
94111
1005
9410C
1005
9410B
1005
9410E
1005
94110
1005
9410F
1005
940D8
1070
     2
1070
     3
1005
940F1
1005
940F6
1005
940F2
1000
ASC_SEEDPOINT
1011
21.97929957367762
1021
3.294304244259308
1031
0.0
1021
3.294304244259308
1031
0.0
1000
R14_HATCH_DATA
1000
94114
1011
1.0
1021
0.0
1031
0.0
1021
0.0
1031
0.0
1011
0.0
1021
1.0
1031
0.0
1021
1.0
1031
0.0
1011
0.0
1021
0.0
1031
1.0
1021
0.0
1031
1.0
1040
0.0
1010
0.0
1020
0.0
1030
1.0
1000
ANSI37
1070
     0
1070
     1
1071
        2
1071
        7
1070
     1
1070
     1
1071
       15
1040
23.56599999997638
1040
8.999899999990987
1040
0.0
1040
19.53899999998043
1040
-0.0001000000000317
1040
0.0
1040
19.53899999998043
1040
0.0
1040
0.0
1040
21.09599999997886
1040
0.0
1040
0.0
1040
21.09599999997886
1040
-0.0001000000000317
1040
0.0
1040
22.15599999997789
1040
2.368399999997621
1040
0.0
1040
24.97599999997499
1040
2.368399999997621
1040
0.0
1040
26.02015566812236
1040
0.0330999999912365
1040
0.0
1040
28.40199999996923
1040
0.0330999999912365
1040
0.414213562373095
1040
30.74199999996923
1040
2.373099999991211
1040
0.0
1040
30.74199999996927
1040
8.763099999991255
1040
0.0
1040
29.30199999996933
1040
8.763099999991255
1040
0.0
1040
29.30199999996933
1040
2.283099999991236
1040
-0.414213562373095
1040
28.40199999996923
1040
1.383099999991237
1040
0.0
1040
26.97358892824991
1040
1.383099999991202
1040
0.0
1071
       13
1005
940D7
1005
940E4
1005
940E5
1005
940E3
1005
940E6
1005
9410D
1005
94111
1005
9410C
1005
9410B
1005
9410E
1005
94110
1005
9410F
1005
940D8
1071
       22
1070
     0
1070
     1
1071
        3
1040
22.7389999999773
1040
3.670999999996297
1040
23.56599999997638
1040
5.5200999999945
1040
24.39299999997559
1040
3.670999999996297
1071
        3
1005
940F1
1005
940F6
1005
940F2
1070
     0
1070
     1
1040
0.0
1040
0.15
1070
     0
1070
     2
1040
0.7853981633974483
1040
49.29960901727088
1040
-10.17736998311392
1040
-0.3367596045400932
1040
0.3367596045400932
1070
     0
1040
2.356194490192345
1040
49.29960901727088
1040
-10.17736998311392
1040
-0.3367596045400932
1040
-0.3367596045400932
1070
     0
1040
0.0110235143455945
1071
        2
1040
21.97929957367762
1040
3.294304244259308
1040
0.0
1040
21.97929957367762
1040
3.294304244259308
1040
0.0
1002
}
  0
INSERT
  5
94115
  8
0
  2
*X211
 10
0.0
 20
0.0
 30
0.0
1001
ACAD
1000
HATCH
1002
{
1070
    19
1000
ANSI37
1040
0.15
1040
0.0
1000
R14_HATCH_DATA
1000
94115
1011
1.0
1021
0.0
1031
0.0
1021
0.0
1031
0.0
1011
0.0
1021
1.0
1031
0.0
1021
1.0
1031
0.0
1011
0.0
1021
0.0
1031
1.0
1021
0.0
1031
1.0
1040
0.0
1010
0.0
1020
0.0
1030
1.0
1000
ANSI37
1070
     0
1070
     1
1071
        1
1071
        7
1070
     1
1070
     1
1071
       12
1040
31.64199999996833
1040
2.481619422925121
1040
0.2679491924310942
1040
32.94699999997067
1040
0.2212931190493919
1040
0.2679491924301353
1040
36.36699999995983
1040
0.2212931190459813
1040
0.2679491924321411
1040
37.67199999996831
1040
2.481619422928361
1040
0.0
1040
37.67199999996831
1040
8.763099999991255
1040
0.0
1040
36.23199999996837
1040
8.763099999991255
1040
0.0
1040
36.23199999996837
1040
2.481619422925064
1040
-0.2679491924310291
1040
35.64699999996708
1040
1.468369700498386
1040
-0.267949192430519
1040
33.66699999997093
1040
1.468369700497703
1040
-0.267949192431809
1040
33.08199999996839
1040
2.481619422926997
1040
0.0
1040
33.08199999996839
1040
8.763099999991255
1040
0.0
1040
31.64199999996833
1040
8.763099999991255
1040
0.0
1071
        0
1070
     0
1070
     1
1040
0.0
1040
0.15
1070
     0
1070
     2
1040
0.7853981633974483
1040
49.29960901727088
1040
-10.17736998311392
1040
-0.3367596045400932
1040
0.3367596045400932
1070
     0
1040
2.356194490192345
1040
49.29960901727088
1040
-10.17736998311392
1040
-0.3367596045400932
1040
-0.3367596045400932
1070
     0
1040
0.0110235143455945
1071
        1
1040
32.30357378967278
1040
3.988785755459219
1040
0.0
1002
}
  0
INSERT
  5
94116
  8
0
  2
*X212
 10
0.0
 20
0.0
 30
0.0
1001
ACAD
1000
HATCH
1002
{
1070
    19
1000
ANSI37
1040
0.15
1040
0.0
1000
ASC_BOUNDS
1070
     1
1070
     2
1070
     8
1005
940F7
1005
940FA
1005
940FE
1005
940FD
1005
940FC
1005
940F9
1005
940FB
1005
940F8
1000
ASC_SEEDPOINT
1011
39.74896370716704
1021
4.484843821435049
1031
0.0
1021
4.484843821435049
1031
0.0
1000
R14_HATCH_DATA
1000
94116
1011
1.0
1021
0.0
1031
0.0
1021
0.0
1031
0.0
1011
0.0
1021
1.0
1031
0.0
1021
1.0
1031
0.0
1011
0.0
1021
0.0
1031
1.0
1021
0.0
1031
1.0
1040
0.0
1010
0.0
1020
0.0
1030
1.0
1000
ANSI37
1070
     0
1070
     1
1071
        1
1071
        7
1070
     0
1070
     1
1071
        9
1040
40.02599999995994
1040
5.341799999994635
1040
44.99999999995498
1040
-0.2368999999997641
1040
44.99999999995498
1040
8.763099999991255
1040
43.57899999995641
1040
8.763099999991255
1040
43.57899999995641
1040
3.421199999996588
1040
38.60499999996136
1040
8.999899999990987
1040
38.60499999996136
1040
8.999999999991019
1040
38.60499999996136
1040
0.0
1040
40.02599999995994
1040
0.0
1071
        8
1005
940F7
1005
940FA
1005
940FE
1005
940FD
1005
940FC
1005
940F9
1005
940FB
1005
940F8
1070
     0
1070
     1
1040
0.0
1040
0.15
1070
     0
1070
     2
1040
0.7853981633974483
1040
49.29960901727088
1040
-10.17736998311392
1040
-0.3367596045400932
1040
0.3367596045400932
1070
     0
1040
2.356194490192345
1040
49.29960901727088
1040
-10.17736998311392
1040
-0.3367596045400932
1040
-0.3367596045400932
1070
     0
1040
0.0110235143455945
1071
        1
1040
39.74896370716704
1040
4.484843821435049
1040
0.0
1002
}
  0
INSERT
  5
94117
  8
0
  2
*X213
 10
0.0
 20
0.0
 30
0.0
1001
ACAD
1000
HATCH
1002
{
1070
    19
1000
ANSI37
1040
0.15
1040
0.0
1000
ASC_BOUNDS
1070
     1
1070
     2
1070
     4
1005
940DB
1005
940EA
1005
940DC
1005
940DE
1000
ASC_SEEDPOINT
1011
1.079051535452663
1021
4.148538732891836
1031
0.0
1021
4.148538732891836
1031
0.0
1000
R14_HATCH_DATA
1000
94117
1011
1.0
1021
0.0
1031
0.0
1021
0.0
1031
0.0
1011
0.0
1021
1.0
1031
0.0
1021
1.0
1031
0.0
1011
0.0
1021
0.0
1031
1.0
1021
0.0
1031
1.0
1040
0.0
1010
0.0
1020
0.0
1030
1.0
1000
ANSI37
1070
     0
1070
     1
1071
        1
1071
        7
1070
     0
1070
     1
1071
        4
1040
1.420999999998571
1040
0.0
1040
1.420999999998571
1040
8.763099999991255
1040
0.0
1040
8.763099999991255
1040
0.0
1040
0.0
1071
        4
1005
940DB
1005
940EA
1005
940DC
1005
940DE
1070
     0
1070
     1
1040
0.0
1040
0.15
1070
     0
1070
     2
1040
0.7853981633974483
1040
49.29960901727088
1040
-10.17736998311392
1040
-0.3367596045400932
1040
0.3367596045400932
1070
     0
1040
2.356194490192345
1040
49.29960901727088
1040
-10.17736998311392
1040
-0.3367596045400932
1040
-0.3367596045400932
1070
     0
1040
0.0053004257112761
1071
        1
1040
1.079051535452663
1040
4.148538732891836
1040
0.0
1002
}
  0
ENDBLK
  5
94820
  8
0
  0
BLOCK
  8
0
  2
_TAGCIRCLE
 70
     2
 10
0.0
 20
0.0
 30
0.0
  3
_TAGCIRCLE
  1

  0
CIRCLE
  5
7E2F8
  8
0
  6
BYBLOCK
 62
     0
 10
0.0
 20
0.0
 30
0.0
 40
0.1052552224523172
  0
ATTDEF
  5
7E2F9
  8
0
 62
     0
 10
-0.2125
 20
-0.046875
 30
0.0
 40
0.09375
  1
タグ番号
 72
     1
 11
0.0
 21
-0.046875
 31
0.0
  3
タグ番号を入力
  2
タグ番号
 70
     0
1001
ACADSTRINGINFO
1000
MIFCodePage
1070
     1
  0
ENDBLK
  5
7E3D8
  8
0
  0
BLOCK
  8
0
  2
_TAGTRIANGLE
 70
     2
 10
0.0
 20
0.0
 30
0.0
  3
_TAGTRIANGLE
  1

  0
POLYLINE
  5
7E2FE
  8
0
  6
BYBLOCK
 62
     0
 66
     1
 10
0.0
 20
0.0
 30
0.0
 70
     1
  0
VERTEX
  5
A9C57
  8
0
  6
BYBLOCK
 62
     0
 10
-0.2165063509461096
 20
-0.125
 30
0.0
  0
VERTEX
  5
A9C58
  8
0
  6
BYBLOCK
 62
     0
 10
0.0
 20
0.25
 30
0.0
  0
VERTEX
  5
A9C59
  8
0
  6
BYBLOCK
 62
     0
 10
0.2165063509461096
 20
-0.125
 30
0.0
  0
SEQEND
  5
A9C66
  8
0
  6
BYBLOCK
 62
     0
  0
ATTDEF
  5
7E2FF
  8
1TEXT
 62
     0
 10
-0.3805175846051759
 20
-0.046875
 30
0.0
 40
0.14
  1
タグ番号
  7
MAKER
 72
     1
 11
0.0
 21
-0.046875
 31
0.0
  3
タグ番号を入力
  2
タグ番号
 70
     0
1001
ACADSTRINGINFO
1000
MIFCodePage
1070
     1
  0
ENDBLK
  5
7E3DA
  8
0
  0
BLOCK
  8
0
  2
WELD111
 70
     0
 10
0.0
 20
0.0
 30
0.0
  3
WELD111
  1

  0
CIRCLE
  5
7E306
  8
0
 62
     0
 10
6.0
 20
0.0000000000000142
 30
0.0
 40
2.990262378117563
  0
LINE
  5
7E307
  8
0
 62
     0
 10
0.0
 20
0.0
 30
0.0
 11
11.99999999999999
 21
0.0000000000000142
 31
0.0
  0
ENDBLK
  5
7E3DC
  8
0
  0
BLOCK
  8
0
  2
WELD112
 70
     0
 10
0.0
 20
0.0
 30
0.0
  3
WELD112
  1

  0
INSERT
  5
7E30E
  8
0
  6
BYBLOCK
 62
     0
  2
スポット溶接記号
 10
-6.0
 20
0.0
 30
0.0
  0
LINE
  5
7E31B
  8
0
  6
BYBLOCK
 62
     0
 10
-4.67642258006606
 20
-5.151751477760058
 30
0.0
 11
4.67642258006606
 21
-5.151751477760058
 31
0.0
  0
ENDBLK
  5
7E3DE
  8
0
  0
BLOCK
  8
0
  2
スポット溶接記号
 70
     0
 10
0.0
 20
0.0
 30
0.0
  3
スポット溶接記号
  1

1001
ACADSTRINGINFO
1000
MIFCodePage
1070
     1
  0
CIRCLE
  5
7E318
  8
0
 10
6.0
 20
0.0000000000000142
 30
0.0
 40
2.990262378117563
  0
LINE
  5
7E319
  8
0
 10
0.0
 20
0.0
 30
0.0
 11
11.99999999999999
 21
0.0000000000000142
 31
0.0
  0
ENDBLK
  5
7E3E0
  8
0
  0
BLOCK
  8
0
  2
WELD01
 70
     0
 10
0.0
 20
0.0
 30
0.0
  3
WELD01
  1

  0
LINE
  5
7E322
  8
0
  6
BYBLOCK
 62
     0
 10
0.0
 20
0.0
 30
0.0
 11
11.99999957320006
 21
0.0
 31
0.0
  0
LINE
  5
7E323
  8
0
  6
BYBLOCK
 62
     0
 10
3.591012473199953
 20
-5.462740899999972
 30
0.0
 11
3.591012473199953
 21
0.0
 31
0.0
  0
LINE
  5
7E324
  8
0
  6
BYBLOCK
 62
     0
 10
3.591012473199953
 20
-5.46274040000003
 30
0.0
 11
9.053753873200094
 21
0.0000002475924248
 31
0.0
  0
ENDBLK
  5
7E3E2
  8
0
  0
BLOCK
  8
0
  2
WELD05
 70
     0
 10
0.0
 20
0.0
 30
0.0
  3
WELD05
  1

  0
TEXT
  5
7E329
  8
0
 10
8.006110799999874
 20
-6.467742999999928
 30
0.0
 40
3.2
  1
Ｇ
 41
0.90047268
  0
LINE
  5
7E32A
  8
1HATCH
 10
0.0
 20
0.0
 30
0.0
 11
11.99999999999989
 21
0.0
 31
0.0
  0
LINE
  5
7E32B
  8
0
 10
3.591012500000033
 20
-5.462740899999972
 30
0.0
 11
3.591012500000033
 21
0.0
 31
0.0
  0
LINE
  5
7E32C
  8
0
 10
3.591012200000023
 20
-5.46274040000003
 30
0.0
 11
9.05375390000006
 21
0.0000002483500339
 31
0.0
  0
LINE
  5
7E32D
  8
0
 10
4.298119099999894
 20
-6.169846999999891
 30
0.0
 11
9.76086040000007
 21
-0.7071065899999667
 31
0.0
  0
ENDBLK
  5
7E3E4
  8
0
  0
BLOCK
  8
0
  2
WELD02
 70
     0
 10
0.0
 20
0.0
 30
0.0
  3
WELD02
  1

  0
LINE
  5
7E332
  8
1HATCH
 10
0.0
 20
0.0
 30
0.0
 11
11.99999957320006
 21
0.0
 31
0.0
  0
LINE
  5
7E333
  8
0
 10
3.591012473199953
 20
-5.462740899999972
 30
0.0
 11
3.591012473199953
 21
0.0
 31
0.0
  0
LINE
  5
7E334
  8
0
 10
3.591012473199953
 20
-5.46274040000003
 30
0.0
 11
9.053753873200094
 21
0.0000002475924248
 31
0.0
  0
LINE
  5
7E335
  8
0
 10
3.591012473199953
 20
5.46274040000003
 30
0.0
 11
9.053752873199755
 21
0.0000004267571967
 31
0.0
  0
LINE
  5
7E336
  8
0
 10
3.591012473199953
 20
5.462740899999972
 30
0.0
 11
3.591012473199953
 21
0.0
 31
0.0
  0
ENDBLK
  5
7E3E6
  8
0
  0
BLOCK
  8
0
  2
WELD09
 70
     0
 10
0.0
 20
0.0
 30
0.0
  3
WELD09
  1

  0
LINE
  5
7E33B
  8
1HATCH
 10
0.0
 20
0.0
 30
0.0
 11
12.0
 21
0.0
 31
0.0
  0
LINE
  5
7E33C
  8
0
 10
4.5
 20
0.0
 30
0.0
 11
4.5
 21
-6.0
 31
0.0
  0
LINE
  5
7E33D
  8
0
 10
7.499999499999831
 20
0.0
 30
0.0
 11
7.499999499999831
 21
-6.0
 31
0.0
  0
ENDBLK
  5
7E3E8
  8
0
  0
BLOCK
  8
0
  2
WELD14
 70
     0
 10
0.0
 20
0.0
 30
0.0
  3
WELD14
  1

  0
LINE
  5
7E342
  8
1HATCH
 10
0.0
 20
0.0
 30
0.0
 11
12.0
 21
0.0
 31
0.0
  0
LINE
  5
7E343
  8
0
 10
10.0
 20
0.0
 30
0.0
 11
10.0
 21
-5.0
 31
0.0
  0
LINE
  5
7E344
  8
0
 10
2.0
 20
0.0
 30
0.0
 11
2.0
 21
-5.0
 31
0.0
  0
LINE
  5
7E345
  8
0
 10
2.0
 20
-5.0
 30
0.0
 11
10.0
 21
-5.0
 31
0.0
  0
ENDBLK
  5
7E3EA
  8
0
  0
BLOCK
  8
0
  2
WELD07
 70
     0
 10
0.0
 20
0.0
 30
0.0
  3
WELD07
  1

  0
LINE
  5
7E34A
  8
1HATCH
 10
0.0
 20
0.0
 30
0.0
 11
9.905951749230908
 21
0.0000000000000003
 31
0.0
  0
ARC
  5
7E34B
  8
0
 10
9.062741300000084
 20
0.0
 30
0.0
 40
5.0
 50
90.0
 51
270.0
  0
LINE
  5
7E34C
  8
0
 10
2.599999900000057
 20
-5.0
 30
0.0
 11
2.599999900000057
 21
0.0
 31
0.0
  0
LINE
  5
7E34D
  8
0
 10
2.599999900000057
 20
5.0
 30
0.0
 11
2.599999900000057
 21
0.0
 31
0.0
  0
ENDBLK
  5
7E3EC
  8
0
  0
BLOCK
  8
0
  2
WELD11
 70
     0
 10
0.0
 20
0.0
 30
0.0
  3
WELD11
  1

  0
LINE
  5
7E352
  8
1HATCH
 10
0.0
 20
0.0
 30
0.0
 11
12.0
 21
0.0
 31
0.0
  0
ARC
  5
7E353
  8
0
 10
11.73137099999985
 20
0.0
 30
0.0
 40
5.0
 50
179.9999900000006
 51
270.0
  0
ARC
  5
7E354
  8
0
 10
0.2686290699998608
 20
0.0
 30
0.0
 40
5.0
 50
270.0
 51
0.0
  0
ENDBLK
  5
7E3EE
  8
0
  0
BLOCK
  8
0
  2
WELD08
 70
     0
 10
0.0
 20
0.0
 30
0.0
  3
WELD08
  1

  0
ARC
  5
7E359
  8
0
 10
0.25
 20
0.0
 30
0.0
 40
5.0
 50
270.0
 51
90.00000300000015
  0
ARC
  5
7E35A
  8
0
 10
11.71274200000005
 20
0.0
 30
0.0
 40
5.0
 50
90.0
 51
270.0
  0
LINE
  5
7E35B
  8
1HATCH
 10
0.0
 20
0.0
 30
0.0
 11
11.99999999999989
 21
0.0
 31
0.0
  0
ENDBLK
  5
7E3F0
  8
0
  0
BLOCK
  8
0
  2
WELD06
 70
     0
 10
0.0
 20
0.0
 30
0.0
  3
WELD06
  1

  0
LINE
  5
7E360
  8
1HATCH
 10
0.0
 20
0.0
 30
0.0
 11
9.822628962642085
 21
0.0000000000000003
 31
0.0
  0
ARC
  5
7E361
  8
0
 10
9.062741300000084
 20
0.0
 30
0.0
 40
5.0
 50
179.9999900000006
 51
270.0
  0
LINE
  5
7E362
  8
0
 10
2.599999900000057
 20
-5.0
 30
0.0
 11
2.599999900000057
 21
0.0
 31
0.0
  0
ENDBLK
  5
7E3F2
  8
0
  0
BLOCK
  8
0
  2
NOCIRCLE
 70
     2
 10
0.0
 20
0.0
 30
0.0
  3
NOCIRCLE
  1

  0
CIRCLE
  5
7F5FC
  8
0
  6
BYBLOCK
 62
     0
 10
0.0
 20
0.0
 30
0.0
 40
4.2
  0
ATTDEF
  5
7F5FD
  8
1TEXT
 10
-1.904761904761904
 20
-2.0
 30
0.0
 40
4.0
  1
0
 72
     4
 11
0.0
 21
0.0
 31
0.0
  3
NO.
  2
NO
 70
     0
  0
ENDBLK
  5
7F6CF
  8
0
  0
BLOCK
  8
0
  2
_OPEN
 70
     0
 10
0.0
 20
0.0
 30
0.0
  3
_OPEN
  1

  0
LINE
  5
7F604
  8
0
  6
BYBLOCK
 62
     0
 10
-1.0
 20
0.166667
 30
0.0
 11
0.0
 21
0.0
 31
0.0
  0
LINE
  5
7F605
  8
0
  6
BYBLOCK
 62
     0
 10
-1.0
 20
-0.166667
 30
0.0
 11
0.0
 21
0.0
 31
0.0
  0
LINE
  5
7F606
  8
0
  6
BYBLOCK
 62
     0
 10
0.0
 20
0.0
 30
0.0
 11
-1.0
 21
0.0
 31
0.0
  0
ENDBLK
  5
7F6D1
  8
0
  0
BLOCK
  8
0
  2
*X208
 70
     1
 10
0.0
 20
0.0
 30
0.0
  3
*X208
  1

  0
LINE
  5
A9ACA
  8
0
  6
CONTINUOUS
 10
3.418023043697893
 20
7.251849696850613
 30
0.0
 11
4.929273346838536
 21
8.763099999991255
 31
0.0
  0
LINE
  5
A9ACB
  8
0
  6
CONTINUOUS
 10
1.483656411257782
 20
4.643963855330318
 30
0.0
 11
5.60279255591872
 21
8.763099999991255
 31
0.0
  0
LINE
  5
A9ACC
  8
0
  6
CONTINUOUS
 10
1.755053947328235
 20
4.241842182320584
 30
0.0
 11
6.276311764998907
 21
8.763099999991255
 31
0.0
  0
LINE
  5
A9ACD
  8
0
  6
CONTINUOUS
 10
2.026451483398688
 20
3.839720509310849
 30
0.0
 11
4.441040904851878
 21
6.254309930764039
 31
0.0
  0
LINE
  5
A9ACE
  8
0
  6
CONTINUOUS
 10
2.297849019469139
 20
3.437598836301114
 30
0.0
 11
3.321765168359338
 21
4.461514985191313
 31
0.0
  0
LINE
  5
A9ACF
  8
0
  6
CONTINUOUS
 10
2.569246555539591
 20
3.03547716329138
 30
0.0
 11
3.593163397972743
 21
4.059394005724531
 31
0.0
  0
LINE
  5
A9AD0
  8
0
  6
CONTINUOUS
 10
2.840644091610043
 20
2.633355490281646
 30
0.0
 11
3.864561627586149
 21
3.657273026257751
 31
0.0
  0
LINE
  5
A9AD1
  8
0
  6
CONTINUOUS
 10
3.112041627680496
 20
2.231233817271911
 30
0.0
 11
4.135959857199554
 21
3.25515204679097
 31
0.0
  0
LINE
  5
A9AD2
  8
0
  6
CONTINUOUS
 10
3.383439163750948
 20
1.829112144262177
 30
0.0
 11
4.40735808681296
 21
2.853031067324189
 31
0.0
  0
LINE
  5
A9AD3
  8
0
  6
CONTINUOUS
 10
3.654836699821399
 20
1.426990471252442
 30
0.0
 11
4.678756316426365
 21
2.450910087857407
 31
0.0
  0
LINE
  5
A9AD4
  8
0
  6
CONTINUOUS
 10
3.926234235891853
 20
1.024868798242709
 30
0.0
 11
4.95015454603977
 21
2.048789108390626
 31
0.0
  0
LINE
  5
A9AD5
  8
0
  6
CONTINUOUS
 10
4.197631771962304
 20
0.6227471252329737
 30
0.0
 11
5.221552775653176
 21
1.646668128923846
 31
0.0
  0
LINE
  5
A9AD6
  8
0
  6
CONTINUOUS
 10
8.715877546767851
 20
7.835069736359266
 30
0.0
 11
9.435953450375058
 21
8.555145639966472
 31
0.0
  0
LINE
  5
A9AD7
  8
0
  6
CONTINUOUS
 10
8.170620868422267
 20
6.616293848933497
 30
0.0
 11
9.644120833743461
 21
8.08979381425469
 31
0.0
  0
LINE
  5
A9AD8
  8
0
  6
CONTINUOUS
 10
7.625364190076684
 20
5.397517961507727
 30
0.0
 11
9.852288217111864
 21
7.624441988542907
 31
0.0
  0
LINE
  5
A9AD9
  8
0
  6
CONTINUOUS
 10
7.080107511731101
 20
4.178742074081957
 30
0.0
 11
10.06045560048027
 21
7.159090162831124
 31
0.0
  0
LINE
  5
A9ADA
  8
0
  6
CONTINUOUS
 10
6.534850833385518
 20
2.959966186656187
 30
0.0
 11
10.26862298384867
 21
6.693738337119342
 31
0.0
  0
LINE
  5
A9ADB
  8
0
  6
CONTINUOUS
 10
4.469029308032756
 20
0.2206254522232385
 30
0.0
 11
5.492951005266582
 21
1.244547149457064
 31
0.0
  0
LINE
  5
A9ADC
  8
0
  6
CONTINUOUS
 10
5.989594155039935
 20
1.741190299230417
 30
0.0
 11
8.806950407233131
 21
4.558546551423613
 31
0.0
  0
LINE
  5
A9ADD
  8
0
  6
CONTINUOUS
 10
9.401251593263643
 20
5.152847737454126
 30
0.0
 11
10.47679036721708
 21
6.228386511407559
 31
0.0
  0
LINE
  5
A9ADE
  8
0
  6
CONTINUOUS
 10
4.921837203428691
 20
-0.0000858614610131
 30
0.0
 11
8.592923064886001
 21
3.670999999996297
 31
0.0
  0
LINE
  5
A9ADF
  8
0
  6
CONTINUOUS
 10
9.609390446785305
 20
4.6874673818956
 30
0.0
 11
10.68495775058548
 21
5.763034685695775
 31
0.0
  0
LINE
  5
A9AE0
  8
0
  6
CONTINUOUS
 10
5.595387755019432
 20
-0.0000545189504582
 30
0.0
 11
7.716137258923768
 21
2.120694984953879
 31
0.0
  0
LINE
  5
A9AE1
  8
0
  6
CONTINUOUS
 10
6.268938306610172
 20
-0.000023176439905
 30
0.0
 11
7.170485805526503
 21
0.9015243224764267
 31
0.0
  0
LINE
  5
A9AE2
  8
0
  6
CONTINUOUS
 10
7.963842273967511
 20
2.368399999997621
 30
0.0
 11
9.266442273966188
 21
3.670999999996297
 31
0.0
  0
LINE
  5
A9AE3
  8
0
  6
CONTINUOUS
 10
8.637361483047696
 20
2.368399999997621
 30
0.0
 11
9.939961483046375
 21
3.670999999996297
 31
0.0
  0
LINE
  5
A9AE4
  8
0
  6
CONTINUOUS
 10
9.817529300306965
 20
4.222087026337075
 30
0.0
 11
10.89312513395388
 21
5.297682859983993
 31
0.0
  0
LINE
  5
A9AE5
  8
0
  6
CONTINUOUS
 10
10.02566815382863
 20
3.756706670778549
 30
0.0
 11
11.10129251732229
 21
4.832331034272211
 31
0.0
  0
LINE
  5
A9AE6
  8
0
  6
CONTINUOUS
 10
9.310880692127883
 20
2.368399999997621
 30
0.0
 11
11.30945990069069
 21
4.366979208560428
 31
0.0
  0
LINE
  5
A9AE7
  8
0
  6
CONTINUOUS
 10
9.98439990120807
 20
2.36839999999762
 30
0.0
 11
11.5176272840591
 21
3.901627382848645
 31
0.0
  0
LINE
  5
A9AE8
  8
0
  6
CONTINUOUS
 10
10.65037369446246
 20
2.36085458417182
 30
0.0
 11
11.7257946674275
 21
3.436275557136862
 31
0.0
  0
LINE
  5
A9AE9
  8
0
  6
CONTINUOUS
 10
10.85847197087848
 20
1.895433651507656
 30
0.0
 11
11.9339620507959
 21
2.97092373142508
 31
0.0
  0
LINE
  5
A9AEA
  8
0
  6
CONTINUOUS
 10
11.0665702472945
 20
1.430012718843491
 30
0.0
 11
12.14212943416431
 21
2.505571905713296
 31
0.0
  0
LINE
  5
A9AEB
  8
0
  6
CONTINUOUS
 10
11.27466852371052
 20
0.9645917861793256
 30
0.0
 11
12.35029681753271
 21
2.040220080001513
 31
0.0
  0
LINE
  5
A9AEC
  8
0
  6
CONTINUOUS
 10
11.48276680012654
 20
0.4991708535151611
 30
0.0
 11
12.55846420090111
 21
1.57486825428973
 31
0.0
  0
LINE
  5
A9AED
  8
0
  6
CONTINUOUS
 10
11.69086507654257
 20
0.0337499208509957
 30
0.0
 11
12.76663158426952
 21
1.109516428577947
 31
0.0
  0
LINE
  5
A9AEE
  8
0
  6
CONTINUOUS
 10
12.33057447873954
 20
-0.0000598860322123
 30
0.0
 11
12.97479896763792
 21
0.6441646028661663
 31
0.0
  0
LINE
  5
A9AEF
  8
0
  6
CONTINUOUS
 10
13.00413694809395
 20
-0.0000166257579952
 30
0.0
 11
13.18296635100632
 21
0.1788127771543824
 31
0.0
  0
LINE
  5
A9AF0
  8
0
  6
CONTINUOUS
 10
4.772852165289667
 20
-0.000092794222212
 30
0.0
 11
4.296495091028902
 21
0.4762642800385528
 31
0.0
  0
LINE
  5
A9AF1
  8
0
  6
CONTINUOUS
 10
5.446340034776103
 20
-0.0000614546284616
 30
0.0
 11
2.898195908335625
 21
2.548082671812017
 31
0.0
  0
LINE
  5
A9AF2
  8
0
  6
CONTINUOUS
 10
6.119827904262539
 20
-0.0000301150347113
 30
0.0
 11
1.499896725642348
 21
4.61990106358548
 31
0.0
  0
LINE
  5
A9AF3
  8
0
  6
CONTINUOUS
 10
6.775136745476159
 20
0.0181802528318542
 30
0.0
 11
5.699826040202669
 21
1.093490958105344
 31
0.0
  0
LINE
  5
A9AF4
  8
0
  6
CONTINUOUS
 10
6.983376846288489
 20
0.4834593610997118
 30
0.0
 11
5.908008617934405
 21
1.558827589453796
 31
0.0
  0
LINE
  5
A9AF5
  8
0
  6
CONTINUOUS
 10
5.377063484962296
 20
1.416253513345719
 30
0.0
 11
1.702276957014131
 21
5.091040041293883
 31
0.0
  0
LINE
  5
A9AF6
  8
0
  6
CONTINUOUS
 10
3.978745891735324
 20
3.488090315652877
 30
0.0
 11
2.000373521109399
 21
5.466462686278803
 31
0.0
  0
LINE
  5
A9AF7
  8
0
  6
CONTINUOUS
 10
7.191616947100819
 20
0.948738469367568
 30
0.0
 11
6.11619119566614
 21
2.024164220802247
 31
0.0
  0
LINE
  5
A9AF8
  8
0
  6
CONTINUOUS
 10
7.399857047913149
 20
1.414017577635424
 30
0.0
 11
6.324373773397875
 21
2.489500852150698
 31
0.0
  0
LINE
  5
A9AF9
  8
0
  6
CONTINUOUS
 10
7.608097148725479
 20
1.879296685903281
 30
0.0
 11
6.53255635112961
 21
2.95483748349915
 31
0.0
  0
LINE
  5
A9AFA
  8
0
  6
CONTINUOUS
 10
7.816337249537808
 20
2.344575794171138
 30
0.0
 11
6.740738928861345
 21
3.420174114847601
 31
0.0
  0
LINE
  5
A9AFB
  8
0
  6
CONTINUOUS
 10
3.310241080789734
 20
4.830114335678653
 30
0.0
 11
2.298470085204666
 21
5.84188533126372
 31
0.0
  0
LINE
  5
A9AFC
  8
0
  6
CONTINUOUS
 10
3.60832983563551
 20
5.205544789913063
 30
0.0
 11
2.596566649299935
 21
6.217307976248638
 31
0.0
  0
LINE
  5
A9AFD
  8
0
  6
CONTINUOUS
 10
3.906418590481286
 20
5.580975244147473
 30
0.0
 11
2.894663213395203
 21
6.592730621233557
 31
0.0
  0
LINE
  5
A9AFE
  8
0
  6
CONTINUOUS
 10
4.204507345327062
 20
5.956405698381884
 30
0.0
 11
3.192759777490472
 21
6.968153266218474
 31
0.0
  0
LINE
  5
A9AFF
  8
0
  6
CONTINUOUS
 10
8.466032252791512
 20
2.368399999997621
 30
0.0
 11
6.948921506593081
 21
3.885510746196053
 31
0.0
  0
LINE
  5
A9B00
  8
0
  6
CONTINUOUS
 10
9.139551461871699
 20
2.36839999999762
 30
0.0
 11
7.157104084324816
 21
4.350847377544504
 31
0.0
  0
LINE
  5
A9B01
  8
0
  6
CONTINUOUS
 10
4.502596100172839
 20
6.331836152616295
 30
0.0
 11
3.49085634158574
 21
7.343575911203393
 31
0.0
  0
LINE
  5
A9B02
  8
0
  6
CONTINUOUS
 10
4.800684855018615
 20
6.707266606850705
 30
0.0
 11
3.788952905681008
 21
7.718998556188312
 31
0.0
  0
LINE
  5
A9B03
  8
0
  6
CONTINUOUS
 10
12.18154012887317
 20
-0.0000694579236642
 30
0.0
 11
11.32140332908496
 21
0.8600673418645499
 31
0.0
  0
LINE
  5
A9B04
  8
0
  6
CONTINUOUS
 10
12.85501608323566
 20
-0.0000262032059659
 30
0.0
 11
10.77672456435345
 21
2.078265315676246
 31
0.0
  0
LINE
  5
A9B05
  8
0
  6
CONTINUOUS
 10
9.813070670951886
 20
2.36839999999762
 30
0.0
 11
8.51047067095321
 21
3.670999999996297
 31
0.0
  0
LINE
  5
A9B06
  8
0
  6
CONTINUOUS
 10
10.48658988003207
 20
2.36839999999762
 30
0.0
 11
9.183989880033396
 21
3.670999999996297
 31
0.0
  0
LINE
  5
A9B07
  8
0
  6
CONTINUOUS
 10
8.441048632286794
 20
3.740422038662712
 30
0.0
 11
7.365286662056551
 21
4.816184008892956
 31
0.0
  0
LINE
  5
A9B08
  8
0
  6
CONTINUOUS
 10
8.649187485808454
 20
4.205802394221237
 30
0.0
 11
7.573469239788285
 21
5.281520640241407
 31
0.0
  0
LINE
  5
A9B09
  8
0
  6
CONTINUOUS
 10
5.098773609864391
 20
7.082697061085115
 30
0.0
 11
4.087049469776277
 21
8.09442120117323
 31
0.0
  0
LINE
  5
A9B0A
  8
0
  6
CONTINUOUS
 10
5.396862364710167
 20
7.458127515319526
 30
0.0
 11
4.385146033871544
 21
8.469843846158149
 31
0.0
  0
LINE
  5
A9B0B
  8
0
  6
CONTINUOUS
 10
13.04801363231285
 20
0.4804954567970334
 30
0.0
 11
9.85750908911358
 21
3.670999999996297
 31
0.0
  0
LINE
  5
A9B0C
  8
0
  6
CONTINUOUS
 10
8.857326339330116
 20
4.671182749779763
 30
0.0
 11
7.781651817520021
 21
5.746857271589858
 31
0.0
  0
LINE
  5
A9B0D
  8
0
  6
CONTINUOUS
 10
5.694951119555943
 20
7.833557969553937
 30
0.0
 11
4.765409089118624
 21
8.763099999991255
 31
0.0
  0
LINE
  5
A9B0E
  8
0
  6
CONTINUOUS
 10
12.50286117236978
 20
1.699167125820288
 30
0.0
 11
9.68611877250287
 21
4.515909525687196
 31
0.0
  0
LINE
  5
A9B0F
  8
0
  6
CONTINUOUS
 10
9.065465192851777
 20
5.136563105338288
 30
0.0
 11
7.989834395251757
 21
6.21219390293831
 31
0.0
  0
LINE
  5
A9B10
  8
0
  6
CONTINUOUS
 10
5.993039874401719
 20
8.208988423788346
 30
0.0
 11
5.43892829819881
 21
8.763099999991255
 31
0.0
  0
LINE
  5
A9B11
  8
0
  6
CONTINUOUS
 10
11.95770871242671
 20
2.917838794843543
 30
0.0
 11
8.19801697298349
 21
6.677530534286761
 31
0.0
  0
LINE
  5
A9B12
  8
0
  6
CONTINUOUS
 10
6.291128629247495
 20
8.584418878022756
 30
0.0
 11
6.112447507278997
 21
8.763099999991255
 31
0.0
  0
LINE
  5
A9B13
  8
0
  6
CONTINUOUS
 10
11.41255625248364
 20
4.136510463866797
 30
0.0
 11
8.406199550715227
 21
7.142867165635211
 31
0.0
  0
LINE
  5
A9B14
  8
0
  6
CONTINUOUS
 10
10.86740379254057
 20
5.355182132890051
 30
0.0
 11
8.614382128446962
 21
7.608203796983664
 31
0.0
  0
LINE
  5
A9B15
  8
0
  6
CONTINUOUS
 10
10.3222513325975
 20
6.573853801913305
 30
0.0
 11
8.822564706178696
 21
8.073540428332114
 31
0.0
  0
LINE
  5
A9B16
  8
0
  6
CONTINUOUS
 10
9.777098872654436
 20
7.792525470936562
 30
0.0
 11
9.030747283910433
 21
8.538877059680566
 31
0.0
  0
ENDBLK
  5
A9C5B
  8
0
  0
BLOCK
  8
0
  2
*X209
 70
     1
 10
0.0
 20
0.0
 30
0.0
  3
*X209
  1

  0
LINE
  5
A9B18
  8
0
  6
CONTINUOUS
 10
10.67292308101235
 20
8.445076852443387
 30
0.0
 11
10.99094622856022
 21
8.763099999991255
 31
0.0
  0
LINE
  5
A9B19
  8
0
  6
CONTINUOUS
 10
10.87250383178748
 20
7.971138394138331
 30
0.0
 11
11.6644654376404
 21
8.763099999991255
 31
0.0
  0
LINE
  5
A9B1A
  8
0
  6
CONTINUOUS
 10
11.07208458256261
 20
7.497199935833273
 30
0.0
 11
12.12126590876355
 21
8.546381262034211
 31
0.0
  0
LINE
  5
A9B1B
  8
0
  6
CONTINUOUS
 10
11.27166533333774
 20
7.023261477528216
 30
0.0
 11
12.32085164573666
 21
8.072447789927136
 31
0.0
  0
LINE
  5
A9B1C
  8
0
  6
CONTINUOUS
 10
11.47124608411287
 20
6.549323019223158
 30
0.0
 11
12.52043738270977
 21
7.59851431782006
 31
0.0
  0
LINE
  5
A9B1D
  8
0
  6
CONTINUOUS
 10
11.670826834888
 20
6.075384560918101
 30
0.0
 11
12.72002311968288
 21
7.124580845712984
 31
0.0
  0
LINE
  5
A9B1E
  8
0
  6
CONTINUOUS
 10
11.87040758566313
 20
5.601446102613043
 30
0.0
 11
12.91960885665599
 21
6.650647373605907
 31
0.0
  0
LINE
  5
A9B1F
  8
0
  6
CONTINUOUS
 10
12.06998833643825
 20
5.127507644307986
 30
0.0
 11
13.1191945936291
 21
6.176713901498832
 31
0.0
  0
LINE
  5
A9B20
  8
0
  6
CONTINUOUS
 10
12.26956908721338
 20
4.65356918600293
 30
0.0
 11
13.31878033060221
 21
5.702780429391757
 31
0.0
  0
LINE
  5
A9B21
  8
0
  6
CONTINUOUS
 10
12.46914983798851
 20
4.179630727697873
 30
0.0
 11
13.51836606757532
 21
5.228846957284683
 31
0.0
  0
LINE
  5
A9B22
  8
0
  6
CONTINUOUS
 10
12.66873058876364
 20
3.705692269392816
 30
0.0
 11
13.71795180454843
 21
4.754913485177607
 31
0.0
  0
LINE
  5
A9B23
  8
0
  6
CONTINUOUS
 10
12.86831133953877
 20
3.231753811087759
 30
0.0
 11
13.91753754152154
 21
4.280980013070531
 31
0.0
  0
LINE
  5
A9B24
  8
0
  6
CONTINUOUS
 10
13.0678920903139
 20
2.757815352782702
 30
0.0
 11
14.11712327849465
 21
3.807046540963456
 31
0.0
  0
LINE
  5
A9B25
  8
0
  6
CONTINUOUS
 10
13.26747284108903
 20
2.283876894477644
 30
0.0
 11
14.31670901546777
 21
3.333113068856379
 31
0.0
  0
LINE
  5
A9B26
  8
0
  6
CONTINUOUS
 10
16.36767838827179
 20
8.751678487061342
 30
0.0
 11
16.50332410898388
 21
8.887324207773432
 31
0.0
  0
LINE
  5
A9B27
  8
0
  6
CONTINUOUS
 10
15.96190732182191
 20
7.67238821153127
 30
0.0
 11
16.68735328004734
 21
8.397834169756699
 31
0.0
  0
LINE
  5
A9B28
  8
0
  6
CONTINUOUS
 10
15.55613625537202
 20
6.593097936001196
 30
0.0
 11
16.87138245111079
 21
7.908344131739965
 31
0.0
  0
LINE
  5
A9B29
  8
0
  6
CONTINUOUS
 10
15.15036518892213
 20
5.513807660471122
 30
0.0
 11
17.05541162217424
 21
7.418854093723231
 31
0.0
  0
LINE
  5
A9B2A
  8
0
  6
CONTINUOUS
 10
14.74459412247225
 20
4.434517384941048
 30
0.0
 11
17.2394407932377
 21
6.929364055706499
 31
0.0
  0
LINE
  5
A9B2B
  8
0
  6
CONTINUOUS
 10
14.33882305602236
 20
3.355227109410975
 30
0.0
 11
17.42346996430115
 21
6.439874017689766
 31
0.0
  0
LINE
  5
A9B2C
  8
0
  6
CONTINUOUS
 10
13.46705359186416
 20
1.809938436172586
 30
0.0
 11
16.0819338255367
 21
4.424818669845129
 31
0.0
  0
LINE
  5
A9B2D
  8
0
  6
CONTINUOUS
 10
16.63283254238972
 20
4.975717386698149
 30
0.0
 11
17.60749913536461
 21
5.950383979673033
 31
0.0
  0
LINE
  5
A9B2E
  8
0
  6
CONTINUOUS
 10
13.66663434263929
 20
1.335999977867529
 30
0.0
 11
15.67604797733754
 21
3.345413612565779
 31
0.0
  0
LINE
  5
A9B2F
  8
0
  6
CONTINUOUS
 10
13.86621509341442
 20
0.8620615195624723
 30
0.0
 11
15.27016212913838
 21
2.26600855528643
 31
0.0
  0
LINE
  5
A9B30
  8
0
  6
CONTINUOUS
 10
16.81682257348267
 20
4.486188208710908
 30
0.0
 11
17.79152830642806
 21
5.460893941656299
 31
0.0
  0
LINE
  5
A9B31
  8
0
  6
CONTINUOUS
 10
17.00081260457561
 20
3.996659030723667
 30
0.0
 11
17.97555747749151
 21
4.971403903639565
 31
0.0
  0
LINE
  5
A9B32
  8
0
  6
CONTINUOUS
 10
20.74362343514722
 20
8.412989070375462
 30
0.0
 11
21.09373436476302
 21
8.763099999991256
 31
0.0
  0
LINE
  5
A9B33
  8
0
  6
CONTINUOUS
 10
20.25401257174777
 20
7.249858997895826
 30
0.0
 11
21.7672535738432
 21
8.763099999991255
 31
0.0
  0
LINE
  5
A9B34
  8
0
  6
CONTINUOUS
 10
14.06579584418955
 20
0.3881230612574149
 30
0.0
 11
14.86427628093921
 21
1.186603498007082
 31
0.0
  0
LINE
  5
A9B35
  8
0
  6
CONTINUOUS
 10
14.26537659496467
 20
-0.0858153970476412
 30
0.0
 11
14.45839043274005
 21
0.1071984407277329
 31
0.0
  0
LINE
  5
A9B36
  8
0
  6
CONTINUOUS
 10
17.18480263566856
 20
3.507129852736426
 30
0.0
 11
18.15958664855496
 21
4.481913865622833
 31
0.0
  0
LINE
  5
A9B37
  8
0
  6
CONTINUOUS
 10
17.3687926667615
 20
3.017600674749186
 30
0.0
 11
18.34361581961842
 21
3.9924238276061
 31
0.0
  0
LINE
  5
A9B38
  8
0
  6
CONTINUOUS
 10
19.76440170834832
 20
6.086728925416191
 30
0.0
 11
22.33924590259489
 21
8.661573119662755
 31
0.0
  0
LINE
  5
A9B39
  8
0
  6
CONTINUOUS
 10
19.27479084494887
 20
4.923598852936555
 30
0.0
 11
21.84929622842713
 21
7.498104236414807
 31
0.0
  0
LINE
  5
A9B3A
  8
0
  6
CONTINUOUS
 10
17.55278269785445
 20
2.528071496761945
 30
0.0
 11
18.52764499068187
 21
3.502933789589366
 31
0.0
  0
LINE
  5
A9B3B
  8
0
  6
CONTINUOUS
 10
18.78517998154942
 20
3.760468780456919
 30
0.0
 11
21.35934655425936
 21
6.33463535316686
 31
0.0
  0
LINE
  5
A9B3C
  8
0
  6
CONTINUOUS
 10
17.73677272894739
 20
2.038542318774704
 30
0.0
 11
20.8693968800916
 21
5.171166469918914
 31
0.0
  0
LINE
  5
A9B3D
  8
0
  6
CONTINUOUS
 10
17.92076276004034
 20
1.549013140787464
 30
0.0
 11
20.37944720592384
 21
4.007697586670968
 31
0.0
  0
LINE
  5
A9B3E
  8
0
  6
CONTINUOUS
 10
18.10475279113329
 20
1.059483962800223
 30
0.0
 11
19.88949753175608
 21
2.84422870342302
 31
0.0
  0
LINE
  5
A9B3F
  8
0
  6
CONTINUOUS
 10
18.28874282222623
 20
0.5699547848129822
 30
0.0
 11
19.39954785758832
 21
1.680759820175074
 31
0.0
  0
LINE
  5
A9B40
  8
0
  6
CONTINUOUS
 10
18.47273285331918
 20
0.0804256068257416
 30
0.0
 11
18.90959818342056
 21
0.517290936927127
 31
0.0
  0
LINE
  5
A9B41
  8
0
  6
CONTINUOUS
 10
14.3590401358224
 20
-0.1570118376323384
 30
0.0
 11
14.24903296539946
 21
-0.0470046672093929
 31
0.0
  0
LINE
  5
A9B42
  8
0
  6
CONTINUOUS
 10
14.54309291258661
 20
0.332454594683643
 30
0.0
 11
13.75908329123172
 21
1.116464216038529
 31
0.0
  0
LINE
  5
A9B43
  8
0
  6
CONTINUOUS
 10
14.72714568935081
 20
0.8219210269996244
 30
0.0
 11
13.26913361706399
 21
2.27993309928645
 31
0.0
  0
LINE
  5
A9B44
  8
0
  6
CONTINUOUS
 10
14.91119846611502
 20
1.311387459315606
 30
0.0
 11
12.77918394289625
 21
3.443401982534371
 31
0.0
  0
LINE
  5
A9B45
  8
0
  6
CONTINUOUS
 10
15.09525124287922
 20
1.800853891631587
 30
0.0
 11
12.28923426872852
 21
4.606870865782293
 31
0.0
  0
LINE
  5
A9B46
  8
0
  6
CONTINUOUS
 10
15.27930401964343
 20
2.290320323947569
 30
0.0
 11
11.79928459456078
 21
5.770339749030213
 31
0.0
  0
LINE
  5
A9B47
  8
0
  6
CONTINUOUS
 10
15.46335679640763
 20
2.77978675626355
 30
0.0
 11
14.48885470994921
 21
3.754288842721972
 31
0.0
  0
LINE
  5
A9B48
  8
0
  6
CONTINUOUS
 10
13.88507249233704
 20
4.358071060334137
 30
0.0
 11
11.30933492039305
 21
6.933808632278135
 31
0.0
  0
LINE
  5
A9B49
  8
0
  6
CONTINUOUS
 10
18.75840522805855
 20
0.1582575336928151
 30
0.0
 11
18.25383727664818
 21
0.6628254851031863
 31
0.0
  0
LINE
  5
A9B4A
  8
0
  6
CONTINUOUS
 10
15.64740957317184
 20
3.269253188579531
 30
0.0
 11
14.67288388101266
 21
4.243778880738705
 31
0.0
  0
LINE
  5
A9B4B
  8
0
  6
CONTINUOUS
 10
13.39509276772158
 20
5.521569994029786
 30
0.0
 11
10.81938524622531
 21
8.097277515526056
 31
0.0
  0
LINE
  5
A9B4C
  8
0
  6
CONTINUOUS
 10
18.95798597883369
 20
0.6321959919978686
 30
0.0
 11
17.84825644852853
 21
1.741925522303024
 31
0.0
  0
LINE
  5
A9B4D
  8
0
  6
CONTINUOUS
 10
19.15756672960882
 20
1.106134450302922
 30
0.0
 11
17.44267562040888
 21
2.821025559502861
 31
0.0
  0
LINE
  5
A9B4E
  8
0
  6
CONTINUOUS
 10
15.83146234993604
 20
3.758719620895513
 30
0.0
 11
14.85691305207612
 21
4.733268918755439
 31
0.0
  0
LINE
  5
A9B4F
  8
0
  6
CONTINUOUS
 10
16.01551512670025
 20
4.248186053211494
 30
0.0
 11
15.04094222313957
 21
5.222758956772172
 31
0.0
  0
LINE
  5
A9B50
  8
0
  6
CONTINUOUS
 10
12.90511304310612
 20
6.685068927725435
 30
0.0
 11
10.8270819708403
 21
8.763099999991255
 31
0.0
  0
LINE
  5
A9B51
  8
0
  6
CONTINUOUS
 10
12.41513331849066
 20
7.848567861421083
 30
0.0
 11
11.50060117992049
 21
8.763099999991255
 31
0.0
  0
LINE
  5
A9B52
  8
0
  6
CONTINUOUS
 10
19.35714748038395
 20
1.580072908607975
 30
0.0
 11
17.03709479228923
 21
3.900125596702697
 31
0.0
  0
LINE
  5
A9B53
  8
0
  6
CONTINUOUS
 10
19.55672823115909
 20
2.054011366913028
 30
0.0
 11
16.63151396416958
 21
4.979225633902534
 31
0.0
  0
LINE
  5
A9B54
  8
0
  6
CONTINUOUS
 10
16.19956790346445
 20
4.737652485527476
 30
0.0
 11
15.22497139420302
 21
5.712248994788904
 31
0.0
  0
LINE
  5
A9B55
  8
0
  6
CONTINUOUS
 10
16.38362068022866
 20
5.227118917843457
 30
0.0
 11
15.40900056526648
 21
6.201739032805637
 31
0.0
  0
LINE
  5
A9B56
  8
0
  6
CONTINUOUS
 10
19.75630898193422
 20
2.527949825218081
 30
0.0
 11
18.70774536448286
 21
3.576513442669441
 31
0.0
  0
LINE
  5
A9B57
  8
0
  6
CONTINUOUS
 10
19.95588973270936
 20
3.001888283523134
 30
0.0
 11
18.90726987211446
 21
4.050508144118028
 31
0.0
  0
LINE
  5
A9B58
  8
0
  6
CONTINUOUS
 10
20.15547048348449
 20
3.475826741828186
 30
0.0
 11
19.10679437974606
 21
4.524502845566614
 31
0.0
  0
LINE
  5
A9B59
  8
0
  6
CONTINUOUS
 10
20.35505123425962
 20
3.94976520013324
 30
0.0
 11
19.30631888737766
 21
4.998497547015201
 31
0.0
  0
LINE
  5
A9B5A
  8
0
  6
CONTINUOUS
 10
20.55463198503475
 20
4.423703658438292
 30
0.0
 11
19.50584339500926
 21
5.472492248463787
 31
0.0
  0
LINE
  5
A9B5B
  8
0
  6
CONTINUOUS
 10
18.37481191085755
 20
3.909446896294752
 30
0.0
 11
15.59302973632993
 21
6.691229070822371
 31
0.0
  0
LINE
  5
A9B5C
  8
0
  6
CONTINUOUS
 10
17.96904084440766
 20
4.988737171824825
 30
0.0
 11
15.77705890739338
 21
7.180719108839104
 31
0.0
  0
LINE
  5
A9B5D
  8
0
  6
CONTINUOUS
 10
17.56326977795777
 20
6.068027447354899
 30
0.0
 11
15.96108807845684
 21
7.670209146855838
 31
0.0
  0
LINE
  5
A9B5E
  8
0
  6
CONTINUOUS
 10
17.15749871150789
 20
7.147317722884972
 30
0.0
 11
16.14511724952029
 21
8.15969918487257
 31
0.0
  0
LINE
  5
A9B5F
  8
0
  6
CONTINUOUS
 10
16.751727645058
 20
8.226607998415046
 30
0.0
 11
16.32914642058374
 21
8.649189222889303
 31
0.0
  0
LINE
  5
A9B60
  8
0
  6
CONTINUOUS
 10
20.75421273580989
 20
4.897642116743345
 30
0.0
 11
19.70536790264086
 21
5.946486949912374
 31
0.0
  0
LINE
  5
A9B61
  8
0
  6
CONTINUOUS
 10
20.95379348658502
 20
5.371580575048398
 30
0.0
 11
19.90489241027246
 21
6.42048165136096
 31
0.0
  0
LINE
  5
A9B62
  8
0
  6
CONTINUOUS
 10
21.15337423736015
 20
5.845519033353452
 30
0.0
 11
20.10441691790406
 21
6.894476352809547
 31
0.0
  0
LINE
  5
A9B63
  8
0
  6
CONTINUOUS
 10
21.35295498813529
 20
6.319457491658505
 30
0.0
 11
20.30394142553566
 21
7.368471054258134
 31
0.0
  0
LINE
  5
A9B64
  8
0
  6
CONTINUOUS
 10
21.55253573891042
 20
6.793395949963558
 30
0.0
 11
20.50346593316726
 21
7.842465755706721
 31
0.0
  0
LINE
  5
A9B65
  8
0
  6
CONTINUOUS
 10
21.75211648968556
 20
7.267334408268612
 30
0.0
 11
20.70299044079886
 21
8.316460457155308
 31
0.0
  0
LINE
  5
A9B66
  8
0
  6
CONTINUOUS
 10
21.95169724046069
 20
7.741272866573663
 30
0.0
 11
20.9298701070431
 21
8.763099999991256
 31
0.0
  0
LINE
  5
A9B67
  8
0
  6
CONTINUOUS
 10
22.15127799123582
 20
8.215211324878716
 30
0.0
 11
21.60338931612328
 21
8.763099999991256
 31
0.0
  0
LINE
  5
A9B68
  8
0
  6
CONTINUOUS
 10
22.35085874201096
 20
8.689149783183769
 30
0.0
 11
22.27690852520347
 21
8.763099999991255
 31
0.0
  0
ENDBLK
  5
A9C5D
  8
0
  0
BLOCK
  8
0
  2
*X210
 70
     1
 10
0.0
 20
0.0
 30
0.0
  3
*X210
  1

  0
LINE
  5
A9B6A
  8
0
  6
CONTINUOUS
 10
23.19462913593892
 20
8.169917934846424
 30
0.0
 11
23.70775465517246
 21
8.683043454079957
 31
0.0
  0
LINE
  5
A9B6B
  8
0
  6
CONTINUOUS
 10
22.64923161835078
 20
6.951001208178088
 30
0.0
 11
23.9159364069932
 21
8.217705996820516
 31
0.0
  0
LINE
  5
A9B6C
  8
0
  6
CONTINUOUS
 10
22.10383410076263
 20
5.732084481509751
 30
0.0
 11
24.12411815881395
 21
7.752368539561078
 31
0.0
  0
LINE
  5
A9B6D
  8
0
  6
CONTINUOUS
 10
21.55843658317447
 20
4.513167754841414
 30
0.0
 11
24.3322999106347
 21
7.287031082301639
 31
0.0
  0
LINE
  5
A9B6E
  8
0
  6
CONTINUOUS
 10
21.01303906558632
 20
3.294251028173077
 30
0.0
 11
24.54048166245544
 21
6.821693625042199
 31
0.0
  0
LINE
  5
A9B6F
  8
0
  6
CONTINUOUS
 10
20.46764154799817
 20
2.075334301504738
 30
0.0
 11
23.28571549467848
 21
4.89340824818505
 31
0.0
  0
LINE
  5
A9B70
  8
0
  6
CONTINUOUS
 10
19.92224403041002
 20
0.8564175748364002
 30
0.0
 11
22.74075865492779
 21
3.674932199354171
 31
0.0
  0
LINE
  5
A9B71
  8
0
  6
CONTINUOUS
 10
23.67305085490148
 20
5.280743608408048
 30
0.0
 11
24.74866341427619
 21
6.356356167782759
 31
0.0
  0
LINE
  5
A9B72
  8
0
  6
CONTINUOUS
 10
23.88118970842314
 20
4.815363252849522
 30
0.0
 11
24.95684516609694
 21
5.89101871052332
 31
0.0
  0
LINE
  5
A9B73
  8
0
  6
CONTINUOUS
 10
19.73925852647308
 20
-0.0000871381807288
 30
0.0
 11
23.4103456646501
 21
3.670999999996297
 31
0.0
  0
LINE
  5
A9B74
  8
0
  6
CONTINUOUS
 10
24.0893285619448
 20
4.349982897290997
 30
0.0
 11
25.16502691791769
 21
5.42568125326388
 31
0.0
  0
LINE
  5
A9B75
  8
0
  6
CONTINUOUS
 10
20.41282099582748
 20
-0.0000438779065108
 30
0.0
 11
21.64944178675636
 21
1.236576913022366
 31
0.0
  0
LINE
  5
A9B76
  8
0
  6
CONTINUOUS
 10
22.78126487373161
 20
2.36839999999762
 30
0.0
 11
24.08386487373029
 21
3.670999999996297
 31
0.0
  0
LINE
  5
A9B77
  8
0
  6
CONTINUOUS
 10
24.29746741546646
 20
3.884602541732471
 30
0.0
 11
25.37320866973843
 21
4.960343796004441
 31
0.0
  0
LINE
  5
A9B78
  8
0
  6
CONTINUOUS
 10
21.08638346518189
 20
-0.0000006176322938
 30
0.0
 11
21.10379033335899
 21
0.0174062505448083
 31
0.0
  0
LINE
  5
A9B79
  8
0
  6
CONTINUOUS
 10
23.4547840828118
 20
2.36839999999762
 30
0.0
 11
25.58139042155918
 21
4.495006338745002
 31
0.0
  0
LINE
  5
A9B7A
  8
0
  6
CONTINUOUS
 10
29.30199999996933
 20
8.215615917155148
 30
0.0
 11
29.84948408280543
 21
8.763099999991255
 31
0.0
  0
LINE
  5
A9B7B
  8
0
  6
CONTINUOUS
 10
24.12830329189199
 20
2.36839999999762
 30
0.0
 11
25.78957217337993
 21
4.029668881485562
 31
0.0
  0
LINE
  5
A9B7C
  8
0
  6
CONTINUOUS
 10
29.30199999996933
 20
7.54209670807496
 30
0.0
 11
30.52300329188562
 21
8.763099999991255
 31
0.0
  0
LINE
  5
A9B7D
  8
0
  6
CONTINUOUS
 10
24.80182250097217
 20
2.36839999999762
 30
0.0
 11
25.99775392520067
 21
3.564331424226122
 31
0.0
  0
LINE
  5
A9B7E
  8
0
  6
CONTINUOUS
 10
29.30199999996933
 20
6.868577498994774
 30
0.0
 11
30.74199999996926
 21
8.308577498994712
 31
0.0
  0
LINE
  5
A9B7F
  8
0
  6
CONTINUOUS
 10
25.13028238392013
 20
2.023340673865392
 30
0.0
 11
26.20593567702142
 21
3.098993966966683
 31
0.0
  0
LINE
  5
A9B80
  8
0
  6
CONTINUOUS
 10
25.33838066033617
 20
1.557919741201244
 30
0.0
 11
26.41411742884217
 21
2.633656509707244
 31
0.0
  0
LINE
  5
A9B81
  8
0
  6
CONTINUOUS
 10
25.54647893675221
 20
1.092498808537098
 30
0.0
 11
26.62229918066291
 21
2.168319052447804
 31
0.0
  0
LINE
  5
A9B82
  8
0
  6
CONTINUOUS
 10
25.75457721316825
 20
0.62707787587295
 30
0.0
 11
26.83048093248366
 21
1.702981595188365
 31
0.0
  0
LINE
  5
A9B83
  8
0
  6
CONTINUOUS
 10
29.30199999996933
 20
6.195058289914587
 30
0.0
 11
30.74199999996926
 21
7.635058289914522
 31
0.0
  0
LINE
  5
A9B84
  8
0
  6
CONTINUOUS
 10
29.30199999996933
 20
5.521539080834401
 30
0.0
 11
30.74199999996926
 21
6.961539080834331
 31
0.0
  0
LINE
  5
A9B85
  8
0
  6
CONTINUOUS
 10
29.30199999996933
 20
4.848019871754214
 30
0.0
 11
30.74199999996925
 21
6.288019871754143
 31
0.0
  0
LINE
  5
A9B86
  8
0
  6
CONTINUOUS
 10
29.30199999996933
 20
4.174500662674028
 30
0.0
 11
30.74199999996925
 21
5.614500662673953
 31
0.0
  0
LINE
  5
A9B87
  8
0
  6
CONTINUOUS
 10
25.96267548958429
 20
0.1616569432088024
 30
0.0
 11
27.18411854636669
 21
1.383099999991207
 31
0.0
  0
LINE
  5
A9B88
  8
0
  6
CONTINUOUS
 10
29.30199999996933
 20
3.500981453593841
 30
0.0
 11
30.74199999996925
 21
4.940981453593762
 31
0.0
  0
LINE
  5
A9B89
  8
0
  6
CONTINUOUS
 10
26.50763775544691
 20
0.0330999999912356
 30
0.0
 11
27.85763775544689
 21
1.383099999991223
 31
0.0
  0
LINE
  5
A9B8A
  8
0
  6
CONTINUOUS
 10
29.30199999996933
 20
2.827462244513656
 30
0.0
 11
30.74199999996925
 21
4.267462244513574
 31
0.0
  0
LINE
  5
A9B8B
  8
0
  6
CONTINUOUS
 10
27.18115696452709
 20
0.0330999999912356
 30
0.0
 11
28.55073879889363
 21
1.402681834357775
 31
0.0
  0
LINE
  5
A9B8C
  8
0
  6
CONTINUOUS
 10
29.28241816560272
 20
2.134361201066866
 30
0.0
 11
30.74199999996924
 21
3.593943035433383
 31
0.0
  0
LINE
  5
A9B8D
  8
0
  6
CONTINUOUS
 10
27.85467617360728
 20
0.0330999999912356
 30
0.0
 11
30.74199999996924
 21
2.920423826353195
 31
0.0
  0
LINE
  5
A9B8E
  8
0
  6
CONTINUOUS
 10
28.53897559587887
 20
0.0438802131826428
 30
0.0
 11
30.73121978677781
 21
2.236124404081585
 31
0.0
  0
LINE
  5
A9B8F
  8
0
  6
CONTINUOUS
 10
29.45140055588722
 20
0.2827859641107988
 30
0.0
 11
30.49231403584965
 21
1.323699444073236
 31
0.0
  0
LINE
  5
A9B90
  8
0
  6
CONTINUOUS
 10
19.59027867740337
 20
-0.0000967065718083
 30
0.0
 11
19.55485265190471
 21
0.035329318926844
 31
0.0
  0
LINE
  5
A9B91
  8
0
  6
CONTINUOUS
 10
20.26375463176586
 20
-0.0000534518541091
 30
0.0
 11
19.76305575737534
 21
0.5006454225364014
 31
0.0
  0
LINE
  5
A9B92
  8
0
  6
CONTINUOUS
 10
20.93723058612834
 20
-0.0000101971364099
 30
0.0
 11
19.97125886284597
 21
0.965961526145958
 31
0.0
  0
LINE
  5
A9B93
  8
0
  6
CONTINUOUS
 10
21.25514828313686
 20
0.355591314935257
 30
0.0
 11
20.1794619683166
 21
1.431277629755512
 31
0.0
  0
LINE
  5
A9B94
  8
0
  6
CONTINUOUS
 10
21.46338838394921
 20
0.8208704232030986
 30
0.0
 11
20.38766507378723
 21
1.896593733365069
 31
0.0
  0
LINE
  5
A9B95
  8
0
  6
CONTINUOUS
 10
21.67162848476155
 20
1.28614953147094
 30
0.0
 11
20.59586817925786
 21
2.361909836974626
 31
0.0
  0
LINE
  5
A9B96
  8
0
  6
CONTINUOUS
 10
21.8798685855739
 20
1.751428639738782
 30
0.0
 11
20.80407128472849
 21
2.827225940584183
 31
0.0
  0
LINE
  5
A9B97
  8
0
  6
CONTINUOUS
 10
22.08810868638624
 20
2.216707748006623
 30
0.0
 11
21.01227439019912
 21
3.292542044193739
 31
0.0
  0
LINE
  5
A9B98
  8
0
  6
CONTINUOUS
 10
22.60993564347543
 20
2.36839999999762
 30
0.0
 11
21.22047749566975
 21
3.757858147803296
 31
0.0
  0
LINE
  5
A9B99
  8
0
  6
CONTINUOUS
 10
23.28345485255561
 20
2.36839999999762
 30
0.0
 11
21.42868060114038
 21
4.223174251412853
 31
0.0
  0
LINE
  5
A9B9A
  8
0
  6
CONTINUOUS
 10
26.29227406164219
 20
0.0330999999912356
 30
0.0
 11
25.80009199592872
 21
0.5252820657046957
 31
0.0
  0
LINE
  5
A9B9B
  8
0
  6
CONTINUOUS
 10
23.9569740616358
 20
2.36839999999762
 30
0.0
 11
21.63688370661101
 21
4.688490355022409
 31
0.0
  0
LINE
  5
A9B9C
  8
0
  6
CONTINUOUS
 10
26.96579327072237
 20
0.0330999999912356
 30
0.0
 11
25.2554132311971
 21
1.743480039516508
 31
0.0
  0
LINE
  5
A9B9D
  8
0
  6
CONTINUOUS
 10
24.63049327071599
 20
2.36839999999762
 30
0.0
 11
23.32789327071731
 21
3.670999999996297
 31
0.0
  0
LINE
  5
A9B9E
  8
0
  6
CONTINUOUS
 10
22.92098674744635
 20
4.077906523267254
 30
0.0
 11
21.84508681208164
 21
5.153806458631966
 31
0.0
  0
LINE
  5
A9B9F
  8
0
  6
CONTINUOUS
 10
27.63931247980256
 20
0.0330999999912356
 30
0.0
 11
24.0014124797975
 21
3.670999999996297
 31
0.0
  0
LINE
  5
A9BA0
  8
0
  6
CONTINUOUS
 10
23.129125600968
 20
4.5432868788258
 30
0.0
 11
22.05328991755227
 21
5.619122562241522
 31
0.0
  0
LINE
  5
A9BA1
  8
0
  6
CONTINUOUS
 10
28.31283168888275
 20
0.0330999999912356
 30
0.0
 11
24.16488385994816
 21
4.181047828925828
 31
0.0
  0
LINE
  5
A9BA2
  8
0
  6
CONTINUOUS
 10
23.33726445448964
 20
5.008667234384345
 30
0.0
 11
22.2614930230229
 21
6.084438665851079
 31
0.0
  0
LINE
  5
A9BA3
  8
0
  6
CONTINUOUS
 10
28.92085740005492
 20
0.0985934978992438
 30
0.0
 11
27.63635089796295
 21
1.383099999991217
 31
0.0
  0
LINE
  5
A9BA4
  8
0
  6
CONTINUOUS
 10
26.43704649509776
 20
2.582404402856405
 30
0.0
 11
23.61992702019732
 21
5.399523877756844
 31
0.0
  0
LINE
  5
A9BA5
  8
0
  6
CONTINUOUS
 10
23.54540330801128
 20
5.47404758994289
 30
0.0
 11
22.46969612849353
 21
6.549754769460635
 31
0.0
  0
LINE
  5
A9BA6
  8
0
  6
CONTINUOUS
 10
29.42225615078443
 20
0.2707139562499279
 30
0.0
 11
28.30987010704312
 21
1.383099999991234
 31
0.0
  0
LINE
  5
A9BA7
  8
0
  6
CONTINUOUS
 10
25.89179548232307
 20
3.801174624711282
 30
0.0
 11
22.67789923396416
 21
7.015070873070191
 31
0.0
  0
LINE
  5
A9BA8
  8
0
  6
CONTINUOUS
 10
29.83624534690007
 20
0.5302439692144705
 30
0.0
 11
28.85811781497101
 21
1.508371501143527
 31
0.0
  0
LINE
  5
A9BA9
  8
0
  6
CONTINUOUS
 10
25.34654446954838
 20
5.01994484656616
 30
0.0
 11
22.88610233943479
 21
7.480386976679748
 31
0.0
  0
LINE
  5
A9BAA
  8
0
  6
CONTINUOUS
 10
30.17865975401872
 20
0.8613487711760022
 30
0.0
 11
29.18888744090175
 21
1.851121084292977
 31
0.0
  0
LINE
  5
A9BAB
  8
0
  6
CONTINUOUS
 10
24.80129345677369
 20
6.238715068421037
 30
0.0
 11
23.09430544490542
 21
7.945703080289305
 31
0.0
  0
LINE
  5
A9BAC
  8
0
  6
CONTINUOUS
 10
30.45496647202376
 20
1.258561262251155
 30
0.0
 11
29.30199999996933
 21
2.411527734305588
 31
0.0
  0
LINE
  5
A9BAD
  8
0
  6
CONTINUOUS
 10
24.256042443999
 20
7.457485290275915
 30
0.0
 11
23.30250855037605
 21
8.411019183898862
 31
0.0
  0
LINE
  5
A9BAE
  8
0
  6
CONTINUOUS
 10
30.64868582078271
 20
1.738361122572387
 30
0.0
 11
29.30199999996933
 21
3.085046943385775
 31
0.0
  0
LINE
  5
A9BAF
  8
0
  6
CONTINUOUS
 10
23.71079143122431
 20
8.676255512130794
 30
0.0
 11
23.51071165584668
 21
8.876335287508416
 31
0.0
  0
LINE
  5
A9BB0
  8
0
  6
CONTINUOUS
 10
30.73802122914428
 20
2.322544923291007
 30
0.0
 11
29.30199999996933
 21
3.758566152465961
 31
0.0
  0
LINE
  5
A9BB1
  8
0
  6
CONTINUOUS
 10
30.74199999996924
 20
2.992085361546236
 30
0.0
 11
29.30199999996933
 21
4.432085361546148
 31
0.0
  0
LINE
  5
A9BB2
  8
0
  6
CONTINUOUS
 10
30.74199999996924
 20
3.665604570626419
 30
0.0
 11
29.30199999996933
 21
5.105604570626333
 31
0.0
  0
LINE
  5
A9BB3
  8
0
  6
CONTINUOUS
 10
30.74199999996925
 20
4.339123779706602
 30
0.0
 11
29.30199999996933
 21
5.77912377970652
 31
0.0
  0
LINE
  5
A9BB4
  8
0
  6
CONTINUOUS
 10
30.74199999996925
 20
5.012642988786785
 30
0.0
 11
29.30199999996933
 21
6.452642988786707
 31
0.0
  0
LINE
  5
A9BB5
  8
0
  6
CONTINUOUS
 10
30.74199999996925
 20
5.68616219786697
 30
0.0
 11
29.30199999996933
 21
7.126162197866894
 31
0.0
  0
LINE
  5
A9BB6
  8
0
  6
CONTINUOUS
 10
30.74199999996925
 20
6.359681406947153
 30
0.0
 11
29.30199999996933
 21
7.799681406947081
 31
0.0
  0
LINE
  5
A9BB7
  8
0
  6
CONTINUOUS
 10
30.74199999996926
 20
7.033200616027337
 30
0.0
 11
29.30199999996933
 21
8.473200616027269
 31
0.0
  0
LINE
  5
A9BB8
  8
0
  6
CONTINUOUS
 10
30.74199999996926
 20
7.706719825107518
 30
0.0
 11
29.68561982508552
 21
8.763099999991255
 31
0.0
  0
LINE
  5
A9BB9
  8
0
  6
CONTINUOUS
 10
30.74199999996926
 20
8.380239034187703
 30
0.0
 11
30.35913903416571
 21
8.763099999991255
 31
0.0
  0
ENDBLK
  5
A9C5F
  8
0
  0
BLOCK
  8
0
  2
*X211
 70
     1
 10
0.0
 20
0.0
 30
0.0
  3
*X211
  1

  0
LINE
  5
A9BBB
  8
0
  6
CONTINUOUS
 10
31.64199999996833
 20
8.535058289913598
 30
0.0
 11
31.87004171004599
 21
8.763099999991255
 31
0.0
  0
LINE
  5
A9BBC
  8
0
  6
CONTINUOUS
 10
31.64199999996833
 20
7.861539080833412
 30
0.0
 11
32.54356091912618
 21
8.763099999991255
 31
0.0
  0
LINE
  5
A9BBD
  8
0
  6
CONTINUOUS
 10
31.64199999996833
 20
7.188019871753226
 30
0.0
 11
33.08199999996839
 21
8.628019871753281
 31
0.0
  0
LINE
  5
A9BBE
  8
0
  6
CONTINUOUS
 10
31.64199999996833
 20
6.51450066267304
 30
0.0
 11
33.08199999996839
 21
7.954500662673095
 31
0.0
  0
LINE
  5
A9BBF
  8
0
  6
CONTINUOUS
 10
31.64199999996833
 20
5.840981453592853
 30
0.0
 11
33.08199999996839
 21
7.280981453592908
 31
0.0
  0
LINE
  5
A9BC0
  8
0
  6
CONTINUOUS
 10
31.64199999996833
 20
5.167462244512667
 30
0.0
 11
33.08199999996839
 21
6.607462244512721
 31
0.0
  0
LINE
  5
A9BC1
  8
0
  6
CONTINUOUS
 10
31.64199999996833
 20
4.493943035432481
 30
0.0
 11
33.08199999996839
 21
5.933943035432535
 31
0.0
  0
LINE
  5
A9BC2
  8
0
  6
CONTINUOUS
 10
31.64199999996833
 20
3.820423826352293
 30
0.0
 11
33.08199999996839
 21
5.260423826352348
 31
0.0
  0
LINE
  5
A9BC3
  8
0
  6
CONTINUOUS
 10
31.64199999996833
 20
3.146904617272106
 30
0.0
 11
33.08199999996839
 21
4.586904617272161
 31
0.0
  0
LINE
  5
A9BC4
  8
0
  6
CONTINUOUS
 10
36.23199999996837
 20
8.410423826352325
 30
0.0
 11
36.5846761736073
 21
8.763099999991255
 31
0.0
  0
LINE
  5
A9BC5
  8
0
  6
CONTINUOUS
 10
36.23199999996837
 20
7.73690461727214
 30
0.0
 11
37.25819538268748
 21
8.763099999991255
 31
0.0
  0
LINE
  5
A9BC6
  8
0
  6
CONTINUOUS
 10
31.64257403601376
 20
2.473959444237348
 30
0.0
 11
33.08199999996839
 21
3.913385408191974
 31
0.0
  0
LINE
  5
A9BC7
  8
0
  6
CONTINUOUS
 10
36.23199999996837
 20
7.063385408191953
 30
0.0
 11
37.67199999996831
 21
8.503385408191894
 31
0.0
  0
LINE
  5
A9BC8
  8
0
  6
CONTINUOUS
 10
31.72013636841932
 20
1.87800256756272
 30
0.0
 11
33.08199999996839
 21
3.239866199111788
 31
0.0
  0
LINE
  5
A9BC9
  8
0
  6
CONTINUOUS
 10
36.23199999996837
 20
6.389866199111767
 30
0.0
 11
37.67199999996831
 21
7.829866199111708
 31
0.0
  0
LINE
  5
A9BCA
  8
0
  6
CONTINUOUS
 10
31.89042734314753
 20
1.374774333210744
 30
0.0
 11
33.08199999996839
 21
2.566346990031601
 31
0.0
  0
LINE
  5
A9BCB
  8
0
  6
CONTINUOUS
 10
36.23199999996837
 20
5.71634699003158
 30
0.0
 11
37.67199999996831
 21
7.156346990031521
 31
0.0
  0
LINE
  5
A9BCC
  8
0
  6
CONTINUOUS
 10
32.14210568064475
 20
0.952933461627778
 30
0.0
 11
33.18745552475986
 21
1.998283305742888
 31
0.0
  0
LINE
  5
A9BCD
  8
0
  6
CONTINUOUS
 10
36.23199999996837
 20
5.042827780951393
 30
0.0
 11
37.67199999996831
 21
6.482827780951334
 31
0.0
  0
LINE
  5
A9BCE
  8
0
  6
CONTINUOUS
 10
32.45820639400955
 20
0.5955149659123915
 30
0.0
 11
33.47242681921943
 21
1.60973539112227
 31
0.0
  0
LINE
  5
A9BCF
  8
0
  6
CONTINUOUS
 10
36.23199999996837
 20
4.369308571871207
 30
0.0
 11
37.67199999996831
 21
5.809308571871147
 31
0.0
  0
LINE
  5
A9BD0
  8
0
  6
CONTINUOUS
 10
32.83432456621412
 20
0.2981139290367771
 30
0.0
 11
33.89722476612215
 21
1.361014128944803
 31
0.0
  0
LINE
  5
A9BD1
  8
0
  6
CONTINUOUS
 10
36.23199999996837
 20
3.69578936279102
 30
0.0
 11
37.67199999996831
 21
5.135789362790962
 31
0.0
  0
LINE
  5
A9BD2
  8
0
  6
CONTINUOUS
 10
33.2711633111245
 20
0.0614334648669672
 30
0.0
 11
34.43247338014423
 21
1.222743533886696
 31
0.0
  0
LINE
  5
A9BD3
  8
0
  6
CONTINUOUS
 10
36.23199999996837
 20
3.022270153710834
 30
0.0
 11
37.67199999996831
 21
4.462270153710775
 31
0.0
  0
LINE
  5
A9BD4
  8
0
  6
CONTINUOUS
 10
33.76515245874577
 20
-0.1180965965919523
 30
0.0
 11
35.1587445516215
 21
1.27549549628378
 31
0.0
  0
LINE
  5
A9BD5
  8
0
  6
CONTINUOUS
 10
36.21639478609585
 20
2.333145730758136
 30
0.0
 11
37.67199999996831
 21
3.788750944630588
 31
0.0
  0
LINE
  5
A9BD6
  8
0
  6
CONTINUOUS
 10
34.34060583368432
 20
-0.2161624307335863
 30
0.0
 11
37.67199999996831
 21
3.115231735550401
 31
0.0
  0
LINE
  5
A9BD7
  8
0
  6
CONTINUOUS
 10
35.01698193613905
 20
-0.2133055373590427
 30
0.0
 11
37.66876712070525
 21
2.438479647207154
 31
0.0
  0
LINE
  5
A9BD8
  8
0
  6
CONTINUOUS
 10
35.90743367693304
 20
0.0036269943547609
 30
0.0
 11
37.51723902192366
 21
1.613432339345381
 31
0.0
  0
LINE
  5
A9BD9
  8
0
  6
CONTINUOUS
 10
32.55309425579761
 20
0.5074718966376706
 30
0.0
 11
32.27784730925847
 21
0.7827188431768102
 31
0.0
  0
LINE
  5
A9BDA
  8
0
  6
CONTINUOUS
 10
33.87496468909684
 20
-0.1408793275813673
 30
0.0
 11
31.67993083278052
 21
2.054154528734943
 31
0.0
  0
LINE
  5
A9BDB
  8
0
  6
CONTINUOUS
 10
34.64362813207632
 20
-0.2360235614806649
 30
0.0
 11
31.64199999996833
 21
2.765604570627322
 31
0.0
  0
LINE
  5
A9BDC
  8
0
  6
CONTINUOUS
 10
35.25801106796118
 20
-0.1768872882853429
 30
0.0
 11
31.64199999996833
 21
3.439123779707508
 31
0.0
  0
LINE
  5
A9BDD
  8
0
  6
CONTINUOUS
 10
35.79065650332146
 20
-0.0360135145654361
 30
0.0
 11
34.54143210838231
 21
1.213210880373721
 31
0.0
  0
LINE
  5
A9BDE
  8
0
  6
CONTINUOUS
 10
33.08199999996839
 20
2.67264298878764
 30
0.0
 11
31.64199999996833
 21
4.112642988787695
 31
0.0
  0
LINE
  5
A9BDF
  8
0
  6
CONTINUOUS
 10
36.25975597779143
 20
0.1684062200447833
 30
0.0
 11
35.15395110240023
 21
1.274211095435983
 31
0.0
  0
LINE
  5
A9BE0
  8
0
  6
CONTINUOUS
 10
33.08199999996839
 20
3.346162197867826
 30
0.0
 11
31.64199999996833
 21
4.786162197867881
 31
0.0
  0
LINE
  5
A9BE1
  8
0
  6
CONTINUOUS
 10
36.67226329638774
 20
0.4294181105286579
 30
0.0
 11
35.63766478748767
 21
1.464016619428737
 31
0.0
  0
LINE
  5
A9BE2
  8
0
  6
CONTINUOUS
 10
33.08199999996839
 20
4.019681406948012
 30
0.0
 11
31.64199999996833
 21
5.459681406948068
 31
0.0
  0
LINE
  5
A9BE3
  8
0
  6
CONTINUOUS
 10
37.01677749710036
 20
0.7584231188962329
 30
0.0
 11
35.99563422741351
 21
1.779566388583076
 31
0.0
  0
LINE
  5
A9BE4
  8
0
  6
CONTINUOUS
 10
33.08199999996839
 20
4.693200616028199
 30
0.0
 11
31.64199999996833
 21
6.133200616028255
 31
0.0
  0
LINE
  5
A9BE5
  8
0
  6
CONTINUOUS
 10
37.29859977568887
 20
1.1501200493879
 30
0.0
 11
36.20680593341555
 21
2.241913891661226
 31
0.0
  0
LINE
  5
A9BE6
  8
0
  6
CONTINUOUS
 10
33.08199999996839
 20
5.366719825108386
 30
0.0
 11
31.64199999996833
 21
6.80671982510844
 31
0.0
  0
LINE
  5
A9BE7
  8
0
  6
CONTINUOUS
 10
37.5148623517228
 20
1.607376682434161
 30
0.0
 11
36.23199999996837
 21
2.890239034188594
 31
0.0
  0
LINE
  5
A9BE8
  8
0
  6
CONTINUOUS
 10
33.08199999996839
 20
6.040239034188573
 30
0.0
 11
31.64199999996833
 21
7.480239034188627
 31
0.0
  0
LINE
  5
A9BE9
  8
0
  6
CONTINUOUS
 10
37.64705163358367
 20
2.148706609653477
 30
0.0
 11
36.23199999996837
 21
3.56375824326878
 31
0.0
  0
LINE
  5
A9BEA
  8
0
  6
CONTINUOUS
 10
33.08199999996839
 20
6.713758243268758
 30
0.0
 11
31.64199999996833
 21
8.153758243268815
 31
0.0
  0
LINE
  5
A9BEB
  8
0
  6
CONTINUOUS
 10
37.67199999996831
 20
2.797277452349026
 30
0.0
 11
36.23199999996837
 21
4.237277452348967
 31
0.0
  0
LINE
  5
A9BEC
  8
0
  6
CONTINUOUS
 10
37.67199999996831
 20
3.470796661429213
 30
0.0
 11
36.23199999996837
 21
4.910796661429154
 31
0.0
  0
LINE
  5
A9BED
  8
0
  6
CONTINUOUS
 10
37.67199999996831
 20
4.144315870509399
 30
0.0
 11
36.23199999996837
 21
5.58431587050934
 31
0.0
  0
LINE
  5
A9BEE
  8
0
  6
CONTINUOUS
 10
33.08199999996839
 20
7.387277452348945
 30
0.0
 11
31.70617745232608
 21
8.763099999991255
 31
0.0
  0
LINE
  5
A9BEF
  8
0
  6
CONTINUOUS
 10
33.08199999996839
 20
8.060796661429132
 30
0.0
 11
32.37969666140626
 21
8.763099999991255
 31
0.0
  0
LINE
  5
A9BF0
  8
0
  6
CONTINUOUS
 10
33.08199999996839
 20
8.734315870509318
 30
0.0
 11
33.05321587048645
 21
8.763099999991255
 31
0.0
  0
LINE
  5
A9BF1
  8
0
  6
CONTINUOUS
 10
37.67199999996831
 20
4.817835079589585
 30
0.0
 11
36.23199999996837
 21
6.257835079589526
 31
0.0
  0
LINE
  5
A9BF2
  8
0
  6
CONTINUOUS
 10
37.67199999996831
 20
5.491354288669771
 30
0.0
 11
36.23199999996837
 21
6.931354288669713
 31
0.0
  0
LINE
  5
A9BF3
  8
0
  6
CONTINUOUS
 10
37.67199999996831
 20
6.164873497749958
 30
0.0
 11
36.23199999996837
 21
7.6048734977499
 31
0.0
  0
LINE
  5
A9BF4
  8
0
  6
CONTINUOUS
 10
37.67199999996831
 20
6.838392706830144
 30
0.0
 11
36.23199999996837
 21
8.278392706830086
 31
0.0
  0
LINE
  5
A9BF5
  8
0
  6
CONTINUOUS
 10
37.67199999996831
 20
7.511911915910332
 30
0.0
 11
36.42081191588738
 21
8.763099999991255
 31
0.0
  0
LINE
  5
A9BF6
  8
0
  6
CONTINUOUS
 10
37.67199999996831
 20
8.185431124990519
 30
0.0
 11
37.09433112496757
 21
8.763099999991255
 31
0.0
  0
ENDBLK
  5
A9C61
  8
0
  0
BLOCK
  8
0
  2
*X212
 70
     1
 10
0.0
 20
0.0
 30
0.0
  3
*X212
  1

  0
LINE
  5
A9BF8
  8
0
  6
CONTINUOUS
 10
38.60499999996136
 20
8.762866199104765
 30
0.0
 11
38.71672554182345
 21
8.874591740966855
 31
0.0
  0
LINE
  5
A9BF9
  8
0
  6
CONTINUOUS
 10
38.60499999996136
 20
8.089346990024577
 30
0.0
 11
39.03418785440363
 21
8.518534844466847
 31
0.0
  0
LINE
  5
A9BFA
  8
0
  6
CONTINUOUS
 10
38.60499999996136
 20
7.41582778094439
 30
0.0
 11
39.35165016698382
 21
8.16247794796684
 31
0.0
  0
LINE
  5
A9BFB
  8
0
  6
CONTINUOUS
 10
38.60499999996136
 20
6.742308571864204
 30
0.0
 11
39.66911247956399
 21
7.806421051466834
 31
0.0
  0
LINE
  5
A9BFC
  8
0
  6
CONTINUOUS
 10
38.60499999996136
 20
6.068789362784018
 30
0.0
 11
39.98657479214418
 21
7.450364154966827
 31
0.0
  0
LINE
  5
A9BFD
  8
0
  6
CONTINUOUS
 10
38.60499999996136
 20
5.395270153703832
 30
0.0
 11
40.30403710472435
 21
7.09430725846682
 31
0.0
  0
LINE
  5
A9BFE
  8
0
  6
CONTINUOUS
 10
38.60499999996136
 20
4.721750944623645
 30
0.0
 11
40.62149941730453
 21
6.738250361966813
 31
0.0
  0
LINE
  5
A9BFF
  8
0
  6
CONTINUOUS
 10
38.60499999996136
 20
4.048231735543458
 30
0.0
 11
40.93896172988471
 21
6.382193465466806
 31
0.0
  0
LINE
  5
A9C00
  8
0
  6
CONTINUOUS
 10
38.60499999996136
 20
3.374712526463272
 30
0.0
 11
40.02599999995994
 21
4.795712526461843
 31
0.0
  0
LINE
  5
A9C01
  8
0
  6
CONTINUOUS
 10
38.60499999996136
 20
2.701193317383085
 30
0.0
 11
40.02599999995994
 21
4.122193317381657
 31
0.0
  0
LINE
  5
A9C02
  8
0
  6
CONTINUOUS
 10
40.28339754687704
 20
5.053110073378947
 30
0.0
 11
41.25642404246489
 21
6.026136568966799
 31
0.0
  0
LINE
  5
A9C03
  8
0
  6
CONTINUOUS
 10
40.60085985945722
 20
4.697053176878939
 30
0.0
 11
41.57388635504507
 21
5.670079672466793
 31
0.0
  0
LINE
  5
A9C04
  8
0
  6
CONTINUOUS
 10
43.57899999995641
 20
8.348712526458318
 30
0.0
 11
43.99338747348935
 21
8.763099999991255
 31
0.0
  0
LINE
  5
A9C05
  8
0
  6
CONTINUOUS
 10
43.57899999995641
 20
7.675193317378131
 30
0.0
 11
44.66690668256953
 21
8.763099999991255
 31
0.0
  0
LINE
  5
A9C06
  8
0
  6
CONTINUOUS
 10
38.60499999996136
 20
2.027674108302898
 30
0.0
 11
40.02599999995994
 21
3.44867410830147
 31
0.0
  0
LINE
  5
A9C07
  8
0
  6
CONTINUOUS
 10
38.60499999996136
 20
1.354154899222712
 30
0.0
 11
40.02599999995994
 21
2.775154899221284
 31
0.0
  0
LINE
  5
A9C08
  8
0
  6
CONTINUOUS
 10
38.60499999996136
 20
0.6806356901425255
 30
0.0
 11
40.02599999995994
 21
2.101635690141098
 31
0.0
  0
LINE
  5
A9C09
  8
0
  6
CONTINUOUS
 10
38.60499999996136
 20
0.0071164810623383
 30
0.0
 11
40.02599999995994
 21
1.428116481060911
 31
0.0
  0
LINE
  5
A9C0A
  8
0
  6
CONTINUOUS
 10
40.9183221720374
 20
4.340996280378933
 30
0.0
 11
41.89134866762525
 21
5.314022775966786
 31
0.0
  0
LINE
  5
A9C0B
  8
0
  6
CONTINUOUS
 10
41.23578448461758
 20
3.984939383878926
 30
0.0
 11
42.20881098020543
 21
4.957965879466778
 31
0.0
  0
LINE
  5
A9C0C
  8
0
  6
CONTINUOUS
 10
41.55324679719776
 20
3.628882487378919
 30
0.0
 11
42.52627329278561
 21
4.601908982966772
 31
0.0
  0
LINE
  5
A9C0D
  8
0
  6
CONTINUOUS
 10
41.87070910977793
 20
3.272825590878912
 30
0.0
 11
42.84373560536579
 21
4.245852086466765
 31
0.0
  0
LINE
  5
A9C0E
  8
0
  6
CONTINUOUS
 10
43.57899999995641
 20
7.001674108297943
 30
0.0
 11
44.99999999995498
 21
8.422674108296516
 31
0.0
  0
LINE
  5
A9C0F
  8
0
  6
CONTINUOUS
 10
43.57899999995641
 20
6.328154899217758
 30
0.0
 11
44.99999999995498
 21
7.749154899216329
 31
0.0
  0
LINE
  5
A9C10
  8
0
  6
CONTINUOUS
 10
43.57899999995641
 20
5.654635690137571
 30
0.0
 11
44.99999999995498
 21
7.075635690136142
 31
0.0
  0
LINE
  5
A9C11
  8
0
  6
CONTINUOUS
 10
43.57899999995641
 20
4.981116481057384
 30
0.0
 11
44.99999999995498
 21
6.402116481055955
 31
0.0
  0
LINE
  5
A9C12
  8
0
  6
CONTINUOUS
 10
39.27140272797921
 20
-0.0000000000000009
 30
0.0
 11
40.02599999995994
 21
0.7545972719807246
 31
0.0
  0
LINE
  5
A9C13
  8
0
  6
CONTINUOUS
 10
39.9449219370594
 20
-0.0000000000000009
 30
0.0
 11
40.02599999995994
 21
0.0810780629005379
 31
0.0
  0
LINE
  5
A9C14
  8
0
  6
CONTINUOUS
 10
42.18817142235812
 20
2.916768694378905
 30
0.0
 11
43.16119791794597
 21
3.889795189966758
 31
0.0
  0
LINE
  5
A9C15
  8
0
  6
CONTINUOUS
 10
42.50563373493829
 20
2.560711797878898
 30
0.0
 11
43.47866023052615
 21
3.533738293466751
 31
0.0
  0
LINE
  5
A9C16
  8
0
  6
CONTINUOUS
 10
43.57899999995641
 20
4.307597271977198
 30
0.0
 11
44.99999999995498
 21
5.728597271975769
 31
0.0
  0
LINE
  5
A9C17
  8
0
  6
CONTINUOUS
 10
43.57899999995641
 20
3.634078062897011
 30
0.0
 11
44.99999999995498
 21
5.055078062895582
 31
0.0
  0
LINE
  5
A9C18
  8
0
  6
CONTINUOUS
 10
42.82309604751848
 20
2.204654901378891
 30
0.0
 11
44.99999999995498
 21
4.381558853815395
 31
0.0
  0
LINE
  5
A9C19
  8
0
  6
CONTINUOUS
 10
43.14055836009865
 20
1.848598004878885
 30
0.0
 11
44.99999999995498
 21
3.70803964473521
 31
0.0
  0
LINE
  5
A9C1A
  8
0
  6
CONTINUOUS
 10
43.45802067267883
 20
1.492541108378878
 30
0.0
 11
44.99999999995498
 21
3.034520435655023
 31
0.0
  0
LINE
  5
A9C1B
  8
0
  6
CONTINUOUS
 10
43.77548298525902
 20
1.136484211878871
 30
0.0
 11
44.99999999995498
 21
2.361001226574837
 31
0.0
  0
LINE
  5
A9C1C
  8
0
  6
CONTINUOUS
 10
44.09294529783919
 20
0.7804273153788639
 30
0.0
 11
44.99999999995498
 21
1.687482017494649
 31
0.0
  0
LINE
  5
A9C1D
  8
0
  6
CONTINUOUS
 10
44.41040761041938
 20
0.4243704188788566
 30
0.0
 11
44.99999999995498
 21
1.013962808414463
 31
0.0
  0
LINE
  5
A9C1E
  8
0
  6
CONTINUOUS
 10
44.72786992299955
 20
0.0683135223788494
 30
0.0
 11
44.99999999995498
 21
0.340443599334276
 31
0.0
  0
LINE
  5
A9C1F
  8
0
  6
CONTINUOUS
 10
39.12223903415696
 20
-0.0000000000000009
 30
0.0
 11
38.60499999996136
 21
0.5172390341955961
 31
0.0
  0
LINE
  5
A9C20
  8
0
  6
CONTINUOUS
 10
39.79575824323715
 20
-0.0000000000000009
 30
0.0
 11
38.60499999996136
 21
1.190758243275783
 31
0.0
  0
LINE
  5
A9C21
  8
0
  6
CONTINUOUS
 10
40.02599999995994
 20
0.443277452357397
 30
0.0
 11
38.60499999996136
 21
1.864277452355969
 31
0.0
  0
LINE
  5
A9C22
  8
0
  6
CONTINUOUS
 10
40.02599999995994
 20
1.116796661437583
 30
0.0
 11
38.60499999996136
 21
2.537796661436155
 31
0.0
  0
LINE
  5
A9C23
  8
0
  6
CONTINUOUS
 10
40.02599999995994
 20
1.79031587051777
 30
0.0
 11
38.60499999996136
 21
3.211315870516341
 31
0.0
  0
LINE
  5
A9C24
  8
0
  6
CONTINUOUS
 10
40.02599999995994
 20
2.463835079597956
 30
0.0
 11
38.60499999996136
 21
3.884835079596527
 31
0.0
  0
LINE
  5
A9C25
  8
0
  6
CONTINUOUS
 10
40.02599999995994
 20
3.137354288678143
 30
0.0
 11
38.60499999996136
 21
4.558354288676714
 31
0.0
  0
LINE
  5
A9C26
  8
0
  6
CONTINUOUS
 10
40.02599999995994
 20
3.810873497758329
 30
0.0
 11
38.60499999996136
 21
5.2318734977569
 31
0.0
  0
LINE
  5
A9C27
  8
0
  6
CONTINUOUS
 10
40.02599999995994
 20
4.484392706838515
 30
0.0
 11
38.60499999996136
 21
5.905392706837086
 31
0.0
  0
LINE
  5
A9C28
  8
0
  6
CONTINUOUS
 10
44.99999999995498
 20
0.183911915923658
 30
0.0
 11
41.53858364506288
 21
3.64532827081576
 31
0.0
  0
LINE
  5
A9C29
  8
0
  6
CONTINUOUS
 10
40.02599999995994
 20
5.157911915918703
 30
0.0
 11
38.60499999996136
 21
6.578911915917274
 31
0.0
  0
LINE
  5
A9C2A
  8
0
  6
CONTINUOUS
 10
44.99999999995498
 20
0.8574311250038447
 30
0.0
 11
38.60499999996136
 21
7.25243112499746
 31
0.0
  0
LINE
  5
A9C2B
  8
0
  6
CONTINUOUS
 10
44.99999999995498
 20
1.530950334084031
 30
0.0
 11
38.60499999996136
 21
7.925950334077647
 31
0.0
  0
LINE
  5
A9C2C
  8
0
  6
CONTINUOUS
 10
44.99999999995498
 20
2.204469543164218
 30
0.0
 11
43.57899999995641
 21
3.625469543162789
 31
0.0
  0
LINE
  5
A9C2D
  8
0
  6
CONTINUOUS
 10
41.89876730984767
 20
5.305702233271528
 30
0.0
 11
38.60499999996136
 21
8.599469543157834
 31
0.0
  0
LINE
  5
A9C2E
  8
0
  6
CONTINUOUS
 10
44.99999999995498
 20
2.877988752244405
 30
0.0
 11
43.57899999995641
 21
4.298988752242975
 31
0.0
  0
LINE
  5
A9C2F
  8
0
  6
CONTINUOUS
 10
44.99999999995498
 20
3.551507961324591
 30
0.0
 11
43.57899999995641
 21
4.972507961323163
 31
0.0
  0
LINE
  5
A9C30
  8
0
  6
CONTINUOUS
 10
44.99999999995498
 20
4.225027170404777
 30
0.0
 11
43.57899999995641
 21
5.646027170403348
 31
0.0
  0
LINE
  5
A9C31
  8
0
  6
CONTINUOUS
 10
44.99999999995498
 20
4.898546379484964
 30
0.0
 11
43.57899999995641
 21
6.319546379483535
 31
0.0
  0
LINE
  5
A9C32
  8
0
  6
CONTINUOUS
 10
44.99999999995498
 20
5.572065588565151
 30
0.0
 11
43.57899999995641
 21
6.993065588563722
 31
0.0
  0
LINE
  5
A9C33
  8
0
  6
CONTINUOUS
 10
44.99999999995498
 20
6.245584797645336
 30
0.0
 11
43.57899999995641
 21
7.666584797643908
 31
0.0
  0
LINE
  5
A9C34
  8
0
  6
CONTINUOUS
 10
44.99999999995498
 20
6.919104006725522
 30
0.0
 11
43.57899999995641
 21
8.340104006724093
 31
0.0
  0
LINE
  5
A9C35
  8
0
  6
CONTINUOUS
 10
44.99999999995498
 20
7.592623215805709
 30
0.0
 11
43.82952321576943
 21
8.763099999991255
 31
0.0
  0
LINE
  5
A9C36
  8
0
  6
CONTINUOUS
 10
44.99999999995498
 20
8.266142424885896
 30
0.0
 11
44.50304242484962
 21
8.763099999991255
 31
0.0
  0
ENDBLK
  5
A9C63
  8
0
  0
BLOCK
  8
0
  2
*X213
 70
     1
 10
0.0
 20
0.0
 30
0.0
  3
*X213
  1

  0
LINE
  5
A9C38
  8
0
  6
CONTINUOUS
 10
0.0
 20
8.548461116714023
 30
0.0
 11
0.2146388832772324
 21
8.763099999991255
 31
0.0
  0
LINE
  5
A9C39
  8
0
  6
CONTINUOUS
 10
-0.0000000000000002
 20
7.874941907633837
 30
0.0
 11
0.8881580923574184
 21
8.763099999991255
 31
0.0
  0
LINE
  5
A9C3A
  8
0
  6
CONTINUOUS
 10
0.0
 20
7.20142269855365
 30
0.0
 11
1.420999999998572
 21
8.622422698552223
 31
0.0
  0
LINE
  5
A9C3B
  8
0
  6
CONTINUOUS
 10
-0.0000000000000001
 20
6.527903489473465
 30
0.0
 11
1.420999999998571
 21
7.948903489472036
 31
0.0
  0
LINE
  5
A9C3C
  8
0
  6
CONTINUOUS
 10
-0.0000000000000002
 20
5.854384280393278
 30
0.0
 11
1.420999999998571
 21
7.275384280391849
 31
0.0
  0
LINE
  5
A9C3D
  8
0
  6
CONTINUOUS
 10
-0.0000000000000002
 20
5.180865071313091
 30
0.0
 11
1.420999999998571
 21
6.601865071311663
 31
0.0
  0
LINE
  5
A9C3E
  8
0
  6
CONTINUOUS
 10
0.0
 20
4.507345862232905
 30
0.0
 11
1.420999999998571
 21
5.928345862231477
 31
0.0
  0
LINE
  5
A9C3F
  8
0
  6
CONTINUOUS
 10
-0.0000000000000003
 20
3.833826653152718
 30
0.0
 11
1.420999999998571
 21
5.25482665315129
 31
0.0
  0
LINE
  5
A9C40
  8
0
  6
CONTINUOUS
 10
-0.0000000000000002
 20
3.160307444072532
 30
0.0
 11
1.420999999998571
 21
4.581307444071103
 31
0.0
  0
LINE
  5
A9C41
  8
0
  6
CONTINUOUS
 10
-0.0000000000000001
 20
2.486788234992345
 30
0.0
 11
1.420999999998571
 21
3.907788234990917
 31
0.0
  0
LINE
  5
A9C42
  8
0
  6
CONTINUOUS
 10
-0.0000000000000006
 20
1.813269025912159
 30
0.0
 11
1.420999999998571
 21
3.234269025910731
 31
0.0
  0
LINE
  5
A9C43
  8
0
  6
CONTINUOUS
 10
0.0
 20
1.139749816831973
 30
0.0
 11
1.420999999998571
 21
2.560749816830544
 31
0.0
  0
LINE
  5
A9C44
  8
0
  6
CONTINUOUS
 10
0.0000000000000002
 20
0.466230607751787
 30
0.0
 11
1.420999999998571
 21
1.887230607750358
 31
0.0
  0
LINE
  5
A9C45
  8
0
  6
CONTINUOUS
 10
0.2072886013284003
 20
-0.0000000000000009
 30
0.0
 11
1.420999999998571
 21
1.213711398670171
 31
0.0
  0
LINE
  5
A9C46
  8
0
  6
CONTINUOUS
 10
0.8808078104085864
 20
-0.0000000000000009
 30
0.0
 11
1.420999999998571
 21
0.5401921895899839
 31
0.0
  0
LINE
  5
A9C47
  8
0
  6
CONTINUOUS
 10
0.0581249075061505
 20
-0.0000000000000009
 30
0.0
 11
-0.0000000000000002
 21
0.0581249075061496
 31
0.0
  0
LINE
  5
A9C48
  8
0
  6
CONTINUOUS
 10
0.7316441165863372
 20
-0.0000000000000009
 30
0.0
 11
-0.0000000000000002
 21
0.7316441165863363
 31
0.0
  0
LINE
  5
A9C49
  8
0
  6
CONTINUOUS
 10
1.405163325666523
 20
-0.0000000000000009
 30
0.0
 11
-0.0000000000000002
 21
1.405163325666523
 31
0.0
  0
LINE
  5
A9C4A
  8
0
  6
CONTINUOUS
 10
1.420999999998572
 20
0.6576825347481381
 30
0.0
 11
-0.0000000000000001
 21
2.07868253474671
 31
0.0
  0
LINE
  5
A9C4B
  8
0
  6
CONTINUOUS
 10
1.420999999998571
 20
1.331201743828324
 30
0.0
 11
-0.0000000000000001
 21
2.752201743826896
 31
0.0
  0
LINE
  5
A9C4C
  8
0
  6
CONTINUOUS
 10
1.420999999998571
 20
2.004720952908511
 30
0.0
 11
-0.0000000000000002
 21
3.425720952907082
 31
0.0
  0
LINE
  5
A9C4D
  8
0
  6
CONTINUOUS
 10
1.420999999998571
 20
2.678240161988697
 30
0.0
 11
-0.0000000000000001
 21
4.099240161987269
 31
0.0
  0
LINE
  5
A9C4E
  8
0
  6
CONTINUOUS
 10
1.420999999998572
 20
3.351759371068884
 30
0.0
 11
0.0
 21
4.772759371067455
 31
0.0
  0
LINE
  5
A9C4F
  8
0
  6
CONTINUOUS
 10
1.420999999998571
 20
4.02527858014907
 30
0.0
 11
-0.0000000000000003
 21
5.446278580147642
 31
0.0
  0
LINE
  5
A9C50
  8
0
  6
CONTINUOUS
 10
1.420999999998571
 20
4.698797789229257
 30
0.0
 11
0.0
 21
6.119797789227828
 31
0.0
  0
LINE
  5
A9C51
  8
0
  6
CONTINUOUS
 10
1.420999999998571
 20
5.372316998309444
 30
0.0
 11
-0.0000000000000001
 21
6.793316998308015
 31
0.0
  0
LINE
  5
A9C52
  8
0
  6
CONTINUOUS
 10
1.420999999998572
 20
6.045836207389629
 30
0.0
 11
-0.0000000000000004
 21
7.466836207388202
 31
0.0
  0
LINE
  5
A9C53
  8
0
  6
CONTINUOUS
 10
1.420999999998571
 20
6.719355416469816
 30
0.0
 11
0.0
 21
8.140355416468388
 31
0.0
  0
LINE
  5
A9C54
  8
0
  6
CONTINUOUS
 10
1.420999999998571
 20
7.392874625550003
 30
0.0
 11
0.0507746255573185
 21
8.763099999991255
 31
0.0
  0
LINE
  5
A9C55
  8
0
  6
CONTINUOUS
 10
1.420999999998571
 20
8.06639383463019
 30
0.0
 11
0.7242938346375052
 21
8.763099999991255
 31
0.0
  0
LINE
  5
A9C56
  8
0
  6
CONTINUOUS
 10
1.420999999998571
 20
8.739913043710375
 30
0.0
 11
1.397813043717691
 21
8.763099999991255
 31
0.0
  0
ENDBLK
  5
A9C65
  8
0
  0
ENDSEC
  0
SECTION
  2
ENTITIES
  0
LINE
  5
A835F
  8
1CENTER
 10
374.1501844385311
 20
-942.6592765440491
 30
0.0
 11
374.1501844385311
 21
-1006.654461594115
 31
0.0
  0
LINE
  5
A8360
  8
01
 10
400.6501844385311
 20
-984.1066193535491
 30
0.0
 11
400.6501844385311
 21
-1000.156869069082
 31
0.0
  0
LINE
  5
A8361
  8
01
 10
347.6501844385311
 20
-949.156869069082
 30
0.0
 11
347.6501844385311
 21
-1000.156869069082
 31
0.0
  0
ARC
  5
A8362
  8
01
 10
348.6501844385311
 20
-1000.156869069082
 30
0.0
 40
1.0
 50
180.0
 51
270.0
  0
LINE
  5
A8363
  8
1CENTER
 10
404.7232240491103
 20
-974.656869069082
 30
0.0
 11
343.577144827952
 21
-974.656869069082
 31
0.0
  0
LINE
  5
A8364
  8
01
 10
399.6501844385311
 20
-948.156869069082
 30
0.0
 11
348.6501844385311
 21
-948.156869069082
 31
0.0
  0
ARC
  5
A8365
  8
01
 10
348.6501844385311
 20
-949.156869069082
 30
0.0
 40
1.0
 50
90.0
 51
180.0
  0
LINE
  5
A8366
  8
01
 10
399.6501844385311
 20
-1001.156869069082
 30
0.0
 11
348.6501844385311
 21
-1001.156869069082
 31
0.0
  0
ARC
  5
A8367
  8
01
 10
399.6501844385311
 20
-1000.156869069082
 30
0.0
 40
1.0
 50
270.0
 51
0.0
  0
LINE
  5
A8368
  8
01
 10
400.655149992348
 20
-858.4077145877254
 30
0.0
 11
400.655149992348
 21
-850.9077145877254
 31
0.0
  0
LINE
  5
A8369
  8
01
 10
347.655149992348
 20
-858.4077145877254
 30
0.0
 11
347.655149992348
 21
-850.9077145877254
 31
0.0
  0
LINE
  5
A836A
  8
01
 10
399.655149992348
 20
-859.4077145877254
 30
0.0
 11
348.655149992348
 21
-859.4077145877254
 31
0.0
  0
LINE
  5
A836B
  8
01
 10
400.655149992348
 20
-850.9077145877254
 30
0.0
 11
347.655149992348
 21
-850.9077145877254
 31
0.0
  0
ARC
  5
A836C
  8
01
 10
399.6551499922898
 20
-858.4077145877327
 30
0.0
 40
1.0
 50
270.0000000033351
 51
0.0000000004168817
  0
ARC
  5
A836D
  8
01
 10
348.6551499922898
 20
-858.4077145877327
 30
0.0
 40
1.0
 50
179.9999999995831
 51
270.0000000033351
  0
LINE
  5
A836E
  8
01
 10
219.7862763472694
 20
-948.1568690692857
 30
0.0
 11
212.2862763472694
 21
-948.1568690692857
 31
0.0
  0
LINE
  5
A836F
  8
01
 10
219.7862763472694
 20
-1001.156869069286
 30
0.0
 11
212.2862763472694
 21
-1001.156869069286
 31
0.0
  0
LINE
  5
A8370
  8
01
 10
220.7862763472694
 20
-949.1568690692857
 30
0.0
 11
220.7862763472694
 21
-1000.156869069286
 31
0.0
  0
LINE
  5
A8371
  8
01
 10
212.2862763472694
 20
-948.1568690692857
 30
0.0
 11
212.2862763472694
 21
-1001.156869069286
 31
0.0
  0
ARC
  5
A8372
  8
01
 10
219.7862763473859
 20
-949.1568690692566
 30
0.0
 40
1.0
 50
359.9999999983324
 51
90.0000000066701
  0
ARC
  5
A8373
  8
01
 10
219.7862763473277
 20
-1000.156869069308
 30
0.0
 40
1.0
 50
269.9999999966649
 51
0.000000001250645
  0
LINE
  5
A837D
  8
01
 10
400.6501844385311
 20
-949.156869069082
 30
0.0
 11
400.6501987102612
 21
-965.2961607897586
 31
0.0
  0
ARC
  5
A837E
  8
01
 10
399.6501844385311
 20
-949.156869069082
 30
0.0
 40
1.0
 50
0.0
 51
90.0
  0
LINE
  5
A844D
  8
1CENTER
 10
374.1501837942014
 20
-824.4425340756743
 30
9.499999990254992
 11
374.1501837942014
 21
-894.3728950997765
 31
9.499999990254992
  0
LINE
  5
A84AE
  8
1DIM
 10
214.2637196691194
 20
-974.6570267717238
 30
0.0
 11
227.3088330254195
 21
-974.6570267717238
 31
0.0
  0
LINE
  5
A84AF
  8
1DIM
 10
226.4803667129943
 20
-978.6515769939268
 30
0.0
 11
226.4803667129943
 21
-996.676605242567
 31
0.0
  0
LINE
  5
A84B0
  8
1DIM
 10
212.2862763472694
 20
-899.7127059336439
 30
0.0
 11
212.2862763472694
 21
-1049.601347609804
 31
0.0
  0
LINE
  5
A94C5
  8
01
 10
274.0850447766118
 20
-970.3230940041008
 30
-0.0000000000004547
 11
221.2850447766121
 21
-970.3230940041008
 31
-0.0000000000004547
  0
LINE
  5
A94C6
  8
01
 10
274.0850447766118
 20
-979.3230940041008
 30
-0.0000000000004547
 11
221.2850447766121
 21
-979.3230940041008
 31
-0.0000000000004547
  0
LINE
  5
A94C7
  8
01
 10
221.2850447766126
 20
-970.8230940041008
 30
-0.0000000000004547
 11
221.2850447766126
 21
-978.8230940041008
 31
-0.0000000000004547
  0
LINE
  5
A94C8
  8
01
 10
275.0850447766123
 20
-978.8230940041008
 30
-0.0000000000004547
 11
275.0850447766123
 21
-970.8230940041008
 31
-0.0000000000004547
  0
LINE
  5
A94C9
  8
01
 10
221.2850447766126
 20
-970.8230940041008
 30
-0.0000000000004547
 11
221.2850447766121
 21
-970.3230940041008
 31
-0.0000000000004547
  0
LINE
  5
A94CA
  8
01
 10
221.2850447766121
 20
-979.3230940041008
 30
-0.0000000000004547
 11
221.2850447766126
 21
-978.8230940041008
 31
-0.0000000000004547
  0
LINE
  5
A94CB
  8
01
 10
274.5850447766123
 20
-970.3230940041008
 30
-0.0000000000004547
 11
274.5851603199602
 21
-970.3230940041008
 31
-0.0000000000004547
  0
LINE
  5
A94CC
  8
01
 10
274.5851603199602
 20
-970.3230940041008
 30
-0.0000000000004547
 11
274.5851844286211
 21
-970.3230940041008
 31
-0.0000000000004547
  0
LINE
  5
A94CD
  8
01
 10
274.5851844286211
 20
-970.3230940041008
 30
-0.0000000000004547
 11
274.5851861997497
 21
-970.3230940041008
 31
-0.0000000000004547
  0
LINE
  5
A94CE
  8
01
 10
274.5851861997497
 20
-970.3230940041008
 30
-0.0000000000004547
 11
274.5849714761023
 21
-970.3230940041008
 31
-0.0000000000004547
  0
LINE
  5
A94CF
  8
01
 10
274.5849714761023
 20
-970.3230940041008
 30
-0.0000000000004547
 11
274.5834936480585
 21
-970.3230940041008
 31
-0.0000000000004547
  0
LINE
  5
A94D0
  8
01
 10
274.5834936480585
 20
-970.3230940041008
 30
-0.0000000000004547
 11
274.5764848862016
 21
-970.3230940041008
 31
-0.0000000000004547
  0
LINE
  5
A94D1
  8
01
 10
274.5764848862016
 20
-970.3230940041008
 30
-0.0000000000004547
 11
274.5473782772449
 21
-970.3230940041008
 31
-0.0000000000004547
  0
LINE
  5
A94D2
  8
01
 10
274.5473782772449
 20
-970.3230940041008
 30
-0.0000000000004547
 11
274.4377954210193
 21
-970.3230940041008
 31
-0.0000000000004547
  0
LINE
  5
A94D3
  8
01
 10
274.4377954210193
 20
-970.3230940041008
 30
-0.0000000000004547
 11
274.0850447766118
 21
-970.3230940041008
 31
-0.0000000000004547
  0
LINE
  5
A94D4
  8
01
 10
274.5850447766123
 20
-979.3230940041008
 30
-0.0000000000004547
 11
274.5851603199602
 21
-979.3230940041008
 31
-0.0000000000004547
  0
LINE
  5
A94D5
  8
01
 10
274.5851603199602
 20
-979.3230940041008
 30
-0.0000000000004547
 11
274.5851844286211
 21
-979.3230940041008
 31
-0.0000000000004547
  0
LINE
  5
A94D6
  8
01
 10
274.5851844286211
 20
-979.3230940041008
 30
-0.0000000000004547
 11
274.5851861997497
 21
-979.3230940041008
 31
-0.0000000000004547
  0
LINE
  5
A94D7
  8
01
 10
274.5851861997497
 20
-979.3230940041008
 30
-0.0000000000004547
 11
274.5849714761023
 21
-979.3230940041008
 31
-0.0000000000004547
  0
LINE
  5
A94D8
  8
01
 10
274.5849714761023
 20
-979.3230940041008
 30
-0.0000000000004547
 11
274.5834936480585
 21
-979.3230940041008
 31
-0.0000000000004547
  0
LINE
  5
A94D9
  8
01
 10
274.5834936480585
 20
-979.3230940041008
 30
-0.0000000000004547
 11
274.5764848862016
 21
-979.3230940041008
 31
-0.0000000000004547
  0
LINE
  5
A94DA
  8
01
 10
274.5764848862016
 20
-979.3230940041008
 30
-0.0000000000004547
 11
274.5473782772449
 21
-979.3230940041008
 31
-0.0000000000004547
  0
LINE
  5
A94DB
  8
01
 10
274.5473782772449
 20
-979.3230940041008
 30
-0.0000000000004547
 11
274.4377954210193
 21
-979.3230940041008
 31
-0.0000000000004547
  0
LINE
  5
A94DC
  8
01
 10
274.4377954210193
 20
-979.3230940041008
 30
-0.0000000000004547
 11
274.0850447766118
 21
-979.3230940041008
 31
-0.0000000000004547
  0
LINE
  5
A94DD
  8
01
 10
221.0803741770863
 20
-964.1648507420882
 30
-0.0000000000004547
 11
221.0803741837456
 21
-964.663084522836
 31
-0.0000000000004547
  0
LINE
  5
A94DE
  8
01
 10
221.0803741837456
 20
-964.663084522836
 30
-0.0000000000004547
 11
221.0803741837465
 21
-969.6130625847404
 31
-0.0000000000004547
  0
LINE
  5
A94DF
  8
01
 10
221.0803741837465
 20
-969.6130625847404
 30
-0.0000000000004547
 11
221.0803741837461
 21
-969.9086414968519
 31
-0.0000000000004547
  0
LINE
  5
A94E0
  8
01
 10
221.0803741837324
 20
-969.9130625847415
 30
-0.0000000000004547
 11
221.0803741837324
 21
-979.4130625847397
 31
-0.0000000000004547
  0
LINE
  5
A94E1
  8
01
 10
221.0803741837479
 20
-979.4130625847397
 30
-0.0000000000004547
 11
221.0803741837488
 21
-979.713062584739
 31
-0.0000000000004547
  0
LINE
  5
A94E2
  8
01
 10
221.0803741837488
 20
-979.713062584739
 30
-0.0000000000004547
 11
221.0803741837488
 21
-984.6604641510644
 31
-0.0000000000004547
  0
LINE
  5
A94E3
  8
01
 10
246.3803476533442
 20
-969.9130625847415
 30
-0.0000000000004547
 11
246.3803476533442
 21
-970.3231349342609
 31
-0.0000000000004547
  0
LINE
  5
A94E4
  8
01
 10
246.3803476533442
 20
-979.3231349342136
 30
-0.0000000000004547
 11
246.3803476533442
 21
-979.4130625847397
 31
-0.0000000000004547
  0
LINE
  5
A94E5
  8
01
 10
245.4152471500468
 20
-969.9130625847415
 30
-0.0000000000004547
 11
245.4152471500468
 21
-970.3230940041008
 31
-0.0000000000004547
  0
LINE
  5
A94E6
  8
01
 10
245.4152471500468
 20
-979.3230940041008
 30
-0.0000000000004547
 11
245.4152471500468
 21
-979.4130625847397
 31
-0.0000000000004547
  0
LINE
  5
A94E7
  8
01
 10
267.080374183732
 20
-979.4130625847397
 30
-0.0000000000004547
 11
267.080374183732
 21
-979.3230940041008
 31
-0.0000000000004547
  0
LINE
  5
A94E8
  8
01
 10
267.080374183732
 20
-970.3230940041008
 30
-0.0000000000004547
 11
267.080374183732
 21
-969.9130625847406
 31
-0.0000000000004547
  0
LINE
  5
A94E9
  8
01
 10
266.080374183732
 20
-979.4130625847397
 30
-0.0000000000004547
 11
266.080374183732
 21
-979.3230940041008
 31
-0.0000000000004547
  0
LINE
  5
A94EA
  8
01
 10
266.080374183732
 20
-970.3230940041008
 30
-0.0000000000004547
 11
266.080374183732
 21
-969.9130625847397
 31
-0.0000000000004547
  0
LINE
  5
A94EB
  8
01
 10
247.3803476533433
 20
-979.4130625847379
 30
-0.0000000000004547
 11
247.3803476533433
 21
-979.3231132244377
 31
-0.0000000000004547
  0
LINE
  5
A94EC
  8
01
 10
247.3803476533433
 20
-970.3231132246233
 30
-0.0000000000004547
 11
247.3803476533433
 21
-969.9130625847397
 31
-0.0000000000004547
  0
LINE
  5
A94ED
  8
01
 10
224.3803741837331
 20
-969.9130625847415
 30
-0.0000000000004547
 11
224.3803741837331
 21
-970.3230940041008
 31
-0.0000000000004547
  0
LINE
  5
A94EE
  8
01
 10
224.3803741837331
 20
-979.3230940041008
 30
-0.0000000000004547
 11
224.3803741837331
 21
-979.4130625847397
 31
-0.0000000000004547
  0
LINE
  5
A94EF
  8
01
 10
220.8803918120623
 20
-964.6617731356123
 30
-0.0000000000004547
 11
220.880171741251
 21
-984.651830530936
 31
-0.0000000000004547
  0
LINE
  5
A94F0
  8
01
 10
220.8801743186544
 20
-984.6617731344127
 30
-0.0000000000004547
 11
221.0802411489361
 21
-984.6617753100732
 31
-0.0000000000004547
  0
LINE
  5
A94F1
  8
01
 10
276.580374183732
 20
-982.4390909879944
 30
-0.0000000000004547
 11
276.580374183732
 21
-979.713062584739
 31
-0.0000000000004547
  0
LINE
  5
A94F2
  8
01
 10
276.580374183732
 20
-966.884457685906
 30
-0.0000000000004547
 11
276.580374183732
 21
-969.6130625847404
 31
-0.0000000000004547
  0
LINE
  5
A94F3
  8
01
 10
275.1183956531571
 20
-982.9961778430002
 30
-0.0000000000004547
 11
248.1091382648549
 21
-984.3223517825222
 31
-0.0000000000004547
  0
LINE
  5
A94F4
  8
01
 10
248.1091382648549
 20
-984.3223517825222
 30
-0.0000000000004547
 11
221.0803628497482
 21
-985.1614117000031
 31
-0.0000000000004547
  0
LINE
  5
A94F5
  8
01
 10
275.0911845558551
 20
-979.4130625847388
 30
-0.0000000000004547
 11
221.0803741837479
 21
-979.4130625847397
 31
-0.0000000000004547
  0
LINE
  5
A94F6
  8
01
 10
221.0803741837456
 20
-969.9130625847406
 30
-0.0000000000004547
 11
275.0911845558551
 21
-969.9130625847406
 31
-0.0000000000004547
  0
LINE
  5
A94F7
  8
01
 10
221.0805315358382
 20
-964.1630660473124
 30
-0.0000000000004547
 11
248.1092183474132
 21
-965.0016640115841
 31
-0.0000000000004547
  0
LINE
  5
A94F8
  8
01
 10
248.1092183474132
 20
-965.0016640115841
 30
-0.0000000000004547
 11
275.1183956531571
 21
-966.3273708309011
 31
-0.0000000000004547
  0
LINE
  5
A94F9
  8
01
 10
221.0803741837488
 20
-984.6604641510644
 30
-0.0000000000004547
 11
221.0803628497482
 21
-985.161411700004
 31
-0.0000000000004547
  0
LINE
  5
A94FA
  8
01
 10
275.0956920853499
 20
-969.9130625847406
 30
-0.0000000000004547
 11
276.0842904705844
 21
-969.9130625847406
 31
-0.0000000000004547
  0
LINE
  5
A94FB
  8
01
 10
275.0956920853499
 20
-979.4130625847388
 30
-0.0000000000004547
 11
275.9275513175338
 21
-979.4130625847388
 31
-0.0000000000004547
  0
LINE
  5
A94FC
  8
01
 10
275.8245771453688
 20
-982.9549649763217
 30
-0.0000000000004547
 11
275.1183956531571
 21
-982.9961778429993
 31
-0.0000000000004547
  0
LINE
  5
A94FD
  8
01
 10
275.8245771453688
 20
-966.3685836975787
 30
-0.0000000000004547
 11
275.122153199149
 21
-966.327589167518
 31
-0.0000000000004547
  0
LINE
  5
A94FE
  8
01
 10
274.5851881715656
 20
-970.3230940041008
 30
-0.0000000000004547
 11
275.085188130285
 21
-970.8229506093162
 31
-0.0000000000004547
  0
LINE
  5
A94FF
  8
01
 10
275.085188130285
 20
-978.8232373988853
 30
-0.0000000000004547
 11
274.585188171566
 21
-979.3230940041008
 31
-0.0000000000004547
  0
LINE
  5
A9500
  8
01
 10
221.0803741979824
 20
-964.6617753103596
 30
-0.0000000000004547
 11
220.8803918119941
 21
-964.6617731356168
 31
-0.0000000000004547
  0
LINE
  5
A9501
  8
01
 10
276.0842904705681
 20
-969.9130625847406
 30
-0.0000000000004547
 11
276.2803741837272
 21
-969.9130625847406
 31
-0.0000000000004547
  0
LINE
  5
A9502
  8
01
 10
276.5804074054852
 20
-969.6130625847404
 30
-0.0000000000004547
 11
276.5802323968331
 21
-969.6233050292817
 31
-0.0000000000004547
  0
LINE
  5
A9503
  8
01
 10
276.5802323968331
 20
-969.6233050292817
 30
-0.0000000000004547
 11
276.5797078017793
 21
-969.6335355277165
 31
-0.0000000000004547
  0
LINE
  5
A9504
  8
01
 10
276.5797078017793
 20
-969.6335355277165
 30
-0.0000000000004547
 11
276.5788342319786
 21
-969.6437421517426
 31
-0.0000000000004547
  0
LINE
  5
A9505
  8
01
 10
276.5788342319786
 20
-969.6437421517426
 30
-0.0000000000004547
 11
276.5776127059738
 21
-969.6539130008928
 31
-0.0000000000004547
  0
LINE
  5
A9506
  8
01
 10
276.5776127059738
 20
-969.6539130008928
 30
-0.0000000000004547
 11
276.5760446480106
 21
-969.6640362164112
 31
-0.0000000000004547
  0
LINE
  5
A9507
  8
01
 10
276.5760446480106
 20
-969.6640362164112
 30
-0.0000000000004547
 11
276.5741318863732
 21
-969.6740999950812
 31
-0.0000000000004547
  0
LINE
  5
A9508
  8
01
 10
276.5741318863732
 20
-969.6740999950812
 30
-0.0000000000004547
 11
276.5718766512576
 21
-969.6840926029886
 31
-0.0000000000004547
  0
LINE
  5
A9509
  8
01
 10
276.5718766512576
 20
-969.6840926029886
 30
-0.0000000000004547
 11
276.5692815721653
 21
-969.694002389198
 31
-0.0000000000004547
  0
LINE
  5
A950A
  8
01
 10
276.5692815721653
 20
-969.694002389198
 30
-0.0000000000004547
 11
276.5663496748433
 21
-969.7038177993422
 31
-0.0000000000004547
  0
LINE
  5
A950B
  8
01
 10
276.5663496748433
 20
-969.7038177993422
 30
-0.0000000000004547
 11
276.5630843777529
 21
-969.7135273890922
 31
-0.0000000000004547
  0
LINE
  5
A950C
  8
01
 10
276.5630843777529
 20
-969.7135273890922
 30
-0.0000000000004547
 11
276.5594894880845
 21
-969.7231198375016
 31
-0.0000000000004547
  0
LINE
  5
A950D
  8
01
 10
276.5594894880845
 20
-969.7231198375016
 30
-0.0000000000004547
 11
276.555569197318
 21
-969.7325839602031
 31
-0.0000000000004547
  0
LINE
  5
A950E
  8
01
 10
276.555569197318
 20
-969.7325839602031
 30
-0.0000000000004547
 11
276.5513280763374
 21
-969.7419087224539
 31
-0.0000000000004547
  0
LINE
  5
A950F
  8
01
 10
276.5513280763374
 20
-969.7419087224539
 30
-0.0000000000004547
 11
276.5467710701008
 21
-969.7510832519988
 31
-0.0000000000004547
  0
LINE
  5
A9510
  8
01
 10
276.5467710701008
 20
-969.7510832519988
 30
-0.0000000000004547
 11
276.5419034918721
 21
-969.7600968517459
 31
-0.0000000000004547
  0
LINE
  5
A9511
  8
01
 10
276.5419034918721
 20
-969.7600968517459
 30
-0.0000000000004547
 11
276.5367310170307
 21
-969.7689390122409
 31
-0.0000000000004547
  0
LINE
  5
A9512
  8
01
 10
276.5367310170307
 20
-969.7689390122409
 30
-0.0000000000004547
 11
276.5312596764509
 21
-969.7775994239205
 31
-0.0000000000004547
  0
LINE
  5
A9513
  8
01
 10
276.5312596764509
 20
-969.7775994239205
 30
-0.0000000000004547
 11
276.5254958494714
 21
-969.7860679891332
 31
-0.0000000000004547
  0
LINE
  5
A9514
  8
01
 10
276.5254958494714
 20
-969.7860679891332
 30
-0.0000000000004547
 11
276.5194462564558
 21
-969.794334833909
 31
-0.0000000000004547
  0
LINE
  5
A9515
  8
01
 10
276.5194462564558
 20
-969.794334833909
 30
-0.0000000000004547
 11
276.5131179509593
 21
-969.8023903194785
 31
-0.0000000000004547
  0
LINE
  5
A9516
  8
01
 10
276.5131179509593
 20
-969.8023903194785
 30
-0.0000000000004547
 11
276.5065183115033
 21
-969.8102250535044
 31
-0.0000000000004547
  0
LINE
  5
A9517
  8
01
 10
276.5065183115033
 20
-969.8102250535044
 30
-0.0000000000004547
 11
276.4996550329718
 21
-969.8178299010374
 31
-0.0000000000004547
  0
LINE
  5
A9518
  8
01
 10
276.4996550329718
 20
-969.8178299010374
 30
-0.0000000000004547
 11
276.4925361176404
 21
-969.8251959951663
 31
-0.0000000000004547
  0
LINE
  5
A9519
  8
01
 10
276.4925361176404
 20
-969.8251959951663
 30
-0.0000000000004547
 11
276.4851698658461
 21
-969.8323147473543
 31
-0.0000000000004547
  0
LINE
  5
A951A
  8
01
 10
276.4851698658461
 20
-969.8323147473543
 30
-0.0000000000004547
 11
276.4775648663093
 21
-969.8391778574546
 31
-0.0000000000004547
  0
LINE
  5
A951B
  8
01
 10
276.4775648663093
 20
-969.8391778574546
 30
-0.0000000000004547
 11
276.4697299861194
 21
-969.845777323389
 31
-0.0000000000004547
  0
LINE
  5
A951C
  8
01
 10
276.4697299861194
 20
-969.845777323389
 30
-0.0000000000004547
 11
276.4616743603954
 21
-969.852105450474
 31
-0.0000000000004547
  0
LINE
  5
A951D
  8
01
 10
276.4616743603954
 20
-969.852105450474
 30
-0.0000000000004547
 11
276.453407381637
 21
-969.8581548603975
 31
-0.0000000000004547
  0
LINE
  5
A951E
  8
01
 10
276.453407381637
 20
-969.8581548603975
 30
-0.0000000000004547
 11
276.4449386887721
 21
-969.8639184998169
 31
-0.0000000000004547
  0
LINE
  5
A951F
  8
01
 10
276.4449386887721
 20
-969.8639184998169
 30
-0.0000000000004547
 11
276.4362781559169
 21
-969.8693896485879
 31
-0.0000000000004547
  0
LINE
  5
A9520
  8
01
 10
276.4362781559169
 20
-969.8693896485879
 30
-0.0000000000004547
 11
276.4274358808655
 21
-969.8745619275956
 31
-0.0000000000004547
  0
LINE
  5
A9521
  8
01
 10
276.4274358808655
 20
-969.8745619275956
 30
-0.0000000000004547
 11
276.4184221733156
 21
-969.8794293061924
 31
-0.0000000000004547
  0
LINE
  5
A9522
  8
01
 10
276.4184221733156
 20
-969.8794293061924
 30
-0.0000000000004547
 11
276.4092475428463
 21
-969.8839861092342
 31
-0.0000000000004547
  0
LINE
  5
A9523
  8
01
 10
276.4092475428463
 20
-969.8839861092342
 30
-0.0000000000004547
 11
276.399922686667
 21
-969.8882270236923
 31
-0.0000000000004547
  0
LINE
  5
A9524
  8
01
 10
276.399922686667
 20
-969.8882270236923
 30
-0.0000000000004547
 11
276.3904584771429
 21
-969.8921471048502
 31
-0.0000000000004547
  0
LINE
  5
A9525
  8
01
 10
276.3904584771429
 20
-969.8921471048502
 30
-0.0000000000004547
 11
276.3808659491181
 21
-969.895741782068
 31
-0.0000000000004547
  0
LINE
  5
A9526
  8
01
 10
276.3808659491181
 20
-969.895741782068
 30
-0.0000000000004547
 11
276.3711562870515
 21
-969.8990068641137
 31
-0.0000000000004547
  0
LINE
  5
A9527
  8
01
 10
276.3711562870515
 20
-969.8990068641137
 30
-0.0000000000004547
 11
276.3613408119748
 21
-969.9019385440465
 31
-0.0000000000004547
  0
LINE
  5
A9528
  8
01
 10
276.3613408119748
 20
-969.9019385440465
 30
-0.0000000000004547
 11
276.3514309682931
 21
-969.9045334036596
 31
-0.0000000000004547
  0
LINE
  5
A9529
  8
01
 10
276.3514309682931
 20
-969.9045334036596
 30
-0.0000000000004547
 11
276.3414383104408
 21
-969.9067884174633
 31
-0.0000000000004547
  0
LINE
  5
A952A
  8
01
 10
276.3414383104408
 20
-969.9067884174633
 30
-0.0000000000004547
 11
276.3313744894097
 21
-969.9087009562113
 31
-0.0000000000004547
  0
LINE
  5
A952B
  8
01
 10
276.3313744894097
 20
-969.9087009562113
 30
-0.0000000000004547
 11
276.321251239165
 21
-969.910268789969
 31
-0.0000000000004547
  0
LINE
  5
A952C
  8
01
 10
276.321251239165
 20
-969.910268789969
 30
-0.0000000000004547
 11
276.3110803629637
 21
-969.911490090713
 31
-0.0000000000004547
  0
LINE
  5
A952D
  8
01
 10
276.3110803629637
 20
-969.911490090713
 30
-0.0000000000004547
 11
276.3008737195926
 21
-969.912363434461
 31
-0.0000000000004547
  0
LINE
  5
A952E
  8
01
 10
276.3008737195926
 20
-969.912363434461
 30
-0.0000000000004547
 11
276.2906432095413
 21
-969.9128878029337
 31
-0.0000000000004547
  0
LINE
  5
A952F
  8
01
 10
276.2906432095413
 20
-969.9128878029337
 30
-0.0000000000004547
 11
276.2804007611269
 21
-969.9130625847406
 31
-0.0000000000004547
  0
LINE
  5
A9530
  8
01
 10
275.9275513175338
 20
-979.4130625847388
 30
-0.0000000000004547
 11
276.2803741837272
 21
-979.4130625847388
 31
-0.0000000000004547
  0
LINE
  5
A9531
  8
01
 10
276.2804007611265
 20
-979.4130625847388
 30
-0.0000000000004547
 11
276.2906432095413
 21
-979.4132373665448
 31
-0.0000000000004547
  0
LINE
  5
A9532
  8
01
 10
276.2906432095413
 20
-979.4132373665448
 30
-0.0000000000004547
 11
276.3008737195926
 21
-979.4137617350175
 31
-0.0000000000004547
  0
LINE
  5
A9533
  8
01
 10
276.3008737195926
 20
-979.4137617350175
 30
-0.0000000000004547
 11
276.3110803629637
 21
-979.4146350787655
 31
-0.0000000000004547
  0
LINE
  5
A9534
  8
01
 10
276.3110803629637
 20
-979.4146350787655
 30
-0.0000000000004547
 11
276.321251239165
 21
-979.4158563795095
 31
-0.0000000000004547
  0
LINE
  5
A9535
  8
01
 10
276.321251239165
 20
-979.4158563795095
 30
-0.0000000000004547
 11
276.3313744894097
 21
-979.4174242132672
 31
-0.0000000000004547
  0
LINE
  5
A9536
  8
01
 10
276.3313744894097
 20
-979.4174242132672
 30
-0.0000000000004547
 11
276.3414383104408
 21
-979.4193367520152
 31
-0.0000000000004547
  0
LINE
  5
A9537
  8
01
 10
276.3414383104408
 20
-979.4193367520152
 30
-0.0000000000004547
 11
276.3514309682935
 21
-979.4215917658189
 31
-0.0000000000004547
  0
LINE
  5
A9538
  8
01
 10
276.3514309682935
 20
-979.4215917658189
 30
-0.0000000000004547
 11
276.3613408119748
 21
-979.424186625432
 31
-0.0000000000004547
  0
LINE
  5
A9539
  8
01
 10
276.3613408119748
 20
-979.424186625432
 30
-0.0000000000004547
 11
276.3711562870515
 21
-979.4271183053647
 31
-0.0000000000004547
  0
LINE
  5
A953A
  8
01
 10
276.3711562870515
 20
-979.4271183053647
 30
-0.0000000000004547
 11
276.3808659491181
 21
-979.4303833874105
 31
-0.0000000000004547
  0
LINE
  5
A953B
  8
01
 10
276.3808659491181
 20
-979.4303833874105
 30
-0.0000000000004547
 11
276.3904584771429
 21
-979.4339780646283
 31
-0.0000000000004547
  0
LINE
  5
A953C
  8
01
 10
276.3904584771429
 20
-979.4339780646283
 30
-0.0000000000004547
 11
276.3999226866675
 21
-979.4378981457862
 31
-0.0000000000004547
  0
LINE
  5
A953D
  8
01
 10
276.3999226866675
 20
-979.4378981457862
 30
-0.0000000000004547
 11
276.4092475428468
 21
-979.4421390602442
 31
-0.0000000000004547
  0
LINE
  5
A953E
  8
01
 10
276.4092475428468
 20
-979.4421390602442
 30
-0.0000000000004547
 11
276.4184221733161
 21
-979.4466958632861
 31
-0.0000000000004547
  0
LINE
  5
A953F
  8
01
 10
276.4184221733161
 20
-979.4466958632861
 30
-0.0000000000004547
 11
276.427435880866
 21
-979.4515632418829
 31
-0.0000000000004547
  0
LINE
  5
A9540
  8
01
 10
276.427435880866
 20
-979.4515632418829
 30
-0.0000000000004547
 11
276.4362781559169
 21
-979.4567355208906
 31
-0.0000000000004547
  0
LINE
  5
A9541
  8
01
 10
276.4362781559169
 20
-979.4567355208906
 30
-0.0000000000004547
 11
276.4449386887721
 21
-979.4622066696616
 31
-0.0000000000004547
  0
LINE
  5
A9542
  8
01
 10
276.4449386887721
 20
-979.4622066696616
 30
-0.0000000000004547
 11
276.4534073816374
 21
-979.467970309081
 31
-0.0000000000004547
  0
LINE
  5
A9543
  8
01
 10
276.4534073816374
 20
-979.467970309081
 30
-0.0000000000004547
 11
276.4616743603959
 21
-979.4740197190044
 31
-0.0000000000004547
  0
LINE
  5
A9544
  8
01
 10
276.4616743603959
 20
-979.4740197190044
 30
-0.0000000000004547
 11
276.4697299861194
 21
-979.4803478460894
 31
-0.0000000000004547
  0
LINE
  5
A9545
  8
01
 10
276.4697299861194
 20
-979.4803478460894
 30
-0.0000000000004547
 11
276.4775648663097
 21
-979.486947312023
 31
-0.0000000000004547
  0
LINE
  5
A9546
  8
01
 10
276.4775648663097
 20
-979.486947312023
 30
-0.0000000000004547
 11
276.4851698658466
 21
-979.4938104221242
 31
-0.0000000000004547
  0
LINE
  5
A9547
  8
01
 10
276.4851698658466
 20
-979.4938104221242
 30
-0.0000000000004547
 11
276.4925361176404
 21
-979.5009291743122
 31
-0.0000000000004547
  0
LINE
  5
A9548
  8
01
 10
276.4925361176404
 20
-979.5009291743122
 30
-0.0000000000004547
 11
276.4996550329718
 21
-979.5082952684411
 31
-0.0000000000004547
  0
LINE
  5
A9549
  8
01
 10
276.4996550329718
 20
-979.5082952684411
 30
-0.0000000000004547
 11
276.5065183115033
 21
-979.5159001159741
 31
-0.0000000000004547
  0
LINE
  5
A954A
  8
01
 10
276.5065183115033
 20
-979.5159001159741
 30
-0.0000000000004547
 11
276.5131179509597
 21
-979.52373485
 31
-0.0000000000004547
  0
LINE
  5
A954B
  8
01
 10
276.5131179509597
 20
-979.52373485
 30
-0.0000000000004547
 11
276.5194462564562
 21
-979.5317903355694
 31
-0.0000000000004547
  0
LINE
  5
A954C
  8
01
 10
276.5194462564562
 20
-979.5317903355694
 30
-0.0000000000004547
 11
276.5254958494718
 21
-979.5400571803452
 31
-0.0000000000004547
  0
LINE
  5
A954D
  8
01
 10
276.5254958494718
 20
-979.5400571803452
 30
-0.0000000000004547
 11
276.5312596764518
 21
-979.548525745558
 31
-0.0000000000004547
  0
LINE
  5
A954E
  8
01
 10
276.5312596764518
 20
-979.548525745558
 30
-0.0000000000004547
 11
276.5367310170316
 21
-979.5571861572375
 31
-0.0000000000004547
  0
LINE
  5
A954F
  8
01
 10
276.5367310170316
 20
-979.5571861572375
 30
-0.0000000000004547
 11
276.5419034918726
 21
-979.5660283177335
 31
-0.0000000000004547
  0
LINE
  5
A9550
  8
01
 10
276.5419034918726
 20
-979.5660283177335
 30
-0.0000000000004547
 11
276.5467710701008
 21
-979.5750419174797
 31
-0.0000000000004547
  0
LINE
  5
A9551
  8
01
 10
276.5467710701008
 20
-979.5750419174797
 30
-0.0000000000004547
 11
276.5513280763383
 21
-979.5842164470246
 31
-0.0000000000004547
  0
LINE
  5
A9552
  8
01
 10
276.5513280763383
 20
-979.5842164470246
 30
-0.0000000000004547
 11
276.5555691973184
 21
-979.5935412092754
 31
-0.0000000000004547
  0
LINE
  5
A9553
  8
01
 10
276.5555691973184
 20
-979.5935412092754
 30
-0.0000000000004547
 11
276.5594894880845
 21
-979.6030053319778
 31
-0.0000000000004547
  0
LINE
  5
A9554
  8
01
 10
276.5594894880845
 20
-979.6030053319778
 30
-0.0000000000004547
 11
276.5630843777533
 21
-979.6125977803863
 31
-0.0000000000004547
  0
LINE
  5
A9555
  8
01
 10
276.5630843777533
 20
-979.6125977803863
 30
-0.0000000000004547
 11
276.5663496748437
 21
-979.6223073701372
 31
-0.0000000000004547
  0
LINE
  5
A9556
  8
01
 10
276.5663496748437
 20
-979.6223073701372
 30
-0.0000000000004547
 11
276.5692815721653
 21
-979.6321227802814
 31
-0.0000000000004547
  0
LINE
  5
A9557
  8
01
 10
276.5692815721653
 20
-979.6321227802814
 30
-0.0000000000004547
 11
276.5718766512576
 21
-979.6420325664908
 31
-0.0000000000004547
  0
LINE
  5
A9558
  8
01
 10
276.5718766512576
 20
-979.6420325664908
 30
-0.0000000000004547
 11
276.5741318863741
 21
-979.6520251743973
 31
-0.0000000000004547
  0
LINE
  5
A9559
  8
01
 10
276.5741318863741
 20
-979.6520251743973
 30
-0.0000000000004547
 11
276.5760446480111
 21
-979.6620889530673
 31
-0.0000000000004547
  0
LINE
  5
A955A
  8
01
 10
276.5760446480111
 20
-979.6620889530673
 30
-0.0000000000004547
 11
276.5776127059747
 21
-979.6722121685857
 31
-0.0000000000004547
  0
LINE
  5
A955B
  8
01
 10
276.5776127059747
 20
-979.6722121685857
 30
-0.0000000000004547
 11
276.5788342319786
 21
-979.6823830177359
 31
-0.0000000000004547
  0
LINE
  5
A955C
  8
01
 10
276.5788342319786
 20
-979.6823830177359
 30
-0.0000000000004547
 11
276.5797078017798
 21
-979.692589641762
 31
-0.0000000000004547
  0
LINE
  5
A955D
  8
01
 10
276.5797078017798
 20
-979.692589641762
 30
-0.0000000000004547
 11
276.5802323968331
 21
-979.7028201401977
 31
-0.0000000000004547
  0
LINE
  5
A955E
  8
01
 10
276.5802323968331
 20
-979.7028201401977
 30
-0.0000000000004547
 11
276.5804074054852
 21
-979.713062584739
 31
-0.0000000000004547
  0
LINE
  5
A955F
  8
01
 10
276.580404582355
 20
-982.4390909875142
 30
-0.0000000000004547
 11
276.5801092070745
 21
-982.4562704492114
 31
-0.0000000000004547
  0
LINE
  5
A9560
  8
01
 10
276.5801092070745
 20
-982.4562704492114
 30
-0.0000000000004547
 11
276.5792237416247
 21
-982.4734296188212
 31
-0.0000000000004547
  0
LINE
  5
A9561
  8
01
 10
276.5792237416247
 20
-982.4734296188212
 30
-0.0000000000004547
 11
276.5777492316259
 21
-982.490548233573
 31
-0.0000000000004547
  0
LINE
  5
A9562
  8
01
 10
276.5777492316259
 20
-982.490548233573
 30
-0.0000000000004547
 11
276.5756874182846
 21
-982.5076060785873
 31
-0.0000000000004547
  0
LINE
  5
A9563
  8
01
 10
276.5756874182846
 20
-982.5076060785873
 30
-0.0000000000004547
 11
276.5730407363374
 21
-982.5245830107428
 31
-0.0000000000004547
  0
LINE
  5
A9564
  8
01
 10
276.5730407363374
 20
-982.5245830107428
 30
-0.0000000000004547
 11
276.5698123111745
 21
-982.54145898247
 31
-0.0000000000004547
  0
LINE
  5
A9565
  8
01
 10
276.5698123111745
 20
-982.54145898247
 30
-0.0000000000004547
 11
276.5660059551513
 21
-982.5582140654174
 31
-0.0000000000004547
  0
LINE
  5
A9566
  8
01
 10
276.5660059551513
 20
-982.5582140654174
 30
-0.0000000000004547
 11
276.5616261630833
 21
-982.5748284739898
 31
-0.0000000000004547
  0
LINE
  5
A9567
  8
01
 10
276.5616261630833
 20
-982.5748284739898
 30
-0.0000000000004547
 11
276.5566781069413
 21
-982.5912825887085
 31
-0.0000000000004547
  0
LINE
  5
A9568
  8
01
 10
276.5566781069413
 20
-982.5912825887085
 30
-0.0000000000004547
 11
276.5511676297431
 21
-982.6075569793825
 31
-0.0000000000004547
  0
LINE
  5
A9569
  8
01
 10
276.5511676297431
 20
-982.6075569793825
 30
-0.0000000000004547
 11
276.5451012386523
 21
-982.6236324280512
 31
-0.0000000000004547
  0
LINE
  5
A956A
  8
01
 10
276.5451012386523
 20
-982.6236324280512
 30
-0.0000000000004547
 11
276.538486097297
 21
-982.6394899516786
 31
-0.0000000000004547
  0
LINE
  5
A956B
  8
01
 10
276.538486097297
 20
-982.6394899516786
 30
-0.0000000000004547
 11
276.5313300173069
 21
-982.6551108245717
 31
-0.0000000000004547
  0
LINE
  5
A956C
  8
01
 10
276.5313300173069
 20
-982.6551108245717
 30
-0.0000000000004547
 11
276.5236414490908
 21
-982.6704766004891
 31
-0.0000000000004547
  0
LINE
  5
A956D
  8
01
 10
276.5236414490908
 20
-982.6704766004891
 30
-0.0000000000004547
 11
276.5154294718589
 21
-982.6855691344285
 31
-0.0000000000004547
  0
LINE
  5
A956E
  8
01
 10
276.5154294718589
 20
-982.6855691344285
 30
-0.0000000000004547
 11
276.5067037828988
 21
-982.7003706040491
 31
-0.0000000000004547
  0
LINE
  5
A956F
  8
01
 10
276.5067037828988
 20
-982.7003706040491
 30
-0.0000000000004547
 11
276.4974746861265
 21
-982.7148635307208
 31
-0.0000000000004547
  0
LINE
  5
A9570
  8
01
 10
276.4974746861265
 20
-982.7148635307208
 30
-0.0000000000004547
 11
276.4877530799166
 21
-982.7290308001634
 31
-0.0000000000004547
  0
LINE
  5
A9571
  8
01
 10
276.4877530799166
 20
-982.7290308001634
 30
-0.0000000000004547
 11
276.4775504442353
 21
-982.7428556826549
 31
-0.0000000000004547
  0
LINE
  5
A9572
  8
01
 10
276.4775504442353
 20
-982.7428556826549
 30
-0.0000000000004547
 11
276.4668788270808
 21
-982.7563218527889
 31
-0.0000000000004547
  0
LINE
  5
A9573
  8
01
 10
276.4668788270808
 20
-982.7563218527889
 30
-0.0000000000004547
 11
276.4557508302608
 21
-982.7694134087519
 31
-0.0000000000004547
  0
LINE
  5
A9574
  8
01
 10
276.4557508302608
 20
-982.7694134087519
 30
-0.0000000000004547
 11
276.4441795945057
 21
-982.7821148911012
 31
-0.0000000000004547
  0
LINE
  5
A9575
  8
01
 10
276.4441795945057
 20
-982.7821148911012
 30
-0.0000000000004547
 11
276.4321787839565
 21
-982.7944113010212
 31
-0.0000000000004547
  0
LINE
  5
A9576
  8
01
 10
276.4321787839565
 20
-982.7944113010212
 30
-0.0000000000004547
 11
276.4197625700252
 21
-982.8062881180344
 31
-0.0000000000004547
  0
LINE
  5
A9577
  8
01
 10
276.4197625700252
 20
-982.8062881180344
 30
-0.0000000000004547
 11
276.4069456146624
 21
-982.8177313171495
 31
-0.0000000000004547
  0
LINE
  5
A9578
  8
01
 10
276.4069456146624
 20
-982.8177313171495
 30
-0.0000000000004547
 11
276.3937430530421
 21
-982.8287273854207
 31
-0.0000000000004547
  0
LINE
  5
A9579
  8
01
 10
276.3937430530421
 20
-982.8287273854207
 30
-0.0000000000004547
 11
276.3801704756909
 21
-982.8392633379076
 31
-0.0000000000004547
  0
LINE
  5
A957A
  8
01
 10
276.3801704756909
 20
-982.8392633379076
 30
-0.0000000000004547
 11
276.3662439100747
 21
-982.8493267330055
 31
-0.0000000000004547
  0
LINE
  5
A957B
  8
01
 10
276.3662439100747
 20
-982.8493267330055
 30
-0.0000000000004547
 11
276.3519798016749
 21
-982.8589056871401
 31
-0.0000000000004547
  0
LINE
  5
A957C
  8
01
 10
276.3519798016749
 20
-982.8589056871401
 30
-0.0000000000004547
 11
276.3373949945679
 21
-982.8679888888014
 31
-0.0000000000004547
  0
LINE
  5
A957D
  8
01
 10
276.3373949945679
 20
-982.8679888888014
 30
-0.0000000000004547
 11
276.322506711533
 21
-982.8765656118953
 31
-0.0000000000004547
  0
LINE
  5
A957E
  8
01
 10
276.322506711533
 20
-982.8765656118953
 30
-0.0000000000004547
 11
276.3073325337166
 21
-982.8846257284172
 31
-0.0000000000004547
  0
LINE
  5
A957F
  8
01
 10
276.3073325337166
 20
-982.8846257284172
 30
-0.0000000000004547
 11
276.2918903798684
 21
-982.8921597204067
 31
-0.0000000000004547
  0
LINE
  5
A9580
  8
01
 10
276.2918903798684
 20
-982.8921597204067
 30
-0.0000000000004547
 11
276.2761984851853
 21
-982.8991586911884
 31
-0.0000000000004547
  0
LINE
  5
A9581
  8
01
 10
276.2761984851853
 20
-982.8991586911884
 30
-0.0000000000004547
 11
276.260275379774
 21
-982.9056143758803
 31
-0.0000000000004547
  0
LINE
  5
A9582
  8
01
 10
276.260275379774
 20
-982.9056143758803
 30
-0.0000000000004547
 11
276.2441398667737
 21
-982.9115191511487
 31
-0.0000000000004547
  0
LINE
  5
A9583
  8
01
 10
276.2441398667737
 20
-982.9115191511487
 30
-0.0000000000004547
 11
276.2278110001474
 21
-982.9168660442133
 31
-0.0000000000004547
  0
LINE
  5
A9584
  8
01
 10
276.2278110001474
 20
-982.9168660442133
 30
-0.0000000000004547
 11
276.2113080621842
 21
-982.9216487410836
 31
-0.0000000000004547
  0
LINE
  5
A9585
  8
01
 10
276.2113080621842
 20
-982.9216487410836
 30
-0.0000000000004547
 11
276.1946505407298
 21
-982.9258615940084
 31
-0.0000000000004547
  0
LINE
  5
A9586
  8
01
 10
276.1946505407298
 20
-982.9258615940084
 30
-0.0000000000004547
 11
276.1778581061738
 21
-982.9294996281519
 31
-0.0000000000004547
  0
LINE
  5
A9587
  8
01
 10
276.1778581061738
 20
-982.9294996281519
 30
-0.0000000000004547
 11
276.1609505882182
 21
-982.9325585474639
 31
-0.0000000000004547
  0
LINE
  5
A9588
  8
01
 10
276.1609505882182
 20
-982.9325585474639
 30
-0.0000000000004547
 11
276.1439479524668
 21
-982.9350347397544
 31
-0.0000000000004547
  0
LINE
  5
A9589
  8
01
 10
276.1439479524668
 20
-982.9350347397544
 30
-0.0000000000004547
 11
276.1268702768432
 21
-982.9369252809579
 31
-0.0000000000004547
  0
LINE
  5
A958A
  8
01
 10
276.1268702768432
 20
-982.9369252809579
 30
-0.0000000000004547
 11
276.1097377278832
 21
-982.9382279385904
 31
-0.0000000000004547
  0
LINE
  5
A958B
  8
01
 10
276.1097377278832
 20
-982.9382279385904
 30
-0.0000000000004547
 11
275.8245771398445
 21
-982.9549648822226
 31
-0.0000000000004547
  0
LINE
  5
A958C
  8
01
 10
276.1097377278832
 20
-966.38532073531
 30
-0.0000000000004547
 11
276.1268702768432
 21
-966.3866233929425
 31
-0.0000000000004547
  0
LINE
  5
A958D
  8
01
 10
276.1268702768432
 20
-966.3866233929425
 30
-0.0000000000004547
 11
276.1439479524668
 21
-966.3885139341469
 31
-0.0000000000004547
  0
LINE
  5
A958E
  8
01
 10
276.1439479524668
 20
-966.3885139341469
 30
-0.0000000000004547
 11
276.1609505882187
 21
-966.3909901264365
 31
-0.0000000000004547
  0
LINE
  5
A958F
  8
01
 10
276.1609505882187
 20
-966.3909901264365
 30
-0.0000000000004547
 11
276.1778581061738
 21
-966.3940490457485
 31
-0.0000000000004547
  0
LINE
  5
A9590
  8
01
 10
276.1778581061738
 20
-966.3940490457485
 30
-0.0000000000004547
 11
276.1946505407298
 21
-966.397687079892
 31
-0.0000000000004547
  0
LINE
  5
A9591
  8
01
 10
276.1946505407298
 20
-966.397687079892
 30
-0.0000000000004547
 11
276.2113080621842
 21
-966.4018999328168
 31
-0.0000000000004547
  0
LINE
  5
A9592
  8
01
 10
276.2113080621842
 20
-966.4018999328168
 30
-0.0000000000004547
 11
276.2278110001474
 21
-966.4066826296871
 31
-0.0000000000004547
  0
LINE
  5
A9593
  8
01
 10
276.2278110001474
 20
-966.4066826296871
 30
-0.0000000000004547
 11
276.2441398667737
 21
-966.4120295227517
 31
-0.0000000000004547
  0
LINE
  5
A9594
  8
01
 10
276.2441398667737
 20
-966.4120295227517
 30
-0.0000000000004547
 11
276.2602753797749
 21
-966.4179342980201
 31
-0.0000000000004547
  0
LINE
  5
A9595
  8
01
 10
276.2602753797749
 20
-966.4179342980201
 30
-0.0000000000004547
 11
276.2761984851853
 21
-966.4243899827111
 31
-0.0000000000004547
  0
LINE
  5
A9596
  8
01
 10
276.2761984851853
 20
-966.4243899827111
 30
-0.0000000000004547
 11
276.2918903798684
 21
-966.4313889534938
 31
-0.0000000000004547
  0
LINE
  5
A9597
  8
01
 10
276.2918903798684
 20
-966.4313889534938
 30
-0.0000000000004547
 11
276.3073325337166
 21
-966.4389229454832
 31
-0.0000000000004547
  0
LINE
  5
A9598
  8
01
 10
276.3073325337166
 20
-966.4389229454832
 30
-0.0000000000004547
 11
276.322506711533
 21
-966.4469830620051
 31
-0.0000000000004547
  0
LINE
  5
A9599
  8
01
 10
276.322506711533
 20
-966.4469830620051
 30
-0.0000000000004547
 11
276.3373949945679
 21
-966.455559785099
 31
-0.0000000000004547
  0
LINE
  5
A959A
  8
01
 10
276.3373949945679
 20
-966.455559785099
 30
-0.0000000000004547
 11
276.3519798016753
 21
-966.4646429867594
 31
-0.0000000000004547
  0
LINE
  5
A959B
  8
01
 10
276.3519798016753
 20
-966.4646429867594
 30
-0.0000000000004547
 11
276.3662439100747
 21
-966.474221940895
 31
-0.0000000000004547
  0
LINE
  5
A959C
  8
01
 10
276.3662439100747
 20
-966.474221940895
 30
-0.0000000000004547
 11
276.3801704756909
 21
-966.4842853359928
 31
-0.0000000000004547
  0
LINE
  5
A959D
  8
01
 10
276.3801704756909
 20
-966.4842853359928
 30
-0.0000000000004547
 11
276.3937430530426
 21
-966.4948212884797
 31
-0.0000000000004547
  0
LINE
  5
A959E
  8
01
 10
276.3937430530426
 20
-966.4948212884797
 30
-0.0000000000004547
 11
276.4069456146629
 21
-966.5058173567509
 31
-0.0000000000004547
  0
LINE
  5
A959F
  8
01
 10
276.4069456146629
 20
-966.5058173567509
 30
-0.0000000000004547
 11
276.4197625700256
 21
-966.517260555866
 31
-0.0000000000004547
  0
LINE
  5
A95A0
  8
01
 10
276.4197625700256
 20
-966.517260555866
 30
-0.0000000000004547
 11
276.432178783957
 21
-966.5291373728792
 31
-0.0000000000004547
  0
LINE
  5
A95A1
  8
01
 10
276.432178783957
 20
-966.5291373728792
 30
-0.0000000000004547
 11
276.4441795945061
 21
-966.5414337827992
 31
-0.0000000000004547
  0
LINE
  5
A95A2
  8
01
 10
276.4441795945061
 20
-966.5414337827992
 30
-0.0000000000004547
 11
276.4557508302608
 21
-966.5541352651485
 31
-0.0000000000004547
  0
LINE
  5
A95A3
  8
01
 10
276.4557508302608
 20
-966.5541352651485
 30
-0.0000000000004547
 11
276.4668788270813
 21
-966.5672268211115
 31
-0.0000000000004547
  0
LINE
  5
A95A4
  8
01
 10
276.4668788270813
 20
-966.5672268211115
 30
-0.0000000000004547
 11
276.4775504442353
 21
-966.5806929912455
 31
-0.0000000000004547
  0
LINE
  5
A95A5
  8
01
 10
276.4775504442353
 20
-966.5806929912455
 30
-0.0000000000004547
 11
276.487753079917
 21
-966.594517873737
 31
-0.0000000000004547
  0
LINE
  5
A95A6
  8
01
 10
276.487753079917
 20
-966.594517873737
 30
-0.0000000000004547
 11
276.4974746861265
 21
-966.6086851431796
 31
-0.0000000000004547
  0
LINE
  5
A95A7
  8
01
 10
276.4974746861265
 20
-966.6086851431796
 30
-0.0000000000004547
 11
276.5067037828997
 21
-966.6231780698513
 31
-0.0000000000004547
  0
LINE
  5
A95A8
  8
01
 10
276.5067037828997
 20
-966.6231780698513
 30
-0.0000000000004547
 11
276.5154294718598
 21
-966.6379795394719
 31
-0.0000000000004547
  0
LINE
  5
A95A9
  8
01
 10
276.5154294718598
 20
-966.6379795394719
 30
-0.0000000000004547
 11
276.5236414490913
 21
-966.6530720734113
 31
-0.0000000000004547
  0
LINE
  5
A95AA
  8
01
 10
276.5236414490913
 20
-966.6530720734113
 30
-0.0000000000004547
 11
276.5313300173069
 21
-966.6684378493287
 31
-0.0000000000004547
  0
LINE
  5
A95AB
  8
01
 10
276.5313300173069
 20
-966.6684378493287
 30
-0.0000000000004547
 11
276.5384860972975
 21
-966.6840587222218
 31
-0.0000000000004547
  0
LINE
  5
A95AC
  8
01
 10
276.5384860972975
 20
-966.6840587222218
 30
-0.0000000000004547
 11
276.5451012386532
 21
-966.6999162458492
 31
-0.0000000000004547
  0
LINE
  5
A95AD
  8
01
 10
276.5451012386532
 20
-966.6999162458492
 30
-0.0000000000004547
 11
276.5511676297431
 21
-966.7159916945179
 31
-0.0000000000004547
  0
LINE
  5
A95AE
  8
01
 10
276.5511676297431
 20
-966.7159916945179
 30
-0.0000000000004547
 11
276.5566781069413
 21
-966.7322660851919
 31
-0.0000000000004547
  0
LINE
  5
A95AF
  8
01
 10
276.5566781069413
 20
-966.7322660851919
 30
-0.0000000000004547
 11
276.5616261630833
 21
-966.7487201999106
 31
-0.0000000000004547
  0
LINE
  5
A95B0
  8
01
 10
276.5616261630833
 20
-966.7487201999106
 30
-0.0000000000004547
 11
276.5660059551513
 21
-966.765334608483
 31
-0.0000000000004547
  0
LINE
  5
A95B1
  8
01
 10
276.5660059551513
 20
-966.765334608483
 30
-0.0000000000004547
 11
276.569812311175
 21
-966.7820896914304
 31
-0.0000000000004547
  0
LINE
  5
A95B2
  8
01
 10
276.569812311175
 20
-966.7820896914304
 30
-0.0000000000004547
 11
276.5730407363374
 21
-966.7989656631576
 31
-0.0000000000004547
  0
LINE
  5
A95B3
  8
01
 10
276.5730407363374
 20
-966.7989656631576
 30
-0.0000000000004547
 11
276.5756874182846
 21
-966.8159425953131
 31
-0.0000000000004547
  0
LINE
  5
A95B4
  8
01
 10
276.5756874182846
 20
-966.8159425953131
 30
-0.0000000000004547
 11
276.5777492316259
 21
-966.8330004403274
 31
-0.0000000000004547
  0
LINE
  5
A95B5
  8
01
 10
276.5777492316259
 20
-966.8330004403274
 30
-0.0000000000004547
 11
276.5792237416247
 21
-966.8501190550792
 31
-0.0000000000004547
  0
LINE
  5
A95B6
  8
01
 10
276.5792237416247
 20
-966.8501190550792
 30
-0.0000000000004547
 11
276.5801092070745
 21
-966.867278224689
 31
-0.0000000000004547
  0
LINE
  5
A95B7
  8
01
 10
276.5801092070745
 20
-966.867278224689
 30
-0.0000000000004547
 11
276.580404582355
 21
-966.8844576863862
 31
-0.0000000000004547
  0
LINE
  5
A95B8
  8
01
 10
276.1097377278832
 20
-966.38532073531
 30
-0.0000000000004547
 11
275.8245771398445
 21
-966.3685837916778
 31
-0.0000000000004547
  0
LINE
  5
A95B9
  8
01
 10
356.9001496411015
 20
-860.1077546901457
 30
0.0
 11
389.9002285480424
 21
-860.1077546901503
 31
0.0
  0
LINE
  5
A95BA
  8
01
 10
364.1601444175553
 20
-859.9076195733761
 30
0.0
 11
374.1501870821453
 21
-859.907566159052
 31
0.0
  0
LINE
  5
A95BB
  8
01
 10
358.3867759083018
 20
-915.6077660241295
 30
0.0
 11
492.9192646978286
 21
-915.6077660241295
 31
0.0
  0
LINE
  5
A95BC
  8
01
 10
356.8868367762793
 20
-914.121278989283
 30
0.0
 11
356.4002286964574
 21
-860.1077821291098
 31
0.0
  0
LINE
  5
A95BD
  8
01
 10
356.4020163486744
 20
-860.1077655218297
 30
0.0
 11
356.9001496411015
 21
-860.1077546901457
 31
0.0
  0
LINE
  5
A95BE
  8
01
 10
389.9002285480424
 20
-860.1077546901503
 30
0.0
 11
391.9002285513684
 21
-860.1077660241427
 31
0.0
  0
LINE
  5
A95BF
  8
01
 10
358.3867759083018
 20
-915.6077660241295
 30
0.0
 11
358.3344228072451
 21
-915.6067868769543
 31
0.0
  0
LINE
  5
A95C0
  8
01
 10
358.3344228072451
 20
-915.6067868769543
 30
0.0
 11
358.2821354674647
 21
-915.6039868737099
 31
0.0
  0
LINE
  5
A95C1
  8
01
 10
358.2821354674647
 20
-915.6039868737099
 30
0.0
 11
358.2299771996691
 21
-915.5993694047053
 31
0.0
  0
LINE
  5
A95C2
  8
01
 10
358.2299771996691
 20
-915.5993694047053
 30
0.0
 11
358.1780111582825
 21
-915.5929400608767
 31
0.0
  0
LINE
  5
A95C3
  8
01
 10
358.1780111582825
 20
-915.5929400608767
 30
0.0
 11
358.1263002649771
 21
-915.5847066270218
 31
0.0
  0
LINE
  5
A95C4
  8
01
 10
358.1263002649771
 20
-915.5847066270218
 30
0.0
 11
358.0749071324867
 21
-915.5746790723698
 31
0.0
  0
LINE
  5
A95C5
  8
01
 10
358.0749071324867
 20
-915.5746790723698
 30
0.0
 11
358.0238939887927
 21
-915.5628695385132
 31
0.0
  0
LINE
  5
A95C6
  8
01
 10
358.0238939887927
 20
-915.5628695385132
 30
0.0
 11
357.9733226017765
 21
-915.5492923247072
 31
0.0
  0
LINE
  5
A95C7
  8
01
 10
357.9733226017765
 20
-915.5492923247072
 30
0.0
 11
357.9232542044315
 21
-915.5339638705519
 31
0.0
  0
LINE
  5
A95C8
  8
01
 10
357.9232542044315
 20
-915.5339638705519
 30
0.0
 11
357.8737494207194
 21
-915.5169027360918
 31
0.0
  0
LINE
  5
A95C9
  8
01
 10
357.8737494207194
 20
-915.5169027360918
 30
0.0
 11
357.8248681921655
 21
-915.4981295793374
 31
0.0
  0
LINE
  5
A95CA
  8
01
 10
357.8248681921655
 20
-915.4981295793374
 30
0.0
 11
357.7766697052798
 21
-915.4776671312576
 31
0.0
  0
LINE
  5
A95CB
  8
01
 10
357.7766697052798
 20
-915.4776671312576
 30
0.0
 11
357.7292123198945
 21
-915.4555401682529
 31
0.0
  0
LINE
  5
A95CC
  8
01
 10
357.7292123198945
 20
-915.4555401682529
 30
0.0
 11
357.6825534984969
 21
-915.431775482156
 31
0.0
  0
LINE
  5
A95CD
  8
01
 10
357.6825534984969
 20
-915.431775482156
 30
0.0
 11
357.6367497366568
 21
-915.4064018477935
 31
0.0
  0
LINE
  5
A95CE
  8
01
 10
357.6367497366568
 20
-915.4064018477935
 30
0.0
 11
357.5918564946173
 21
-915.3794499881425
 31
0.0
  0
LINE
  5
A95CF
  8
01
 10
357.5918564946173
 20
-915.3794499881425
 30
0.0
 11
357.5479281301436
 21
-915.3509525371315
 31
0.0
  0
LINE
  5
A95D0
  8
01
 10
357.5479281301436
 20
-915.3509525371315
 30
0.0
 11
357.5050178327042
 21
-915.3209440001266
 31
0.0
  0
LINE
  5
A95D1
  8
01
 10
357.5050178327042
 20
-915.3209440001266
 30
0.0
 11
357.463177559071
 21
-915.2894607121513
 31
0.0
  0
LINE
  5
A95D2
  8
01
 10
357.463177559071
 20
-915.2894607121513
 30
0.0
 11
357.4224579704037
 21
-915.2565407938911
 31
0.0
  0
LINE
  5
A95D3
  8
01
 10
357.4224579704037
 20
-915.2565407938911
 30
0.0
 11
357.3829083709129
 21
-915.2222241055371
 31
0.0
  0
LINE
  5
A95D4
  8
01
 10
357.3829083709129
 20
-915.2222241055371
 30
0.0
 11
357.3445766481586
 21
-915.1865521985211
 31
0.0
  0
LINE
  5
A95D5
  8
01
 10
357.3445766481586
 20
-915.1865521985211
 30
0.0
 11
357.3075092150689
 21
-915.149568265204
 31
0.0
  0
LINE
  5
A95D6
  8
01
 10
357.3075092150689
 20
-915.149568265204
 30
0.0
 11
357.2717509537401
 21
-915.1113170865789
 31
0.0
  0
LINE
  5
A95D7
  8
01
 10
357.2717509537401
 20
-915.1113170865789
 30
0.0
 11
357.2373451610933
 21
-915.071844978049
 31
0.0
  0
LINE
  5
A95D8
  8
01
 10
357.2267436770003
 20
-915.0589995905694
 30
0.0
 11
357.1768268572691
 21
-914.9942905390213
 31
0.0
  0
LINE
  5
A95D9
  8
01
 10
356.9009781221043
 20
-914.317394128666
 30
0.0
 11
356.8868367762793
 21
-914.121278989283
 31
0.0
  0
LINE
  5
A95DA
  8
01
 10
494.4191424855139
 20
-914.1269134001396
 30
0.0
 11
494.4176146432387
 21
-914.1788321599807
 31
0.0
  0
LINE
  5
A95DB
  8
01
 10
494.4176146432387
 20
-914.1788321599807
 30
0.0
 11
494.4142889475465
 21
-914.2306668170514
 31
0.0
  0
LINE
  5
A95DC
  8
01
 10
494.4142889475465
 20
-914.2306668170514
 30
0.0
 11
494.4091693915902
 21
-914.2823551336452
 31
0.0
  0
LINE
  5
A95DD
  8
01
 10
494.4091693915902
 20
-914.2823551336452
 30
0.0
 11
494.4022621224035
 21
-914.3338350477662
 31
0.0
  0
LINE
  5
A95DE
  8
01
 10
494.4022621224035
 20
-914.3338350477662
 30
0.0
 11
494.3935754335221
 21
-914.3850447476453
 31
0.0
  0
LINE
  5
A95DF
  8
01
 10
494.3935754335221
 20
-914.3850447476453
 30
0.0
 11
494.3831197550267
 21
-914.4359227459619
 31
0.0
  0
LINE
  5
A95E0
  8
01
 10
494.3831197550267
 20
-914.4359227459619
 30
0.0
 11
494.3709076410155
 21
-914.4864079536657
 31
0.0
  0
LINE
  5
A95E1
  8
01
 10
494.3709076410155
 20
-914.4864079536657
 30
0.0
 11
494.3569537545359
 21
-914.5364397533291
 31
0.0
  0
LINE
  5
A95E2
  8
01
 10
494.3569537545359
 20
-914.5364397533291
 30
0.0
 11
494.3412748499736
 21
-914.5859580719317
 31
0.0
  0
LINE
  5
A95E3
  8
01
 10
494.3412748499736
 20
-914.5859580719317
 30
0.0
 11
494.3238897529395
 21
-914.6349034529864
 31
0.0
  0
LINE
  5
A95E4
  8
01
 10
494.3238897529395
 20
-914.6349034529864
 30
0.0
 11
494.304819337663
 21
-914.6832171279312
 31
0.0
  0
LINE
  5
A95E5
  8
01
 10
494.304819337663
 20
-914.6832171279312
 30
0.0
 11
494.284086501933
 21
-914.7308410866918
 31
0.0
  0
LINE
  5
A95E6
  8
01
 10
494.284086501933
 20
-914.7308410866918
 30
0.0
 11
494.261716139596
 21
-914.777718147334
 31
0.0
  0
LINE
  5
A95E7
  8
01
 10
494.261716139596
 20
-914.777718147334
 30
0.0
 11
494.2377351106766
 21
-914.8237920247203
 31
0.0
  0
LINE
  5
A95E8
  8
01
 10
494.2377351106766
 20
-914.8237920247203
 30
0.0
 11
494.2121722091183
 21
-914.8690073980948
 31
0.0
  0
LINE
  5
A95E9
  8
01
 10
494.2121722091183
 20
-914.8690073980948
 30
0.0
 11
494.1850581282147
 21
-914.9133099775032
 31
0.0
  0
LINE
  5
A95EA
  8
01
 10
494.1850581282147
 20
-914.9133099775032
 30
0.0
 11
494.156425423756
 21
-914.9566465689805
 31
0.0
  0
LINE
  5
A95EB
  8
01
 10
494.156425423756
 20
-914.9566465689805
 30
0.0
 11
494.1263084749394
 21
-914.9989651384204
 31
0.0
  0
LINE
  5
A95EC
  8
01
 10
494.1263084749394
 20
-914.9989651384204
 30
0.0
 11
494.0947434430877
 21
-915.0402148740524
 31
0.0
  0
LINE
  5
A95ED
  8
01
 10
494.0947434430877
 20
-915.0402148740524
 30
0.0
 11
494.0617682282341
 21
-915.0803462474506
 31
0.0
  0
LINE
  5
A95EE
  8
01
 10
494.0617682282341
 20
-915.0803462474506
 30
0.0
 11
494.0274224236132
 21
-915.1193110730047
 31
0.0
  0
LINE
  5
A95EF
  8
01
 10
494.0274224236132
 20
-915.1193110730047
 30
0.0
 11
493.9917472681223
 21
-915.1570625657724
 31
0.0
  0
LINE
  5
A95F0
  8
01
 10
493.9917472681223
 20
-915.1570625657724
 30
0.0
 11
493.9547855968062
 21
-915.1935553976579
 31
0.0
  0
LINE
  5
A95F1
  8
01
 10
493.9547855968062
 20
-915.1935553976579
 30
0.0
 11
493.9165817894259
 21
-915.2287457518352
 31
0.0
  0
LINE
  5
A95F2
  8
01
 10
493.9165817894259
 20
-915.2287457518352
 30
0.0
 11
493.8771817171696
 21
-915.2625913753583
 31
0.0
  0
LINE
  5
A95F3
  8
01
 10
493.8771817171696
 20
-915.2625913753583
 30
0.0
 11
493.836632687578
 21
-915.2950516298962
 31
0.0
  0
LINE
  5
A95F4
  8
01
 10
493.836632687578
 20
-915.2950516298962
 30
0.0
 11
493.7949833877415
 21
-915.326087540525
 31
0.0
  0
LINE
  5
A95F5
  8
01
 10
493.7949833877415
 20
-915.326087540525
 30
0.0
 11
493.7522838258387
 21
-915.3556618425265
 31
0.0
  0
LINE
  5
A95F6
  8
01
 10
493.7522838258387
 20
-915.3556618425265
 30
0.0
 11
493.7085852710993
 21
-915.3837390261307
 31
0.0
  0
LINE
  5
A95F7
  8
01
 10
493.7085852710993
 20
-915.3837390261307
 30
0.0
 11
493.6639401922371
 21
-915.4102853791538
 31
0.0
  0
LINE
  5
A95F8
  8
01
 10
493.6639401922371
 20
-915.4102853791538
 30
0.0
 11
493.6184021944541
 21
-915.4352690274746
 31
0.0
  0
LINE
  5
A95F9
  8
01
 10
493.6184021944541
 20
-915.4352690274746
 30
0.0
 11
493.5720259550794
 21
-915.4586599733067
 31
0.0
  0
LINE
  5
A95FA
  8
01
 10
493.5720259550794
 20
-915.4586599733067
 30
0.0
 11
493.5248671579143
 21
-915.4804301312162
 31
0.0
  0
LINE
  5
A95FB
  8
01
 10
493.5248671579143
 20
-915.4804301312162
 30
0.0
 11
493.4769824263753
 21
-915.5005533618447
 31
0.0
  0
LINE
  5
A95FC
  8
01
 10
493.4769824263753
 20
-915.5005533618447
 30
0.0
 11
493.4284292555062
 21
-915.5190055032937
 31
0.0
  0
LINE
  5
A95FD
  8
01
 10
493.4284292555062
 20
-915.5190055032937
 30
0.0
 11
493.3792659429432
 21
-915.5357644001357
 31
0.0
  0
LINE
  5
A95FE
  8
01
 10
493.3792659429432
 20
-915.5357644001357
 30
0.0
 11
493.3295515189188
 21
-915.550809930017
 31
0.0
  0
LINE
  5
A95FF
  8
01
 10
493.3295515189188
 20
-915.550809930017
 30
0.0
 11
493.279345675383
 21
-915.5641240278193
 31
0.0
  0
LINE
  5
A9600
  8
01
 10
493.279345675383
 20
-915.5641240278193
 30
0.0
 11
493.2287086943293
 21
-915.5756907073466
 31
0.0
  0
LINE
  5
A9601
  8
01
 10
493.2287086943293
 20
-915.5756907073466
 30
0.0
 11
493.1777013754204
 21
-915.5854960805242
 31
0.0
  0
LINE
  5
A9602
  8
01
 10
493.1777013754204
 20
-915.5854960805242
 30
0.0
 11
493.126384962979
 21
-915.5935283740724
 31
0.0
  0
LINE
  5
A9603
  8
01
 10
493.126384962979
 20
-915.5935283740724
 30
0.0
 11
493.0748210724573
 21
-915.5997779436422
 31
0.0
  0
LINE
  5
A9604
  8
01
 10
493.0748210724573
 20
-915.5997779436422
 30
0.0
 11
493.0230716164547
 21
-915.6042372853946
 31
0.0
  0
LINE
  5
A9605
  8
01
 10
493.0230716164547
 20
-915.6042372853946
 30
0.0
 11
492.9711987303758
 21
-915.6069010450129
 31
0.0
  0
LINE
  5
A9606
  8
01
 10
492.9711987303758
 20
-915.6069010450129
 30
0.0
 11
492.9192646978286
 21
-915.6077660241291
 31
0.0
  0
LINE
  5
A9607
  8
01
 10
494.6737964171257
 20
-894.1790220905151
 30
0.0
 11
494.4191424855139
 21
-914.1269134001396
 31
0.0
  0
LINE
  5
A9608
  8
01
 10
391.9002285513684
 20
-860.1077660241427
 30
0.0
 11
391.9002307876904
 21
-888.6075908454987
 31
0.0
  0
LINE
  5
A9609
  8
01
 10
364.1501955759236
 20
-860.1076146652618
 30
0.0
 11
364.1501967807012
 21
-859.9076195134504
 31
0.0
  0
LINE
  5
A960A
  8
01
 10
384.1501955755261
 20
-860.107735146321
 30
0.0
 11
384.1501967803329
 21
-859.9077351463367
 31
0.0
  0
LINE
  5
A960B
  8
01
 10
356.9009798359079
 20
-914.3174062195782
 30
0.0
 11
356.9094408820997
 21
-914.3694479196989
 31
0.0
  0
LINE
  5
A960C
  8
01
 10
356.9094408820997
 20
-914.3694479196989
 30
0.0
 11
356.9197043435447
 21
-914.4211643504856
 31
0.0
  0
LINE
  5
A960D
  8
01
 10
356.9197043435447
 20
-914.4211643504856
 30
0.0
 11
356.9317578354644
 21
-914.4724931064285
 31
0.0
  0
LINE
  5
A960E
  8
01
 10
356.9317578354644
 20
-914.4724931064285
 30
0.0
 11
356.9455868130758
 21
-914.5233722498211
 31
0.0
  0
LINE
  5
A960F
  8
01
 10
356.9455868130758
 20
-914.5233722498211
 30
0.0
 11
356.9611745891393
 21
-914.5737403854974
 31
0.0
  0
LINE
  5
A9610
  8
01
 10
356.9611745891393
 20
-914.5737403854974
 30
0.0
 11
356.9785023541012
 21
-914.6235367349174
 31
0.0
  0
LINE
  5
A9611
  8
01
 10
356.9785023541012
 20
-914.6235367349174
 30
0.0
 11
356.997549198783
 21
-914.6727012095085
 31
0.0
  0
LINE
  5
A9612
  8
01
 10
356.997549198783
 20
-914.6727012095085
 30
0.0
 11
357.0182921396176
 21
-914.7211744831717
 31
0.0
  0
LINE
  5
A9613
  8
01
 10
357.0182921396176
 20
-914.7211744831717
 30
0.0
 11
357.0407061463843
 21
-914.7688980638715
 31
0.0
  0
LINE
  5
A9614
  8
01
 10
357.0407061463843
 20
-914.7688980638715
 30
0.0
 11
357.0647641724067
 21
-914.815814364216
 31
0.0
  0
LINE
  5
A9615
  8
01
 10
357.0647641724067
 20
-914.815814364216
 30
0.0
 11
357.0904371871934
 21
-914.861866770949
 31
0.0
  0
LINE
  5
A9616
  8
01
 10
357.0904371871934
 20
-914.861866770949
 30
0.0
 11
357.1176942114703
 21
-914.9069997132602
 31
0.0
  0
LINE
  5
A9617
  8
01
 10
357.1176942114703
 20
-914.9069997132602
 30
0.0
 11
357.1465023545593
 21
-914.9511587298472
 31
0.0
  0
LINE
  5
A9618
  8
01
 10
357.1465023545593
 20
-914.9511587298472
 30
0.0
 11
357.1768268540677
 21
-914.9942905346285
 31
0.0
  0
LINE
  5
A9619
  8
01
 10
357.2267436776879
 20
-915.0589995914116
 30
0.0
 11
357.2373451626431
 21
-915.0718449799066
 31
0.0
  0
LINE
  5
A961A
  8
01
 10
493.687398960084
 20
-892.10551217163
 30
0.0
 11
395.4002319437836
 21
-892.1075002848976
 31
0.0
  0
LINE
  5
A961B
  8
01
 10
494.6661604437054
 20
-892.9026979655247
 30
0.0
 11
494.6801756207801
 21
-892.987579212993
 31
0.0
  0
LINE
  5
A961C
  8
01
 10
494.614729148861
 20
-892.7322376589929
 30
0.0
 11
494.620458638427
 21
-892.7468999581539
 31
0.0
  0
LINE
  5
A961D
  8
01
 10
494.6256021764079
 20
-892.760666586808
 30
0.0
 11
494.6557712399931
 21
-892.8580076405616
 31
0.0
  0
LINE
  5
A961E
  8
01
 10
494.5797762778079
 20
-892.6545004725314
 30
0.0
 11
494.614375894394
 21
-892.7313551079034
 31
0.0
  0
LINE
  5
A961F
  8
01
 10
494.4947675230901
 20
-892.5152800718585
 30
0.0
 11
494.5576539330609
 21
-892.6129250611967
 31
0.0
  0
LINE
  5
A9620
  8
01
 10
494.6694615650017
 20
-894.1789610136494
 30
0.0
 11
494.6712458506649
 21
-894.0469588412008
 31
0.0
  0
LINE
  5
A9621
  8
01
 10
493.7090082125537
 20
-892.1119420202486
 30
0.0
 11
493.6873989621076
 21
-892.1055615028382
 31
0.0
  0
LINE
  5
A9622
  8
01
 10
494.4916534832005
 20
-892.517545273268
 30
0.0
 11
494.4076411851679
 21
-892.4188651593896
 31
0.0
  0
LINE
  5
A9623
  8
01
 10
494.4076118911257
 20
-892.4188349332636
 30
0.0
 11
494.3182750991023
 21
-892.3370650219796
 31
0.0
  0
LINE
  5
A9624
  8
01
 10
494.3113383102122
 20
-892.3314918813136
 30
0.0
 11
494.2043693222718
 21
-892.257229402691
 31
0.0
  0
LINE
  5
A9625
  8
01
 10
494.2043530165897
 20
-892.2572196192579
 30
0.0
 11
494.0886065506306
 21
-892.1977259769411
 31
0.0
  0
LINE
  5
A9626
  8
01
 10
494.0883897946828
 20
-892.1976315995972
 30
0.0
 11
493.965990804893
 21
-892.1532288171849
 31
0.0
  0
LINE
  5
A9627
  8
01
 10
493.9657502794812
 20
-892.15315830465
 30
0.0
 11
493.8398724772346
 21
-892.124816819122
 31
0.0
  0
LINE
  5
A9628
  8
01
 10
493.8398300180138
 20
-892.1248101156208
 30
0.0
 11
493.7126610783712
 21
-892.114399956186
 31
0.0
  0
LINE
  5
A9629
  8
01
 10
494.6805659916085
 20
-893.0036123704677
 30
0.0
 11
494.6804379962537
 21
-892.9929395392015
 31
0.0
  0
LINE
  5
A962A
  8
01
 10
494.6805835951559
 20
-893.0180070456955
 30
0.0
 11
494.6805669653263
 21
-893.0038119801521
 31
0.0
  0
LINE
  5
A962B
  8
01
 10
494.6805113250643
 20
-893.044411308275
 30
0.0
 11
494.6805795238474
 21
-893.0208078871552
 31
0.0
  0
LINE
  5
A962C
  8
01
 10
494.6803899752754
 20
-893.0754388915826
 30
0.0
 11
494.6805111140443
 21
-893.0444713459616
 31
0.0
  0
LINE
  5
A962D
  8
01
 10
494.6801920823068
 20
-893.1158880316876
 30
0.0
 11
494.6803893827441
 21
-893.0755752903134
 31
0.0
  0
LINE
  5
A962E
  8
01
 10
494.6798844794052
 20
-893.167428113845
 30
0.0
 11
494.6801790330533
 21
-893.1182872845858
 31
0.0
  0
LINE
  5
A962F
  8
01
 10
494.6794317873814
 20
-893.2322189366006
 30
0.0
 11
494.6798843398606
 21
-893.1674496696311
 31
0.0
  0
LINE
  5
A9630
  8
01
 10
494.6788712692537
 20
-893.3037663355627
 30
0.0
 11
494.6794316590481
 21
-893.2322361699677
 31
0.0
  0
LINE
  5
A9631
  8
01
 10
494.6780026750807
 20
-893.4056140175745
 30
0.0
 11
494.678805438069
 21
-893.3117939865134
 31
0.0
  0
LINE
  5
A9632
  8
01
 10
494.6770263674694
 20
-893.512716867294
 30
0.0
 11
494.6779612665746
 21
-893.4102888281542
 31
0.0
  0
LINE
  5
A9633
  8
01
 10
494.6758796639601
 20
-893.6320873693813
 30
0.0
 11
494.6770262809182
 21
-893.5127261094559
 31
0.0
  0
LINE
  5
A9634
  8
01
 10
494.6745605487044
 20
-893.7622497484209
 30
0.0
 11
494.6758795909959
 21
-893.6320947891364
 31
0.0
  0
LINE
  5
A9635
  8
01
 10
494.6730469096042
 20
-893.8998304765465
 30
0.0
 11
494.6745604937537
 21
-893.7622549837475
 31
0.0
  0
LINE
  5
A9636
  8
01
 10
494.6713228604535
 20
-894.0409825262142
 30
0.0
 11
494.6730422904116
 21
-893.9002296390873
 31
0.0
  0
LINE
  5
A9637
  8
01
 10
391.9002307876904
 20
-888.6075908454987
 30
0.0
 11
391.9037819020864
 21
-888.818795418572
 31
0.0
  0
LINE
  5
A9638
  8
01
 10
391.9037819020864
 20
-888.818795418572
 30
0.0
 11
391.9082159512004
 21
-888.922032230064
 31
0.0
  0
LINE
  5
A9639
  8
01
 10
391.9082159512004
 20
-888.922032230064
 30
0.0
 11
391.9144180337994
 21
-889.0236877647668
 31
0.0
  0
LINE
  5
A963A
  8
01
 10
391.9144180337994
 20
-889.0236877647668
 30
0.0
 11
391.9223849290406
 21
-889.1237588026107
 31
0.0
  0
LINE
  5
A963B
  8
01
 10
391.9223849290406
 20
-889.1237588026107
 30
0.0
 11
391.9321134160778
 21
-889.2222421235257
 31
0.0
  0
LINE
  5
A963C
  8
01
 10
391.9321134160778
 20
-889.2222421235257
 30
0.0
 11
391.9436002740681
 21
-889.3191345074421
 31
0.0
  0
LINE
  5
A963D
  8
01
 10
391.9436002740681
 20
-889.3191345074421
 30
0.0
 11
391.9568422821671
 21
-889.4144327342902
 31
0.0
  0
LINE
  5
A963E
  8
01
 10
391.9568422821671
 20
-889.4144327342902
 30
0.0
 11
391.9718362195313
 21
-889.5081335840001
 31
0.0
  0
LINE
  5
A963F
  8
01
 10
391.9718362195313
 20
-889.5081335840001
 30
0.0
 11
391.988578865316
 21
-889.6002338365025
 31
0.0
  0
LINE
  5
A9640
  8
01
 10
391.988578865316
 20
-889.6002338365025
 30
0.0
 11
392.0070669986776
 21
-889.6907302717274
 31
0.0
  0
LINE
  5
A9641
  8
01
 10
392.0070669986776
 20
-889.6907302717274
 30
0.0
 11
392.0272973987708
 21
-889.779619669605
 31
0.0
  0
LINE
  5
A9642
  8
01
 10
392.0272973987708
 20
-889.779619669605
 30
0.0
 11
392.0492668447528
 21
-889.8668988100654
 31
0.0
  0
LINE
  5
A9643
  8
01
 10
392.0492668447528
 20
-889.8668988100654
 30
0.0
 11
392.0729721157791
 21
-889.9525644730394
 31
0.0
  0
LINE
  5
A9644
  8
01
 10
392.0729721157791
 20
-889.9525644730394
 30
0.0
 11
392.0984099910052
 21
-890.0366134384568
 31
0.0
  0
LINE
  5
A9645
  8
01
 10
392.0984099910052
 20
-890.0366134384568
 30
0.0
 11
392.1255772495874
 21
-890.1190424862481
 31
0.0
  0
LINE
  5
A9646
  8
01
 10
392.1255772495874
 20
-890.1190424862481
 30
0.0
 11
392.1544706706823
 21
-890.1998483963431
 31
0.0
  0
LINE
  5
A9647
  8
01
 10
392.1544706706823
 20
-890.1998483963431
 30
0.0
 11
392.1850870334442
 21
-890.2790279486727
 31
0.0
  0
LINE
  5
A9648
  8
01
 10
392.1850870334442
 20
-890.2790279486727
 30
0.0
 11
392.2174231170297
 21
-890.3565779231668
 31
0.0
  0
LINE
  5
A9649
  8
01
 10
392.2174231170297
 20
-890.3565779231668
 30
0.0
 11
392.2514757005952
 21
-890.4324950997562
 31
0.0
  0
LINE
  5
A964A
  8
01
 10
392.2514757005952
 20
-890.4324950997562
 30
0.0
 11
392.287241563296
 21
-890.5067762583705
 31
0.0
  0
LINE
  5
A964B
  8
01
 10
392.287241563296
 20
-890.5067762583705
 30
0.0
 11
392.3247174842877
 21
-890.5794181789398
 31
0.0
  0
LINE
  5
A964C
  8
01
 10
392.3247174842877
 20
-890.5794181789398
 30
0.0
 11
392.3639002427276
 21
-890.6504176413947
 31
0.0
  0
LINE
  5
A964D
  8
01
 10
392.3639002427276
 20
-890.6504176413947
 30
0.0
 11
392.4047866177702
 21
-890.7197714256655
 31
0.0
  0
LINE
  5
A964E
  8
01
 10
392.4047866177702
 20
-890.7197714256655
 30
0.0
 11
392.447373388572
 21
-890.787476311683
 31
0.0
  0
LINE
  5
A964F
  8
01
 10
392.447373388572
 20
-890.787476311683
 30
0.0
 11
392.4916573342884
 21
-890.8535290793762
 31
0.0
  0
LINE
  5
A9650
  8
01
 10
392.4916573342884
 20
-890.8535290793762
 30
0.0
 11
392.5376352340759
 21
-890.9179265086765
 31
0.0
  0
LINE
  5
A9651
  8
01
 10
392.5376352340759
 20
-890.9179265086765
 30
0.0
 11
392.5853038670907
 21
-890.9806653795132
 31
0.0
  0
LINE
  5
A9652
  8
01
 10
392.5853038670907
 20
-890.9806653795132
 30
0.0
 11
392.6346600124875
 21
-891.0417424718177
 31
0.0
  0
LINE
  5
A9653
  8
01
 10
392.6346600124875
 20
-891.0417424718177
 30
0.0
 11
392.6857004494227
 21
-891.1011545655193
 31
0.0
  0
LINE
  5
A9654
  8
01
 10
392.6857004494227
 20
-891.1011545655193
 30
0.0
 11
392.7384219570536
 21
-891.1588984405486
 31
0.0
  0
LINE
  5
A9655
  8
01
 10
392.7384219570536
 20
-891.1588984405486
 30
0.0
 11
392.7928213145337
 21
-891.2149708768358
 31
0.0
  0
LINE
  5
A9656
  8
01
 10
392.7928213145337
 20
-891.2149708768358
 30
0.0
 11
392.8488953010205
 21
-891.2693686543113
 31
0.0
  0
LINE
  5
A9657
  8
01
 10
392.8488953010205
 20
-891.2693686543113
 30
0.0
 11
392.9066406956695
 21
-891.322088552905
 31
0.0
  0
LINE
  5
A9658
  8
01
 10
392.9066406956695
 20
-891.322088552905
 30
0.0
 11
392.966054277636
 21
-891.3731273525478
 31
0.0
  0
LINE
  5
A9659
  8
01
 10
392.966054277636
 20
-891.3731273525478
 30
0.0
 11
393.0271328260765
 21
-891.4224818331696
 31
0.0
  0
LINE
  5
A965A
  8
01
 10
393.0271328260765
 20
-891.4224818331696
 30
0.0
 11
393.0898731201473
 21
-891.4701487747008
 31
0.0
  0
LINE
  5
A965B
  8
01
 10
393.0898731201473
 20
-891.4701487747008
 30
0.0
 11
393.154271939004
 21
-891.5161249570712
 31
0.0
  0
LINE
  5
A965C
  8
01
 10
393.154271939004
 20
-891.5161249570712
 30
0.0
 11
393.2203260618021
 21
-891.5604071602112
 31
0.0
  0
LINE
  5
A965D
  8
01
 10
393.2203260618021
 20
-891.5604071602112
 30
0.0
 11
393.2880322676979
 21
-891.6029921640512
 31
0.0
  0
LINE
  5
A965E
  8
01
 10
393.2880322676979
 20
-891.6029921640512
 30
0.0
 11
393.3573873358469
 21
-891.6438767485216
 31
0.0
  0
LINE
  5
A965F
  8
01
 10
393.3573873358469
 20
-891.6438767485216
 30
0.0
 11
393.4283880454045
 21
-891.6830576935528
 31
0.0
  0
LINE
  5
A9660
  8
01
 10
393.4283880454045
 20
-891.6830576935528
 30
0.0
 11
393.5010311755282
 21
-891.7205317790746
 31
0.0
  0
LINE
  5
A9661
  8
01
 10
393.5010311755282
 20
-891.7205317790746
 30
0.0
 11
393.5753135053733
 21
-891.7562957850174
 31
0.0
  0
LINE
  5
A9662
  8
01
 10
393.5753135053733
 20
-891.7562957850174
 30
0.0
 11
393.6512318140954
 21
-891.7903464913117
 31
0.0
  0
LINE
  5
A9663
  8
01
 10
393.6512318140954
 20
-891.7903464913117
 30
0.0
 11
393.7287828808498
 21
-891.8226806778877
 31
0.0
  0
LINE
  5
A9664
  8
01
 10
393.7287828808498
 20
-891.8226806778877
 30
0.0
 11
393.8079634847932
 21
-891.8532951246754
 31
0.0
  0
LINE
  5
A9665
  8
01
 10
393.8079634847932
 20
-891.8532951246754
 30
0.0
 11
393.8887704050808
 21
-891.8821866116051
 31
0.0
  0
LINE
  5
A9666
  8
01
 10
393.8887704050808
 20
-891.8821866116051
 30
0.0
 11
393.97120042087
 21
-891.9093519186073
 31
0.0
  0
LINE
  5
A9667
  8
01
 10
393.97120042087
 20
-891.9093519186073
 30
0.0
 11
394.0552503113154
 21
-891.9347878256118
 31
0.0
  0
LINE
  5
A9668
  8
01
 10
394.0552503113154
 20
-891.9347878256118
 30
0.0
 11
394.1409168555724
 21
-891.9584911125495
 31
0.0
  0
LINE
  5
A9669
  8
01
 10
394.1409168555724
 20
-891.9584911125495
 30
0.0
 11
394.2281968327984
 21
-891.9804585593503
 31
0.0
  0
LINE
  5
A966A
  8
01
 10
394.2281968327984
 20
-891.9804585593503
 30
0.0
 11
394.3170870221488
 21
-892.000686945944
 31
0.0
  0
LINE
  5
A966B
  8
01
 10
394.3170870221488
 20
-892.000686945944
 30
0.0
 11
394.4075842027792
 21
-892.0191730522621
 31
0.0
  0
LINE
  5
A966C
  8
01
 10
394.4075842027792
 20
-892.0191730522621
 30
0.0
 11
394.4996851538458
 21
-892.0359136582339
 31
0.0
  0
LINE
  5
A966D
  8
01
 10
394.4996851538458
 20
-892.0359136582339
 30
0.0
 11
394.5933866545033
 21
-892.0509055437898
 31
0.0
  0
LINE
  5
A966E
  8
01
 10
394.5933866545033
 20
-892.0509055437898
 30
0.0
 11
394.688685483909
 21
-892.0641454888602
 31
0.0
  0
LINE
  5
A966F
  8
01
 10
394.688685483909
 20
-892.0641454888602
 30
0.0
 11
394.7855784212193
 21
-892.0756302733749
 31
0.0
  0
LINE
  5
A9670
  8
01
 10
394.7855784212193
 20
-892.0756302733749
 30
0.0
 11
394.8840622455878
 21
-892.0853566772649
 31
0.0
  0
LINE
  5
A9671
  8
01
 10
394.8840622455878
 20
-892.0853566772649
 30
0.0
 11
394.9841337361727
 21
-892.0933214804601
 31
0.0
  0
LINE
  5
A9672
  8
01
 10
394.9841337361727
 20
-892.0933214804601
 30
0.0
 11
395.0857896721286
 21
-892.0995214628903
 31
0.0
  0
LINE
  5
A9673
  8
01
 10
395.0857896721286
 20
-892.0995214628903
 30
0.0
 11
395.1890268326119
 21
-892.1039534044868
 31
0.0
  0
LINE
  5
A9674
  8
01
 10
395.1890268326119
 20
-892.1039534044868
 30
0.0
 11
395.4002319437836
 21
-892.1075002848976
 31
0.0
  0
LINE
  5
A9675
  8
01
 10
374.1501894864718
 20
-859.9075661590665
 30
0.0
 11
384.1402462967458
 21
-859.9077302381253
 31
0.0
  0
LINE
  5
A9676
  8
01
 10
494.678730418429
 20
-983.4760319568675
 30
0.0
 11
494.677271809056
 21
-983.5039748091122
 31
0.0
  0
LINE
  5
A9677
  8
01
 10
494.6802349109194
 20
-983.4281917993994
 30
0.0
 11
494.6788753895044
 21
-983.4723671902366
 31
0.0
  0
LINE
  5
A9678
  8
01
 10
494.6816803156848
 20
-983.3564360715463
 30
0.0
 11
494.6814350590776
 21
-983.3707082328217
 31
0.0
  0
LINE
  5
A9679
  8
01
 10
494.6829247970181
 20
-983.2683897958468
 30
0.0
 11
494.6816803156848
 21
-983.3564360715463
 31
0.0
  0
LINE
  5
A967A
  8
01
 10
494.6839973922415
 20
-983.1661230108514
 30
0.0
 11
494.6829247970181
 21
-983.2683897958468
 31
0.0
  0
LINE
  5
A967B
  8
01
 10
494.6848860255509
 20
-983.053358641426
 30
0.0
 11
494.6839973922415
 21
-983.1661230108514
 31
0.0
  0
LINE
  5
A967C
  8
01
 10
390.5045931416444
 20
-984.1591852234474
 30
0.0
 11
390.3974955522849
 21
-984.1750377488261
 31
0.0
  0
LINE
  5
A967D
  8
01
 10
390.4822802868107
 20
-965.1520518124714
 30
0.0
 11
390.5046836692668
 21
-965.1545029133906
 31
0.0
  0
LINE
  5
A967E
  8
01
 10
390.3966262397403
 20
-965.1386795734643
 30
0.0
 11
390.3958026242476
 21
-965.138445931756
 31
0.0
  0
LINE
  5
A967F
  8
01
 10
390.3958026242476
 20
-965.138445931756
 30
0.0
 11
390.3956808692164
 21
-965.1384070543745
 31
0.0
  0
LINE
  5
A9680
  8
01
 10
390.3956808692164
 20
-965.1384070543745
 30
0.0
 11
390.3956324189649
 21
-965.1383904690488
 31
0.0
  0
LINE
  5
A9681
  8
01
 10
390.3956324189649
 20
-965.1383904690488
 30
0.0
 11
390.3955922062682
 21
-965.1383757673989
 31
0.0
  0
LINE
  5
A9682
  8
01
 10
390.3955922062682
 20
-965.1383757673989
 30
0.0
 11
390.3955751779204
 21
-965.1383691186004
 31
0.0
  0
LINE
  5
A9683
  8
01
 10
390.3955751779204
 20
-965.1383691186004
 30
0.0
 11
390.3955601956613
 21
-965.1383629354987
 31
0.0
  0
LINE
  5
A9684
  8
01
 10
390.3955601956613
 20
-965.1383629354987
 30
0.0
 11
390.3955472550583
 21
-965.1383572163531
 31
0.0
  0
LINE
  5
A9685
  8
01
 10
390.3955472550583
 20
-965.1383572163531
 30
0.0
 11
390.3955363516775
 21
-965.1383519594228
 31
0.0
  0
LINE
  5
A9686
  8
01
 10
390.3955363516775
 20
-965.1383519594228
 30
0.0
 11
390.3955274810864
 21
-965.138347162967
 31
0.0
  0
LINE
  5
A9687
  8
01
 10
390.3955274810864
 20
-965.138347162967
 30
0.0
 11
390.3955206388518
 21
-965.1383428252452
 31
0.0
  0
LINE
  5
A9688
  8
01
 10
390.3955206388518
 20
-965.1383428252452
 30
0.0
 11
390.3955158205399
 21
-965.1383389445164
 31
0.0
  0
LINE
  5
A9689
  8
01
 10
390.3955158205399
 20
-965.1383389445164
 30
0.0
 11
390.3955130217173
 21
-965.1383355190401
 31
0.0
  0
LINE
  5
A968A
  8
01
 10
390.3955130217173
 20
-965.1383355190401
 30
0.0
 11
390.3955122379516
 21
-965.1383325470754
 31
0.0
  0
LINE
  5
A968B
  8
01
 10
390.3955122379516
 20
-965.1383325470754
 30
0.0
 11
390.395513464809
 21
-965.1383300268817
 31
0.0
  0
LINE
  5
A968C
  8
01
 10
390.395513464809
 20
-965.1383300268817
 30
0.0
 11
390.3955166978567
 21
-965.1383279567185
 31
0.0
  0
LINE
  5
A968D
  8
01
 10
390.3955166978567
 20
-965.1383279567185
 30
0.0
 11
390.3955219326613
 21
-965.1383263348446
 31
0.0
  0
LINE
  5
A968E
  8
01
 10
390.3955219326613
 20
-965.1383263348446
 30
0.0
 11
390.3955291647894
 21
-965.1383251595196
 31
0.0
  0
LINE
  5
A968F
  8
01
 10
390.3955291647894
 20
-965.1383251595196
 30
0.0
 11
390.3955383898074
 21
-965.1383244290025
 31
0.0
  0
LINE
  5
A9690
  8
01
 10
390.3955383898074
 20
-965.1383244290025
 30
0.0
 11
390.3955496032831
 21
-965.1383241415531
 31
0.0
  0
LINE
  5
A9691
  8
01
 10
390.3955496032831
 20
-965.1383241415531
 30
0.0
 11
390.3955628007825
 21
-965.13832429543
 31
0.0
  0
LINE
  5
A9692
  8
01
 10
390.3955628007825
 20
-965.13832429543
 30
0.0
 11
390.3955779778726
 21
-965.1383248888931
 31
0.0
  0
LINE
  5
A9693
  8
01
 10
390.3955779778726
 20
-965.1383248888931
 30
0.0
 11
390.39559513012
 21
-965.1383259202012
 31
0.0
  0
LINE
  5
A9694
  8
01
 10
390.39559513012
 20
-965.1383259202012
 30
0.0
 11
390.3956353423546
 21
-965.1383292893904
 31
0.0
  0
LINE
  5
A9695
  8
01
 10
390.3956353423546
 20
-965.1383292893904
 30
0.0
 11
390.3957392736515
 21
-965.1383412053192
 31
0.0
  0
LINE
  5
A9696
  8
01
 10
390.3957392736515
 20
-965.1383412053192
 30
0.0
 11
390.3960401705117
 21
-965.1383853574575
 31
0.0
  0
LINE
  5
A9697
  8
01
 10
390.3960401705117
 20
-965.1383853574575
 30
0.0
 11
390.3964632215516
 21
-965.138455860596
 31
0.0
  0
LINE
  5
A9698
  8
01
 10
390.3964632215516
 20
-965.138455860596
 30
0.0
 11
390.4039728028561
 21
-965.1398615717326
 31
0.0
  0
LINE
  5
A9699
  8
01
 10
390.4039728028561
 20
-965.1398615717326
 30
0.0
 11
390.437361188473
 21
-965.1457359866963
 31
0.0
  0
ARC
  5
A969A
  8
01
 10
389.9006488474556
 20
-983.1548680155224
 30
0.0
 40
1.999541437128974
 50
314.9927356041902
 51
332.3521424912572
  0
ARC
  5
A969B
  8
01
 10
389.9002998753399
 20
-983.1545069827816
 30
0.0
 40
2.000043487473945
 50
291.5929059168752
 51
314.9924896840423
  0
ARC
  5
A969C
  8
01
 10
389.9001499128935
 20
-983.1541535275614
 30
0.0
 40
2.000427325605884
 50
269.9998684059877
 51
291.5927750511196
  0
ARC
  5
A969D
  8
01
 10
389.9006490612492
 20
-966.1588104253069
 30
0.0
 40
1.999541162847768
 50
27.62482594898934
 51
45.00726520097295
  0
ARC
  5
A969E
  8
01
 10
389.9002998753217
 20
-966.1591716321843
 30
0.0
 40
2.000043487511119
 50
45.00751344294556
 51
68.40709408298167
  0
ARC
  5
A969F
  8
01
 10
389.900149912969
 20
-966.159525086734
 30
0.0
 40
2.000427324968091
 50
68.40710342502237
 51
90.00013159984857
  0
LINE
  5
A96A0
  8
01
 10
494.1736681629936
 20
-979.4081275552553
 30
0.0
 11
494.3872784223013
 21
-979.4081275552553
 31
0.0
  0
LINE
  5
A96A1
  8
01
 10
494.3872784223013
 20
-969.9081275552567
 30
0.0
 11
494.1736681629936
 21
-969.9081275552567
 31
0.0
  0
LINE
  5
A96A2
  8
01
 10
359.0518325576363
 20
-979.3181589746173
 30
0.0
 11
358.0518326399119
 21
-978.3184457643022
 31
0.0
  0
LINE
  5
A96A3
  8
01
 10
358.0558788912226
 20
-971.3138270937113
 30
0.0
 11
359.0518325576368
 21
-970.3181589746173
 31
0.0
  0
LINE
  5
A96A4
  8
01
 10
493.0524060548328
 20
-978.3184457643019
 30
0.0
 11
492.0524061371079
 21
-979.3181589746173
 31
0.0
  0
LINE
  5
A96A5
  8
01
 10
492.0524061371079
 20
-970.3181589746173
 30
0.0
 11
493.0524060548332
 21
-971.3178721849322
 31
0.0
  0
LINE
  5
A96A6
  8
01
 10
362.0521193473724
 20
-970.3181589746173
 30
0.0
 11
362.0521193473724
 21
-970.3181589746173
 31
0.0
  0
ARC
  5
A96A7
  8
01
 10
494.1748896514505
 20
-983.5187779125126
 30
0.0
 40
0.4988239070437581
 50
269.8695479730522
 51
359.9297961544264
  0
ARC
  5
A96A8
  8
01
 10
394.0565294669391
 20
-1016.841664730809
 30
0.0
 40
32.85100438646215
 50
87.65453624041663
 51
97.26867043578079
  0
ARC
  5
A96A9
  8
01
 10
394.0563033282792
 20
-932.4712092338195
 30
0.0
 40
32.85248559956982
 50
262.7320566719112
 51
272.34575274096
  0
LINE
  5
A96AA
  8
01
 10
494.6872539798383
 20
-982.019601432841
 30
0.0
 11
494.6872539798383
 21
-979.7081275560281
 31
0.0
  0
LINE
  5
A96AB
  8
01
 10
494.6872539798383
 20
-969.6081275552567
 30
0.0
 11
494.6872539798383
 21
-967.2940771820922
 31
0.0
  0
LINE
  5
A96AC
  8
01
 10
494.6814477121784
 20
-983.3707084576342
 30
0.0
 11
494.6802026896139
 21
-983.4281909927827
 31
0.0
  0
LINE
  5
A96AD
  8
01
 10
494.6872539798383
 20
-982.021452203328
 30
0.0
 11
494.6848790525642
 21
-983.0533585910784
 31
0.0
  0
LINE
  5
A96AE
  8
01
 10
494.4190592524319
 20
-982.4869846544616
 30
0.0
 11
494.4190592524319
 21
-979.7081275562214
 31
0.0
  0
ARC
  5
A96AF
  8
01
 10
511.4109185392845
 20
-978.8229735891925
 30
0.0
 40
17.38362338232713
 50
192.1870559140037
 51
195.6739791338388
  0
LINE
  5
A96B0
  8
01
 10
494.6872539798383
 20
-967.2940771820922
 30
0.0
 11
494.6769938456328
 21
-965.8085855700585
 31
0.0
  0
LINE
  5
A96B1
  8
01
 10
395.4009447608387
 20
-984.0181817237167
 30
0.0
 11
494.1737539214873
 21
-984.017600526631
 31
0.0
  0
LINE
  5
A96B2
  8
01
 10
395.4009447987555
 20
-965.2961654315941
 30
0.0
 11
494.1737539214873
 21
-965.2960780883018
 31
0.0
  0
LINE
  5
A96B3
  8
01
 10
492.919181464747
 20
-982.9332941882708
 30
0.0
 11
493.9190999898779
 21
-982.9910242373257
 31
0.0
  0
ARC
  5
A96B4
  8
01
 10
493.919786585026
 20
-982.491751090954
 30
0.0
 40
0.4992736184706745
 50
269.9212074998954
 51
359.8881661135589
  0
LINE
  5
A96B5
  8
01
 10
494.4190592524319
 20
-982.4927256073001
 30
0.0
 11
492.9191814647465
 21
-982.4341559585107
 31
0.0
  0
ARC
  5
A96B6
  8
01
 10
493.9190540237082
 20
-966.8226603241351
 30
0.0
 40
0.500005948640294
 50
0.097227957176211
 51
89.99473272761396
  0
LINE
  5
A96B7
  8
01
 10
493.9190999898779
 20
-966.3226543776077
 30
0.0
 11
492.9191814647465
 21
-966.3803844266627
 31
0.0
  0
LINE
  5
A96B8
  8
01
 10
494.4190592524319
 20
-966.8218118404588
 30
0.0
 11
492.9191814647465
 21
-966.8795226564228
 31
0.0
  0
LINE
  5
A96B9
  8
01
 10
358.3866926752207
 20
-966.3803844266627
 30
0.0
 11
357.3867332538225
 21
-966.3224358014172
 31
0.0
  0
ARC
  5
A96BA
  8
01
 10
357.3866375107132
 20
-966.8223202884672
 30
0.0
 40
0.4998844962187021
 50
89.98902611268404
 51
179.9166685179092
  0
LINE
  5
A96BB
  8
01
 10
358.3866926752207
 20
-966.8795226564228
 30
0.0
 11
356.8867535431982
 21
-966.8215932523467
 31
0.0
  0
LINE
  5
A96BC
  8
01
 10
358.3866926752203
 20
-982.9332941882708
 30
0.0
 11
357.3867332538221
 21
-982.991242813516
 31
0.0
  0
ARC
  5
A96BD
  8
01
 10
357.3866375107036
 20
-982.4913583264752
 30
0.0
 40
0.4998844962098721
 50
180.0833314822471
 51
270.010973888306
  0
LINE
  5
A96BE
  8
01
 10
358.3866926752203
 20
-982.4341559585107
 30
0.0
 11
356.8867535431978
 21
-982.492085362597
 31
0.0
  0
ARC
  5
A96BF
  8
01
 10
494.3872661999121
 20
-979.7081153351817
 30
0.0
 40
0.2999877801753791
 50
359.997665895187
 51
89.99766560056901
  0
LINE
  5
A96C0
  8
01
 10
494.1190836948949
 20
-979.4081275552553
 30
0.0
 11
492.9191814647465
 21
-979.4081275552553
 31
0.0
  0
LINE
  5
A96C1
  8
01
 10
492.9191814647465
 20
-979.7081275552553
 30
0.0
 11
494.4190592524319
 21
-979.7081275562214
 31
0.0
  0
LINE
  5
A96C2
  8
01
 10
357.1867413696027
 20
-979.4081275552553
 30
0.0
 11
358.3866926752207
 21
-979.4081275552553
 31
0.0
  0
LINE
  5
A96C3
  8
01
 10
356.8867535431982
 20
-979.708127555255
 30
0.0
 11
358.3866926752207
 21
-979.7081275552553
 31
0.0
  0
ARC
  5
A96C4
  8
01
 10
357.1867474565247
 20
-969.6081336419311
 30
0.0
 40
0.2999939133874631
 50
179.9988375072565
 51
269.9988374600837
  0
LINE
  5
A96C5
  8
01
 10
357.1867413696032
 20
-969.9081275552567
 30
0.0
 11
358.3866926752216
 21
-969.9081275552567
 31
0.0
  0
LINE
  5
A96C6
  8
01
 10
358.3866926752212
 20
-969.6081275552567
 30
0.0
 11
358.3866926752216
 21
-969.9081275552567
 31
0.0
  0
LINE
  5
A96C7
  8
01
 10
356.8867535431987
 20
-969.6081275552567
 30
0.0
 11
358.3866926752212
 21
-969.6081275552567
 31
0.0
  0
LINE
  5
A96C8
  8
01
 10
492.9191814647465
 20
-969.9081275552567
 30
0.0
 11
494.1190836948949
 21
-969.9081275552567
 31
0.0
  0
LINE
  5
A96C9
  8
01
 10
492.9191814647465
 20
-969.6081275552567
 30
0.0
 11
494.4190592524319
 21
-969.6081275552567
 31
0.0
  0
ARC
  5
A96CA
  8
01
 10
494.3872662005715
 20
-969.6081397759899
 30
0.0
 40
0.2999877795156335
 50
270.0023342734806
 51
0.0023340832262631
  0
LINE
  5
A96CB
  8
01
 10
389.9001453149608
 20
-985.1563329670896
 30
0.0
 11
389.9001475541963
 21
-984.2546590185334
 31
0.0
  0
ARC
  5
A96CC
  8
01
 10
389.8997873749704
 20
-982.2532752287957
 30
0.0
 40
2.001383251963549
 50
270.0103107545548
 51
287.1988797677278
  0
LINE
  5
A96CD
  8
01
 10
389.9001453148348
 20
-964.1581275552096
 30
0.0
 11
389.9001475539922
 21
-965.0597375720217
 31
0.0
  0
ARC
  5
A96CE
  8
01
 10
389.9001557154338
 20
-967.0612958341717
 30
0.0
 40
2.001558262166652
 50
72.81961374569208
 51
90.00023362605985
  0
ARC
  5
A96CF
  8
01
 10
356.9019919606803
 20
-984.6546329220259
 30
0.0
 40
0.501847442611656
 50
180.1023189022072
 51
269.7801596620617
  0
ARC
  5
A96D0
  8
01
 10
345.9749919701421
 20
-981.1742259606754
 30
0.0
 40
10.99105518275871
 50
341.5341320940666
 51
353.1135012421129
  0
ARC
  5
A96D1
  8
01
 10
345.9749919610122
 20
-968.1394526563076
 30
0.0
 40
10.99105519206789
 50
6.886498762741642
 51
18.46586790098765
  0
ARC
  5
A96D2
  8
01
 10
346.470047729189
 20
-967.640293584747
 30
0.0
 40
10.99594343295876
 50
6.883414050040969
 51
18.46210253254556
  0
LINE
  5
A96D3
  8
01
 10
358.3866926752207
 20
-966.8795226564228
 30
0.0
 11
358.3866926752207
 21
-966.3803844266627
 31
0.0
  0
ARC
  5
A96D4
  8
01
 10
494.1737917021092
 20
-965.795999746919
 30
0.0
 40
0.499921660044814
 50
0.0483646681559844
 51
90.00433001875665
  0
ARC
  5
A96D5
  8
01
 10
510.9011708842627
 20
-969.9903772814232
 30
0.0
 40
17.37362723098088
 50
164.3240196352307
 51
167.8126704190974
  0
ARC
  5
A96D6
  8
01
 10
511.39054891672
 20
-970.4884743445446
 30
0.0
 40
17.36306065599909
 50
164.3190415090113
 51
167.8087195284989
  0
ARC
  5
A96D7
  8
01
 10
510.901170883938
 20
-979.3233013335839
 30
0.0
 40
17.37362723064832
 50
192.1873295808756
 51
195.6759803648102
  0
LINE
  5
A96D8
  8
01
 10
494.4190592524319
 20
-966.8274151017208
 30
0.0
 11
494.4190592524319
 21
-969.6081275552567
 31
0.0
  0
LINE
  5
A96D9
  8
01
 10
356.7001574923761
 20
-969.9081275552567
 30
0.0
 11
357.1321546690242
 21
-969.9081275552567
 31
0.0
  0
ARC
  5
A96DA
  8
01
 10
357.1867474565238
 20
-979.7081214685809
 30
0.0
 40
0.2999939133873387
 50
90.00116253989019
 51
180.0011624927435
  0
LINE
  5
A96DB
  8
01
 10
357.1321546690237
 20
-979.4081275552553
 30
0.0
 11
356.7001574923761
 21
-979.4081275552558
 31
0.0
  0
ARC
  5
A96DC
  8
01
 10
494.1190714723411
 20
-979.7081153353461
 30
0.0
 40
0.2999877803399136
 50
359.9976658896894
 51
89.99766556904233
  0
LINE
  5
A96DD
  8
01
 10
494.4190592524319
 20
-979.7081275562214
 30
0.0
 11
494.6872539798383
 21
-979.7081275560281
 31
0.0
  0
LINE
  5
A96DE
  8
01
 10
494.6872539798383
 20
-969.6081275552567
 30
0.0
 11
494.4190592524319
 21
-969.6081275552567
 31
0.0
  0
ARC
  5
A96DF
  8
01
 10
494.1190714731661
 20
-969.6081397759906
 30
0.0
 40
0.2999877795150722
 50
270.0023342734285
 51
0.0023340833304835
  0
ARC
  5
A96E0
  8
01
 10
346.456416134236
 20
-981.6718094369276
 30
0.0
 40
11.00966560663756
 50
341.5480159183482
 51
353.1169476511673
  0
LINE
  5
A96E1
  8
01
 10
358.3866926752203
 20
-982.9332941882708
 30
0.0
 11
492.919181464747
 21
-982.9332941882708
 31
0.0
  0
LINE
  5
A96E2
  8
01
 10
492.9191814647465
 20
-969.6081275552567
 30
0.0
 11
358.3866926752212
 21
-969.6081275552567
 31
0.0
  0
LINE
  5
A96E3
  8
01
 10
492.9191814647465
 20
-966.8795226564228
 30
0.0
 11
358.3866926752207
 21
-966.8795226564228
 31
0.0
  0
LINE
  5
A96E4
  8
01
 10
358.3866926752203
 20
-982.4341559585107
 30
0.0
 11
492.9191814647465
 21
-982.4341559585107
 31
0.0
  0
LINE
  5
A96E5
  8
01
 10
492.9191814647465
 20
-979.7081275552553
 30
0.0
 11
358.3866926752207
 21
-979.7081275552553
 31
0.0
  0
LINE
  5
A96E6
  8
01
 10
492.9191814647465
 20
-966.3803844266627
 30
0.0
 11
358.3866926752207
 21
-966.3803844266627
 31
0.0
  0
LINE
  5
A96E7
  8
01
 10
374.1500765489859
 20
-985.1031845856189
 30
0.0
 11
371.9580477566324
 21
-985.0805065704842
 31
0.0
  0
LINE
  5
A96E8
  8
01
 10
371.9580477566324
 20
-985.0805065704842
 30
0.0
 11
371.5708921560549
 21
-985.0687130129238
 31
0.0
  0
LINE
  5
A96E9
  8
01
 10
371.5708921560549
 20
-985.0687130129238
 30
0.0
 11
371.2860304934738
 21
-985.0553859869128
 31
0.0
  0
LINE
  5
A96EA
  8
01
 10
371.2860304934738
 20
-985.0553859869128
 30
0.0
 11
371.1840601941653
 21
-985.0482743989394
 31
0.0
  0
LINE
  5
A96EB
  8
01
 10
371.1840601941653
 20
-985.0482743989394
 30
0.0
 11
371.1435577309221
 21
-985.0446288069581
 31
0.0
  0
LINE
  5
A96EC
  8
01
 10
371.1435577309221
 20
-985.0446288069581
 30
0.0
 11
371.1101837456354
 21
-985.040931814694
 31
0.0
  0
LINE
  5
A96ED
  8
01
 10
371.1101837456354
 20
-985.040931814694
 30
0.0
 11
371.0962027494952
 21
-985.0390660274511
 31
0.0
  0
LINE
  5
A96EE
  8
01
 10
371.0962027494952
 20
-985.0390660274511
 30
0.0
 11
371.084043253567
 21
-985.0371897709322
 31
0.0
  0
LINE
  5
A96EF
  8
01
 10
371.084043253567
 20
-985.0371897709322
 30
0.0
 11
371.0737183847586
 21
-985.0353038387348
 31
0.0
  0
LINE
  5
A96F0
  8
01
 10
371.0737183847586
 20
-985.0353038387348
 30
0.0
 11
371.0692480376829
 21
-985.0343574922563
 31
0.0
  0
LINE
  5
A96F1
  8
01
 10
371.0692480376829
 20
-985.0343574922563
 30
0.0
 11
371.0652412699778
 21
-985.0334090244573
 31
0.0
  0
LINE
  5
A96F2
  8
01
 10
371.0652412699778
 20
-985.0334090244573
 30
0.0
 11
371.0616997225065
 21
-985.0324585345379
 31
0.0
  0
LINE
  5
A96F3
  8
01
 10
371.0616997225065
 20
-985.0324585345379
 30
0.0
 11
371.0601039191283
 21
-985.031982562283
 31
0.0
  0
LINE
  5
A96F4
  8
01
 10
371.0601039191283
 20
-985.031982562283
 30
0.0
 11
371.0586250361325
 21
-985.0315061216979
 31
0.0
  0
LINE
  5
A96F5
  8
01
 10
371.0586250361325
 20
-985.0315061216979
 30
0.0
 11
371.0572632786266
 21
-985.0310292251825
 31
0.0
  0
LINE
  5
A96F6
  8
01
 10
371.0572632786266
 20
-985.0310292251825
 30
0.0
 11
371.0560188517193
 21
-985.0305518851369
 31
0.0
  0
LINE
  5
A96F7
  8
01
 10
371.0560188517193
 20
-985.0305518851369
 30
0.0
 11
371.055440701336
 21
-985.0303130526654
 31
0.0
  0
LINE
  5
A96F8
  8
01
 10
371.055440701336
 20
-985.0303130526654
 30
0.0
 11
371.0548919605176
 21
-985.0300741139611
 31
0.0
  0
LINE
  5
A96F9
  8
01
 10
371.0548919605176
 20
-985.0300741139611
 30
0.0
 11
371.0543726549031
 21
-985.0298350705743
 31
0.0
  0
LINE
  5
A96FA
  8
01
 10
371.0543726549031
 20
-985.0298350705743
 30
0.0
 11
371.0538828101303
 21
-985.0295959240548
 31
0.0
  0
LINE
  5
A96FB
  8
01
 10
371.0538828101303
 20
-985.0295959240548
 30
0.0
 11
371.0534224518378
 21
-985.0293566759528
 31
0.0
  0
LINE
  5
A96FC
  8
01
 10
371.0534224518378
 20
-985.0293566759528
 30
0.0
 11
371.0529916056644
 21
-985.0291173278181
 31
0.0
  0
LINE
  5
A96FD
  8
01
 10
371.0529916056644
 20
-985.0291173278181
 30
0.0
 11
371.0525902972486
 21
-985.028877881201
 31
0.0
  0
LINE
  5
A96FE
  8
01
 10
371.0525902972486
 20
-985.028877881201
 30
0.0
 11
371.0522185522286
 21
-985.028638337651
 31
0.0
  0
LINE
  5
A96FF
  8
01
 10
371.0522185522286
 20
-985.028638337651
 30
0.0
 11
371.0518763962432
 21
-985.0283986987188
 31
0.0
  0
LINE
  5
A9700
  8
01
 10
371.0518763962432
 20
-985.0283986987188
 30
0.0
 11
371.0515638549309
 21
-985.0281589659537
 31
0.0
  0
LINE
  5
A9701
  8
01
 10
371.0515638549309
 20
-985.0281589659537
 30
0.0
 11
371.0512809539296
 21
-985.0279191409061
 31
0.0
  0
LINE
  5
A9702
  8
01
 10
371.0512809539296
 20
-985.0279191409061
 30
0.0
 11
371.0510277188787
 21
-985.0276792251259
 31
0.0
  0
LINE
  5
A9703
  8
01
 10
371.0510277188787
 20
-985.0276792251259
 30
0.0
 11
371.0508041754156
 21
-985.0274392201632
 31
0.0
  0
LINE
  5
A9704
  8
01
 10
371.0508041754156
 20
-985.0274392201632
 30
0.0
 11
371.0506103491798
 21
-985.0271991275677
 31
0.0
  0
LINE
  5
A9705
  8
01
 10
371.0506103491798
 20
-985.0271991275677
 30
0.0
 11
371.0504462658096
 21
-985.0269589488894
 31
0.0
  0
LINE
  5
A9706
  8
01
 10
371.0504462658096
 20
-985.0269589488894
 30
0.0
 11
371.0503119509431
 21
-985.0267186856788
 31
0.0
  0
LINE
  5
A9707
  8
01
 10
371.0503119509431
 20
-985.0267186856788
 30
0.0
 11
371.050207430219
 21
-985.0264783394855
 31
0.0
  0
LINE
  5
A9708
  8
01
 10
371.050207430219
 20
-985.0264783394855
 30
0.0
 11
371.0501327292754
 21
-985.0262379118594
 31
0.0
  0
LINE
  5
A9709
  8
01
 10
371.0501327292754
 20
-985.0262379118594
 30
0.0
 11
371.0500878737516
 21
-985.0259974043506
 31
0.0
  0
LINE
  5
A970A
  8
01
 10
371.0500878737516
 20
-985.0259974043506
 30
0.0
 11
371.0500728892853
 21
-985.0257568185095
 31
0.0
  0
LINE
  5
A970B
  8
01
 10
371.0500728892853
 20
-985.0257568185095
 30
0.0
 11
371.050087792983
 21
-985.0255162326612
 31
0.0
  0
LINE
  5
A970C
  8
01
 10
371.050087792983
 20
-985.0255162326612
 30
0.0
 11
371.0501325677656
 21
-985.0252757251394
 31
0.0
  0
LINE
  5
A970D
  8
01
 10
371.0501325677656
 20
-985.0252757251394
 30
0.0
 11
371.0502071879946
 21
-985.025035297494
 31
0.0
  0
LINE
  5
A970E
  8
01
 10
371.0502071879946
 20
-985.025035297494
 30
0.0
 11
371.0503116280333
 21
-985.024794951275
 31
0.0
  0
LINE
  5
A970F
  8
01
 10
371.0503116280333
 20
-985.024794951275
 30
0.0
 11
371.0504458622427
 21
-985.0245546880324
 31
0.0
  0
LINE
  5
A9710
  8
01
 10
371.0504458622427
 20
-985.0245546880324
 30
0.0
 11
371.0506098649853
 21
-985.0243145093161
 31
0.0
  0
LINE
  5
A9711
  8
01
 10
371.0506098649853
 20
-985.0243145093161
 30
0.0
 11
371.050803610623
 21
-985.0240744166763
 31
0.0
  0
LINE
  5
A9712
  8
01
 10
371.050803610623
 20
-985.0240744166763
 30
0.0
 11
371.0510270735176
 21
-985.0238344116628
 31
0.0
  0
LINE
  5
A9713
  8
01
 10
371.0510270735176
 20
-985.0238344116628
 30
0.0
 11
371.0512802280318
 21
-985.0235944958258
 31
0.0
  0
LINE
  5
A9714
  8
01
 10
371.0512802280318
 20
-985.0235944958258
 30
0.0
 11
371.0515630485265
 21
-985.0233546707152
 31
0.0
  0
LINE
  5
A9715
  8
01
 10
371.0515630485265
 20
-985.0233546707152
 30
0.0
 11
371.0518755093649
 21
-985.023114937881
 31
0.0
  0
LINE
  5
A9716
  8
01
 10
371.0518755093649
 20
-985.023114937881
 30
0.0
 11
371.0522175849082
 21
-985.0228752988733
 31
0.0
  0
LINE
  5
A9717
  8
01
 10
371.0522175849082
 20
-985.0228752988733
 30
0.0
 11
371.0525892495184
 21
-985.0226357552419
 31
0.0
  0
LINE
  5
A9718
  8
01
 10
371.0525892495184
 20
-985.0226357552419
 30
0.0
 11
371.0529904775585
 21
-985.0223963085368
 31
0.0
  0
LINE
  5
A9719
  8
01
 10
371.0529904775585
 20
-985.0223963085368
 30
0.0
 11
371.053421243389
 21
-985.0221569603082
 31
0.0
  0
LINE
  5
A971A
  8
01
 10
371.053421243389
 20
-985.0221569603082
 30
0.0
 11
371.0538815213736
 21
-985.021917712106
 31
0.0
  0
LINE
  5
A971B
  8
01
 10
371.0538815213736
 20
-985.021917712106
 30
0.0
 11
371.054371285873
 21
-985.0216785654802
 31
0.0
  0
LINE
  5
A971C
  8
01
 10
371.054371285873
 20
-985.0216785654802
 30
0.0
 11
371.0548905112496
 21
-985.0214395219809
 31
0.0
  0
LINE
  5
A971D
  8
01
 10
371.0548905112496
 20
-985.0214395219809
 30
0.0
 11
371.0554391718656
 21
-985.0212005831579
 31
0.0
  0
LINE
  5
A971E
  8
01
 10
371.0554391718656
 20
-985.0212005831579
 30
0.0
 11
371.0560172420828
 21
-985.0209617505616
 31
0.0
  0
LINE
  5
A971F
  8
01
 10
371.0560172420828
 20
-985.0209617505616
 30
0.0
 11
371.0572615087694
 21
-985.0204844102477
 31
0.0
  0
LINE
  5
A9720
  8
01
 10
371.0572615087694
 20
-985.0204844102477
 30
0.0
 11
371.0586231062057
 21
-985.0200075134396
 31
0.0
  0
LINE
  5
A9721
  8
01
 10
371.0586231062057
 20
-985.0200075134396
 30
0.0
 11
371.0601018292878
 21
-985.0195310725373
 31
0.0
  0
LINE
  5
A9722
  8
01
 10
371.0601018292878
 20
-985.0195310725373
 30
0.0
 11
371.0616974729114
 21
-985.0190550999407
 31
0.0
  0
LINE
  5
A9723
  8
01
 10
371.0616974729114
 20
-985.0190550999407
 30
0.0
 11
371.0652387013688
 21
-985.0181046092646
 31
0.0
  0
LINE
  5
A9724
  8
01
 10
371.0652387013688
 20
-985.0181046092646
 30
0.0
 11
371.0692451507471
 21
-985.0171561406116
 31
0.0
  0
LINE
  5
A9725
  8
01
 10
371.0692451507471
 20
-985.0171561406116
 30
0.0
 11
371.0737151802159
 21
-985.0162097931818
 31
0.0
  0
LINE
  5
A9726
  8
01
 10
371.0737151802159
 20
-985.0162097931818
 30
0.0
 11
371.0840394161009
 21
-985.0143238587921
 31
0.0
  0
LINE
  5
A9727
  8
01
 10
371.0840394161009
 20
-985.0143238587921
 30
0.0
 11
371.0961982823774
 21
-985.0124475996961
 31
0.0
  0
LINE
  5
A9728
  8
01
 10
371.0961982823774
 20
-985.0124475996961
 30
0.0
 11
371.1101786523996
 21
-985.0105818094949
 31
0.0
  0
LINE
  5
A9729
  8
01
 10
371.1101786523996
 20
-985.0105818094949
 30
0.0
 11
371.1435513970937
 21
-985.00688481018
 31
0.0
  0
LINE
  5
A972A
  8
01
 10
371.1435513970937
 20
-985.00688481018
 30
0.0
 11
371.1840526370138
 21
-985.0032392096546
 31
0.0
  0
LINE
  5
A972B
  8
01
 10
371.1840526370138
 20
-985.0032392096546
 30
0.0
 11
371.2860205498487
 21
-984.9961276001968
 31
0.0
  0
LINE
  5
A972C
  8
01
 10
371.2860205498487
 20
-984.9961276001968
 30
0.0
 11
371.5708777387249
 21
-984.982800514247
 31
0.0
  0
LINE
  5
A972D
  8
01
 10
371.5708777387249
 20
-984.982800514247
 30
0.0
 11
371.9580293761196
 21
-984.9710068752763
 31
0.0
  0
LINE
  5
A972E
  8
01
 10
371.9580293761196
 20
-984.9710068752763
 30
0.0
 11
374.1500505549748
 21
-984.9483283983836
 31
0.0
  0
LINE
  5
A972F
  8
01
 10
374.1500505549748
 20
-984.9483283983836
 30
0.0
 11
376.3420855101613
 21
-984.971006242951
 31
0.0
  0
LINE
  5
A9730
  8
01
 10
376.3420855101613
 20
-984.971006242951
 30
0.0
 11
376.7292425354663
 21
-984.9827997956359
 31
0.0
  0
LINE
  5
A9731
  8
01
 10
376.7292425354663
 20
-984.9827997956359
 30
0.0
 11
377.014105186061
 21
-984.9961268266952
 31
0.0
  0
LINE
  5
A9732
  8
01
 10
377.014105186061
 20
-984.9961268266952
 30
0.0
 11
377.1160758230931
 21
-985.0032384201813
 31
0.0
  0
LINE
  5
A9733
  8
01
 10
377.1160758230931
 20
-985.0032384201813
 30
0.0
 11
377.1565784174363
 21
-985.0068840155377
 31
0.0
  0
LINE
  5
A9734
  8
01
 10
377.1565784174363
 20
-985.0068840155377
 30
0.0
 11
377.189952509148
 21
-985.0105810115401
 31
0.0
  0
LINE
  5
A9735
  8
01
 10
377.189952509148
 20
-985.0105810115401
 30
0.0
 11
377.2039335493646
 21
-985.0124468007771
 31
0.0
  0
LINE
  5
A9736
  8
01
 10
377.2039335493646
 20
-985.0124468007771
 30
0.0
 11
377.2160930833402
 21
-985.0143230593676
 31
0.0
  0
LINE
  5
A9737
  8
01
 10
377.2160930833402
 20
-985.0143230593676
 30
0.0
 11
377.2264179842145
 21
-985.0162089937089
 31
0.0
  0
LINE
  5
A9738
  8
01
 10
377.2264179842145
 20
-985.0162089937089
 30
0.0
 11
377.2308883450942
 21
-985.0171553412852
 31
0.0
  0
LINE
  5
A9739
  8
01
 10
377.2308883450942
 20
-985.0171553412852
 30
0.0
 11
377.2348951251261
 21
-985.018103810198
 31
0.0
  0
LINE
  5
A973A
  8
01
 10
377.2348951251261
 20
-985.018103810198
 30
0.0
 11
377.2384366834517
 21
-985.0190543012473
 31
0.0
  0
LINE
  5
A973B
  8
01
 10
377.2384366834517
 20
-985.0190543012473
 30
0.0
 11
377.2400324917071
 21
-985.0195302740731
 31
0.0
  0
LINE
  5
A973C
  8
01
 10
377.2400324917071
 20
-985.0195302740731
 30
0.0
 11
377.241511379214
 21
-985.0200067152325
 31
0.0
  0
LINE
  5
A973D
  8
01
 10
377.241511379214
 20
-985.0200067152325
 30
0.0
 11
377.2428731408659
 21
-985.0204836123262
 31
0.0
  0
LINE
  5
A973E
  8
01
 10
377.2428731408659
 20
-985.0204836123262
 30
0.0
 11
377.2441175715553
 21
-985.0209609529534
 31
0.0
  0
LINE
  5
A973F
  8
01
 10
377.2441175715553
 20
-985.0209609529534
 30
0.0
 11
377.244695723693
 21
-985.0211997857173
 31
0.0
  0
LINE
  5
A9740
  8
01
 10
377.244695723693
 20
-985.0211997857173
 30
0.0
 11
377.2452444661749
 21
-985.0214387247147
 31
0.0
  0
LINE
  5
A9741
  8
01
 10
377.2452444661749
 20
-985.0214387247147
 30
0.0
 11
377.2457637733628
 21
-985.0216777683954
 31
0.0
  0
LINE
  5
A9742
  8
01
 10
377.2457637733628
 20
-985.0216777683954
 30
0.0
 11
377.2462536196176
 21
-985.0219169152097
 31
0.0
  0
LINE
  5
A9743
  8
01
 10
377.2462536196176
 20
-985.0219169152097
 30
0.0
 11
377.2467139793016
 21
-985.0221561636074
 31
0.0
  0
LINE
  5
A9744
  8
01
 10
377.2467139793016
 20
-985.0221561636074
 30
0.0
 11
377.2471448267765
 21
-985.0223955120384
 31
0.0
  0
LINE
  5
A9745
  8
01
 10
377.2471448267765
 20
-985.0223955120384
 30
0.0
 11
377.2475461364033
 21
-985.022634958953
 31
0.0
  0
LINE
  5
A9746
  8
01
 10
377.2475461364033
 20
-985.022634958953
 30
0.0
 11
377.2479178825438
 21
-985.022874502801
 31
0.0
  0
LINE
  5
A9747
  8
01
 10
377.2479178825438
 20
-985.022874502801
 30
0.0
 11
377.2482600395597
 21
-985.0231141420322
 31
0.0
  0
LINE
  5
A9748
  8
01
 10
377.2482600395597
 20
-985.0231141420322
 30
0.0
 11
377.2485725818128
 21
-985.0233538750972
 31
0.0
  0
LINE
  5
A9749
  8
01
 10
377.2485725818128
 20
-985.0233538750972
 30
0.0
 11
377.2488554836641
 21
-985.0235937004452
 31
0.0
  0
LINE
  5
A974A
  8
01
 10
377.2488554836641
 20
-985.0235937004452
 30
0.0
 11
377.2491087194758
 21
-985.0238336165269
 31
0.0
  0
LINE
  5
A974B
  8
01
 10
377.2491087194758
 20
-985.0238336165269
 30
0.0
 11
377.2493322636096
 21
-985.0240736217918
 31
0.0
  0
LINE
  5
A974C
  8
01
 10
377.2493322636096
 20
-985.0240736217918
 30
0.0
 11
377.2495260904261
 21
-985.0243137146902
 31
0.0
  0
LINE
  5
A974D
  8
01
 10
377.2495260904261
 20
-985.0243137146902
 30
0.0
 11
377.2496901742879
 21
-985.024553893672
 31
0.0
  0
LINE
  5
A974E
  8
01
 10
377.2496901742879
 20
-985.024553893672
 30
0.0
 11
377.2498244895564
 21
-985.024794157187
 31
0.0
  0
LINE
  5
A974F
  8
01
 10
377.2498244895564
 20
-985.024794157187
 30
0.0
 11
377.249929010593
 21
-985.0250345036854
 31
0.0
  0
LINE
  5
A9750
  8
01
 10
377.249929010593
 20
-985.0250345036854
 30
0.0
 11
377.2500037117593
 21
-985.0252749316173
 31
0.0
  0
LINE
  5
A9751
  8
01
 10
377.2500037117593
 20
-985.0252749316173
 30
0.0
 11
377.2500485674173
 21
-985.0255154394326
 31
0.0
  0
LINE
  5
A9752
  8
01
 10
377.2500485674173
 20
-985.0255154394326
 30
0.0
 11
377.2500635519277
 21
-985.0257560255811
 31
0.0
  0
LINE
  5
A9753
  8
01
 10
377.2500635519277
 20
-985.0257560255811
 30
0.0
 11
377.2500486481576
 21
-985.02599661203
 31
0.0
  0
LINE
  5
A9754
  8
01
 10
377.2500486481576
 20
-985.02599661203
 30
0.0
 11
377.2500038731578
 21
-985.026237120152
 31
0.0
  0
LINE
  5
A9755
  8
01
 10
377.2500038731578
 20
-985.026237120152
 30
0.0
 11
377.2499292525663
 21
-985.0264775483972
 31
0.0
  0
LINE
  5
A9756
  8
01
 10
377.2499292525663
 20
-985.0264775483972
 30
0.0
 11
377.2498248120219
 21
-985.0267178952156
 31
0.0
  0
LINE
  5
A9757
  8
01
 10
377.2498248120219
 20
-985.0267178952156
 30
0.0
 11
377.2496905771632
 21
-985.0269581590571
 31
0.0
  0
LINE
  5
A9758
  8
01
 10
377.2496905771632
 20
-985.0269581590571
 30
0.0
 11
377.2495265736284
 21
-985.0271983383718
 31
0.0
  0
LINE
  5
A9759
  8
01
 10
377.2495265736284
 20
-985.0271983383718
 30
0.0
 11
377.2493328270562
 21
-985.0274384316099
 31
0.0
  0
LINE
  5
A975A
  8
01
 10
377.2493328270562
 20
-985.0274384316099
 30
0.0
 11
377.2491093630852
 21
-985.0276784372209
 31
0.0
  0
LINE
  5
A975B
  8
01
 10
377.2491093630852
 20
-985.0276784372209
 30
0.0
 11
377.2488562073536
 21
-985.0279183536552
 31
0.0
  0
LINE
  5
A975C
  8
01
 10
377.2488562073536
 20
-985.0279183536552
 30
0.0
 11
377.2485733855005
 21
-985.0281581793624
 31
0.0
  0
LINE
  5
A975D
  8
01
 10
377.2485733855005
 20
-985.0281581793624
 30
0.0
 11
377.2482609231638
 21
-985.028397912793
 31
0.0
  0
LINE
  5
A975E
  8
01
 10
377.2482609231638
 20
-985.028397912793
 30
0.0
 11
377.247918845982
 21
-985.0286375523967
 31
0.0
  0
LINE
  5
A975F
  8
01
 10
377.247918845982
 20
-985.0286375523967
 30
0.0
 11
377.2475471795938
 21
-985.0288770966235
 31
0.0
  0
LINE
  5
A9760
  8
01
 10
377.2475471795938
 20
-985.0288770966235
 30
0.0
 11
377.2471459496378
 21
-985.0291165439232
 31
0.0
  0
LINE
  5
A9761
  8
01
 10
377.2471459496378
 20
-985.0291165439232
 30
0.0
 11
377.2467151817527
 21
-985.0293558927463
 31
0.0
  0
LINE
  5
A9762
  8
01
 10
377.2467151817527
 20
-985.0293558927463
 30
0.0
 11
377.2462549015763
 21
-985.0295951415424
 31
0.0
  0
LINE
  5
A9763
  8
01
 10
377.2462549015763
 20
-985.0295951415424
 30
0.0
 11
377.2457651347477
 21
-985.0298342887615
 31
0.0
  0
LINE
  5
A9764
  8
01
 10
377.2457651347477
 20
-985.0298342887615
 30
0.0
 11
377.2452459069054
 21
-985.0300733328536
 31
0.0
  0
LINE
  5
A9765
  8
01
 10
377.2452459069054
 20
-985.0300733328536
 30
0.0
 11
377.2446972436878
 21
-985.0303122722689
 31
0.0
  0
LINE
  5
A9766
  8
01
 10
377.2446972436878
 20
-985.0303122722689
 30
0.0
 11
377.244119170733
 21
-985.0305511054573
 31
0.0
  0
LINE
  5
A9767
  8
01
 10
377.244119170733
 20
-985.0305511054573
 30
0.0
 11
377.2428748981674
 21
-985.0310284469533
 31
0.0
  0
LINE
  5
A9768
  8
01
 10
377.2428748981674
 20
-985.0310284469533
 30
0.0
 11
377.2415132943161
 21
-985.0315053449413
 31
0.0
  0
LINE
  5
A9769
  8
01
 10
377.2415132943161
 20
-985.0315053449413
 30
0.0
 11
377.2400345642877
 21
-985.0319817870213
 31
0.0
  0
LINE
  5
A976A
  8
01
 10
377.2400345642877
 20
-985.0319817870213
 30
0.0
 11
377.2384389131903
 21
-985.0324577607935
 31
0.0
  0
LINE
  5
A976B
  8
01
 10
377.2384389131903
 20
-985.0324577607935
 30
0.0
 11
377.2348976682192
 21
-985.0334082538138
 31
0.0
  0
LINE
  5
A976C
  8
01
 10
377.2348976682192
 20
-985.0334082538138
 30
0.0
 11
377.2308912002682
 21
-985.0343567248015
 31
0.0
  0
LINE
  5
A976D
  8
01
 10
377.2308912002682
 20
-985.0343567248015
 30
0.0
 11
377.2264211502006
 21
-985.0353030745559
 31
0.0
  0
LINE
  5
A976E
  8
01
 10
377.2264211502006
 20
-985.0353030745559
 30
0.0
 11
377.2160968671751
 21
-985.0371890135634
 31
0.0
  0
LINE
  5
A976F
  8
01
 10
377.2160968671751
 20
-985.0371890135634
 30
0.0
 11
377.2039379460571
 21
-985.0390652772328
 31
0.0
  0
LINE
  5
A9770
  8
01
 10
377.2039379460571
 20
-985.0390652772328
 30
0.0
 11
377.1899575137618
 21
-985.0409310719594
 31
0.0
  0
LINE
  5
A9771
  8
01
 10
377.1899575137618
 20
-985.0409310719594
 30
0.0
 11
377.1565846232979
 21
-985.0446280801696
 31
0.0
  0
LINE
  5
A9772
  8
01
 10
377.1565846232979
 20
-985.0446280801696
 30
0.0
 11
377.1160832111013
 21
-985.0482736893618
 31
0.0
  0
LINE
  5
A9773
  8
01
 10
377.1160832111013
 20
-985.0482736893618
 30
0.0
 11
377.0141148827852
 21
-985.0553853153647
 31
0.0
  0
LINE
  5
A9774
  8
01
 10
377.0141148827852
 20
-985.0553853153647
 30
0.0
 11
376.7292566393712
 21
-985.0687124305459
 31
0.0
  0
LINE
  5
A9775
  8
01
 10
376.7292566393712
 20
-985.0687124305459
 30
0.0
 11
376.3421037638918
 21
-985.080506092253
 31
0.0
  0
LINE
  5
A9776
  8
01
 10
376.3421037638918
 20
-985.080506092253
 30
0.0
 11
374.1500765489859
 21
-985.1031845856189
 31
0.0
  0
LINE
  5
A9777
  8
01
 10
472.1979817059264
 20
-979.3181589746177
 30
0.0
 11
472.1979817059264
 21
-979.4081275552562
 31
0.0
  0
LINE
  5
A9778
  8
01
 10
472.1979817059264
 20
-969.9081275552567
 30
0.0
 11
472.1979817059268
 21
-970.3181589746168
 31
0.0
  0
LINE
  5
A9779
  8
01
 10
471.1979817059259
 20
-979.3181589746164
 30
0.0
 11
471.1979817059259
 21
-979.4081275552562
 31
0.0
  0
LINE
  5
A977A
  8
01
 10
471.1979817059264
 20
-969.9081275552567
 30
0.0
 11
471.1979817059264
 21
-970.3181589746168
 31
0.0
  0
LINE
  5
A977B
  8
01
 10
473.1979817059268
 20
-979.3181589746173
 30
0.0
 11
473.1979817059268
 21
-979.4081275552562
 31
0.0
  0
LINE
  5
A977C
  8
01
 10
473.1979817059268
 20
-969.9081275552562
 30
0.0
 11
473.1979817059268
 21
-970.3181589746168
 31
0.0
  0
LINE
  5
A977D
  8
01
 10
362.2521193473717
 20
-979.3181589746177
 30
0.0
 11
362.2521193473717
 21
-979.4081275552562
 31
0.0
  0
LINE
  5
A977E
  8
01
 10
362.2521193473717
 20
-969.908127555258
 30
0.0
 11
362.2521193473717
 21
-970.318158974618
 31
0.0
  0
LINE
  5
A977F
  8
01
 10
364.8320720636793
 20
-979.3181589746173
 30
0.0
 11
364.8320720636793
 21
-979.4081275552562
 31
0.0
  0
LINE
  5
A9780
  8
01
 10
364.8320720636793
 20
-969.908127555258
 30
0.0
 11
364.8320720636793
 21
-970.3181589746175
 31
0.0
  0
LINE
  5
A9781
  8
01
 10
486.700145318287
 20
-970.3181589746157
 30
0.0
 11
486.700145318287
 21
-969.9081275552562
 31
0.0
  0
LINE
  5
A9782
  8
01
 10
486.700145318287
 20
-979.4081275552562
 30
0.0
 11
486.700145318287
 21
-979.3181589746175
 31
0.0
  0
LINE
  5
A9783
  8
01
 10
379.9001453182827
 20
-970.3181589746173
 30
0.0
 11
379.9001453182827
 21
-969.9081275552567
 31
0.0
  0
LINE
  5
A9784
  8
01
 10
379.9001453182823
 20
-979.4081275552553
 30
0.0
 11
379.9001453182823
 21
-979.3181589746155
 31
0.0
  0
LINE
  5
A9785
  8
01
 10
380.9001453182823
 20
-970.3181589746173
 30
0.0
 11
380.9001453182823
 21
-969.9081275552567
 31
0.0
  0
LINE
  5
A9786
  8
01
 10
380.9001453182823
 20
-979.4081275552562
 30
0.0
 11
380.9001453182823
 21
-979.3181589746184
 31
0.0
  0
LINE
  5
A9787
  8
01
 10
381.9001453182827
 20
-970.3181589746173
 30
0.0
 11
381.9001453182827
 21
-969.9081275552567
 31
0.0
  0
LINE
  5
A9788
  8
01
 10
381.9001453182818
 20
-979.4081275552562
 30
0.0
 11
381.9001453182818
 21
-979.3181589746177
 31
0.0
  0
LINE
  5
A9789
  8
01
 10
365.5666260138246
 20
-979.3181589746173
 30
0.0
 11
365.5666260138246
 21
-979.4081275552562
 31
0.0
  0
LINE
  5
A978A
  8
01
 10
365.5666260138246
 20
-969.908127555258
 30
0.0
 11
365.5666260138246
 21
-970.3181589746175
 31
0.0
  0
LINE
  5
A978B
  8
01
 10
366.5660168408435
 20
-979.3181589746173
 30
0.0
 11
366.5660168408435
 21
-979.4081275552562
 31
0.0
  0
LINE
  5
A978C
  8
01
 10
366.5660168408435
 20
-969.908127555258
 30
0.0
 11
366.5660168408435
 21
-970.3181589746173
 31
0.0
  0
LINE
  5
A978D
  8
01
 10
492.0521188708344
 20
-979.3181589746173
 30
0.0
 11
492.0521188708344
 21
-979.408127555256
 31
0.0
  0
LINE
  5
A978E
  8
01
 10
492.0521188708344
 20
-969.9081275552564
 30
0.0
 11
492.0521188708344
 21
-970.3181589746034
 31
0.0
  0
LINE
  5
A978F
  8
01
 10
356.8867535431982
 20
-966.8215932523467
 30
0.0
 11
356.8867535431987
 21
-969.6081275552567
 31
0.0
  0
LINE
  5
A9790
  8
01
 10
356.4001453182868
 20
-969.6081275552567
 30
0.0
 11
356.8867535431987
 21
-969.6081275552567
 31
0.0
  0
LINE
  5
A9791
  8
01
 10
356.8867535431982
 20
-979.708127555255
 30
0.0
 11
356.4001453182868
 21
-979.708127555255
 31
0.0
  0
LINE
  5
A9792
  8
01
 10
356.8867535431978
 20
-982.492085362597
 30
0.0
 11
356.8867535431982
 21
-979.708127555255
 31
0.0
  0
LINE
  5
A9793
  8
01
 10
356.4001453182868
 20
-979.708127555255
 30
0.0
 11
356.4001453182859
 21
-984.6555291215811
 31
0.0
  0
ARC
  5
A9794
  8
01
 10
356.7001515769389
 20
-979.7081338139146
 30
0.0
 40
0.3000062587170315
 50
89.99887025822257
 51
179.9988047090265
  0
ARC
  5
A9795
  8
01
 10
356.7001515769393
 20
-969.6081212965973
 30
0.0
 40
0.3000062587178172
 50
180.0011952909865
 51
270.0011297416211
  0
LINE
  5
A9796
  8
01
 10
356.4001453182859
 20
-964.6581494933521
 30
0.0
 11
356.4001453182868
 21
-969.6081275552567
 31
0.0
  0
ARC
  5
A9797
  8
01
 10
356.9000966495314
 20
-964.658078890578
 30
0.0
 40
0.4999513362306028
 50
90.003454314814
 51
180.0080912695032
  0
LINE
  5
A9798
  8
01
 10
389.9001453148348
 20
-964.1581275552096
 30
0.0
 11
356.900066507882
 21
-964.158127555256
 31
0.0
  0
LINE
  5
A9799
  8
01
 10
356.9000664080195
 20
-985.1564766705203
 30
0.0
 11
389.9001453149608
 21
-985.1563329670896
 31
0.0
  0
LINE
  5
A979A
  8
01
 10
492.9191814647465
 20
-979.4081275552553
 30
0.0
 11
358.3866926752207
 21
-979.4081275552553
 31
0.0
  0
LINE
  5
A979B
  8
01
 10
492.9191814647465
 20
-969.9081275552567
 30
0.0
 11
358.3866926752216
 21
-969.9081275552567
 31
0.0
  0
LINE
  5
A979C
  8
01
 10
360.0521193473719
 20
-979.3181589746173
 30
0.0
 11
359.3466180589858
 21
-979.3181589746173
 31
0.0
  0
LINE
  5
A979D
  8
01
 10
359.3466180589858
 20
-979.3181589746173
 30
0.0
 11
359.1274523474658
 21
-979.3181589746173
 31
0.0
  0
LINE
  5
A979E
  8
01
 10
359.1274523474658
 20
-979.3181589746173
 30
0.0
 11
359.0692391292887
 21
-979.3181589746173
 31
0.0
  0
LINE
  5
A979F
  8
01
 10
359.0692391292887
 20
-979.3181589746173
 30
0.0
 11
359.0552216051474
 21
-979.3181589746173
 31
0.0
  0
LINE
  5
A97A0
  8
01
 10
359.0552216051474
 20
-979.3181589746173
 30
0.0
 11
359.0522659487578
 21
-979.3181589746173
 31
0.0
  0
LINE
  5
A97A1
  8
01
 10
359.0522659487578
 20
-979.3181589746173
 30
0.0
 11
359.0518365012886
 21
-979.3181589746173
 31
0.0
  0
LINE
  5
A97A2
  8
01
 10
359.0518365012886
 20
-979.3181589746173
 30
0.0
 11
359.0518400434999
 21
-979.3181589746173
 31
0.0
  0
LINE
  5
A97A3
  8
01
 10
359.0518400434999
 20
-979.3181589746173
 30
0.0
 11
359.0518882607735
 21
-979.3181589746173
 31
0.0
  0
LINE
  5
A97A4
  8
01
 10
359.0518882607735
 20
-979.3181589746173
 30
0.0
 11
359.0521193473719
 21
-979.3181589746173
 31
0.0
  0
LINE
  5
A97A5
  8
01
 10
360.0521193473719
 20
-970.3181589746173
 30
0.0
 11
359.3466180589862
 21
-970.3181589746173
 31
0.0
  0
LINE
  5
A97A6
  8
01
 10
359.3466180589862
 20
-970.3181589746173
 30
0.0
 11
359.1274523474663
 21
-970.3181589746173
 31
0.0
  0
LINE
  5
A97A7
  8
01
 10
359.1274523474663
 20
-970.3181589746173
 30
0.0
 11
359.0692391292887
 21
-970.3181589746173
 31
0.0
  0
LINE
  5
A97A8
  8
01
 10
359.0692391292887
 20
-970.3181589746173
 30
0.0
 11
359.0552216051478
 21
-970.3181589746173
 31
0.0
  0
LINE
  5
A97A9
  8
01
 10
359.0552216051478
 20
-970.3181589746173
 30
0.0
 11
359.0522659487578
 21
-970.3181589746173
 31
0.0
  0
LINE
  5
A97AA
  8
01
 10
359.0522659487578
 20
-970.3181589746173
 30
0.0
 11
359.0518365012886
 21
-970.3181589746173
 31
0.0
  0
LINE
  5
A97AB
  8
01
 10
359.0518365012886
 20
-970.3181589746173
 30
0.0
 11
359.0518400434999
 21
-970.3181589746173
 31
0.0
  0
LINE
  5
A97AC
  8
01
 10
359.0518400434999
 20
-970.3181589746173
 30
0.0
 11
359.0518882607735
 21
-970.3181589746173
 31
0.0
  0
LINE
  5
A97AD
  8
01
 10
359.0518882607735
 20
-970.3181589746173
 30
0.0
 11
359.0521193473719
 21
-970.3181589746173
 31
0.0
  0
LINE
  5
A97AE
  8
01
 10
491.0521193473724
 20
-979.3181589746173
 30
0.0
 11
360.0521193473719
 21
-979.3181589746173
 31
0.0
  0
LINE
  5
A97AF
  8
01
 10
491.0521193473724
 20
-970.3181589746173
 30
0.0
 11
360.0521193473719
 21
-970.3181589746173
 31
0.0
  0
LINE
  5
A97B0
  8
01
 10
492.0521193473724
 20
-979.3181589746173
 30
0.0
 11
492.0523504339708
 21
-979.3181589746173
 31
0.0
  0
LINE
  5
A97B1
  8
01
 10
492.0523504339708
 20
-979.3181589746173
 30
0.0
 11
492.0523986512449
 21
-979.3181589746173
 31
0.0
  0
LINE
  5
A97B2
  8
01
 10
492.0523986512449
 20
-979.3181589746173
 30
0.0
 11
492.0524021934561
 21
-979.3181589746173
 31
0.0
  0
LINE
  5
A97B3
  8
01
 10
492.0524021934561
 20
-979.3181589746173
 30
0.0
 11
492.0519727459869
 21
-979.3181589746173
 31
0.0
  0
LINE
  5
A97B4
  8
01
 10
492.0519727459869
 20
-979.3181589746173
 30
0.0
 11
492.0490170895973
 21
-979.3181589746173
 31
0.0
  0
LINE
  5
A97B5
  8
01
 10
492.0490170895973
 20
-979.3181589746173
 30
0.0
 11
492.034999565456
 21
-979.3181589746173
 31
0.0
  0
LINE
  5
A97B6
  8
01
 10
492.034999565456
 20
-979.3181589746173
 30
0.0
 11
491.9767863472789
 21
-979.3181589746173
 31
0.0
  0
LINE
  5
A97B7
  8
01
 10
491.9767863472789
 20
-979.3181589746173
 30
0.0
 11
491.7576206357589
 21
-979.3181589746173
 31
0.0
  0
LINE
  5
A97B8
  8
01
 10
491.7576206357589
 20
-979.3181589746173
 30
0.0
 11
491.0521193473724
 21
-979.3181589746173
 31
0.0
  0
LINE
  5
A97B9
  8
01
 10
492.0521193473724
 20
-970.3181589746173
 30
0.0
 11
492.0523504339708
 21
-970.3181589746173
 31
0.0
  0
LINE
  5
A97BA
  8
01
 10
492.0523504339708
 20
-970.3181589746173
 30
0.0
 11
492.0523986512449
 21
-970.3181589746173
 31
0.0
  0
LINE
  5
A97BB
  8
01
 10
492.0523986512449
 20
-970.3181589746173
 30
0.0
 11
492.0524021934561
 21
-970.3181589746173
 31
0.0
  0
LINE
  5
A97BC
  8
01
 10
492.0524021934561
 20
-970.3181589746173
 30
0.0
 11
492.0519727459869
 21
-970.3181589746173
 31
0.0
  0
LINE
  5
A97BD
  8
01
 10
492.0519727459869
 20
-970.3181589746173
 30
0.0
 11
492.0490170895969
 21
-970.3181589746173
 31
0.0
  0
LINE
  5
A97BE
  8
01
 10
492.0490170895969
 20
-970.3181589746173
 30
0.0
 11
492.034999565456
 21
-970.3181589746173
 31
0.0
  0
LINE
  5
A97BF
  8
01
 10
492.034999565456
 20
-970.3181589746173
 30
0.0
 11
491.9767863472784
 21
-970.3181589746173
 31
0.0
  0
LINE
  5
A97C0
  8
01
 10
491.9767863472784
 20
-970.3181589746173
 30
0.0
 11
491.7576206357589
 21
-970.3181589746173
 31
0.0
  0
LINE
  5
A97C1
  8
01
 10
491.7576206357589
 20
-970.3181589746173
 30
0.0
 11
491.0521193473724
 21
-970.3181589746173
 31
0.0
  0
LINE
  5
A97C2
  8
01
 10
358.0521193473719
 20
-971.3181589746173
 30
0.0
 11
358.0521193473724
 21
-978.3181589746173
 31
0.0
  0
LINE
  5
A97C3
  8
01
 10
493.0521193473728
 20
-971.3181589746173
 30
0.0
 11
493.0521193473728
 21
-978.3181589746173
 31
0.0
  0
LINE
  5
A9A77
  8
1DIM
  6
CONTINUOUS
 10
348.6501844385311
 20
-948.156869069082
 30
0.0
 11
329.0138979272438
 21
-948.156869069082
 31
0.0
1001
ACAD
1000
DSTYLE
1002
{
1070
    50
1040
1.570796326794897
1070
   140
1040
4.0
1070
   271
1070
     0
1070
   345
1005
14
1070
   346
1005
14
1070
   347
1005
14
1002
}
  0
LINE
  5
A9A78
  8
1DIM
  6
CONTINUOUS
 10
348.6501844385311
 20
-1001.156869069082
 30
0.0
 11
329.0138979272438
 21
-1001.156869069082
 31
0.0
1001
ACAD
1000
DSTYLE
1002
{
1070
    50
1040
1.570796326794897
1070
   140
1040
4.0
1070
   271
1070
     0
1070
   345
1005
14
1070
   346
1005
14
1070
   347
1005
14
1002
}
  0
LINE
  5
A9A79
  8
1DIM
  6
CONTINUOUS
 10
330.0138979272438
 20
-950.156869069082
 30
0.0
 11
330.0138979272438
 21
-999.156869069082
 31
0.0
1001
ACAD
1000
DSTYLE
1002
{
1070
    50
1040
1.570796326794897
1070
   140
1040
4.0
1070
   271
1070
     0
1070
   345
1005
14
1070
   346
1005
14
1070
   347
1005
14
1002
}
  0
TEXT
  5
A9A7D
  8
1TEXT
  6
CONTINUOUS
 10
213.5849630445773
 20
-868.5895027816083
 30
0.0
 40
10.0
  1
TVT
  0
LINE
  5
A9A7E
  8
1DIM
 10
389.9219631917936
 20
-985.1544619202585
 30
0.0
 11
514.8287690106046
 21
-985.1544619202585
 31
0.0
1001
ACAD
1000
DSTYLE
1002
{
1070
   271
1070
     0
1070
   140
1040
4.0
1002
}
  0
LINE
  5
A9A7F
  8
1DIM
 10
389.9219631918622
 20
-964.1592166946747
 30
0.0
 11
514.8287690106046
 21
-964.1592166946747
 31
0.0
1001
ACAD
1000
DSTYLE
1002
{
1070
   271
1070
     0
1070
   140
1040
4.0
1002
}
  0
LINE
  5
A9A80
  8
1DIM
 10
513.8287690106046
 20
-983.1544619202585
 30
0.0
 11
513.8287690106046
 21
-966.1592166946747
 31
0.0
1001
ACAD
1000
DSTYLE
1002
{
1070
   271
1070
     0
1070
   140
1040
4.0
1002
}
  0
LINE
  5
A9A84
  8
1DIM
 10
356.8868367762793
 20
-914.121278989283
 30
0.0
 11
356.8868367762793
 21
-936.6577145877319
 31
0.0
1001
ACAD
1000
DSTYLE
1002
{
1070
   271
1070
     0
1070
    45
1040
0.5
1070
   140
1040
4.0
1002
}
  0
LINE
  5
A9A85
  8
1DIM
 10
494.4191424855139
 20
-914.1269134001396
 30
0.0
 11
494.4191424855139
 21
-936.6577145877319
 31
0.0
1001
ACAD
1000
DSTYLE
1002
{
1070
   271
1070
     0
1070
    45
1040
0.5
1070
   140
1040
4.0
1002
}
  0
LINE
  5
A9A86
  8
1DIM
 10
358.8868367762793
 20
-935.6577145877319
 30
0.0
 11
492.4191424855139
 21
-935.6577145877319
 31
0.0
1001
ACAD
1000
DSTYLE
1002
{
1070
   271
1070
     0
1070
    45
1040
0.5
1070
   140
1040
4.0
1002
}
  0
LINE
  5
A9A8A
  8
1DIM
 10
491.6212942039451
 20
-915.6077660241295
 30
0.0
 11
514.8286520266153
 21
-915.6077660241295
 31
0.0
1001
ACAD
1000
DSTYLE
1002
{
1070
    45
1040
0.5
1070
   140
1040
4.0
1002
}
  0
LINE
  5
A9A8B
  8
1DIM
 10
400.655149992348
 20
-850.9077145877254
 30
0.0
 11
514.8286520266153
 21
-850.9077145877254
 31
0.0
1001
ACAD
1000
DSTYLE
1002
{
1070
    45
1040
0.5
1070
   140
1040
4.0
1002
}
  0
LINE
  5
A9A8C
  8
1DIM
 10
513.8286520266153
 20
-913.6077660241295
 30
0.0
 11
513.8286520266153
 21
-852.9077145877254
 31
0.0
1001
ACAD
1000
DSTYLE
1002
{
1070
    45
1040
0.5
1070
   140
1040
4.0
1002
}
  0
LINE
  5
A9A90
  8
1DIM
 10
374.1501837942014
 20
-872.157714587731
 30
0.0
 11
374.1501837942014
 21
-926.657714587731
 31
0.0
1001
ACAD
1000
DSTYLE
1002
{
1070
    45
1040
0.5
1070
   140
1040
4.0
1002
}
  0
LINE
  5
A9A91
  8
1DIM
 10
494.4191424855139
 20
-914.1269134001396
 30
0.0
 11
494.4191424855139
 21
-926.657714587731
 31
0.0
1001
ACAD
1000
DSTYLE
1002
{
1070
    45
1040
0.5
1070
   140
1040
4.0
1002
}
  0
LINE
  5
A9A92
  8
1DIM
 10
376.1501837942014
 20
-925.657714587731
 30
0.0
 11
492.4191424855139
 21
-925.657714587731
 31
0.0
1001
ACAD
1000
DSTYLE
1002
{
1070
    45
1040
0.5
1070
   140
1040
4.0
1002
}
  0
LINE
  5
A9A96
  8
1DIM
 10
492.2660731868177
 20
-892.1055409216359
 30
0.0
 11
504.8286520266116
 21
-892.1055409216359
 31
0.0
1001
ACAD
1000
DSTYLE
1002
{
1070
    45
1040
0.5
1070
   140
1040
4.0
1002
}
  0
LINE
  5
A9A97
  8
1DIM
 10
400.655149992348
 20
-850.9077145877254
 30
0.0
 11
504.8286520266116
 21
-850.9077145877254
 31
0.0
1001
ACAD
1000
DSTYLE
1002
{
1070
    45
1040
0.5
1070
   140
1040
4.0
1002
}
  0
LINE
  5
A9A98
  8
1DIM
 10
503.8286520266116
 20
-890.1055409216359
 30
0.0
 11
503.8286520266116
 21
-852.9077145877254
 31
0.0
1001
ACAD
1000
DSTYLE
1002
{
1070
    45
1040
0.5
1070
   140
1040
4.0
1002
}
  0
LINE
  5
A9A9C
  8
0
  6
BYBLOCK
 10
329.4779999272438
 20
-950.156869069082
 30
0.0
 11
330.0138979272438
 21
-948.156869069082
 31
0.0
  0
LINE
  5
A9A9D
  8
0
  6
BYBLOCK
 10
330.0138979272438
 20
-948.156869069082
 30
0.0
 11
330.5497959272437
 21
-950.156869069082
 31
0.0
  0
LINE
  5
A9A9E
  8
0
  6
BYBLOCK
 10
330.0138979272438
 20
-948.156869069082
 30
0.0
 11
330.0138979272438
 21
-950.156869069082
 31
0.0
  0
LINE
  5
A9A9F
  8
0
  6
BYBLOCK
 10
330.5497959272437
 20
-999.156869069082
 30
0.0
 11
330.0138979272438
 21
-1001.156869069082
 31
0.0
  0
LINE
  5
A9AA0
  8
0
  6
BYBLOCK
 10
330.0138979272438
 20
-1001.156869069082
 30
0.0
 11
329.4779999272438
 21
-999.156869069082
 31
0.0
  0
LINE
  5
A9AA1
  8
0
  6
BYBLOCK
 10
330.0138979272438
 20
-1001.156869069082
 30
0.0
 11
330.0138979272438
 21
-999.156869069082
 31
0.0
  0
TEXT
  5
A9AA2
  8
1DIM
  6
CONTINUOUS
 10
329.3111201494661
 20
-978.0040912913041
 30
0.0
 40
4.0
  1
53
 50
90.0
1001
ACAD
1000
DSTYLE
1002
{
1070
    50
1040
1.570796326794897
1070
   140
1040
4.0
1070
   271
1070
     0
1070
   345
1005
14
1070
   346
1005
14
1070
   347
1005
14
1002
}
  0
LINE
  5
A9AA3
  8
0
  6
BYBLOCK
 10
514.3646670106045
 20
-983.1544619202585
 30
0.0
 11
513.8287690106046
 21
-985.1544619202585
 31
0.0
  0
LINE
  5
A9AA4
  8
0
  6
BYBLOCK
 10
513.8287690106046
 20
-985.1544619202585
 30
0.0
 11
513.2928710106046
 21
-983.1544619202585
 31
0.0
  0
LINE
  5
A9AA5
  8
0
  6
BYBLOCK
 10
513.8287690106046
 20
-985.1544619202585
 30
0.0
 11
513.8287690106046
 21
-983.1544619202585
 31
0.0
  0
LINE
  5
A9AA6
  8
0
  6
BYBLOCK
 10
513.2928710106046
 20
-966.1592166946747
 30
0.0
 11
513.8287690106046
 21
-964.1592166946747
 31
0.0
  0
LINE
  5
A9AA7
  8
0
  6
BYBLOCK
 10
513.8287690106046
 20
-964.1592166946747
 30
0.0
 11
514.3646670106045
 21
-966.1592166946747
 31
0.0
  0
LINE
  5
A9AA8
  8
0
  6
BYBLOCK
 10
513.8287690106046
 20
-964.1592166946747
 30
0.0
 11
513.8287690106046
 21
-966.1592166946747
 31
0.0
  0
TEXT
  5
A9AA9
  8
1DIM
  6
CONTINUOUS
 10
513.1287690106046
 20
-977.3235059741332
 30
0.0
 40
4.0
  1
21
 50
90.0
1001
ACAD
1000
DSTYLE
1002
{
1070
   271
1070
     0
1070
   140
1040
4.0
1002
}
  0
LINE
  5
A9AAA
  8
0
  6
BYBLOCK
 10
358.8868367762793
 20
-936.1936125877319
 30
0.0
 11
356.8868367762793
 21
-935.6577145877319
 31
0.0
  0
LINE
  5
A9AAB
  8
0
  6
BYBLOCK
 10
356.8868367762793
 20
-935.6577145877319
 30
0.0
 11
358.8868367762793
 21
-935.1218165877319
 31
0.0
  0
LINE
  5
A9AAC
  8
0
  6
BYBLOCK
 10
356.8868367762793
 20
-935.6577145877319
 30
0.0
 11
358.8868367762793
 21
-935.6577145877319
 31
0.0
  0
LINE
  5
A9AAD
  8
0
  6
BYBLOCK
 10
492.4191424855139
 20
-935.1218165877319
 30
0.0
 11
494.4191424855139
 21
-935.6577145877319
 31
0.0
  0
LINE
  5
A9AAE
  8
0
  6
BYBLOCK
 10
494.4191424855139
 20
-935.6577145877319
 30
0.0
 11
492.4191424855139
 21
-936.1936125877319
 31
0.0
  0
LINE
  5
A9AAF
  8
0
  6
BYBLOCK
 10
494.4191424855139
 20
-935.6577145877319
 30
0.0
 11
492.4191424855139
 21
-935.6577145877319
 31
0.0
  0
TEXT
  5
A9AB0
  8
1DIM
  6
CONTINUOUS
 10
420.9863229642299
 20
-934.9577145877319
 30
0.0
 40
4.0
  1
138
1001
ACAD
1000
DSTYLE
1002
{
1070
   271
1070
     0
1070
    45
1040
0.5
1070
   140
1040
4.0
1002
}
  0
LINE
  5
A9AB1
  8
0
  6
BYBLOCK
 10
514.3645500266152
 20
-913.6077660241295
 30
0.0
 11
513.8286520266153
 21
-915.6077660241295
 31
0.0
  0
LINE
  5
A9AB2
  8
0
  6
BYBLOCK
 10
513.8286520266153
 20
-915.6077660241295
 30
0.0
 11
513.2927540266153
 21
-913.6077660241295
 31
0.0
  0
LINE
  5
A9AB3
  8
0
  6
BYBLOCK
 10
513.8286520266153
 20
-915.6077660241295
 30
0.0
 11
513.8286520266153
 21
-913.6077660241295
 31
0.0
  0
LINE
  5
A9AB4
  8
0
  6
BYBLOCK
 10
513.2927540266153
 20
-852.9077145877254
 30
0.0
 11
513.8286520266153
 21
-850.9077145877254
 31
0.0
  0
LINE
  5
A9AB5
  8
0
  6
BYBLOCK
 10
513.8286520266153
 20
-850.9077145877254
 30
0.0
 11
514.3645500266152
 21
-852.9077145877254
 31
0.0
  0
LINE
  5
A9AB6
  8
0
  6
BYBLOCK
 10
513.8286520266153
 20
-850.9077145877254
 30
0.0
 11
513.8286520266153
 21
-852.9077145877254
 31
0.0
  0
TEXT
  5
A9AB7
  8
1DIM
  6
CONTINUOUS
 10
513.1286520266153
 20
-889.2716291948163
 30
0.0
 40
4.0
  1
64.5
 50
90.0
1001
ACAD
1000
DSTYLE
1002
{
1070
    45
1040
0.5
1070
   140
1040
4.0
1002
}
  0
LINE
  5
A9AB8
  8
0
  6
BYBLOCK
 10
376.1501837942014
 20
-926.193612587731
 30
0.0
 11
374.1501837942014
 21
-925.657714587731
 31
0.0
  0
LINE
  5
A9AB9
  8
0
  6
BYBLOCK
 10
374.1501837942014
 20
-925.657714587731
 30
0.0
 11
376.1501837942014
 21
-925.121816587731
 31
0.0
  0
LINE
  5
A9ABA
  8
0
  6
BYBLOCK
 10
374.1501837942014
 20
-925.657714587731
 30
0.0
 11
376.1501837942014
 21
-925.657714587731
 31
0.0
  0
LINE
  5
A9ABB
  8
0
  6
BYBLOCK
 10
492.4191424855139
 20
-925.121816587731
 30
0.0
 11
494.4191424855139
 21
-925.657714587731
 31
0.0
  0
LINE
  5
A9ABC
  8
0
  6
BYBLOCK
 10
494.4191424855139
 20
-925.657714587731
 30
0.0
 11
492.4191424855139
 21
-926.193612587731
 31
0.0
  0
LINE
  5
A9ABD
  8
0
  6
BYBLOCK
 10
494.4191424855139
 20
-925.657714587731
 30
0.0
 11
492.4191424855139
 21
-925.657714587731
 31
0.0
  0
TEXT
  5
A9ABE
  8
1DIM
  6
CONTINUOUS
 10
427.2846631398577
 20
-924.9577145877311
 30
0.0
 40
4.0
  1
120.5
1001
ACAD
1000
DSTYLE
1002
{
1070
    45
1040
0.5
1070
   140
1040
4.0
1002
}
  0
LINE
  5
A9ABF
  8
0
  6
BYBLOCK
 10
504.3645500266116
 20
-890.1055409216359
 30
0.0
 11
503.8286520266116
 21
-892.1055409216359
 31
0.0
  0
LINE
  5
A9AC0
  8
0
  6
BYBLOCK
 10
503.8286520266116
 20
-892.1055409216359
 30
0.0
 11
503.2927540266116
 21
-890.1055409216359
 31
0.0
  0
LINE
  5
A9AC1
  8
0
  6
BYBLOCK
 10
503.8286520266116
 20
-892.1055409216359
 30
0.0
 11
503.8286520266116
 21
-890.1055409216359
 31
0.0
  0
LINE
  5
A9AC2
  8
0
  6
BYBLOCK
 10
503.2927540266116
 20
-852.9077145877254
 30
0.0
 11
503.8286520266116
 21
-850.9077145877254
 31
0.0
  0
LINE
  5
A9AC3
  8
0
  6
BYBLOCK
 10
503.8286520266116
 20
-850.9077145877254
 30
0.0
 11
504.3645500266116
 21
-852.9077145877254
 31
0.0
  0
LINE
  5
A9AC4
  8
0
  6
BYBLOCK
 10
503.8286520266116
 20
-850.9077145877254
 30
0.0
 11
503.8286520266116
 21
-852.9077145877254
 31
0.0
  0
TEXT
  5
A9AC5
  8
1DIM
  6
CONTINUOUS
 10
503.1286520266116
 20
-874.1732944213475
 30
0.0
 40
4.0
  1
41
 50
90.0
1001
ACAD
1000
DSTYLE
1002
{
1070
    45
1040
0.5
1070
   140
1040
4.0
1002
}
  0
VIEWPORT
  5
A6EF5
 67
     1
  8
0
 10
0.0
 20
0.0
 30
0.0
 40
615.2903225806451
 41
297.0
 68
     1
 69
     1
1001
ACAD
1000
MVIEW
1002
{
1070
    16
1010
0.0
1020
0.0
1030
0.0
1010
0.0
1020
0.0
1030
1.0
1040
0.0
1040
297.0
1040
-4.300000000000011
1040
12.7999999999999
1040
50.0
1040
0.0
1040
0.0
1070
    16
1070
   100
1070
     0
1070
     1
1070
     0
1070
     0
1070
     0
1070
     0
1040
0.0
1040
0.0
1040
0.0
1040
10.0
1040
10.0
1040
10.0
1040
10.0
1070
     0
1002
{
1002
}
1002
}
  0
ENDSEC
  0
EOF
