  0
SECTION
  2
HEADER
  9
$ACADVER
  1
AC1012
  9
$DWGCODEPAGE
  3
ansi_932
  9
$INSBASE
 10
0.0
 20
0.0
 30
0.0
  9
$EXTMIN
 10
4939.646924053214
 20
-351.7480625854535
 30
0.0
  9
$EXTMAX
 10
5258.075209435645
 20
-111.7493808985567
 30
0.0000000001127424
  9
$LIMMIN
 10
0.0
 20
0.0
  9
$LIMMAX
 10
420.0
 20
297.0
  9
$ORTHOMODE
 70
     0
  9
$REGENMODE
 70
     1
  9
$FILLMODE
 70
     1
  9
$QTEXTMODE
 70
     0
  9
$MIRRTEXT
 70
     0
  9
$DRAGMODE
 70
     2
  9
$LTSCALE
 40
0.5
  9
$OSMODE
 70
  2175
  9
$ATTMODE
 70
     1
  9
$TEXTSIZE
 40
4.0
  9
$TRACEWID
 40
1.0
  9
$TEXTSTYLE
  7
STANDARD
  9
$CLAYER
  8
1TEXT
  9
$CELTYPE
  6
BYLAYER
  9
$CECOLOR
 62
   256
  9
$CELTSCALE
 40
1.0
  9
$DELOBJ
 70
     1
  9
$DISPSILH
 70
     0
  9
$DIMSCALE
 40
1.0
  9
$DIMASZ
 40
2.0
  9
$DIMEXO
 40
0.0
  9
$DIMDLI
 40
7.0
  9
$DIMRND
 40
0.0
  9
$DIMDLE
 40
0.0
  9
$DIMEXE
 40
1.0
  9
$DIMTP
 40
0.0
  9
$DIMTM
 40
0.0
  9
$DIMTXT
 40
3.5
  9
$DIMCEN
 40
0.0
  9
$DIMTSZ
 40
0.0
  9
$DIMTOL
 70
     0
  9
$DIMLIM
 70
     0
  9
$DIMTIH
 70
     0
  9
$DIMTOH
 70
     0
  9
$DIMSE1
 70
     0
  9
$DIMSE2
 70
     0
  9
$DIMTAD
 70
     1
  9
$DIMZIN
 70
     8
  9
$DIMBLK
  1

  9
$DIMASO
 70
     1
  9
$DIMSHO
 70
     1
  9
$DIMPOST
  1
 
  9
$DIMAPOST
  1

  9
$DIMALT
 70
     0
  9
$DIMALTD
 70
     2
  9
$DIMALTF
 40
25.4
  9
$DIMLFAC
 40
1.0
  9
$DIMTOFL
 70
     1
  9
$DIMTVP
 40
0.0
  9
$DIMTIX
 70
     0
  9
$DIMSOXD
 70
     0
  9
$DIMSAH
 70
     1
  9
$DIMBLK1
  1
OPEN30
  9
$DIMBLK2
  1
OPEN30
  9
$DIMSTYLE
  2
NEWX10
  9
$DIMCLRD
 70
   256
  9
$DIMCLRE
 70
   256
  9
$DIMCLRT
 70
   201
  9
$DIMTFAC
 40
0.7
  9
$DIMGAP
 40
0.7
  9
$DIMJUST
 70
     0
  9
$DIMSD1
 70
     0
  9
$DIMSD2
 70
     0
  9
$DIMTOLJ
 70
     1
  9
$DIMTZIN
 70
     8
  9
$DIMALTZ
 70
     0
  9
$DIMALTTZ
 70
     0
  9
$DIMFIT
 70
     2
  9
$DIMUPT
 70
     0
  9
$DIMUNIT
 70
     2
  9
$DIMDEC
 70
     2
  9
$DIMTDEC
 70
     4
  9
$DIMALTU
 70
     2
  9
$DIMALTTD
 70
     2
  9
$DIMTXSTY
  7
STANDARD
  9
$DIMAUNIT
 70
     0
  9
$LUNITS
 70
     2
  9
$LUPREC
 70
     4
  9
$SKETCHINC
 40
1.0
  9
$FILLETRAD
 40
0.0
  9
$AUNITS
 70
     0
  9
$AUPREC
 70
     2
  9
$MENU
  1
acad
  9
$ELEVATION
 40
0.0
  9
$PELEVATION
 40
0.0
  9
$THICKNESS
 40
0.0
  9
$LIMCHECK
 70
     0
  9
$CHAMFERA
 40
10.0
  9
$CHAMFERB
 40
10.0
  9
$CHAMFERC
 40
20.0
  9
$CHAMFERD
 40
0.0
  9
$SKPOLY
 70
     0
  9
$TDCREATE
 40
2451318.621352917
  9
$TDUPDATE
 40
2459101.555774468
  9
$TDINDWG
 40
1.4769902894
  9
$TDUSRTIMER
 40
1.4769902894
  9
$USRTIMER
 70
     1
  9
$ANGBASE
 50
0.0
  9
$ANGDIR
 70
     0
  9
$PDMODE
 70
     0
  9
$PDSIZE
 40
0.0
  9
$PLINEWID
 40
0.0
  9
$COORDS
 70
     2
  9
$SPLFRAME
 70
     0
  9
$SPLINETYPE
 70
     6
  9
$SPLINESEGS
 70
     8
  9
$ATTDIA
 70
     0
  9
$ATTREQ
 70
     1
  9
$HANDLING
 70
     1
  9
$HANDSEED
  5
B1E9
  9
$SURFTAB1
 70
     6
  9
$SURFTAB2
 70
     6
  9
$SURFTYPE
 70
     6
  9
$SURFU
 70
     6
  9
$SURFV
 70
     6
  9
$UCSNAME
  2

  9
$UCSORG
 10
0.0
 20
0.0
 30
0.0
  9
$UCSXDIR
 10
1.0
 20
0.0
 30
0.0
  9
$UCSYDIR
 10
0.0
 20
1.0
 30
0.0
  9
$PUCSNAME
  2

  9
$PUCSORG
 10
0.0
 20
0.0
 30
0.0
  9
$PUCSXDIR
 10
1.0
 20
0.0
 30
0.0
  9
$PUCSYDIR
 10
0.0
 20
1.0
 30
0.0
  9
$USERI1
 70
     0
  9
$USERI2
 70
     0
  9
$USERI3
 70
     0
  9
$USERI4
 70
     0
  9
$USERI5
 70
     0
  9
$USERR1
 40
0.0
  9
$USERR2
 40
0.0
  9
$USERR3
 40
0.0
  9
$USERR4
 40
0.0
  9
$USERR5
 40
0.0
  9
$WORLDVIEW
 70
     1
  9
$SHADEDGE
 70
     3
  9
$SHADEDIF
 70
    70
  9
$TILEMODE
 70
     1
  9
$MAXACTVP
 70
    48
  9
$PINSBASE
 10
0.0
 20
0.0
 30
0.0
  9
$PLIMCHECK
 70
     0
  9
$PEXTMIN
 10
1.000000000000000E+20
 20
1.000000000000000E+20
 30
1.000000000000000E+20
  9
$PEXTMAX
 10
-1.000000000000000E+20
 20
-1.000000000000000E+20
 30
-1.000000000000000E+20
  9
$PLIMMIN
 10
0.0
 20
0.0
  9
$PLIMMAX
 10
420.0
 20
297.0
  9
$UNITMODE
 70
     0
  9
$VISRETAIN
 70
     1
  9
$PLINEGEN
 70
     0
  9
$PSLTSCALE
 70
     1
  9
$TREEDEPTH
 70
  3020
  9
$PICKSTYLE
 70
     0
  9
$CMLSTYLE
  2
STANDARD
  9
$CMLJUST
 70
     0
  9
$CMLSCALE
 40
20.0
  9
$SAVEIMAGES
 70
     1
  0
ENDSEC
  0
SECTION
  2
CLASSES
  0
CLASS
  1
DICTIONARYVAR
  2
AcDbDictionaryVar
  3
ObjectDBX Classes
 90
        0
280
     0
281
     0
  0
CLASS
  1
IDBUFFER
  2
AcDbIdBuffer
  3
ObjectDBX Classes
 90
    32768
280
     0
281
     0
  0
CLASS
  1
LWPOLYLINE
  2
AcDbPolyline
  3
ObjectDBX Classes
 90
    32768
280
     0
281
     1
  0
CLASS
  1
ACDBDICTIONARYWDFLT
  2
AcDbDictionaryWithDefault
  3
ObjectDBX Classes
 90
    32768
280
     0
281
     0
  0
CLASS
  1
ACDBPLACEHOLDER
  2
AcDbPlaceHolder
  3
ObjectDBX Classes
 90
        0
280
     0
281
     0
  0
CLASS
  1
LAYOUT
  2
AcDbLayout
  3
ObjectDBX Classes
 90
        0
280
     0
281
     0
  0
CLASS
  1
TABLESTYLE
  2
AcDbTableStyle
  3
ObjectDBX Classes
 90
     4095
280
     0
281
     0
  0
CLASS
  1
SORTENTSTABLE
  2
AcDbSortentsTable
  3
ObjectDBX Classes
 90
    32768
280
     0
281
     0
  0
CLASS
  1
MATERIAL
  2
AcDbMaterial
  3
ObjectDBX Classes
 90
     1153
280
     0
281
     0
  0
CLASS
  1
VISUALSTYLE
  2
AcDbVisualStyle
  3
ObjectDBX Classes
 90
     4095
280
     0
281
     0
  0
CLASS
  1
SCALE
  2
AcDbScale
  3
ObjectDBX Classes
 90
     1153
280
     0
281
     0
  0
CLASS
  1
MLEADERSTYLE
  2
AcDbMLeaderStyle
  3
ACDB_MLEADERSTYLE_CLASS
 90
     4095
280
     0
281
     0
  0
CLASS
  1
CELLSTYLEMAP
  2
AcDbCellStyleMap
  3
ObjectDBX Classes
 90
     1152
280
     0
281
     0
  0
CLASS
  1
SUN
  2
AcDbSun
  3
SCENEOE
 90
     1153
280
     0
281
     0
  0
CLASS
  1
XRECORD
  2
AcDbXrecord
  3
ObjectDBX Classes
 90
    32768
280
     0
281
     0
  0
CLASS
  1
HATCH
  2
AcDbHatch
  3
ObjectDBX Classes
 90
    32768
280
     0
281
     1
  0
ENDSEC
  0
SECTION
  2
TABLES
  0
TABLE
  2
VPORT
  5
8
330
0
100
AcDbSymbolTable
 70
     1
  0
VPORT
  5
952D
330
8
100
AcDbSymbolTableRecord
100
AcDbViewportTableRecord
  2
*ACTIVE
 70
     0
 10
0.0
 20
0.0
 11
1.0
 21
1.0
 12
5098.86106674443
 22
-231.7487217420051
 13
0.0
 23
0.0
 14
10.0
 24
10.0
 15
10.0
 25
10.0
 16
0.0
 26
0.0
 36
1.0
 17
0.0
 27
0.0
 37
0.0
 40
257.6827950743524
 41
1.803066037735849
 42
50.0
 43
0.0
 44
0.0
 50
0.0
 51
0.0
 71
    16
 72
   100
 73
     1
 74
     1
 75
     0
 76
     0
 77
     0
 78
     0
  0
ENDTAB
  0
TABLE
  2
LTYPE
  5
5
330
0
100
AcDbSymbolTable
 70
     3
  0
LTYPE
  5
12
330
5
100
AcDbSymbolTableRecord
100
AcDbLinetypeTableRecord
  2
BYBLOCK
 70
     0
  3

 72
    65
 73
     0
 40
0.0
  0
LTYPE
  5
13
330
5
100
AcDbSymbolTableRecord
100
AcDbLinetypeTableRecord
  2
BYLAYER
 70
     0
  3

 72
    65
 73
     0
 40
0.0
  0
LTYPE
  5
14
330
5
100
AcDbSymbolTableRecord
100
AcDbLinetypeTableRecord
  2
CONTINUOUS
 70
     0
  3
Solid line
 72
    65
 73
     0
 40
0.0
  0
LTYPE
  5
2C03
330
5
100
AcDbSymbolTableRecord
100
AcDbLinetypeTableRecord
  2
HIDDEN
 70
     0
  3
Hidden __ __ __ __ __ __ __ __ __ __ __ __ __ _
 72
    65
 73
     2
 40
9.524999999999999
 49
6.35
 74
     0
 49
-3.175
 74
     0
  0
LTYPE
  5
9837
330
5
100
AcDbSymbolTableRecord
100
AcDbLinetypeTableRecord
  2
CENTER2
 70
     0
  3
Center (.5x) ___ _ ___ _ ___ _ ___ _ ___ _ ___
 72
    65
 73
     4
 40
28.575
 49
19.05
 74
     0
 49
-3.175
 74
     0
 49
3.175
 74
     0
 49
-3.175
 74
     0
  0
ENDTAB
  0
TABLE
  2
LAYER
  5
2
102
{ACAD_XDICTIONARY
360
96D9
102
}
330
0
100
AcDbSymbolTable
 70
     6
  0
LAYER
  5
E
102
{ACAD_XDICTIONARY
360
9593
102
}
330
2
100
AcDbSymbolTableRecord
100
AcDbLayerTableRecord
  2
0
 70
     0
 62
     7
  6
CONTINUOUS
  0
LAYER
  5
29
102
{ACAD_XDICTIONARY
360
9595
102
}
330
2
100
AcDbSymbolTableRecord
100
AcDbLayerTableRecord
  2
1CENTER
 70
     0
 62
     7
  6
CENTER2
  0
LAYER
  5
31
102
{ACAD_XDICTIONARY
360
9597
102
}
330
2
100
AcDbSymbolTableRecord
100
AcDbLayerTableRecord
  2
1TEXT
 70
     0
 62
     7
  6
CONTINUOUS
  0
LAYER
  5
243
102
{ACAD_XDICTIONARY
360
959D
102
}
330
2
100
AcDbSymbolTableRecord
100
AcDbLayerTableRecord
  2
01
 70
     0
 62
     1
  6
CONTINUOUS
  0
LAYER
  5
24E
102
{ACAD_XDICTIONARY
360
95A3
102
}
330
2
100
AcDbSymbolTableRecord
100
AcDbLayerTableRecord
  2
1DIM
 70
     0
 62
     7
  6
CONTINUOUS
  0
LAYER
  5
2C05
102
{ACAD_XDICTIONARY
360
95AF
102
}
330
2
100
AcDbSymbolTableRecord
100
AcDbLayerTableRecord
  2
1HIDDEN
 70
     0
 62
     7
  6
HIDDEN
  0
ENDTAB
  0
TABLE
  2
STYLE
  5
3
330
0
100
AcDbSymbolTable
 70
     1
  0
STYLE
  5
F
330
3
100
AcDbSymbolTableRecord
100
AcDbTextStyleTableRecord
  2
STANDARD
 70
     0
 40
0.0
 41
1.0
 50
0.0
 71
     0
 42
4.0
  3
txt.shx
  4
extfont.shx
  0
ENDTAB
  0
TABLE
  2
VIEW
  5
6
330
0
100
AcDbSymbolTable
 70
     0
  0
ENDTAB
  0
TABLE
  2
UCS
  5
7
330
0
100
AcDbSymbolTable
 70
     0
  0
ENDTAB
  0
TABLE
  2
APPID
  5
9
330
0
100
AcDbSymbolTable
 70
    12
  0
APPID
  5
10
330
9
100
AcDbSymbolTableRecord
100
AcDbRegAppTableRecord
  2
ACAD
 70
     0
  0
APPID
  5
21
330
9
100
AcDbSymbolTableRecord
100
AcDbRegAppTableRecord
  2
DRAWINGVARIABLESXDATA
 70
     0
  0
APPID
  5
64
330
9
100
AcDbSymbolTableRecord
100
AcDbRegAppTableRecord
  2
CONTENTTABDATA
 70
     0
  0
APPID
  5
65
330
9
100
AcDbSymbolTableRecord
100
AcDbRegAppTableRecord
  2
CONTENTCURRENTTAB
 70
     0
  0
APPID
  5
66
330
9
100
AcDbSymbolTableRecord
100
AcDbRegAppTableRecord
  2
CONTENTBLOCKDESCRIPTION
 70
     0
  0
APPID
  5
67
330
9
100
AcDbSymbolTableRecord
100
AcDbRegAppTableRecord
  2
CONTENTBLOCKICON
 70
     0
  0
APPID
  5
68
330
9
100
AcDbSymbolTableRecord
100
AcDbRegAppTableRecord
  2
CONTENTLONGBLOCKNAME
 70
     0
  0
APPID
  5
2AE
330
9
100
AcDbSymbolTableRecord
100
AcDbRegAppTableRecord
  2
ACAD_PSEXT
 70
     0
  0
APPID
  5
9585
330
9
100
AcDbSymbolTableRecord
100
AcDbRegAppTableRecord
  2
ACAD_MLEADERVER
 70
     0
  0
APPID
  5
A2E3
330
9
100
AcDbSymbolTableRecord
100
AcDbRegAppTableRecord
  2
ACADANNOTATIVE
 70
     0
  0
APPID
  5
A2E4
330
9
100
AcDbSymbolTableRecord
100
AcDbRegAppTableRecord
  2
ACDBBLOCKREPETAG
 70
     0
  0
APPID
  5
AD6C
330
9
100
AcDbSymbolTableRecord
100
AcDbRegAppTableRecord
  2
ACAECLAYERSTANDARD
 70
     0
  0
ENDTAB
  0
TABLE
  2
DIMSTYLE
  5
A
330
0
100
AcDbSymbolTable
 70
     1
  0
DIMSTYLE
105
48
330
A
100
AcDbSymbolTableRecord
100
AcDbDimStyleTableRecord
  2
NEWX10
 70
     0
  3
 
  4

  5

  6
OPEN30
  7
OPEN30
 40
1.0
 41
2.0
 42
0.0
 43
7.0
 44
1.0
 45
0.0
 46
0.0
 47
0.0
 48
0.0
140
3.5
141
0.0
142
0.0
143
25.4
144
1.0
145
0.0
146
0.7
147
0.7
 71
     0
 72
     0
 73
     0
 74
     0
 75
     0
 76
     0
 77
     1
 78
     8
170
     0
171
     2
172
     1
173
     1
174
     0
175
     0
176
   256
177
   256
178
   201
179
     2
270
     2
271
     2
272
     4
273
     2
274
     2
340
F
275
     0
280
     0
281
     0
282
     0
283
     1
284
     8
285
     0
286
     0
287
     2
288
     0
  0
ENDTAB
  0
TABLE
  2
BLOCK_RECORD
  5
1
330
0
100
AcDbSymbolTable
 70
     8
  0
BLOCK_RECORD
  5
18
102
{ACAD_XDICTIONARY
360
88F
102
}
330
1
100
AcDbSymbolTableRecord
100
AcDbBlockTableRecord
  2
*MODEL_SPACE
  0
BLOCK_RECORD
  5
15
330
1
100
AcDbSymbolTableRecord
100
AcDbBlockTableRecord
  2
*PAPER_SPACE
  0
BLOCK_RECORD
  5
42
330
1
100
AcDbSymbolTableRecord
100
AcDbBlockTableRecord
  2
_OPEN30
  0
BLOCK_RECORD
  5
A333
330
1
100
AcDbSymbolTableRecord
100
AcDbBlockTableRecord
  2
A3WAKUKAWAJUN2017_HYOUDAI_
  0
BLOCK_RECORD
  5
B049
330
1
100
AcDbSymbolTableRecord
100
AcDbBlockTableRecord
  2
*X72
  0
BLOCK_RECORD
  5
B097
330
1
100
AcDbSymbolTableRecord
100
AcDbBlockTableRecord
  2
*X73
  0
BLOCK_RECORD
  5
B0E9
330
1
100
AcDbSymbolTableRecord
100
AcDbBlockTableRecord
  2
*X74
  0
BLOCK_RECORD
  5
B13A
330
1
100
AcDbSymbolTableRecord
100
AcDbBlockTableRecord
  2
*X75
  0
BLOCK_RECORD
  5
B177
330
1
100
AcDbSymbolTableRecord
100
AcDbBlockTableRecord
  2
*X76
  0
BLOCK_RECORD
  5
B1B7
330
1
100
AcDbSymbolTableRecord
100
AcDbBlockTableRecord
  2
*X77
  0
ENDTAB
  0
ENDSEC
  0
SECTION
  2
BLOCKS
  0
BLOCK
  5
19
330
18
100
AcDbEntity
  8
0
100
AcDbBlockBegin
  2
*MODEL_SPACE
 70
     0
 10
0.0
 20
0.0
 30
0.0
  3
*MODEL_SPACE
  1

  0
ENDBLK
  5
1A
330
18
100
AcDbEntity
  8
0
100
AcDbBlockEnd
  0
BLOCK
  5
16
330
15
100
AcDbEntity
 67
     1
  8
0
100
AcDbBlockBegin
  2
*PAPER_SPACE
 70
     0
 10
0.0
 20
0.0
 30
0.0
  3
*PAPER_SPACE
  1

  0
ENDBLK
  5
17
330
15
100
AcDbEntity
 67
     1
  8
0
100
AcDbBlockEnd
  0
BLOCK
  5
43
330
42
100
AcDbEntity
  8
0
100
AcDbBlockBegin
  2
_OPEN30
 70
     0
 10
0.0
 20
0.0
 30
0.0
  3
_OPEN30
  1

  0
LINE
  5
44
330
42
100
AcDbEntity
  8
0
  6
BYBLOCK
 62
     0
100
AcDbLine
 10
-1.0
 20
0.26794919
 30
0.0
 11
0.0
 21
0.0
 31
0.0
  0
LINE
  5
45
330
42
100
AcDbEntity
  8
0
  6
BYBLOCK
 62
     0
100
AcDbLine
 10
0.0
 20
0.0
 30
0.0
 11
-1.0
 21
-0.26794919
 31
0.0
  0
LINE
  5
46
330
42
100
AcDbEntity
  8
0
  6
BYBLOCK
 62
     0
100
AcDbLine
 10
0.0
 20
0.0
 30
0.0
 11
-1.0
 21
0.0
 31
0.0
  0
ENDBLK
  5
47
330
42
100
AcDbEntity
  8
0
100
AcDbBlockEnd
  0
BLOCK
  5
AA56
330
A333
100
AcDbEntity
  8
0
100
AcDbBlockBegin
  2
A3WAKUKAWAJUN2017_HYOUDAI_
 70
     0
 10
0.0
 20
0.0
 30
0.0
  3
A3WAKUKAWAJUN2017_HYOUDAI_
  1

  0
LINE
  5
A335
330
A333
100
AcDbEntity
  8
0
100
AcDbLine
 10
13.26299999998673
 20
-0.0001000000000317
 30
0.0
 11
9.236999999990758
 21
8.999899999990987
 31
0.0
1001
ACAD
1000
ASC_BOUNDS
1002
{
1070
    19
1005
A376
1002
}
  0
LINE
  5
A336
330
A333
100
AcDbEntity
  8
0
100
AcDbLine
 10
5.657999999994331
 20
0.9999999999989768
 30
0.0
 11
9.236999999990758
 21
8.999999999991019
 31
0.0
1001
ACAD
1000
ASC_BOUNDS
1002
{
1070
    19
1005
A376
1002
}
  0
LINE
  5
A337
330
A333
100
AcDbEntity
  8
0
100
AcDbLine
 10
18.59199999998134
 20
-0.2368999999997641
 30
0.0
 11
16.46099999998353
 21
5.432899999994561
 31
0.0
1001
ACAD
1000
ASC_BOUNDS
1002
{
1070
    19
1005
A377
1002
}
  0
LINE
  5
A338
330
A333
100
AcDbEntity
  8
0
100
AcDbLine
 10
18.59199999998134
 20
-0.2368999999997641
 30
0.0
 11
22.38199999997767
 21
8.763099999991255
 31
0.0
1001
ACAD
1000
ASC_BOUNDS
1002
{
1070
    19
1005
A377
1002
}
  0
LINE
  5
A339
330
A333
100
AcDbEntity
  8
0
100
AcDbLine
 10
14.32899999998563
 20
-0.2368999999997641
 30
0.0
 11
16.46099999998353
 21
5.432899999994561
 31
0.0
1001
ACAD
1000
ASC_BOUNDS
1002
{
1070
    19
1005
A377
1002
}
  0
LINE
  5
A33A
330
A333
100
AcDbEntity
  8
0
100
AcDbLine
 10
14.32899999998563
 20
-0.2368999999997641
 30
0.0
 11
10.53899999998941
 21
8.763099999991255
 31
0.0
1001
ACAD
1000
ASC_BOUNDS
1002
{
1070
    19
1005
A377
1002
}
  0
LINE
  5
A33B
330
A333
100
AcDbEntity
  8
0
100
AcDbLine
 10
19.53899999998043
 20
-0.0001000000000317
 30
0.0
 11
23.56599999997638
 21
8.999899999990987
 31
0.0
1001
ACAD
1000
ASC_BOUNDS
1002
{
1070
    19
1005
A378
1002
}
  0
LINE
  5
A33C
330
A333
100
AcDbEntity
  8
0
100
AcDbLine
 10
26.97358892824991
 20
1.383099999991202
 30
0.0
 11
23.56599999997638
 21
8.999899999990987
 31
0.0
1001
ACAD
1000
ASC_BOUNDS
1002
{
1070
    19
1005
A378
1002
}
  0
LINE
  5
A33D
330
A333
100
AcDbEntity
  8
0
100
AcDbLine
 10
5.657999999994331
 20
0.9999999999989768
 30
0.0
 11
3.181999999996833
 21
4.668599999995308
 31
0.0
1001
ACAD
1000
ASC_BOUNDS
1002
{
1070
    19
1005
A376
1002
}
  0
LINE
  5
A33E
330
A333
100
AcDbEntity
  8
0
100
AcDbLine
 10
4.617999999995391
 20
-0.0001000000000317
 30
0.0
 11
1.420999999998571
 21
4.736799999995242
 31
0.0
1001
ACAD
1000
ASC_BOUNDS
1002
{
1070
    19
1005
A376
1002
}
  0
LINE
  5
A33F
330
A333
100
AcDbEntity
  8
0
100
AcDbLine
 10
1.420999999998571
 20
8.763099999991255
 30
0.0
 11
1.420999999998571
 21
0.0
 31
0.0
1001
ACAD
1000
ASC_BOUNDS
1002
{
1070
    19
1005
A37B
1002
}
  0
LINE
  5
A340
330
A333
100
AcDbEntity
  8
0
100
AcDbLine
 10
0.0
 20
8.763099999991255
 30
0.0
 11
0.0
 21
0.0
 31
0.0
1001
ACAD
1000
ASC_BOUNDS
1002
{
1070
    19
1005
A37B
1002
}
  0
LINE
  5
A341
330
A333
100
AcDbEntity
  8
0
100
AcDbLine
 10
6.766999999993232
 20
-0.0001000000000317
 30
0.0
 11
7.826999999992154
 21
2.368399999997621
 31
0.0
1001
ACAD
1000
ASC_BOUNDS
1002
{
1070
    19
1005
A376
1002
}
  0
LINE
  5
A342
330
A333
100
AcDbEntity
  8
0
100
AcDbLine
 10
0.0
 20
0.0
 30
0.0
 11
1.420999999998571
 21
0.0
 31
0.0
1001
ACAD
1000
ASC_BOUNDS
1002
{
1070
    19
1005
A37B
1002
}
  0
LINE
  5
A343
330
A333
100
AcDbEntity
  8
0
100
AcDbLine
 10
4.617999999995391
 20
0.0
 30
0.0
 11
6.766999999993232
 21
0.0
 31
0.0
1001
ACAD
1000
ASC_BOUNDS
1002
{
1070
    19
1005
A376
1002
}
  0
LINE
  5
A344
330
A333
100
AcDbEntity
  8
0
100
AcDbLine
 10
11.70599999998831
 20
-0.0001000000000317
 30
0.0
 11
10.64699999998936
 21
2.368399999997621
 31
0.0
1001
ACAD
1000
ASC_BOUNDS
1002
{
1070
    19
1005
A376
1002
}
  0
LINE
  5
A345
330
A333
100
AcDbEntity
  8
0
100
AcDbLine
 10
7.826999999992154
 20
2.368399999997621
 30
0.0
 11
10.64699999998936
 21
2.368399999997621
 31
0.0
1001
ACAD
1000
ASC_BOUNDS
1002
{
1070
    19
1005
A376
1002
}
  0
LINE
  5
A346
330
A333
100
AcDbEntity
  8
0
100
AcDbLine
 10
11.70599999998831
 20
0.0
 30
0.0
 11
13.26299999998673
 21
0.0
 31
0.0
1001
ACAD
1000
ASC_BOUNDS
1002
{
1070
    19
1005
A376
1002
}
  0
LINE
  5
A347
330
A333
100
AcDbEntity
  8
0
100
AcDbLine
 10
22.15599999997789
 20
2.368399999997621
 30
0.0
 11
24.97599999997499
 21
2.368399999997621
 31
0.0
1001
ACAD
1000
ASC_BOUNDS
1002
{
1070
    19
1005
A378
1002
}
  0
LINE
  5
A348
330
A333
100
AcDbEntity
  8
0
100
AcDbLine
 10
19.53899999998043
 20
0.0
 30
0.0
 11
21.09599999997886
 21
0.0
 31
0.0
1001
ACAD
1000
ASC_BOUNDS
1002
{
1070
    19
1005
A378
1002
}
  0
LINE
  5
A349
330
A333
100
AcDbEntity
  8
0
100
AcDbLine
 10
21.09599999997886
 20
-0.0001000000000317
 30
0.0
 11
22.15599999997789
 21
2.368399999997621
 31
0.0
1001
ACAD
1000
ASC_BOUNDS
1002
{
1070
    19
1005
A378
1002
}
  0
LINE
  5
A34A
330
A333
100
AcDbEntity
  8
0
100
AcDbLine
 10
26.02015566812236
 20
0.0330999999912365
 30
0.0
 11
24.97599999997499
 21
2.368399999997621
 31
0.0
1001
ACAD
1000
ASC_BOUNDS
1002
{
1070
    19
1005
A378
1002
}
  0
LINE
  5
A34B
330
A333
100
AcDbEntity
  8
0
100
AcDbLine
 10
14.32399999998563
 20
3.315799999996671
 30
0.0
 11
16.46099999998353
 21
8.999899999990987
 31
0.0
1001
ACAD
1000
ASC_BOUNDS
1002
{
1070
    19
1005
A377
1002
}
  0
LINE
  5
A34C
330
A333
100
AcDbEntity
  8
0
100
AcDbLine
 10
6.432999999993513
 20
8.763099999991255
 30
0.0
 11
3.181999999996833
 21
4.668599999995308
 31
0.0
1001
ACAD
1000
ASC_BOUNDS
1002
{
1070
    19
1005
A376
1002
}
  0
LINE
  5
A34D
330
A333
100
AcDbEntity
  8
0
100
AcDbLine
 10
4.617999999995391
 20
8.763099999991255
 30
0.0
 11
1.420999999998571
 21
4.736799999995242
 31
0.0
1001
ACAD
1000
ASC_BOUNDS
1002
{
1070
    19
1005
A376
1002
}
  0
LINE
  5
A34E
330
A333
100
AcDbEntity
  8
0
100
AcDbLine
 10
0.0
 20
8.763099999991255
 30
0.0
 11
1.420999999998571
 21
8.763099999991255
 31
0.0
1001
ACAD
1000
ASC_BOUNDS
1002
{
1070
    19
1005
A37B
1002
}
  0
LINE
  5
A34F
330
A333
100
AcDbEntity
  8
0
100
AcDbLine
 10
4.617999999995391
 20
8.763099999991255
 30
0.0
 11
6.432999999993513
 21
8.763099999991255
 31
0.0
1001
ACAD
1000
ASC_BOUNDS
1002
{
1070
    19
1005
A376
1002
}
  0
LINE
  5
A350
330
A333
100
AcDbEntity
  8
0
100
AcDbLine
 10
14.32399999998563
 20
3.315799999996671
 30
0.0
 11
12.02999999998792
 21
8.763099999991255
 31
0.0
1001
ACAD
1000
ASC_BOUNDS
1002
{
1070
    19
1005
A377
1002
}
  0
LINE
  5
A351
330
A333
100
AcDbEntity
  8
0
100
AcDbLine
 10
10.06399999998996
 20
3.670999999996297
 30
0.0
 11
9.236999999990758
 21
5.5200999999945
 31
0.0
1001
ACAD
1000
ASC_BOUNDS
1002
{
1070
    19
1005
A376
1002
}
  0
LINE
  5
A352
330
A333
100
AcDbEntity
  8
0
100
AcDbLine
 10
8.409999999991555
 20
3.670999999996297
 30
0.0
 11
9.236999999990758
 21
5.5200999999945
 31
0.0
1001
ACAD
1000
ASC_BOUNDS
1002
{
1070
    19
1005
A376
1002
}
  0
LINE
  5
A353
330
A333
100
AcDbEntity
  8
0
100
AcDbLine
 10
8.409999999991555
 20
3.670999999996297
 30
0.0
 11
10.06399999998996
 21
3.670999999996297
 31
0.0
1001
ACAD
1000
ASC_BOUNDS
1002
{
1070
    19
1005
A376
1002
}
  0
LINE
  5
A354
330
A333
100
AcDbEntity
  8
0
100
AcDbLine
 10
10.53899999998941
 20
8.763099999991255
 30
0.0
 11
12.02999999998792
 21
8.763099999991255
 31
0.0
1001
ACAD
1000
ASC_BOUNDS
1002
{
1070
    19
1005
A377
1002
}
  0
LINE
  5
A355
330
A333
100
AcDbEntity
  8
0
100
AcDbLine
 10
22.7389999999773
 20
3.670999999996297
 30
0.0
 11
23.56599999997638
 21
5.5200999999945
 31
0.0
1001
ACAD
1000
ASC_BOUNDS
1002
{
1070
    19
1005
A378
1002
}
  0
LINE
  5
A356
330
A333
100
AcDbEntity
  8
0
100
AcDbLine
 10
22.7389999999773
 20
3.670999999996297
 30
0.0
 11
24.39299999997559
 21
3.670999999996297
 31
0.0
1001
ACAD
1000
ASC_BOUNDS
1002
{
1070
    19
1005
A378
1002
}
  0
LINE
  5
A357
330
A333
100
AcDbEntity
  8
0
100
AcDbLine
 10
18.59799999998143
 20
3.315799999996671
 30
0.0
 11
20.89099999997916
 21
8.763099999991255
 31
0.0
1001
ACAD
1000
ASC_BOUNDS
1002
{
1070
    19
1005
A377
1002
}
  0
LINE
  5
A358
330
A333
100
AcDbEntity
  8
0
100
AcDbLine
 10
18.59799999998143
 20
3.315799999996671
 30
0.0
 11
16.46099999998353
 21
8.999899999990987
 31
0.0
1001
ACAD
1000
ASC_BOUNDS
1002
{
1070
    19
1005
A377
1002
}
  0
LINE
  5
A359
330
A333
100
AcDbEntity
  8
0
100
AcDbLine
 10
20.89099999997916
 20
8.763099999991255
 30
0.0
 11
22.38199999997767
 21
8.763099999991255
 31
0.0
1001
ACAD
1000
ASC_BOUNDS
1002
{
1070
    19
1005
A377
1002
}
  0
LINE
  5
A35A
330
A333
100
AcDbEntity
  8
0
100
AcDbLine
 10
24.39299999997559
 20
3.670999999996297
 30
0.0
 11
23.56599999997638
 21
5.5200999999945
 31
0.0
1001
ACAD
1000
ASC_BOUNDS
1002
{
1070
    19
1005
A378
1002
}
  0
LINE
  5
A35B
330
A333
100
AcDbEntity
  8
0
100
AcDbLine
 10
44.99999999995498
 20
-0.2368999999997641
 30
0.0
 11
40.02599999995994
 21
5.341799999994635
 31
0.0
1001
ACAD
1000
ASC_BOUNDS
1002
{
1070
    19
1005
A37A
1002
}
  0
LINE
  5
A35C
330
A333
100
AcDbEntity
  8
0
100
AcDbLine
 10
40.02599999995994
 20
5.341799999994635
 30
0.0
 11
40.02599999995994
 21
0.0
 31
0.0
1001
ACAD
1000
ASC_BOUNDS
1002
{
1070
    19
1005
A37A
1002
}
  0
LINE
  5
A35D
330
A333
100
AcDbEntity
  8
0
100
AcDbLine
 10
38.60499999996136
 20
8.999999999991019
 30
0.0
 11
38.60499999996136
 21
0.0
 31
0.0
1001
ACAD
1000
ASC_BOUNDS
1002
{
1070
    19
1005
A37A
1002
}
  0
LINE
  5
A35E
330
A333
100
AcDbEntity
  8
0
100
AcDbLine
 10
44.99999999995498
 20
8.763099999991255
 30
0.0
 11
44.99999999995498
 21
-0.2368999999997641
 31
0.0
1001
ACAD
1000
ASC_BOUNDS
1002
{
1070
    19
1005
A37A
1002
}
  0
LINE
  5
A35F
330
A333
100
AcDbEntity
  8
0
100
AcDbLine
 10
38.60499999996136
 20
0.0
 30
0.0
 11
40.02599999995994
 21
0.0
 31
0.0
1001
ACAD
1000
ASC_BOUNDS
1002
{
1070
    19
1005
A37A
1002
}
  0
LINE
  5
A360
330
A333
100
AcDbEntity
  8
0
100
AcDbLine
 10
43.57899999995641
 20
3.421199999996588
 30
0.0
 11
38.60499999996136
 21
8.999899999990987
 31
0.0
1001
ACAD
1000
ASC_BOUNDS
1002
{
1070
    19
1005
A37A
1002
}
  0
LINE
  5
A361
330
A333
100
AcDbEntity
  8
0
100
AcDbLine
 10
43.57899999995641
 20
8.763099999991255
 30
0.0
 11
43.57899999995641
 21
3.421199999996588
 31
0.0
1001
ACAD
1000
ASC_BOUNDS
1002
{
1070
    19
1005
A37A
1002
}
  0
LINE
  5
A362
330
A333
100
AcDbEntity
  8
0
100
AcDbLine
 10
43.57899999995641
 20
8.763099999991255
 30
0.0
 11
44.99999999995498
 21
8.763099999991255
 31
0.0
1001
ACAD
1000
ASC_BOUNDS
1002
{
1070
    19
1005
A37A
1002
}
  0
LINE
  5
A363
330
A333
100
AcDbEntity
  8
0
100
AcDbLine
 10
37.67199999996831
 20
8.763099999991255
 30
0.0
 11
36.23199999996837
 21
8.763099999991255
 31
0.0
  0
LINE
  5
A364
330
A333
100
AcDbEntity
  8
0
100
AcDbLine
 10
31.64199999996833
 20
8.763099999991255
 30
0.0
 11
31.64199999996833
 21
2.481619422925121
 31
0.0
  0
LINE
  5
A365
330
A333
100
AcDbEntity
  8
0
100
AcDbLine
 10
37.67199999996831
 20
8.763099999991255
 30
0.0
 11
37.67199999996831
 21
2.481619422925121
 31
0.0
  0
LINE
  5
A366
330
A333
100
AcDbEntity
  8
0
100
AcDbLine
 10
36.23199999996837
 20
8.763099999991255
 30
0.0
 11
36.23199999996837
 21
2.481619422925064
 31
0.0
  0
LINE
  5
A367
330
A333
100
AcDbEntity
  8
0
100
AcDbLine
 10
33.08199999996839
 20
8.763099999991255
 30
0.0
 11
33.08199999996839
 21
2.481619422925121
 31
0.0
  0
ARC
  5
A368
330
A333
100
AcDbEntity
  8
0
100
AcDbCircle
 10
34.65699999996832
 20
3.183099999991214
 30
0.0
 40
3.420000000000007
100
AcDbArc
 50
240.0000000000255
 51
299.9999999999766
  0
ARC
  5
A369
330
A333
100
AcDbEntity
  8
0
100
AcDbCircle
 10
34.65699999996832
 20
3.183099999991214
 30
0.0
 40
1.97999999999999
100
AcDbArc
 50
240.000000000026
 51
299.9999999999703
  0
LINE
  5
A36A
330
A333
100
AcDbEntity
  8
0
100
AcDbLine
 10
33.08199999996828
 20
8.763099999991255
 30
0.0
 11
31.64199999996833
 21
8.763099999991255
 31
0.0
  0
ARC
  5
A36B
330
A333
100
AcDbEntity
  8
0
100
AcDbCircle
 10
35.06199999996829
 20
2.481619422925064
 30
0.0
 40
1.17
100
AcDbArc
 50
299.9999999999699
 51
0.0
  0
ARC
  5
A36C
330
A333
100
AcDbEntity
  8
0
100
AcDbCircle
 10
34.25199999996835
 20
2.481619422925121
 30
0.0
 40
1.17
100
AcDbArc
 50
180.0
 51
240.0000000000238
  0
ARC
  5
A36D
330
A333
100
AcDbEntity
  8
0
100
AcDbCircle
 10
35.06199999996841
 20
2.481619422925121
 30
0.0
 40
2.61
100
AcDbArc
 50
299.9999999999756
 51
0.0
  0
ARC
  5
A36E
330
A333
100
AcDbEntity
  8
0
100
AcDbCircle
 10
34.25199999996835
 20
2.481619422925121
 30
0.0
 40
2.61
100
AcDbArc
 50
180.0
 51
240.0000000000244
  0
LINE
  5
A36F
330
A333
100
AcDbEntity
  8
0
100
AcDbLine
 10
29.30199999996933
 20
8.763099999991255
 30
0.0
 11
30.74199999996927
 21
8.763099999991255
 31
0.0
1001
ACAD
1000
ASC_BOUNDS
1002
{
1070
    19
1005
A378
1002
}
  0
LINE
  5
A370
330
A333
100
AcDbEntity
  8
0
100
AcDbLine
 10
30.74199999996927
 20
8.763099999991255
 30
0.0
 11
30.74199999996927
 21
2.373099999991211
 31
0.0
1001
ACAD
1000
ASC_BOUNDS
1002
{
1070
    19
1005
A378
1002
}
  0
LINE
  5
A371
330
A333
100
AcDbEntity
  8
0
100
AcDbLine
 10
26.02015566812236
 20
0.0330999999912365
 30
0.0
 11
28.40199999996923
 21
0.0330999999912365
 31
0.0
1001
ACAD
1000
ASC_BOUNDS
1002
{
1070
    19
1005
A378
1002
}
  0
LINE
  5
A372
330
A333
100
AcDbEntity
  8
0
100
AcDbLine
 10
29.30199999996933
 20
8.763099999991255
 30
0.0
 11
29.30199999996933
 21
2.283099999991236
 31
0.0
1001
ACAD
1000
ASC_BOUNDS
1002
{
1070
    19
1005
A378
1002
}
  0
LINE
  5
A373
330
A333
100
AcDbEntity
  8
0
100
AcDbLine
 10
26.97358892824991
 20
1.383099999991202
 30
0.0
 11
28.40199999996923
 21
1.383099999991202
 31
0.0
1001
ACAD
1000
ASC_BOUNDS
1002
{
1070
    19
1005
A378
1002
}
  0
ARC
  5
A374
330
A333
100
AcDbEntity
  8
0
100
AcDbCircle
 10
28.40199999996923
 20
2.283099999991236
 30
0.0
 40
0.9
100
AcDbArc
 50
270.0
 51
0.0
1001
ACAD
1000
ASC_BOUNDS
1002
{
1070
    19
1005
A378
1002
}
  0
ARC
  5
A375
330
A333
100
AcDbEntity
  8
0
100
AcDbCircle
 10
28.40199999996923
 20
2.373099999991211
 30
0.0
 40
2.34
100
AcDbArc
 50
270.0
 51
0.0
1001
ACAD
1000
ASC_BOUNDS
1002
{
1070
    19
1005
A378
1002
}
  0
INSERT
  5
A376
330
A333
100
AcDbEntity
  8
0
100
AcDbBlockReference
  2
*X72
 10
0.0
 20
0.0
 30
0.0
1001
ACAD
1000
HATCH
1002
{
1070
    19
1000
ANSI37
1040
0.15
1040
0.0
1000
ASC_BOUNDS
1070
     2
1070
     2
1070
    12
1005
A335
1005
A336
1005
A33D
1005
A34C
1005
A34F
1005
A34D
1005
A33E
1005
A343
1005
A341
1005
A345
1005
A344
1005
A346
1070
     2
1070
     3
1005
A351
1005
A353
1005
A352
1000
ASC_SEEDPOINT
1011
3.614004224891801
1021
2.996669441146025
1031
0.0
1000
R14_HATCH_DATA
1000
A376
1011
1.0
1021
0.0
1031
0.0
1011
0.0
1021
1.0
1031
0.0
1011
0.0
1021
0.0
1031
1.0
1040
0.0
1010
0.0
1020
0.0
1030
1.0
1000
ANSI37
1070
     0
1070
     1
1071
        2
1071
        7
1070
     0
1070
     1
1071
       17
1040
13.26299999998673
1040
-0.0001000000000317
1040
9.236999999990758
1040
8.999899999990987
1040
9.236999999990758
1040
8.999999999991019
1040
5.657999999994331
1040
0.9999999999989768
1040
3.181999999996833
1040
4.668599999995308
1040
6.432999999993513
1040
8.763099999991255
1040
4.617999999995391
1040
8.763099999991255
1040
1.420999999998571
1040
4.736799999995242
1040
4.617999999995391
1040
-0.0001000000000317
1040
4.617999999995391
1040
0.0
1040
6.766999999993232
1040
0.0
1040
6.766999999993232
1040
-0.0001000000000317
1040
7.826999999992154
1040
2.368399999997621
1040
10.64699999998936
1040
2.368399999997621
1040
11.70599999998831
1040
-0.0001000000000317
1040
11.70599999998831
1040
0.0
1040
13.26299999998673
1040
0.0
1071
       12
1005
A335
1005
A336
1005
A33D
1005
A34C
1005
A34F
1005
A34D
1005
A33E
1005
A343
1005
A341
1005
A345
1005
A344
1005
A346
1071
       22
1070
     0
1070
     1
1071
        3
1040
9.236999999990758
1040
5.5200999999945
1040
10.06399999998996
1040
3.670999999996297
1040
8.409999999991555
1040
3.670999999996297
1071
        3
1005
A351
1005
A353
1005
A352
1070
     0
1070
     1
1040
0.0
1040
0.15
1070
     0
1070
     2
1040
0.7853981633974483
1040
49.29960901727088
1040
-10.17736998311392
1040
-0.3367596045400932
1040
0.3367596045400932
1070
     0
1040
2.356194490192345
1040
49.29960901727088
1040
-10.17736998311392
1040
-0.3367596045400932
1040
-0.3367596045400932
1070
     0
1040
0.0110235143455945
1071
        2
1040
3.614004224891801
1040
2.996669441146025
1040
0.0
1040
3.614004224891801
1040
2.996669441146025
1040
0.0
1002
}
  0
INSERT
  5
A377
330
A333
100
AcDbEntity
  8
0
100
AcDbBlockReference
  2
*X73
 10
0.0
 20
0.0
 30
0.0
1001
ACAD
1000
HATCH
1002
{
1070
    19
1000
ANSI37
1040
0.15
1040
0.0
1000
ASC_BOUNDS
1070
     1
1070
     2
1070
    10
1005
A337
1005
A338
1005
A359
1005
A357
1005
A358
1005
A34B
1005
A350
1005
A354
1005
A33A
1005
A339
1000
ASC_SEEDPOINT
1011
14.73245321214324
1021
2.798246178283421
1031
0.0
1000
R14_HATCH_DATA
1000
A377
1011
1.0
1021
0.0
1031
0.0
1011
0.0
1021
1.0
1031
0.0
1011
0.0
1021
0.0
1031
1.0
1040
0.0
1010
0.0
1020
0.0
1030
1.0
1000
ANSI37
1070
     0
1070
     1
1071
        1
1071
        7
1070
     0
1070
     1
1071
       10
1040
16.46099999998353
1040
5.432899999994561
1040
18.59199999998134
1040
-0.2368999999997641
1040
22.38199999997767
1040
8.763099999991255
1040
20.89099999997916
1040
8.763099999991255
1040
18.59799999998143
1040
3.315799999996671
1040
16.46099999998353
1040
8.999899999990987
1040
14.32399999998563
1040
3.315799999996671
1040
12.02999999998792
1040
8.763099999991255
1040
10.53899999998941
1040
8.763099999991255
1040
14.32899999998563
1040
-0.2368999999997641
1071
       10
1005
A337
1005
A338
1005
A359
1005
A357
1005
A358
1005
A34B
1005
A350
1005
A354
1005
A33A
1005
A339
1070
     0
1070
     1
1040
0.0
1040
0.15
1070
     0
1070
     2
1040
0.7853981633974483
1040
49.29960901727088
1040
-10.17736998311392
1040
-0.3367596045400932
1040
0.3367596045400932
1070
     0
1040
2.356194490192345
1040
49.29960901727088
1040
-10.17736998311392
1040
-0.3367596045400932
1040
-0.3367596045400932
1070
     0
1040
0.0110235143455945
1071
        1
1040
14.73245321214324
1040
2.798246178283421
1040
0.0
1002
}
  0
INSERT
  5
A378
330
A333
100
AcDbEntity
  8
0
100
AcDbBlockReference
  2
*X74
 10
0.0
 20
0.0
 30
0.0
1001
ACAD
1000
HATCH
1002
{
1070
    19
1000
ANSI37
1040
0.15
1040
0.0
1000
ASC_BOUNDS
1070
     2
1070
     2
1070
    13
1005
A33B
1005
A348
1005
A349
1005
A347
1005
A34A
1005
A371
1005
A375
1005
A370
1005
A36F
1005
A372
1005
A374
1005
A373
1005
A33C
1070
     2
1070
     3
1005
A355
1005
A35A
1005
A356
1000
ASC_SEEDPOINT
1011
21.97929957367762
1021
3.294304244259308
1031
0.0
1000
R14_HATCH_DATA
1000
A378
1011
1.0
1021
0.0
1031
0.0
1011
0.0
1021
1.0
1031
0.0
1011
0.0
1021
0.0
1031
1.0
1040
0.0
1010
0.0
1020
0.0
1030
1.0
1000
ANSI37
1070
     0
1070
     1
1071
        2
1071
        7
1070
     1
1070
     1
1071
       15
1040
23.56599999997638
1040
8.999899999990987
1040
0.0
1040
19.53899999998043
1040
-0.0001000000000317
1040
0.0
1040
19.53899999998043
1040
0.0
1040
0.0
1040
21.09599999997886
1040
0.0
1040
0.0
1040
21.09599999997886
1040
-0.0001000000000317
1040
0.0
1040
22.15599999997789
1040
2.368399999997621
1040
0.0
1040
24.97599999997499
1040
2.368399999997621
1040
0.0
1040
26.02015566812236
1040
0.0330999999912365
1040
0.0
1040
28.40199999996923
1040
0.0330999999912365
1040
0.414213562373095
1040
30.74199999996923
1040
2.373099999991211
1040
0.0
1040
30.74199999996927
1040
8.763099999991255
1040
0.0
1040
29.30199999996933
1040
8.763099999991255
1040
0.0
1040
29.30199999996933
1040
2.283099999991236
1040
-0.414213562373095
1040
28.40199999996923
1040
1.383099999991237
1040
0.0
1040
26.97358892824991
1040
1.383099999991202
1040
0.0
1071
       13
1005
A33B
1005
A348
1005
A349
1005
A347
1005
A34A
1005
A371
1005
A375
1005
A370
1005
A36F
1005
A372
1005
A374
1005
A373
1005
A33C
1071
       22
1070
     0
1070
     1
1071
        3
1040
22.7389999999773
1040
3.670999999996297
1040
23.56599999997638
1040
5.5200999999945
1040
24.39299999997559
1040
3.670999999996297
1071
        3
1005
A355
1005
A35A
1005
A356
1070
     0
1070
     1
1040
0.0
1040
0.15
1070
     0
1070
     2
1040
0.7853981633974483
1040
49.29960901727088
1040
-10.17736998311392
1040
-0.3367596045400932
1040
0.3367596045400932
1070
     0
1040
2.356194490192345
1040
49.29960901727088
1040
-10.17736998311392
1040
-0.3367596045400932
1040
-0.3367596045400932
1070
     0
1040
0.0110235143455945
1071
        2
1040
21.97929957367762
1040
3.294304244259308
1040
0.0
1040
21.97929957367762
1040
3.294304244259308
1040
0.0
1002
}
  0
INSERT
  5
A379
330
A333
100
AcDbEntity
  8
0
100
AcDbBlockReference
  2
*X75
 10
0.0
 20
0.0
 30
0.0
1001
ACAD
1000
HATCH
1002
{
1070
    19
1000
ANSI37
1040
0.15
1040
0.0
1000
R14_HATCH_DATA
1000
A379
1011
1.0
1021
0.0
1031
0.0
1011
0.0
1021
1.0
1031
0.0
1011
0.0
1021
0.0
1031
1.0
1040
0.0
1010
0.0
1020
0.0
1030
1.0
1000
ANSI37
1070
     0
1070
     1
1071
        1
1071
        7
1070
     1
1070
     1
1071
       12
1040
31.64199999996833
1040
2.481619422925121
1040
0.2679491924310942
1040
32.94699999997067
1040
0.2212931190493919
1040
0.2679491924301353
1040
36.36699999995983
1040
0.2212931190459813
1040
0.2679491924321411
1040
37.67199999996831
1040
2.481619422928361
1040
0.0
1040
37.67199999996831
1040
8.763099999991255
1040
0.0
1040
36.23199999996837
1040
8.763099999991255
1040
0.0
1040
36.23199999996837
1040
2.481619422925064
1040
-0.2679491924310291
1040
35.64699999996708
1040
1.468369700498386
1040
-0.267949192430519
1040
33.66699999997093
1040
1.468369700497703
1040
-0.267949192431809
1040
33.08199999996839
1040
2.481619422926997
1040
0.0
1040
33.08199999996839
1040
8.763099999991255
1040
0.0
1040
31.64199999996833
1040
8.763099999991255
1040
0.0
1071
        0
1070
     0
1070
     1
1040
0.0
1040
0.15
1070
     0
1070
     2
1040
0.7853981633974483
1040
49.29960901727088
1040
-10.17736998311392
1040
-0.3367596045400932
1040
0.3367596045400932
1070
     0
1040
2.356194490192345
1040
49.29960901727088
1040
-10.17736998311392
1040
-0.3367596045400932
1040
-0.3367596045400932
1070
     0
1040
0.0110235143455945
1071
        1
1040
32.30357378967278
1040
3.988785755459219
1040
0.0
1002
}
  0
INSERT
  5
A37A
330
A333
100
AcDbEntity
  8
0
100
AcDbBlockReference
  2
*X76
 10
0.0
 20
0.0
 30
0.0
1001
ACAD
1000
HATCH
1002
{
1070
    19
1000
ANSI37
1040
0.15
1040
0.0
1000
ASC_BOUNDS
1070
     1
1070
     2
1070
     8
1005
A35B
1005
A35E
1005
A362
1005
A361
1005
A360
1005
A35D
1005
A35F
1005
A35C
1000
ASC_SEEDPOINT
1011
39.74896370716704
1021
4.484843821435049
1031
0.0
1000
R14_HATCH_DATA
1000
A37A
1011
1.0
1021
0.0
1031
0.0
1011
0.0
1021
1.0
1031
0.0
1011
0.0
1021
0.0
1031
1.0
1040
0.0
1010
0.0
1020
0.0
1030
1.0
1000
ANSI37
1070
     0
1070
     1
1071
        1
1071
        7
1070
     0
1070
     1
1071
        9
1040
40.02599999995994
1040
5.341799999994635
1040
44.99999999995498
1040
-0.2368999999997641
1040
44.99999999995498
1040
8.763099999991255
1040
43.57899999995641
1040
8.763099999991255
1040
43.57899999995641
1040
3.421199999996588
1040
38.60499999996136
1040
8.999899999990987
1040
38.60499999996136
1040
8.999999999991019
1040
38.60499999996136
1040
0.0
1040
40.02599999995994
1040
0.0
1071
        8
1005
A35B
1005
A35E
1005
A362
1005
A361
1005
A360
1005
A35D
1005
A35F
1005
A35C
1070
     0
1070
     1
1040
0.0
1040
0.15
1070
     0
1070
     2
1040
0.7853981633974483
1040
49.29960901727088
1040
-10.17736998311392
1040
-0.3367596045400932
1040
0.3367596045400932
1070
     0
1040
2.356194490192345
1040
49.29960901727088
1040
-10.17736998311392
1040
-0.3367596045400932
1040
-0.3367596045400932
1070
     0
1040
0.0110235143455945
1071
        1
1040
39.74896370716704
1040
4.484843821435049
1040
0.0
1002
}
  0
INSERT
  5
A37B
330
A333
100
AcDbEntity
  8
0
100
AcDbBlockReference
  2
*X77
 10
0.0
 20
0.0
 30
0.0
1001
ACAD
1000
HATCH
1002
{
1070
    19
1000
ANSI37
1040
0.15
1040
0.0
1000
ASC_BOUNDS
1070
     1
1070
     2
1070
     4
1005
A33F
1005
A34E
1005
A340
1005
A342
1000
ASC_SEEDPOINT
1011
1.079051535452663
1021
4.148538732891836
1031
0.0
1000
R14_HATCH_DATA
1000
A37B
1011
1.0
1021
0.0
1031
0.0
1011
0.0
1021
1.0
1031
0.0
1011
0.0
1021
0.0
1031
1.0
1040
0.0
1010
0.0
1020
0.0
1030
1.0
1000
ANSI37
1070
     0
1070
     1
1071
        1
1071
        7
1070
     0
1070
     1
1071
        4
1040
1.420999999998571
1040
0.0
1040
1.420999999998571
1040
8.763099999991255
1040
0.0
1040
8.763099999991255
1040
0.0
1040
0.0
1071
        4
1005
A33F
1005
A34E
1005
A340
1005
A342
1070
     0
1070
     1
1040
0.0
1040
0.15
1070
     0
1070
     2
1040
0.7853981633974483
1040
49.29960901727088
1040
-10.17736998311392
1040
-0.3367596045400932
1040
0.3367596045400932
1070
     0
1040
2.356194490192345
1040
49.29960901727088
1040
-10.17736998311392
1040
-0.3367596045400932
1040
-0.3367596045400932
1070
     0
1040
0.0053004257112761
1071
        1
1040
1.079051535452663
1040
4.148538732891836
1040
0.0
1002
}
  0
ENDBLK
  5
AA57
330
A333
100
AcDbEntity
  8
0
100
AcDbBlockEnd
  0
BLOCK
  5
B1D7
330
B049
100
AcDbEntity
  8
0
100
AcDbBlockBegin
  2
*X72
 70
     1
 10
0.0
 20
0.0
 30
0.0
  3
*X72
  1

  0
LINE
  5
B04A
330
B049
100
AcDbEntity
  8
0
  6
CONTINUOUS
100
AcDbLine
 10
3.418023043697893
 20
7.251849696850613
 30
0.0
 11
4.929273346838536
 21
8.763099999991255
 31
0.0
  0
LINE
  5
B04B
330
B049
100
AcDbEntity
  8
0
  6
CONTINUOUS
100
AcDbLine
 10
1.483656411257782
 20
4.643963855330318
 30
0.0
 11
5.60279255591872
 21
8.763099999991255
 31
0.0
  0
LINE
  5
B04C
330
B049
100
AcDbEntity
  8
0
  6
CONTINUOUS
100
AcDbLine
 10
1.755053947328235
 20
4.241842182320584
 30
0.0
 11
6.276311764998907
 21
8.763099999991255
 31
0.0
  0
LINE
  5
B04D
330
B049
100
AcDbEntity
  8
0
  6
CONTINUOUS
100
AcDbLine
 10
2.026451483398688
 20
3.839720509310849
 30
0.0
 11
4.441040904851878
 21
6.254309930764039
 31
0.0
  0
LINE
  5
B04E
330
B049
100
AcDbEntity
  8
0
  6
CONTINUOUS
100
AcDbLine
 10
2.297849019469139
 20
3.437598836301114
 30
0.0
 11
3.321765168359338
 21
4.461514985191313
 31
0.0
  0
LINE
  5
B04F
330
B049
100
AcDbEntity
  8
0
  6
CONTINUOUS
100
AcDbLine
 10
2.569246555539591
 20
3.03547716329138
 30
0.0
 11
3.593163397972743
 21
4.059394005724531
 31
0.0
  0
LINE
  5
B050
330
B049
100
AcDbEntity
  8
0
  6
CONTINUOUS
100
AcDbLine
 10
2.840644091610043
 20
2.633355490281646
 30
0.0
 11
3.864561627586149
 21
3.657273026257751
 31
0.0
  0
LINE
  5
B051
330
B049
100
AcDbEntity
  8
0
  6
CONTINUOUS
100
AcDbLine
 10
3.112041627680496
 20
2.231233817271911
 30
0.0
 11
4.135959857199554
 21
3.25515204679097
 31
0.0
  0
LINE
  5
B052
330
B049
100
AcDbEntity
  8
0
  6
CONTINUOUS
100
AcDbLine
 10
3.383439163750948
 20
1.829112144262177
 30
0.0
 11
4.40735808681296
 21
2.853031067324189
 31
0.0
  0
LINE
  5
B053
330
B049
100
AcDbEntity
  8
0
  6
CONTINUOUS
100
AcDbLine
 10
3.654836699821399
 20
1.426990471252442
 30
0.0
 11
4.678756316426365
 21
2.450910087857407
 31
0.0
  0
LINE
  5
B054
330
B049
100
AcDbEntity
  8
0
  6
CONTINUOUS
100
AcDbLine
 10
3.926234235891853
 20
1.024868798242709
 30
0.0
 11
4.95015454603977
 21
2.048789108390626
 31
0.0
  0
LINE
  5
B055
330
B049
100
AcDbEntity
  8
0
  6
CONTINUOUS
100
AcDbLine
 10
4.197631771962304
 20
0.6227471252329737
 30
0.0
 11
5.221552775653176
 21
1.646668128923846
 31
0.0
  0
LINE
  5
B056
330
B049
100
AcDbEntity
  8
0
  6
CONTINUOUS
100
AcDbLine
 10
8.715877546767851
 20
7.835069736359266
 30
0.0
 11
9.435953450375058
 21
8.555145639966472
 31
0.0
  0
LINE
  5
B057
330
B049
100
AcDbEntity
  8
0
  6
CONTINUOUS
100
AcDbLine
 10
8.170620868422267
 20
6.616293848933497
 30
0.0
 11
9.644120833743461
 21
8.08979381425469
 31
0.0
  0
LINE
  5
B058
330
B049
100
AcDbEntity
  8
0
  6
CONTINUOUS
100
AcDbLine
 10
7.625364190076684
 20
5.397517961507727
 30
0.0
 11
9.852288217111864
 21
7.624441988542907
 31
0.0
  0
LINE
  5
B059
330
B049
100
AcDbEntity
  8
0
  6
CONTINUOUS
100
AcDbLine
 10
7.080107511731101
 20
4.178742074081957
 30
0.0
 11
10.06045560048027
 21
7.159090162831124
 31
0.0
  0
LINE
  5
B05A
330
B049
100
AcDbEntity
  8
0
  6
CONTINUOUS
100
AcDbLine
 10
6.534850833385518
 20
2.959966186656187
 30
0.0
 11
10.26862298384867
 21
6.693738337119342
 31
0.0
  0
LINE
  5
B05B
330
B049
100
AcDbEntity
  8
0
  6
CONTINUOUS
100
AcDbLine
 10
4.469029308032756
 20
0.2206254522232385
 30
0.0
 11
5.492951005266582
 21
1.244547149457064
 31
0.0
  0
LINE
  5
B05C
330
B049
100
AcDbEntity
  8
0
  6
CONTINUOUS
100
AcDbLine
 10
5.989594155039935
 20
1.741190299230417
 30
0.0
 11
8.806950407233131
 21
4.558546551423613
 31
0.0
  0
LINE
  5
B05D
330
B049
100
AcDbEntity
  8
0
  6
CONTINUOUS
100
AcDbLine
 10
9.401251593263643
 20
5.152847737454126
 30
0.0
 11
10.47679036721708
 21
6.228386511407559
 31
0.0
  0
LINE
  5
B05E
330
B049
100
AcDbEntity
  8
0
  6
CONTINUOUS
100
AcDbLine
 10
4.921837203428691
 20
-0.0000858614610131
 30
0.0
 11
8.592923064886001
 21
3.670999999996297
 31
0.0
  0
LINE
  5
B05F
330
B049
100
AcDbEntity
  8
0
  6
CONTINUOUS
100
AcDbLine
 10
9.609390446785305
 20
4.6874673818956
 30
0.0
 11
10.68495775058548
 21
5.763034685695775
 31
0.0
  0
LINE
  5
B060
330
B049
100
AcDbEntity
  8
0
  6
CONTINUOUS
100
AcDbLine
 10
5.595387755019432
 20
-0.0000545189504582
 30
0.0
 11
7.716137258923768
 21
2.120694984953879
 31
0.0
  0
LINE
  5
B061
330
B049
100
AcDbEntity
  8
0
  6
CONTINUOUS
100
AcDbLine
 10
6.268938306610172
 20
-0.000023176439905
 30
0.0
 11
7.170485805526503
 21
0.9015243224764267
 31
0.0
  0
LINE
  5
B062
330
B049
100
AcDbEntity
  8
0
  6
CONTINUOUS
100
AcDbLine
 10
7.963842273967511
 20
2.368399999997621
 30
0.0
 11
9.266442273966188
 21
3.670999999996297
 31
0.0
  0
LINE
  5
B063
330
B049
100
AcDbEntity
  8
0
  6
CONTINUOUS
100
AcDbLine
 10
8.637361483047696
 20
2.368399999997621
 30
0.0
 11
9.939961483046375
 21
3.670999999996297
 31
0.0
  0
LINE
  5
B064
330
B049
100
AcDbEntity
  8
0
  6
CONTINUOUS
100
AcDbLine
 10
9.817529300306965
 20
4.222087026337075
 30
0.0
 11
10.89312513395388
 21
5.297682859983993
 31
0.0
  0
LINE
  5
B065
330
B049
100
AcDbEntity
  8
0
  6
CONTINUOUS
100
AcDbLine
 10
10.02566815382863
 20
3.756706670778549
 30
0.0
 11
11.10129251732229
 21
4.832331034272211
 31
0.0
  0
LINE
  5
B066
330
B049
100
AcDbEntity
  8
0
  6
CONTINUOUS
100
AcDbLine
 10
9.310880692127883
 20
2.368399999997621
 30
0.0
 11
11.30945990069069
 21
4.366979208560428
 31
0.0
  0
LINE
  5
B067
330
B049
100
AcDbEntity
  8
0
  6
CONTINUOUS
100
AcDbLine
 10
9.98439990120807
 20
2.36839999999762
 30
0.0
 11
11.5176272840591
 21
3.901627382848645
 31
0.0
  0
LINE
  5
B068
330
B049
100
AcDbEntity
  8
0
  6
CONTINUOUS
100
AcDbLine
 10
10.65037369446246
 20
2.36085458417182
 30
0.0
 11
11.7257946674275
 21
3.436275557136862
 31
0.0
  0
LINE
  5
B069
330
B049
100
AcDbEntity
  8
0
  6
CONTINUOUS
100
AcDbLine
 10
10.85847197087848
 20
1.895433651507656
 30
0.0
 11
11.9339620507959
 21
2.97092373142508
 31
0.0
  0
LINE
  5
B06A
330
B049
100
AcDbEntity
  8
0
  6
CONTINUOUS
100
AcDbLine
 10
11.0665702472945
 20
1.430012718843491
 30
0.0
 11
12.14212943416431
 21
2.505571905713296
 31
0.0
  0
LINE
  5
B06B
330
B049
100
AcDbEntity
  8
0
  6
CONTINUOUS
100
AcDbLine
 10
11.27466852371052
 20
0.9645917861793256
 30
0.0
 11
12.35029681753271
 21
2.040220080001513
 31
0.0
  0
LINE
  5
B06C
330
B049
100
AcDbEntity
  8
0
  6
CONTINUOUS
100
AcDbLine
 10
11.48276680012654
 20
0.4991708535151611
 30
0.0
 11
12.55846420090111
 21
1.57486825428973
 31
0.0
  0
LINE
  5
B06D
330
B049
100
AcDbEntity
  8
0
  6
CONTINUOUS
100
AcDbLine
 10
11.69086507654257
 20
0.0337499208509957
 30
0.0
 11
12.76663158426952
 21
1.109516428577947
 31
0.0
  0
LINE
  5
B06E
330
B049
100
AcDbEntity
  8
0
  6
CONTINUOUS
100
AcDbLine
 10
12.33057447873954
 20
-0.0000598860322123
 30
0.0
 11
12.97479896763792
 21
0.6441646028661663
 31
0.0
  0
LINE
  5
B06F
330
B049
100
AcDbEntity
  8
0
  6
CONTINUOUS
100
AcDbLine
 10
13.00413694809395
 20
-0.0000166257579952
 30
0.0
 11
13.18296635100632
 21
0.1788127771543824
 31
0.0
  0
LINE
  5
B070
330
B049
100
AcDbEntity
  8
0
  6
CONTINUOUS
100
AcDbLine
 10
4.772852165289667
 20
-0.000092794222212
 30
0.0
 11
4.296495091028902
 21
0.4762642800385528
 31
0.0
  0
LINE
  5
B071
330
B049
100
AcDbEntity
  8
0
  6
CONTINUOUS
100
AcDbLine
 10
5.446340034776103
 20
-0.0000614546284616
 30
0.0
 11
2.898195908335625
 21
2.548082671812017
 31
0.0
  0
LINE
  5
B072
330
B049
100
AcDbEntity
  8
0
  6
CONTINUOUS
100
AcDbLine
 10
6.119827904262539
 20
-0.0000301150347113
 30
0.0
 11
1.499896725642348
 21
4.61990106358548
 31
0.0
  0
LINE
  5
B073
330
B049
100
AcDbEntity
  8
0
  6
CONTINUOUS
100
AcDbLine
 10
6.775136745476159
 20
0.0181802528318542
 30
0.0
 11
5.699826040202669
 21
1.093490958105344
 31
0.0
  0
LINE
  5
B074
330
B049
100
AcDbEntity
  8
0
  6
CONTINUOUS
100
AcDbLine
 10
6.983376846288489
 20
0.4834593610997118
 30
0.0
 11
5.908008617934405
 21
1.558827589453796
 31
0.0
  0
LINE
  5
B075
330
B049
100
AcDbEntity
  8
0
  6
CONTINUOUS
100
AcDbLine
 10
5.377063484962296
 20
1.416253513345719
 30
0.0
 11
1.702276957014131
 21
5.091040041293883
 31
0.0
  0
LINE
  5
B076
330
B049
100
AcDbEntity
  8
0
  6
CONTINUOUS
100
AcDbLine
 10
3.978745891735324
 20
3.488090315652877
 30
0.0
 11
2.000373521109399
 21
5.466462686278803
 31
0.0
  0
LINE
  5
B077
330
B049
100
AcDbEntity
  8
0
  6
CONTINUOUS
100
AcDbLine
 10
7.191616947100819
 20
0.948738469367568
 30
0.0
 11
6.11619119566614
 21
2.024164220802247
 31
0.0
  0
LINE
  5
B078
330
B049
100
AcDbEntity
  8
0
  6
CONTINUOUS
100
AcDbLine
 10
7.399857047913149
 20
1.414017577635424
 30
0.0
 11
6.324373773397875
 21
2.489500852150698
 31
0.0
  0
LINE
  5
B079
330
B049
100
AcDbEntity
  8
0
  6
CONTINUOUS
100
AcDbLine
 10
7.608097148725479
 20
1.879296685903281
 30
0.0
 11
6.53255635112961
 21
2.95483748349915
 31
0.0
  0
LINE
  5
B07A
330
B049
100
AcDbEntity
  8
0
  6
CONTINUOUS
100
AcDbLine
 10
7.816337249537808
 20
2.344575794171138
 30
0.0
 11
6.740738928861345
 21
3.420174114847601
 31
0.0
  0
LINE
  5
B07B
330
B049
100
AcDbEntity
  8
0
  6
CONTINUOUS
100
AcDbLine
 10
3.310241080789734
 20
4.830114335678653
 30
0.0
 11
2.298470085204666
 21
5.84188533126372
 31
0.0
  0
LINE
  5
B07C
330
B049
100
AcDbEntity
  8
0
  6
CONTINUOUS
100
AcDbLine
 10
3.60832983563551
 20
5.205544789913063
 30
0.0
 11
2.596566649299935
 21
6.217307976248638
 31
0.0
  0
LINE
  5
B07D
330
B049
100
AcDbEntity
  8
0
  6
CONTINUOUS
100
AcDbLine
 10
3.906418590481286
 20
5.580975244147473
 30
0.0
 11
2.894663213395203
 21
6.592730621233557
 31
0.0
  0
LINE
  5
B07E
330
B049
100
AcDbEntity
  8
0
  6
CONTINUOUS
100
AcDbLine
 10
4.204507345327062
 20
5.956405698381884
 30
0.0
 11
3.192759777490472
 21
6.968153266218474
 31
0.0
  0
LINE
  5
B07F
330
B049
100
AcDbEntity
  8
0
  6
CONTINUOUS
100
AcDbLine
 10
8.466032252791512
 20
2.368399999997621
 30
0.0
 11
6.948921506593081
 21
3.885510746196053
 31
0.0
  0
LINE
  5
B080
330
B049
100
AcDbEntity
  8
0
  6
CONTINUOUS
100
AcDbLine
 10
9.139551461871699
 20
2.36839999999762
 30
0.0
 11
7.157104084324816
 21
4.350847377544504
 31
0.0
  0
LINE
  5
B081
330
B049
100
AcDbEntity
  8
0
  6
CONTINUOUS
100
AcDbLine
 10
4.502596100172839
 20
6.331836152616295
 30
0.0
 11
3.49085634158574
 21
7.343575911203393
 31
0.0
  0
LINE
  5
B082
330
B049
100
AcDbEntity
  8
0
  6
CONTINUOUS
100
AcDbLine
 10
4.800684855018615
 20
6.707266606850705
 30
0.0
 11
3.788952905681008
 21
7.718998556188312
 31
0.0
  0
LINE
  5
B083
330
B049
100
AcDbEntity
  8
0
  6
CONTINUOUS
100
AcDbLine
 10
12.18154012887317
 20
-0.0000694579236642
 30
0.0
 11
11.32140332908496
 21
0.8600673418645499
 31
0.0
  0
LINE
  5
B084
330
B049
100
AcDbEntity
  8
0
  6
CONTINUOUS
100
AcDbLine
 10
12.85501608323566
 20
-0.0000262032059659
 30
0.0
 11
10.77672456435345
 21
2.078265315676246
 31
0.0
  0
LINE
  5
B085
330
B049
100
AcDbEntity
  8
0
  6
CONTINUOUS
100
AcDbLine
 10
9.813070670951886
 20
2.36839999999762
 30
0.0
 11
8.51047067095321
 21
3.670999999996297
 31
0.0
  0
LINE
  5
B086
330
B049
100
AcDbEntity
  8
0
  6
CONTINUOUS
100
AcDbLine
 10
10.48658988003207
 20
2.36839999999762
 30
0.0
 11
9.183989880033396
 21
3.670999999996297
 31
0.0
  0
LINE
  5
B087
330
B049
100
AcDbEntity
  8
0
  6
CONTINUOUS
100
AcDbLine
 10
8.441048632286794
 20
3.740422038662712
 30
0.0
 11
7.365286662056551
 21
4.816184008892956
 31
0.0
  0
LINE
  5
B088
330
B049
100
AcDbEntity
  8
0
  6
CONTINUOUS
100
AcDbLine
 10
8.649187485808454
 20
4.205802394221237
 30
0.0
 11
7.573469239788285
 21
5.281520640241407
 31
0.0
  0
LINE
  5
B089
330
B049
100
AcDbEntity
  8
0
  6
CONTINUOUS
100
AcDbLine
 10
5.098773609864391
 20
7.082697061085115
 30
0.0
 11
4.087049469776277
 21
8.09442120117323
 31
0.0
  0
LINE
  5
B08A
330
B049
100
AcDbEntity
  8
0
  6
CONTINUOUS
100
AcDbLine
 10
5.396862364710167
 20
7.458127515319526
 30
0.0
 11
4.385146033871544
 21
8.469843846158149
 31
0.0
  0
LINE
  5
B08B
330
B049
100
AcDbEntity
  8
0
  6
CONTINUOUS
100
AcDbLine
 10
13.04801363231285
 20
0.4804954567970334
 30
0.0
 11
9.85750908911358
 21
3.670999999996297
 31
0.0
  0
LINE
  5
B08C
330
B049
100
AcDbEntity
  8
0
  6
CONTINUOUS
100
AcDbLine
 10
8.857326339330116
 20
4.671182749779763
 30
0.0
 11
7.781651817520021
 21
5.746857271589858
 31
0.0
  0
LINE
  5
B08D
330
B049
100
AcDbEntity
  8
0
  6
CONTINUOUS
100
AcDbLine
 10
5.694951119555943
 20
7.833557969553937
 30
0.0
 11
4.765409089118624
 21
8.763099999991255
 31
0.0
  0
LINE
  5
B08E
330
B049
100
AcDbEntity
  8
0
  6
CONTINUOUS
100
AcDbLine
 10
12.50286117236978
 20
1.699167125820288
 30
0.0
 11
9.68611877250287
 21
4.515909525687196
 31
0.0
  0
LINE
  5
B08F
330
B049
100
AcDbEntity
  8
0
  6
CONTINUOUS
100
AcDbLine
 10
9.065465192851777
 20
5.136563105338288
 30
0.0
 11
7.989834395251757
 21
6.21219390293831
 31
0.0
  0
LINE
  5
B090
330
B049
100
AcDbEntity
  8
0
  6
CONTINUOUS
100
AcDbLine
 10
5.993039874401719
 20
8.208988423788346
 30
0.0
 11
5.43892829819881
 21
8.763099999991255
 31
0.0
  0
LINE
  5
B091
330
B049
100
AcDbEntity
  8
0
  6
CONTINUOUS
100
AcDbLine
 10
11.95770871242671
 20
2.917838794843543
 30
0.0
 11
8.19801697298349
 21
6.677530534286761
 31
0.0
  0
LINE
  5
B092
330
B049
100
AcDbEntity
  8
0
  6
CONTINUOUS
100
AcDbLine
 10
6.291128629247495
 20
8.584418878022756
 30
0.0
 11
6.112447507278997
 21
8.763099999991255
 31
0.0
  0
LINE
  5
B093
330
B049
100
AcDbEntity
  8
0
  6
CONTINUOUS
100
AcDbLine
 10
11.41255625248364
 20
4.136510463866797
 30
0.0
 11
8.406199550715227
 21
7.142867165635211
 31
0.0
  0
LINE
  5
B094
330
B049
100
AcDbEntity
  8
0
  6
CONTINUOUS
100
AcDbLine
 10
10.86740379254057
 20
5.355182132890051
 30
0.0
 11
8.614382128446962
 21
7.608203796983664
 31
0.0
  0
LINE
  5
B095
330
B049
100
AcDbEntity
  8
0
  6
CONTINUOUS
100
AcDbLine
 10
10.3222513325975
 20
6.573853801913305
 30
0.0
 11
8.822564706178696
 21
8.073540428332114
 31
0.0
  0
LINE
  5
B096
330
B049
100
AcDbEntity
  8
0
  6
CONTINUOUS
100
AcDbLine
 10
9.777098872654436
 20
7.792525470936562
 30
0.0
 11
9.030747283910433
 21
8.538877059680566
 31
0.0
  0
ENDBLK
  5
B1D8
330
B049
100
AcDbEntity
  8
0
100
AcDbBlockEnd
  0
BLOCK
  5
B1D9
330
B097
100
AcDbEntity
  8
0
100
AcDbBlockBegin
  2
*X73
 70
     1
 10
0.0
 20
0.0
 30
0.0
  3
*X73
  1

  0
LINE
  5
B098
330
B097
100
AcDbEntity
  8
0
  6
CONTINUOUS
100
AcDbLine
 10
10.67292308101235
 20
8.445076852443387
 30
0.0
 11
10.99094622856022
 21
8.763099999991255
 31
0.0
  0
LINE
  5
B099
330
B097
100
AcDbEntity
  8
0
  6
CONTINUOUS
100
AcDbLine
 10
10.87250383178748
 20
7.971138394138331
 30
0.0
 11
11.6644654376404
 21
8.763099999991255
 31
0.0
  0
LINE
  5
B09A
330
B097
100
AcDbEntity
  8
0
  6
CONTINUOUS
100
AcDbLine
 10
11.07208458256261
 20
7.497199935833273
 30
0.0
 11
12.12126590876355
 21
8.546381262034211
 31
0.0
  0
LINE
  5
B09B
330
B097
100
AcDbEntity
  8
0
  6
CONTINUOUS
100
AcDbLine
 10
11.27166533333774
 20
7.023261477528216
 30
0.0
 11
12.32085164573666
 21
8.072447789927136
 31
0.0
  0
LINE
  5
B09C
330
B097
100
AcDbEntity
  8
0
  6
CONTINUOUS
100
AcDbLine
 10
11.47124608411287
 20
6.549323019223158
 30
0.0
 11
12.52043738270977
 21
7.59851431782006
 31
0.0
  0
LINE
  5
B09D
330
B097
100
AcDbEntity
  8
0
  6
CONTINUOUS
100
AcDbLine
 10
11.670826834888
 20
6.075384560918101
 30
0.0
 11
12.72002311968288
 21
7.124580845712984
 31
0.0
  0
LINE
  5
B09E
330
B097
100
AcDbEntity
  8
0
  6
CONTINUOUS
100
AcDbLine
 10
11.87040758566313
 20
5.601446102613043
 30
0.0
 11
12.91960885665599
 21
6.650647373605907
 31
0.0
  0
LINE
  5
B09F
330
B097
100
AcDbEntity
  8
0
  6
CONTINUOUS
100
AcDbLine
 10
12.06998833643825
 20
5.127507644307986
 30
0.0
 11
13.1191945936291
 21
6.176713901498832
 31
0.0
  0
LINE
  5
B0A0
330
B097
100
AcDbEntity
  8
0
  6
CONTINUOUS
100
AcDbLine
 10
12.26956908721338
 20
4.65356918600293
 30
0.0
 11
13.31878033060221
 21
5.702780429391757
 31
0.0
  0
LINE
  5
B0A1
330
B097
100
AcDbEntity
  8
0
  6
CONTINUOUS
100
AcDbLine
 10
12.46914983798851
 20
4.179630727697873
 30
0.0
 11
13.51836606757532
 21
5.228846957284683
 31
0.0
  0
LINE
  5
B0A2
330
B097
100
AcDbEntity
  8
0
  6
CONTINUOUS
100
AcDbLine
 10
12.66873058876364
 20
3.705692269392816
 30
0.0
 11
13.71795180454843
 21
4.754913485177607
 31
0.0
  0
LINE
  5
B0A3
330
B097
100
AcDbEntity
  8
0
  6
CONTINUOUS
100
AcDbLine
 10
12.86831133953877
 20
3.231753811087759
 30
0.0
 11
13.91753754152154
 21
4.280980013070531
 31
0.0
  0
LINE
  5
B0A4
330
B097
100
AcDbEntity
  8
0
  6
CONTINUOUS
100
AcDbLine
 10
13.0678920903139
 20
2.757815352782702
 30
0.0
 11
14.11712327849465
 21
3.807046540963456
 31
0.0
  0
LINE
  5
B0A5
330
B097
100
AcDbEntity
  8
0
  6
CONTINUOUS
100
AcDbLine
 10
13.26747284108903
 20
2.283876894477644
 30
0.0
 11
14.31670901546777
 21
3.333113068856379
 31
0.0
  0
LINE
  5
B0A6
330
B097
100
AcDbEntity
  8
0
  6
CONTINUOUS
100
AcDbLine
 10
16.36767838827179
 20
8.751678487061342
 30
0.0
 11
16.50332410898388
 21
8.887324207773432
 31
0.0
  0
LINE
  5
B0A7
330
B097
100
AcDbEntity
  8
0
  6
CONTINUOUS
100
AcDbLine
 10
15.96190732182191
 20
7.67238821153127
 30
0.0
 11
16.68735328004734
 21
8.397834169756699
 31
0.0
  0
LINE
  5
B0A8
330
B097
100
AcDbEntity
  8
0
  6
CONTINUOUS
100
AcDbLine
 10
15.55613625537202
 20
6.593097936001196
 30
0.0
 11
16.87138245111079
 21
7.908344131739965
 31
0.0
  0
LINE
  5
B0A9
330
B097
100
AcDbEntity
  8
0
  6
CONTINUOUS
100
AcDbLine
 10
15.15036518892213
 20
5.513807660471122
 30
0.0
 11
17.05541162217424
 21
7.418854093723231
 31
0.0
  0
LINE
  5
B0AA
330
B097
100
AcDbEntity
  8
0
  6
CONTINUOUS
100
AcDbLine
 10
14.74459412247225
 20
4.434517384941048
 30
0.0
 11
17.2394407932377
 21
6.929364055706499
 31
0.0
  0
LINE
  5
B0AB
330
B097
100
AcDbEntity
  8
0
  6
CONTINUOUS
100
AcDbLine
 10
14.33882305602236
 20
3.355227109410975
 30
0.0
 11
17.42346996430115
 21
6.439874017689766
 31
0.0
  0
LINE
  5
B0AC
330
B097
100
AcDbEntity
  8
0
  6
CONTINUOUS
100
AcDbLine
 10
13.46705359186416
 20
1.809938436172586
 30
0.0
 11
16.0819338255367
 21
4.424818669845129
 31
0.0
  0
LINE
  5
B0AD
330
B097
100
AcDbEntity
  8
0
  6
CONTINUOUS
100
AcDbLine
 10
16.63283254238972
 20
4.975717386698149
 30
0.0
 11
17.60749913536461
 21
5.950383979673033
 31
0.0
  0
LINE
  5
B0AE
330
B097
100
AcDbEntity
  8
0
  6
CONTINUOUS
100
AcDbLine
 10
13.66663434263929
 20
1.335999977867529
 30
0.0
 11
15.67604797733754
 21
3.345413612565779
 31
0.0
  0
LINE
  5
B0AF
330
B097
100
AcDbEntity
  8
0
  6
CONTINUOUS
100
AcDbLine
 10
13.86621509341442
 20
0.8620615195624723
 30
0.0
 11
15.27016212913838
 21
2.26600855528643
 31
0.0
  0
LINE
  5
B0B0
330
B097
100
AcDbEntity
  8
0
  6
CONTINUOUS
100
AcDbLine
 10
16.81682257348267
 20
4.486188208710908
 30
0.0
 11
17.79152830642806
 21
5.460893941656299
 31
0.0
  0
LINE
  5
B0B1
330
B097
100
AcDbEntity
  8
0
  6
CONTINUOUS
100
AcDbLine
 10
17.00081260457561
 20
3.996659030723667
 30
0.0
 11
17.97555747749151
 21
4.971403903639565
 31
0.0
  0
LINE
  5
B0B2
330
B097
100
AcDbEntity
  8
0
  6
CONTINUOUS
100
AcDbLine
 10
20.74362343514722
 20
8.412989070375462
 30
0.0
 11
21.09373436476302
 21
8.763099999991256
 31
0.0
  0
LINE
  5
B0B3
330
B097
100
AcDbEntity
  8
0
  6
CONTINUOUS
100
AcDbLine
 10
20.25401257174777
 20
7.249858997895826
 30
0.0
 11
21.7672535738432
 21
8.763099999991255
 31
0.0
  0
LINE
  5
B0B4
330
B097
100
AcDbEntity
  8
0
  6
CONTINUOUS
100
AcDbLine
 10
14.06579584418955
 20
0.3881230612574149
 30
0.0
 11
14.86427628093921
 21
1.186603498007082
 31
0.0
  0
LINE
  5
B0B5
330
B097
100
AcDbEntity
  8
0
  6
CONTINUOUS
100
AcDbLine
 10
14.26537659496467
 20
-0.0858153970476412
 30
0.0
 11
14.45839043274005
 21
0.1071984407277329
 31
0.0
  0
LINE
  5
B0B6
330
B097
100
AcDbEntity
  8
0
  6
CONTINUOUS
100
AcDbLine
 10
17.18480263566856
 20
3.507129852736426
 30
0.0
 11
18.15958664855496
 21
4.481913865622833
 31
0.0
  0
LINE
  5
B0B7
330
B097
100
AcDbEntity
  8
0
  6
CONTINUOUS
100
AcDbLine
 10
17.3687926667615
 20
3.017600674749186
 30
0.0
 11
18.34361581961842
 21
3.9924238276061
 31
0.0
  0
LINE
  5
B0B8
330
B097
100
AcDbEntity
  8
0
  6
CONTINUOUS
100
AcDbLine
 10
19.76440170834832
 20
6.086728925416191
 30
0.0
 11
22.33924590259489
 21
8.661573119662755
 31
0.0
  0
LINE
  5
B0B9
330
B097
100
AcDbEntity
  8
0
  6
CONTINUOUS
100
AcDbLine
 10
19.27479084494887
 20
4.923598852936555
 30
0.0
 11
21.84929622842713
 21
7.498104236414807
 31
0.0
  0
LINE
  5
B0BA
330
B097
100
AcDbEntity
  8
0
  6
CONTINUOUS
100
AcDbLine
 10
17.55278269785445
 20
2.528071496761945
 30
0.0
 11
18.52764499068187
 21
3.502933789589366
 31
0.0
  0
LINE
  5
B0BB
330
B097
100
AcDbEntity
  8
0
  6
CONTINUOUS
100
AcDbLine
 10
18.78517998154942
 20
3.760468780456919
 30
0.0
 11
21.35934655425936
 21
6.33463535316686
 31
0.0
  0
LINE
  5
B0BC
330
B097
100
AcDbEntity
  8
0
  6
CONTINUOUS
100
AcDbLine
 10
17.73677272894739
 20
2.038542318774704
 30
0.0
 11
20.8693968800916
 21
5.171166469918914
 31
0.0
  0
LINE
  5
B0BD
330
B097
100
AcDbEntity
  8
0
  6
CONTINUOUS
100
AcDbLine
 10
17.92076276004034
 20
1.549013140787464
 30
0.0
 11
20.37944720592384
 21
4.007697586670968
 31
0.0
  0
LINE
  5
B0BE
330
B097
100
AcDbEntity
  8
0
  6
CONTINUOUS
100
AcDbLine
 10
18.10475279113329
 20
1.059483962800223
 30
0.0
 11
19.88949753175608
 21
2.84422870342302
 31
0.0
  0
LINE
  5
B0BF
330
B097
100
AcDbEntity
  8
0
  6
CONTINUOUS
100
AcDbLine
 10
18.28874282222623
 20
0.5699547848129822
 30
0.0
 11
19.39954785758832
 21
1.680759820175074
 31
0.0
  0
LINE
  5
B0C0
330
B097
100
AcDbEntity
  8
0
  6
CONTINUOUS
100
AcDbLine
 10
18.47273285331918
 20
0.0804256068257416
 30
0.0
 11
18.90959818342056
 21
0.517290936927127
 31
0.0
  0
LINE
  5
B0C1
330
B097
100
AcDbEntity
  8
0
  6
CONTINUOUS
100
AcDbLine
 10
14.3590401358224
 20
-0.1570118376323384
 30
0.0
 11
14.24903296539946
 21
-0.0470046672093929
 31
0.0
  0
LINE
  5
B0C2
330
B097
100
AcDbEntity
  8
0
  6
CONTINUOUS
100
AcDbLine
 10
14.54309291258661
 20
0.332454594683643
 30
0.0
 11
13.75908329123172
 21
1.116464216038529
 31
0.0
  0
LINE
  5
B0C3
330
B097
100
AcDbEntity
  8
0
  6
CONTINUOUS
100
AcDbLine
 10
14.72714568935081
 20
0.8219210269996244
 30
0.0
 11
13.26913361706399
 21
2.27993309928645
 31
0.0
  0
LINE
  5
B0C4
330
B097
100
AcDbEntity
  8
0
  6
CONTINUOUS
100
AcDbLine
 10
14.91119846611502
 20
1.311387459315606
 30
0.0
 11
12.77918394289625
 21
3.443401982534371
 31
0.0
  0
LINE
  5
B0C5
330
B097
100
AcDbEntity
  8
0
  6
CONTINUOUS
100
AcDbLine
 10
15.09525124287922
 20
1.800853891631587
 30
0.0
 11
12.28923426872852
 21
4.606870865782293
 31
0.0
  0
LINE
  5
B0C6
330
B097
100
AcDbEntity
  8
0
  6
CONTINUOUS
100
AcDbLine
 10
15.27930401964343
 20
2.290320323947569
 30
0.0
 11
11.79928459456078
 21
5.770339749030213
 31
0.0
  0
LINE
  5
B0C7
330
B097
100
AcDbEntity
  8
0
  6
CONTINUOUS
100
AcDbLine
 10
15.46335679640763
 20
2.77978675626355
 30
0.0
 11
14.48885470994921
 21
3.754288842721972
 31
0.0
  0
LINE
  5
B0C8
330
B097
100
AcDbEntity
  8
0
  6
CONTINUOUS
100
AcDbLine
 10
13.88507249233704
 20
4.358071060334137
 30
0.0
 11
11.30933492039305
 21
6.933808632278135
 31
0.0
  0
LINE
  5
B0C9
330
B097
100
AcDbEntity
  8
0
  6
CONTINUOUS
100
AcDbLine
 10
18.75840522805855
 20
0.1582575336928151
 30
0.0
 11
18.25383727664818
 21
0.6628254851031863
 31
0.0
  0
LINE
  5
B0CA
330
B097
100
AcDbEntity
  8
0
  6
CONTINUOUS
100
AcDbLine
 10
15.64740957317184
 20
3.269253188579531
 30
0.0
 11
14.67288388101266
 21
4.243778880738705
 31
0.0
  0
LINE
  5
B0CB
330
B097
100
AcDbEntity
  8
0
  6
CONTINUOUS
100
AcDbLine
 10
13.39509276772158
 20
5.521569994029786
 30
0.0
 11
10.81938524622531
 21
8.097277515526056
 31
0.0
  0
LINE
  5
B0CC
330
B097
100
AcDbEntity
  8
0
  6
CONTINUOUS
100
AcDbLine
 10
18.95798597883369
 20
0.6321959919978686
 30
0.0
 11
17.84825644852853
 21
1.741925522303024
 31
0.0
  0
LINE
  5
B0CD
330
B097
100
AcDbEntity
  8
0
  6
CONTINUOUS
100
AcDbLine
 10
19.15756672960882
 20
1.106134450302922
 30
0.0
 11
17.44267562040888
 21
2.821025559502861
 31
0.0
  0
LINE
  5
B0CE
330
B097
100
AcDbEntity
  8
0
  6
CONTINUOUS
100
AcDbLine
 10
15.83146234993604
 20
3.758719620895513
 30
0.0
 11
14.85691305207612
 21
4.733268918755439
 31
0.0
  0
LINE
  5
B0CF
330
B097
100
AcDbEntity
  8
0
  6
CONTINUOUS
100
AcDbLine
 10
16.01551512670025
 20
4.248186053211494
 30
0.0
 11
15.04094222313957
 21
5.222758956772172
 31
0.0
  0
LINE
  5
B0D0
330
B097
100
AcDbEntity
  8
0
  6
CONTINUOUS
100
AcDbLine
 10
12.90511304310612
 20
6.685068927725435
 30
0.0
 11
10.8270819708403
 21
8.763099999991255
 31
0.0
  0
LINE
  5
B0D1
330
B097
100
AcDbEntity
  8
0
  6
CONTINUOUS
100
AcDbLine
 10
12.41513331849066
 20
7.848567861421083
 30
0.0
 11
11.50060117992049
 21
8.763099999991255
 31
0.0
  0
LINE
  5
B0D2
330
B097
100
AcDbEntity
  8
0
  6
CONTINUOUS
100
AcDbLine
 10
19.35714748038395
 20
1.580072908607975
 30
0.0
 11
17.03709479228923
 21
3.900125596702697
 31
0.0
  0
LINE
  5
B0D3
330
B097
100
AcDbEntity
  8
0
  6
CONTINUOUS
100
AcDbLine
 10
19.55672823115909
 20
2.054011366913028
 30
0.0
 11
16.63151396416958
 21
4.979225633902534
 31
0.0
  0
LINE
  5
B0D4
330
B097
100
AcDbEntity
  8
0
  6
CONTINUOUS
100
AcDbLine
 10
16.19956790346445
 20
4.737652485527476
 30
0.0
 11
15.22497139420302
 21
5.712248994788904
 31
0.0
  0
LINE
  5
B0D5
330
B097
100
AcDbEntity
  8
0
  6
CONTINUOUS
100
AcDbLine
 10
16.38362068022866
 20
5.227118917843457
 30
0.0
 11
15.40900056526648
 21
6.201739032805637
 31
0.0
  0
LINE
  5
B0D6
330
B097
100
AcDbEntity
  8
0
  6
CONTINUOUS
100
AcDbLine
 10
19.75630898193422
 20
2.527949825218081
 30
0.0
 11
18.70774536448286
 21
3.576513442669441
 31
0.0
  0
LINE
  5
B0D7
330
B097
100
AcDbEntity
  8
0
  6
CONTINUOUS
100
AcDbLine
 10
19.95588973270936
 20
3.001888283523134
 30
0.0
 11
18.90726987211446
 21
4.050508144118028
 31
0.0
  0
LINE
  5
B0D8
330
B097
100
AcDbEntity
  8
0
  6
CONTINUOUS
100
AcDbLine
 10
20.15547048348449
 20
3.475826741828186
 30
0.0
 11
19.10679437974606
 21
4.524502845566614
 31
0.0
  0
LINE
  5
B0D9
330
B097
100
AcDbEntity
  8
0
  6
CONTINUOUS
100
AcDbLine
 10
20.35505123425962
 20
3.94976520013324
 30
0.0
 11
19.30631888737766
 21
4.998497547015201
 31
0.0
  0
LINE
  5
B0DA
330
B097
100
AcDbEntity
  8
0
  6
CONTINUOUS
100
AcDbLine
 10
20.55463198503475
 20
4.423703658438292
 30
0.0
 11
19.50584339500926
 21
5.472492248463787
 31
0.0
  0
LINE
  5
B0DB
330
B097
100
AcDbEntity
  8
0
  6
CONTINUOUS
100
AcDbLine
 10
18.37481191085755
 20
3.909446896294752
 30
0.0
 11
15.59302973632993
 21
6.691229070822371
 31
0.0
  0
LINE
  5
B0DC
330
B097
100
AcDbEntity
  8
0
  6
CONTINUOUS
100
AcDbLine
 10
17.96904084440766
 20
4.988737171824825
 30
0.0
 11
15.77705890739338
 21
7.180719108839104
 31
0.0
  0
LINE
  5
B0DD
330
B097
100
AcDbEntity
  8
0
  6
CONTINUOUS
100
AcDbLine
 10
17.56326977795777
 20
6.068027447354899
 30
0.0
 11
15.96108807845684
 21
7.670209146855838
 31
0.0
  0
LINE
  5
B0DE
330
B097
100
AcDbEntity
  8
0
  6
CONTINUOUS
100
AcDbLine
 10
17.15749871150789
 20
7.147317722884972
 30
0.0
 11
16.14511724952029
 21
8.15969918487257
 31
0.0
  0
LINE
  5
B0DF
330
B097
100
AcDbEntity
  8
0
  6
CONTINUOUS
100
AcDbLine
 10
16.751727645058
 20
8.226607998415046
 30
0.0
 11
16.32914642058374
 21
8.649189222889303
 31
0.0
  0
LINE
  5
B0E0
330
B097
100
AcDbEntity
  8
0
  6
CONTINUOUS
100
AcDbLine
 10
20.75421273580989
 20
4.897642116743345
 30
0.0
 11
19.70536790264086
 21
5.946486949912374
 31
0.0
  0
LINE
  5
B0E1
330
B097
100
AcDbEntity
  8
0
  6
CONTINUOUS
100
AcDbLine
 10
20.95379348658502
 20
5.371580575048398
 30
0.0
 11
19.90489241027246
 21
6.42048165136096
 31
0.0
  0
LINE
  5
B0E2
330
B097
100
AcDbEntity
  8
0
  6
CONTINUOUS
100
AcDbLine
 10
21.15337423736015
 20
5.845519033353452
 30
0.0
 11
20.10441691790406
 21
6.894476352809547
 31
0.0
  0
LINE
  5
B0E3
330
B097
100
AcDbEntity
  8
0
  6
CONTINUOUS
100
AcDbLine
 10
21.35295498813529
 20
6.319457491658505
 30
0.0
 11
20.30394142553566
 21
7.368471054258134
 31
0.0
  0
LINE
  5
B0E4
330
B097
100
AcDbEntity
  8
0
  6
CONTINUOUS
100
AcDbLine
 10
21.55253573891042
 20
6.793395949963558
 30
0.0
 11
20.50346593316726
 21
7.842465755706721
 31
0.0
  0
LINE
  5
B0E5
330
B097
100
AcDbEntity
  8
0
  6
CONTINUOUS
100
AcDbLine
 10
21.75211648968556
 20
7.267334408268612
 30
0.0
 11
20.70299044079886
 21
8.316460457155308
 31
0.0
  0
LINE
  5
B0E6
330
B097
100
AcDbEntity
  8
0
  6
CONTINUOUS
100
AcDbLine
 10
21.95169724046069
 20
7.741272866573663
 30
0.0
 11
20.9298701070431
 21
8.763099999991256
 31
0.0
  0
LINE
  5
B0E7
330
B097
100
AcDbEntity
  8
0
  6
CONTINUOUS
100
AcDbLine
 10
22.15127799123582
 20
8.215211324878716
 30
0.0
 11
21.60338931612328
 21
8.763099999991256
 31
0.0
  0
LINE
  5
B0E8
330
B097
100
AcDbEntity
  8
0
  6
CONTINUOUS
100
AcDbLine
 10
22.35085874201096
 20
8.689149783183769
 30
0.0
 11
22.27690852520347
 21
8.763099999991255
 31
0.0
  0
ENDBLK
  5
B1DA
330
B097
100
AcDbEntity
  8
0
100
AcDbBlockEnd
  0
BLOCK
  5
B1DB
330
B0E9
100
AcDbEntity
  8
0
100
AcDbBlockBegin
  2
*X74
 70
     1
 10
0.0
 20
0.0
 30
0.0
  3
*X74
  1

  0
LINE
  5
B0EA
330
B0E9
100
AcDbEntity
  8
0
  6
CONTINUOUS
100
AcDbLine
 10
23.19462913593892
 20
8.169917934846424
 30
0.0
 11
23.70775465517246
 21
8.683043454079957
 31
0.0
  0
LINE
  5
B0EB
330
B0E9
100
AcDbEntity
  8
0
  6
CONTINUOUS
100
AcDbLine
 10
22.64923161835078
 20
6.951001208178088
 30
0.0
 11
23.9159364069932
 21
8.217705996820516
 31
0.0
  0
LINE
  5
B0EC
330
B0E9
100
AcDbEntity
  8
0
  6
CONTINUOUS
100
AcDbLine
 10
22.10383410076263
 20
5.732084481509751
 30
0.0
 11
24.12411815881395
 21
7.752368539561078
 31
0.0
  0
LINE
  5
B0ED
330
B0E9
100
AcDbEntity
  8
0
  6
CONTINUOUS
100
AcDbLine
 10
21.55843658317447
 20
4.513167754841414
 30
0.0
 11
24.3322999106347
 21
7.287031082301639
 31
0.0
  0
LINE
  5
B0EE
330
B0E9
100
AcDbEntity
  8
0
  6
CONTINUOUS
100
AcDbLine
 10
21.01303906558632
 20
3.294251028173077
 30
0.0
 11
24.54048166245544
 21
6.821693625042199
 31
0.0
  0
LINE
  5
B0EF
330
B0E9
100
AcDbEntity
  8
0
  6
CONTINUOUS
100
AcDbLine
 10
20.46764154799817
 20
2.075334301504738
 30
0.0
 11
23.28571549467848
 21
4.89340824818505
 31
0.0
  0
LINE
  5
B0F0
330
B0E9
100
AcDbEntity
  8
0
  6
CONTINUOUS
100
AcDbLine
 10
19.92224403041002
 20
0.8564175748364002
 30
0.0
 11
22.74075865492779
 21
3.674932199354171
 31
0.0
  0
LINE
  5
B0F1
330
B0E9
100
AcDbEntity
  8
0
  6
CONTINUOUS
100
AcDbLine
 10
23.67305085490148
 20
5.280743608408048
 30
0.0
 11
24.74866341427619
 21
6.356356167782759
 31
0.0
  0
LINE
  5
B0F2
330
B0E9
100
AcDbEntity
  8
0
  6
CONTINUOUS
100
AcDbLine
 10
23.88118970842314
 20
4.815363252849522
 30
0.0
 11
24.95684516609694
 21
5.89101871052332
 31
0.0
  0
LINE
  5
B0F3
330
B0E9
100
AcDbEntity
  8
0
  6
CONTINUOUS
100
AcDbLine
 10
19.73925852647308
 20
-0.0000871381807288
 30
0.0
 11
23.4103456646501
 21
3.670999999996297
 31
0.0
  0
LINE
  5
B0F4
330
B0E9
100
AcDbEntity
  8
0
  6
CONTINUOUS
100
AcDbLine
 10
24.0893285619448
 20
4.349982897290997
 30
0.0
 11
25.16502691791769
 21
5.42568125326388
 31
0.0
  0
LINE
  5
B0F5
330
B0E9
100
AcDbEntity
  8
0
  6
CONTINUOUS
100
AcDbLine
 10
20.41282099582748
 20
-0.0000438779065108
 30
0.0
 11
21.64944178675636
 21
1.236576913022366
 31
0.0
  0
LINE
  5
B0F6
330
B0E9
100
AcDbEntity
  8
0
  6
CONTINUOUS
100
AcDbLine
 10
22.78126487373161
 20
2.36839999999762
 30
0.0
 11
24.08386487373029
 21
3.670999999996297
 31
0.0
  0
LINE
  5
B0F7
330
B0E9
100
AcDbEntity
  8
0
  6
CONTINUOUS
100
AcDbLine
 10
24.29746741546646
 20
3.884602541732471
 30
0.0
 11
25.37320866973843
 21
4.960343796004441
 31
0.0
  0
LINE
  5
B0F8
330
B0E9
100
AcDbEntity
  8
0
  6
CONTINUOUS
100
AcDbLine
 10
21.08638346518189
 20
-0.0000006176322938
 30
0.0
 11
21.10379033335899
 21
0.0174062505448083
 31
0.0
  0
LINE
  5
B0F9
330
B0E9
100
AcDbEntity
  8
0
  6
CONTINUOUS
100
AcDbLine
 10
23.4547840828118
 20
2.36839999999762
 30
0.0
 11
25.58139042155918
 21
4.495006338745002
 31
0.0
  0
LINE
  5
B0FA
330
B0E9
100
AcDbEntity
  8
0
  6
CONTINUOUS
100
AcDbLine
 10
29.30199999996933
 20
8.215615917155148
 30
0.0
 11
29.84948408280543
 21
8.763099999991255
 31
0.0
  0
LINE
  5
B0FB
330
B0E9
100
AcDbEntity
  8
0
  6
CONTINUOUS
100
AcDbLine
 10
24.12830329189199
 20
2.36839999999762
 30
0.0
 11
25.78957217337993
 21
4.029668881485562
 31
0.0
  0
LINE
  5
B0FC
330
B0E9
100
AcDbEntity
  8
0
  6
CONTINUOUS
100
AcDbLine
 10
29.30199999996933
 20
7.54209670807496
 30
0.0
 11
30.52300329188562
 21
8.763099999991255
 31
0.0
  0
LINE
  5
B0FD
330
B0E9
100
AcDbEntity
  8
0
  6
CONTINUOUS
100
AcDbLine
 10
24.80182250097217
 20
2.36839999999762
 30
0.0
 11
25.99775392520067
 21
3.564331424226122
 31
0.0
  0
LINE
  5
B0FE
330
B0E9
100
AcDbEntity
  8
0
  6
CONTINUOUS
100
AcDbLine
 10
29.30199999996933
 20
6.868577498994774
 30
0.0
 11
30.74199999996926
 21
8.308577498994712
 31
0.0
  0
LINE
  5
B0FF
330
B0E9
100
AcDbEntity
  8
0
  6
CONTINUOUS
100
AcDbLine
 10
25.13028238392013
 20
2.023340673865392
 30
0.0
 11
26.20593567702142
 21
3.098993966966683
 31
0.0
  0
LINE
  5
B100
330
B0E9
100
AcDbEntity
  8
0
  6
CONTINUOUS
100
AcDbLine
 10
25.33838066033617
 20
1.557919741201244
 30
0.0
 11
26.41411742884217
 21
2.633656509707244
 31
0.0
  0
LINE
  5
B101
330
B0E9
100
AcDbEntity
  8
0
  6
CONTINUOUS
100
AcDbLine
 10
25.54647893675221
 20
1.092498808537098
 30
0.0
 11
26.62229918066291
 21
2.168319052447804
 31
0.0
  0
LINE
  5
B102
330
B0E9
100
AcDbEntity
  8
0
  6
CONTINUOUS
100
AcDbLine
 10
25.75457721316825
 20
0.62707787587295
 30
0.0
 11
26.83048093248366
 21
1.702981595188365
 31
0.0
  0
LINE
  5
B103
330
B0E9
100
AcDbEntity
  8
0
  6
CONTINUOUS
100
AcDbLine
 10
29.30199999996933
 20
6.195058289914587
 30
0.0
 11
30.74199999996926
 21
7.635058289914522
 31
0.0
  0
LINE
  5
B104
330
B0E9
100
AcDbEntity
  8
0
  6
CONTINUOUS
100
AcDbLine
 10
29.30199999996933
 20
5.521539080834401
 30
0.0
 11
30.74199999996926
 21
6.961539080834331
 31
0.0
  0
LINE
  5
B105
330
B0E9
100
AcDbEntity
  8
0
  6
CONTINUOUS
100
AcDbLine
 10
29.30199999996933
 20
4.848019871754214
 30
0.0
 11
30.74199999996925
 21
6.288019871754143
 31
0.0
  0
LINE
  5
B106
330
B0E9
100
AcDbEntity
  8
0
  6
CONTINUOUS
100
AcDbLine
 10
29.30199999996933
 20
4.174500662674028
 30
0.0
 11
30.74199999996925
 21
5.614500662673953
 31
0.0
  0
LINE
  5
B107
330
B0E9
100
AcDbEntity
  8
0
  6
CONTINUOUS
100
AcDbLine
 10
25.96267548958429
 20
0.1616569432088024
 30
0.0
 11
27.18411854636669
 21
1.383099999991207
 31
0.0
  0
LINE
  5
B108
330
B0E9
100
AcDbEntity
  8
0
  6
CONTINUOUS
100
AcDbLine
 10
29.30199999996933
 20
3.500981453593841
 30
0.0
 11
30.74199999996925
 21
4.940981453593762
 31
0.0
  0
LINE
  5
B109
330
B0E9
100
AcDbEntity
  8
0
  6
CONTINUOUS
100
AcDbLine
 10
26.50763775544691
 20
0.0330999999912356
 30
0.0
 11
27.85763775544689
 21
1.383099999991223
 31
0.0
  0
LINE
  5
B10A
330
B0E9
100
AcDbEntity
  8
0
  6
CONTINUOUS
100
AcDbLine
 10
29.30199999996933
 20
2.827462244513656
 30
0.0
 11
30.74199999996925
 21
4.267462244513574
 31
0.0
  0
LINE
  5
B10B
330
B0E9
100
AcDbEntity
  8
0
  6
CONTINUOUS
100
AcDbLine
 10
27.18115696452709
 20
0.0330999999912356
 30
0.0
 11
28.55073879889363
 21
1.402681834357775
 31
0.0
  0
LINE
  5
B10C
330
B0E9
100
AcDbEntity
  8
0
  6
CONTINUOUS
100
AcDbLine
 10
29.28241816560272
 20
2.134361201066866
 30
0.0
 11
30.74199999996924
 21
3.593943035433383
 31
0.0
  0
LINE
  5
B10D
330
B0E9
100
AcDbEntity
  8
0
  6
CONTINUOUS
100
AcDbLine
 10
27.85467617360728
 20
0.0330999999912356
 30
0.0
 11
30.74199999996924
 21
2.920423826353195
 31
0.0
  0
LINE
  5
B10E
330
B0E9
100
AcDbEntity
  8
0
  6
CONTINUOUS
100
AcDbLine
 10
28.53897559587887
 20
0.0438802131826428
 30
0.0
 11
30.73121978677781
 21
2.236124404081585
 31
0.0
  0
LINE
  5
B10F
330
B0E9
100
AcDbEntity
  8
0
  6
CONTINUOUS
100
AcDbLine
 10
29.45140055588722
 20
0.2827859641107988
 30
0.0
 11
30.49231403584965
 21
1.323699444073236
 31
0.0
  0
LINE
  5
B110
330
B0E9
100
AcDbEntity
  8
0
  6
CONTINUOUS
100
AcDbLine
 10
19.59027867740337
 20
-0.0000967065718083
 30
0.0
 11
19.55485265190471
 21
0.035329318926844
 31
0.0
  0
LINE
  5
B111
330
B0E9
100
AcDbEntity
  8
0
  6
CONTINUOUS
100
AcDbLine
 10
20.26375463176586
 20
-0.0000534518541091
 30
0.0
 11
19.76305575737534
 21
0.5006454225364014
 31
0.0
  0
LINE
  5
B112
330
B0E9
100
AcDbEntity
  8
0
  6
CONTINUOUS
100
AcDbLine
 10
20.93723058612834
 20
-0.0000101971364099
 30
0.0
 11
19.97125886284597
 21
0.965961526145958
 31
0.0
  0
LINE
  5
B113
330
B0E9
100
AcDbEntity
  8
0
  6
CONTINUOUS
100
AcDbLine
 10
21.25514828313686
 20
0.355591314935257
 30
0.0
 11
20.1794619683166
 21
1.431277629755512
 31
0.0
  0
LINE
  5
B114
330
B0E9
100
AcDbEntity
  8
0
  6
CONTINUOUS
100
AcDbLine
 10
21.46338838394921
 20
0.8208704232030986
 30
0.0
 11
20.38766507378723
 21
1.896593733365069
 31
0.0
  0
LINE
  5
B115
330
B0E9
100
AcDbEntity
  8
0
  6
CONTINUOUS
100
AcDbLine
 10
21.67162848476155
 20
1.28614953147094
 30
0.0
 11
20.59586817925786
 21
2.361909836974626
 31
0.0
  0
LINE
  5
B116
330
B0E9
100
AcDbEntity
  8
0
  6
CONTINUOUS
100
AcDbLine
 10
21.8798685855739
 20
1.751428639738782
 30
0.0
 11
20.80407128472849
 21
2.827225940584183
 31
0.0
  0
LINE
  5
B117
330
B0E9
100
AcDbEntity
  8
0
  6
CONTINUOUS
100
AcDbLine
 10
22.08810868638624
 20
2.216707748006623
 30
0.0
 11
21.01227439019912
 21
3.292542044193739
 31
0.0
  0
LINE
  5
B118
330
B0E9
100
AcDbEntity
  8
0
  6
CONTINUOUS
100
AcDbLine
 10
22.60993564347543
 20
2.36839999999762
 30
0.0
 11
21.22047749566975
 21
3.757858147803296
 31
0.0
  0
LINE
  5
B119
330
B0E9
100
AcDbEntity
  8
0
  6
CONTINUOUS
100
AcDbLine
 10
23.28345485255561
 20
2.36839999999762
 30
0.0
 11
21.42868060114038
 21
4.223174251412853
 31
0.0
  0
LINE
  5
B11A
330
B0E9
100
AcDbEntity
  8
0
  6
CONTINUOUS
100
AcDbLine
 10
26.29227406164219
 20
0.0330999999912356
 30
0.0
 11
25.80009199592872
 21
0.5252820657046957
 31
0.0
  0
LINE
  5
B11B
330
B0E9
100
AcDbEntity
  8
0
  6
CONTINUOUS
100
AcDbLine
 10
23.9569740616358
 20
2.36839999999762
 30
0.0
 11
21.63688370661101
 21
4.688490355022409
 31
0.0
  0
LINE
  5
B11C
330
B0E9
100
AcDbEntity
  8
0
  6
CONTINUOUS
100
AcDbLine
 10
26.96579327072237
 20
0.0330999999912356
 30
0.0
 11
25.2554132311971
 21
1.743480039516508
 31
0.0
  0
LINE
  5
B11D
330
B0E9
100
AcDbEntity
  8
0
  6
CONTINUOUS
100
AcDbLine
 10
24.63049327071599
 20
2.36839999999762
 30
0.0
 11
23.32789327071731
 21
3.670999999996297
 31
0.0
  0
LINE
  5
B11E
330
B0E9
100
AcDbEntity
  8
0
  6
CONTINUOUS
100
AcDbLine
 10
22.92098674744635
 20
4.077906523267254
 30
0.0
 11
21.84508681208164
 21
5.153806458631966
 31
0.0
  0
LINE
  5
B11F
330
B0E9
100
AcDbEntity
  8
0
  6
CONTINUOUS
100
AcDbLine
 10
27.63931247980256
 20
0.0330999999912356
 30
0.0
 11
24.0014124797975
 21
3.670999999996297
 31
0.0
  0
LINE
  5
B120
330
B0E9
100
AcDbEntity
  8
0
  6
CONTINUOUS
100
AcDbLine
 10
23.129125600968
 20
4.5432868788258
 30
0.0
 11
22.05328991755227
 21
5.619122562241522
 31
0.0
  0
LINE
  5
B121
330
B0E9
100
AcDbEntity
  8
0
  6
CONTINUOUS
100
AcDbLine
 10
28.31283168888275
 20
0.0330999999912356
 30
0.0
 11
24.16488385994816
 21
4.181047828925828
 31
0.0
  0
LINE
  5
B122
330
B0E9
100
AcDbEntity
  8
0
  6
CONTINUOUS
100
AcDbLine
 10
23.33726445448964
 20
5.008667234384345
 30
0.0
 11
22.2614930230229
 21
6.084438665851079
 31
0.0
  0
LINE
  5
B123
330
B0E9
100
AcDbEntity
  8
0
  6
CONTINUOUS
100
AcDbLine
 10
28.92085740005492
 20
0.0985934978992438
 30
0.0
 11
27.63635089796295
 21
1.383099999991217
 31
0.0
  0
LINE
  5
B124
330
B0E9
100
AcDbEntity
  8
0
  6
CONTINUOUS
100
AcDbLine
 10
26.43704649509776
 20
2.582404402856405
 30
0.0
 11
23.61992702019732
 21
5.399523877756844
 31
0.0
  0
LINE
  5
B125
330
B0E9
100
AcDbEntity
  8
0
  6
CONTINUOUS
100
AcDbLine
 10
23.54540330801128
 20
5.47404758994289
 30
0.0
 11
22.46969612849353
 21
6.549754769460635
 31
0.0
  0
LINE
  5
B126
330
B0E9
100
AcDbEntity
  8
0
  6
CONTINUOUS
100
AcDbLine
 10
29.42225615078443
 20
0.2707139562499279
 30
0.0
 11
28.30987010704312
 21
1.383099999991234
 31
0.0
  0
LINE
  5
B127
330
B0E9
100
AcDbEntity
  8
0
  6
CONTINUOUS
100
AcDbLine
 10
25.89179548232307
 20
3.801174624711282
 30
0.0
 11
22.67789923396416
 21
7.015070873070191
 31
0.0
  0
LINE
  5
B128
330
B0E9
100
AcDbEntity
  8
0
  6
CONTINUOUS
100
AcDbLine
 10
29.83624534690007
 20
0.5302439692144705
 30
0.0
 11
28.85811781497101
 21
1.508371501143527
 31
0.0
  0
LINE
  5
B129
330
B0E9
100
AcDbEntity
  8
0
  6
CONTINUOUS
100
AcDbLine
 10
25.34654446954838
 20
5.01994484656616
 30
0.0
 11
22.88610233943479
 21
7.480386976679748
 31
0.0
  0
LINE
  5
B12A
330
B0E9
100
AcDbEntity
  8
0
  6
CONTINUOUS
100
AcDbLine
 10
30.17865975401872
 20
0.8613487711760022
 30
0.0
 11
29.18888744090175
 21
1.851121084292977
 31
0.0
  0
LINE
  5
B12B
330
B0E9
100
AcDbEntity
  8
0
  6
CONTINUOUS
100
AcDbLine
 10
24.80129345677369
 20
6.238715068421037
 30
0.0
 11
23.09430544490542
 21
7.945703080289305
 31
0.0
  0
LINE
  5
B12C
330
B0E9
100
AcDbEntity
  8
0
  6
CONTINUOUS
100
AcDbLine
 10
30.45496647202376
 20
1.258561262251155
 30
0.0
 11
29.30199999996933
 21
2.411527734305588
 31
0.0
  0
LINE
  5
B12D
330
B0E9
100
AcDbEntity
  8
0
  6
CONTINUOUS
100
AcDbLine
 10
24.256042443999
 20
7.457485290275915
 30
0.0
 11
23.30250855037605
 21
8.411019183898862
 31
0.0
  0
LINE
  5
B12E
330
B0E9
100
AcDbEntity
  8
0
  6
CONTINUOUS
100
AcDbLine
 10
30.64868582078271
 20
1.738361122572387
 30
0.0
 11
29.30199999996933
 21
3.085046943385775
 31
0.0
  0
LINE
  5
B12F
330
B0E9
100
AcDbEntity
  8
0
  6
CONTINUOUS
100
AcDbLine
 10
23.71079143122431
 20
8.676255512130794
 30
0.0
 11
23.51071165584668
 21
8.876335287508416
 31
0.0
  0
LINE
  5
B130
330
B0E9
100
AcDbEntity
  8
0
  6
CONTINUOUS
100
AcDbLine
 10
30.73802122914428
 20
2.322544923291007
 30
0.0
 11
29.30199999996933
 21
3.758566152465961
 31
0.0
  0
LINE
  5
B131
330
B0E9
100
AcDbEntity
  8
0
  6
CONTINUOUS
100
AcDbLine
 10
30.74199999996924
 20
2.992085361546236
 30
0.0
 11
29.30199999996933
 21
4.432085361546148
 31
0.0
  0
LINE
  5
B132
330
B0E9
100
AcDbEntity
  8
0
  6
CONTINUOUS
100
AcDbLine
 10
30.74199999996924
 20
3.665604570626419
 30
0.0
 11
29.30199999996933
 21
5.105604570626333
 31
0.0
  0
LINE
  5
B133
330
B0E9
100
AcDbEntity
  8
0
  6
CONTINUOUS
100
AcDbLine
 10
30.74199999996925
 20
4.339123779706602
 30
0.0
 11
29.30199999996933
 21
5.77912377970652
 31
0.0
  0
LINE
  5
B134
330
B0E9
100
AcDbEntity
  8
0
  6
CONTINUOUS
100
AcDbLine
 10
30.74199999996925
 20
5.012642988786785
 30
0.0
 11
29.30199999996933
 21
6.452642988786707
 31
0.0
  0
LINE
  5
B135
330
B0E9
100
AcDbEntity
  8
0
  6
CONTINUOUS
100
AcDbLine
 10
30.74199999996925
 20
5.68616219786697
 30
0.0
 11
29.30199999996933
 21
7.126162197866894
 31
0.0
  0
LINE
  5
B136
330
B0E9
100
AcDbEntity
  8
0
  6
CONTINUOUS
100
AcDbLine
 10
30.74199999996925
 20
6.359681406947153
 30
0.0
 11
29.30199999996933
 21
7.799681406947081
 31
0.0
  0
LINE
  5
B137
330
B0E9
100
AcDbEntity
  8
0
  6
CONTINUOUS
100
AcDbLine
 10
30.74199999996926
 20
7.033200616027337
 30
0.0
 11
29.30199999996933
 21
8.473200616027269
 31
0.0
  0
LINE
  5
B138
330
B0E9
100
AcDbEntity
  8
0
  6
CONTINUOUS
100
AcDbLine
 10
30.74199999996926
 20
7.706719825107518
 30
0.0
 11
29.68561982508552
 21
8.763099999991255
 31
0.0
  0
LINE
  5
B139
330
B0E9
100
AcDbEntity
  8
0
  6
CONTINUOUS
100
AcDbLine
 10
30.74199999996926
 20
8.380239034187703
 30
0.0
 11
30.35913903416571
 21
8.763099999991255
 31
0.0
  0
ENDBLK
  5
B1DC
330
B0E9
100
AcDbEntity
  8
0
100
AcDbBlockEnd
  0
BLOCK
  5
B1DD
330
B13A
100
AcDbEntity
  8
0
100
AcDbBlockBegin
  2
*X75
 70
     1
 10
0.0
 20
0.0
 30
0.0
  3
*X75
  1

  0
LINE
  5
B13B
330
B13A
100
AcDbEntity
  8
0
  6
CONTINUOUS
100
AcDbLine
 10
31.64199999996833
 20
8.535058289913598
 30
0.0
 11
31.87004171004599
 21
8.763099999991255
 31
0.0
  0
LINE
  5
B13C
330
B13A
100
AcDbEntity
  8
0
  6
CONTINUOUS
100
AcDbLine
 10
31.64199999996833
 20
7.861539080833412
 30
0.0
 11
32.54356091912618
 21
8.763099999991255
 31
0.0
  0
LINE
  5
B13D
330
B13A
100
AcDbEntity
  8
0
  6
CONTINUOUS
100
AcDbLine
 10
31.64199999996833
 20
7.188019871753226
 30
0.0
 11
33.08199999996839
 21
8.628019871753281
 31
0.0
  0
LINE
  5
B13E
330
B13A
100
AcDbEntity
  8
0
  6
CONTINUOUS
100
AcDbLine
 10
31.64199999996833
 20
6.51450066267304
 30
0.0
 11
33.08199999996839
 21
7.954500662673095
 31
0.0
  0
LINE
  5
B13F
330
B13A
100
AcDbEntity
  8
0
  6
CONTINUOUS
100
AcDbLine
 10
31.64199999996833
 20
5.840981453592853
 30
0.0
 11
33.08199999996839
 21
7.280981453592908
 31
0.0
  0
LINE
  5
B140
330
B13A
100
AcDbEntity
  8
0
  6
CONTINUOUS
100
AcDbLine
 10
31.64199999996833
 20
5.167462244512667
 30
0.0
 11
33.08199999996839
 21
6.607462244512721
 31
0.0
  0
LINE
  5
B141
330
B13A
100
AcDbEntity
  8
0
  6
CONTINUOUS
100
AcDbLine
 10
31.64199999996833
 20
4.493943035432481
 30
0.0
 11
33.08199999996839
 21
5.933943035432535
 31
0.0
  0
LINE
  5
B142
330
B13A
100
AcDbEntity
  8
0
  6
CONTINUOUS
100
AcDbLine
 10
31.64199999996833
 20
3.820423826352293
 30
0.0
 11
33.08199999996839
 21
5.260423826352348
 31
0.0
  0
LINE
  5
B143
330
B13A
100
AcDbEntity
  8
0
  6
CONTINUOUS
100
AcDbLine
 10
31.64199999996833
 20
3.146904617272106
 30
0.0
 11
33.08199999996839
 21
4.586904617272161
 31
0.0
  0
LINE
  5
B144
330
B13A
100
AcDbEntity
  8
0
  6
CONTINUOUS
100
AcDbLine
 10
36.23199999996837
 20
8.410423826352325
 30
0.0
 11
36.5846761736073
 21
8.763099999991255
 31
0.0
  0
LINE
  5
B145
330
B13A
100
AcDbEntity
  8
0
  6
CONTINUOUS
100
AcDbLine
 10
36.23199999996837
 20
7.73690461727214
 30
0.0
 11
37.25819538268748
 21
8.763099999991255
 31
0.0
  0
LINE
  5
B146
330
B13A
100
AcDbEntity
  8
0
  6
CONTINUOUS
100
AcDbLine
 10
31.64257403601376
 20
2.473959444237348
 30
0.0
 11
33.08199999996839
 21
3.913385408191974
 31
0.0
  0
LINE
  5
B147
330
B13A
100
AcDbEntity
  8
0
  6
CONTINUOUS
100
AcDbLine
 10
36.23199999996837
 20
7.063385408191953
 30
0.0
 11
37.67199999996831
 21
8.503385408191894
 31
0.0
  0
LINE
  5
B148
330
B13A
100
AcDbEntity
  8
0
  6
CONTINUOUS
100
AcDbLine
 10
31.72013636841932
 20
1.87800256756272
 30
0.0
 11
33.08199999996839
 21
3.239866199111788
 31
0.0
  0
LINE
  5
B149
330
B13A
100
AcDbEntity
  8
0
  6
CONTINUOUS
100
AcDbLine
 10
36.23199999996837
 20
6.389866199111767
 30
0.0
 11
37.67199999996831
 21
7.829866199111708
 31
0.0
  0
LINE
  5
B14A
330
B13A
100
AcDbEntity
  8
0
  6
CONTINUOUS
100
AcDbLine
 10
31.89042734314753
 20
1.374774333210744
 30
0.0
 11
33.08199999996839
 21
2.566346990031601
 31
0.0
  0
LINE
  5
B14B
330
B13A
100
AcDbEntity
  8
0
  6
CONTINUOUS
100
AcDbLine
 10
36.23199999996837
 20
5.71634699003158
 30
0.0
 11
37.67199999996831
 21
7.156346990031521
 31
0.0
  0
LINE
  5
B14C
330
B13A
100
AcDbEntity
  8
0
  6
CONTINUOUS
100
AcDbLine
 10
32.14210568064475
 20
0.952933461627778
 30
0.0
 11
33.18745552475986
 21
1.998283305742888
 31
0.0
  0
LINE
  5
B14D
330
B13A
100
AcDbEntity
  8
0
  6
CONTINUOUS
100
AcDbLine
 10
36.23199999996837
 20
5.042827780951393
 30
0.0
 11
37.67199999996831
 21
6.482827780951334
 31
0.0
  0
LINE
  5
B14E
330
B13A
100
AcDbEntity
  8
0
  6
CONTINUOUS
100
AcDbLine
 10
32.45820639400955
 20
0.5955149659123915
 30
0.0
 11
33.47242681921943
 21
1.60973539112227
 31
0.0
  0
LINE
  5
B14F
330
B13A
100
AcDbEntity
  8
0
  6
CONTINUOUS
100
AcDbLine
 10
36.23199999996837
 20
4.369308571871207
 30
0.0
 11
37.67199999996831
 21
5.809308571871147
 31
0.0
  0
LINE
  5
B150
330
B13A
100
AcDbEntity
  8
0
  6
CONTINUOUS
100
AcDbLine
 10
32.83432456621412
 20
0.2981139290367771
 30
0.0
 11
33.89722476612215
 21
1.361014128944803
 31
0.0
  0
LINE
  5
B151
330
B13A
100
AcDbEntity
  8
0
  6
CONTINUOUS
100
AcDbLine
 10
36.23199999996837
 20
3.69578936279102
 30
0.0
 11
37.67199999996831
 21
5.135789362790962
 31
0.0
  0
LINE
  5
B152
330
B13A
100
AcDbEntity
  8
0
  6
CONTINUOUS
100
AcDbLine
 10
33.2711633111245
 20
0.0614334648669672
 30
0.0
 11
34.43247338014423
 21
1.222743533886696
 31
0.0
  0
LINE
  5
B153
330
B13A
100
AcDbEntity
  8
0
  6
CONTINUOUS
100
AcDbLine
 10
36.23199999996837
 20
3.022270153710834
 30
0.0
 11
37.67199999996831
 21
4.462270153710775
 31
0.0
  0
LINE
  5
B154
330
B13A
100
AcDbEntity
  8
0
  6
CONTINUOUS
100
AcDbLine
 10
33.76515245874577
 20
-0.1180965965919523
 30
0.0
 11
35.1587445516215
 21
1.27549549628378
 31
0.0
  0
LINE
  5
B155
330
B13A
100
AcDbEntity
  8
0
  6
CONTINUOUS
100
AcDbLine
 10
36.21639478609585
 20
2.333145730758136
 30
0.0
 11
37.67199999996831
 21
3.788750944630588
 31
0.0
  0
LINE
  5
B156
330
B13A
100
AcDbEntity
  8
0
  6
CONTINUOUS
100
AcDbLine
 10
34.34060583368432
 20
-0.2161624307335863
 30
0.0
 11
37.67199999996831
 21
3.115231735550401
 31
0.0
  0
LINE
  5
B157
330
B13A
100
AcDbEntity
  8
0
  6
CONTINUOUS
100
AcDbLine
 10
35.01698193613905
 20
-0.2133055373590427
 30
0.0
 11
37.66876712070525
 21
2.438479647207154
 31
0.0
  0
LINE
  5
B158
330
B13A
100
AcDbEntity
  8
0
  6
CONTINUOUS
100
AcDbLine
 10
35.90743367693304
 20
0.0036269943547609
 30
0.0
 11
37.51723902192366
 21
1.613432339345381
 31
0.0
  0
LINE
  5
B159
330
B13A
100
AcDbEntity
  8
0
  6
CONTINUOUS
100
AcDbLine
 10
32.55309425579761
 20
0.5074718966376706
 30
0.0
 11
32.27784730925847
 21
0.7827188431768102
 31
0.0
  0
LINE
  5
B15A
330
B13A
100
AcDbEntity
  8
0
  6
CONTINUOUS
100
AcDbLine
 10
33.87496468909684
 20
-0.1408793275813673
 30
0.0
 11
31.67993083278052
 21
2.054154528734943
 31
0.0
  0
LINE
  5
B15B
330
B13A
100
AcDbEntity
  8
0
  6
CONTINUOUS
100
AcDbLine
 10
34.64362813207632
 20
-0.2360235614806649
 30
0.0
 11
31.64199999996833
 21
2.765604570627322
 31
0.0
  0
LINE
  5
B15C
330
B13A
100
AcDbEntity
  8
0
  6
CONTINUOUS
100
AcDbLine
 10
35.25801106796118
 20
-0.1768872882853429
 30
0.0
 11
31.64199999996833
 21
3.439123779707508
 31
0.0
  0
LINE
  5
B15D
330
B13A
100
AcDbEntity
  8
0
  6
CONTINUOUS
100
AcDbLine
 10
35.79065650332146
 20
-0.0360135145654361
 30
0.0
 11
34.54143210838231
 21
1.213210880373721
 31
0.0
  0
LINE
  5
B15E
330
B13A
100
AcDbEntity
  8
0
  6
CONTINUOUS
100
AcDbLine
 10
33.08199999996839
 20
2.67264298878764
 30
0.0
 11
31.64199999996833
 21
4.112642988787695
 31
0.0
  0
LINE
  5
B15F
330
B13A
100
AcDbEntity
  8
0
  6
CONTINUOUS
100
AcDbLine
 10
36.25975597779143
 20
0.1684062200447833
 30
0.0
 11
35.15395110240023
 21
1.274211095435983
 31
0.0
  0
LINE
  5
B160
330
B13A
100
AcDbEntity
  8
0
  6
CONTINUOUS
100
AcDbLine
 10
33.08199999996839
 20
3.346162197867826
 30
0.0
 11
31.64199999996833
 21
4.786162197867881
 31
0.0
  0
LINE
  5
B161
330
B13A
100
AcDbEntity
  8
0
  6
CONTINUOUS
100
AcDbLine
 10
36.67226329638774
 20
0.4294181105286579
 30
0.0
 11
35.63766478748767
 21
1.464016619428737
 31
0.0
  0
LINE
  5
B162
330
B13A
100
AcDbEntity
  8
0
  6
CONTINUOUS
100
AcDbLine
 10
33.08199999996839
 20
4.019681406948012
 30
0.0
 11
31.64199999996833
 21
5.459681406948068
 31
0.0
  0
LINE
  5
B163
330
B13A
100
AcDbEntity
  8
0
  6
CONTINUOUS
100
AcDbLine
 10
37.01677749710036
 20
0.7584231188962329
 30
0.0
 11
35.99563422741351
 21
1.779566388583076
 31
0.0
  0
LINE
  5
B164
330
B13A
100
AcDbEntity
  8
0
  6
CONTINUOUS
100
AcDbLine
 10
33.08199999996839
 20
4.693200616028199
 30
0.0
 11
31.64199999996833
 21
6.133200616028255
 31
0.0
  0
LINE
  5
B165
330
B13A
100
AcDbEntity
  8
0
  6
CONTINUOUS
100
AcDbLine
 10
37.29859977568887
 20
1.1501200493879
 30
0.0
 11
36.20680593341555
 21
2.241913891661226
 31
0.0
  0
LINE
  5
B166
330
B13A
100
AcDbEntity
  8
0
  6
CONTINUOUS
100
AcDbLine
 10
33.08199999996839
 20
5.366719825108386
 30
0.0
 11
31.64199999996833
 21
6.80671982510844
 31
0.0
  0
LINE
  5
B167
330
B13A
100
AcDbEntity
  8
0
  6
CONTINUOUS
100
AcDbLine
 10
37.5148623517228
 20
1.607376682434161
 30
0.0
 11
36.23199999996837
 21
2.890239034188594
 31
0.0
  0
LINE
  5
B168
330
B13A
100
AcDbEntity
  8
0
  6
CONTINUOUS
100
AcDbLine
 10
33.08199999996839
 20
6.040239034188573
 30
0.0
 11
31.64199999996833
 21
7.480239034188627
 31
0.0
  0
LINE
  5
B169
330
B13A
100
AcDbEntity
  8
0
  6
CONTINUOUS
100
AcDbLine
 10
37.64705163358367
 20
2.148706609653477
 30
0.0
 11
36.23199999996837
 21
3.56375824326878
 31
0.0
  0
LINE
  5
B16A
330
B13A
100
AcDbEntity
  8
0
  6
CONTINUOUS
100
AcDbLine
 10
33.08199999996839
 20
6.713758243268758
 30
0.0
 11
31.64199999996833
 21
8.153758243268815
 31
0.0
  0
LINE
  5
B16B
330
B13A
100
AcDbEntity
  8
0
  6
CONTINUOUS
100
AcDbLine
 10
37.67199999996831
 20
2.797277452349026
 30
0.0
 11
36.23199999996837
 21
4.237277452348967
 31
0.0
  0
LINE
  5
B16C
330
B13A
100
AcDbEntity
  8
0
  6
CONTINUOUS
100
AcDbLine
 10
37.67199999996831
 20
3.470796661429213
 30
0.0
 11
36.23199999996837
 21
4.910796661429154
 31
0.0
  0
LINE
  5
B16D
330
B13A
100
AcDbEntity
  8
0
  6
CONTINUOUS
100
AcDbLine
 10
37.67199999996831
 20
4.144315870509399
 30
0.0
 11
36.23199999996837
 21
5.58431587050934
 31
0.0
  0
LINE
  5
B16E
330
B13A
100
AcDbEntity
  8
0
  6
CONTINUOUS
100
AcDbLine
 10
33.08199999996839
 20
7.387277452348945
 30
0.0
 11
31.70617745232608
 21
8.763099999991255
 31
0.0
  0
LINE
  5
B16F
330
B13A
100
AcDbEntity
  8
0
  6
CONTINUOUS
100
AcDbLine
 10
33.08199999996839
 20
8.060796661429132
 30
0.0
 11
32.37969666140626
 21
8.763099999991255
 31
0.0
  0
LINE
  5
B170
330
B13A
100
AcDbEntity
  8
0
  6
CONTINUOUS
100
AcDbLine
 10
33.08199999996839
 20
8.734315870509318
 30
0.0
 11
33.05321587048645
 21
8.763099999991255
 31
0.0
  0
LINE
  5
B171
330
B13A
100
AcDbEntity
  8
0
  6
CONTINUOUS
100
AcDbLine
 10
37.67199999996831
 20
4.817835079589585
 30
0.0
 11
36.23199999996837
 21
6.257835079589526
 31
0.0
  0
LINE
  5
B172
330
B13A
100
AcDbEntity
  8
0
  6
CONTINUOUS
100
AcDbLine
 10
37.67199999996831
 20
5.491354288669771
 30
0.0
 11
36.23199999996837
 21
6.931354288669713
 31
0.0
  0
LINE
  5
B173
330
B13A
100
AcDbEntity
  8
0
  6
CONTINUOUS
100
AcDbLine
 10
37.67199999996831
 20
6.164873497749958
 30
0.0
 11
36.23199999996837
 21
7.6048734977499
 31
0.0
  0
LINE
  5
B174
330
B13A
100
AcDbEntity
  8
0
  6
CONTINUOUS
100
AcDbLine
 10
37.67199999996831
 20
6.838392706830144
 30
0.0
 11
36.23199999996837
 21
8.278392706830086
 31
0.0
  0
LINE
  5
B175
330
B13A
100
AcDbEntity
  8
0
  6
CONTINUOUS
100
AcDbLine
 10
37.67199999996831
 20
7.511911915910332
 30
0.0
 11
36.42081191588738
 21
8.763099999991255
 31
0.0
  0
LINE
  5
B176
330
B13A
100
AcDbEntity
  8
0
  6
CONTINUOUS
100
AcDbLine
 10
37.67199999996831
 20
8.185431124990519
 30
0.0
 11
37.09433112496757
 21
8.763099999991255
 31
0.0
  0
ENDBLK
  5
B1DE
330
B13A
100
AcDbEntity
  8
0
100
AcDbBlockEnd
  0
BLOCK
  5
B1DF
330
B177
100
AcDbEntity
  8
0
100
AcDbBlockBegin
  2
*X76
 70
     1
 10
0.0
 20
0.0
 30
0.0
  3
*X76
  1

  0
LINE
  5
B178
330
B177
100
AcDbEntity
  8
0
  6
CONTINUOUS
100
AcDbLine
 10
38.60499999996136
 20
8.762866199104765
 30
0.0
 11
38.71672554182345
 21
8.874591740966855
 31
0.0
  0
LINE
  5
B179
330
B177
100
AcDbEntity
  8
0
  6
CONTINUOUS
100
AcDbLine
 10
38.60499999996136
 20
8.089346990024577
 30
0.0
 11
39.03418785440363
 21
8.518534844466847
 31
0.0
  0
LINE
  5
B17A
330
B177
100
AcDbEntity
  8
0
  6
CONTINUOUS
100
AcDbLine
 10
38.60499999996136
 20
7.41582778094439
 30
0.0
 11
39.35165016698382
 21
8.16247794796684
 31
0.0
  0
LINE
  5
B17B
330
B177
100
AcDbEntity
  8
0
  6
CONTINUOUS
100
AcDbLine
 10
38.60499999996136
 20
6.742308571864204
 30
0.0
 11
39.66911247956399
 21
7.806421051466834
 31
0.0
  0
LINE
  5
B17C
330
B177
100
AcDbEntity
  8
0
  6
CONTINUOUS
100
AcDbLine
 10
38.60499999996136
 20
6.068789362784018
 30
0.0
 11
39.98657479214418
 21
7.450364154966827
 31
0.0
  0
LINE
  5
B17D
330
B177
100
AcDbEntity
  8
0
  6
CONTINUOUS
100
AcDbLine
 10
38.60499999996136
 20
5.395270153703832
 30
0.0
 11
40.30403710472435
 21
7.09430725846682
 31
0.0
  0
LINE
  5
B17E
330
B177
100
AcDbEntity
  8
0
  6
CONTINUOUS
100
AcDbLine
 10
38.60499999996136
 20
4.721750944623645
 30
0.0
 11
40.62149941730453
 21
6.738250361966813
 31
0.0
  0
LINE
  5
B17F
330
B177
100
AcDbEntity
  8
0
  6
CONTINUOUS
100
AcDbLine
 10
38.60499999996136
 20
4.048231735543458
 30
0.0
 11
40.93896172988471
 21
6.382193465466806
 31
0.0
  0
LINE
  5
B180
330
B177
100
AcDbEntity
  8
0
  6
CONTINUOUS
100
AcDbLine
 10
38.60499999996136
 20
3.374712526463272
 30
0.0
 11
40.02599999995994
 21
4.795712526461843
 31
0.0
  0
LINE
  5
B181
330
B177
100
AcDbEntity
  8
0
  6
CONTINUOUS
100
AcDbLine
 10
38.60499999996136
 20
2.701193317383085
 30
0.0
 11
40.02599999995994
 21
4.122193317381657
 31
0.0
  0
LINE
  5
B182
330
B177
100
AcDbEntity
  8
0
  6
CONTINUOUS
100
AcDbLine
 10
40.28339754687704
 20
5.053110073378947
 30
0.0
 11
41.25642404246489
 21
6.026136568966799
 31
0.0
  0
LINE
  5
B183
330
B177
100
AcDbEntity
  8
0
  6
CONTINUOUS
100
AcDbLine
 10
40.60085985945722
 20
4.697053176878939
 30
0.0
 11
41.57388635504507
 21
5.670079672466793
 31
0.0
  0
LINE
  5
B184
330
B177
100
AcDbEntity
  8
0
  6
CONTINUOUS
100
AcDbLine
 10
43.57899999995641
 20
8.348712526458318
 30
0.0
 11
43.99338747348935
 21
8.763099999991255
 31
0.0
  0
LINE
  5
B185
330
B177
100
AcDbEntity
  8
0
  6
CONTINUOUS
100
AcDbLine
 10
43.57899999995641
 20
7.675193317378131
 30
0.0
 11
44.66690668256953
 21
8.763099999991255
 31
0.0
  0
LINE
  5
B186
330
B177
100
AcDbEntity
  8
0
  6
CONTINUOUS
100
AcDbLine
 10
38.60499999996136
 20
2.027674108302898
 30
0.0
 11
40.02599999995994
 21
3.44867410830147
 31
0.0
  0
LINE
  5
B187
330
B177
100
AcDbEntity
  8
0
  6
CONTINUOUS
100
AcDbLine
 10
38.60499999996136
 20
1.354154899222712
 30
0.0
 11
40.02599999995994
 21
2.775154899221284
 31
0.0
  0
LINE
  5
B188
330
B177
100
AcDbEntity
  8
0
  6
CONTINUOUS
100
AcDbLine
 10
38.60499999996136
 20
0.6806356901425255
 30
0.0
 11
40.02599999995994
 21
2.101635690141098
 31
0.0
  0
LINE
  5
B189
330
B177
100
AcDbEntity
  8
0
  6
CONTINUOUS
100
AcDbLine
 10
38.60499999996136
 20
0.0071164810623383
 30
0.0
 11
40.02599999995994
 21
1.428116481060911
 31
0.0
  0
LINE
  5
B18A
330
B177
100
AcDbEntity
  8
0
  6
CONTINUOUS
100
AcDbLine
 10
40.9183221720374
 20
4.340996280378933
 30
0.0
 11
41.89134866762525
 21
5.314022775966786
 31
0.0
  0
LINE
  5
B18B
330
B177
100
AcDbEntity
  8
0
  6
CONTINUOUS
100
AcDbLine
 10
41.23578448461758
 20
3.984939383878926
 30
0.0
 11
42.20881098020543
 21
4.957965879466778
 31
0.0
  0
LINE
  5
B18C
330
B177
100
AcDbEntity
  8
0
  6
CONTINUOUS
100
AcDbLine
 10
41.55324679719776
 20
3.628882487378919
 30
0.0
 11
42.52627329278561
 21
4.601908982966772
 31
0.0
  0
LINE
  5
B18D
330
B177
100
AcDbEntity
  8
0
  6
CONTINUOUS
100
AcDbLine
 10
41.87070910977793
 20
3.272825590878912
 30
0.0
 11
42.84373560536579
 21
4.245852086466765
 31
0.0
  0
LINE
  5
B18E
330
B177
100
AcDbEntity
  8
0
  6
CONTINUOUS
100
AcDbLine
 10
43.57899999995641
 20
7.001674108297943
 30
0.0
 11
44.99999999995498
 21
8.422674108296516
 31
0.0
  0
LINE
  5
B18F
330
B177
100
AcDbEntity
  8
0
  6
CONTINUOUS
100
AcDbLine
 10
43.57899999995641
 20
6.328154899217758
 30
0.0
 11
44.99999999995498
 21
7.749154899216329
 31
0.0
  0
LINE
  5
B190
330
B177
100
AcDbEntity
  8
0
  6
CONTINUOUS
100
AcDbLine
 10
43.57899999995641
 20
5.654635690137571
 30
0.0
 11
44.99999999995498
 21
7.075635690136142
 31
0.0
  0
LINE
  5
B191
330
B177
100
AcDbEntity
  8
0
  6
CONTINUOUS
100
AcDbLine
 10
43.57899999995641
 20
4.981116481057384
 30
0.0
 11
44.99999999995498
 21
6.402116481055955
 31
0.0
  0
LINE
  5
B192
330
B177
100
AcDbEntity
  8
0
  6
CONTINUOUS
100
AcDbLine
 10
39.27140272797921
 20
-0.0000000000000009
 30
0.0
 11
40.02599999995994
 21
0.7545972719807246
 31
0.0
  0
LINE
  5
B193
330
B177
100
AcDbEntity
  8
0
  6
CONTINUOUS
100
AcDbLine
 10
39.9449219370594
 20
-0.0000000000000009
 30
0.0
 11
40.02599999995994
 21
0.0810780629005379
 31
0.0
  0
LINE
  5
B194
330
B177
100
AcDbEntity
  8
0
  6
CONTINUOUS
100
AcDbLine
 10
42.18817142235812
 20
2.916768694378905
 30
0.0
 11
43.16119791794597
 21
3.889795189966758
 31
0.0
  0
LINE
  5
B195
330
B177
100
AcDbEntity
  8
0
  6
CONTINUOUS
100
AcDbLine
 10
42.50563373493829
 20
2.560711797878898
 30
0.0
 11
43.47866023052615
 21
3.533738293466751
 31
0.0
  0
LINE
  5
B196
330
B177
100
AcDbEntity
  8
0
  6
CONTINUOUS
100
AcDbLine
 10
43.57899999995641
 20
4.307597271977198
 30
0.0
 11
44.99999999995498
 21
5.728597271975769
 31
0.0
  0
LINE
  5
B197
330
B177
100
AcDbEntity
  8
0
  6
CONTINUOUS
100
AcDbLine
 10
43.57899999995641
 20
3.634078062897011
 30
0.0
 11
44.99999999995498
 21
5.055078062895582
 31
0.0
  0
LINE
  5
B198
330
B177
100
AcDbEntity
  8
0
  6
CONTINUOUS
100
AcDbLine
 10
42.82309604751848
 20
2.204654901378891
 30
0.0
 11
44.99999999995498
 21
4.381558853815395
 31
0.0
  0
LINE
  5
B199
330
B177
100
AcDbEntity
  8
0
  6
CONTINUOUS
100
AcDbLine
 10
43.14055836009865
 20
1.848598004878885
 30
0.0
 11
44.99999999995498
 21
3.70803964473521
 31
0.0
  0
LINE
  5
B19A
330
B177
100
AcDbEntity
  8
0
  6
CONTINUOUS
100
AcDbLine
 10
43.45802067267883
 20
1.492541108378878
 30
0.0
 11
44.99999999995498
 21
3.034520435655023
 31
0.0
  0
LINE
  5
B19B
330
B177
100
AcDbEntity
  8
0
  6
CONTINUOUS
100
AcDbLine
 10
43.77548298525902
 20
1.136484211878871
 30
0.0
 11
44.99999999995498
 21
2.361001226574837
 31
0.0
  0
LINE
  5
B19C
330
B177
100
AcDbEntity
  8
0
  6
CONTINUOUS
100
AcDbLine
 10
44.09294529783919
 20
0.7804273153788639
 30
0.0
 11
44.99999999995498
 21
1.687482017494649
 31
0.0
  0
LINE
  5
B19D
330
B177
100
AcDbEntity
  8
0
  6
CONTINUOUS
100
AcDbLine
 10
44.41040761041938
 20
0.4243704188788566
 30
0.0
 11
44.99999999995498
 21
1.013962808414463
 31
0.0
  0
LINE
  5
B19E
330
B177
100
AcDbEntity
  8
0
  6
CONTINUOUS
100
AcDbLine
 10
44.72786992299955
 20
0.0683135223788494
 30
0.0
 11
44.99999999995498
 21
0.340443599334276
 31
0.0
  0
LINE
  5
B19F
330
B177
100
AcDbEntity
  8
0
  6
CONTINUOUS
100
AcDbLine
 10
39.12223903415696
 20
-0.0000000000000009
 30
0.0
 11
38.60499999996136
 21
0.5172390341955961
 31
0.0
  0
LINE
  5
B1A0
330
B177
100
AcDbEntity
  8
0
  6
CONTINUOUS
100
AcDbLine
 10
39.79575824323715
 20
-0.0000000000000009
 30
0.0
 11
38.60499999996136
 21
1.190758243275783
 31
0.0
  0
LINE
  5
B1A1
330
B177
100
AcDbEntity
  8
0
  6
CONTINUOUS
100
AcDbLine
 10
40.02599999995994
 20
0.443277452357397
 30
0.0
 11
38.60499999996136
 21
1.864277452355969
 31
0.0
  0
LINE
  5
B1A2
330
B177
100
AcDbEntity
  8
0
  6
CONTINUOUS
100
AcDbLine
 10
40.02599999995994
 20
1.116796661437583
 30
0.0
 11
38.60499999996136
 21
2.537796661436155
 31
0.0
  0
LINE
  5
B1A3
330
B177
100
AcDbEntity
  8
0
  6
CONTINUOUS
100
AcDbLine
 10
40.02599999995994
 20
1.79031587051777
 30
0.0
 11
38.60499999996136
 21
3.211315870516341
 31
0.0
  0
LINE
  5
B1A4
330
B177
100
AcDbEntity
  8
0
  6
CONTINUOUS
100
AcDbLine
 10
40.02599999995994
 20
2.463835079597956
 30
0.0
 11
38.60499999996136
 21
3.884835079596527
 31
0.0
  0
LINE
  5
B1A5
330
B177
100
AcDbEntity
  8
0
  6
CONTINUOUS
100
AcDbLine
 10
40.02599999995994
 20
3.137354288678143
 30
0.0
 11
38.60499999996136
 21
4.558354288676714
 31
0.0
  0
LINE
  5
B1A6
330
B177
100
AcDbEntity
  8
0
  6
CONTINUOUS
100
AcDbLine
 10
40.02599999995994
 20
3.810873497758329
 30
0.0
 11
38.60499999996136
 21
5.2318734977569
 31
0.0
  0
LINE
  5
B1A7
330
B177
100
AcDbEntity
  8
0
  6
CONTINUOUS
100
AcDbLine
 10
40.02599999995994
 20
4.484392706838515
 30
0.0
 11
38.60499999996136
 21
5.905392706837086
 31
0.0
  0
LINE
  5
B1A8
330
B177
100
AcDbEntity
  8
0
  6
CONTINUOUS
100
AcDbLine
 10
44.99999999995498
 20
0.183911915923658
 30
0.0
 11
41.53858364506288
 21
3.64532827081576
 31
0.0
  0
LINE
  5
B1A9
330
B177
100
AcDbEntity
  8
0
  6
CONTINUOUS
100
AcDbLine
 10
40.02599999995994
 20
5.157911915918703
 30
0.0
 11
38.60499999996136
 21
6.578911915917274
 31
0.0
  0
LINE
  5
B1AA
330
B177
100
AcDbEntity
  8
0
  6
CONTINUOUS
100
AcDbLine
 10
44.99999999995498
 20
0.8574311250038447
 30
0.0
 11
38.60499999996136
 21
7.25243112499746
 31
0.0
  0
LINE
  5
B1AB
330
B177
100
AcDbEntity
  8
0
  6
CONTINUOUS
100
AcDbLine
 10
44.99999999995498
 20
1.530950334084031
 30
0.0
 11
38.60499999996136
 21
7.925950334077647
 31
0.0
  0
LINE
  5
B1AC
330
B177
100
AcDbEntity
  8
0
  6
CONTINUOUS
100
AcDbLine
 10
44.99999999995498
 20
2.204469543164218
 30
0.0
 11
43.57899999995641
 21
3.625469543162789
 31
0.0
  0
LINE
  5
B1AD
330
B177
100
AcDbEntity
  8
0
  6
CONTINUOUS
100
AcDbLine
 10
41.89876730984767
 20
5.305702233271528
 30
0.0
 11
38.60499999996136
 21
8.599469543157834
 31
0.0
  0
LINE
  5
B1AE
330
B177
100
AcDbEntity
  8
0
  6
CONTINUOUS
100
AcDbLine
 10
44.99999999995498
 20
2.877988752244405
 30
0.0
 11
43.57899999995641
 21
4.298988752242975
 31
0.0
  0
LINE
  5
B1AF
330
B177
100
AcDbEntity
  8
0
  6
CONTINUOUS
100
AcDbLine
 10
44.99999999995498
 20
3.551507961324591
 30
0.0
 11
43.57899999995641
 21
4.972507961323163
 31
0.0
  0
LINE
  5
B1B0
330
B177
100
AcDbEntity
  8
0
  6
CONTINUOUS
100
AcDbLine
 10
44.99999999995498
 20
4.225027170404777
 30
0.0
 11
43.57899999995641
 21
5.646027170403348
 31
0.0
  0
LINE
  5
B1B1
330
B177
100
AcDbEntity
  8
0
  6
CONTINUOUS
100
AcDbLine
 10
44.99999999995498
 20
4.898546379484964
 30
0.0
 11
43.57899999995641
 21
6.319546379483535
 31
0.0
  0
LINE
  5
B1B2
330
B177
100
AcDbEntity
  8
0
  6
CONTINUOUS
100
AcDbLine
 10
44.99999999995498
 20
5.572065588565151
 30
0.0
 11
43.57899999995641
 21
6.993065588563722
 31
0.0
  0
LINE
  5
B1B3
330
B177
100
AcDbEntity
  8
0
  6
CONTINUOUS
100
AcDbLine
 10
44.99999999995498
 20
6.245584797645336
 30
0.0
 11
43.57899999995641
 21
7.666584797643908
 31
0.0
  0
LINE
  5
B1B4
330
B177
100
AcDbEntity
  8
0
  6
CONTINUOUS
100
AcDbLine
 10
44.99999999995498
 20
6.919104006725522
 30
0.0
 11
43.57899999995641
 21
8.340104006724093
 31
0.0
  0
LINE
  5
B1B5
330
B177
100
AcDbEntity
  8
0
  6
CONTINUOUS
100
AcDbLine
 10
44.99999999995498
 20
7.592623215805709
 30
0.0
 11
43.82952321576943
 21
8.763099999991255
 31
0.0
  0
LINE
  5
B1B6
330
B177
100
AcDbEntity
  8
0
  6
CONTINUOUS
100
AcDbLine
 10
44.99999999995498
 20
8.266142424885896
 30
0.0
 11
44.50304242484962
 21
8.763099999991255
 31
0.0
  0
ENDBLK
  5
B1E0
330
B177
100
AcDbEntity
  8
0
100
AcDbBlockEnd
  0
BLOCK
  5
B1E1
330
B1B7
100
AcDbEntity
  8
0
100
AcDbBlockBegin
  2
*X77
 70
     1
 10
0.0
 20
0.0
 30
0.0
  3
*X77
  1

  0
LINE
  5
B1B8
330
B1B7
100
AcDbEntity
  8
0
  6
CONTINUOUS
100
AcDbLine
 10
0.0
 20
8.548461116714023
 30
0.0
 11
0.2146388832772324
 21
8.763099999991255
 31
0.0
  0
LINE
  5
B1B9
330
B1B7
100
AcDbEntity
  8
0
  6
CONTINUOUS
100
AcDbLine
 10
-0.0000000000000002
 20
7.874941907633837
 30
0.0
 11
0.8881580923574184
 21
8.763099999991255
 31
0.0
  0
LINE
  5
B1BA
330
B1B7
100
AcDbEntity
  8
0
  6
CONTINUOUS
100
AcDbLine
 10
0.0
 20
7.20142269855365
 30
0.0
 11
1.420999999998572
 21
8.622422698552223
 31
0.0
  0
LINE
  5
B1BB
330
B1B7
100
AcDbEntity
  8
0
  6
CONTINUOUS
100
AcDbLine
 10
-0.0000000000000001
 20
6.527903489473465
 30
0.0
 11
1.420999999998571
 21
7.948903489472036
 31
0.0
  0
LINE
  5
B1BC
330
B1B7
100
AcDbEntity
  8
0
  6
CONTINUOUS
100
AcDbLine
 10
-0.0000000000000002
 20
5.854384280393278
 30
0.0
 11
1.420999999998571
 21
7.275384280391849
 31
0.0
  0
LINE
  5
B1BD
330
B1B7
100
AcDbEntity
  8
0
  6
CONTINUOUS
100
AcDbLine
 10
-0.0000000000000002
 20
5.180865071313091
 30
0.0
 11
1.420999999998571
 21
6.601865071311663
 31
0.0
  0
LINE
  5
B1BE
330
B1B7
100
AcDbEntity
  8
0
  6
CONTINUOUS
100
AcDbLine
 10
0.0
 20
4.507345862232905
 30
0.0
 11
1.420999999998571
 21
5.928345862231477
 31
0.0
  0
LINE
  5
B1BF
330
B1B7
100
AcDbEntity
  8
0
  6
CONTINUOUS
100
AcDbLine
 10
-0.0000000000000003
 20
3.833826653152718
 30
0.0
 11
1.420999999998571
 21
5.25482665315129
 31
0.0
  0
LINE
  5
B1C0
330
B1B7
100
AcDbEntity
  8
0
  6
CONTINUOUS
100
AcDbLine
 10
-0.0000000000000002
 20
3.160307444072532
 30
0.0
 11
1.420999999998571
 21
4.581307444071103
 31
0.0
  0
LINE
  5
B1C1
330
B1B7
100
AcDbEntity
  8
0
  6
CONTINUOUS
100
AcDbLine
 10
-0.0000000000000001
 20
2.486788234992345
 30
0.0
 11
1.420999999998571
 21
3.907788234990917
 31
0.0
  0
LINE
  5
B1C2
330
B1B7
100
AcDbEntity
  8
0
  6
CONTINUOUS
100
AcDbLine
 10
-0.0000000000000006
 20
1.813269025912159
 30
0.0
 11
1.420999999998571
 21
3.234269025910731
 31
0.0
  0
LINE
  5
B1C3
330
B1B7
100
AcDbEntity
  8
0
  6
CONTINUOUS
100
AcDbLine
 10
0.0
 20
1.139749816831973
 30
0.0
 11
1.420999999998571
 21
2.560749816830544
 31
0.0
  0
LINE
  5
B1C4
330
B1B7
100
AcDbEntity
  8
0
  6
CONTINUOUS
100
AcDbLine
 10
0.0000000000000002
 20
0.466230607751787
 30
0.0
 11
1.420999999998571
 21
1.887230607750358
 31
0.0
  0
LINE
  5
B1C5
330
B1B7
100
AcDbEntity
  8
0
  6
CONTINUOUS
100
AcDbLine
 10
0.2072886013284003
 20
-0.0000000000000009
 30
0.0
 11
1.420999999998571
 21
1.213711398670171
 31
0.0
  0
LINE
  5
B1C6
330
B1B7
100
AcDbEntity
  8
0
  6
CONTINUOUS
100
AcDbLine
 10
0.8808078104085864
 20
-0.0000000000000009
 30
0.0
 11
1.420999999998571
 21
0.5401921895899839
 31
0.0
  0
LINE
  5
B1C7
330
B1B7
100
AcDbEntity
  8
0
  6
CONTINUOUS
100
AcDbLine
 10
0.0581249075061505
 20
-0.0000000000000009
 30
0.0
 11
-0.0000000000000002
 21
0.0581249075061496
 31
0.0
  0
LINE
  5
B1C8
330
B1B7
100
AcDbEntity
  8
0
  6
CONTINUOUS
100
AcDbLine
 10
0.7316441165863372
 20
-0.0000000000000009
 30
0.0
 11
-0.0000000000000002
 21
0.7316441165863363
 31
0.0
  0
LINE
  5
B1C9
330
B1B7
100
AcDbEntity
  8
0
  6
CONTINUOUS
100
AcDbLine
 10
1.405163325666523
 20
-0.0000000000000009
 30
0.0
 11
-0.0000000000000002
 21
1.405163325666523
 31
0.0
  0
LINE
  5
B1CA
330
B1B7
100
AcDbEntity
  8
0
  6
CONTINUOUS
100
AcDbLine
 10
1.420999999998572
 20
0.6576825347481381
 30
0.0
 11
-0.0000000000000001
 21
2.07868253474671
 31
0.0
  0
LINE
  5
B1CB
330
B1B7
100
AcDbEntity
  8
0
  6
CONTINUOUS
100
AcDbLine
 10
1.420999999998571
 20
1.331201743828324
 30
0.0
 11
-0.0000000000000001
 21
2.752201743826896
 31
0.0
  0
LINE
  5
B1CC
330
B1B7
100
AcDbEntity
  8
0
  6
CONTINUOUS
100
AcDbLine
 10
1.420999999998571
 20
2.004720952908511
 30
0.0
 11
-0.0000000000000002
 21
3.425720952907082
 31
0.0
  0
LINE
  5
B1CD
330
B1B7
100
AcDbEntity
  8
0
  6
CONTINUOUS
100
AcDbLine
 10
1.420999999998571
 20
2.678240161988697
 30
0.0
 11
-0.0000000000000001
 21
4.099240161987269
 31
0.0
  0
LINE
  5
B1CE
330
B1B7
100
AcDbEntity
  8
0
  6
CONTINUOUS
100
AcDbLine
 10
1.420999999998572
 20
3.351759371068884
 30
0.0
 11
0.0
 21
4.772759371067455
 31
0.0
  0
LINE
  5
B1CF
330
B1B7
100
AcDbEntity
  8
0
  6
CONTINUOUS
100
AcDbLine
 10
1.420999999998571
 20
4.02527858014907
 30
0.0
 11
-0.0000000000000003
 21
5.446278580147642
 31
0.0
  0
LINE
  5
B1D0
330
B1B7
100
AcDbEntity
  8
0
  6
CONTINUOUS
100
AcDbLine
 10
1.420999999998571
 20
4.698797789229257
 30
0.0
 11
0.0
 21
6.119797789227828
 31
0.0
  0
LINE
  5
B1D1
330
B1B7
100
AcDbEntity
  8
0
  6
CONTINUOUS
100
AcDbLine
 10
1.420999999998571
 20
5.372316998309444
 30
0.0
 11
-0.0000000000000001
 21
6.793316998308015
 31
0.0
  0
LINE
  5
B1D2
330
B1B7
100
AcDbEntity
  8
0
  6
CONTINUOUS
100
AcDbLine
 10
1.420999999998572
 20
6.045836207389629
 30
0.0
 11
-0.0000000000000004
 21
7.466836207388202
 31
0.0
  0
LINE
  5
B1D3
330
B1B7
100
AcDbEntity
  8
0
  6
CONTINUOUS
100
AcDbLine
 10
1.420999999998571
 20
6.719355416469816
 30
0.0
 11
0.0
 21
8.140355416468388
 31
0.0
  0
LINE
  5
B1D4
330
B1B7
100
AcDbEntity
  8
0
  6
CONTINUOUS
100
AcDbLine
 10
1.420999999998571
 20
7.392874625550003
 30
0.0
 11
0.0507746255573185
 21
8.763099999991255
 31
0.0
  0
LINE
  5
B1D5
330
B1B7
100
AcDbEntity
  8
0
  6
CONTINUOUS
100
AcDbLine
 10
1.420999999998571
 20
8.06639383463019
 30
0.0
 11
0.7242938346375052
 21
8.763099999991255
 31
0.0
  0
LINE
  5
B1D6
330
B1B7
100
AcDbEntity
  8
0
  6
CONTINUOUS
100
AcDbLine
 10
1.420999999998571
 20
8.739913043710375
 30
0.0
 11
1.397813043717691
 21
8.763099999991255
 31
0.0
  0
ENDBLK
  5
B1E2
330
B1B7
100
AcDbEntity
  8
0
100
AcDbBlockEnd
  0
ENDSEC
  0
SECTION
  2
ENTITIES
  0
LINE
  5
AE7F
330
18
100
AcDbEntity
  8
01
100
AcDbLine
 10
4939.646924053214
 20
-281.7480625854535
 30
0.0000000000563712
 11
4962.275209435645
 21
-281.7480625854535
 31
0.0000000000563712
  0
LINE
  5
AE80
330
18
100
AcDbEntity
  8
01
  6
BYBLOCK
100
AcDbLine
 10
5040.775977277962
 20
-121.7493808985562
 30
0.0000000001127424
 11
5194.530357432993
 21
-121.7493808985562
 31
0.0000000001127424
  0
LINE
  5
AE81
330
18
100
AcDbEntity
  8
01
100
AcDbLine
 10
5091.775209435645
 20
-116.7493808985562
 30
0.0000000001127424
 11
5091.775209435645
 21
-143.2493808985562
 31
0.0000000001127424
  0
LINE
  5
AE87
330
18
100
AcDbEntity
  8
01
100
AcDbLine
 10
4941.775209435645
 20
-161.7480625854535
 30
0.0000000000563712
 11
4941.775209435645
 21
-351.7480625854535
 31
0.0000000000563712
  0
LINE
  5
AE88
330
18
100
AcDbEntity
  8
1CENTER
100
AcDbLine
 10
4956.275209435645
 20
-296.7480625854535
 30
0.0000000000563712
 11
4956.275209435645
 21
-288.7480625854535
 31
0.0000000000563712
  0
LINE
  5
AE89
330
18
100
AcDbEntity
  8
01
100
AcDbLine
 10
5061.775209435645
 20
-281.7480625854535
 30
0.0000000000563712
 11
5121.775209435645
 21
-281.7480625854535
 31
0.0000000000563712
  0
LINE
  5
AE8A
330
18
100
AcDbEntity
  8
01
100
AcDbLine
 10
5091.775209435645
 20
-251.7480625854535
 30
0.0000000000563712
 11
5091.775209435645
 21
-311.7480625854535
 31
0.0000000000563712
  0
LINE
  5
AE8C
330
18
100
AcDbEntity
  8
01
100
AcDbLine
 10
5117.775209435645
 20
-255.2480625854553
 30
0.0000000000563712
 11
5065.775209435648
 21
-255.2480625854553
 31
0.0000000000563712
  0
LINE
  5
AE8D
330
18
100
AcDbEntity
  8
01
100
AcDbLine
 10
5065.775209435648
 20
-308.2480625854553
 30
0.0000000000563712
 11
5117.775209435645
 21
-308.2480625854553
 31
0.0000000000563712
  0
LINE
  5
AE8E
330
18
100
AcDbEntity
  8
01
100
AcDbLine
 10
5065.275209435648
 20
-255.7480625854553
 30
0.0000000000563712
 11
5065.275209435648
 21
-307.7480625854553
 31
0.0000000000563712
  0
ARC
  5
AE8F
330
18
100
AcDbEntity
  8
01
100
AcDbCircle
 10
5065.775209435648
 20
-307.7480625854553
 30
0.0000000000563712
 40
0.5
100
AcDbArc
 50
180.0
 51
270.0
  0
ARC
  5
AE90
330
18
100
AcDbEntity
  8
01
100
AcDbCircle
 10
5065.775209435648
 20
-255.7480625854553
 30
0.0000000000563712
 40
0.5
100
AcDbArc
 50
90.0
 51
180.0
  0
LINE
  5
AE91
330
18
100
AcDbEntity
  8
01
100
AcDbLine
 10
5118.275209435645
 20
-255.7480625854553
 30
0.0000000000563712
 11
5118.275209435645
 21
-269.7480625854535
 31
0.0000000000563712
  0
ARC
  5
AE92
330
18
100
AcDbEntity
  8
01
100
AcDbCircle
 10
5117.775209435645
 20
-307.7480625854553
 30
0.0000000000563712
 40
0.5
100
AcDbArc
 50
270.0
 51
0.0
  0
ARC
  5
AE93
330
18
100
AcDbEntity
  8
01
100
AcDbCircle
 10
5117.775209435645
 20
-255.7480625854553
 30
0.0000000000563712
 40
0.5
100
AcDbArc
 50
0.0
 51
90.0
  0
LINE
  5
AE94
330
18
100
AcDbEntity
  8
01
100
AcDbLine
 10
5065.275209435648
 20
-121.7493808985562
 30
0.0000000001127424
 11
5118.275209435645
 21
-121.7493808985562
 31
0.0000000001127424
  0
LINE
  5
AE95
330
18
100
AcDbEntity
  8
01
100
AcDbLine
 10
5065.775209435648
 20
-130.2493808985562
 30
0.0000000001127424
 11
5117.775209435645
 21
-130.2493808985562
 31
0.0000000001127424
  0
LINE
  5
AE96
330
18
100
AcDbEntity
  8
01
100
AcDbLine
 10
5118.275209435645
 20
-121.7493808985562
 30
0.0000000001127424
 11
5118.275209435645
 21
-129.7493808985562
 31
0.0000000001127424
  0
LINE
  5
AE97
330
18
100
AcDbEntity
  8
01
100
AcDbLine
 10
5065.275209435648
 20
-121.7493808985562
 30
0.0000000001127424
 11
5065.275209435648
 21
-129.7493808985562
 31
0.0000000001127424
  0
ARC
  5
AE98
330
18
100
AcDbEntity
  8
01
100
AcDbCircle
 10
5065.775209435648
 20
-129.7493808985562
 30
0.0000000001127424
 40
0.5
100
AcDbArc
 50
180.0
 51
270.0
  0
ARC
  5
AE99
330
18
100
AcDbEntity
  8
01
100
AcDbCircle
 10
5117.775209435645
 20
-129.7493808985562
 30
0.0000000001127424
 40
0.5
100
AcDbArc
 50
270.0
 51
0.0
  0
LINE
  5
AE9A
330
18
100
AcDbEntity
  8
01
100
AcDbLine
 10
4941.775209435645
 20
-308.2480625854526
 30
0.0000000000563712
 11
4941.775209435645
 21
-255.2480625854553
 31
0.0000000000563712
  0
LINE
  5
AE9B
330
18
100
AcDbEntity
  8
01
100
AcDbLine
 10
4950.275209435645
 20
-307.7480625854526
 30
0.0000000000563712
 11
4950.275209435645
 21
-255.7480625854553
 31
0.0000000000563712
  0
LINE
  5
AE9C
330
18
100
AcDbEntity
  8
01
100
AcDbLine
 10
4941.775209435645
 20
-255.2480625854553
 30
0.0000000000563712
 11
4949.775209435645
 21
-255.2480625854553
 31
0.0000000000563712
  0
LINE
  5
AE9D
330
18
100
AcDbEntity
  8
01
100
AcDbLine
 10
4941.775209435645
 20
-308.2480625854526
 30
0.0000000000563712
 11
4949.775209435645
 21
-308.2480625854526
 31
0.0000000000563712
  0
ARC
  5
AE9E
330
18
100
AcDbEntity
  8
01
100
AcDbCircle
 10
4949.775209435645
 20
-307.7480625854526
 30
0.0000000000563712
 40
0.5
100
AcDbArc
 50
270.0
 51
0.0
  0
ARC
  5
AE9F
330
18
100
AcDbEntity
  8
01
100
AcDbCircle
 10
4949.775209435645
 20
-255.7480625854553
 30
0.0000000000563712
 40
0.5
100
AcDbArc
 50
0.0
 51
90.0
  0
TEXT
  5
AEA0
330
18
100
AcDbEntity
  8
1TEXT
100
AcDbText
 10
4941.775209435645
 20
-121.7493808985567
 30
0.0
 40
10.0
  1
WET
 41
1.0171875
100
AcDbText
  0
SPLINE
  5
AEA1
330
18
100
AcDbEntity
  8
01
  6
CONTINUOUS
100
AcDbSpline
210
0.0
220
0.0
230
1.0
 70
     8
 71
     3
 72
    13
 73
     9
 74
     0
 42
0.00000001
 43
0.00000001
 40
0.0
 40
0.0
 40
0.0
 40
0.0
 40
0.1404373146550647
 40
0.3060190235493058
 40
0.5309404596682147
 40
0.7433131941004899
 40
0.9751647103795206
 40
1.0
 40
1.0
 40
1.0
 40
1.0
 10
5107.13734164219
 20
-280.0295920958472
 30
0.0000000000563712
 10
5107.080839198448
 20
-280.0823857738563
 30
0.0000000000563712
 10
5106.957717913308
 20
-280.197425496978
 30
0.0000000000563712
 10
5106.767911713134
 20
-280.4640895945343
 30
0.0000000000563712
 10
5106.583886795153
 20
-280.8203364511681
 30
0.0000000000563712
 10
5106.439289779636
 20
-281.2627159096913
 30
0.0000000000563712
 10
5106.39121717711
 20
-281.5937415655215
 30
0.0000000000563712
 10
5106.391725863315
 20
-281.7486013826741
 30
0.0000000000563712
 10
5106.391775080372
 20
-281.7635845774515
 30
0.0000000000563712
  0
LINE
  5
AEA2
330
18
100
AcDbEntity
  8
01
  6
CONTINUOUS
100
AcDbLine
 10
5106.391226531376
 20
-281.7667552651567
 30
0.0000000000563712
 11
5106.391226531376
 21
-289.5339995072885
 31
0.0000000000563712
  0
LINE
  5
AEA3
330
18
100
AcDbEntity
  8
01
  6
CONTINUOUS
100
AcDbLine
 10
5118.796658593599
 20
-269.9288853825731
 30
0.0000000000563712
 11
5107.141250403036
 21
-280.0227655013753
 31
0.0000000000563712
  0
ARC
  5
AEA4
330
18
100
AcDbEntity
  8
01
  6
CONTINUOUS
100
AcDbCircle
 10
5107.103654962082
 20
-289.5794860964027
 30
0.0000000000563712
 40
0.713879050447976
100
AcDbArc
 50
176.3467812992549
 51
257.3668838055367
  0
LINE
  5
AEA5
330
18
100
AcDbEntity
  8
01
  6
CONTINUOUS
100
AcDbLine
 10
5112.183633850325
 20
-290.9671587319775
 30
0.0000000000563712
 11
5216.919455335845
 21
-287.8898836122556
 31
0.0000000000563712
  0
LINE
  5
AEA6
330
18
100
AcDbEntity
  8
01
  6
CONTINUOUS
100
AcDbLine
 10
5106.947524422587
 20
-290.2760825027281
 30
0.0000000000563712
 11
5111.455693033893
 21
-290.9431827636166
 31
0.0000000000563712
  0
ARC
  5
AEA7
330
18
100
AcDbEntity
  8
01
  6
CONTINUOUS
100
AcDbCircle
 10
5216.77519403762
 20
-282.8915999056192
 30
0.0000000000563712
 40
5.000047037966281
100
AcDbArc
 50
271.6874917349159
 51
297.7403405769302
  0
LINE
  5
AEA8
330
18
100
AcDbEntity
  8
01
  6
CONTINUOUS
100
AcDbLine
 10
5111.788099755902
 20
-290.9672639714284
 30
0.0000000000563712
 11
5112.22633079942
 21
-290.9672639714284
 31
0.0000000000563712
  0
ARC
  5
AEA9
330
18
100
AcDbEntity
  8
01
  6
CONTINUOUS
100
AcDbCircle
 10
5119.269358724778
 20
-270.4523011344955
 30
0.0000000000563712
 40
0.7042976031852399
100
AcDbArc
 50
89.2580276078172
 51
131.0864810747756
  0
SPLINE
  5
AEAA
330
18
100
AcDbEntity
  8
01
  6
CONTINUOUS
100
AcDbSpline
210
0.0
220
0.0
230
1.0
 70
     8
 71
     3
 72
     9
 73
     5
 74
     0
 42
0.00000001
 43
0.00000001
 40
0.0
 40
0.0
 40
0.0
 40
0.0
 40
0.1463333907906687
 40
1.0
 40
1.0
 40
1.0
 40
1.0
 10
5110.55867666879
 20
-290.96629244865
 30
0.0000000000563712
 10
5110.590448071694
 20
-290.9650527165127
 30
0.0000000000563712
 10
5110.791267648603
 20
-290.9804121581568
 30
0.0000000000563712
 10
5110.996724930382
 20
-290.9377461153063
 30
0.0000000000563712
 10
5111.172116951455
 20
-290.9013235391779
 30
0.0000000000563712
  0
LINE
  5
AEAB
330
18
100
AcDbEntity
  8
01
  6
CONTINUOUS
100
AcDbLine
 10
5109.953834799488
 20
-290.9672639714284
 30
0.0000000000563712
 11
5110.597778059702
 21
-290.9662296423301
 31
0.0000000000563712
  0
LINE
  5
AEAC
330
18
100
AcDbEntity
  8
01
  6
CONTINUOUS
100
AcDbLine
 10
5107.620436698051
 20
-291.7785175527668
 30
0.0000000000563712
 11
5109.953834799488
 21
-290.9672639714284
 31
0.0000000000563712
  0
LINE
  5
AEAE
330
18
100
AcDbEntity
  8
01
  6
CONTINUOUS
100
AcDbLine
 10
5108.044023284127
 20
-279.9677173522962
 30
0.0000000000563712
 11
5108.04993904512
 21
-279.9634584141625
 31
0.0000000000563712
  0
SPLINE
  5
AEAF
330
18
100
AcDbEntity
  8
01
  6
CONTINUOUS
100
AcDbSpline
210
0.0
220
0.0
230
1.0
 70
     8
 71
     3
 72
     9
 73
     5
 74
     0
 42
0.00000001
 43
0.00000001
 40
0.0
 40
0.0
 40
0.0
 40
0.0
 40
0.5000075064748695
 40
1.0
 40
1.0
 40
1.0
 40
1.0
 10
5108.0506189106
 20
-279.9636705228789
 30
0.0000000000563712
 10
5125.447780539986
 20
-280.021976940501
 30
0.0000000000563712
 10
5160.241581441172
 20
-280.1385880250694
 30
0.0000000000563712
 10
5195.029074940703
 20
-280.1690632328471
 30
0.0000000000563712
 10
5212.422560559024
 20
-280.1843006079746
 30
0.0000000000563712
  0
LINE
  5
AEB0
330
18
100
AcDbEntity
  8
01
  6
CONTINUOUS
100
AcDbLine
 10
5107.204814527049
 20
-279.9677173522962
 30
0.0000000000563712
 11
5108.044023284127
 21
-279.9677173522962
 31
0.0000000000563712
  0
SPLINE
  5
AEB1
330
18
100
AcDbEntity
  8
01
  6
CONTINUOUS
100
AcDbSpline
210
0.0
220
0.0
230
1.0
 70
     8
 71
     3
 72
    11
 73
     7
 74
     0
 42
0.00000001
 43
0.00000001
 40
0.0
 40
0.0
 40
0.0
 40
0.0
 40
0.2500330508785161
 40
0.4997886408306191
 40
0.749753699416135
 40
1.0
 40
1.0
 40
1.0
 40
1.0
 10
5212.422560559024
 20
-280.1843006079746
 30
0.0000000000563712
 10
5212.981429769854
 20
-280.1601790612668
 30
0.0000000000563712
 10
5214.098548016029
 20
-280.111962735459
 30
0.0000000000563712
 10
5215.634314822115
 20
-279.7005253649716
 30
0.0000000000563712
 10
5216.936054716046
 20
-279.0340344738746
 30
0.0000000000563712
 10
5217.356079809588
 20
-278.3980374254348
 30
0.0000000000563712
 10
5217.566210435141
 20
-278.0798601077134
 30
0.0000000000563712
  0
LINE
  5
AEB2
330
18
100
AcDbEntity
  8
01
  6
CONTINUOUS
100
AcDbLine
 10
5217.566210435141
 20
-278.0798601077134
 30
0.0000000000563712
 11
5221.158359007195
 21
-269.8237183720306
 31
0.0000000000563712
  0
SPLINE
  5
AEB3
330
18
100
AcDbEntity
  8
01
  6
CONTINUOUS
100
AcDbSpline
210
0.0
220
0.0
230
1.0
 70
     8
 71
     3
 72
     9
 73
     5
 74
     0
 42
0.00000001
 43
0.00000001
 40
0.0
 40
0.0
 40
0.0
 40
0.0
 40
0.0961490824994699
 40
1.0
 40
1.0
 40
1.0
 40
1.0
 10
5216.920841143836
 20
-287.886112687151
 30
0.0000000000563712
 10
5216.920854057586
 20
-287.8872760095515
 30
0.0000000000563712
 10
5216.920988367241
 20
-287.8993751619335
 30
0.0000000000563712
 10
5216.920155746659
 20
-287.8934089114589
 30
0.0000000000563712
 10
5216.919403181781
 20
-287.8880163104935
 30
0.0000000000563712
  0
LINE
  5
AEB4
330
18
100
AcDbEntity
  8
01
  6
CONTINUOUS
100
AcDbLine
 10
5111.528707326759
 20
-290.9472945527835
 30
0.0000000000563712
 11
5111.455693033893
 21
-290.9431827636166
 31
0.0000000000563712
  0
SPLINE
  5
AEB5
330
18
100
AcDbEntity
  8
01
  6
CONTINUOUS
100
AcDbSpline
210
0.0
220
0.0
230
1.0
 70
     8
 71
     3
 72
    13
 73
     9
 74
     0
 42
0.00000001
 43
0.00000001
 40
0.0
 40
0.0
 40
0.0
 40
0.0
 40
0.0766106167680133
 40
0.3578438573687946
 40
0.5584885814355701
 40
0.758861016528555
 40
0.9580110134329818
 40
1.0
 40
1.0
 40
1.0
 40
1.0
 10
5219.094175503958
 20
-287.3038498135014
 30
0.0000000000563712
 10
5219.20661026149
 20
-287.247858947929
 30
0.0000000000563712
 10
5219.731786653933
 20
-286.9863287820186
 30
0.0000000000563712
 10
5220.515098772456
 20
-286.2926247619985
 30
0.0000000000563712
 10
5221.242919288444
 20
-285.2298814611041
 30
0.0000000000563712
 10
5221.649974398504
 20
-284.1694048152747
 30
0.0000000000563712
 10
5221.768542620108
 20
-283.3784840767763
 30
0.0000000000563712
 10
5221.774212579341
 20
-282.9630593494958
 30
0.0000000000563712
 10
5221.775199876536
 20
-282.8907223799927
 30
0.0000000000563712
  0
LINE
  5
AEB6
330
18
100
AcDbEntity
  8
01
  6
CONTINUOUS
100
AcDbLine
 10
5221.775199876536
 20
-271.1663644211097
 30
0.0000000000563712
 11
5221.775199876536
 21
-282.8907223799927
 31
0.0000000000563712
  0
ELLIPSE
  5
AEB7
330
18
100
AcDbEntity
  8
01
  6
CONTINUOUS
100
AcDbEllipse
 10
5113.953163308533
 20
-282.9672639630047
 30
0.0000000000563712
 11
2.682394717504308
 21
7.916656684321134
 31
0.0
210
0.0
220
0.0
230
1.0
 40
0.4293768507366188
 41
3.215393164834172
 42
3.286064475791433
  0
LINE
  5
AEB8
330
18
100
AcDbEntity
  8
01
  6
CONTINUOUS
100
AcDbLine
 10
5221.775199876536
 20
-270.748062283705
 30
0.0000000000563712
 11
5221.775199876536
 21
-271.1663658180935
 31
0.0000000000563712
  0
SPLINE
  5
AEB9
330
18
100
AcDbEntity
  8
01
  6
CONTINUOUS
100
AcDbSpline
210
0.0
220
0.0
230
1.0
 70
     8
 71
     3
 72
    10
 73
     6
 74
     0
 42
0.00000001
 43
0.00000001
 40
0.0
 40
0.0
 40
0.0
 40
0.0
 40
0.466750960378335
 40
0.930612492189403
 40
1.0
 40
1.0
 40
1.0
 40
1.0
 10
5221.414077685584
 20
-269.9787530498309
 30
0.0000000000563712
 10
5221.508833497554
 20
-270.0785041065431
 30
0.0000000000563712
 10
5221.697758534272
 20
-270.2773887096089
 30
0.0000000000563712
 10
5221.771881417375
 20
-270.5763112173939
 30
0.0000000000563712
 10
5221.774817789503
 20
-270.7282868842443
 30
0.0000000000563712
 10
5221.775199876536
 20
-270.748062283705
 30
0.0000000000563712
  0
SPLINE
  5
AEBA
330
18
100
AcDbEntity
  8
01
  6
CONTINUOUS
100
AcDbSpline
210
0.0
220
0.0
230
1.0
 70
     8
 71
     3
 72
    10
 73
     6
 74
     0
 42
0.00000001
 43
0.00000001
 40
0.0
 40
0.0
 40
0.0
 40
0.0
 40
0.2772605086090389
 40
0.6075988069682845
 40
1.0
 40
1.0
 40
1.0
 40
1.0
 10
5220.775197849978
 20
-269.7480625854535
 30
0.0000000000563712
 10
5220.84093742029
 20
-269.7519973872566
 30
0.0000000000563712
 10
5220.985001516157
 20
-269.7606202556674
 30
0.0000000000563712
 10
5221.210960994292
 20
-269.8345037503025
 30
0.0000000000563712
 10
5221.342603984462
 20
-269.9279938962823
 30
0.0000000000563712
 10
5221.414077685584
 20
-269.9787530498309
 30
0.0000000000563712
  0
LINE
  5
AEBB
330
18
100
AcDbEntity
  8
01
  6
CONTINUOUS
100
AcDbLine
 10
5119.258287254159
 20
-269.7480625854535
 30
0.0000000000563712
 11
5220.775197849978
 21
-269.7480625854535
 31
0.0000000000563712
  0
SPLINE
  5
AEBC
330
18
100
AcDbEntity
  8
01
  6
CONTINUOUS
100
AcDbSpline
210
0.0
220
0.0
230
1.0
 70
     8
 71
     3
 72
    21
 73
    17
 74
     0
 42
0.00000001
 43
0.00000001
 40
0.0
 40
0.0
 40
0.0
 40
0.0
 40
0.2611293111525768
 40
0.5222899014283281
 40
0.5654111881514434
 40
0.6065141387495094
 40
0.6467609452496916
 40
0.6863994446212263
 40
0.7256136218139791
 40
0.7645531174069711
 40
0.8033388422393885
 40
0.8420951191299622
 40
0.8809518319600655
 40
0.9200692804388863
 40
0.9596680716549831
 40
1.0
 40
1.0
 40
1.0
 40
1.0
 10
5076.81376080345
 20
-271.9595741862161
 30
0.0000000000563712
 10
5077.725103897674
 20
-272.8103720268358
 30
0.0000000000563712
 10
5079.547899250476
 20
-274.5120696200752
 30
0.0000000000563712
 10
5081.135820277178
 20
-276.4285208660181
 30
0.0000000000563712
 10
5082.660211820078
 20
-277.4846286299522
 30
0.0000000000563712
 10
5083.59235789068
 20
-277.8853940274064
 30
0.0000000000563712
 10
5084.787417388685
 20
-278.2520454751728
 30
0.0000000000563712
 10
5086.24608889094
 20
-278.5910337700955
 30
0.0000000000563712
 10
5087.940718825017
 20
-278.8980468309244
 30
0.0000000000563712
 10
5089.849214134073
 20
-279.1707600526486
 30
0.0000000000563712
 10
5091.948189674986
 20
-279.4070627251413
 30
0.0000000000563712
 10
5094.215268836298
 20
-279.6051238173162
 30
0.0000000000563712
 10
5096.628521561023
 20
-279.7631530213769
 30
0.0000000000563712
 10
5099.167939137335
 20
-279.8788438111467
 30
0.0000000000563712
 10
5101.814123025063
 20
-279.953623293472
 30
0.0000000000563712
 10
5103.615999717911
 20
-279.9629906929345
 30
0.0000000000563712
 10
5104.525201612521
 20
-279.9677173522962
 30
0.0000000000563712
  0
SPLINE
  5
AEBD
330
18
100
AcDbEntity
  8
01
  6
CONTINUOUS
100
AcDbSpline
210
0.0
220
0.0
230
1.0
 70
     8
 71
     3
 72
     9
 73
     5
 74
     0
 42
0.00000001
 43
0.00000001
 40
0.0
 40
0.0
 40
0.0
 40
0.0
 40
0.5001064705288615
 40
1.0
 40
1.0
 40
1.0
 40
1.0
 10
5076.525192366351
 20
-272.6609983863039
 30
0.0000000000563712
 10
5076.538359879128
 20
-272.5296945987314
 30
0.0000000000563712
 10
5076.564689298068
 20
-272.2671429316159
 30
0.0000000000563712
 10
5076.730748755282
 20
-272.0620837879426
 30
0.0000000000563712
 10
5076.81376080345
 20
-271.9595760488613
 30
0.0000000000563712
  0
LINE
  5
AEBE
330
18
100
AcDbEntity
  8
01
  6
CONTINUOUS
100
AcDbLine
 10
5076.525199816931
 20
-272.6609983863039
 30
0.0000000000563712
 11
5076.525199816931
 21
-292.7593679548903
 31
0.0000000000563712
  0
LINE
  5
AEBF
330
18
100
AcDbEntity
  8
01
  6
CONTINUOUS
100
AcDbLine
 10
5104.525201612521
 20
-279.9677173522962
 30
0.0000000000563712
 11
5107.204814527049
 21
-279.9677173522962
 31
0.0000000000563712
  0
LINE
  5
AEC0
330
18
100
AcDbEntity
  8
01
  6
CONTINUOUS
100
AcDbLine
 10
5078.715789721717
 20
-270.0574754187567
 30
0.0000000000563712
 11
5076.813723550547
 21
-271.9595392616196
 31
0.0000000000563712
  0
SPLINE
  5
AEC1
330
18
100
AcDbEntity
  8
01
  6
CONTINUOUS
100
AcDbSpline
210
0.0
220
0.0
230
1.0
 70
     8
 71
     3
 72
    20
 73
    16
 74
     0
 42
0.00000001
 43
0.00000001
 40
0.0
 40
0.0
 40
0.0
 40
0.0
 40
0.0574157120721954
 40
0.114826674591118
 40
0.1152087055371715
 40
0.1726549544672343
 40
0.2301031533827436
 40
0.2875380921036038
 40
0.3449706682661545
 40
0.4023870593869537
 40
0.4598066504638651
 40
0.6097441984093475
 40
0.759708247529913
 40
0.9096717691294225
 40
1.0
 40
1.0
 40
1.0
 40
1.0
 10
5104.525201612521
 20
-290.2815032200618
 30
0.0000000000563712
 10
5103.343423107144
 20
-290.285454001237
 30
0.0000000000563712
 10
5100.979963855693
 20
-290.2933552367707
 30
0.0000000000563712
 10
5098.671156486335
 20
-290.3367977027249
 30
0.0000000000563712
 10
5096.434203016222
 20
-290.3920433521619
 30
0.0000000000563712
 10
5094.260717377325
 20
-290.4611121196481
 30
0.0000000000563712
 10
5091.300162169007
 20
-290.6006494023871
 30
0.0000000000563712
 10
5088.717856914129
 20
-290.7738047252877
 30
0.0000000000563712
 10
5086.581950146982
 20
-290.9746611779468
 30
0.0000000000563712
 10
5084.940243909642
 20
-291.198118545425
 30
0.0000000000563712
 10
5083.418834086136
 20
-291.5685250792536
 30
0.0000000000563712
 10
5082.111117746659
 20
-292.0792359591963
 30
0.0000000000563712
 10
5080.346748842455
 20
-292.7204059759163
 30
0.0000000000563712
 10
5078.862008410915
 20
-293.2772930572365
 30
0.0000000000563712
 10
5077.894454992633
 20
-293.6194444418277
 30
0.0000000000563712
 10
5077.530741350163
 20
-293.7480627940698
 30
0.0000000000563712
  0
SPLINE
  5
AEC2
330
18
100
AcDbEntity
  8
01
  6
CONTINUOUS
100
AcDbSpline
210
0.0
220
0.0
230
1.0
 70
     8
 71
     3
 72
    12
 73
     8
 74
     0
 42
0.00000001
 43
0.00000001
 40
0.0
 40
0.0
 40
0.0
 40
0.0
 40
0.2202716004736306
 40
0.4406789418947101
 40
0.6574086637855662
 40
0.8699786311664744
 40
0.9999999999999999
 40
0.9999999999999999
 40
0.9999999999999999
 40
0.9999999999999999
 10
5077.530741350163
 20
-293.7480627940698
 30
0.0000000000563712
 10
5077.415658070475
 20
-293.7369063330546
 30
0.0000000000563712
 10
5077.185420591773
 20
-293.7145865359274
 30
0.0000000000563712
 10
5076.879970894804
 20
-293.5390848139148
 30
0.0000000000563712
 10
5076.653859737405
 20
-293.2819554120304
 30
0.0000000000563712
 10
5076.540343470548
 20
-293.0054317214095
 30
0.0000000000563712
 10
5076.529366015917
 20
-292.8270630197952
 30
0.0000000000563712
 10
5076.525199816931
 20
-292.7593679548903
 30
0.0000000000563712
  0
LINE
  5
AEC3
330
18
100
AcDbEntity
  8
01
  6
CONTINUOUS
100
AcDbLine
 10
5077.530741350163
 20
-293.7480627940698
 30
0.0000000000563712
 11
5103.505757295896
 21
-293.7480627940698
 31
0.0000000000563712
  0
LINE
  5
AEC4
330
18
100
AcDbEntity
  8
01
  6
CONTINUOUS
100
AcDbLine
 10
5106.947524422587
 20
-290.2760825027281
 30
0.0000000000563712
 11
5104.525201612521
 21
-290.2815032200618
 31
0.0000000000563712
  0
ELLIPSE
  5
AEC5
330
18
100
AcDbEntity
  8
01
  6
CONTINUOUS
100
AcDbEllipse
 10
5091.775201222919
 20
-293.35722200726
 30
0.0000000000563712
 11
3.400000000000006
 21
0.0
 31
0.0
210
0.0
220
0.0
230
1.0
 40
0.0707892008842115
 41
0.0654972210214701
 42
3.078267830343876
  0
SPLINE
  5
AEC6
330
18
100
AcDbEntity
  8
01
  6
CONTINUOUS
100
AcDbSpline
210
0.0
220
0.0
230
1.0
 70
     8
 71
     3
 72
    10
 73
     6
 74
     0
 42
0.00000001
 43
0.00000001
 40
0.0
 40
0.0
 40
0.0
 40
0.0
 40
0.4173813195616641
 40
0.8365617074106865
 40
0.9999999999999999
 40
0.9999999999999999
 40
0.9999999999999999
 40
0.9999999999999999
 10
5078.715789721717
 20
-270.0574754187567
 30
0.0000000000563712
 10
5078.806601770214
 20
-269.9833213465011
 30
0.0000000000563712
 10
5078.988617300818
 20
-269.8346935704356
 30
0.0000000000563712
 10
5079.26559391212
 20
-269.7563294414998
 30
0.0000000000563712
 10
5079.427761235836
 20
-269.749873601081
 30
0.0000000000563712
 10
5079.473252998103
 20
-269.7480625854535
 30
0.0000000000563712
  0
SPLINE
  5
AEC7
330
18
100
AcDbEntity
  8
01
  6
CONTINUOUS
100
AcDbSpline
210
0.0
220
0.0
230
1.0
 70
    24
 71
     3
 72
    20
 73
    16
 74
     0
 42
0.00000001
 43
0.00000001
 40
0.0
 40
0.0
 40
0.0
 40
0.0
 40
0.1845143102665014
 40
0.2671374671605685
 40
0.3501286522800817
 40
0.4328910475665128
 40
0.5150681031060032
 40
0.59700593143784
 40
0.6590420868971998
 40
0.7210869424441883
 40
0.7911516726991076
 40
0.861216868194535
 40
0.907338027076025
 40
0.9536949688631678
 40
0.9999999999999999
 40
0.9999999999999999
 40
0.9999999999999999
 40
0.9999999999999999
 10
5079.473252998103
 20
-269.7480625854535
 30
0.0000000000563712
 10
5080.366633231308
 20
-269.7480625854535
 30
0.0000000000563712
 10
5081.660057748707
 20
-269.7480625854535
 30
0.0000000000563712
 10
5083.207965922907
 20
-269.7480625854535
 30
0.0000000000563712
 10
5084.185924822721
 20
-269.7480625854535
 30
0.0000000000563712
 10
5085.25817138027
 20
-269.7480625854535
 30
0.0000000000563712
 10
5086.576895609354
 20
-269.7480625854535
 30
0.0000000000563712
 10
5088.125053822298
 20
-269.7480625854535
 30
0.0000000000563712
 10
5090.006585077413
 20
-269.7480625854535
 30
0.0000000000563712
 10
5092.202181353421
 20
-269.7480625854535
 30
0.0000000000563712
 10
5094.867806702454
 20
-269.7480625854535
 30
0.0000000000563712
 10
5097.59297072574
 20
-269.7480625854535
 30
0.0000000000563712
 10
5100.111921668919
 20
-269.7480625854535
 30
0.0000000000563712
 10
5102.311150657174
 20
-269.7480625854535
 30
0.0000000000563712
 10
5103.787460311132
 20
-269.7480625854535
 30
0.0000000000563712
 10
5104.525201612521
 20
-269.7480625854535
 30
0.0000000000563712
  0
LINE
  5
AEC8
330
18
100
AcDbEntity
  8
01
  6
CONTINUOUS
100
AcDbLine
 10
5104.525201612521
 20
-269.7480625854535
 30
0.0000000000563712
 11
5118.104154601131
 21
-269.7480625854535
 31
0.0000000000563712
  0
LINE
  5
AEC9
330
18
100
AcDbEntity
  8
01
  6
CONTINUOUS
100
AcDbLine
 10
5118.104154601131
 20
-269.7480625854535
 30
0.0000000000563712
 11
5119.172556217198
 21
-269.7480625854535
 31
0.0000000000563712
  0
SPLINE
  5
AECA
330
18
100
AcDbEntity
  8
01
  6
CONTINUOUS
100
AcDbSpline
210
0.0
220
0.0
230
1.0
 70
     8
 71
     3
 72
     9
 73
     5
 74
     0
 42
0.00000001
 43
0.00000001
 40
0.0
 40
0.0
 40
0.0
 40
0.0
 40
0.5183008082726996
 40
1.0
 40
1.0
 40
1.0
 40
1.0
 10
5103.96479036044
 20
-293.6260725753112
 30
0.0000000000563712
 10
5103.889827396966
 20
-293.6638383186922
 30
0.0000000000563712
 10
5103.745195240741
 20
-293.7367028459669
 30
0.0000000000563712
 10
5103.583598375344
 20
-293.7443696842607
 30
0.0000000000563712
 10
5103.505757295896
 20
-293.7480627940698
 30
0.0000000000563712
  0
ELLIPSE
  5
AECB
330
18
100
AcDbEntity
  8
01
100
AcDbEllipse
 10
5091.775201222919
 20
-293.35722200726
 30
0.0000000000563712
 11
3.400000000000006
 21
0.0
 31
0.0
210
0.0
220
0.0
230
1.0
 40
0.0707892008842115
 41
3.078267830343876
 42
4.712388980384691
  0
ELLIPSE
  5
AECC
330
18
100
AcDbEntity
  8
01
100
AcDbEllipse
 10
5091.775201222919
 20
-293.35722200726
 30
0.0000000000563712
 11
3.400000000000006
 21
0.0
 31
0.0
210
0.0
220
0.0
230
1.0
 40
0.0707892008842115
 41
4.712388980384674
 42
6.348682528201051
  0
SPLINE
  5
AECD
330
18
100
AcDbEntity
  8
01
  6
CONTINUOUS
100
AcDbSpline
210
0.0
220
0.0
230
1.0
 70
     8
 71
     3
 72
    13
 73
     9
 74
     0
 42
0.00000001
 43
0.00000001
 40
0.0
 40
0.0
 40
0.0
 40
0.0
 40
0.1483757459325422
 40
0.3559601714616663
 40
0.5532240934522243
 40
0.7461909154502334
 40
0.9389296623489514
 40
1.0
 40
1.0
 40
1.0
 40
1.0
 10
5000.926477576521
 20
-289.4625034057256
 30
0.0000000000563712
 10
5001.060139214335
 20
-289.2310486838963
 30
0.0000000000563712
 10
5001.380799570347
 20
-288.6757782658777
 30
0.0000000000563712
 10
5001.879217171479
 20
-287.8127593065181
 30
0.0000000000563712
 10
5002.417874894443
 20
-286.8797528052162
 30
0.0000000000563712
 10
5002.943113086362
 20
-285.9697959095795
 30
0.0000000000563712
 10
5003.345394985617
 20
-285.272856441017
 30
0.0000000000563712
 10
5003.573963050854
 20
-284.8769225825502
 30
0.0000000000563712
 10
5003.628960014202
 20
-284.7816548561526
 30
0.0000000000563712
  0
LINE
  5
AECE
330
18
100
AcDbEntity
  8
01
  6
CONTINUOUS
100
AcDbLine
 10
5000.740431233212
 20
-289.7846665957198
 30
0.0000000000563712
 11
5000.926477576521
 21
-289.4625034057256
 31
0.0000000000563712
  0
LINE
  5
AECF
330
18
100
AcDbEntity
  8
01
  6
CONTINUOUS
100
AcDbLine
 10
4950.975209435645
 20
-271.7480625854535
 30
0.0000000000563712
 11
4950.775209435645
 21
-271.7480625854535
 31
0.0000000000563712
  0
LINE
  5
AED0
330
18
100
AcDbEntity
  8
01
  6
CONTINUOUS
100
AcDbLine
 10
4950.775209435645
 20
-291.7480625854535
 30
0.0000000000563712
 11
4950.975209435645
 21
-291.7480625854535
 31
0.0000000000563712
  0
LINE
  5
AED1
330
18
100
AcDbEntity
  8
01
  6
CONTINUOUS
100
AcDbLine
 10
4950.775209435645
 20
-273.7980625854537
 30
0.0000000000563712
 11
4950.275209435645
 21
-273.7980625854537
 31
0.0000000000563712
  0
LINE
  5
AED2
330
18
100
AcDbEntity
  8
01
  6
CONTINUOUS
100
AcDbLine
 10
4950.275209435645
 20
-289.6980625854533
 30
0.0000000000563712
 11
4950.775209435645
 21
-289.6980625854533
 31
0.0000000000563712
  0
SPLINE
  5
AED3
330
18
100
AcDbEntity
  8
01
  6
CONTINUOUS
100
AcDbSpline
210
0.0
220
0.0
230
1.0
 70
    24
 71
     3
 72
     8
 73
     4
 74
     0
 42
0.00000001
 43
0.00000001
 40
0.0
 40
0.0
 40
0.0
 40
0.0
 40
1.0
 40
1.0
 40
1.0
 40
1.0
 10
4950.975209435645
 20
-270.0574758510855
 30
0.0000000000563712
 10
4950.975209435645
 20
-269.8579444925284
 30
0.0000000000563712
 10
4950.975209435645
 20
-269.7480625854535
 30
0.0000000000563712
 10
4950.975209435645
 20
-269.7480625854535
 30
0.0000000000563712
  0
SPLINE
  5
AED4
330
18
100
AcDbEntity
  8
01
  6
CONTINUOUS
100
AcDbSpline
210
0.0
220
0.0
230
1.0
 70
    24
 71
     3
 72
    40
 73
    36
 74
     0
 42
0.00000001
 43
0.00000001
 40
0.0
 40
0.0
 40
0.0
 40
0.0
 40
0.2499999999999978
 40
0.2499999999999978
 40
0.4999999999999953
 40
0.4999999999999953
 40
0.5156249999999956
 40
0.5156249999999956
 40
0.5312499999999957
 40
0.5312499999999957
 40
0.5624999999999962
 40
0.5624999999999962
 40
0.5937499999999967
 40
0.5937499999999967
 40
0.6249999999999971
 40
0.6249999999999971
 40
0.6874999999999979
 40
0.6874999999999979
 40
0.7187499999999982
 40
0.7187499999999982
 40
0.7499999999999987
 40
0.7499999999999987
 40
0.8124999999999994
 40
0.8124999999999994
 40
0.8437499999999998
 40
0.8437499999999998
 40
0.8750000000000002
 40
0.8750000000000002
 40
0.937500000000001
 40
0.937500000000001
 40
0.9687500000000013
 40
0.9687500000000013
 40
0.9843750000000007
 40
0.9843750000000007
 40
1.0
 40
1.0
 40
1.0
 40
1.0
 10
4950.975209435645
 20
-269.7480625854535
 30
0.0000000000563712
 10
4954.762606730163
 20
-269.7480625854535
 30
0.0000000000563712
 10
4958.548465865792
 20
-269.7480625854535
 30
0.0000000000563712
 10
4966.120085921908
 20
-269.7480625854535
 30
0.0000000000563712
 10
4969.905637959027
 20
-269.7480625854535
 30
0.0000000000563712
 10
4973.927719523669
 20
-269.7480625854535
 30
0.0000000000563712
 10
4974.164312224488
 20
-269.7480625854535
 30
0.0000000000563712
 10
4974.637497001729
 20
-269.7480625854535
 30
0.0000000000563712
 10
4974.873661161813
 20
-269.7480625854535
 30
0.0000000000563712
 10
4975.575717982312
 20
-269.7480625854535
 30
0.0000000000563712
 10
4976.036867277441
 20
-269.7480625854535
 30
0.0000000000563712
 10
4976.944891906405
 20
-269.7480625854535
 30
0.0000000000563712
 10
4977.39183825397
 20
-269.7480625854535
 30
0.0000000000563712
 10
4978.271190588272
 20
-269.7480625854535
 30
0.0000000000563712
 10
4978.69996653854
 20
-269.7480625854535
 30
0.0000000000563712
 10
4979.938831571792
 20
-269.7480625854535
 30
0.0000000000563712
 10
4980.708605201445
 20
-269.7480625854535
 30
0.0000000000563712
 10
4981.780772029459
 20
-269.7480625854535
 30
0.0000000000563712
 10
4982.124330563764
 20
-269.7480625854535
 30
0.0000000000563712
 10
4982.783062200144
 20
-269.7480625854535
 30
0.0000000000563712
 10
4983.094816422677
 20
-269.7480625854535
 30
0.0000000000563712
 10
4983.971475123451
 20
-269.7480625854535
 30
0.0000000000563712
 10
4984.481663220492
 20
-269.7480625854535
 30
0.0000000000563712
 10
4985.137268578743
 20
-269.7480625854535
 30
0.0000000000563712
 10
4985.337419113201
 20
-269.7480625854535
 30
0.0000000000563712
 10
4985.699965676943
 20
-269.7480625854535
 30
0.0000000000563712
 10
4985.862952237933
 20
-269.7480625854535
 30
0.0000000000563712
 10
4986.285066855793
 20
-269.7480625854535
 30
0.0000000000563712
 10
4986.480599382008
 20
-269.7480625854535
 30
0.0000000000563712
 10
4986.649536957712
 20
-269.7480625854535
 30
0.0000000000563712
 10
4986.685017905816
 20
-269.7480625854535
 30
0.0000000000563712
 10
4986.706685989716
 20
-269.7480625854535
 30
0.0000000000563712
 10
4986.706895758316
 20
-269.7480625854535
 30
0.0000000000563712
 10
4986.707186940887
 20
-269.7480625854535
 30
0.0000000000563712
 10
4986.707260243214
 20
-269.7480625854535
 30
0.0000000000563712
 10
4986.707260243214
 20
-269.7480625854535
 30
0.0000000000563712
  0
SPLINE
  5
AED5
330
18
100
AcDbEntity
  8
01
  6
CONTINUOUS
100
AcDbSpline
210
0.0
220
0.0
230
1.0
 70
     8
 71
     3
 72
     8
 73
     4
 74
     0
 42
0.00000001
 43
0.00000001
 40
0.0
 40
0.0
 40
0.0
 40
0.0
 40
1.0
 40
1.0
 40
1.0
 40
1.0
 10
4986.707260243214
 20
-269.7480625854535
 30
0.0000000000563712
 10
4986.881793168413
 20
-269.7480625854535
 30
0.0000000000563712
 10
4987.056110296195
 20
-269.7947707190695
 30
0.0000000000563712
 10
4987.207260243214
 20
-269.882037181669
 30
0.0000000000563712
  0
SPLINE
  5
AED6
330
18
100
AcDbEntity
  8
01
  6
CONTINUOUS
100
AcDbSpline
210
0.0
220
0.0
230
1.0
 70
     8
 71
     3
 72
    10
 73
     6
 74
     0
 42
0.00000001
 43
0.00000001
 40
0.0
 40
0.0
 40
0.0
 40
0.0
 40
0.5
 40
0.5
 40
1.0
 40
1.0
 40
1.0
 40
1.0
 10
5000.7407890267
 20
-289.7839997965255
 30
0.0000000000563712
 10
5000.659411840013
 20
-289.9249492184438
 30
0.0000000000563712
 10
5000.543033228602
 20
-290.0455145502672
 30
0.0000000000563712
 10
5000.267060192849
 20
-290.2181263336013
 30
0.0000000000563712
 10
5000.107724230858
 20
-290.2700111256689
 30
0.0000000000563712
 10
4999.945376121359
 20
-290.2815036186051
 30
0.0000000000563712
  0
SPLINE
  5
AED7
330
18
100
AcDbEntity
  8
01
  6
CONTINUOUS
100
AcDbSpline
210
0.0
220
0.0
230
1.0
 70
    24
 71
     3
 72
    14
 73
    10
 74
     0
 42
0.00000001
 43
0.00000001
 40
0.0
 40
0.0
 40
0.0
 40
0.0
 40
0.25
 40
0.25
 40
0.5
 40
0.5
 40
0.75
 40
0.75
 40
1.0
 40
1.0
 40
1.0
 40
1.0
 10
4950.975209435645
 20
-293.7480625854535
 30
0.0000000000563712
 10
4950.975209435645
 20
-293.7480625854535
 30
0.0000000000563712
 10
4950.975209435645
 20
-293.7232050753153
 30
0.0000000000563712
 10
4950.975209435645
 20
-293.6257196164027
 30
0.0000000000563712
 10
4950.975209435645
 20
-293.5534279265697
 30
0.0000000000563712
 10
4950.975209435645
 20
-293.3716609368137
 30
0.0000000000563712
 10
4950.975209435645
 20
-293.2613419935345
 30
0.0000000000563712
 10
4950.975209435645
 20
-293.0220402803255
 30
0.0000000000563712
 10
4950.975209435645
 20
-292.8911707751543
 30
0.0000000000563712
 10
4950.975209435645
 20
-292.75936878158
 30
0.0000000000563712
  0
SPLINE
  5
AED8
330
18
100
AcDbEntity
  8
01
100
AcDbSpline
210
0.0
220
0.0
230
1.0
 70
     8
 71
     3
 72
    59
 73
    55
 74
     0
 42
0.00000001
 43
0.00000001
 40
0.0
 40
0.0
 40
0.0
 40
0.0
 40
0.0067651411251719
 40
0.0135923784198582
 40
0.0204819376925647
 40
0.02743408990421
 40
0.0344491494985943
 40
0.0415274726394187
 40
0.0486694553739733
 40
0.0558755317459145
 40
0.0631461718818228
 40
0.0704818800784372
 40
0.0778831929198151
 40
0.0853506774558694
 40
0.0928849294759967
 40
0.1004865719137375
 40
0.1081562534206277
 40
0.1158946471495041
 40
0.1237024497897612
 40
0.1315803808990687
 40
0.1395291825781974
 40
0.1475496195375845
 40
0.1556424796062994
 40
0.163808574735982
 40
0.1720487425542534
 40
0.1803638485238805
 40
0.1887547887657859
 40
0.19722249360556
 40
0.205767931904727
 40
0.2143921162392744
 40
0.2230961089891443
 40
0.231881029403197
 40
0.2407480617046482
 40
0.2701522117881266
 40
0.2999187166686537
 40
0.3301042660399036
 40
0.3607776133158549
 40
0.392457549217236
 40
0.4223343305983005
 40
0.4383010090266194
 40
0.4537917278434972
 40
0.4618341926547936
 40
0.4697374684805969
 40
0.4776947134232569
 40
0.485899365855966
 40
0.4977572018136503
 40
0.5165338263847015
 40
0.5422331185795781
 40
0.5748599912822401
 40
0.6144206019979942
 40
0.6826446603071143
 40
0.7429441743142758
 40
0.8619036804133581
 40
1.0
 40
1.0
 40
1.0
 40
1.0
 10
5005.225209435645
 20
-282.0167558057331
 30
0.0000000000563712
 10
5005.224362993351
 20
-282.0165593702157
 30
0.0000000000563712
 10
5005.222662339401
 20
-282.0161646961304
 30
0.0000000000563712
 10
5005.208648936857
 20
-282.0132692656815
 30
0.0000000000563712
 10
5005.185915304931
 20
-282.0086443332037
 30
0.0000000000563712
 10
5005.153358717282
 20
-282.002084527617
 30
0.0000000000563712
 10
5005.110926485166
 20
-281.9935965643293
 30
0.0000000000563712
 10
5005.058283449521
 20
-281.9831292429552
 30
0.0000000000563712
 10
5004.995174173921
 20
-281.9706468014872
 30
0.0000000000563712
 10
5004.921324847716
 20
-281.9561090134328
 30
0.0000000000563712
 10
5004.836470204757
 20
-281.9394766142171
 30
0.0000000000563712
 10
5004.740346494475
 20
-281.9207098500445
 30
0.0000000000563712
 10
5004.632693676327
 20
-281.8997688959574
 30
0.0000000000563712
 10
5004.513255113738
 20
-281.876613767827
 30
0.0000000000563712
 10
5004.381777951286
 20
-281.8512043733838
 30
0.0000000000563712
 10
5004.238013310619
 20
-281.8235005271707
 30
0.0000000000563712
 10
5004.081716539873
 20
-281.7934619770584
 30
0.0000000000563712
 10
5003.912647452875
 20
-281.7610484294553
 30
0.0000000000563712
 10
5003.73057057546
 20
-281.7262195767874
 30
0.0000000000563712
 10
5003.535255394228
 20
-281.6889351263556
 30
0.0000000000563712
 10
5003.326476609055
 20
-281.649154830888
 30
0.0000000000563712
 10
5003.104014388983
 20
-281.6068385207926
 30
0.0000000000563712
 10
5002.867654631807
 20
-281.5619461381523
 30
0.0000000000563712
 10
5002.617189226691
 20
-281.5144377726591
 30
0.0000000000563712
 10
5002.352416322328
 20
-281.4642736990489
 30
0.0000000000563712
 10
5002.07314059136
 20
-281.4114144179992
 30
0.0000000000563712
 10
5001.779173526333
 20
-281.3558206933752
 30
0.0000000000563712
 10
5001.470333633889
 20
-281.2974536130621
 30
0.0000000000563712
 10
5001.146447031765
 20
-281.2362745706449
 30
0.0000000000563712
 10
5000.807346539685
 20
-281.172245556985
 30
0.0000000000563712
 10
5000.452876487328
 20
-281.1053282899223
 30
0.0000000000563712
 10
5000.082875907035
 20
-281.0354877516436
 30
0.0000000000563712
 10
4999.40074246789
 20
-280.9066986517631
 30
0.0000000000563712
 10
4998.347563415041
 20
-280.7080313153199
 30
0.0000000000563712
 10
4996.840226860346
 20
-280.4235394853084
 30
0.0000000000563712
 10
4995.195494324589
 20
-280.1122217788396
 30
0.0000000000563712
 10
4993.409601667508
 20
-279.7725856330315
 30
0.0000000000563712
 10
4991.536390020487
 20
-279.4142609647805
 30
0.0000000000563712
 10
4989.898913764322
 20
-279.0980288681815
 30
0.0000000000563712
 10
4988.575472850053
 20
-278.8399512126164
 30
0.0000000000563712
 10
4987.712622109882
 20
-278.6701598437492
 30
0.0000000000563712
 10
4987.020874135208
 20
-278.5336037213781
 30
0.0000000000563712
 10
4986.49288374138
 20
-278.4274922122461
 30
0.0000000000563712
 10
4985.958347132724
 20
-278.3247384302506
 30
0.0000000000563712
 10
4985.333571997378
 20
-278.21913817245
 30
0.0000000000563712
 10
4984.466104019809
 20
-278.0801316320392
 30
0.0000000000563712
 10
4983.208328618913
 20
-277.8763267624666
 30
0.0000000000563712
 10
4981.486572291514
 20
-277.5987404228461
 30
0.0000000000563712
 10
4979.300866143744
 20
-277.2455782536688
 30
0.0000000000563712
 10
4976.165961998981
 20
-276.7382618438117
 30
0.0000000000563712
 10
4972.413251687439
 20
-276.1297179618408
 30
0.0000000000563712
 10
4966.887520769706
 20
-275.2334108224625
 30
0.0000000000563712
 10
4959.80068514347
 20
-274.0868913881566
 30
0.0000000000563712
 10
4954.059504416483
 20
-273.1593145117575
 30
0.0000000000563712
 10
4950.97520968648
 20
-272.6609988154581
 30
0.0000000000563712
  0
SPLINE
  5
AED9
330
18
100
AcDbEntity
  8
01
  6
CONTINUOUS
100
AcDbSpline
210
0.0
220
0.0
230
1.0
 70
    24
 71
     3
 72
    13
 73
     9
 74
     0
 42
0.00000001
 43
0.00000001
 40
0.0
 40
0.0
 40
0.0
 40
0.0
 40
0.1266163184991436
 40
0.2514393844217871
 40
0.3756183604950892
 40
0.5003202171257309
 40
0.7481956563212426
 40
1.0
 40
1.0
 40
1.0
 40
1.0
 10
4950.975209435645
 20
-272.6609988154517
 30
0.0000000000563712
 10
4950.975209435645
 20
-272.6281729012611
 30
0.0000000000563712
 10
4950.975209435645
 20
-272.5629859825834
 30
0.0000000000563712
 10
4950.975209435645
 20
-272.4665160822631
 30
0.0000000000563712
 10
4950.975209435645
 20
-272.3723015255867
 30
0.0000000000563712
 10
4950.975209435645
 20
-272.2508822497551
 30
0.0000000000563712
 10
4950.975209435645
 20
-272.1054136218893
 30
0.0000000000563712
 10
4950.975209435645
 20
-272.0084428992052
 30
0.0000000000563712
 10
4950.975209435645
 20
-271.9595763050018
 30
0.0000000000563712
  0
LINE
  5
AEDA
330
18
100
AcDbEntity
  8
01
  6
CONTINUOUS
100
AcDbLine
 10
5005.225209435644
 20
-282.0167558057322
 30
0.0000000000563712
 11
5003.628910672002
 21
-284.7816263684206
 31
0.0000000000563712
  0
LINE
  5
AEDB
330
18
100
AcDbEntity
  8
01
  6
CONTINUOUS
100
AcDbLine
 10
4950.975209435645
 20
-272.6609988154517
 30
0.0000000000563712
 11
4950.975209435645
 21
-292.75936878158
 31
0.0000000000563712
  0
LINE
  5
AEDC
330
18
100
AcDbEntity
  8
01
  6
CONTINUOUS
100
AcDbLine
 10
5004.676171329967
 20
-279.9677177000556
 30
0.0000000000563712
 11
4987.207260243214
 21
-269.882037181669
 31
0.0000000000563712
  0
LINE
  5
AEDD
330
18
100
AcDbEntity
  8
01
  6
CONTINUOUS
100
AcDbLine
 10
4950.975209435645
 20
-270.0574758510855
 30
0.0000000000563712
 11
4950.975209435645
 21
-271.9595396554649
 31
0.0000000000563712
  0
LINE
  5
AEDE
330
18
100
AcDbEntity
  8
01
  6
CONTINUOUS
100
AcDbLine
 10
4950.775209435645
 20
-271.7480625854535
 30
0.0000000000563712
 11
4950.775209435645
 21
-291.7480625854535
 31
0.0000000000563712
  0
ARC
  5
AEDF
330
18
100
AcDbEntity
  8
01
  6
CONTINUOUS
100
AcDbCircle
 10
5003.926171329967
 20
-281.2667558057322
 30
0.0000000000563712
 40
1.5
100
AcDbArc
 50
329.9999999999765
 51
59.99999999999946
  0
LINE
  5
AEE0
330
18
100
AcDbEntity
  8
01
100
AcDbLine
 10
5104.525209458312
 20
-130.949380898557
 30
0.0000000001127424
 11
5107.573059424925
 21
-151.6937447835188
 31
0.0000000001127424
  0
LINE
  5
AEE1
330
18
100
AcDbEntity
  8
01
100
AcDbLine
 10
5079.473261245937
 20
-130.9493809015583
 30
0.0000000001127424
 11
5086.693699600237
 21
-154.051150749169
 31
0.0000000001127424
  0
LINE
  5
AEE2
330
18
100
AcDbEntity
  8
01
100
AcDbLine
 10
5118.55137645754
 20
-166.9050385038752
 30
0.0000000001127424
 11
5120.167401861324
 21
-163.6729876963062
 31
0.0000000001127424
  0
SPLINE
  5
AEE3
330
18
100
AcDbEntity
  8
01
100
AcDbSpline
210
0.0
220
0.0
230
1.0
 70
     8
 71
     3
 72
    19
 73
    15
 74
     0
 42
0.00000001
 43
0.00000001
 40
0.0
 40
0.0
 40
0.0
 40
0.0
 40
0.0596699216433645
 40
0.1712287906946996
 40
0.2811468766475633
 40
0.392580466950775
 40
0.5126850941761828
 40
0.5946166786492069
 40
0.6672466157803368
 40
0.7386549891354428
 40
0.8102847486152273
 40
0.8825350319248085
 40
0.9575453742346849
 40
1.0
 40
1.0
 40
1.0
 40
1.0
 10
5120.167401861324
 20
-163.6729876963062
 30
0.0000000001127424
 10
5120.188129924525
 20
-163.6306928579859
 30
0.0000000001127424
 10
5120.247611168973
 20
-163.5093236016017
 30
0.0000000001127424
 10
5120.33481299021
 20
-163.3077813720054
 30
0.0000000001127424
 10
5120.419458716882
 20
-163.0760117118478
 30
0.0000000001127424
 10
5120.481470309591
 20
-162.852160057563
 30
0.0000000001127424
 10
5120.511090923587
 20
-162.6611477248333
 30
0.0000000001127424
 10
5120.508791358842
 20
-162.4923492344158
 30
0.0000000001127424
 10
5120.478864384098
 20
-162.3468564675839
 30
0.0000000001127424
 10
5120.4153986751
 20
-162.2092237751265
 30
0.0000000001127424
 10
5120.314537838729
 20
-162.0882450795178
 30
0.0000000001127424
 10
5120.179984196368
 20
-161.9978098935442
 30
0.0000000001127424
 10
5120.045507349796
 20
-161.9546304432368
 30
0.0000000001127424
 10
5119.961775726152
 20
-161.9507745204981
 30
0.0000000001127424
 10
5119.931513131229
 20
-161.949380898557
 30
0.0000000001127424
  0
SPLINE
  5
AEE4
330
18
100
AcDbEntity
  8
01
100
AcDbSpline
210
0.0
220
0.0
230
1.0
 70
     8
 71
     3
 72
     9
 73
     5
 74
     0
 42
0.00000001
 43
0.00000001
 40
0.0
 40
0.0
 40
0.0
 40
0.0
 40
0.5093552174751864
 40
1.0
 40
1.0
 40
1.0
 40
1.0
 10
5118.375850441911
 20
-167.2087818042381
 30
0.0000000001127424
 10
5118.401684339987
 20
-167.1671457850451
 30
0.0000000001127424
 10
5118.463608486687
 20
-167.0703205453527
 30
0.0000000001127424
 10
5118.521365313831
 20
-166.9588797968098
 30
0.0000000001127424
 10
5118.551376218546
 20
-166.9050389573784
 30
0.0000000001127424
  0
LINE
  5
AEE5
330
18
100
AcDbEntity
  8
01
100
AcDbLine
 10
5106.729909717408
 20
-184.677692890992
 30
0.0000000001127424
 11
5118.375850441911
 21
-167.2087818042381
 31
0.0000000001127424
  0
LINE
  5
AEE6
330
18
100
AcDbEntity
  8
01
100
AcDbLine
 10
5101.775209435645
 20
-130.949380898557
 30
0.0000000001127424
 11
5101.775209435645
 21
-130.7493808985562
 31
0.0000000001127424
  0
LINE
  5
AEE7
330
18
100
AcDbEntity
  8
01
100
AcDbLine
 10
5081.775209435644
 20
-130.7493808985562
 30
0.0000000001127424
 11
5081.775209435644
 21
-130.949380898557
 31
0.0000000001127424
  0
SPLINE
  5
AEE8
330
18
100
AcDbEntity
  8
01
100
AcDbSpline
210
0.0
220
0.0
230
1.0
 70
     8
 71
     3
 72
    57
 73
    53
 74
     0
 42
0.00000001
 43
0.00000001
 40
0.0
 40
0.0
 40
0.0
 40
0.0
 40
0.0200109329042691
 40
0.0400699286403063
 40
0.0619919220270629
 40
0.0863379194545231
 40
0.1131073956304037
 40
0.1417576193971461
 40
0.1727459474756925
 40
0.2052127038045884
 40
0.2363292554646379
 40
0.2664544449985077
 40
0.2949408526080493
 40
0.3217914830391479
 40
0.3470076707405643
 40
0.3705896180371033
 40
0.3925368241812477
 40
0.414249429216672
 40
0.4336747628735441
 40
0.4551021980088584
 40
0.478529803011335
 40
0.5039595227007599
 40
0.5316491891579324
 40
0.5522174241504664
 40
0.5735470976073643
 40
0.5954584475508611
 40
0.6155607298301573
 40
0.6331766942553702
 40
0.6483627009210143
 40
0.6611591006006718
 40
0.6704187330930292
 40
0.6779765136885555
 40
0.6847706786443253
 40
0.691047012291893
 40
0.6950299465721824
 40
0.7001644078414814
 40
0.7068848726932268
 40
0.7151866975923131
 40
0.7250650575089637
 40
0.7365154354964014
 40
0.752325193854683
 40
0.7703881532920913
 40
0.7907091641595778
 40
0.8133035315065787
 40
0.83819831602455
 40
0.8607320213677776
 40
0.884924370167327
 40
0.9108352195646574
 40
0.9314548888345698
 40
0.9531459574715031
 40
0.9759701693648313
 40
1.0
 40
1.0
 40
1.0
 40
1.0
 10
5076.529481702186
 20
-130.9781357410737
 30
0.0000000001127424
 10
5076.60169384668
 20
-131.4308175334561
 30
0.0000000001127424
 10
5076.746291576865
 20
-132.3372683823162
 30
0.0000000001127424
 10
5076.958852932445
 20
-133.7255922314051
 30
0.0000000001127424
 10
5077.178383260116
 20
-135.2085361432563
 30
0.0000000001127424
 10
5077.422711518428
 20
-136.8422784371722
 30
0.0000000001127424
 10
5077.688939041598
 20
-138.6262894478303
 30
0.0000000001127424
 10
5077.977748784282
 20
-140.5589325127747
 30
0.0000000001127424
 10
5078.285746089472
 20
-142.6189799187831
 30
0.0000000001127424
 10
5078.602252513541
 20
-144.7341929868524
 30
0.0000000001127424
 10
5078.916342246995
 20
-146.8302267961151
 30
0.0000000001127424
 10
5079.217687282664
 20
-148.8373292605091
 30
0.0000000001127424
 10
5079.505204784056
 20
-150.7491622974301
 30
0.0000000001127424
 10
5079.77665906197
 20
-152.5513585569141
 30
0.0000000001127424
 10
5080.032023003179
 20
-154.244042900971
 30
0.0000000001127424
 10
5080.271223471484
 20
-155.8272198639395
 30
0.0000000001127424
 10
5080.499150258781
 20
-157.3323091972596
 30
0.0000000001127424
 10
5080.713083907414
 20
-158.7444032069041
 30
0.0000000001127424
 10
5080.923228239444
 20
-160.1438889197887
 30
0.0000000001127424
 10
5081.138301400348
 20
-161.5811618364131
 30
0.0000000001127424
 10
5081.371298188591
 20
-163.1523161262829
 30
0.0000000001127424
 10
5081.628332018284
 20
-164.86192209457
 30
0.0000000001127424
 10
5081.85955020831
 20
-166.5107842499891
 30
0.0000000001127424
 10
5082.163156644029
 20
-168.0461168280306
 30
0.0000000001127424
 10
5082.536050503133
 20
-169.4338613072558
 30
0.0000000001127424
 10
5082.995110912055
 20
-170.7840116889409
 30
0.0000000001127424
 10
5083.509893055512
 20
-172.0250166322965
 30
0.0000000001127424
 10
5084.030470649498
 20
-173.0984467484575
 30
0.0000000001127424
 10
5084.525949211337
 20
-174.0006538426622
 30
0.0000000001127424
 10
5084.962597034768
 20
-174.7202744387458
 30
0.0000000001127424
 10
5085.329433891146
 20
-175.2811182219291
 30
0.0000000001127424
 10
5085.633908839206
 20
-175.7214946091543
 30
0.0000000001127424
 10
5085.908363490937
 20
-176.1004838633397
 30
0.0000000001127424
 10
5086.141487026238
 20
-176.4093012855008
 30
0.0000000001127424
 10
5086.356276773953
 20
-176.6848095762505
 30
0.0000000001127424
 10
5086.581169416244
 20
-176.9651990739792
 30
0.0000000001127424
 10
5086.873808013255
 20
-177.3169348281161
 30
0.0000000001127424
 10
5087.245202878674
 20
-177.7432778865066
 30
0.0000000001127424
 10
5087.701061175592
 20
-178.2385272950631
 30
0.0000000001127424
 10
5088.292297097018
 20
-178.8409574550631
 30
0.0000000001127424
 10
5089.043746515052
 20
-179.5467176968421
 30
0.0000000001127424
 10
5089.98441018926
 20
-180.3449401098094
 30
0.0000000001127424
 10
5091.093475004787
 20
-181.1819373664064
 30
0.0000000001127424
 10
5092.384986406876
 20
-182.0329301492773
 30
0.0000000001127424
 10
5093.778803796235
 20
-182.8163216187602
 30
0.0000000001127424
 10
5095.258032451693
 20
-183.5158892453645
 30
0.0000000001127424
 10
5096.804777227784
 20
-184.1209717714344
 30
0.0000000001127424
 10
5098.351325449403
 20
-184.5977007681402
 30
0.0000000001127424
 10
5099.871316417919
 20
-184.9542585963634
 30
0.0000000001127424
 10
5101.341530762096
 20
-185.2016287171635
 30
0.0000000001127424
 10
5102.902897735121
 20
-185.3678958388562
 30
0.0000000001127424
 10
5103.975243979692
 20
-185.3891502816085
 30
0.0000000001127424
 10
5104.525213571401
 20
-185.4000509559581
 30
0.0000000001127424
  0
LINE
  5
AEE9
330
18
100
AcDbEntity
  8
01
100
AcDbLine
 10
5099.725209435645
 20
-130.7493808985562
 30
0.0000000001127424
 11
5099.725209435645
 21
-130.2493808985562
 31
0.0000000001127424
  0
LINE
  5
AEEA
330
18
100
AcDbEntity
  8
01
100
AcDbLine
 10
5083.825209435645
 20
-130.2493808985562
 30
0.0000000001127424
 11
5083.825209435645
 21
-130.7493808985562
 31
0.0000000001127424
  0
LINE
  5
AEEB
330
18
100
AcDbEntity
  8
01
100
AcDbLine
 10
5104.512709435644
 20
-185.4003427928799
 30
0.0000000001127424
 11
5105.81388457024
 21
-185.4003427928799
 31
0.0000000001127424
  0
SPLINE
  5
AEEC
330
18
100
AcDbEntity
  8
01
100
AcDbSpline
210
0.0
220
0.0
230
1.0
 70
     8
 71
     3
 72
    15
 73
    11
 74
     0
 42
0.00000001
 43
0.00000001
 40
0.0
 40
0.0
 40
0.0
 40
0.0
 40
0.0532061755500896
 40
0.1585417324633035
 40
0.2699526819001857
 40
0.3995950932815174
 40
0.5697093543985073
 40
0.7690446617928446
 40
0.9568433474906725
 40
1.0
 40
1.0
 40
1.0
 40
1.0
 10
5105.823334162958
 20
-185.3959291127147
 30
0.0000000001127424
 10
5105.847084495659
 20
-185.3963593953584
 30
0.0000000001127424
 10
5105.917854831135
 20
-185.397641535167
 30
0.0000000001127424
 10
5106.027912038919
 20
-185.3646115956233
 30
0.0000000001127424
 10
5106.150547512024
 20
-185.3072760624553
 30
0.0000000001127424
 10
5106.273641052777
 20
-185.2203778235606
 30
0.0000000001127424
 10
5106.406864242466
 20
-185.0967861725001
 30
0.0000000001127424
 10
5106.550282213136
 20
-184.9305899408235
 30
0.0000000001127424
 10
5106.660534956049
 20
-184.7808033326772
 30
0.0000000001127424
 10
5106.718987238384
 20
-184.6939267722253
 30
0.0000000001127424
 10
5106.729909717408
 20
-184.6776928909929
 30
0.0000000001127424
  0
SPLINE
  5
AEED
330
18
100
AcDbEntity
  8
01
100
AcDbSpline
210
0.0
220
0.0
230
1.0
 70
    24
 71
     3
 72
     8
 73
     4
 74
     0
 42
0.00000001
 43
0.00000001
 40
0.0
 40
0.0
 40
0.0
 40
0.0
 40
1.0
 40
1.0
 40
1.0
 40
1.0
 10
5078.715796170012
 20
-130.949380898557
 30
0.0000000001127424
 10
5078.91532752857
 20
-130.949380898557
 30
0.0000000001127424
 10
5079.191263224187
 20
-130.949380898557
 30
0.0000000001127424
 10
5079.473261245495
 20
-130.949380898557
 30
0.0000000001127424
  0
LINE
  5
AEEE
330
18
100
AcDbEntity
  8
01
100
AcDbLine
 10
5078.715796170012
 20
-130.949380898557
 30
0.0000000001127424
 11
5076.813732365634
 21
-130.949380898557
 31
0.0000000001127424
  0
LINE
  5
AEEF
330
18
100
AcDbEntity
  8
01
100
AcDbLine
 10
5103.874098821408
 20
-166.6814317061251
 30
0.0000000001127424
 11
5118.10416286204
 21
-166.6814317061251
 31
0.0000000001127424
  0
LINE
  5
AEF0
330
18
100
AcDbEntity
  8
01
100
AcDbLine
 10
5079.473261245495
 20
-130.949380898557
 30
0.0000000001127424
 11
5103.514487488515
 21
-130.949380898557
 31
0.0000000001127424
  0
LINE
  5
AEF1
330
18
100
AcDbEntity
  8
01
100
AcDbLine
 10
5119.445598944203
 20
-161.949380898557
 30
0.0000000001127424
 11
5119.931513131229
 21
-161.949380898557
 31
0.0000000001127424
  0
SPLINE
  5
AEF2
330
18
100
AcDbEntity
  8
01
100
AcDbSpline
210
0.0
220
0.0
230
1.0
 70
    24
 71
     3
 72
    17
 73
    13
 74
     0
 42
0.00000001
 43
0.00000001
 40
0.0
 40
0.0
 40
0.0
 40
0.0
 40
0.0629455534327164
 40
0.1252371853368461
 40
0.18746285790446
 40
0.2502123874690818
 40
0.3750290732291015
 40
0.4999283411613851
 40
0.6246863483152351
 40
0.7495219633471145
 40
0.8745686696053392
 40
1.0
 40
1.0
 40
1.0
 40
1.0
 10
5103.514487488515
 20
-130.949380898557
 30
0.0000000001127424
 10
5103.547594333966
 20
-130.949380898557
 30
0.0000000001127424
 10
5103.613464088281
 20
-130.949380898557
 30
0.0000000001127424
 10
5103.711152632935
 20
-130.949380898557
 30
0.0000000001127424
 10
5103.806891392706
 20
-130.949380898557
 30
0.0000000001127424
 10
5103.930878206191
 20
-130.949380898557
 30
0.0000000001127424
 10
5104.077532079506
 20
-130.949380898557
 30
0.0000000001127424
 10
5104.23131717105
 20
-130.949380898557
 30
0.0000000001127424
 10
5104.358924421849
 20
-130.949380898557
 30
0.0000000001127424
 10
5104.452650588861
 20
-130.949380898557
 30
0.0000000001127424
 10
5104.514011556133
 20
-130.949380898557
 30
0.0000000001127424
 10
5104.521473005085
 20
-130.949380898557
 30
0.0000000001127424
 10
5104.525209458312
 20
-130.949380898557
 30
0.0000000001127424
  0
LINE
  5
AEF3
330
18
100
AcDbEntity
  8
01
100
AcDbLine
 10
5101.775209435645
 20
-130.7493808985562
 30
0.0000000001127424
 11
5081.775209435644
 21
-130.7493808985562
 31
0.0000000001127424
  0
SPLINE
  5
AEF4
330
18
100
AcDbEntity
  8
01
100
AcDbSpline
210
0.0
220
0.0
230
1.0
 70
    24
 71
     3
 72
    13
 73
     9
 74
     0
 42
0.00000001
 43
0.00000001
 40
0.0
 40
0.0
 40
0.0
 40
0.0
 40
0.1266163184991436
 40
0.2514393844217871
 40
0.3756183604950892
 40
0.5003202171257309
 40
0.7481956563212426
 40
1.0
 40
1.0
 40
1.0
 40
1.0
 10
5076.525199816931
 20
-130.949380898557
 30
0.0000000001127424
 10
5076.526204140204
 20
-130.949380898557
 30
0.0000000001127424
 10
5076.528198562632
 20
-130.949380898557
 30
0.0000000001127424
 10
5076.54278699253
 20
-130.949380898557
 30
0.0000000001127424
 10
5076.565907698884
 20
-130.949380898557
 30
0.0000000001127424
 10
5076.608937694279
 20
-130.949380898557
 30
0.0000000001127424
 10
5076.683711224136
 20
-130.9493808985561
 30
0.0000000001127424
 10
5076.770189762389
 20
-130.949380898557
 30
0.0000000001127424
 10
5076.81376901517
 20
-130.949380898557
 30
0.0000000001127424
  0
ARC
  5
AEF5
330
18
100
AcDbEntity
  8
01
100
AcDbCircle
 10
5119.445598944204
 20
-149.949380898557
 30
0.0000000001127424
 40
12.0
100
AcDbArc
 50
188.3583383266625
 51
269.9999999999956
  0
ARC
  5
AEF6
330
18
100
AcDbEntity
  8
01
100
AcDbCircle
 10
5103.874098821407
 20
-148.6814317061251
 30
0.0000000001127424
 40
18.0
100
AcDbArc
 50
197.3565897507779
 51
270.0000000000029
  0
LINE
  5
AEF7
330
18
100
AcDbEntity
  8
01
100
AcDbLine
 10
5083.825209435645
 20
-130.7493808985562
 30
0.0000000001127424
 11
5083.825209435645
 21
-130.2493808985562
 31
0.0000000001127424
  0
LINE
  5
AEF8
330
18
100
AcDbEntity
  8
01
100
AcDbLine
 10
5217.127584564041
 20
-179.3692568622612
 30
0.0000000001127424
 11
5217.209668136119
 21
-179.3085627115072
 31
0.0000000001127424
  0
SPLINE
  5
AEF9
330
18
100
AcDbEntity
  8
01
100
AcDbSpline
210
0.0
220
0.0
230
1.0
 70
     8
 71
     3
 72
    12
 73
     8
 74
     0
 42
0.00000001
 43
0.00000001
 40
0.0
 40
0.0
 40
0.0
 40
0.0
 40
0.1535575019314454
 40
0.3000126803990899
 40
0.5713146443075592
 40
0.8104425504960878
 40
1.0
 40
1.0
 40
1.0
 40
1.0
 10
5212.440267565917
 20
-181.0513128479091
 30
0.0000000001127424
 10
5212.706005523867
 20
-181.0334992619913
 30
0.0000000001127424
 10
5213.225190559086
 20
-180.9986960020317
 30
0.0000000001127424
 10
5214.199867396765
 20
-180.8286885581186
 30
0.0000000001127424
 10
5215.279689397094
 20
-180.5029852865003
 30
0.0000000001127424
 10
5216.344271287656
 20
-179.9903756329252
 30
0.0000000001127424
 10
5216.887415385223
 20
-179.5596961023405
 30
0.0000000001127424
 10
5217.127584564041
 20
-179.3692568622612
 30
0.0000000001127424
  0
LINE
  5
AEFA
330
18
100
AcDbEntity
  8
01
100
AcDbLine
 10
5217.201302185356
 20
-179.3159571986064
 30
0.0000000001127424
 11
5220.869228785783
 21
-176.0595320625728
 31
0.0000000001127424
  0
SPLINE
  5
AEFB
330
18
100
AcDbEntity
  8
01
100
AcDbSpline
210
0.0
220
0.0
230
1.0
 70
     8
 71
     3
 72
    11
 73
     7
 74
     0
 42
0.000000001
 43
0.00000001
 40
0.3218861633258082
 40
0.3218861633258082
 40
0.3218861633258082
 40
0.3218861633258082
 40
0.434297657807503
 40
0.6404882810428266
 40
0.8697542873113348
 40
1.0
 40
1.0
 40
1.0
 40
1.0
 10
5106.444949028668
 20
-185.0502235326119
 30
0.0000000001127424
 10
5106.458758177458
 20
-185.0829275812965
 30
0.0000000001127424
 10
5106.506302114843
 20
-185.1729889844544
 30
0.0000000001127424
 10
5106.634422501897
 20
-185.3085926193565
 30
0.0000000001127424
 10
5106.813903113336
 20
-185.3947079151815
 30
0.0000000001127424
 10
5106.931060472059
 20
-185.3938879533701
 30
0.0000000001127424
 10
5106.973504828889
 20
-185.393590893483
 30
0.0000000001127424
  0
LINE
  5
AEFC
330
18
100
AcDbEntity
  8
01
100
AcDbLine
 10
5106.972800425077
 20
-185.4003432313178
 30
0.0000000001127424
 11
5107.409897052758
 21
-185.4003432313178
 31
0.0000000001127424
  0
SPLINE
  5
AEFD
330
18
100
AcDbEntity
  8
01
100
AcDbSpline
210
0.0
220
0.0
230
1.0
 70
     8
 71
     3
 72
     9
 73
     5
 74
     0
 42
0.00000001
 43
0.00000001
 40
0.0
 40
0.0
 40
0.0
 40
0.0
 40
0.4480607156006853
 40
1.0
 40
1.0
 40
1.0
 40
1.0
 10
5107.407405355395
 20
-185.4000021433042
 30
0.0000000001127424
 10
5123.095064906325
 20
-184.7668735931632
 30
0.0000000001127424
 10
5158.107417037887
 20
-183.3538317260739
 30
0.0000000001127424
 10
5193.117066625473
 20
-181.8701919333938
 30
0.0000000001127424
 10
5212.440267565917
 20
-181.0513128479154
 30
0.0000000001127424
  0
SPLINE
  5
AEFE
330
18
100
AcDbEntity
  8
01
100
AcDbSpline
210
0.0
220
0.0
230
1.0
 70
     8
 71
     3
 72
    10
 73
     6
 74
     0
 42
0.00000001
 43
0.00000001
 40
0.0
 40
0.0
 40
0.0
 40
0.0
 40
0.2032738580979464
 40
0.9616792774308668
 40
1.0
 40
1.0
 40
1.0
 40
1.0
 10
5221.715824728799
 20
-174.5503273117495
 30
0.0000000001127424
 10
5221.723994251463
 20
-174.5115148128555
 30
0.0000000001127424
 10
5221.762643887607
 20
-174.3278946649401
 30
0.0000000001127424
 10
5221.783767109398
 20
-174.1571917559189
 30
0.0000000001127424
 10
5221.774646695561
 20
-174.0232522393283
 30
0.0000000001127424
 10
5221.774208024317
 20
-174.0168100519989
 30
0.0000000001127424
  0
SPLINE
  5
AEFF
330
18
100
AcDbEntity
  8
01
100
AcDbSpline
210
0.0
220
0.0
230
1.0
 70
     8
 71
     3
 72
    13
 73
     9
 74
     0
 42
0.00000001
 43
0.00000001
 40
0.0
 40
0.0
 40
0.0
 40
0.0
 40
0.012138282836982
 40
0.0868291617496495
 40
0.2815153821303691
 40
0.4717073094833724
 40
0.7101437116645474
 40
0.9999999999999999
 40
0.9999999999999999
 40
0.9999999999999999
 40
0.9999999999999999
 10
5220.872642642047
 20
-176.056458973186
 30
0.0000000001127424
 10
5220.879950819734
 20
-176.0498591164063
 30
0.0000000001127424
 10
5220.932228637859
 20
-176.0026481525895
 30
0.0000000001127424
 10
5221.063659687932
 20
-175.8716236461981
 30
0.0000000001127424
 10
5221.248213810253
 20
-175.6561640466992
 30
0.0000000001127424
 10
5221.443257747709
 20
-175.3579988952927
 30
0.0000000001127424
 10
5221.614822362086
 20
-175.0008953883928
 30
0.0000000001127424
 10
5221.680305040018
 20
-174.7202024576075
 30
0.0000000001127424
 10
5221.716233165309
 20
-174.5661957629475
 30
0.0000000001127424
  0
ARC
  5
AF00
330
18
100
AcDbEntity
  8
01
100
AcDbCircle
 10
5219.775209190584
 20
-163.9493813369948
 30
0.0000000001127424
 40
2.0
100
AcDbArc
 50
0.0
 51
90.0
  0
LINE
  5
AF01
330
18
100
AcDbEntity
  8
01
100
AcDbLine
 10
5221.775209190584
 20
-163.9493813369948
 30
0.0000000001127424
 11
5221.775209190584
 21
-167.2528579108132
 31
0.0000000001127424
  0
SPLINE
  5
AF02
330
18
100
AcDbEntity
  8
01
100
AcDbSpline
210
0.0
220
0.0
230
1.0
 70
     8
 71
     3
 72
    11
 73
     7
 74
     0
 42
0.00000001
 43
0.00000001
 40
0.0
 40
0.0
 40
0.0
 40
0.0
 40
0.2427116056392991
 40
0.4902809362346962
 40
0.7427098246767246
 40
1.0
 40
1.0
 40
1.0
 40
1.0
 10
5221.689857714724
 20
-167.8027788971534
 30
0.0000000001127424
 10
5221.424071305135
 20
-168.5936234967951
 30
0.0000000001127424
 10
5220.887178932855
 20
-170.1911409690541
 30
0.0000000001127424
 10
5220.068194580932
 20
-172.6159856835005
 30
0.0000000001127424
 10
5219.229475075747
 20
-175.091527830575
 30
0.0000000001127424
 10
5218.66141854612
 20
-176.7607543105481
 30
0.0000000001127424
 10
5218.374681450156
 20
-177.6033274144732
 30
0.0000000001127424
  0
SPLINE
  5
AF03
330
18
100
AcDbEntity
  8
01
100
AcDbSpline
210
0.0
220
0.0
230
1.0
 70
    24
 71
     3
 72
     8
 73
     4
 74
     0
 42
0.00000001
 43
0.00000001
 40
0.0
 40
0.0
 40
0.0
 40
0.0
 40
1.0
 40
1.0
 40
1.0
 40
1.0
 10
5221.775209190584
 20
-167.2528579108132
 30
0.0000000001127424
 10
5221.775209190584
 20
-167.3667161295846
 30
0.0000000001127424
 10
5221.775209190584
 20
-167.4740728318187
 30
0.0000000001127424
 10
5221.775209190584
 20
-167.5581971762134
 30
0.0000000001127424
  0
SPLINE
  5
AF04
330
18
100
AcDbEntity
  8
01
100
AcDbSpline
210
0.0
220
0.0
230
1.0
 70
     8
 71
     3
 72
     8
 73
     4
 74
     0
 42
0.00000001
 43
0.00000001
 40
0.0
 40
0.0
 40
0.0
 40
0.0
 40
1.0
 40
1.0
 40
1.0
 40
1.0
 10
5221.775209190584
 20
-167.5581964409278
 30
0.0000000001127424
 10
5221.775209190584
 20
-167.6434430138245
 30
0.0000000001127424
 10
5221.744276255875
 20
-167.7320841658751
 30
0.0000000001127424
 10
5221.689857714724
 20
-167.8027788971543
 30
0.0000000001127424
  0
LINE
  5
AF05
330
18
100
AcDbEntity
  8
01
100
AcDbLine
 10
5221.775209190584
 20
-167.5581964409278
 30
0.0000000001127424
 11
5221.775209190584
 21
-174.0223933535365
 31
0.0000000001127424
  0
SPLINE
  5
AF06
330
18
100
AcDbEntity
  8
01
100
AcDbSpline
210
0.0
220
0.0
230
1.0
 70
     8
 71
     3
 72
    11
 73
     7
 74
     0
 42
0.00000001
 43
0.00000001
 40
0.0
 40
0.0
 40
0.0
 40
0.0
 40
0.2499157795632181
 40
0.4982897450446181
 40
0.7448168875025496
 40
1.0
 40
1.0
 40
1.0
 40
1.0
 10
5218.374681450156
 20
-177.6033274144732
 30
0.0000000001127424
 10
5218.308617256682
 20
-177.7739179108742
 30
0.0000000001127424
 10
5218.176896441852
 20
-178.1140464738131
 30
0.0000000001127424
 10
5217.876997776695
 20
-178.5870435399123
 30
0.0000000001127424
 10
5217.518584052884
 20
-179.037390462094
 30
0.0000000001127424
 10
5217.208732718587
 20
-179.292678593911
 30
0.0000000001127424
 10
5217.051134130324
 20
-179.4225248934775
 30
0.0000000001127424
  0
LINE
  5
AF07
330
18
100
AcDbEntity
  8
01
100
AcDbLine
 10
5119.931522651932
 20
-161.9493813369948
 30
0.0000000001127424
 11
5219.775209190584
 21
-161.9493813369948
 31
0.0000000001127424
  0
SPLINE
  5
AF08
330
18
100
AcDbEntity
  8
01
100
AcDbSpline
210
0.0
220
0.0
230
1.0
 70
     8
 71
     3
 72
    10
 73
     6
 74
     0
 42
0.00000001
 43
0.00000001
 40
0.0
 40
0.0
 40
0.0
 40
0.0
 40
0.5
 40
0.5
 40
1.0
 40
1.0
 40
1.0
 40
1.0
 10
5220.775209190584
 20
-166.7772993691713
 30
0.0000000001127424
 10
5220.894813785108
 20
-166.7772710816205
 30
0.0000000001127424
 10
5221.013099903464
 20
-166.7912170005318
 30
0.0000000001127424
 10
5221.230439875046
 20
-166.8425383847191
 30
0.0000000001127424
 10
5221.329020933743
 20
-166.8795635441427
 30
0.0000000001127424
 10
5221.414085356182
 20
-166.9247068527973
 30
0.0000000001127424
  0
SPLINE
  5
AF09
330
18
100
AcDbEntity
  8
01
100
AcDbSpline
210
0.0
220
0.0
230
1.0
 70
     8
 71
     3
 72
    14
 73
    10
 74
     0
 42
0.000000001
 43
0.00000001
 40
-0.0058636415057182
 40
-0.0058636415057182
 40
-0.0058636415057182
 40
-0.0058636415057182
 40
0.0
 40
0.0
 40
0.0
 40
0.2468032425373714
 40
0.4978689392998643
 40
0.7719357371333093
 40
0.9999999999999999
 40
0.9999999999999999
 40
0.9999999999999999
 40
0.9999999999999999
 10
5118.663036807554
 20
-166.6817178038471
 30
0.0000000001127424
 10
5118.861456315897
 20
-166.6820011326029
 30
0.0000000001127424
 10
5119.059875824239
 20
-166.6822844613587
 30
0.0000000001127424
 10
5119.258295332582
 20
-166.6825677901145
 30
0.0000000001127424
 10
5127.609859457694
 20
-166.694493221701
 30
0.0000000001127424
 10
5144.457224709934
 20
-166.7185500449166
 30
0.0000000001127424
 10
5170.578725944323
 20
-166.7540830432197
 30
0.0000000001127424
 10
5196.06613507272
 20
-166.7798742327935
 30
0.0000000001127424
 10
5213.057744297379
 20
-166.7781035846395
 30
0.0000000001127424
 10
5220.775209190584
 20
-166.7772993691713
 30
0.0000000001127424
  0
SPLINE
  5
AF0A
330
18
100
AcDbEntity
  8
01
100
AcDbSpline
210
0.0
220
0.0
230
1.0
 70
     8
 71
     3
 72
    10
 73
     6
 74
     0
 42
0.00000001
 43
0.00000001
 40
0.0
 40
0.0
 40
0.0
 40
0.0
 40
0.5
 40
0.5
 40
1.0
 40
1.0
 40
1.0
 40
1.0
 10
5221.414085684534
 20
-166.9247058073691
 30
0.0000000001127424
 10
5221.526666133207
 20
-166.9844515496
 30
0.0000000001127424
 10
5221.617975470423
 20
-167.0336205292722
 30
0.0000000001127424
 10
5221.743838404313
 20
-167.1375325699849
 30
0.0000000001127424
 10
5221.775209190584
 20
-167.1897108680094
 30
0.0000000001127424
 10
5221.775209190584
 20
-167.2528579108146
 30
0.0000000001127424
  0
LINE
  5
AF0B
330
18
100
AcDbEntity
  8
1HIDDEN
100
AcDbLine
 10
5091.775209435644
 20
-153.7493813921572
 30
0.0000000001127424
 11
5091.775209435644
 21
-123.7493808985562
 31
0.0000000001127424
  0
LINE
  5
AF0C
330
18
100
AcDbEntity
  8
1CENTER
100
AcDbLine
 10
5091.775209435644
 20
-159.7031635883912
 30
0.0000000001127424
 11
5091.775209435644
 21
-119.9380915723194
 31
0.0000000001127424
  0
LINE
  5
AF0D
330
18
100
AcDbEntity
  8
01
100
AcDbLine
 10
4950.975209435645
 20
-293.7480625854535
 30
0.0000000000563712
 11
4999.945375168809
 21
-290.2815036860355
 31
0.0000000000563712
  0
LINE
  5
AF0E
330
18
100
AcDbEntity
  8
01
100
AcDbLine
 10
5118.275209435645
 20
-290.7881802915286
 30
0.0000000000563712
 11
5118.275209435645
 21
-307.7480625854553
 31
0.0000000000563712
  0
LINE
  5
AFF5
330
18
100
AcDbEntity
  8
01
100
AcDbLine
 10
5065.775209435648
 20
-255.2480625854553
 30
0.0
 11
5055.475209435645
 21
-255.2480625854553
 31
0.0
1001
ACAD
1000
DSTYLE
1002
{
1070
     3
1000
□<>
1070
    40
1040
1.3
1070
    45
1040
0.5
1002
}
  0
LINE
  5
AFF6
330
18
100
AcDbEntity
  8
01
100
AcDbLine
 10
5065.775209435648
 20
-308.2480625854553
 30
0.0
 11
5055.475209435645
 21
-308.2480625854553
 31
0.0
1001
ACAD
1000
DSTYLE
1002
{
1070
     3
1000
□<>
1070
    40
1040
1.3
1070
    45
1040
0.5
1002
}
  0
LINE
  5
AFF7
330
18
100
AcDbEntity
  8
01
100
AcDbLine
 10
5056.775209435645
 20
-257.8480625854554
 30
0.0
 11
5056.775209435645
 21
-305.6480625854553
 31
0.0
1001
ACAD
1000
DSTYLE
1002
{
1070
     3
1000
□<>
1070
    40
1040
1.3
1070
    45
1040
0.5
1002
}
  0
LINE
  5
AFFB
330
18
100
AcDbEntity
  8
01
  6
CONTINUOUS
100
AcDbLine
 10
5103.969242082347
 20
-293.6367380814357
 30
0.0
 11
5104.184986682047
 21
-293.5269127981467
 31
0.0
  0
LINE
  5
AFFC
330
18
100
AcDbEntity
  8
01
  6
CONTINUOUS
100
AcDbLine
 10
5104.184986682047
 20
-293.5269127981467
 30
0.0
 11
5107.620436698051
 21
-291.7785175527668
 31
0.0
  0
LINE
  5
AFFD
330
18
100
AcDbEntity
  8
01
  6
BYBLOCK
100
AcDbLine
 10
5056.078541541645
 20
-257.8480625854554
 30
0.0
 11
5056.775209435645
 21
-255.2480625854553
 31
0.0
  0
LINE
  5
AFFE
330
18
100
AcDbEntity
  8
01
  6
BYBLOCK
100
AcDbLine
 10
5056.775209435645
 20
-255.2480625854553
 30
0.0
 11
5057.471877329644
 21
-257.8480625854554
 31
0.0
  0
LINE
  5
AFFF
330
18
100
AcDbEntity
  8
01
  6
BYBLOCK
100
AcDbLine
 10
5056.775209435645
 20
-255.2480625854553
 30
0.0
 11
5056.775209435645
 21
-257.8480625854554
 31
0.0
  0
LINE
  5
B000
330
18
100
AcDbEntity
  8
01
  6
BYBLOCK
100
AcDbLine
 10
5057.471877329644
 20
-305.6480625854553
 30
0.0
 11
5056.775209435645
 21
-308.2480625854553
 31
0.0
  0
LINE
  5
B001
330
18
100
AcDbEntity
  8
01
  6
BYBLOCK
100
AcDbLine
 10
5056.775209435645
 20
-308.2480625854553
 30
0.0
 11
5056.078541541645
 21
-305.6480625854553
 31
0.0
  0
LINE
  5
B002
330
18
100
AcDbEntity
  8
01
  6
BYBLOCK
100
AcDbLine
 10
5056.775209435645
 20
-308.2480625854553
 30
0.0
 11
5056.775209435645
 21
-305.6480625854553
 31
0.0
  0
TEXT
  5
B003
330
18
100
AcDbEntity
  8
01
  6
CONTINUOUS
100
AcDbText
 10
5055.865209435645
 20
-289.7769404920518
 30
0.0
 40
4.55
  1
□53
 50
90.0
100
AcDbText
1001
ACAD
1000
DSTYLE
1002
{
1070
     3
1000
□<>
1070
    40
1040
1.3
1070
    45
1040
0.5
1002
}
  0
LINE
  5
B004
330
18
100
AcDbEntity
  8
1DIM
100
AcDbLine
 10
5091.775209435645
 20
-143.2493808985562
 30
0.0000000001127424
 11
5091.775209435645
 21
-208.0493808985563
 31
0.0000000001127424
1001
ACAD
1000
DSTYLE
1002
{
1070
    40
1040
1.3
1070
    45
1040
0.5
1002
}
  0
LINE
  5
B005
330
18
100
AcDbEntity
  8
1DIM
100
AcDbLine
 10
5221.774208024317
 20
-174.0168100519991
 30
0.0000000001127424
 11
5221.774208024317
 21
-208.0493808985563
 31
0.0000000001127424
1001
ACAD
1000
DSTYLE
1002
{
1070
    40
1040
1.3
1070
    45
1040
0.5
1002
}
  0
LINE
  5
B006
330
18
100
AcDbEntity
  8
1DIM
100
AcDbLine
 10
5094.375209435645
 20
-206.7493808985562
 30
0.0000000001127424
 11
5219.174208024317
 21
-206.7493808985562
 31
0.0000000001127424
1001
ACAD
1000
DSTYLE
1002
{
1070
    40
1040
1.3
1070
    45
1040
0.5
1002
}
  0
LINE
  5
B00A
330
18
100
AcDbEntity
  8
1DIM
100
AcDbLine
 10
5076.529481702186
 20
-130.9781357410737
 30
0.0000000001127424
 11
5076.529481702186
 21
-218.0493808985563
 31
0.0000000001127424
1001
ACAD
1000
DSTYLE
1002
{
1070
    40
1040
1.3
1070
    45
1040
0.5
1002
}
  0
LINE
  5
B00B
330
18
100
AcDbEntity
  8
1DIM
100
AcDbLine
 10
5221.774208024317
 20
-174.0168100519991
 30
0.0000000001127424
 11
5221.774208024317
 21
-218.0493808985563
 31
0.0000000001127424
1001
ACAD
1000
DSTYLE
1002
{
1070
    40
1040
1.3
1070
    45
1040
0.5
1002
}
  0
LINE
  5
B00C
330
18
100
AcDbEntity
  8
1DIM
100
AcDbLine
 10
5079.129481702186
 20
-216.7493808985562
 30
0.0000000001127424
 11
5219.174208024317
 21
-216.7493808985562
 31
0.0000000001127424
1001
ACAD
1000
DSTYLE
1002
{
1070
    40
1040
1.3
1070
    45
1040
0.5
1002
}
  0
LINE
  5
B010
330
18
100
AcDbEntity
  8
1DIM
100
AcDbLine
 10
5219.775209190584
 20
-161.9493813369948
 30
0.0000000001127424
 11
5248.075209435645
 21
-161.9493813369948
 31
0.0000000001127424
1001
ACAD
1000
DSTYLE
1002
{
1070
    40
1040
1.3
1070
    45
1040
0.5
1002
}
  0
LINE
  5
B011
330
18
100
AcDbEntity
  8
1DIM
100
AcDbLine
 10
5194.530357432993
 20
-121.7493808985562
 30
0.0000000001127424
 11
5248.075209435645
 21
-121.7493808985562
 31
0.0000000001127424
1001
ACAD
1000
DSTYLE
1002
{
1070
    40
1040
1.3
1070
    45
1040
0.5
1002
}
  0
LINE
  5
B012
330
18
100
AcDbEntity
  8
1DIM
100
AcDbLine
 10
5246.775209435645
 20
-159.3493813369948
 30
0.0000000001127424
 11
5246.775209435645
 21
-124.3493808985562
 31
0.0000000001127424
1001
ACAD
1000
DSTYLE
1002
{
1070
    40
1040
1.3
1070
    45
1040
0.5
1002
}
  0
LINE
  5
B016
330
18
100
AcDbEntity
  8
1DIM
100
AcDbLine
 10
5104.525213571402
 20
-185.4000509559581
 30
0.0000000001127424
 11
5258.075209435645
 21
-185.4000509559581
 31
0.0000000001127424
1001
ACAD
1000
DSTYLE
1002
{
1070
    40
1040
1.3
1070
    45
1040
0.5
1002
}
  0
LINE
  5
B017
330
18
100
AcDbEntity
  8
1DIM
100
AcDbLine
 10
5194.530357432993
 20
-121.7493808985562
 30
0.0000000001127424
 11
5258.075209435645
 21
-121.7493808985562
 31
0.0000000001127424
1001
ACAD
1000
DSTYLE
1002
{
1070
    40
1040
1.3
1070
    45
1040
0.5
1002
}
  0
LINE
  5
B018
330
18
100
AcDbEntity
  8
1DIM
100
AcDbLine
 10
5256.775209435645
 20
-182.8000509559581
 30
0.0000000001127424
 11
5256.775209435645
 21
-124.3493808985562
 31
0.0000000001127424
1001
ACAD
1000
DSTYLE
1002
{
1070
    40
1040
1.3
1070
    45
1040
0.5
1002
}
  0
LINE
  5
B01C
330
18
100
AcDbEntity
  8
1DIM
100
AcDbLine
 10
5216.920785827662
 20
-287.8936763403363
 30
0.0
 11
5248.075209435645
 21
-287.8936763403363
 31
0.0
1001
ACAD
1000
DSTYLE
1002
{
1070
    40
1040
1.3
1070
    45
1040
0.5
1002
}
  0
LINE
  5
B01D
330
18
100
AcDbEntity
  8
1DIM
100
AcDbLine
 10
5218.980980801583
 20
-269.7480625854535
 30
0.0
 11
5248.075209435645
 21
-269.7480625854535
 31
0.0
1001
ACAD
1000
DSTYLE
1002
{
1070
    40
1040
1.3
1070
    45
1040
0.5
1002
}
  0
LINE
  5
B01E
330
18
100
AcDbEntity
  8
1DIM
100
AcDbLine
 10
5246.775209435645
 20
-285.2936763403363
 30
0.0
 11
5246.775209435645
 21
-272.3480625854535
 31
0.0
1001
ACAD
1000
DSTYLE
1002
{
1070
    40
1040
1.3
1070
    45
1040
0.5
1002
}
  0
LINE
  5
B022
330
18
100
AcDbEntity
  8
0
  6
BYBLOCK
100
AcDbLine
 10
5094.375209435645
 20
-207.4460487925562
 30
0.0000000001127424
 11
5091.775209435645
 21
-206.7493808985562
 31
0.0000000001127424
  0
LINE
  5
B023
330
18
100
AcDbEntity
  8
0
  6
BYBLOCK
100
AcDbLine
 10
5091.775209435645
 20
-206.7493808985562
 30
0.0000000001127424
 11
5094.375209435645
 21
-206.0527130045562
 31
0.0000000001127424
  0
LINE
  5
B024
330
18
100
AcDbEntity
  8
0
  6
BYBLOCK
100
AcDbLine
 10
5091.775209435645
 20
-206.7493808985562
 30
0.0000000001127424
 11
5094.375209435645
 21
-206.7493808985562
 31
0.0000000001127424
  0
LINE
  5
B025
330
18
100
AcDbEntity
  8
0
  6
BYBLOCK
100
AcDbLine
 10
5219.174208024317
 20
-206.0527130045562
 30
0.0000000001127424
 11
5221.774208024317
 21
-206.7493808985562
 31
0.0000000001127424
  0
LINE
  5
B026
330
18
100
AcDbEntity
  8
0
  6
BYBLOCK
100
AcDbLine
 10
5221.774208024317
 20
-206.7493808985562
 30
0.0000000001127424
 11
5219.174208024317
 21
-207.4460487925562
 31
0.0000000001127424
  0
LINE
  5
B027
330
18
100
AcDbEntity
  8
0
  6
BYBLOCK
100
AcDbLine
 10
5221.774208024317
 20
-206.7493808985562
 30
0.0000000001127424
 11
5219.174208024317
 21
-206.7493808985562
 31
0.0000000001127424
  0
TEXT
  5
B028
330
18
100
AcDbEntity
  8
1DIM
  6
CONTINUOUS
100
AcDbText
 10
5151.750750396648
 20
-205.8393808985562
 30
0.0000000001127424
 40
4.55
  1
130
100
AcDbText
1001
ACAD
1000
DSTYLE
1002
{
1070
    40
1040
1.3
1070
    45
1040
0.5
1002
}
  0
LINE
  5
B029
330
18
100
AcDbEntity
  8
0
  6
BYBLOCK
100
AcDbLine
 10
5079.129481702186
 20
-217.4460487925562
 30
0.0000000001127424
 11
5076.529481702186
 21
-216.7493808985562
 31
0.0000000001127424
  0
LINE
  5
B02A
330
18
100
AcDbEntity
  8
0
  6
BYBLOCK
100
AcDbLine
 10
5076.529481702186
 20
-216.7493808985562
 30
0.0000000001127424
 11
5079.129481702186
 21
-216.0527130045562
 31
0.0000000001127424
  0
LINE
  5
B02B
330
18
100
AcDbEntity
  8
0
  6
BYBLOCK
100
AcDbLine
 10
5076.529481702186
 20
-216.7493808985562
 30
0.0000000001127424
 11
5079.129481702186
 21
-216.7493808985562
 31
0.0000000001127424
  0
LINE
  5
B02C
330
18
100
AcDbEntity
  8
0
  6
BYBLOCK
100
AcDbLine
 10
5219.174208024317
 20
-216.0527130045562
 30
0.0000000001127424
 11
5221.774208024317
 21
-216.7493808985562
 31
0.0000000001127424
  0
LINE
  5
B02D
330
18
100
AcDbEntity
  8
0
  6
BYBLOCK
100
AcDbLine
 10
5221.774208024317
 20
-216.7493808985562
 30
0.0000000001127424
 11
5219.174208024317
 21
-217.4460487925562
 31
0.0000000001127424
  0
LINE
  5
B02E
330
18
100
AcDbEntity
  8
0
  6
BYBLOCK
100
AcDbLine
 10
5221.774208024317
 20
-216.7493808985562
 30
0.0000000001127424
 11
5219.174208024317
 21
-216.7493808985562
 31
0.0000000001127424
  0
TEXT
  5
B02F
330
18
100
AcDbEntity
  8
1DIM
  6
CONTINUOUS
100
AcDbText
 10
5143.843511529918
 20
-215.8393808985562
 30
0.0000000001127424
 40
4.55
  1
145
100
AcDbText
1001
ACAD
1000
DSTYLE
1002
{
1070
    40
1040
1.3
1070
    45
1040
0.5
1002
}
  0
LINE
  5
B030
330
18
100
AcDbEntity
  8
0
  6
BYBLOCK
100
AcDbLine
 10
5247.471877329644
 20
-159.3493813369948
 30
0.0000000001127424
 11
5246.775209435645
 21
-161.9493813369948
 31
0.0000000001127424
  0
LINE
  5
B031
330
18
100
AcDbEntity
  8
0
  6
BYBLOCK
100
AcDbLine
 10
5246.775209435645
 20
-161.9493813369948
 30
0.0000000001127424
 11
5246.078541541645
 21
-159.3493813369948
 31
0.0000000001127424
  0
LINE
  5
B032
330
18
100
AcDbEntity
  8
0
  6
BYBLOCK
100
AcDbLine
 10
5246.775209435645
 20
-161.9493813369948
 30
0.0000000001127424
 11
5246.775209435645
 21
-159.3493813369948
 31
0.0000000001127424
  0
LINE
  5
B033
330
18
100
AcDbEntity
  8
0
  6
BYBLOCK
100
AcDbLine
 10
5246.078541541645
 20
-124.3493808985562
 30
0.0000000001127424
 11
5246.775209435645
 21
-121.7493808985562
 31
0.0000000001127424
  0
LINE
  5
B034
330
18
100
AcDbEntity
  8
0
  6
BYBLOCK
100
AcDbLine
 10
5246.775209435645
 20
-121.7493808985562
 30
0.0000000001127424
 11
5247.471877329644
 21
-124.3493808985562
 31
0.0000000001127424
  0
LINE
  5
B035
330
18
100
AcDbEntity
  8
0
  6
BYBLOCK
100
AcDbLine
 10
5246.775209435645
 20
-121.7493808985562
 30
0.0000000001127424
 11
5246.775209435645
 21
-124.3493808985562
 31
0.0000000001127424
  0
TEXT
  5
B036
330
18
100
AcDbEntity
  8
1DIM
  6
CONTINUOUS
100
AcDbText
 10
5245.865209435644
 20
-145.3566727844427
 30
0.0000000001127424
 40
4.55
  1
40
 50
90.0
100
AcDbText
1001
ACAD
1000
DSTYLE
1002
{
1070
    40
1040
1.3
1070
    45
1040
0.5
1002
}
  0
LINE
  5
B037
330
18
100
AcDbEntity
  8
0
  6
BYBLOCK
100
AcDbLine
 10
5257.471877329644
 20
-182.8000509559581
 30
0.0000000001127424
 11
5256.775209435645
 21
-185.4000509559581
 31
0.0000000001127424
  0
LINE
  5
B038
330
18
100
AcDbEntity
  8
0
  6
BYBLOCK
100
AcDbLine
 10
5256.775209435645
 20
-185.4000509559581
 30
0.0000000001127424
 11
5256.078541541645
 21
-182.8000509559581
 31
0.0000000001127424
  0
LINE
  5
B039
330
18
100
AcDbEntity
  8
0
  6
BYBLOCK
100
AcDbLine
 10
5256.775209435645
 20
-185.4000509559581
 30
0.0000000001127424
 11
5256.775209435645
 21
-182.8000509559581
 31
0.0000000001127424
  0
LINE
  5
B03A
330
18
100
AcDbEntity
  8
0
  6
BYBLOCK
100
AcDbLine
 10
5256.078541541645
 20
-124.3493808985562
 30
0.0000000001127424
 11
5256.775209435645
 21
-121.7493808985562
 31
0.0000000001127424
  0
LINE
  5
B03B
330
18
100
AcDbEntity
  8
0
  6
BYBLOCK
100
AcDbLine
 10
5256.775209435645
 20
-121.7493808985562
 30
0.0000000001127424
 11
5257.471877329644
 21
-124.3493808985562
 31
0.0000000001127424
  0
LINE
  5
B03C
330
18
100
AcDbEntity
  8
0
  6
BYBLOCK
100
AcDbLine
 10
5256.775209435645
 20
-121.7493808985562
 30
0.0000000001127424
 11
5256.775209435645
 21
-124.3493808985562
 31
0.0000000001127424
  0
TEXT
  5
B03D
330
18
100
AcDbEntity
  8
1DIM
  6
CONTINUOUS
100
AcDbText
 10
5255.865209435645
 20
-160.4155145383684
 30
0.0000000001127424
 40
4.55
  1
63.5
 50
90.0
100
AcDbText
1001
ACAD
1000
DSTYLE
1002
{
1070
    40
1040
1.3
1070
    45
1040
0.5
1002
}
  0
LINE
  5
B03E
330
18
100
AcDbEntity
  8
0
  6
BYBLOCK
100
AcDbLine
 10
5247.471877329644
 20
-285.2936763403363
 30
0.0
 11
5246.775209435645
 21
-287.8936763403363
 31
0.0
  0
LINE
  5
B03F
330
18
100
AcDbEntity
  8
0
  6
BYBLOCK
100
AcDbLine
 10
5246.775209435645
 20
-287.8936763403363
 30
0.0
 11
5246.078541541645
 21
-285.2936763403363
 31
0.0
  0
LINE
  5
B040
330
18
100
AcDbEntity
  8
0
  6
BYBLOCK
100
AcDbLine
 10
5246.775209435645
 20
-287.8936763403363
 30
0.0
 11
5246.775209435645
 21
-285.2936763403363
 31
0.0
  0
LINE
  5
B041
330
18
100
AcDbEntity
  8
0
  6
BYBLOCK
100
AcDbLine
 10
5246.078541541645
 20
-272.3480625854535
 30
0.0
 11
5246.775209435645
 21
-269.7480625854535
 31
0.0
  0
LINE
  5
B042
330
18
100
AcDbEntity
  8
0
  6
BYBLOCK
100
AcDbLine
 10
5246.775209435645
 20
-269.7480625854535
 30
0.0
 11
5247.471877329644
 21
-272.3480625854535
 31
0.0
  0
LINE
  5
B043
330
18
100
AcDbEntity
  8
0
  6
BYBLOCK
100
AcDbLine
 10
5246.775209435645
 20
-269.7480625854535
 30
0.0
 11
5246.775209435645
 21
-272.3480625854535
 31
0.0
  0
TEXT
  5
B044
330
18
100
AcDbEntity
  8
1DIM
  6
CONTINUOUS
100
AcDbText
 10
5245.865209435645
 20
-281.8542027962285
 30
0.0
 40
4.55
  1
18
 50
90.0
100
AcDbText
1001
ACAD
1000
DSTYLE
1002
{
1070
    40
1040
1.3
1070
    45
1040
0.5
1002
}
  0
VIEWPORT
  5
57
330
15
100
AcDbEntity
 67
     1
  8
0
100
AcDbViewport
 68
     1
 10
0.0
 20
0.0
 30
0.0
 40
535.5106132075472
 41
297.0
 68
     1
 69
     1
1001
ACAD
1000
MVIEW
1002
{
1070
    16
1010
0.0
1020
0.0
1030
0.0
1010
0.0
1020
0.0
1030
1.0
1040
0.0
1040
297.0
1040
5.728000000000009
1040
25.339
1040
50.0
1040
0.0
1040
0.0
1070
    16
1070
   100
1070
     0
1070
     1
1070
     0
1070
     0
1070
     0
1070
     0
1040
0.0
1040
0.0
1040
0.0
1040
10.0
1040
10.0
1040
10.0
1040
10.0
1070
     0
1002
{
1002
}
1002
}
  0
ENDSEC
  0
SECTION
  2
OBJECTS
  0
DICTIONARY
  5
C
330
0
100
AcDbDictionary
  3
ACAD_COLOR
350
18D
  3
ACAD_GROUP
350
D
  3
ACAD_LAYOUT
350
18E
  3
ACAD_MATERIAL
350
18C
  3
ACAD_MLEADERSTYLE
350
9583
  3
ACAD_MLINESTYLE
350
1B
  3
ACAD_PLOTSETTINGS
350
18F
  3
ACAD_SCALELIST
350
9561
  3
ACAD_VISUALSTYLE
350
9550
  3
ACDBHEADERROUNDTRIPXREC
350
B045
  3
ACDBVARIABLEDICTIONARY
350
37
  3
CONTENTDICTIONARY
350
D8
  3
DRAWINGVARIABLESDICT
350
20
  3
DWGPROPS
350
B048
1001
ACAD
1000
TREAT_AS_HARD
1070
     0
  0
DICTIONARY
  5
96D9
330
2
100
AcDbDictionary
  3
ACAD_LAYERSTATES
360
96DA
1001
ACAD
1000
TREAT_AS_HARD
1070
     1
  0
DICTIONARY
  5
9593
330
E
100
AcDbDictionary
  3
ADSK_XREC_LAYER_RECONCILED
360
9594
1001
ACAD
1000
TREAT_AS_HARD
1070
     1
  0
DICTIONARY
  5
9595
330
29
100
AcDbDictionary
  3
ADSK_XREC_LAYER_RECONCILED
360
9596
1001
ACAD
1000
TREAT_AS_HARD
1070
     1
  0
DICTIONARY
  5
9597
330
31
100
AcDbDictionary
  3
ADSK_XREC_LAYER_RECONCILED
360
9598
1001
ACAD
1000
TREAT_AS_HARD
1070
     1
  0
DICTIONARY
  5
959D
330
243
100
AcDbDictionary
  3
ADSK_XREC_LAYER_RECONCILED
360
959E
1001
ACAD
1000
TREAT_AS_HARD
1070
     1
  0
DICTIONARY
  5
95A3
330
24E
100
AcDbDictionary
  3
ADSK_XREC_LAYER_RECONCILED
360
95A4
1001
ACAD
1000
TREAT_AS_HARD
1070
     1
  0
DICTIONARY
  5
95AF
330
2C05
100
AcDbDictionary
  3
ADSK_XREC_LAYER_RECONCILED
360
95B0
1001
ACAD
1000
TREAT_AS_HARD
1070
     1
  0
DICTIONARY
  5
88F
330
18
100
AcDbDictionary
  3
ACAD_SORTENTS
360
890
1001
ACAD
1000
TREAT_AS_HARD
1070
     1
  0
DICTIONARY
  5
18D
102
{ACAD_REACTORS
330
C
102
}
330
C
100
AcDbDictionary
1001
ACAD
1000
TREAT_AS_HARD
1070
     0
  0
DICTIONARY
  5
D
102
{ACAD_REACTORS
330
C
102
}
330
C
100
AcDbDictionary
1001
ACAD
1000
TREAT_AS_HARD
1070
     0
  0
DICTIONARY
  5
18E
102
{ACAD_REACTORS
330
C
102
}
330
C
100
AcDbDictionary
1001
ACAD
1000
TREAT_AS_HARD
1070
     0
  0
DICTIONARY
  5
18C
102
{ACAD_REACTORS
330
C
102
}
330
C
100
AcDbDictionary
  3
BYBLOCK
350
9540
  3
BYLAYER
350
9538
  3
GLOBAL
350
9548
1001
ACAD
1000
TREAT_AS_HARD
1070
     0
  0
DICTIONARY
  5
9583
102
{ACAD_REACTORS
330
C
102
}
330
C
100
AcDbDictionary
  3
STANDARD
350
9584
1001
ACAD
1000
TREAT_AS_HARD
1070
     0
  0
DICTIONARY
  5
1B
102
{ACAD_REACTORS
330
C
102
}
330
C
100
AcDbDictionary
  3
STANDARD
350
1C
1001
ACAD
1000
TREAT_AS_HARD
1070
     0
  0
DICTIONARY
  5
18F
102
{ACAD_REACTORS
330
C
102
}
330
C
100
AcDbDictionary
1001
ACAD
1000
TREAT_AS_HARD
1070
     0
  0
DICTIONARY
  5
9561
102
{ACAD_REACTORS
330
C
102
}
330
C
100
AcDbDictionary
  3
A0
350
9562
  3
A1
350
9563
  3
A2
350
9564
  3
A3
350
9565
  3
A4
350
9566
  3
A5
350
9567
  3
A6
350
9568
  3
A7
350
9569
  3
A8
350
956A
  3
A9
350
956B
  3
B0
350
956C
  3
B1
350
956D
  3
B2
350
956E
  3
B3
350
956F
  3
B4
350
9570
  3
B5
350
9571
  3
B6
350
9572
  3
B7
350
9573
  3
B8
350
9574
  3
B9
350
9575
  3
C0
350
9576
  3
C1
350
9577
  3
C2
350
9578
  3
C3
350
9579
  3
C4
350
957A
  3
C5
350
957B
  3
C6
350
957C
  3
C7
350
957D
  3
C8
350
957E
  3
C9
350
957F
  3
D0
350
9580
  3
D1
350
9581
  3
D2
350
9582
1001
ACAD
1000
TREAT_AS_HARD
1070
     0
  0
DICTIONARY
  5
9550
102
{ACAD_REACTORS
330
C
102
}
330
C
100
AcDbDictionary
  3
2DWIREFRAME
350
9556
  3
3D_HIDDEN
350
9558
  3
3DWIREFRAME
350
9557
  3
BASIC
350
9555
  3
BRIGHTEN
350
955C
  3
COLORCHANGE
350
9560
  3
CONCEPTUAL
350
9559
  3
DIM
350
955B
  3
EDGECOLOROFF
350
A211
  3
FACEPATTERN
350
955F
  3
FLAT
350
9551
  3
FLATWITHEDGES
350
9552
  3
GOURAUD
350
9553
  3
GOURAUDWITHEDGES
350
9554
  3
HIDDEN
350
A260
  3
JITTEROFF
350
A20F
  3
LINEPATTERN
350
955E
  3
MODELING
350
A266
  3
OVERHANGOFF
350
A210
  3
REALISTIC
350
955A
  3
SHADED
350
A265
  3
SHADED_WITH_EDGES
350
A264
  3
SHADES_OF_GRAY
350
A261
  3
SKETCHY
350
A262
  3
THICKEN
350
955D
  3
WIREFRAME
350
A25F
  3
X-RAY
350
A263
1001
ACAD
1000
TREAT_AS_HARD
1070
     0
  0
DICTIONARY
  5
B045
102
{ACAD_REACTORS
330
C
102
}
330
C
100
AcDbDictionary
  3
COLORDICT
350
B046
  3
MATERIALDICT
350
B047
1001
ACAD
1000
TREAT_AS_HARD
1070
     0
  0
DICTIONARY
  5
37
102
{ACAD_REACTORS
330
C
102
}
330
C
100
AcDbDictionary
  3
CANNOSCALE
350
AAE0
  3
CMLEADERSTYLE
350
9627
  3
CTABLESTYLE
350
29E
  3
DIMADEC
350
38
  3
DIMASSOC
350
1CE
  3
HIDETEXT
350
704E
  3
INDEXCTL
350
962A
  3
INTERSECTIONCOLOR
350
7052
  3
INTERSECTIONDISPLAY
350
7051
  3
MSLTSCALE
350
AB30
  3
OBSCOLOR
350
704F
  3
OBSLTYPE
350
7050
  3
PROJECTNAME
350
1CF
  3
SORTENTS
350
9629
  3
XCLIPFRAME
350
A25E
1001
ACAD
1000
TREAT_AS_HARD
1070
     0
  0
DICTIONARY
  5
D8
102
{ACAD_REACTORS
330
C
102
}
330
C
100
AcDbDictionary
1001
ACAD
1000
TREAT_AS_HARD
1070
     0
  0
DICTIONARY
  5
20
102
{ACAD_REACTORS
330
C
102
}
330
C
100
AcDbDictionary
1001
DRAWINGVARIABLESXDATA
1000
POLARANG
1000
0.261799387799149410000000
1000
POLARMODE
1000
1
1000
POLARSTYLE
1000
1
1001
ACAD
1000
TREAT_AS_HARD
1070
     0
  0
XRECORD
  5
B048
102
{ACAD_REACTORS
330
C
102
}
330
C
100
AcDbXrecord
  1
DWGPROPS COOKIE
  2

  3

  4

  6

  7

  8
3684
  9

300
=
301
=
302
=
303
=
304
=
305
=
306
=
307
=
308
=
309
=
 40
0.0
 41
2451318.246352917
 42
2459101.180774468
  1

 90
        0
  0
DICTIONARY
  5
96DA
102
{ACAD_REACTORS
330
96D9
102
}
330
96D9
100
AcDbDictionary
1001
ACAD
1000
TREAT_AS_HARD
1070
     0
  0
ACAD_PROXY_OBJECT
  5
9594
102
{ACAD_REACTORS
330
9593
102
}
330
9593
100
AcDbZombieObject
 90
      499
 91
      514
 93
       34
310
40C8804040
  0
ACAD_PROXY_OBJECT
  5
9596
102
{ACAD_REACTORS
330
9595
102
}
330
9595
100
AcDbZombieObject
 90
      499
 91
      514
 93
       34
310
40C8804040
  0
ACAD_PROXY_OBJECT
  5
9598
102
{ACAD_REACTORS
330
9597
102
}
330
9597
100
AcDbZombieObject
 90
      499
 91
      514
 93
       34
310
40C8804040
  0
ACAD_PROXY_OBJECT
  5
959E
102
{ACAD_REACTORS
330
959D
102
}
330
959D
100
AcDbZombieObject
 90
      499
 91
      514
 93
       34
310
40C8804040
  0
ACAD_PROXY_OBJECT
  5
95A4
102
{ACAD_REACTORS
330
95A3
102
}
330
95A3
100
AcDbZombieObject
 90
      499
 91
      514
 93
       34
310
40C8804040
  0
ACAD_PROXY_OBJECT
  5
95B0
102
{ACAD_REACTORS
330
95AF
102
}
330
95AF
100
AcDbZombieObject
 90
      499
 91
      514
 93
       34
310
40C8804040
  0
SORTENTSTABLE
  5
890
102
{ACAD_REACTORS
330
88F
102
}
330
88F
100
AcDbSortentsTable
330
18
331
AE87
  5
AECD
331
AE88
  5
AECE
331
AE89
  5
AECF
331
AE8A
  5
AED0
331
AE8C
  5
AEDB
331
AE8D
  5
AEDC
331
AE8E
  5
AEDD
331
AE8F
  5
AEDE
331
AE90
  5
AEDF
331
AE91
  5
AEE0
331
AE92
  5
AEE1
331
AE93
  5
AEE2
331
AE94
  5
AEE3
331
AE95
  5
AEE4
331
AE96
  5
AEE5
331
AE97
  5
AEE6
331
AE98
  5
AEE7
331
AE99
  5
AEE8
331
AE9A
  5
AEE9
331
AE9B
  5
AEEA
331
AE9C
  5
AEEB
331
AE9D
  5
AEEC
331
AE9E
  5
AEED
331
AE9F
  5
AEEE
331
AEA0
  5
AEEF
331
AEA1
  5
AEF0
331
AEA2
  5
AEF1
331
AEA3
  5
AEF2
331
AEA4
  5
AEF3
331
AEA5
  5
AEF4
331
AEA6
  5
AEF5
331
AEA7
  5
AEF6
331
AEA8
  5
AEF7
331
AEA9
  5
AEF8
331
AEAA
  5
AEF9
331
AEAB
  5
AEFA
331
AEAC
  5
AEFB
331
AEAE
  5
AEFE
331
AEAF
  5
AEFF
331
AEB0
  5
AF00
331
AEB1
  5
AF01
331
AEB2
  5
AF02
331
AEB3
  5
AF03
331
AEB4
  5
AF04
331
AEB5
  5
AF05
331
AEB6
  5
AF06
331
AEB7
  5
AF07
331
AEB8
  5
AF08
331
AEB9
  5
AF09
331
AEBA
  5
AF0A
331
AEBB
  5
AF0B
331
AEBC
  5
AF0C
331
AEBD
  5
AF0D
331
AEBE
  5
AF0E
331
AEBF
  5
AFF5
331
AEC0
  5
AFF6
331
AEC1
  5
AFF7
331
AEC2
  5
AFF8
331
AEC3
  5
AFF9
331
AEC4
  5
AFFA
331
AEC5
  5
AFFB
331
AEC6
  5
AFFC
331
AEC7
  5
AFFD
331
AEC8
  5
AFFE
331
AEC9
  5
AFFF
331
AECA
  5
B000
331
AECB
  5
B001
331
AECC
  5
B002
331
AECD
  5
B003
331
AECE
  5
B004
331
AECF
  5
B005
331
AED0
  5
B006
331
AED1
  5
B007
331
AED2
  5
B008
331
AED3
  5
B009
331
AED4
  5
B00A
331
AED5
  5
B00B
331
AED6
  5
B00C
331
AED7
  5
B00D
331
AED8
  5
B00E
331
AED9
  5
B00F
331
AEDA
  5
B010
331
AEDB
  5
B011
331
AEDC
  5
B012
331
AEDD
  5
B013
331
AEDE
  5
B014
331
AEDF
  5
B015
331
AEE0
  5
B016
331
AEE1
  5
B017
331
AEE2
  5
B018
331
AEE3
  5
B019
331
AEE4
  5
B01A
331
AEE5
  5
B01B
331
AEE6
  5
B01C
331
AEE7
  5
B01D
331
AEE8
  5
B01E
331
AEE9
  5
B01F
331
AEEA
  5
B020
331
AEEB
  5
B021
331
AEEC
  5
B022
331
AEED
  5
B023
331
AEEE
  5
B024
331
AEEF
  5
B025
331
AEF0
  5
B026
331
AEF1
  5
B027
331
AEF2
  5
B028
331
AEF3
  5
B029
331
AEF4
  5
B02A
331
AEF5
  5
B02B
331
AEF6
  5
B02C
331
AEF7
  5
B02D
331
AEF8
  5
B02E
331
AEF9
  5
B02F
331
AEFA
  5
B030
331
AEFB
  5
B031
331
AEFC
  5
B032
331
AEFD
  5
B033
331
AEFE
  5
B034
331
AEFF
  5
B035
331
AF00
  5
B036
331
AF01
  5
B037
331
AF02
  5
B038
331
AF03
  5
B039
331
AF04
  5
B03A
331
AF05
  5
B03B
331
AF06
  5
B03C
331
AF07
  5
B03D
331
AF08
  5
B03E
331
AF09
  5
B03F
331
AF0A
  5
B040
331
AF0B
  5
B041
331
AF0C
  5
B042
331
AF0D
  5
B043
331
AF0E
  5
B044
331
AFF5
  5
AED1
331
AFF6
  5
AED2
331
AFF7
  5
AED3
331
0
  5
AE8F
331
0
  5
AE90
331
0
  5
AE91
331
AFFB
  5
AEFC
331
AFFC
  5
AEFD
331
AFFD
  5
AED4
331
AFFE
  5
AED5
331
AFFF
  5
AED6
331
B000
  5
AED7
331
B001
  5
AED8
331
B002
  5
AED9
331
B003
  5
AEDA
331
B004
  5
AE87
331
B005
  5
AE88
331
B006
  5
AE89
331
0
  5
AE8A
331
0
  5
AE8C
331
0
  5
AE8D
331
B00A
  5
AE9E
331
B00B
  5
AE9F
331
B00C
  5
AEA3
331
0
  5
AE94
331
0
  5
AE95
331
0
  5
AE96
331
B010
  5
AEAF
331
B011
  5
AEB0
331
B012
  5
AEB1
331
0
  5
AE9A
331
0
  5
AE9B
331
0
  5
AE9C
331
B016
  5
AEB9
331
B017
  5
AEBA
331
B018
  5
AEBB
331
0
  5
AEA0
331
0
  5
AEA1
331
0
  5
AEA2
331
B01C
  5
AEC3
331
B01D
  5
AEC4
331
B01E
  5
AEC5
331
0
  5
AEA6
331
0
  5
AEA7
331
0
  5
AEA8
331
B022
  5
AE8E
331
B023
  5
AE92
331
B024
  5
AE93
331
B025
  5
AE97
331
B026
  5
AE98
331
B027
  5
AE99
331
B028
  5
AE9D
331
B029
  5
AEA4
331
B02A
  5
AEA5
331
B02B
  5
AEA9
331
B02C
  5
AEAA
331
B02D
  5
AEAB
331
B02E
  5
AEAC
331
B02F
  5
AEAE
331
B030
  5
AEB2
331
B031
  5
AEB3
331
B032
  5
AEB4
331
B033
  5
AEB5
331
B034
  5
AEB6
331
B035
  5
AEB7
331
B036
  5
AEB8
331
B037
  5
AEBC
331
B038
  5
AEBD
331
B039
  5
AEBE
331
B03A
  5
AEBF
331
B03B
  5
AEC0
331
B03C
  5
AEC1
331
B03D
  5
AEC2
331
B03E
  5
AEC6
331
B03F
  5
AEC7
331
B040
  5
AEC8
331
B041
  5
AEC9
331
B042
  5
AECA
331
B043
  5
AECB
331
B044
  5
AECC
  0
MATERIAL
  5
9540
102
{ACAD_REACTORS
330
18C
102
}
102
{ACAD_XDICTIONARY
360
B1E3
102
}
330
18C
100
AcDbMaterial
  1
BYBLOCK
 72
     0
 73
     2
 43
0.0208333333333333
 43
0.0
 43
0.0
 43
0.0
 43
0.0
 43
0.0208333333333333
 43
0.0
 43
0.0
 43
0.0
 43
0.0
 43
1.0
 43
0.0
 43
0.0
 43
0.0
 43
0.0
 43
1.0
 77
     0
 78
     2
 47
0.0208333333333333
 47
0.0
 47
0.0
 47
0.0
 47
0.0
 47
0.0208333333333333
 47
0.0
 47
0.0
 47
0.0
 47
0.0
 47
1.0
 47
0.0
 47
0.0
 47
0.0
 47
0.0
 47
1.0
171
     0
172
     2
 49
0.0208333333333333
 49
0.0
 49
0.0
 49
0.0
 49
0.0
 49
0.0208333333333333
 49
0.0
 49
0.0
 49
0.0
 49
0.0
 49
1.0
 49
0.0
 49
0.0
 49
0.0
 49
0.0
 49
1.0
175
     0
176
     2
142
0.0208333333333333
142
0.0
142
0.0
142
0.0
142
0.0
142
0.0208333333333333
142
0.0
142
0.0
142
0.0
142
0.0
142
1.0
142
0.0
142
0.0
142
0.0
142
0.0
142
1.0
179
     0
270
     2
144
0.0208333333333333
144
0.0
144
0.0
144
0.0
144
0.0
144
0.0208333333333333
144
0.0
144
0.0
144
0.0
144
0.0
144
1.0
144
0.0
144
0.0
144
0.0
144
0.0
144
1.0
274
     2
147
0.0208333333333333
147
0.0
147
0.0
147
0.0
147
0.0
147
0.0208333333333333
147
0.0
147
0.0
147
0.0
147
0.0
147
1.0
147
0.0
147
0.0
147
0.0
147
0.0
147
1.0
  0
MATERIAL
  5
9538
102
{ACAD_REACTORS
330
18C
102
}
102
{ACAD_XDICTIONARY
360
B1E5
102
}
330
18C
100
AcDbMaterial
  1
BYLAYER
 72
     0
 73
     2
 43
0.0208333333333333
 43
0.0
 43
0.0
 43
0.0
 43
0.0
 43
0.0208333333333333
 43
0.0
 43
0.0
 43
0.0
 43
0.0
 43
1.0
 43
0.0
 43
0.0
 43
0.0
 43
0.0
 43
1.0
 77
     0
 78
     2
 47
0.0208333333333333
 47
0.0
 47
0.0
 47
0.0
 47
0.0
 47
0.0208333333333333
 47
0.0
 47
0.0
 47
0.0
 47
0.0
 47
1.0
 47
0.0
 47
0.0
 47
0.0
 47
0.0
 47
1.0
171
     0
172
     2
 49
0.0208333333333333
 49
0.0
 49
0.0
 49
0.0
 49
0.0
 49
0.0208333333333333
 49
0.0
 49
0.0
 49
0.0
 49
0.0
 49
1.0
 49
0.0
 49
0.0
 49
0.0
 49
0.0
 49
1.0
175
     0
176
     2
142
0.0208333333333333
142
0.0
142
0.0
142
0.0
142
0.0
142
0.0208333333333333
142
0.0
142
0.0
142
0.0
142
0.0
142
1.0
142
0.0
142
0.0
142
0.0
142
0.0
142
1.0
179
     0
270
     2
144
0.0208333333333333
144
0.0
144
0.0
144
0.0
144
0.0
144
0.0208333333333333
144
0.0
144
0.0
144
0.0
144
0.0
144
1.0
144
0.0
144
0.0
144
0.0
144
0.0
144
1.0
274
     2
147
0.0208333333333333
147
0.0
147
0.0
147
0.0
147
0.0
147
0.0208333333333333
147
0.0
147
0.0
147
0.0
147
0.0
147
1.0
147
0.0
147
0.0
147
0.0
147
0.0
147
1.0
  0
MATERIAL
  5
9548
102
{ACAD_REACTORS
330
18C
102
}
102
{ACAD_XDICTIONARY
360
B1E7
102
}
330
18C
100
AcDbMaterial
  1
GLOBAL
 72
     0
 73
     2
 43
0.0208333333333333
 43
0.0
 43
0.0
 43
0.0
 43
0.0
 43
0.0208333333333333
 43
0.0
 43
0.0
 43
0.0
 43
0.0
 43
1.0
 43
0.0
 43
0.0
 43
0.0
 43
0.0
 43
1.0
 77
     0
 78
     2
 47
0.0208333333333333
 47
0.0
 47
0.0
 47
0.0
 47
0.0
 47
0.0208333333333333
 47
0.0
 47
0.0
 47
0.0
 47
0.0
 47
1.0
 47
0.0
 47
0.0
 47
0.0
 47
0.0
 47
1.0
171
     0
172
     2
 49
0.0208333333333333
 49
0.0
 49
0.0
 49
0.0
 49
0.0
 49
0.0208333333333333
 49
0.0
 49
0.0
 49
0.0
 49
0.0
 49
1.0
 49
0.0
 49
0.0
 49
0.0
 49
0.0
 49
1.0
175
     0
176
     2
142
0.0208333333333333
142
0.0
142
0.0
142
0.0
142
0.0
142
0.0208333333333333
142
0.0
142
0.0
142
0.0
142
0.0
142
1.0
142
0.0
142
0.0
142
0.0
142
0.0
142
1.0
179
     0
270
     2
144
0.0208333333333333
144
0.0
144
0.0
144
0.0
144
0.0
144
0.0208333333333333
144
0.0
144
0.0
144
0.0
144
0.0
144
1.0
144
0.0
144
0.0
144
0.0
144
0.0
144
1.0
274
     2
147
0.0208333333333333
147
0.0
147
0.0
147
0.0
147
0.0
147
0.0208333333333333
147
0.0
147
0.0
147
0.0
147
0.0
147
1.0
147
0.0
147
0.0
147
0.0
147
0.0
147
1.0
  0
ACAD_PROXY_OBJECT
  5
9584
102
{ACAD_REACTORS
330
9583
102
}
330
9583
100
AcDbZombieObject
 90
      499
 91
      511
 93
      610
310
40901902A4063FBFFFFFE000000000000002040AD7A3703D0AD73F4214DD185B99185C990000000000000104090141901A00000000000004100000000000000041025764000000000000300FC0
340
12
340
0
340
F
340
0
 94
        0
1001
ACAD_MLEADERVER
1070
     2
  0
MLINESTYLE
  5
1C
102
{ACAD_REACTORS
330
1B
102
}
330
1B
100
AcDbMlineStyle
  2
STANDARD
 70
     0
  3

 62
   256
 51
90.0
 52
90.0
 71
     2
 49
0.5
 62
   256
  6
BYLAYER
 49
-0.5
 62
   256
  6
BYLAYER
  0
ACAD_PROXY_OBJECT
  5
9562
102
{ACAD_REACTORS
330
9561
102
}
330
9561
100
AcDbZombieObject
 90
      499
 91
      510
 93
       41
310
903313A31580
  0
ACAD_PROXY_OBJECT
  5
9563
102
{ACAD_REACTORS
330
9561
102
}
330
9561
100
AcDbZombieObject
 90
      499
 91
      510
 93
      105
310
903313A324000000000000004000
  0
ACAD_PROXY_OBJECT
  5
9564
102
{ACAD_REACTORS
330
9561
102
}
330
9561
100
AcDbZombieObject
 90
      499
 91
      510
 93
      105
310
903313A344000000000000104000
  0
ACAD_PROXY_OBJECT
  5
9565
102
{ACAD_REACTORS
330
9561
102
}
330
9561
100
AcDbZombieObject
 90
      499
 91
      510
 93
      105
310
903313A354000000000000144000
  0
ACAD_PROXY_OBJECT
  5
9566
102
{ACAD_REACTORS
330
9561
102
}
330
9561
100
AcDbZombieObject
 90
      499
 91
      510
 93
      105
310
903313A384000000000000204000
  0
ACAD_PROXY_OBJECT
  5
9567
102
{ACAD_REACTORS
330
9561
102
}
330
9561
100
AcDbZombieObject
 90
      499
 91
      510
 93
      113
310
904313A31304000000000000244000
  0
ACAD_PROXY_OBJECT
  5
9568
102
{ACAD_REACTORS
330
9561
102
}
330
9561
100
AcDbZombieObject
 90
      499
 91
      510
 93
      113
310
904313A31364000000000000304000
  0
ACAD_PROXY_OBJECT
  5
9569
102
{ACAD_REACTORS
330
9561
102
}
330
9561
100
AcDbZombieObject
 90
      499
 91
      510
 93
      113
310
904313A32304000000000000344000
  0
ACAD_PROXY_OBJECT
  5
956A
102
{ACAD_REACTORS
330
9561
102
}
330
9561
100
AcDbZombieObject
 90
      499
 91
      510
 93
      113
310
904313A333040000000000003E4000
  0
ACAD_PROXY_OBJECT
  5
956B
102
{ACAD_REACTORS
330
9561
102
}
330
9561
100
AcDbZombieObject
 90
      499
 91
      510
 93
      113
310
904313A34304000000000000444000
  0
ACAD_PROXY_OBJECT
  5
956C
102
{ACAD_REACTORS
330
9561
102
}
330
9561
100
AcDbZombieObject
 90
      499
 91
      510
 93
      113
310
904313A35304000000000000494000
  0
ACAD_PROXY_OBJECT
  5
956D
102
{ACAD_REACTORS
330
9561
102
}
330
9561
100
AcDbZombieObject
 90
      499
 91
      510
 93
      121
310
905313A3130304000000000000594000
  0
ACAD_PROXY_OBJECT
  5
956E
102
{ACAD_REACTORS
330
9561
102
}
330
9561
100
AcDbZombieObject
 90
      499
 91
      510
 93
      105
310
903323A310000000000000010100
  0
ACAD_PROXY_OBJECT
  5
956F
102
{ACAD_REACTORS
330
9561
102
}
330
9561
100
AcDbZombieObject
 90
      499
 91
      510
 93
      105
310
903343A310000000000000410100
  0
ACAD_PROXY_OBJECT
  5
9570
102
{ACAD_REACTORS
330
9561
102
}
330
9561
100
AcDbZombieObject
 90
      499
 91
      510
 93
      105
310
903383A310000000000000810100
  0
ACAD_PROXY_OBJECT
  5
9571
102
{ACAD_REACTORS
330
9561
102
}
330
9561
100
AcDbZombieObject
 90
      499
 91
      510
 93
      113
310
90431303A310000000000000910100
  0
ACAD_PROXY_OBJECT
  5
9572
102
{ACAD_REACTORS
330
9561
102
}
330
9561
100
AcDbZombieObject
 90
      499
 91
      510
 93
      121
310
9053130303A310000000000001650100
  0
ACAD_PROXY_OBJECT
  5
9573
102
{ACAD_REACTORS
330
9561
102
}
330
9561
100
AcDbZombieObject
 90
      499
 91
      510
 93
      257
310
90E312F31323822203D2031272D3022000000000000200FC000000000000284000
  0
ACAD_PROXY_OBJECT
  5
9574
102
{ACAD_REACTORS
330
9561
102
}
330
9561
100
AcDbZombieObject
 90
      499
 91
      510
 93
      249
310
90D312F363422203D2031272D3022000000000000240FC000000000000284000
  0
ACAD_PROXY_OBJECT
  5
9575
102
{ACAD_REACTORS
330
9561
102
}
330
9561
100
AcDbZombieObject
 90
      499
 91
      510
 93
      249
310
90D312F333222203D2031272D3022000000000000280FC000000000000284000
  0
ACAD_PROXY_OBJECT
  5
9576
102
{ACAD_REACTORS
330
9561
102
}
330
9561
100
AcDbZombieObject
 90
      499
 91
      510
 93
      249
310
90D312F313622203D2031272D30220000000000002C0FC000000000000284000
  0
ACAD_PROXY_OBJECT
  5
9577
102
{ACAD_REACTORS
330
9561
102
}
330
9561
100
AcDbZombieObject
 90
      499
 91
      510
 93
      249
310
90D332F333222203D2031272D30220000000000002E0FC000000000000284000
  0
ACAD_PROXY_OBJECT
  5
9578
102
{ACAD_REACTORS
330
9561
102
}
330
9561
100
AcDbZombieObject
 90
      499
 91
      510
 93
      241
310
90C312F3822203D2031272D3022000000000000300FC000000000000284000
  0
ACAD_PROXY_OBJECT
  5
9579
102
{ACAD_REACTORS
330
9561
102
}
330
9561
100
AcDbZombieObject
 90
      499
 91
      510
 93
      249
310
90D332F313622203D2031272D3022000000000000320FC000000000000284000
  0
ACAD_PROXY_OBJECT
  5
957A
102
{ACAD_REACTORS
330
9561
102
}
330
9561
100
AcDbZombieObject
 90
      499
 91
      510
 93
      241
310
90C312F3422203D2031272D3022000000000000340FC000000000000284000
  0
ACAD_PROXY_OBJECT
  5
957B
102
{ACAD_REACTORS
330
9561
102
}
330
9561
100
AcDbZombieObject
 90
      499
 91
      510
 93
      241
310
90C332F3822203D2031272D3022000000000000360FC000000000000284000
  0
ACAD_PROXY_OBJECT
  5
957C
102
{ACAD_REACTORS
330
9561
102
}
330
9561
100
AcDbZombieObject
 90
      499
 91
      510
 93
      241
310
90C312F3222203D2031272D3022000000000000380FC000000000000284000
  0
ACAD_PROXY_OBJECT
  5
957D
102
{ACAD_REACTORS
330
9561
102
}
330
9561
100
AcDbZombieObject
 90
      499
 91
      510
 93
      241
310
90C332F3422203D2031272D30220000000000003A0FC000000000000284000
  0
ACAD_PROXY_OBJECT
  5
957E
102
{ACAD_REACTORS
330
9561
102
}
330
9561
100
AcDbZombieObject
 90
      499
 91
      510
 93
      161
310
90A3122203D2031272D30224000000000000284000
  0
ACAD_PROXY_OBJECT
  5
957F
102
{ACAD_REACTORS
330
9561
102
}
330
9561
100
AcDbZombieObject
 90
      499
 91
      510
 93
      257
310
90E312D312F3222203D2031272D30220000000000003E0FC000000000000284000
  0
ACAD_PROXY_OBJECT
  5
9580
102
{ACAD_REACTORS
330
9561
102
}
330
9561
100
AcDbZombieObject
 90
      499
 91
      510
 93
      225
310
90A3322203D2031272D302200000000000002100000000000000284000
  0
ACAD_PROXY_OBJECT
  5
9581
102
{ACAD_REACTORS
330
9561
102
}
330
9561
100
AcDbZombieObject
 90
      499
 91
      510
 93
      225
310
90A3622203D2031272D302200000000000006100000000000000284000
  0
ACAD_PROXY_OBJECT
  5
9582
102
{ACAD_REACTORS
330
9561
102
}
330
9561
100
AcDbZombieObject
 90
      499
 91
      510
 93
      249
310
90D31272D3022203D2031272D30220000000000000A100000000000000284000
  0
ACAD_PROXY_OBJECT
  5
9556
102
{ACAD_REACTORS
330
9550
102
}
330
9550
100
AcDbZombieObject
 90
      499
 91
      509
 93
      436
310
42CC9915DA5C99599C985B595049028333333333333E3BF0000000000000FB0107901411070040501600405405064090741402480A0340
1001
ACAD
1000
AcDbSavedByObjectVersion
1070
     0
  0
ACAD_PROXY_OBJECT
  5
9558
102
{ACAD_REACTORS
330
9550
102
}
330
9550
100
AcDbZombieObject
 90
      499
 91
      509
 93
      500
310
424CD108121A5919195B90640502408333333333333E3BF0000000000000FB01079024090700405020000000000001110200405405064090740C02480A0340
1001
ACAD
1000
AcDbSavedByObjectVersion
1070
     0
  0
ACAD_PROXY_OBJECT
  5
9557
102
{ACAD_REACTORS
330
9550
102
}
330
9550
100
AcDbZombieObject
 90
      499
 91
      509
 93
      436
310
42CCD915DA5C99599C985B595059028333333333333E3BF0000000000000FB0107901411070040501600405405064090741402480A0340
1001
ACAD
1000
AcDbSavedByObjectVersion
1070
     0
  0
ACAD_PROXY_OBJECT
  5
9555
102
{ACAD_REACTORS
330
9550
102
}
330
9550
100
AcDbZombieObject
 90
      499
 91
      509
 93
      388
310
4150985CDA58D07406404333333333333E3BF0000000000000FB0107A41107004050150841D405064090741402480A0350
1001
ACAD
1000
AcDbSavedByObjectVersion
1070
     0
  0
ACAD_PROXY_OBJECT
  5
955C
102
{ACAD_REACTORS
330
9550
102
}
330
9550
100
AcDbZombieObject
 90
      499
 91
      509
 93
      428
310
42109C9A59DA1D195B90C409028333333333333E3BF0000000000000FB010790141107004050150841D405064090741402480A029950
1001
ACAD
1000
AcDbSavedByObjectVersion
1070
     0
  0
ACAD_PROXY_OBJECT
  5
9560
102
{ACAD_REACTORS
330
9550
102
}
330
9550
100
AcDbZombieObject
 90
      499
 91
      509
 93
      452
310
42D0DBDB1BDC90DA185B99D95104090240C333333333333E3BF0000000000000FB0108901411070040501508421405064090741402480A0350
1001
ACAD
1000
AcDbSavedByObjectVersion
1070
     0
  0
ACAD_PROXY_OBJECT
  5
9559
102
{ACAD_REACTORS
330
9550
102
}
330
9550
100
AcDbZombieObject
 90
      499
 91
      509
 93
      500
310
4290DBDB98D95C1D1D585B10940D028333333333333E3BF0000000000000FB0107902409070040501000000000000111010841D405064090740C02480A0340
1001
ACAD
1000
AcDbSavedByObjectVersion
1070
     0
  0
ACAD_PROXY_OBJECT
  5
955B
102
{ACAD_REACTORS
330
9550
102
}
330
9550
100
AcDbZombieObject
 90
      499
 91
      509
 93
      412
310
40D11A5B50B409028333333333333E3BF0000000000000FB010790141107004050150841D405064090741402480A02677FFFFFD0
1001
ACAD
1000
AcDbSavedByObjectVersion
1070
     0
  0
ACAD_PROXY_OBJECT
  5
A211
102
{ACAD_REACTORS
330
9550
102
}
330
9550
100
AcDbZombieObject
 90
      499
 91
      509
 93
      452
310
43115919D950DBDB1BDC93D999916409028333333333333E3BF0000000000000FB010790141107004050150841D405064090741402480A0350
1001
ACAD
1000
AcDbSavedByObjectVersion
1070
     0
  0
ACAD_PROXY_OBJECT
  5
955F
102
{ACAD_REACTORS
330
9550
102
}
330
9550
100
AcDbZombieObject
 90
      499
 91
      509
 93
      444
310
42D19858D95C185D1D195C9B90F409028333333333333E3BF0000000000000FB010790141107004050150841D405064090741402480A0350
1001
ACAD
1000
AcDbSavedByObjectVersion
1070
     0
  0
ACAD_PROXY_OBJECT
  5
9551
102
{ACAD_REACTORS
330
9550
102
}
330
9550
100
AcDbZombieObject
 90
      499
 91
      509
 93
      388
310
41119B185D240901404333333333333E3BF0000000000000F9010740A41107004050150841D405064090741402480A1B50
1001
ACAD
1000
AcDbSavedByObjectVersion
1070
     0
  0
ACAD_PROXY_OBJECT
  5
9552
102
{ACAD_REACTORS
330
9550
102
}
330
9550
100
AcDbZombieObject
 90
      499
 91
      509
 93
      476
310
43519B185D15DA5D1A115919D95CD0140901404333333333333E3BF0000000000000F9010740901411070040501600405405064090741402480A1B50
1001
ACAD
1000
AcDbSavedByObjectVersion
1070
     0
  0
ACAD_PROXY_OBJECT
  5
9553
102
{ACAD_REACTORS
330
9550
102
}
330
9550
100
AcDbZombieObject
 90
      499
 91
      509
 93
      412
310
41D1DBDD5C985D5910240902404333333333333E3BF0000000000000F9010740A411070040501641D405064090741402480A1B50
1001
ACAD
1000
AcDbSavedByObjectVersion
1070
     0
  0
ACAD_PROXY_OBJECT
  5
9554
102
{ACAD_REACTORS
330
9550
102
}
330
9550
100
AcDbZombieObject
 90
      499
 91
      509
 93
      500
310
4411DBDD5C985D5915DA5D1A115919D95CD0340902404333333333333E3BF0000000000000F9010740901411070040501600405405064090741402480A1B50
1001
ACAD
1000
AcDbSavedByObjectVersion
1070
     0
  0
ACAD_PROXY_OBJECT
  5
A260
102
{ACAD_REACTORS
330
9550
102
}
330
9550
100
AcDbZombieObject
 90
      499
 91
      509
 93
      476
310
41921A5919195B90640502408333333333333E33F0000000000000F901079024090700405020000000000001110200405405064090740C02480A0340
1001
ACAD
1000
AcDbSavedByObjectVersion
1070
     0
  0
ACAD_PROXY_OBJECT
  5
A20F
102
{ACAD_REACTORS
330
9550
102
}
330
9550
100
AcDbZombieObject
 90
      499
 91
      509
 93
      428
310
42529A5D1D195C93D999914409028333333333333E3BF0000000000000FB010790141107004050150A41D405064090741402480A0350
1001
ACAD
1000
AcDbSavedByObjectVersion
1070
     0
  0
ACAD_PROXY_OBJECT
  5
955E
102
{ACAD_REACTORS
330
9550
102
}
330
9550
100
AcDbZombieObject
 90
      499
 91
      509
 93
      444
310
42D31A5B995C185D1D195C9B90E409028333333333333E3BF0000000000000FB010790141107004050750841D405064090741402483A0350
1001
ACAD
1000
AcDbSavedByObjectVersion
1070
     0
  0
ACAD_PROXY_OBJECT
  5
A266
102
{ACAD_REACTORS
330
9550
102
}
330
9550
100
AcDbZombieObject
 90
      499
 91
      509
 93
      484
310
42135BD9195B1A5B99D0A409038333333333333E33F0000000000000F901074090290700405010000000000201990108421405064090741402480A1B40
1001
ACAD
1000
AcDbSavedByObjectVersion
1070
     0
  0
ACAD_PROXY_OBJECT
  5
A210
102
{ACAD_REACTORS
330
9550
102
}
330
9550
100
AcDbZombieObject
 90
      499
 91
      509
 93
      444
310
42D3DD995C9A185B99D3D999915409028333333333333E3BF0000000000000FB010790141107004050150941D405064090741402480A0350
1001
ACAD
1000
AcDbSavedByObjectVersion
1070
     0
  0
ACAD_PROXY_OBJECT
  5
955A
102
{ACAD_REACTORS
330
9550
102
}
330
9550
100
AcDbZombieObject
 90
      499
 91
      509
 93
      420
310
425499585B1A5CDD1A58D08409028333333333333E3BF0000000000000FB01079019070040501508421405064090741402480A1B40
1001
ACAD
1000
AcDbSavedByObjectVersion
1070
     0
  0
ACAD_PROXY_OBJECT
  5
A265
102
{ACAD_REACTORS
330
9550
102
}
330
9550
100
AcDbZombieObject
 90
      499
 91
      509
 93
      420
310
4194DA1859195911B40902404333333333333E33F0000000000000F9010740A41107004050150800405405064090840C02480A0B40
1001
ACAD
1000
AcDbSavedByObjectVersion
1070
     0
  0
ACAD_PROXY_OBJECT
  5
A264
102
{ACAD_REACTORS
330
9550
102
}
330
9550
100
AcDbZombieObject
 90
      499
 91
      509
 93
      516
310
4454DA18591959081DDA5D1A08195919D95CD1A40902404333333333333E33F0000000000000F901074090142907004050250800405405064090740C02480A0B40
1001
ACAD
1000
AcDbSavedByObjectVersion
1070
     0
  0
ACAD_PROXY_OBJECT
  5
A261
102
{ACAD_REACTORS
330
9550
102
}
330
9550
100
AcDbZombieObject
 90
      499
 91
      509
 93
      532
310
4394DA1859195CC81BD98811DC985E5174090240C333333333333E33F0000000000000F901079024090741D01000000000000111010841D405064090740C02480A0340
1001
ACAD
1000
AcDbSavedByObjectVersion
1070
     0
  0
ACAD_PROXY_OBJECT
  5
A262
102
{ACAD_REACTORS
330
9550
102
}
330
9550
100
AcDbZombieObject
 90
      499
 91
      509
 93
      476
310
41D4DAD95D18DA1E51840502408333333333333E33F0000000000000F901079024090741D01000000000000111010B41D405064090741802480A0340
1001
ACAD
1000
AcDbSavedByObjectVersion
1070
     0
  0
ACAD_PROXY_OBJECT
  5
955D
102
{ACAD_REACTORS
330
9550
102
}
330
9550
100
AcDbZombieObject
 90
      499
 91
      509
 93
      412
310
41D51A1A58DAD95B90D409028333333333333E3BF0000000000000FB010790141107004050150C41D405064090741402480A0350
1001
ACAD
1000
AcDbSavedByObjectVersion
1070
     0
  0
ACAD_PROXY_OBJECT
  5
A25F
102
{ACAD_REACTORS
330
9550
102
}
330
9550
100
AcDbZombieObject
 90
      499
 91
      509
 93
      420
310
4255DA5C99599C985B595059028333333333333E33F0000000000000F90107901411070040501600405405064090740C02480A0340
1001
ACAD
1000
AcDbSavedByObjectVersion
1070
     0
  0
ACAD_PROXY_OBJECT
  5
A263
102
{ACAD_REACTORS
330
9550
102
}
330
9550
100
AcDbZombieObject
 90
      499
 91
      509
 93
      404
310
41560B54985E51940902404000000000000E03F0000000000000F9010740501907004050150841D405064090740C02480A1B40
1001
ACAD
1000
AcDbSavedByObjectVersion
1070
     0
  0
XRECORD
  5
B046
102
{ACAD_REACTORS
330
B045
102
}
330
B045
100
AcDbXrecord
340
18D
  0
XRECORD
  5
B047
102
{ACAD_REACTORS
330
B045
102
}
330
B045
100
AcDbXrecord
340
18C
  0
DICTIONARYVAR
  5
AAE0
102
{ACAD_REACTORS
330
37
102
}
330
37
100
DictionaryVariables
280
     0
  1
1:1
  0
DICTIONARYVAR
  5
9627
102
{ACAD_REACTORS
330
37
102
}
330
37
100
DictionaryVariables
280
     0
  1
Standard
  0
DICTIONARYVAR
  5
29E
102
{ACAD_REACTORS
330
37
102
}
330
37
100
DictionaryVariables
280
     0
  1
Standard
  0
DICTIONARYVAR
  5
38
102
{ACAD_REACTORS
330
37
102
}
330
37
100
DictionaryVariables
280
     0
  1
-1
  0
DICTIONARYVAR
  5
1CE
102
{ACAD_REACTORS
330
37
102
}
330
37
100
DictionaryVariables
280
     0
  1
2
  0
DICTIONARYVAR
  5
704E
102
{ACAD_REACTORS
330
37
102
}
330
37
100
DictionaryVariables
280
     0
  1
1
  0
DICTIONARYVAR
  5
962A
102
{ACAD_REACTORS
330
37
102
}
330
37
100
DictionaryVariables
280
     0
  1
0
  0
DICTIONARYVAR
  5
7052
102
{ACAD_REACTORS
330
37
102
}
330
37
100
DictionaryVariables
280
     0
  1
8
  0
DICTIONARYVAR
  5
7051
102
{ACAD_REACTORS
330
37
102
}
330
37
100
DictionaryVariables
280
     0
  1
1
  0
DICTIONARYVAR
  5
AB30
102
{ACAD_REACTORS
330
37
102
}
330
37
100
DictionaryVariables
280
     0
  1
0
  0
DICTIONARYVAR
  5
704F
102
{ACAD_REACTORS
330
37
102
}
330
37
100
DictionaryVariables
280
     0
  1
8
  0
DICTIONARYVAR
  5
7050
102
{ACAD_REACTORS
330
37
102
}
330
37
100
DictionaryVariables
280
     0
  1
2
  0
DICTIONARYVAR
  5
1CF
102
{ACAD_REACTORS
330
37
102
}
330
37
100
DictionaryVariables
280
     0
  1

  0
DICTIONARYVAR
  5
9629
102
{ACAD_REACTORS
330
37
102
}
330
37
100
DictionaryVariables
280
     0
  1
127
  0
DICTIONARYVAR
  5
A25E
102
{ACAD_REACTORS
330
37
102
}
330
37
100
DictionaryVariables
280
     0
  1
2
  0
DICTIONARY
  5
B1E3
330
9540
100
AcDbDictionary
  3
ACAD_XREC_ROUNDTRIP
360
B1E4
1001
ACAD
1000
TREAT_AS_HARD
1070
     1
  0
DICTIONARY
  5
B1E5
330
9538
100
AcDbDictionary
  3
ACAD_XREC_ROUNDTRIP
360
B1E6
1001
ACAD
1000
TREAT_AS_HARD
1070
     1
  0
DICTIONARY
  5
B1E7
330
9548
100
AcDbDictionary
  3
ACAD_XREC_ROUNDTRIP
360
B1E8
1001
ACAD
1000
TREAT_AS_HARD
1070
     1
  0
XRECORD
  5
B1E4
102
{ACAD_REACTORS
330
B1E3
102
}
330
B1E3
100
AcDbXrecord
102
MATERIAL
148
0.0
149
0.0
149
0.0
 93
        0
 94
      127
282
     0
 72
     0
 77
     0
171
     0
175
     0
179
     0
273
     0
  0
XRECORD
  5
B1E6
102
{ACAD_REACTORS
330
B1E5
102
}
330
B1E5
100
AcDbXrecord
102
MATERIAL
148
0.0
149
0.0
149
0.0
 93
        0
 94
      127
282
     0
 72
     0
 77
     0
171
     0
175
     0
179
     0
273
     0
  0
XRECORD
  5
B1E8
102
{ACAD_REACTORS
330
B1E7
102
}
330
B1E7
100
AcDbXrecord
102
MATERIAL
148
0.0
149
0.0
149
0.0
 93
        0
 94
      127
282
     0
 72
     0
 77
     0
171
     0
175
     0
179
     0
273
     0
  0
ENDSEC
  0
EOF
