  0
SECTION
  2
HEADER
  9
$ACADVER
  1
AC1012
  9
$DWGCODEPAGE
  3
ansi_932
  9
$INSBASE
 10
0.0
 20
0.0
 30
0.0
  9
$EXTMIN
 10
4852.093377105106
 20
-381.5142729488679
 30
0.0
  9
$EXTMAX
 10
5168.393377105106
 20
-141.5155912619711
 30
0.0000000001127424
  9
$LIMMIN
 10
0.0
 20
0.0
  9
$LIMMAX
 10
420.0
 20
297.0
  9
$ORTHOMODE
 70
     0
  9
$REGENMODE
 70
     1
  9
$FILLMODE
 70
     1
  9
$QTEXTMODE
 70
     0
  9
$MIRRTEXT
 70
     0
  9
$DRAGMODE
 70
     2
  9
$LTSCALE
 40
0.5
  9
$OSMODE
 70
 14463
  9
$ATTMODE
 70
     1
  9
$TEXTSIZE
 40
4.0
  9
$TRACEWID
 40
1.0
  9
$TEXTSTYLE
  7
STANDARD
  9
$CLAYER
  8
1TEXT
  9
$CELTYPE
  6
BYLAYER
  9
$CECOLOR
 62
   256
  9
$CELTSCALE
 40
1.0
  9
$DELOBJ
 70
     1
  9
$DISPSILH
 70
     0
  9
$DIMSCALE
 40
1.0
  9
$DIMASZ
 40
2.0
  9
$DIMEXO
 40
0.0
  9
$DIMDLI
 40
7.0
  9
$DIMRND
 40
0.0
  9
$DIMDLE
 40
0.0
  9
$DIMEXE
 40
1.0
  9
$DIMTP
 40
0.0
  9
$DIMTM
 40
0.0
  9
$DIMTXT
 40
3.5
  9
$DIMCEN
 40
0.0
  9
$DIMTSZ
 40
0.0
  9
$DIMTOL
 70
     0
  9
$DIMLIM
 70
     0
  9
$DIMTIH
 70
     0
  9
$DIMTOH
 70
     0
  9
$DIMSE1
 70
     0
  9
$DIMSE2
 70
     0
  9
$DIMTAD
 70
     1
  9
$DIMZIN
 70
     8
  9
$DIMBLK
  1

  9
$DIMASO
 70
     1
  9
$DIMSHO
 70
     1
  9
$DIMPOST
  1
 
  9
$DIMAPOST
  1

  9
$DIMALT
 70
     0
  9
$DIMALTD
 70
     2
  9
$DIMALTF
 40
25.4
  9
$DIMLFAC
 40
1.0
  9
$DIMTOFL
 70
     1
  9
$DIMTVP
 40
0.0
  9
$DIMTIX
 70
     0
  9
$DIMSOXD
 70
     0
  9
$DIMSAH
 70
     1
  9
$DIMBLK1
  1
OPEN30
  9
$DIMBLK2
  1
OPEN30
  9
$DIMSTYLE
  2
NEWX10
  9
$DIMCLRD
 70
   256
  9
$DIMCLRE
 70
   256
  9
$DIMCLRT
 70
   201
  9
$DIMTFAC
 40
0.7
  9
$DIMGAP
 40
0.7
  9
$DIMJUST
 70
     0
  9
$DIMSD1
 70
     0
  9
$DIMSD2
 70
     0
  9
$DIMTOLJ
 70
     1
  9
$DIMTZIN
 70
     8
  9
$DIMALTZ
 70
     0
  9
$DIMALTTZ
 70
     0
  9
$DIMFIT
 70
     2
  9
$DIMUPT
 70
     0
  9
$DIMUNIT
 70
     2
  9
$DIMDEC
 70
     2
  9
$DIMTDEC
 70
     4
  9
$DIMALTU
 70
     2
  9
$DIMALTTD
 70
     2
  9
$DIMTXSTY
  7
STANDARD
  9
$DIMAUNIT
 70
     0
  9
$LUNITS
 70
     2
  9
$LUPREC
 70
     4
  9
$SKETCHINC
 40
1.0
  9
$FILLETRAD
 40
0.0
  9
$AUNITS
 70
     0
  9
$AUPREC
 70
     2
  9
$MENU
  1
acad
  9
$ELEVATION
 40
0.0
  9
$PELEVATION
 40
0.0
  9
$THICKNESS
 40
0.0
  9
$LIMCHECK
 70
     0
  9
$CHAMFERA
 40
10.0
  9
$CHAMFERB
 40
10.0
  9
$CHAMFERC
 40
20.0
  9
$CHAMFERD
 40
0.0
  9
$SKPOLY
 70
     0
  9
$TDCREATE
 40
2451318.621352917
  9
$TDUPDATE
 40
2459535.388023808
  9
$TDINDWG
 40
1.5328575579
  9
$TDUSRTIMER
 40
1.5328575579
  9
$USRTIMER
 70
     1
  9
$ANGBASE
 50
0.0
  9
$ANGDIR
 70
     0
  9
$PDMODE
 70
     0
  9
$PDSIZE
 40
0.0
  9
$PLINEWID
 40
0.0
  9
$COORDS
 70
     2
  9
$SPLFRAME
 70
     0
  9
$SPLINETYPE
 70
     6
  9
$SPLINESEGS
 70
     8
  9
$ATTDIA
 70
     0
  9
$ATTREQ
 70
     1
  9
$HANDLING
 70
     1
  9
$HANDSEED
  5
B8D8
  9
$SURFTAB1
 70
     6
  9
$SURFTAB2
 70
     6
  9
$SURFTYPE
 70
     6
  9
$SURFU
 70
     6
  9
$SURFV
 70
     6
  9
$UCSNAME
  2

  9
$UCSORG
 10
0.0
 20
0.0
 30
0.0
  9
$UCSXDIR
 10
1.0
 20
0.0
 30
0.0
  9
$UCSYDIR
 10
0.0
 20
1.0
 30
0.0
  9
$PUCSNAME
  2

  9
$PUCSORG
 10
0.0
 20
0.0
 30
0.0
  9
$PUCSXDIR
 10
1.0
 20
0.0
 30
0.0
  9
$PUCSYDIR
 10
0.0
 20
1.0
 30
0.0
  9
$USERI1
 70
     0
  9
$USERI2
 70
     0
  9
$USERI3
 70
     0
  9
$USERI4
 70
     0
  9
$USERI5
 70
     0
  9
$USERR1
 40
0.0
  9
$USERR2
 40
0.0
  9
$USERR3
 40
0.0
  9
$USERR4
 40
0.0
  9
$USERR5
 40
0.0
  9
$WORLDVIEW
 70
     1
  9
$SHADEDGE
 70
     3
  9
$SHADEDIF
 70
    70
  9
$TILEMODE
 70
     1
  9
$MAXACTVP
 70
    48
  9
$PINSBASE
 10
0.0
 20
0.0
 30
0.0
  9
$PLIMCHECK
 70
     0
  9
$PEXTMIN
 10
1.000000000000000E+20
 20
1.000000000000000E+20
 30
1.000000000000000E+20
  9
$PEXTMAX
 10
-1.000000000000000E+20
 20
-1.000000000000000E+20
 30
-1.000000000000000E+20
  9
$PLIMMIN
 10
0.0
 20
0.0
  9
$PLIMMAX
 10
420.0
 20
297.0
  9
$UNITMODE
 70
     0
  9
$VISRETAIN
 70
     1
  9
$PLINEGEN
 70
     0
  9
$PSLTSCALE
 70
     1
  9
$TREEDEPTH
 70
  3020
  9
$PICKSTYLE
 70
     0
  9
$CMLSTYLE
  2
STANDARD
  9
$CMLJUST
 70
     0
  9
$CMLSCALE
 40
20.0
  9
$SAVEIMAGES
 70
     1
  0
ENDSEC
  0
SECTION
  2
CLASSES
  0
CLASS
  1
DICTIONARYVAR
  2
AcDbDictionaryVar
  3
ObjectDBX Classes
 90
        0
280
     0
281
     0
  0
CLASS
  1
IDBUFFER
  2
AcDbIdBuffer
  3
ObjectDBX Classes
 90
    32768
280
     0
281
     0
  0
CLASS
  1
LWPOLYLINE
  2
AcDbPolyline
  3
ObjectDBX Classes
 90
    32768
280
     0
281
     1
  0
CLASS
  1
ACDBDICTIONARYWDFLT
  2
AcDbDictionaryWithDefault
  3
ObjectDBX Classes
 90
    32768
280
     0
281
     0
  0
CLASS
  1
ACDBPLACEHOLDER
  2
AcDbPlaceHolder
  3
ObjectDBX Classes
 90
        0
280
     0
281
     0
  0
CLASS
  1
LAYOUT
  2
AcDbLayout
  3
ObjectDBX Classes
 90
        0
280
     0
281
     0
  0
CLASS
  1
TABLESTYLE
  2
AcDbTableStyle
  3
ObjectDBX Classes
 90
     4095
280
     0
281
     0
  0
CLASS
  1
SORTENTSTABLE
  2
AcDbSortentsTable
  3
ObjectDBX Classes
 90
    32768
280
     0
281
     0
  0
CLASS
  1
MATERIAL
  2
AcDbMaterial
  3
ObjectDBX Classes
 90
     1153
280
     0
281
     0
  0
CLASS
  1
VISUALSTYLE
  2
AcDbVisualStyle
  3
ObjectDBX Classes
 90
     4095
280
     0
281
     0
  0
CLASS
  1
SCALE
  2
AcDbScale
  3
ObjectDBX Classes
 90
     1153
280
     0
281
     0
  0
CLASS
  1
MLEADERSTYLE
  2
AcDbMLeaderStyle
  3
ACDB_MLEADERSTYLE_CLASS
 90
     4095
280
     0
281
     0
  0
CLASS
  1
CELLSTYLEMAP
  2
AcDbCellStyleMap
  3
ObjectDBX Classes
 90
     1152
280
     0
281
     0
  0
CLASS
  1
SUN
  2
AcDbSun
  3
SCENEOE
 90
     1153
280
     0
281
     0
  0
CLASS
  1
XRECORD
  2
AcDbXrecord
  3
ObjectDBX Classes
 90
    32768
280
     0
281
     0
  0
CLASS
  1
HATCH
  2
AcDbHatch
  3
ObjectDBX Classes
 90
    32768
280
     0
281
     1
  0
ENDSEC
  0
SECTION
  2
TABLES
  0
TABLE
  2
VPORT
  5
8
330
0
100
AcDbSymbolTable
 70
     1
  0
VPORT
  5
952D
330
8
100
AcDbSymbolTableRecord
100
AcDbViewportTableRecord
  2
*ACTIVE
 70
     0
 10
0.0
 20
0.0
 11
1.0
 21
1.0
 12
5010.243377105106
 22
-261.5149321054195
 13
0.0
 23
0.0
 14
10.0
 24
10.0
 15
10.0
 25
10.0
 16
0.0
 26
0.0
 36
1.0
 17
0.0
 27
0.0
 37
0.0
 40
257.6827950743524
 41
2.137115839243499
 42
50.0
 43
0.0
 44
0.0
 50
0.0
 51
0.0
 71
    16
 72
   100
 73
     1
 74
     1
 75
     0
 76
     0
 77
     0
 78
     0
  0
ENDTAB
  0
TABLE
  2
LTYPE
  5
5
330
0
100
AcDbSymbolTable
 70
     3
  0
LTYPE
  5
12
330
5
100
AcDbSymbolTableRecord
100
AcDbLinetypeTableRecord
  2
BYBLOCK
 70
     0
  3

 72
    65
 73
     0
 40
0.0
  0
LTYPE
  5
13
330
5
100
AcDbSymbolTableRecord
100
AcDbLinetypeTableRecord
  2
BYLAYER
 70
     0
  3

 72
    65
 73
     0
 40
0.0
  0
LTYPE
  5
14
330
5
100
AcDbSymbolTableRecord
100
AcDbLinetypeTableRecord
  2
CONTINUOUS
 70
     0
  3
Solid line
 72
    65
 73
     0
 40
0.0
  0
LTYPE
  5
9837
330
5
100
AcDbSymbolTableRecord
100
AcDbLinetypeTableRecord
  2
CENTER2
 70
     0
  3
Center (.5x) ___ _ ___ _ ___ _ ___ _ ___ _ ___
 72
    65
 73
     4
 40
28.575
 49
19.05
 74
     0
 49
-3.175
 74
     0
 49
3.175
 74
     0
 49
-3.175
 74
     0
  0
LTYPE
  5
B389
330
5
100
AcDbSymbolTableRecord
100
AcDbLinetypeTableRecord
  2
PHANTOM
 70
     0
  3
Phantom ______  __  __  ______  __  __  ______
 72
    65
 73
     6
 40
12.7
 49
6.35
 74
     0
 49
-1.27
 74
     0
 49
1.27
 74
     0
 49
-1.27
 74
     0
 49
1.27
 74
     0
 49
-1.27
 74
     0
  0
ENDTAB
  0
TABLE
  2
LAYER
  5
2
102
{ACAD_XDICTIONARY
360
96D9
102
}
330
0
100
AcDbSymbolTable
 70
     5
  0
LAYER
  5
E
102
{ACAD_XDICTIONARY
360
9593
102
}
330
2
100
AcDbSymbolTableRecord
100
AcDbLayerTableRecord
  2
0
 70
     0
 62
     7
  6
CONTINUOUS
  0
LAYER
  5
29
102
{ACAD_XDICTIONARY
360
9595
102
}
330
2
100
AcDbSymbolTableRecord
100
AcDbLayerTableRecord
  2
1CENTER
 70
     0
 62
     7
  6
CENTER2
  0
LAYER
  5
31
102
{ACAD_XDICTIONARY
360
9597
102
}
330
2
100
AcDbSymbolTableRecord
100
AcDbLayerTableRecord
  2
1TEXT
 70
     0
 62
     7
  6
CONTINUOUS
  0
LAYER
  5
243
102
{ACAD_XDICTIONARY
360
959D
102
}
330
2
100
AcDbSymbolTableRecord
100
AcDbLayerTableRecord
  2
01
 70
     0
 62
     1
  6
CONTINUOUS
  0
LAYER
  5
24E
102
{ACAD_XDICTIONARY
360
95A3
102
}
330
2
100
AcDbSymbolTableRecord
100
AcDbLayerTableRecord
  2
1DIM
 70
     0
 62
     7
  6
CONTINUOUS
  0
ENDTAB
  0
TABLE
  2
STYLE
  5
3
330
0
100
AcDbSymbolTable
 70
     1
  0
STYLE
  5
F
330
3
100
AcDbSymbolTableRecord
100
AcDbTextStyleTableRecord
  2
STANDARD
 70
     0
 40
0.0
 41
1.0
 50
0.0
 71
     0
 42
4.0
  3
txt.shx
  4
extfont.shx
  0
ENDTAB
  0
TABLE
  2
VIEW
  5
6
330
0
100
AcDbSymbolTable
 70
     0
  0
ENDTAB
  0
TABLE
  2
UCS
  5
7
330
0
100
AcDbSymbolTable
 70
     0
  0
ENDTAB
  0
TABLE
  2
APPID
  5
9
330
0
100
AcDbSymbolTable
 70
    14
  0
APPID
  5
10
330
9
100
AcDbSymbolTableRecord
100
AcDbRegAppTableRecord
  2
ACAD
 70
     0
  0
APPID
  5
21
330
9
100
AcDbSymbolTableRecord
100
AcDbRegAppTableRecord
  2
DRAWINGVARIABLESXDATA
 70
     0
  0
APPID
  5
64
330
9
100
AcDbSymbolTableRecord
100
AcDbRegAppTableRecord
  2
CONTENTTABDATA
 70
     0
  0
APPID
  5
65
330
9
100
AcDbSymbolTableRecord
100
AcDbRegAppTableRecord
  2
CONTENTCURRENTTAB
 70
     0
  0
APPID
  5
66
330
9
100
AcDbSymbolTableRecord
100
AcDbRegAppTableRecord
  2
CONTENTBLOCKDESCRIPTION
 70
     0
  0
APPID
  5
67
330
9
100
AcDbSymbolTableRecord
100
AcDbRegAppTableRecord
  2
CONTENTBLOCKICON
 70
     0
  0
APPID
  5
68
330
9
100
AcDbSymbolTableRecord
100
AcDbRegAppTableRecord
  2
CONTENTLONGBLOCKNAME
 70
     0
  0
APPID
  5
2AE
330
9
100
AcDbSymbolTableRecord
100
AcDbRegAppTableRecord
  2
ACAD_PSEXT
 70
     0
  0
APPID
  5
9585
330
9
100
AcDbSymbolTableRecord
100
AcDbRegAppTableRecord
  2
ACAD_MLEADERVER
 70
     0
  0
APPID
  5
A2E3
330
9
100
AcDbSymbolTableRecord
100
AcDbRegAppTableRecord
  2
ACADANNOTATIVE
 70
     0
  0
APPID
  5
A2E4
330
9
100
AcDbSymbolTableRecord
100
AcDbRegAppTableRecord
  2
ACDBBLOCKREPETAG
 70
     0
  0
APPID
  5
AD67
330
9
100
AcDbSymbolTableRecord
100
AcDbRegAppTableRecord
  2
ACAECLAYERSTANDARD
 70
     0
  0
APPID
  5
B22E
330
9
100
AcDbSymbolTableRecord
100
AcDbRegAppTableRecord
  2
ACLAYERTOOLS
 70
     0
  0
APPID
  5
B22F
330
9
100
AcDbSymbolTableRecord
100
AcDbRegAppTableRecord
  2
ACAD_NAV_VCDISPLAY
 70
     0
  0
ENDTAB
  0
TABLE
  2
DIMSTYLE
  5
A
330
0
100
AcDbSymbolTable
 70
     1
  0
DIMSTYLE
105
48
330
A
100
AcDbSymbolTableRecord
100
AcDbDimStyleTableRecord
  2
NEWX10
 70
     0
  3
 
  4

  5

  6
OPEN30
  7
OPEN30
 40
1.0
 41
2.0
 42
0.0
 43
7.0
 44
1.0
 45
0.0
 46
0.0
 47
0.0
 48
0.0
140
3.5
141
0.0
142
0.0
143
25.4
144
1.0
145
0.0
146
0.7
147
0.7
 71
     0
 72
     0
 73
     0
 74
     0
 75
     0
 76
     0
 77
     1
 78
     8
170
     0
171
     2
172
     1
173
     1
174
     0
175
     0
176
   256
177
   256
178
   201
179
     2
270
     2
271
     2
272
     4
273
     2
274
     2
340
F
275
     0
280
     0
281
     0
282
     0
283
     1
284
     8
285
     0
286
     0
287
     2
288
     0
  0
ENDTAB
  0
TABLE
  2
BLOCK_RECORD
  5
1
330
0
100
AcDbSymbolTable
 70
     8
  0
BLOCK_RECORD
  5
18
102
{ACAD_XDICTIONARY
360
88F
102
}
330
1
100
AcDbSymbolTableRecord
100
AcDbBlockTableRecord
  2
*MODEL_SPACE
  0
BLOCK_RECORD
  5
15
330
1
100
AcDbSymbolTableRecord
100
AcDbBlockTableRecord
  2
*PAPER_SPACE
  0
BLOCK_RECORD
  5
42
330
1
100
AcDbSymbolTableRecord
100
AcDbBlockTableRecord
  2
_OPEN30
  0
BLOCK_RECORD
  5
A333
330
1
100
AcDbSymbolTableRecord
100
AcDbBlockTableRecord
  2
A3WAKUKAWAJUN2017_HYOUDAI_
  0
BLOCK_RECORD
  5
B738
330
1
100
AcDbSymbolTableRecord
100
AcDbBlockTableRecord
  2
*X79
  0
BLOCK_RECORD
  5
B786
330
1
100
AcDbSymbolTableRecord
100
AcDbBlockTableRecord
  2
*X80
  0
BLOCK_RECORD
  5
B7D8
330
1
100
AcDbSymbolTableRecord
100
AcDbBlockTableRecord
  2
*X81
  0
BLOCK_RECORD
  5
B829
330
1
100
AcDbSymbolTableRecord
100
AcDbBlockTableRecord
  2
*X82
  0
BLOCK_RECORD
  5
B866
330
1
100
AcDbSymbolTableRecord
100
AcDbBlockTableRecord
  2
*X83
  0
BLOCK_RECORD
  5
B8A6
330
1
100
AcDbSymbolTableRecord
100
AcDbBlockTableRecord
  2
*X84
  0
ENDTAB
  0
ENDSEC
  0
SECTION
  2
BLOCKS
  0
BLOCK
  5
19
330
18
100
AcDbEntity
  8
0
100
AcDbBlockBegin
  2
*MODEL_SPACE
 70
     0
 10
0.0
 20
0.0
 30
0.0
  3
*MODEL_SPACE
  1

  0
ENDBLK
  5
1A
330
18
100
AcDbEntity
  8
0
100
AcDbBlockEnd
  0
BLOCK
  5
16
330
15
100
AcDbEntity
 67
     1
  8
0
100
AcDbBlockBegin
  2
*PAPER_SPACE
 70
     0
 10
0.0
 20
0.0
 30
0.0
  3
*PAPER_SPACE
  1

  0
ENDBLK
  5
17
330
15
100
AcDbEntity
 67
     1
  8
0
100
AcDbBlockEnd
  0
BLOCK
  5
43
330
42
100
AcDbEntity
  8
0
100
AcDbBlockBegin
  2
_OPEN30
 70
     0
 10
0.0
 20
0.0
 30
0.0
  3
_OPEN30
  1

  0
LINE
  5
44
330
42
100
AcDbEntity
  8
0
  6
BYBLOCK
 62
     0
100
AcDbLine
 10
-1.0
 20
0.26794919
 30
0.0
 11
0.0
 21
0.0
 31
0.0
  0
LINE
  5
45
330
42
100
AcDbEntity
  8
0
  6
BYBLOCK
 62
     0
100
AcDbLine
 10
0.0
 20
0.0
 30
0.0
 11
-1.0
 21
-0.26794919
 31
0.0
  0
LINE
  5
46
330
42
100
AcDbEntity
  8
0
  6
BYBLOCK
 62
     0
100
AcDbLine
 10
0.0
 20
0.0
 30
0.0
 11
-1.0
 21
0.0
 31
0.0
  0
ENDBLK
  5
47
330
42
100
AcDbEntity
  8
0
100
AcDbBlockEnd
  0
BLOCK
  5
AA56
330
A333
100
AcDbEntity
  8
0
100
AcDbBlockBegin
  2
A3WAKUKAWAJUN2017_HYOUDAI_
 70
     0
 10
0.0
 20
0.0
 30
0.0
  3
A3WAKUKAWAJUN2017_HYOUDAI_
  1

  0
LINE
  5
A335
330
A333
100
AcDbEntity
  8
0
100
AcDbLine
 10
13.26299999998673
 20
-0.0001000000000317
 30
0.0
 11
9.236999999990758
 21
8.999899999990987
 31
0.0
1001
ACAD
1000
ASC_BOUNDS
1002
{
1070
    19
1005
A376
1002
}
  0
LINE
  5
A336
330
A333
100
AcDbEntity
  8
0
100
AcDbLine
 10
5.657999999994331
 20
0.9999999999989768
 30
0.0
 11
9.236999999990758
 21
8.999999999991019
 31
0.0
1001
ACAD
1000
ASC_BOUNDS
1002
{
1070
    19
1005
A376
1002
}
  0
LINE
  5
A337
330
A333
100
AcDbEntity
  8
0
100
AcDbLine
 10
18.59199999998134
 20
-0.2368999999997641
 30
0.0
 11
16.46099999998353
 21
5.432899999994561
 31
0.0
1001
ACAD
1000
ASC_BOUNDS
1002
{
1070
    19
1005
A377
1002
}
  0
LINE
  5
A338
330
A333
100
AcDbEntity
  8
0
100
AcDbLine
 10
18.59199999998134
 20
-0.2368999999997641
 30
0.0
 11
22.38199999997767
 21
8.763099999991255
 31
0.0
1001
ACAD
1000
ASC_BOUNDS
1002
{
1070
    19
1005
A377
1002
}
  0
LINE
  5
A339
330
A333
100
AcDbEntity
  8
0
100
AcDbLine
 10
14.32899999998563
 20
-0.2368999999997641
 30
0.0
 11
16.46099999998353
 21
5.432899999994561
 31
0.0
1001
ACAD
1000
ASC_BOUNDS
1002
{
1070
    19
1005
A377
1002
}
  0
LINE
  5
A33A
330
A333
100
AcDbEntity
  8
0
100
AcDbLine
 10
14.32899999998563
 20
-0.2368999999997641
 30
0.0
 11
10.53899999998941
 21
8.763099999991255
 31
0.0
1001
ACAD
1000
ASC_BOUNDS
1002
{
1070
    19
1005
A377
1002
}
  0
LINE
  5
A33B
330
A333
100
AcDbEntity
  8
0
100
AcDbLine
 10
19.53899999998043
 20
-0.0001000000000317
 30
0.0
 11
23.56599999997638
 21
8.999899999990987
 31
0.0
1001
ACAD
1000
ASC_BOUNDS
1002
{
1070
    19
1005
A378
1002
}
  0
LINE
  5
A33C
330
A333
100
AcDbEntity
  8
0
100
AcDbLine
 10
26.97358892824991
 20
1.383099999991202
 30
0.0
 11
23.56599999997638
 21
8.999899999990987
 31
0.0
1001
ACAD
1000
ASC_BOUNDS
1002
{
1070
    19
1005
A378
1002
}
  0
LINE
  5
A33D
330
A333
100
AcDbEntity
  8
0
100
AcDbLine
 10
5.657999999994331
 20
0.9999999999989768
 30
0.0
 11
3.181999999996833
 21
4.668599999995308
 31
0.0
1001
ACAD
1000
ASC_BOUNDS
1002
{
1070
    19
1005
A376
1002
}
  0
LINE
  5
A33E
330
A333
100
AcDbEntity
  8
0
100
AcDbLine
 10
4.617999999995391
 20
-0.0001000000000317
 30
0.0
 11
1.420999999998571
 21
4.736799999995242
 31
0.0
1001
ACAD
1000
ASC_BOUNDS
1002
{
1070
    19
1005
A376
1002
}
  0
LINE
  5
A33F
330
A333
100
AcDbEntity
  8
0
100
AcDbLine
 10
1.420999999998571
 20
8.763099999991255
 30
0.0
 11
1.420999999998571
 21
0.0
 31
0.0
1001
ACAD
1000
ASC_BOUNDS
1002
{
1070
    19
1005
A37B
1002
}
  0
LINE
  5
A340
330
A333
100
AcDbEntity
  8
0
100
AcDbLine
 10
0.0
 20
8.763099999991255
 30
0.0
 11
0.0
 21
0.0
 31
0.0
1001
ACAD
1000
ASC_BOUNDS
1002
{
1070
    19
1005
A37B
1002
}
  0
LINE
  5
A341
330
A333
100
AcDbEntity
  8
0
100
AcDbLine
 10
6.766999999993232
 20
-0.0001000000000317
 30
0.0
 11
7.826999999992154
 21
2.368399999997621
 31
0.0
1001
ACAD
1000
ASC_BOUNDS
1002
{
1070
    19
1005
A376
1002
}
  0
LINE
  5
A342
330
A333
100
AcDbEntity
  8
0
100
AcDbLine
 10
0.0
 20
0.0
 30
0.0
 11
1.420999999998571
 21
0.0
 31
0.0
1001
ACAD
1000
ASC_BOUNDS
1002
{
1070
    19
1005
A37B
1002
}
  0
LINE
  5
A343
330
A333
100
AcDbEntity
  8
0
100
AcDbLine
 10
4.617999999995391
 20
0.0
 30
0.0
 11
6.766999999993232
 21
0.0
 31
0.0
1001
ACAD
1000
ASC_BOUNDS
1002
{
1070
    19
1005
A376
1002
}
  0
LINE
  5
A344
330
A333
100
AcDbEntity
  8
0
100
AcDbLine
 10
11.70599999998831
 20
-0.0001000000000317
 30
0.0
 11
10.64699999998936
 21
2.368399999997621
 31
0.0
1001
ACAD
1000
ASC_BOUNDS
1002
{
1070
    19
1005
A376
1002
}
  0
LINE
  5
A345
330
A333
100
AcDbEntity
  8
0
100
AcDbLine
 10
7.826999999992154
 20
2.368399999997621
 30
0.0
 11
10.64699999998936
 21
2.368399999997621
 31
0.0
1001
ACAD
1000
ASC_BOUNDS
1002
{
1070
    19
1005
A376
1002
}
  0
LINE
  5
A346
330
A333
100
AcDbEntity
  8
0
100
AcDbLine
 10
11.70599999998831
 20
0.0
 30
0.0
 11
13.26299999998673
 21
0.0
 31
0.0
1001
ACAD
1000
ASC_BOUNDS
1002
{
1070
    19
1005
A376
1002
}
  0
LINE
  5
A347
330
A333
100
AcDbEntity
  8
0
100
AcDbLine
 10
22.15599999997789
 20
2.368399999997621
 30
0.0
 11
24.97599999997499
 21
2.368399999997621
 31
0.0
1001
ACAD
1000
ASC_BOUNDS
1002
{
1070
    19
1005
A378
1002
}
  0
LINE
  5
A348
330
A333
100
AcDbEntity
  8
0
100
AcDbLine
 10
19.53899999998043
 20
0.0
 30
0.0
 11
21.09599999997886
 21
0.0
 31
0.0
1001
ACAD
1000
ASC_BOUNDS
1002
{
1070
    19
1005
A378
1002
}
  0
LINE
  5
A349
330
A333
100
AcDbEntity
  8
0
100
AcDbLine
 10
21.09599999997886
 20
-0.0001000000000317
 30
0.0
 11
22.15599999997789
 21
2.368399999997621
 31
0.0
1001
ACAD
1000
ASC_BOUNDS
1002
{
1070
    19
1005
A378
1002
}
  0
LINE
  5
A34A
330
A333
100
AcDbEntity
  8
0
100
AcDbLine
 10
26.02015566812236
 20
0.0330999999912365
 30
0.0
 11
24.97599999997499
 21
2.368399999997621
 31
0.0
1001
ACAD
1000
ASC_BOUNDS
1002
{
1070
    19
1005
A378
1002
}
  0
LINE
  5
A34B
330
A333
100
AcDbEntity
  8
0
100
AcDbLine
 10
14.32399999998563
 20
3.315799999996671
 30
0.0
 11
16.46099999998353
 21
8.999899999990987
 31
0.0
1001
ACAD
1000
ASC_BOUNDS
1002
{
1070
    19
1005
A377
1002
}
  0
LINE
  5
A34C
330
A333
100
AcDbEntity
  8
0
100
AcDbLine
 10
6.432999999993513
 20
8.763099999991255
 30
0.0
 11
3.181999999996833
 21
4.668599999995308
 31
0.0
1001
ACAD
1000
ASC_BOUNDS
1002
{
1070
    19
1005
A376
1002
}
  0
LINE
  5
A34D
330
A333
100
AcDbEntity
  8
0
100
AcDbLine
 10
4.617999999995391
 20
8.763099999991255
 30
0.0
 11
1.420999999998571
 21
4.736799999995242
 31
0.0
1001
ACAD
1000
ASC_BOUNDS
1002
{
1070
    19
1005
A376
1002
}
  0
LINE
  5
A34E
330
A333
100
AcDbEntity
  8
0
100
AcDbLine
 10
0.0
 20
8.763099999991255
 30
0.0
 11
1.420999999998571
 21
8.763099999991255
 31
0.0
1001
ACAD
1000
ASC_BOUNDS
1002
{
1070
    19
1005
A37B
1002
}
  0
LINE
  5
A34F
330
A333
100
AcDbEntity
  8
0
100
AcDbLine
 10
4.617999999995391
 20
8.763099999991255
 30
0.0
 11
6.432999999993513
 21
8.763099999991255
 31
0.0
1001
ACAD
1000
ASC_BOUNDS
1002
{
1070
    19
1005
A376
1002
}
  0
LINE
  5
A350
330
A333
100
AcDbEntity
  8
0
100
AcDbLine
 10
14.32399999998563
 20
3.315799999996671
 30
0.0
 11
12.02999999998792
 21
8.763099999991255
 31
0.0
1001
ACAD
1000
ASC_BOUNDS
1002
{
1070
    19
1005
A377
1002
}
  0
LINE
  5
A351
330
A333
100
AcDbEntity
  8
0
100
AcDbLine
 10
10.06399999998996
 20
3.670999999996297
 30
0.0
 11
9.236999999990758
 21
5.5200999999945
 31
0.0
1001
ACAD
1000
ASC_BOUNDS
1002
{
1070
    19
1005
A376
1002
}
  0
LINE
  5
A352
330
A333
100
AcDbEntity
  8
0
100
AcDbLine
 10
8.409999999991555
 20
3.670999999996297
 30
0.0
 11
9.236999999990758
 21
5.5200999999945
 31
0.0
1001
ACAD
1000
ASC_BOUNDS
1002
{
1070
    19
1005
A376
1002
}
  0
LINE
  5
A353
330
A333
100
AcDbEntity
  8
0
100
AcDbLine
 10
8.409999999991555
 20
3.670999999996297
 30
0.0
 11
10.06399999998996
 21
3.670999999996297
 31
0.0
1001
ACAD
1000
ASC_BOUNDS
1002
{
1070
    19
1005
A376
1002
}
  0
LINE
  5
A354
330
A333
100
AcDbEntity
  8
0
100
AcDbLine
 10
10.53899999998941
 20
8.763099999991255
 30
0.0
 11
12.02999999998792
 21
8.763099999991255
 31
0.0
1001
ACAD
1000
ASC_BOUNDS
1002
{
1070
    19
1005
A377
1002
}
  0
LINE
  5
A355
330
A333
100
AcDbEntity
  8
0
100
AcDbLine
 10
22.7389999999773
 20
3.670999999996297
 30
0.0
 11
23.56599999997638
 21
5.5200999999945
 31
0.0
1001
ACAD
1000
ASC_BOUNDS
1002
{
1070
    19
1005
A378
1002
}
  0
LINE
  5
A356
330
A333
100
AcDbEntity
  8
0
100
AcDbLine
 10
22.7389999999773
 20
3.670999999996297
 30
0.0
 11
24.39299999997559
 21
3.670999999996297
 31
0.0
1001
ACAD
1000
ASC_BOUNDS
1002
{
1070
    19
1005
A378
1002
}
  0
LINE
  5
A357
330
A333
100
AcDbEntity
  8
0
100
AcDbLine
 10
18.59799999998143
 20
3.315799999996671
 30
0.0
 11
20.89099999997916
 21
8.763099999991255
 31
0.0
1001
ACAD
1000
ASC_BOUNDS
1002
{
1070
    19
1005
A377
1002
}
  0
LINE
  5
A358
330
A333
100
AcDbEntity
  8
0
100
AcDbLine
 10
18.59799999998143
 20
3.315799999996671
 30
0.0
 11
16.46099999998353
 21
8.999899999990987
 31
0.0
1001
ACAD
1000
ASC_BOUNDS
1002
{
1070
    19
1005
A377
1002
}
  0
LINE
  5
A359
330
A333
100
AcDbEntity
  8
0
100
AcDbLine
 10
20.89099999997916
 20
8.763099999991255
 30
0.0
 11
22.38199999997767
 21
8.763099999991255
 31
0.0
1001
ACAD
1000
ASC_BOUNDS
1002
{
1070
    19
1005
A377
1002
}
  0
LINE
  5
A35A
330
A333
100
AcDbEntity
  8
0
100
AcDbLine
 10
24.39299999997559
 20
3.670999999996297
 30
0.0
 11
23.56599999997638
 21
5.5200999999945
 31
0.0
1001
ACAD
1000
ASC_BOUNDS
1002
{
1070
    19
1005
A378
1002
}
  0
LINE
  5
A35B
330
A333
100
AcDbEntity
  8
0
100
AcDbLine
 10
44.99999999995498
 20
-0.2368999999997641
 30
0.0
 11
40.02599999995994
 21
5.341799999994635
 31
0.0
1001
ACAD
1000
ASC_BOUNDS
1002
{
1070
    19
1005
A37A
1002
}
  0
LINE
  5
A35C
330
A333
100
AcDbEntity
  8
0
100
AcDbLine
 10
40.02599999995994
 20
5.341799999994635
 30
0.0
 11
40.02599999995994
 21
0.0
 31
0.0
1001
ACAD
1000
ASC_BOUNDS
1002
{
1070
    19
1005
A37A
1002
}
  0
LINE
  5
A35D
330
A333
100
AcDbEntity
  8
0
100
AcDbLine
 10
38.60499999996136
 20
8.999999999991019
 30
0.0
 11
38.60499999996136
 21
0.0
 31
0.0
1001
ACAD
1000
ASC_BOUNDS
1002
{
1070
    19
1005
A37A
1002
}
  0
LINE
  5
A35E
330
A333
100
AcDbEntity
  8
0
100
AcDbLine
 10
44.99999999995498
 20
8.763099999991255
 30
0.0
 11
44.99999999995498
 21
-0.2368999999997641
 31
0.0
1001
ACAD
1000
ASC_BOUNDS
1002
{
1070
    19
1005
A37A
1002
}
  0
LINE
  5
A35F
330
A333
100
AcDbEntity
  8
0
100
AcDbLine
 10
38.60499999996136
 20
0.0
 30
0.0
 11
40.02599999995994
 21
0.0
 31
0.0
1001
ACAD
1000
ASC_BOUNDS
1002
{
1070
    19
1005
A37A
1002
}
  0
LINE
  5
A360
330
A333
100
AcDbEntity
  8
0
100
AcDbLine
 10
43.57899999995641
 20
3.421199999996588
 30
0.0
 11
38.60499999996136
 21
8.999899999990987
 31
0.0
1001
ACAD
1000
ASC_BOUNDS
1002
{
1070
    19
1005
A37A
1002
}
  0
LINE
  5
A361
330
A333
100
AcDbEntity
  8
0
100
AcDbLine
 10
43.57899999995641
 20
8.763099999991255
 30
0.0
 11
43.57899999995641
 21
3.421199999996588
 31
0.0
1001
ACAD
1000
ASC_BOUNDS
1002
{
1070
    19
1005
A37A
1002
}
  0
LINE
  5
A362
330
A333
100
AcDbEntity
  8
0
100
AcDbLine
 10
43.57899999995641
 20
8.763099999991255
 30
0.0
 11
44.99999999995498
 21
8.763099999991255
 31
0.0
1001
ACAD
1000
ASC_BOUNDS
1002
{
1070
    19
1005
A37A
1002
}
  0
LINE
  5
A363
330
A333
100
AcDbEntity
  8
0
100
AcDbLine
 10
37.67199999996831
 20
8.763099999991255
 30
0.0
 11
36.23199999996837
 21
8.763099999991255
 31
0.0
  0
LINE
  5
A364
330
A333
100
AcDbEntity
  8
0
100
AcDbLine
 10
31.64199999996833
 20
8.763099999991255
 30
0.0
 11
31.64199999996833
 21
2.481619422925121
 31
0.0
  0
LINE
  5
A365
330
A333
100
AcDbEntity
  8
0
100
AcDbLine
 10
37.67199999996831
 20
8.763099999991255
 30
0.0
 11
37.67199999996831
 21
2.481619422925121
 31
0.0
  0
LINE
  5
A366
330
A333
100
AcDbEntity
  8
0
100
AcDbLine
 10
36.23199999996837
 20
8.763099999991255
 30
0.0
 11
36.23199999996837
 21
2.481619422925064
 31
0.0
  0
LINE
  5
A367
330
A333
100
AcDbEntity
  8
0
100
AcDbLine
 10
33.08199999996839
 20
8.763099999991255
 30
0.0
 11
33.08199999996839
 21
2.481619422925121
 31
0.0
  0
ARC
  5
A368
330
A333
100
AcDbEntity
  8
0
100
AcDbCircle
 10
34.65699999996832
 20
3.183099999991214
 30
0.0
 40
3.420000000000007
100
AcDbArc
 50
240.0000000000255
 51
299.9999999999766
  0
ARC
  5
A369
330
A333
100
AcDbEntity
  8
0
100
AcDbCircle
 10
34.65699999996832
 20
3.183099999991214
 30
0.0
 40
1.97999999999999
100
AcDbArc
 50
240.000000000026
 51
299.9999999999703
  0
LINE
  5
A36A
330
A333
100
AcDbEntity
  8
0
100
AcDbLine
 10
33.08199999996828
 20
8.763099999991255
 30
0.0
 11
31.64199999996833
 21
8.763099999991255
 31
0.0
  0
ARC
  5
A36B
330
A333
100
AcDbEntity
  8
0
100
AcDbCircle
 10
35.06199999996829
 20
2.481619422925064
 30
0.0
 40
1.17
100
AcDbArc
 50
299.9999999999699
 51
0.0
  0
ARC
  5
A36C
330
A333
100
AcDbEntity
  8
0
100
AcDbCircle
 10
34.25199999996835
 20
2.481619422925121
 30
0.0
 40
1.17
100
AcDbArc
 50
180.0
 51
240.0000000000238
  0
ARC
  5
A36D
330
A333
100
AcDbEntity
  8
0
100
AcDbCircle
 10
35.06199999996841
 20
2.481619422925121
 30
0.0
 40
2.61
100
AcDbArc
 50
299.9999999999756
 51
0.0
  0
ARC
  5
A36E
330
A333
100
AcDbEntity
  8
0
100
AcDbCircle
 10
34.25199999996835
 20
2.481619422925121
 30
0.0
 40
2.61
100
AcDbArc
 50
180.0
 51
240.0000000000244
  0
LINE
  5
A36F
330
A333
100
AcDbEntity
  8
0
100
AcDbLine
 10
29.30199999996933
 20
8.763099999991255
 30
0.0
 11
30.74199999996927
 21
8.763099999991255
 31
0.0
1001
ACAD
1000
ASC_BOUNDS
1002
{
1070
    19
1005
A378
1002
}
  0
LINE
  5
A370
330
A333
100
AcDbEntity
  8
0
100
AcDbLine
 10
30.74199999996927
 20
8.763099999991255
 30
0.0
 11
30.74199999996927
 21
2.373099999991211
 31
0.0
1001
ACAD
1000
ASC_BOUNDS
1002
{
1070
    19
1005
A378
1002
}
  0
LINE
  5
A371
330
A333
100
AcDbEntity
  8
0
100
AcDbLine
 10
26.02015566812236
 20
0.0330999999912365
 30
0.0
 11
28.40199999996923
 21
0.0330999999912365
 31
0.0
1001
ACAD
1000
ASC_BOUNDS
1002
{
1070
    19
1005
A378
1002
}
  0
LINE
  5
A372
330
A333
100
AcDbEntity
  8
0
100
AcDbLine
 10
29.30199999996933
 20
8.763099999991255
 30
0.0
 11
29.30199999996933
 21
2.283099999991236
 31
0.0
1001
ACAD
1000
ASC_BOUNDS
1002
{
1070
    19
1005
A378
1002
}
  0
LINE
  5
A373
330
A333
100
AcDbEntity
  8
0
100
AcDbLine
 10
26.97358892824991
 20
1.383099999991202
 30
0.0
 11
28.40199999996923
 21
1.383099999991202
 31
0.0
1001
ACAD
1000
ASC_BOUNDS
1002
{
1070
    19
1005
A378
1002
}
  0
ARC
  5
A374
330
A333
100
AcDbEntity
  8
0
100
AcDbCircle
 10
28.40199999996923
 20
2.283099999991236
 30
0.0
 40
0.9
100
AcDbArc
 50
270.0
 51
0.0
1001
ACAD
1000
ASC_BOUNDS
1002
{
1070
    19
1005
A378
1002
}
  0
ARC
  5
A375
330
A333
100
AcDbEntity
  8
0
100
AcDbCircle
 10
28.40199999996923
 20
2.373099999991211
 30
0.0
 40
2.34
100
AcDbArc
 50
270.0
 51
0.0
1001
ACAD
1000
ASC_BOUNDS
1002
{
1070
    19
1005
A378
1002
}
  0
INSERT
  5
A376
330
A333
100
AcDbEntity
  8
0
100
AcDbBlockReference
  2
*X79
 10
0.0
 20
0.0
 30
0.0
1001
ACAD
1000
HATCH
1002
{
1070
    19
1000
ANSI37
1040
0.15
1040
0.0
1000
ASC_BOUNDS
1070
     2
1070
     2
1070
    12
1005
A335
1005
A336
1005
A33D
1005
A34C
1005
A34F
1005
A34D
1005
A33E
1005
A343
1005
A341
1005
A345
1005
A344
1005
A346
1070
     2
1070
     3
1005
A351
1005
A353
1005
A352
1000
ASC_SEEDPOINT
1011
3.614004224891801
1021
2.996669441146025
1031
0.0
1000
R14_HATCH_DATA
1000
A376
1011
1.0
1021
0.0
1031
0.0
1011
0.0
1021
1.0
1031
0.0
1011
0.0
1021
0.0
1031
1.0
1040
0.0
1010
0.0
1020
0.0
1030
1.0
1000
ANSI37
1070
     0
1070
     1
1071
        2
1071
        7
1070
     0
1070
     1
1071
       17
1040
13.26299999998673
1040
-0.0001000000000317
1040
9.236999999990758
1040
8.999899999990987
1040
9.236999999990758
1040
8.999999999991019
1040
5.657999999994331
1040
0.9999999999989768
1040
3.181999999996833
1040
4.668599999995308
1040
6.432999999993513
1040
8.763099999991255
1040
4.617999999995391
1040
8.763099999991255
1040
1.420999999998571
1040
4.736799999995242
1040
4.617999999995391
1040
-0.0001000000000317
1040
4.617999999995391
1040
0.0
1040
6.766999999993232
1040
0.0
1040
6.766999999993232
1040
-0.0001000000000317
1040
7.826999999992154
1040
2.368399999997621
1040
10.64699999998936
1040
2.368399999997621
1040
11.70599999998831
1040
-0.0001000000000317
1040
11.70599999998831
1040
0.0
1040
13.26299999998673
1040
0.0
1071
       12
1005
A335
1005
A336
1005
A33D
1005
A34C
1005
A34F
1005
A34D
1005
A33E
1005
A343
1005
A341
1005
A345
1005
A344
1005
A346
1071
       22
1070
     0
1070
     1
1071
        3
1040
9.236999999990758
1040
5.5200999999945
1040
10.06399999998996
1040
3.670999999996297
1040
8.409999999991555
1040
3.670999999996297
1071
        3
1005
A351
1005
A353
1005
A352
1070
     0
1070
     1
1040
0.0
1040
0.15
1070
     0
1070
     2
1040
0.7853981633974483
1040
49.29960901727088
1040
-10.17736998311392
1040
-0.3367596045400932
1040
0.3367596045400932
1070
     0
1040
2.356194490192345
1040
49.29960901727088
1040
-10.17736998311392
1040
-0.3367596045400932
1040
-0.3367596045400932
1070
     0
1040
0.0110235143455945
1071
        2
1040
3.614004224891801
1040
2.996669441146025
1040
0.0
1040
3.614004224891801
1040
2.996669441146025
1040
0.0
1002
}
  0
INSERT
  5
A377
330
A333
100
AcDbEntity
  8
0
100
AcDbBlockReference
  2
*X80
 10
0.0
 20
0.0
 30
0.0
1001
ACAD
1000
HATCH
1002
{
1070
    19
1000
ANSI37
1040
0.15
1040
0.0
1000
ASC_BOUNDS
1070
     1
1070
     2
1070
    10
1005
A337
1005
A338
1005
A359
1005
A357
1005
A358
1005
A34B
1005
A350
1005
A354
1005
A33A
1005
A339
1000
ASC_SEEDPOINT
1011
14.73245321214324
1021
2.798246178283421
1031
0.0
1000
R14_HATCH_DATA
1000
A377
1011
1.0
1021
0.0
1031
0.0
1011
0.0
1021
1.0
1031
0.0
1011
0.0
1021
0.0
1031
1.0
1040
0.0
1010
0.0
1020
0.0
1030
1.0
1000
ANSI37
1070
     0
1070
     1
1071
        1
1071
        7
1070
     0
1070
     1
1071
       10
1040
16.46099999998353
1040
5.432899999994561
1040
18.59199999998134
1040
-0.2368999999997641
1040
22.38199999997767
1040
8.763099999991255
1040
20.89099999997916
1040
8.763099999991255
1040
18.59799999998143
1040
3.315799999996671
1040
16.46099999998353
1040
8.999899999990987
1040
14.32399999998563
1040
3.315799999996671
1040
12.02999999998792
1040
8.763099999991255
1040
10.53899999998941
1040
8.763099999991255
1040
14.32899999998563
1040
-0.2368999999997641
1071
       10
1005
A337
1005
A338
1005
A359
1005
A357
1005
A358
1005
A34B
1005
A350
1005
A354
1005
A33A
1005
A339
1070
     0
1070
     1
1040
0.0
1040
0.15
1070
     0
1070
     2
1040
0.7853981633974483
1040
49.29960901727088
1040
-10.17736998311392
1040
-0.3367596045400932
1040
0.3367596045400932
1070
     0
1040
2.356194490192345
1040
49.29960901727088
1040
-10.17736998311392
1040
-0.3367596045400932
1040
-0.3367596045400932
1070
     0
1040
0.0110235143455945
1071
        1
1040
14.73245321214324
1040
2.798246178283421
1040
0.0
1002
}
  0
INSERT
  5
A378
330
A333
100
AcDbEntity
  8
0
100
AcDbBlockReference
  2
*X81
 10
0.0
 20
0.0
 30
0.0
1001
ACAD
1000
HATCH
1002
{
1070
    19
1000
ANSI37
1040
0.15
1040
0.0
1000
ASC_BOUNDS
1070
     2
1070
     2
1070
    13
1005
A33B
1005
A348
1005
A349
1005
A347
1005
A34A
1005
A371
1005
A375
1005
A370
1005
A36F
1005
A372
1005
A374
1005
A373
1005
A33C
1070
     2
1070
     3
1005
A355
1005
A35A
1005
A356
1000
ASC_SEEDPOINT
1011
21.97929957367762
1021
3.294304244259308
1031
0.0
1000
R14_HATCH_DATA
1000
A378
1011
1.0
1021
0.0
1031
0.0
1011
0.0
1021
1.0
1031
0.0
1011
0.0
1021
0.0
1031
1.0
1040
0.0
1010
0.0
1020
0.0
1030
1.0
1000
ANSI37
1070
     0
1070
     1
1071
        2
1071
        7
1070
     1
1070
     1
1071
       15
1040
23.56599999997638
1040
8.999899999990987
1040
0.0
1040
19.53899999998043
1040
-0.0001000000000317
1040
0.0
1040
19.53899999998043
1040
0.0
1040
0.0
1040
21.09599999997886
1040
0.0
1040
0.0
1040
21.09599999997886
1040
-0.0001000000000317
1040
0.0
1040
22.15599999997789
1040
2.368399999997621
1040
0.0
1040
24.97599999997499
1040
2.368399999997621
1040
0.0
1040
26.02015566812236
1040
0.0330999999912365
1040
0.0
1040
28.40199999996923
1040
0.0330999999912365
1040
0.414213562373095
1040
30.74199999996923
1040
2.373099999991211
1040
0.0
1040
30.74199999996927
1040
8.763099999991255
1040
0.0
1040
29.30199999996933
1040
8.763099999991255
1040
0.0
1040
29.30199999996933
1040
2.283099999991236
1040
-0.414213562373095
1040
28.40199999996923
1040
1.383099999991237
1040
0.0
1040
26.97358892824991
1040
1.383099999991202
1040
0.0
1071
       13
1005
A33B
1005
A348
1005
A349
1005
A347
1005
A34A
1005
A371
1005
A375
1005
A370
1005
A36F
1005
A372
1005
A374
1005
A373
1005
A33C
1071
       22
1070
     0
1070
     1
1071
        3
1040
22.7389999999773
1040
3.670999999996297
1040
23.56599999997638
1040
5.5200999999945
1040
24.39299999997559
1040
3.670999999996297
1071
        3
1005
A355
1005
A35A
1005
A356
1070
     0
1070
     1
1040
0.0
1040
0.15
1070
     0
1070
     2
1040
0.7853981633974483
1040
49.29960901727088
1040
-10.17736998311392
1040
-0.3367596045400932
1040
0.3367596045400932
1070
     0
1040
2.356194490192345
1040
49.29960901727088
1040
-10.17736998311392
1040
-0.3367596045400932
1040
-0.3367596045400932
1070
     0
1040
0.0110235143455945
1071
        2
1040
21.97929957367762
1040
3.294304244259308
1040
0.0
1040
21.97929957367762
1040
3.294304244259308
1040
0.0
1002
}
  0
INSERT
  5
A379
330
A333
100
AcDbEntity
  8
0
100
AcDbBlockReference
  2
*X82
 10
0.0
 20
0.0
 30
0.0
1001
ACAD
1000
HATCH
1002
{
1070
    19
1000
ANSI37
1040
0.15
1040
0.0
1000
R14_HATCH_DATA
1000
A379
1011
1.0
1021
0.0
1031
0.0
1011
0.0
1021
1.0
1031
0.0
1011
0.0
1021
0.0
1031
1.0
1040
0.0
1010
0.0
1020
0.0
1030
1.0
1000
ANSI37
1070
     0
1070
     1
1071
        1
1071
        7
1070
     1
1070
     1
1071
       12
1040
31.64199999996833
1040
2.481619422925121
1040
0.2679491924310942
1040
32.94699999997067
1040
0.2212931190493919
1040
0.2679491924301353
1040
36.36699999995983
1040
0.2212931190459813
1040
0.2679491924321411
1040
37.67199999996831
1040
2.481619422928361
1040
0.0
1040
37.67199999996831
1040
8.763099999991255
1040
0.0
1040
36.23199999996837
1040
8.763099999991255
1040
0.0
1040
36.23199999996837
1040
2.481619422925064
1040
-0.2679491924310291
1040
35.64699999996708
1040
1.468369700498386
1040
-0.267949192430519
1040
33.66699999997093
1040
1.468369700497703
1040
-0.267949192431809
1040
33.08199999996839
1040
2.481619422926997
1040
0.0
1040
33.08199999996839
1040
8.763099999991255
1040
0.0
1040
31.64199999996833
1040
8.763099999991255
1040
0.0
1071
        0
1070
     0
1070
     1
1040
0.0
1040
0.15
1070
     0
1070
     2
1040
0.7853981633974483
1040
49.29960901727088
1040
-10.17736998311392
1040
-0.3367596045400932
1040
0.3367596045400932
1070
     0
1040
2.356194490192345
1040
49.29960901727088
1040
-10.17736998311392
1040
-0.3367596045400932
1040
-0.3367596045400932
1070
     0
1040
0.0110235143455945
1071
        1
1040
32.30357378967278
1040
3.988785755459219
1040
0.0
1002
}
  0
INSERT
  5
A37A
330
A333
100
AcDbEntity
  8
0
100
AcDbBlockReference
  2
*X83
 10
0.0
 20
0.0
 30
0.0
1001
ACAD
1000
HATCH
1002
{
1070
    19
1000
ANSI37
1040
0.15
1040
0.0
1000
ASC_BOUNDS
1070
     1
1070
     2
1070
     8
1005
A35B
1005
A35E
1005
A362
1005
A361
1005
A360
1005
A35D
1005
A35F
1005
A35C
1000
ASC_SEEDPOINT
1011
39.74896370716704
1021
4.484843821435049
1031
0.0
1000
R14_HATCH_DATA
1000
A37A
1011
1.0
1021
0.0
1031
0.0
1011
0.0
1021
1.0
1031
0.0
1011
0.0
1021
0.0
1031
1.0
1040
0.0
1010
0.0
1020
0.0
1030
1.0
1000
ANSI37
1070
     0
1070
     1
1071
        1
1071
        7
1070
     0
1070
     1
1071
        9
1040
40.02599999995994
1040
5.341799999994635
1040
44.99999999995498
1040
-0.2368999999997641
1040
44.99999999995498
1040
8.763099999991255
1040
43.57899999995641
1040
8.763099999991255
1040
43.57899999995641
1040
3.421199999996588
1040
38.60499999996136
1040
8.999899999990987
1040
38.60499999996136
1040
8.999999999991019
1040
38.60499999996136
1040
0.0
1040
40.02599999995994
1040
0.0
1071
        8
1005
A35B
1005
A35E
1005
A362
1005
A361
1005
A360
1005
A35D
1005
A35F
1005
A35C
1070
     0
1070
     1
1040
0.0
1040
0.15
1070
     0
1070
     2
1040
0.7853981633974483
1040
49.29960901727088
1040
-10.17736998311392
1040
-0.3367596045400932
1040
0.3367596045400932
1070
     0
1040
2.356194490192345
1040
49.29960901727088
1040
-10.17736998311392
1040
-0.3367596045400932
1040
-0.3367596045400932
1070
     0
1040
0.0110235143455945
1071
        1
1040
39.74896370716704
1040
4.484843821435049
1040
0.0
1002
}
  0
INSERT
  5
A37B
330
A333
100
AcDbEntity
  8
0
100
AcDbBlockReference
  2
*X84
 10
0.0
 20
0.0
 30
0.0
1001
ACAD
1000
HATCH
1002
{
1070
    19
1000
ANSI37
1040
0.15
1040
0.0
1000
ASC_BOUNDS
1070
     1
1070
     2
1070
     4
1005
A33F
1005
A34E
1005
A340
1005
A342
1000
ASC_SEEDPOINT
1011
1.079051535452663
1021
4.148538732891836
1031
0.0
1000
R14_HATCH_DATA
1000
A37B
1011
1.0
1021
0.0
1031
0.0
1011
0.0
1021
1.0
1031
0.0
1011
0.0
1021
0.0
1031
1.0
1040
0.0
1010
0.0
1020
0.0
1030
1.0
1000
ANSI37
1070
     0
1070
     1
1071
        1
1071
        7
1070
     0
1070
     1
1071
        4
1040
1.420999999998571
1040
0.0
1040
1.420999999998571
1040
8.763099999991255
1040
0.0
1040
8.763099999991255
1040
0.0
1040
0.0
1071
        4
1005
A33F
1005
A34E
1005
A340
1005
A342
1070
     0
1070
     1
1040
0.0
1040
0.15
1070
     0
1070
     2
1040
0.7853981633974483
1040
49.29960901727088
1040
-10.17736998311392
1040
-0.3367596045400932
1040
0.3367596045400932
1070
     0
1040
2.356194490192345
1040
49.29960901727088
1040
-10.17736998311392
1040
-0.3367596045400932
1040
-0.3367596045400932
1070
     0
1040
0.0053004257112761
1071
        1
1040
1.079051535452663
1040
4.148538732891836
1040
0.0
1002
}
  0
ENDBLK
  5
AA57
330
A333
100
AcDbEntity
  8
0
100
AcDbBlockEnd
  0
BLOCK
  5
B8C6
330
B738
100
AcDbEntity
  8
0
100
AcDbBlockBegin
  2
*X79
 70
     1
 10
0.0
 20
0.0
 30
0.0
  3
*X79
  1

  0
LINE
  5
B739
330
B738
100
AcDbEntity
  8
0
  6
CONTINUOUS
100
AcDbLine
 10
3.418023043697893
 20
7.251849696850613
 30
0.0
 11
4.929273346838536
 21
8.763099999991255
 31
0.0
  0
LINE
  5
B73A
330
B738
100
AcDbEntity
  8
0
  6
CONTINUOUS
100
AcDbLine
 10
1.483656411257782
 20
4.643963855330318
 30
0.0
 11
5.60279255591872
 21
8.763099999991255
 31
0.0
  0
LINE
  5
B73B
330
B738
100
AcDbEntity
  8
0
  6
CONTINUOUS
100
AcDbLine
 10
1.755053947328235
 20
4.241842182320584
 30
0.0
 11
6.276311764998907
 21
8.763099999991255
 31
0.0
  0
LINE
  5
B73C
330
B738
100
AcDbEntity
  8
0
  6
CONTINUOUS
100
AcDbLine
 10
2.026451483398688
 20
3.839720509310849
 30
0.0
 11
4.441040904851878
 21
6.254309930764039
 31
0.0
  0
LINE
  5
B73D
330
B738
100
AcDbEntity
  8
0
  6
CONTINUOUS
100
AcDbLine
 10
2.297849019469139
 20
3.437598836301114
 30
0.0
 11
3.321765168359338
 21
4.461514985191313
 31
0.0
  0
LINE
  5
B73E
330
B738
100
AcDbEntity
  8
0
  6
CONTINUOUS
100
AcDbLine
 10
2.569246555539591
 20
3.03547716329138
 30
0.0
 11
3.593163397972743
 21
4.059394005724531
 31
0.0
  0
LINE
  5
B73F
330
B738
100
AcDbEntity
  8
0
  6
CONTINUOUS
100
AcDbLine
 10
2.840644091610043
 20
2.633355490281646
 30
0.0
 11
3.864561627586149
 21
3.657273026257751
 31
0.0
  0
LINE
  5
B740
330
B738
100
AcDbEntity
  8
0
  6
CONTINUOUS
100
AcDbLine
 10
3.112041627680496
 20
2.231233817271911
 30
0.0
 11
4.135959857199554
 21
3.25515204679097
 31
0.0
  0
LINE
  5
B741
330
B738
100
AcDbEntity
  8
0
  6
CONTINUOUS
100
AcDbLine
 10
3.383439163750948
 20
1.829112144262177
 30
0.0
 11
4.40735808681296
 21
2.853031067324189
 31
0.0
  0
LINE
  5
B742
330
B738
100
AcDbEntity
  8
0
  6
CONTINUOUS
100
AcDbLine
 10
3.654836699821399
 20
1.426990471252442
 30
0.0
 11
4.678756316426365
 21
2.450910087857407
 31
0.0
  0
LINE
  5
B743
330
B738
100
AcDbEntity
  8
0
  6
CONTINUOUS
100
AcDbLine
 10
3.926234235891853
 20
1.024868798242709
 30
0.0
 11
4.95015454603977
 21
2.048789108390626
 31
0.0
  0
LINE
  5
B744
330
B738
100
AcDbEntity
  8
0
  6
CONTINUOUS
100
AcDbLine
 10
4.197631771962304
 20
0.6227471252329737
 30
0.0
 11
5.221552775653176
 21
1.646668128923846
 31
0.0
  0
LINE
  5
B745
330
B738
100
AcDbEntity
  8
0
  6
CONTINUOUS
100
AcDbLine
 10
8.715877546767851
 20
7.835069736359266
 30
0.0
 11
9.435953450375058
 21
8.555145639966472
 31
0.0
  0
LINE
  5
B746
330
B738
100
AcDbEntity
  8
0
  6
CONTINUOUS
100
AcDbLine
 10
8.170620868422267
 20
6.616293848933497
 30
0.0
 11
9.644120833743461
 21
8.08979381425469
 31
0.0
  0
LINE
  5
B747
330
B738
100
AcDbEntity
  8
0
  6
CONTINUOUS
100
AcDbLine
 10
7.625364190076684
 20
5.397517961507727
 30
0.0
 11
9.852288217111864
 21
7.624441988542907
 31
0.0
  0
LINE
  5
B748
330
B738
100
AcDbEntity
  8
0
  6
CONTINUOUS
100
AcDbLine
 10
7.080107511731101
 20
4.178742074081957
 30
0.0
 11
10.06045560048027
 21
7.159090162831124
 31
0.0
  0
LINE
  5
B749
330
B738
100
AcDbEntity
  8
0
  6
CONTINUOUS
100
AcDbLine
 10
6.534850833385518
 20
2.959966186656187
 30
0.0
 11
10.26862298384867
 21
6.693738337119342
 31
0.0
  0
LINE
  5
B74A
330
B738
100
AcDbEntity
  8
0
  6
CONTINUOUS
100
AcDbLine
 10
4.469029308032756
 20
0.2206254522232385
 30
0.0
 11
5.492951005266582
 21
1.244547149457064
 31
0.0
  0
LINE
  5
B74B
330
B738
100
AcDbEntity
  8
0
  6
CONTINUOUS
100
AcDbLine
 10
5.989594155039935
 20
1.741190299230417
 30
0.0
 11
8.806950407233131
 21
4.558546551423613
 31
0.0
  0
LINE
  5
B74C
330
B738
100
AcDbEntity
  8
0
  6
CONTINUOUS
100
AcDbLine
 10
9.401251593263643
 20
5.152847737454126
 30
0.0
 11
10.47679036721708
 21
6.228386511407559
 31
0.0
  0
LINE
  5
B74D
330
B738
100
AcDbEntity
  8
0
  6
CONTINUOUS
100
AcDbLine
 10
4.921837203428691
 20
-0.0000858614610131
 30
0.0
 11
8.592923064886001
 21
3.670999999996297
 31
0.0
  0
LINE
  5
B74E
330
B738
100
AcDbEntity
  8
0
  6
CONTINUOUS
100
AcDbLine
 10
9.609390446785305
 20
4.6874673818956
 30
0.0
 11
10.68495775058548
 21
5.763034685695775
 31
0.0
  0
LINE
  5
B74F
330
B738
100
AcDbEntity
  8
0
  6
CONTINUOUS
100
AcDbLine
 10
5.595387755019432
 20
-0.0000545189504582
 30
0.0
 11
7.716137258923768
 21
2.120694984953879
 31
0.0
  0
LINE
  5
B750
330
B738
100
AcDbEntity
  8
0
  6
CONTINUOUS
100
AcDbLine
 10
6.268938306610172
 20
-0.000023176439905
 30
0.0
 11
7.170485805526503
 21
0.9015243224764267
 31
0.0
  0
LINE
  5
B751
330
B738
100
AcDbEntity
  8
0
  6
CONTINUOUS
100
AcDbLine
 10
7.963842273967511
 20
2.368399999997621
 30
0.0
 11
9.266442273966188
 21
3.670999999996297
 31
0.0
  0
LINE
  5
B752
330
B738
100
AcDbEntity
  8
0
  6
CONTINUOUS
100
AcDbLine
 10
8.637361483047696
 20
2.368399999997621
 30
0.0
 11
9.939961483046375
 21
3.670999999996297
 31
0.0
  0
LINE
  5
B753
330
B738
100
AcDbEntity
  8
0
  6
CONTINUOUS
100
AcDbLine
 10
9.817529300306965
 20
4.222087026337075
 30
0.0
 11
10.89312513395388
 21
5.297682859983993
 31
0.0
  0
LINE
  5
B754
330
B738
100
AcDbEntity
  8
0
  6
CONTINUOUS
100
AcDbLine
 10
10.02566815382863
 20
3.756706670778549
 30
0.0
 11
11.10129251732229
 21
4.832331034272211
 31
0.0
  0
LINE
  5
B755
330
B738
100
AcDbEntity
  8
0
  6
CONTINUOUS
100
AcDbLine
 10
9.310880692127883
 20
2.368399999997621
 30
0.0
 11
11.30945990069069
 21
4.366979208560428
 31
0.0
  0
LINE
  5
B756
330
B738
100
AcDbEntity
  8
0
  6
CONTINUOUS
100
AcDbLine
 10
9.98439990120807
 20
2.36839999999762
 30
0.0
 11
11.5176272840591
 21
3.901627382848645
 31
0.0
  0
LINE
  5
B757
330
B738
100
AcDbEntity
  8
0
  6
CONTINUOUS
100
AcDbLine
 10
10.65037369446246
 20
2.36085458417182
 30
0.0
 11
11.7257946674275
 21
3.436275557136862
 31
0.0
  0
LINE
  5
B758
330
B738
100
AcDbEntity
  8
0
  6
CONTINUOUS
100
AcDbLine
 10
10.85847197087848
 20
1.895433651507656
 30
0.0
 11
11.9339620507959
 21
2.97092373142508
 31
0.0
  0
LINE
  5
B759
330
B738
100
AcDbEntity
  8
0
  6
CONTINUOUS
100
AcDbLine
 10
11.0665702472945
 20
1.430012718843491
 30
0.0
 11
12.14212943416431
 21
2.505571905713296
 31
0.0
  0
LINE
  5
B75A
330
B738
100
AcDbEntity
  8
0
  6
CONTINUOUS
100
AcDbLine
 10
11.27466852371052
 20
0.9645917861793256
 30
0.0
 11
12.35029681753271
 21
2.040220080001513
 31
0.0
  0
LINE
  5
B75B
330
B738
100
AcDbEntity
  8
0
  6
CONTINUOUS
100
AcDbLine
 10
11.48276680012654
 20
0.4991708535151611
 30
0.0
 11
12.55846420090111
 21
1.57486825428973
 31
0.0
  0
LINE
  5
B75C
330
B738
100
AcDbEntity
  8
0
  6
CONTINUOUS
100
AcDbLine
 10
11.69086507654257
 20
0.0337499208509957
 30
0.0
 11
12.76663158426952
 21
1.109516428577947
 31
0.0
  0
LINE
  5
B75D
330
B738
100
AcDbEntity
  8
0
  6
CONTINUOUS
100
AcDbLine
 10
12.33057447873954
 20
-0.0000598860322123
 30
0.0
 11
12.97479896763792
 21
0.6441646028661663
 31
0.0
  0
LINE
  5
B75E
330
B738
100
AcDbEntity
  8
0
  6
CONTINUOUS
100
AcDbLine
 10
13.00413694809395
 20
-0.0000166257579952
 30
0.0
 11
13.18296635100632
 21
0.1788127771543824
 31
0.0
  0
LINE
  5
B75F
330
B738
100
AcDbEntity
  8
0
  6
CONTINUOUS
100
AcDbLine
 10
4.772852165289667
 20
-0.000092794222212
 30
0.0
 11
4.296495091028902
 21
0.4762642800385528
 31
0.0
  0
LINE
  5
B760
330
B738
100
AcDbEntity
  8
0
  6
CONTINUOUS
100
AcDbLine
 10
5.446340034776103
 20
-0.0000614546284616
 30
0.0
 11
2.898195908335625
 21
2.548082671812017
 31
0.0
  0
LINE
  5
B761
330
B738
100
AcDbEntity
  8
0
  6
CONTINUOUS
100
AcDbLine
 10
6.119827904262539
 20
-0.0000301150347113
 30
0.0
 11
1.499896725642348
 21
4.61990106358548
 31
0.0
  0
LINE
  5
B762
330
B738
100
AcDbEntity
  8
0
  6
CONTINUOUS
100
AcDbLine
 10
6.775136745476159
 20
0.0181802528318542
 30
0.0
 11
5.699826040202669
 21
1.093490958105344
 31
0.0
  0
LINE
  5
B763
330
B738
100
AcDbEntity
  8
0
  6
CONTINUOUS
100
AcDbLine
 10
6.983376846288489
 20
0.4834593610997118
 30
0.0
 11
5.908008617934405
 21
1.558827589453796
 31
0.0
  0
LINE
  5
B764
330
B738
100
AcDbEntity
  8
0
  6
CONTINUOUS
100
AcDbLine
 10
5.377063484962296
 20
1.416253513345719
 30
0.0
 11
1.702276957014131
 21
5.091040041293883
 31
0.0
  0
LINE
  5
B765
330
B738
100
AcDbEntity
  8
0
  6
CONTINUOUS
100
AcDbLine
 10
3.978745891735324
 20
3.488090315652877
 30
0.0
 11
2.000373521109399
 21
5.466462686278803
 31
0.0
  0
LINE
  5
B766
330
B738
100
AcDbEntity
  8
0
  6
CONTINUOUS
100
AcDbLine
 10
7.191616947100819
 20
0.948738469367568
 30
0.0
 11
6.11619119566614
 21
2.024164220802247
 31
0.0
  0
LINE
  5
B767
330
B738
100
AcDbEntity
  8
0
  6
CONTINUOUS
100
AcDbLine
 10
7.399857047913149
 20
1.414017577635424
 30
0.0
 11
6.324373773397875
 21
2.489500852150698
 31
0.0
  0
LINE
  5
B768
330
B738
100
AcDbEntity
  8
0
  6
CONTINUOUS
100
AcDbLine
 10
7.608097148725479
 20
1.879296685903281
 30
0.0
 11
6.53255635112961
 21
2.95483748349915
 31
0.0
  0
LINE
  5
B769
330
B738
100
AcDbEntity
  8
0
  6
CONTINUOUS
100
AcDbLine
 10
7.816337249537808
 20
2.344575794171138
 30
0.0
 11
6.740738928861345
 21
3.420174114847601
 31
0.0
  0
LINE
  5
B76A
330
B738
100
AcDbEntity
  8
0
  6
CONTINUOUS
100
AcDbLine
 10
3.310241080789734
 20
4.830114335678653
 30
0.0
 11
2.298470085204666
 21
5.84188533126372
 31
0.0
  0
LINE
  5
B76B
330
B738
100
AcDbEntity
  8
0
  6
CONTINUOUS
100
AcDbLine
 10
3.60832983563551
 20
5.205544789913063
 30
0.0
 11
2.596566649299935
 21
6.217307976248638
 31
0.0
  0
LINE
  5
B76C
330
B738
100
AcDbEntity
  8
0
  6
CONTINUOUS
100
AcDbLine
 10
3.906418590481286
 20
5.580975244147473
 30
0.0
 11
2.894663213395203
 21
6.592730621233557
 31
0.0
  0
LINE
  5
B76D
330
B738
100
AcDbEntity
  8
0
  6
CONTINUOUS
100
AcDbLine
 10
4.204507345327062
 20
5.956405698381884
 30
0.0
 11
3.192759777490472
 21
6.968153266218474
 31
0.0
  0
LINE
  5
B76E
330
B738
100
AcDbEntity
  8
0
  6
CONTINUOUS
100
AcDbLine
 10
8.466032252791512
 20
2.368399999997621
 30
0.0
 11
6.948921506593081
 21
3.885510746196053
 31
0.0
  0
LINE
  5
B76F
330
B738
100
AcDbEntity
  8
0
  6
CONTINUOUS
100
AcDbLine
 10
9.139551461871699
 20
2.36839999999762
 30
0.0
 11
7.157104084324816
 21
4.350847377544504
 31
0.0
  0
LINE
  5
B770
330
B738
100
AcDbEntity
  8
0
  6
CONTINUOUS
100
AcDbLine
 10
4.502596100172839
 20
6.331836152616295
 30
0.0
 11
3.49085634158574
 21
7.343575911203393
 31
0.0
  0
LINE
  5
B771
330
B738
100
AcDbEntity
  8
0
  6
CONTINUOUS
100
AcDbLine
 10
4.800684855018615
 20
6.707266606850705
 30
0.0
 11
3.788952905681008
 21
7.718998556188312
 31
0.0
  0
LINE
  5
B772
330
B738
100
AcDbEntity
  8
0
  6
CONTINUOUS
100
AcDbLine
 10
12.18154012887317
 20
-0.0000694579236642
 30
0.0
 11
11.32140332908496
 21
0.8600673418645499
 31
0.0
  0
LINE
  5
B773
330
B738
100
AcDbEntity
  8
0
  6
CONTINUOUS
100
AcDbLine
 10
12.85501608323566
 20
-0.0000262032059659
 30
0.0
 11
10.77672456435345
 21
2.078265315676246
 31
0.0
  0
LINE
  5
B774
330
B738
100
AcDbEntity
  8
0
  6
CONTINUOUS
100
AcDbLine
 10
9.813070670951886
 20
2.36839999999762
 30
0.0
 11
8.51047067095321
 21
3.670999999996297
 31
0.0
  0
LINE
  5
B775
330
B738
100
AcDbEntity
  8
0
  6
CONTINUOUS
100
AcDbLine
 10
10.48658988003207
 20
2.36839999999762
 30
0.0
 11
9.183989880033396
 21
3.670999999996297
 31
0.0
  0
LINE
  5
B776
330
B738
100
AcDbEntity
  8
0
  6
CONTINUOUS
100
AcDbLine
 10
8.441048632286794
 20
3.740422038662712
 30
0.0
 11
7.365286662056551
 21
4.816184008892956
 31
0.0
  0
LINE
  5
B777
330
B738
100
AcDbEntity
  8
0
  6
CONTINUOUS
100
AcDbLine
 10
8.649187485808454
 20
4.205802394221237
 30
0.0
 11
7.573469239788285
 21
5.281520640241407
 31
0.0
  0
LINE
  5
B778
330
B738
100
AcDbEntity
  8
0
  6
CONTINUOUS
100
AcDbLine
 10
5.098773609864391
 20
7.082697061085115
 30
0.0
 11
4.087049469776277
 21
8.09442120117323
 31
0.0
  0
LINE
  5
B779
330
B738
100
AcDbEntity
  8
0
  6
CONTINUOUS
100
AcDbLine
 10
5.396862364710167
 20
7.458127515319526
 30
0.0
 11
4.385146033871544
 21
8.469843846158149
 31
0.0
  0
LINE
  5
B77A
330
B738
100
AcDbEntity
  8
0
  6
CONTINUOUS
100
AcDbLine
 10
13.04801363231285
 20
0.4804954567970334
 30
0.0
 11
9.85750908911358
 21
3.670999999996297
 31
0.0
  0
LINE
  5
B77B
330
B738
100
AcDbEntity
  8
0
  6
CONTINUOUS
100
AcDbLine
 10
8.857326339330116
 20
4.671182749779763
 30
0.0
 11
7.781651817520021
 21
5.746857271589858
 31
0.0
  0
LINE
  5
B77C
330
B738
100
AcDbEntity
  8
0
  6
CONTINUOUS
100
AcDbLine
 10
5.694951119555943
 20
7.833557969553937
 30
0.0
 11
4.765409089118624
 21
8.763099999991255
 31
0.0
  0
LINE
  5
B77D
330
B738
100
AcDbEntity
  8
0
  6
CONTINUOUS
100
AcDbLine
 10
12.50286117236978
 20
1.699167125820288
 30
0.0
 11
9.68611877250287
 21
4.515909525687196
 31
0.0
  0
LINE
  5
B77E
330
B738
100
AcDbEntity
  8
0
  6
CONTINUOUS
100
AcDbLine
 10
9.065465192851777
 20
5.136563105338288
 30
0.0
 11
7.989834395251757
 21
6.21219390293831
 31
0.0
  0
LINE
  5
B77F
330
B738
100
AcDbEntity
  8
0
  6
CONTINUOUS
100
AcDbLine
 10
5.993039874401719
 20
8.208988423788346
 30
0.0
 11
5.43892829819881
 21
8.763099999991255
 31
0.0
  0
LINE
  5
B780
330
B738
100
AcDbEntity
  8
0
  6
CONTINUOUS
100
AcDbLine
 10
11.95770871242671
 20
2.917838794843543
 30
0.0
 11
8.19801697298349
 21
6.677530534286761
 31
0.0
  0
LINE
  5
B781
330
B738
100
AcDbEntity
  8
0
  6
CONTINUOUS
100
AcDbLine
 10
6.291128629247495
 20
8.584418878022756
 30
0.0
 11
6.112447507278997
 21
8.763099999991255
 31
0.0
  0
LINE
  5
B782
330
B738
100
AcDbEntity
  8
0
  6
CONTINUOUS
100
AcDbLine
 10
11.41255625248364
 20
4.136510463866797
 30
0.0
 11
8.406199550715227
 21
7.142867165635211
 31
0.0
  0
LINE
  5
B783
330
B738
100
AcDbEntity
  8
0
  6
CONTINUOUS
100
AcDbLine
 10
10.86740379254057
 20
5.355182132890051
 30
0.0
 11
8.614382128446962
 21
7.608203796983664
 31
0.0
  0
LINE
  5
B784
330
B738
100
AcDbEntity
  8
0
  6
CONTINUOUS
100
AcDbLine
 10
10.3222513325975
 20
6.573853801913305
 30
0.0
 11
8.822564706178696
 21
8.073540428332114
 31
0.0
  0
LINE
  5
B785
330
B738
100
AcDbEntity
  8
0
  6
CONTINUOUS
100
AcDbLine
 10
9.777098872654436
 20
7.792525470936562
 30
0.0
 11
9.030747283910433
 21
8.538877059680566
 31
0.0
  0
ENDBLK
  5
B8C7
330
B738
100
AcDbEntity
  8
0
100
AcDbBlockEnd
  0
BLOCK
  5
B8C8
330
B786
100
AcDbEntity
  8
0
100
AcDbBlockBegin
  2
*X80
 70
     1
 10
0.0
 20
0.0
 30
0.0
  3
*X80
  1

  0
LINE
  5
B787
330
B786
100
AcDbEntity
  8
0
  6
CONTINUOUS
100
AcDbLine
 10
10.67292308101235
 20
8.445076852443387
 30
0.0
 11
10.99094622856022
 21
8.763099999991255
 31
0.0
  0
LINE
  5
B788
330
B786
100
AcDbEntity
  8
0
  6
CONTINUOUS
100
AcDbLine
 10
10.87250383178748
 20
7.971138394138331
 30
0.0
 11
11.6644654376404
 21
8.763099999991255
 31
0.0
  0
LINE
  5
B789
330
B786
100
AcDbEntity
  8
0
  6
CONTINUOUS
100
AcDbLine
 10
11.07208458256261
 20
7.497199935833273
 30
0.0
 11
12.12126590876355
 21
8.546381262034211
 31
0.0
  0
LINE
  5
B78A
330
B786
100
AcDbEntity
  8
0
  6
CONTINUOUS
100
AcDbLine
 10
11.27166533333774
 20
7.023261477528216
 30
0.0
 11
12.32085164573666
 21
8.072447789927136
 31
0.0
  0
LINE
  5
B78B
330
B786
100
AcDbEntity
  8
0
  6
CONTINUOUS
100
AcDbLine
 10
11.47124608411287
 20
6.549323019223158
 30
0.0
 11
12.52043738270977
 21
7.59851431782006
 31
0.0
  0
LINE
  5
B78C
330
B786
100
AcDbEntity
  8
0
  6
CONTINUOUS
100
AcDbLine
 10
11.670826834888
 20
6.075384560918101
 30
0.0
 11
12.72002311968288
 21
7.124580845712984
 31
0.0
  0
LINE
  5
B78D
330
B786
100
AcDbEntity
  8
0
  6
CONTINUOUS
100
AcDbLine
 10
11.87040758566313
 20
5.601446102613043
 30
0.0
 11
12.91960885665599
 21
6.650647373605907
 31
0.0
  0
LINE
  5
B78E
330
B786
100
AcDbEntity
  8
0
  6
CONTINUOUS
100
AcDbLine
 10
12.06998833643825
 20
5.127507644307986
 30
0.0
 11
13.1191945936291
 21
6.176713901498832
 31
0.0
  0
LINE
  5
B78F
330
B786
100
AcDbEntity
  8
0
  6
CONTINUOUS
100
AcDbLine
 10
12.26956908721338
 20
4.65356918600293
 30
0.0
 11
13.31878033060221
 21
5.702780429391757
 31
0.0
  0
LINE
  5
B790
330
B786
100
AcDbEntity
  8
0
  6
CONTINUOUS
100
AcDbLine
 10
12.46914983798851
 20
4.179630727697873
 30
0.0
 11
13.51836606757532
 21
5.228846957284683
 31
0.0
  0
LINE
  5
B791
330
B786
100
AcDbEntity
  8
0
  6
CONTINUOUS
100
AcDbLine
 10
12.66873058876364
 20
3.705692269392816
 30
0.0
 11
13.71795180454843
 21
4.754913485177607
 31
0.0
  0
LINE
  5
B792
330
B786
100
AcDbEntity
  8
0
  6
CONTINUOUS
100
AcDbLine
 10
12.86831133953877
 20
3.231753811087759
 30
0.0
 11
13.91753754152154
 21
4.280980013070531
 31
0.0
  0
LINE
  5
B793
330
B786
100
AcDbEntity
  8
0
  6
CONTINUOUS
100
AcDbLine
 10
13.0678920903139
 20
2.757815352782702
 30
0.0
 11
14.11712327849465
 21
3.807046540963456
 31
0.0
  0
LINE
  5
B794
330
B786
100
AcDbEntity
  8
0
  6
CONTINUOUS
100
AcDbLine
 10
13.26747284108903
 20
2.283876894477644
 30
0.0
 11
14.31670901546777
 21
3.333113068856379
 31
0.0
  0
LINE
  5
B795
330
B786
100
AcDbEntity
  8
0
  6
CONTINUOUS
100
AcDbLine
 10
16.36767838827179
 20
8.751678487061342
 30
0.0
 11
16.50332410898388
 21
8.887324207773432
 31
0.0
  0
LINE
  5
B796
330
B786
100
AcDbEntity
  8
0
  6
CONTINUOUS
100
AcDbLine
 10
15.96190732182191
 20
7.67238821153127
 30
0.0
 11
16.68735328004734
 21
8.397834169756699
 31
0.0
  0
LINE
  5
B797
330
B786
100
AcDbEntity
  8
0
  6
CONTINUOUS
100
AcDbLine
 10
15.55613625537202
 20
6.593097936001196
 30
0.0
 11
16.87138245111079
 21
7.908344131739965
 31
0.0
  0
LINE
  5
B798
330
B786
100
AcDbEntity
  8
0
  6
CONTINUOUS
100
AcDbLine
 10
15.15036518892213
 20
5.513807660471122
 30
0.0
 11
17.05541162217424
 21
7.418854093723231
 31
0.0
  0
LINE
  5
B799
330
B786
100
AcDbEntity
  8
0
  6
CONTINUOUS
100
AcDbLine
 10
14.74459412247225
 20
4.434517384941048
 30
0.0
 11
17.2394407932377
 21
6.929364055706499
 31
0.0
  0
LINE
  5
B79A
330
B786
100
AcDbEntity
  8
0
  6
CONTINUOUS
100
AcDbLine
 10
14.33882305602236
 20
3.355227109410975
 30
0.0
 11
17.42346996430115
 21
6.439874017689766
 31
0.0
  0
LINE
  5
B79B
330
B786
100
AcDbEntity
  8
0
  6
CONTINUOUS
100
AcDbLine
 10
13.46705359186416
 20
1.809938436172586
 30
0.0
 11
16.0819338255367
 21
4.424818669845129
 31
0.0
  0
LINE
  5
B79C
330
B786
100
AcDbEntity
  8
0
  6
CONTINUOUS
100
AcDbLine
 10
16.63283254238972
 20
4.975717386698149
 30
0.0
 11
17.60749913536461
 21
5.950383979673033
 31
0.0
  0
LINE
  5
B79D
330
B786
100
AcDbEntity
  8
0
  6
CONTINUOUS
100
AcDbLine
 10
13.66663434263929
 20
1.335999977867529
 30
0.0
 11
15.67604797733754
 21
3.345413612565779
 31
0.0
  0
LINE
  5
B79E
330
B786
100
AcDbEntity
  8
0
  6
CONTINUOUS
100
AcDbLine
 10
13.86621509341442
 20
0.8620615195624723
 30
0.0
 11
15.27016212913838
 21
2.26600855528643
 31
0.0
  0
LINE
  5
B79F
330
B786
100
AcDbEntity
  8
0
  6
CONTINUOUS
100
AcDbLine
 10
16.81682257348267
 20
4.486188208710908
 30
0.0
 11
17.79152830642806
 21
5.460893941656299
 31
0.0
  0
LINE
  5
B7A0
330
B786
100
AcDbEntity
  8
0
  6
CONTINUOUS
100
AcDbLine
 10
17.00081260457561
 20
3.996659030723667
 30
0.0
 11
17.97555747749151
 21
4.971403903639565
 31
0.0
  0
LINE
  5
B7A1
330
B786
100
AcDbEntity
  8
0
  6
CONTINUOUS
100
AcDbLine
 10
20.74362343514722
 20
8.412989070375462
 30
0.0
 11
21.09373436476302
 21
8.763099999991256
 31
0.0
  0
LINE
  5
B7A2
330
B786
100
AcDbEntity
  8
0
  6
CONTINUOUS
100
AcDbLine
 10
20.25401257174777
 20
7.249858997895826
 30
0.0
 11
21.7672535738432
 21
8.763099999991255
 31
0.0
  0
LINE
  5
B7A3
330
B786
100
AcDbEntity
  8
0
  6
CONTINUOUS
100
AcDbLine
 10
14.06579584418955
 20
0.3881230612574149
 30
0.0
 11
14.86427628093921
 21
1.186603498007082
 31
0.0
  0
LINE
  5
B7A4
330
B786
100
AcDbEntity
  8
0
  6
CONTINUOUS
100
AcDbLine
 10
14.26537659496467
 20
-0.0858153970476412
 30
0.0
 11
14.45839043274005
 21
0.1071984407277329
 31
0.0
  0
LINE
  5
B7A5
330
B786
100
AcDbEntity
  8
0
  6
CONTINUOUS
100
AcDbLine
 10
17.18480263566856
 20
3.507129852736426
 30
0.0
 11
18.15958664855496
 21
4.481913865622833
 31
0.0
  0
LINE
  5
B7A6
330
B786
100
AcDbEntity
  8
0
  6
CONTINUOUS
100
AcDbLine
 10
17.3687926667615
 20
3.017600674749186
 30
0.0
 11
18.34361581961842
 21
3.9924238276061
 31
0.0
  0
LINE
  5
B7A7
330
B786
100
AcDbEntity
  8
0
  6
CONTINUOUS
100
AcDbLine
 10
19.76440170834832
 20
6.086728925416191
 30
0.0
 11
22.33924590259489
 21
8.661573119662755
 31
0.0
  0
LINE
  5
B7A8
330
B786
100
AcDbEntity
  8
0
  6
CONTINUOUS
100
AcDbLine
 10
19.27479084494887
 20
4.923598852936555
 30
0.0
 11
21.84929622842713
 21
7.498104236414807
 31
0.0
  0
LINE
  5
B7A9
330
B786
100
AcDbEntity
  8
0
  6
CONTINUOUS
100
AcDbLine
 10
17.55278269785445
 20
2.528071496761945
 30
0.0
 11
18.52764499068187
 21
3.502933789589366
 31
0.0
  0
LINE
  5
B7AA
330
B786
100
AcDbEntity
  8
0
  6
CONTINUOUS
100
AcDbLine
 10
18.78517998154942
 20
3.760468780456919
 30
0.0
 11
21.35934655425936
 21
6.33463535316686
 31
0.0
  0
LINE
  5
B7AB
330
B786
100
AcDbEntity
  8
0
  6
CONTINUOUS
100
AcDbLine
 10
17.73677272894739
 20
2.038542318774704
 30
0.0
 11
20.8693968800916
 21
5.171166469918914
 31
0.0
  0
LINE
  5
B7AC
330
B786
100
AcDbEntity
  8
0
  6
CONTINUOUS
100
AcDbLine
 10
17.92076276004034
 20
1.549013140787464
 30
0.0
 11
20.37944720592384
 21
4.007697586670968
 31
0.0
  0
LINE
  5
B7AD
330
B786
100
AcDbEntity
  8
0
  6
CONTINUOUS
100
AcDbLine
 10
18.10475279113329
 20
1.059483962800223
 30
0.0
 11
19.88949753175608
 21
2.84422870342302
 31
0.0
  0
LINE
  5
B7AE
330
B786
100
AcDbEntity
  8
0
  6
CONTINUOUS
100
AcDbLine
 10
18.28874282222623
 20
0.5699547848129822
 30
0.0
 11
19.39954785758832
 21
1.680759820175074
 31
0.0
  0
LINE
  5
B7AF
330
B786
100
AcDbEntity
  8
0
  6
CONTINUOUS
100
AcDbLine
 10
18.47273285331918
 20
0.0804256068257416
 30
0.0
 11
18.90959818342056
 21
0.517290936927127
 31
0.0
  0
LINE
  5
B7B0
330
B786
100
AcDbEntity
  8
0
  6
CONTINUOUS
100
AcDbLine
 10
14.3590401358224
 20
-0.1570118376323384
 30
0.0
 11
14.24903296539946
 21
-0.0470046672093929
 31
0.0
  0
LINE
  5
B7B1
330
B786
100
AcDbEntity
  8
0
  6
CONTINUOUS
100
AcDbLine
 10
14.54309291258661
 20
0.332454594683643
 30
0.0
 11
13.75908329123172
 21
1.116464216038529
 31
0.0
  0
LINE
  5
B7B2
330
B786
100
AcDbEntity
  8
0
  6
CONTINUOUS
100
AcDbLine
 10
14.72714568935081
 20
0.8219210269996244
 30
0.0
 11
13.26913361706399
 21
2.27993309928645
 31
0.0
  0
LINE
  5
B7B3
330
B786
100
AcDbEntity
  8
0
  6
CONTINUOUS
100
AcDbLine
 10
14.91119846611502
 20
1.311387459315606
 30
0.0
 11
12.77918394289625
 21
3.443401982534371
 31
0.0
  0
LINE
  5
B7B4
330
B786
100
AcDbEntity
  8
0
  6
CONTINUOUS
100
AcDbLine
 10
15.09525124287922
 20
1.800853891631587
 30
0.0
 11
12.28923426872852
 21
4.606870865782293
 31
0.0
  0
LINE
  5
B7B5
330
B786
100
AcDbEntity
  8
0
  6
CONTINUOUS
100
AcDbLine
 10
15.27930401964343
 20
2.290320323947569
 30
0.0
 11
11.79928459456078
 21
5.770339749030213
 31
0.0
  0
LINE
  5
B7B6
330
B786
100
AcDbEntity
  8
0
  6
CONTINUOUS
100
AcDbLine
 10
15.46335679640763
 20
2.77978675626355
 30
0.0
 11
14.48885470994921
 21
3.754288842721972
 31
0.0
  0
LINE
  5
B7B7
330
B786
100
AcDbEntity
  8
0
  6
CONTINUOUS
100
AcDbLine
 10
13.88507249233704
 20
4.358071060334137
 30
0.0
 11
11.30933492039305
 21
6.933808632278135
 31
0.0
  0
LINE
  5
B7B8
330
B786
100
AcDbEntity
  8
0
  6
CONTINUOUS
100
AcDbLine
 10
18.75840522805855
 20
0.1582575336928151
 30
0.0
 11
18.25383727664818
 21
0.6628254851031863
 31
0.0
  0
LINE
  5
B7B9
330
B786
100
AcDbEntity
  8
0
  6
CONTINUOUS
100
AcDbLine
 10
15.64740957317184
 20
3.269253188579531
 30
0.0
 11
14.67288388101266
 21
4.243778880738705
 31
0.0
  0
LINE
  5
B7BA
330
B786
100
AcDbEntity
  8
0
  6
CONTINUOUS
100
AcDbLine
 10
13.39509276772158
 20
5.521569994029786
 30
0.0
 11
10.81938524622531
 21
8.097277515526056
 31
0.0
  0
LINE
  5
B7BB
330
B786
100
AcDbEntity
  8
0
  6
CONTINUOUS
100
AcDbLine
 10
18.95798597883369
 20
0.6321959919978686
 30
0.0
 11
17.84825644852853
 21
1.741925522303024
 31
0.0
  0
LINE
  5
B7BC
330
B786
100
AcDbEntity
  8
0
  6
CONTINUOUS
100
AcDbLine
 10
19.15756672960882
 20
1.106134450302922
 30
0.0
 11
17.44267562040888
 21
2.821025559502861
 31
0.0
  0
LINE
  5
B7BD
330
B786
100
AcDbEntity
  8
0
  6
CONTINUOUS
100
AcDbLine
 10
15.83146234993604
 20
3.758719620895513
 30
0.0
 11
14.85691305207612
 21
4.733268918755439
 31
0.0
  0
LINE
  5
B7BE
330
B786
100
AcDbEntity
  8
0
  6
CONTINUOUS
100
AcDbLine
 10
16.01551512670025
 20
4.248186053211494
 30
0.0
 11
15.04094222313957
 21
5.222758956772172
 31
0.0
  0
LINE
  5
B7BF
330
B786
100
AcDbEntity
  8
0
  6
CONTINUOUS
100
AcDbLine
 10
12.90511304310612
 20
6.685068927725435
 30
0.0
 11
10.8270819708403
 21
8.763099999991255
 31
0.0
  0
LINE
  5
B7C0
330
B786
100
AcDbEntity
  8
0
  6
CONTINUOUS
100
AcDbLine
 10
12.41513331849066
 20
7.848567861421083
 30
0.0
 11
11.50060117992049
 21
8.763099999991255
 31
0.0
  0
LINE
  5
B7C1
330
B786
100
AcDbEntity
  8
0
  6
CONTINUOUS
100
AcDbLine
 10
19.35714748038395
 20
1.580072908607975
 30
0.0
 11
17.03709479228923
 21
3.900125596702697
 31
0.0
  0
LINE
  5
B7C2
330
B786
100
AcDbEntity
  8
0
  6
CONTINUOUS
100
AcDbLine
 10
19.55672823115909
 20
2.054011366913028
 30
0.0
 11
16.63151396416958
 21
4.979225633902534
 31
0.0
  0
LINE
  5
B7C3
330
B786
100
AcDbEntity
  8
0
  6
CONTINUOUS
100
AcDbLine
 10
16.19956790346445
 20
4.737652485527476
 30
0.0
 11
15.22497139420302
 21
5.712248994788904
 31
0.0
  0
LINE
  5
B7C4
330
B786
100
AcDbEntity
  8
0
  6
CONTINUOUS
100
AcDbLine
 10
16.38362068022866
 20
5.227118917843457
 30
0.0
 11
15.40900056526648
 21
6.201739032805637
 31
0.0
  0
LINE
  5
B7C5
330
B786
100
AcDbEntity
  8
0
  6
CONTINUOUS
100
AcDbLine
 10
19.75630898193422
 20
2.527949825218081
 30
0.0
 11
18.70774536448286
 21
3.576513442669441
 31
0.0
  0
LINE
  5
B7C6
330
B786
100
AcDbEntity
  8
0
  6
CONTINUOUS
100
AcDbLine
 10
19.95588973270936
 20
3.001888283523134
 30
0.0
 11
18.90726987211446
 21
4.050508144118028
 31
0.0
  0
LINE
  5
B7C7
330
B786
100
AcDbEntity
  8
0
  6
CONTINUOUS
100
AcDbLine
 10
20.15547048348449
 20
3.475826741828186
 30
0.0
 11
19.10679437974606
 21
4.524502845566614
 31
0.0
  0
LINE
  5
B7C8
330
B786
100
AcDbEntity
  8
0
  6
CONTINUOUS
100
AcDbLine
 10
20.35505123425962
 20
3.94976520013324
 30
0.0
 11
19.30631888737766
 21
4.998497547015201
 31
0.0
  0
LINE
  5
B7C9
330
B786
100
AcDbEntity
  8
0
  6
CONTINUOUS
100
AcDbLine
 10
20.55463198503475
 20
4.423703658438292
 30
0.0
 11
19.50584339500926
 21
5.472492248463787
 31
0.0
  0
LINE
  5
B7CA
330
B786
100
AcDbEntity
  8
0
  6
CONTINUOUS
100
AcDbLine
 10
18.37481191085755
 20
3.909446896294752
 30
0.0
 11
15.59302973632993
 21
6.691229070822371
 31
0.0
  0
LINE
  5
B7CB
330
B786
100
AcDbEntity
  8
0
  6
CONTINUOUS
100
AcDbLine
 10
17.96904084440766
 20
4.988737171824825
 30
0.0
 11
15.77705890739338
 21
7.180719108839104
 31
0.0
  0
LINE
  5
B7CC
330
B786
100
AcDbEntity
  8
0
  6
CONTINUOUS
100
AcDbLine
 10
17.56326977795777
 20
6.068027447354899
 30
0.0
 11
15.96108807845684
 21
7.670209146855838
 31
0.0
  0
LINE
  5
B7CD
330
B786
100
AcDbEntity
  8
0
  6
CONTINUOUS
100
AcDbLine
 10
17.15749871150789
 20
7.147317722884972
 30
0.0
 11
16.14511724952029
 21
8.15969918487257
 31
0.0
  0
LINE
  5
B7CE
330
B786
100
AcDbEntity
  8
0
  6
CONTINUOUS
100
AcDbLine
 10
16.751727645058
 20
8.226607998415046
 30
0.0
 11
16.32914642058374
 21
8.649189222889303
 31
0.0
  0
LINE
  5
B7CF
330
B786
100
AcDbEntity
  8
0
  6
CONTINUOUS
100
AcDbLine
 10
20.75421273580989
 20
4.897642116743345
 30
0.0
 11
19.70536790264086
 21
5.946486949912374
 31
0.0
  0
LINE
  5
B7D0
330
B786
100
AcDbEntity
  8
0
  6
CONTINUOUS
100
AcDbLine
 10
20.95379348658502
 20
5.371580575048398
 30
0.0
 11
19.90489241027246
 21
6.42048165136096
 31
0.0
  0
LINE
  5
B7D1
330
B786
100
AcDbEntity
  8
0
  6
CONTINUOUS
100
AcDbLine
 10
21.15337423736015
 20
5.845519033353452
 30
0.0
 11
20.10441691790406
 21
6.894476352809547
 31
0.0
  0
LINE
  5
B7D2
330
B786
100
AcDbEntity
  8
0
  6
CONTINUOUS
100
AcDbLine
 10
21.35295498813529
 20
6.319457491658505
 30
0.0
 11
20.30394142553566
 21
7.368471054258134
 31
0.0
  0
LINE
  5
B7D3
330
B786
100
AcDbEntity
  8
0
  6
CONTINUOUS
100
AcDbLine
 10
21.55253573891042
 20
6.793395949963558
 30
0.0
 11
20.50346593316726
 21
7.842465755706721
 31
0.0
  0
LINE
  5
B7D4
330
B786
100
AcDbEntity
  8
0
  6
CONTINUOUS
100
AcDbLine
 10
21.75211648968556
 20
7.267334408268612
 30
0.0
 11
20.70299044079886
 21
8.316460457155308
 31
0.0
  0
LINE
  5
B7D5
330
B786
100
AcDbEntity
  8
0
  6
CONTINUOUS
100
AcDbLine
 10
21.95169724046069
 20
7.741272866573663
 30
0.0
 11
20.9298701070431
 21
8.763099999991256
 31
0.0
  0
LINE
  5
B7D6
330
B786
100
AcDbEntity
  8
0
  6
CONTINUOUS
100
AcDbLine
 10
22.15127799123582
 20
8.215211324878716
 30
0.0
 11
21.60338931612328
 21
8.763099999991256
 31
0.0
  0
LINE
  5
B7D7
330
B786
100
AcDbEntity
  8
0
  6
CONTINUOUS
100
AcDbLine
 10
22.35085874201096
 20
8.689149783183769
 30
0.0
 11
22.27690852520347
 21
8.763099999991255
 31
0.0
  0
ENDBLK
  5
B8C9
330
B786
100
AcDbEntity
  8
0
100
AcDbBlockEnd
  0
BLOCK
  5
B8CA
330
B7D8
100
AcDbEntity
  8
0
100
AcDbBlockBegin
  2
*X81
 70
     1
 10
0.0
 20
0.0
 30
0.0
  3
*X81
  1

  0
LINE
  5
B7D9
330
B7D8
100
AcDbEntity
  8
0
  6
CONTINUOUS
100
AcDbLine
 10
23.19462913593892
 20
8.169917934846424
 30
0.0
 11
23.70775465517246
 21
8.683043454079957
 31
0.0
  0
LINE
  5
B7DA
330
B7D8
100
AcDbEntity
  8
0
  6
CONTINUOUS
100
AcDbLine
 10
22.64923161835078
 20
6.951001208178088
 30
0.0
 11
23.9159364069932
 21
8.217705996820516
 31
0.0
  0
LINE
  5
B7DB
330
B7D8
100
AcDbEntity
  8
0
  6
CONTINUOUS
100
AcDbLine
 10
22.10383410076263
 20
5.732084481509751
 30
0.0
 11
24.12411815881395
 21
7.752368539561078
 31
0.0
  0
LINE
  5
B7DC
330
B7D8
100
AcDbEntity
  8
0
  6
CONTINUOUS
100
AcDbLine
 10
21.55843658317447
 20
4.513167754841414
 30
0.0
 11
24.3322999106347
 21
7.287031082301639
 31
0.0
  0
LINE
  5
B7DD
330
B7D8
100
AcDbEntity
  8
0
  6
CONTINUOUS
100
AcDbLine
 10
21.01303906558632
 20
3.294251028173077
 30
0.0
 11
24.54048166245544
 21
6.821693625042199
 31
0.0
  0
LINE
  5
B7DE
330
B7D8
100
AcDbEntity
  8
0
  6
CONTINUOUS
100
AcDbLine
 10
20.46764154799817
 20
2.075334301504738
 30
0.0
 11
23.28571549467848
 21
4.89340824818505
 31
0.0
  0
LINE
  5
B7DF
330
B7D8
100
AcDbEntity
  8
0
  6
CONTINUOUS
100
AcDbLine
 10
19.92224403041002
 20
0.8564175748364002
 30
0.0
 11
22.74075865492779
 21
3.674932199354171
 31
0.0
  0
LINE
  5
B7E0
330
B7D8
100
AcDbEntity
  8
0
  6
CONTINUOUS
100
AcDbLine
 10
23.67305085490148
 20
5.280743608408048
 30
0.0
 11
24.74866341427619
 21
6.356356167782759
 31
0.0
  0
LINE
  5
B7E1
330
B7D8
100
AcDbEntity
  8
0
  6
CONTINUOUS
100
AcDbLine
 10
23.88118970842314
 20
4.815363252849522
 30
0.0
 11
24.95684516609694
 21
5.89101871052332
 31
0.0
  0
LINE
  5
B7E2
330
B7D8
100
AcDbEntity
  8
0
  6
CONTINUOUS
100
AcDbLine
 10
19.73925852647308
 20
-0.0000871381807288
 30
0.0
 11
23.4103456646501
 21
3.670999999996297
 31
0.0
  0
LINE
  5
B7E3
330
B7D8
100
AcDbEntity
  8
0
  6
CONTINUOUS
100
AcDbLine
 10
24.0893285619448
 20
4.349982897290997
 30
0.0
 11
25.16502691791769
 21
5.42568125326388
 31
0.0
  0
LINE
  5
B7E4
330
B7D8
100
AcDbEntity
  8
0
  6
CONTINUOUS
100
AcDbLine
 10
20.41282099582748
 20
-0.0000438779065108
 30
0.0
 11
21.64944178675636
 21
1.236576913022366
 31
0.0
  0
LINE
  5
B7E5
330
B7D8
100
AcDbEntity
  8
0
  6
CONTINUOUS
100
AcDbLine
 10
22.78126487373161
 20
2.36839999999762
 30
0.0
 11
24.08386487373029
 21
3.670999999996297
 31
0.0
  0
LINE
  5
B7E6
330
B7D8
100
AcDbEntity
  8
0
  6
CONTINUOUS
100
AcDbLine
 10
24.29746741546646
 20
3.884602541732471
 30
0.0
 11
25.37320866973843
 21
4.960343796004441
 31
0.0
  0
LINE
  5
B7E7
330
B7D8
100
AcDbEntity
  8
0
  6
CONTINUOUS
100
AcDbLine
 10
21.08638346518189
 20
-0.0000006176322938
 30
0.0
 11
21.10379033335899
 21
0.0174062505448083
 31
0.0
  0
LINE
  5
B7E8
330
B7D8
100
AcDbEntity
  8
0
  6
CONTINUOUS
100
AcDbLine
 10
23.4547840828118
 20
2.36839999999762
 30
0.0
 11
25.58139042155918
 21
4.495006338745002
 31
0.0
  0
LINE
  5
B7E9
330
B7D8
100
AcDbEntity
  8
0
  6
CONTINUOUS
100
AcDbLine
 10
29.30199999996933
 20
8.215615917155148
 30
0.0
 11
29.84948408280543
 21
8.763099999991255
 31
0.0
  0
LINE
  5
B7EA
330
B7D8
100
AcDbEntity
  8
0
  6
CONTINUOUS
100
AcDbLine
 10
24.12830329189199
 20
2.36839999999762
 30
0.0
 11
25.78957217337993
 21
4.029668881485562
 31
0.0
  0
LINE
  5
B7EB
330
B7D8
100
AcDbEntity
  8
0
  6
CONTINUOUS
100
AcDbLine
 10
29.30199999996933
 20
7.54209670807496
 30
0.0
 11
30.52300329188562
 21
8.763099999991255
 31
0.0
  0
LINE
  5
B7EC
330
B7D8
100
AcDbEntity
  8
0
  6
CONTINUOUS
100
AcDbLine
 10
24.80182250097217
 20
2.36839999999762
 30
0.0
 11
25.99775392520067
 21
3.564331424226122
 31
0.0
  0
LINE
  5
B7ED
330
B7D8
100
AcDbEntity
  8
0
  6
CONTINUOUS
100
AcDbLine
 10
29.30199999996933
 20
6.868577498994774
 30
0.0
 11
30.74199999996926
 21
8.308577498994712
 31
0.0
  0
LINE
  5
B7EE
330
B7D8
100
AcDbEntity
  8
0
  6
CONTINUOUS
100
AcDbLine
 10
25.13028238392013
 20
2.023340673865392
 30
0.0
 11
26.20593567702142
 21
3.098993966966683
 31
0.0
  0
LINE
  5
B7EF
330
B7D8
100
AcDbEntity
  8
0
  6
CONTINUOUS
100
AcDbLine
 10
25.33838066033617
 20
1.557919741201244
 30
0.0
 11
26.41411742884217
 21
2.633656509707244
 31
0.0
  0
LINE
  5
B7F0
330
B7D8
100
AcDbEntity
  8
0
  6
CONTINUOUS
100
AcDbLine
 10
25.54647893675221
 20
1.092498808537098
 30
0.0
 11
26.62229918066291
 21
2.168319052447804
 31
0.0
  0
LINE
  5
B7F1
330
B7D8
100
AcDbEntity
  8
0
  6
CONTINUOUS
100
AcDbLine
 10
25.75457721316825
 20
0.62707787587295
 30
0.0
 11
26.83048093248366
 21
1.702981595188365
 31
0.0
  0
LINE
  5
B7F2
330
B7D8
100
AcDbEntity
  8
0
  6
CONTINUOUS
100
AcDbLine
 10
29.30199999996933
 20
6.195058289914587
 30
0.0
 11
30.74199999996926
 21
7.635058289914522
 31
0.0
  0
LINE
  5
B7F3
330
B7D8
100
AcDbEntity
  8
0
  6
CONTINUOUS
100
AcDbLine
 10
29.30199999996933
 20
5.521539080834401
 30
0.0
 11
30.74199999996926
 21
6.961539080834331
 31
0.0
  0
LINE
  5
B7F4
330
B7D8
100
AcDbEntity
  8
0
  6
CONTINUOUS
100
AcDbLine
 10
29.30199999996933
 20
4.848019871754214
 30
0.0
 11
30.74199999996925
 21
6.288019871754143
 31
0.0
  0
LINE
  5
B7F5
330
B7D8
100
AcDbEntity
  8
0
  6
CONTINUOUS
100
AcDbLine
 10
29.30199999996933
 20
4.174500662674028
 30
0.0
 11
30.74199999996925
 21
5.614500662673953
 31
0.0
  0
LINE
  5
B7F6
330
B7D8
100
AcDbEntity
  8
0
  6
CONTINUOUS
100
AcDbLine
 10
25.96267548958429
 20
0.1616569432088024
 30
0.0
 11
27.18411854636669
 21
1.383099999991207
 31
0.0
  0
LINE
  5
B7F7
330
B7D8
100
AcDbEntity
  8
0
  6
CONTINUOUS
100
AcDbLine
 10
29.30199999996933
 20
3.500981453593841
 30
0.0
 11
30.74199999996925
 21
4.940981453593762
 31
0.0
  0
LINE
  5
B7F8
330
B7D8
100
AcDbEntity
  8
0
  6
CONTINUOUS
100
AcDbLine
 10
26.50763775544691
 20
0.0330999999912356
 30
0.0
 11
27.85763775544689
 21
1.383099999991223
 31
0.0
  0
LINE
  5
B7F9
330
B7D8
100
AcDbEntity
  8
0
  6
CONTINUOUS
100
AcDbLine
 10
29.30199999996933
 20
2.827462244513656
 30
0.0
 11
30.74199999996925
 21
4.267462244513574
 31
0.0
  0
LINE
  5
B7FA
330
B7D8
100
AcDbEntity
  8
0
  6
CONTINUOUS
100
AcDbLine
 10
27.18115696452709
 20
0.0330999999912356
 30
0.0
 11
28.6224847300034
 21
1.474427765467545
 31
0.0
  0
LINE
  5
B7FB
330
B7D8
100
AcDbEntity
  8
0
  6
CONTINUOUS
100
AcDbLine
 10
29.21067223449293
 20
2.062615269957069
 30
0.0
 11
30.74199999996924
 21
3.593943035433383
 31
0.0
  0
LINE
  5
B7FC
330
B7D8
100
AcDbEntity
  8
0
  6
CONTINUOUS
100
AcDbLine
 10
27.85467617360728
 20
0.0330999999912356
 30
0.0
 11
30.74199999996924
 21
2.920423826353195
 31
0.0
  0
LINE
  5
B7FD
330
B7D8
100
AcDbEntity
  8
0
  6
CONTINUOUS
100
AcDbLine
 10
28.57438609860264
 20
0.0792907159064073
 30
0.0
 11
30.69580928405405
 21
2.200713901357819
 31
0.0
  0
LINE
  5
B7FE
330
B7D8
100
AcDbEntity
  8
0
  6
CONTINUOUS
100
AcDbLine
 10
29.49443044814297
 20
0.3258158563665496
 30
0.0
 11
30.44928414359389
 21
1.280669551817477
 31
0.0
  0
LINE
  5
B7FF
330
B7D8
100
AcDbEntity
  8
0
  6
CONTINUOUS
100
AcDbLine
 10
19.59027867740337
 20
-0.0000967065718083
 30
0.0
 11
19.55485265190471
 21
0.035329318926844
 31
0.0
  0
LINE
  5
B800
330
B7D8
100
AcDbEntity
  8
0
  6
CONTINUOUS
100
AcDbLine
 10
20.26375463176586
 20
-0.0000534518541091
 30
0.0
 11
19.76305575737534
 21
0.5006454225364014
 31
0.0
  0
LINE
  5
B801
330
B7D8
100
AcDbEntity
  8
0
  6
CONTINUOUS
100
AcDbLine
 10
20.93723058612834
 20
-0.0000101971364099
 30
0.0
 11
19.97125886284597
 21
0.965961526145958
 31
0.0
  0
LINE
  5
B802
330
B7D8
100
AcDbEntity
  8
0
  6
CONTINUOUS
100
AcDbLine
 10
21.25514828313686
 20
0.355591314935257
 30
0.0
 11
20.1794619683166
 21
1.431277629755512
 31
0.0
  0
LINE
  5
B803
330
B7D8
100
AcDbEntity
  8
0
  6
CONTINUOUS
100
AcDbLine
 10
21.46338838394921
 20
0.8208704232030986
 30
0.0
 11
20.38766507378723
 21
1.896593733365069
 31
0.0
  0
LINE
  5
B804
330
B7D8
100
AcDbEntity
  8
0
  6
CONTINUOUS
100
AcDbLine
 10
21.67162848476155
 20
1.28614953147094
 30
0.0
 11
20.59586817925786
 21
2.361909836974626
 31
0.0
  0
LINE
  5
B805
330
B7D8
100
AcDbEntity
  8
0
  6
CONTINUOUS
100
AcDbLine
 10
21.8798685855739
 20
1.751428639738782
 30
0.0
 11
20.80407128472849
 21
2.827225940584183
 31
0.0
  0
LINE
  5
B806
330
B7D8
100
AcDbEntity
  8
0
  6
CONTINUOUS
100
AcDbLine
 10
22.08810868638624
 20
2.216707748006623
 30
0.0
 11
21.01227439019912
 21
3.292542044193739
 31
0.0
  0
LINE
  5
B807
330
B7D8
100
AcDbEntity
  8
0
  6
CONTINUOUS
100
AcDbLine
 10
22.60993564347543
 20
2.36839999999762
 30
0.0
 11
21.22047749566975
 21
3.757858147803296
 31
0.0
  0
LINE
  5
B808
330
B7D8
100
AcDbEntity
  8
0
  6
CONTINUOUS
100
AcDbLine
 10
23.28345485255561
 20
2.36839999999762
 30
0.0
 11
21.42868060114038
 21
4.223174251412853
 31
0.0
  0
LINE
  5
B809
330
B7D8
100
AcDbEntity
  8
0
  6
CONTINUOUS
100
AcDbLine
 10
26.29227406164219
 20
0.0330999999912356
 30
0.0
 11
25.80009199592872
 21
0.5252820657046957
 31
0.0
  0
LINE
  5
B80A
330
B7D8
100
AcDbEntity
  8
0
  6
CONTINUOUS
100
AcDbLine
 10
23.9569740616358
 20
2.36839999999762
 30
0.0
 11
21.63688370661101
 21
4.688490355022409
 31
0.0
  0
LINE
  5
B80B
330
B7D8
100
AcDbEntity
  8
0
  6
CONTINUOUS
100
AcDbLine
 10
26.96579327072237
 20
0.0330999999912356
 30
0.0
 11
25.2554132311971
 21
1.743480039516508
 31
0.0
  0
LINE
  5
B80C
330
B7D8
100
AcDbEntity
  8
0
  6
CONTINUOUS
100
AcDbLine
 10
24.63049327071599
 20
2.36839999999762
 30
0.0
 11
23.32789327071731
 21
3.670999999996297
 31
0.0
  0
LINE
  5
B80D
330
B7D8
100
AcDbEntity
  8
0
  6
CONTINUOUS
100
AcDbLine
 10
22.92098674744635
 20
4.077906523267254
 30
0.0
 11
21.84508681208164
 21
5.153806458631966
 31
0.0
  0
LINE
  5
B80E
330
B7D8
100
AcDbEntity
  8
0
  6
CONTINUOUS
100
AcDbLine
 10
27.63931247980256
 20
0.0330999999912356
 30
0.0
 11
24.0014124797975
 21
3.670999999996297
 31
0.0
  0
LINE
  5
B80F
330
B7D8
100
AcDbEntity
  8
0
  6
CONTINUOUS
100
AcDbLine
 10
23.129125600968
 20
4.5432868788258
 30
0.0
 11
22.05328991755227
 21
5.619122562241522
 31
0.0
  0
LINE
  5
B810
330
B7D8
100
AcDbEntity
  8
0
  6
CONTINUOUS
100
AcDbLine
 10
28.31283168888275
 20
0.0330999999912356
 30
0.0
 11
24.16488385994816
 21
4.181047828925828
 31
0.0
  0
LINE
  5
B811
330
B7D8
100
AcDbEntity
  8
0
  6
CONTINUOUS
100
AcDbLine
 10
23.33726445448964
 20
5.008667234384345
 30
0.0
 11
22.2614930230229
 21
6.084438665851079
 31
0.0
  0
LINE
  5
B812
330
B7D8
100
AcDbEntity
  8
0
  6
CONTINUOUS
100
AcDbLine
 10
28.86286302309502
 20
0.1565878748591523
 30
0.0
 11
27.63635089796295
 21
1.383099999991217
 31
0.0
  0
LINE
  5
B813
330
B7D8
100
AcDbEntity
  8
0
  6
CONTINUOUS
100
AcDbLine
 10
26.43704649509776
 20
2.582404402856405
 30
0.0
 11
23.61992702019732
 21
5.399523877756844
 31
0.0
  0
LINE
  5
B814
330
B7D8
100
AcDbEntity
  8
0
  6
CONTINUOUS
100
AcDbLine
 10
23.54540330801128
 20
5.47404758994289
 30
0.0
 11
22.46969612849353
 21
6.549754769460635
 31
0.0
  0
LINE
  5
B815
330
B7D8
100
AcDbEntity
  8
0
  6
CONTINUOUS
100
AcDbLine
 10
29.39405087596853
 20
0.2989192310658284
 30
0.0
 11
28.30987010704312
 21
1.383099999991234
 31
0.0
  0
LINE
  5
B816
330
B7D8
100
AcDbEntity
  8
0
  6
CONTINUOUS
100
AcDbLine
 10
25.89179548232307
 20
3.801174624711282
 30
0.0
 11
22.67789923396416
 21
7.015070873070191
 31
0.0
  0
LINE
  5
B817
330
B7D8
100
AcDbEntity
  8
0
  6
CONTINUOUS
100
AcDbLine
 10
29.79594438047407
 20
0.570544935640473
 30
0.0
 11
28.81310432793121
 21
1.553384988183336
 31
0.0
  0
LINE
  5
B818
330
B7D8
100
AcDbEntity
  8
0
  6
CONTINUOUS
100
AcDbLine
 10
25.34654446954838
 20
5.01994484656616
 30
0.0
 11
22.88610233943479
 21
7.480386976679748
 31
0.0
  0
LINE
  5
B819
330
B7D8
100
AcDbEntity
  8
0
  6
CONTINUOUS
100
AcDbLine
 10
30.13270398501416
 20
0.9073045401805646
 30
0.0
 11
29.14234640337737
 21
1.897662121817355
 31
0.0
  0
LINE
  5
B81A
330
B7D8
100
AcDbEntity
  8
0
  6
CONTINUOUS
100
AcDbLine
 10
24.80129345677369
 20
6.238715068421037
 30
0.0
 11
23.09430544490542
 21
7.945703080289305
 31
0.0
  0
LINE
  5
B81B
330
B7D8
100
AcDbEntity
  8
0
  6
CONTINUOUS
100
AcDbLine
 10
30.44581292956759
 20
1.26771480470732
 30
0.0
 11
29.30199999996933
 21
2.411527734305588
 31
0.0
  0
LINE
  5
B81C
330
B7D8
100
AcDbEntity
  8
0
  6
CONTINUOUS
100
AcDbLine
 10
30.58814428577427
 20
1.798902657580827
 30
0.0
 11
29.30199999996933
 21
3.085046943385775
 31
0.0
  0
LINE
  5
B81D
330
B7D8
100
AcDbEntity
  8
0
  6
CONTINUOUS
100
AcDbLine
 10
24.256042443999
 20
7.457485290275915
 30
0.0
 11
23.30250855037605
 21
8.411019183898862
 31
0.0
  0
LINE
  5
B81E
330
B7D8
100
AcDbEntity
  8
0
  6
CONTINUOUS
100
AcDbLine
 10
23.71079143122431
 20
8.676255512130794
 30
0.0
 11
23.51071165584668
 21
8.876335287508418
 31
0.0
  0
LINE
  5
B81F
330
B7D8
100
AcDbEntity
  8
0
  6
CONTINUOUS
100
AcDbLine
 10
30.73047564198095
 20
2.330090510454333
 30
0.0
 11
29.30199999996933
 21
3.758566152465961
 31
0.0
  0
LINE
  5
B820
330
B7D8
100
AcDbEntity
  8
0
  6
CONTINUOUS
100
AcDbLine
 10
30.74199999996924
 20
2.992085361546236
 30
0.0
 11
29.30199999996933
 21
4.432085361546148
 31
0.0
  0
LINE
  5
B821
330
B7D8
100
AcDbEntity
  8
0
  6
CONTINUOUS
100
AcDbLine
 10
30.74199999996924
 20
3.665604570626419
 30
0.0
 11
29.30199999996933
 21
5.105604570626333
 31
0.0
  0
LINE
  5
B822
330
B7D8
100
AcDbEntity
  8
0
  6
CONTINUOUS
100
AcDbLine
 10
30.74199999996925
 20
4.339123779706602
 30
0.0
 11
29.30199999996933
 21
5.77912377970652
 31
0.0
  0
LINE
  5
B823
330
B7D8
100
AcDbEntity
  8
0
  6
CONTINUOUS
100
AcDbLine
 10
30.74199999996925
 20
5.012642988786785
 30
0.0
 11
29.30199999996933
 21
6.452642988786707
 31
0.0
  0
LINE
  5
B824
330
B7D8
100
AcDbEntity
  8
0
  6
CONTINUOUS
100
AcDbLine
 10
30.74199999996925
 20
5.68616219786697
 30
0.0
 11
29.30199999996933
 21
7.126162197866894
 31
0.0
  0
LINE
  5
B825
330
B7D8
100
AcDbEntity
  8
0
  6
CONTINUOUS
100
AcDbLine
 10
30.74199999996925
 20
6.359681406947153
 30
0.0
 11
29.30199999996933
 21
7.799681406947081
 31
0.0
  0
LINE
  5
B826
330
B7D8
100
AcDbEntity
  8
0
  6
CONTINUOUS
100
AcDbLine
 10
30.74199999996926
 20
7.033200616027337
 30
0.0
 11
29.30199999996933
 21
8.473200616027269
 31
0.0
  0
LINE
  5
B827
330
B7D8
100
AcDbEntity
  8
0
  6
CONTINUOUS
100
AcDbLine
 10
30.74199999996926
 20
7.706719825107518
 30
0.0
 11
29.68561982508552
 21
8.763099999991255
 31
0.0
  0
LINE
  5
B828
330
B7D8
100
AcDbEntity
  8
0
  6
CONTINUOUS
100
AcDbLine
 10
30.74199999996926
 20
8.380239034187703
 30
0.0
 11
30.35913903416571
 21
8.763099999991255
 31
0.0
  0
ENDBLK
  5
B8CB
330
B7D8
100
AcDbEntity
  8
0
100
AcDbBlockEnd
  0
BLOCK
  5
B8CC
330
B829
100
AcDbEntity
  8
0
100
AcDbBlockBegin
  2
*X82
 70
     1
 10
0.0
 20
0.0
 30
0.0
  3
*X82
  1

  0
LINE
  5
B82A
330
B829
100
AcDbEntity
  8
0
  6
CONTINUOUS
100
AcDbLine
 10
31.64199999996833
 20
8.5350582899136
 30
0.0
 11
31.87004171004599
 21
8.763099999991255
 31
0.0
  0
LINE
  5
B82B
330
B829
100
AcDbEntity
  8
0
  6
CONTINUOUS
100
AcDbLine
 10
31.64199999996833
 20
7.861539080833413
 30
0.0
 11
32.54356091912618
 21
8.763099999991255
 31
0.0
  0
LINE
  5
B82C
330
B829
100
AcDbEntity
  8
0
  6
CONTINUOUS
100
AcDbLine
 10
31.64199999996833
 20
7.188019871753227
 30
0.0
 11
33.08199999996839
 21
8.628019871753281
 31
0.0
  0
LINE
  5
B82D
330
B829
100
AcDbEntity
  8
0
  6
CONTINUOUS
100
AcDbLine
 10
31.64199999996833
 20
6.514500662673041
 30
0.0
 11
33.08199999996839
 21
7.954500662673095
 31
0.0
  0
LINE
  5
B82E
330
B829
100
AcDbEntity
  8
0
  6
CONTINUOUS
100
AcDbLine
 10
31.64199999996833
 20
5.840981453592855
 30
0.0
 11
33.08199999996839
 21
7.28098145359291
 31
0.0
  0
LINE
  5
B82F
330
B829
100
AcDbEntity
  8
0
  6
CONTINUOUS
100
AcDbLine
 10
31.64199999996833
 20
5.167462244512668
 30
0.0
 11
33.08199999996839
 21
6.607462244512723
 31
0.0
  0
LINE
  5
B830
330
B829
100
AcDbEntity
  8
0
  6
CONTINUOUS
100
AcDbLine
 10
31.64199999996833
 20
4.493943035432482
 30
0.0
 11
33.08199999996839
 21
5.933943035432536
 31
0.0
  0
LINE
  5
B831
330
B829
100
AcDbEntity
  8
0
  6
CONTINUOUS
100
AcDbLine
 10
31.64199999996833
 20
3.820423826352294
 30
0.0
 11
33.08199999996839
 21
5.260423826352349
 31
0.0
  0
LINE
  5
B832
330
B829
100
AcDbEntity
  8
0
  6
CONTINUOUS
100
AcDbLine
 10
31.64199999996833
 20
3.146904617272108
 30
0.0
 11
33.08199999996839
 21
4.586904617272163
 31
0.0
  0
LINE
  5
B833
330
B829
100
AcDbEntity
  8
0
  6
CONTINUOUS
100
AcDbLine
 10
36.23199999996837
 20
8.410423826352327
 30
0.0
 11
36.58467617360729
 21
8.763099999991255
 31
0.0
  0
LINE
  5
B834
330
B829
100
AcDbEntity
  8
0
  6
CONTINUOUS
100
AcDbLine
 10
36.23199999996837
 20
7.73690461727214
 30
0.0
 11
37.25819538268748
 21
8.763099999991255
 31
0.0
  0
LINE
  5
B835
330
B829
100
AcDbEntity
  8
0
  6
CONTINUOUS
100
AcDbLine
 10
31.64323424774199
 20
2.474619655965573
 30
0.0
 11
33.08199999996839
 21
3.913385408191976
 31
0.0
  0
LINE
  5
B836
330
B829
100
AcDbEntity
  8
0
  6
CONTINUOUS
100
AcDbLine
 10
31.74419223861915
 20
1.902058437762552
 30
0.0
 11
33.08199999996839
 21
3.239866199111789
 31
0.0
  0
LINE
  5
B837
330
B829
100
AcDbEntity
  8
0
  6
CONTINUOUS
100
AcDbLine
 10
36.23199999996837
 20
7.063385408191953
 30
0.0
 11
37.67199999996831
 21
8.503385408191894
 31
0.0
  0
LINE
  5
B838
330
B829
100
AcDbEntity
  8
0
  6
CONTINUOUS
100
AcDbLine
 10
36.23199999996837
 20
6.389866199111767
 30
0.0
 11
37.67199999996831
 21
7.829866199111708
 31
0.0
  0
LINE
  5
B839
330
B829
100
AcDbEntity
  8
0
  6
CONTINUOUS
100
AcDbLine
 10
31.91111233414976
 20
1.39545932421297
 30
0.0
 11
33.08199999996839
 21
2.566346990031603
 31
0.0
  0
LINE
  5
B83A
330
B829
100
AcDbEntity
  8
0
  6
CONTINUOUS
100
AcDbLine
 10
36.23199999996837
 20
5.71634699003158
 30
0.0
 11
37.67199999996831
 21
7.156346990031522
 31
0.0
  0
LINE
  5
B83B
330
B829
100
AcDbEntity
  8
0
  6
CONTINUOUS
100
AcDbLine
 10
32.1576374746103
 20
0.9684652555933289
 30
0.0
 11
33.20642631446081
 21
2.017254095443838
 31
0.0
  0
LINE
  5
B83C
330
B829
100
AcDbEntity
  8
0
  6
CONTINUOUS
100
AcDbLine
 10
36.23199999996837
 20
5.042827780951393
 30
0.0
 11
37.67199999996831
 21
6.482827780951334
 31
0.0
  0
LINE
  5
B83D
330
B829
100
AcDbEntity
  8
0
  6
CONTINUOUS
100
AcDbLine
 10
32.47774023927325
 20
0.6150488111760914
 30
0.0
 11
33.49903056428258
 21
1.636339136185419
 31
0.0
  0
LINE
  5
B83E
330
B829
100
AcDbEntity
  8
0
  6
CONTINUOUS
100
AcDbLine
 10
36.23199999996837
 20
4.369308571871207
 30
0.0
 11
37.67199999996831
 21
5.809308571871148
 31
0.0
  0
LINE
  5
B83F
330
B829
100
AcDbEntity
  8
0
  6
CONTINUOUS
100
AcDbLine
 10
32.84396249154443
 20
0.3077518543670883
 30
0.0
 11
33.93324121824649
 21
1.397030581069146
 31
0.0
  0
LINE
  5
B840
330
B829
100
AcDbEntity
  8
0
  6
CONTINUOUS
100
AcDbLine
 10
36.23199999996837
 20
3.695789362791021
 30
0.0
 11
37.67199999996831
 21
5.135789362790963
 31
0.0
  0
LINE
  5
B841
330
B829
100
AcDbEntity
  8
0
  6
CONTINUOUS
100
AcDbLine
 10
33.30186329036846
 20
0.0921334441109263
 30
0.0
 11
34.46442907112041
 21
1.254699224862875
 31
0.0
  0
LINE
  5
B842
330
B829
100
AcDbEntity
  8
0
  6
CONTINUOUS
100
AcDbLine
 10
36.23199999996837
 20
3.022270153710834
 30
0.0
 11
37.67199999996831
 21
4.462270153710776
 31
0.0
  0
LINE
  5
B843
330
B829
100
AcDbEntity
  8
0
  6
CONTINUOUS
100
AcDbLine
 10
33.79565647746294
 20
-0.0875925778747773
 30
0.0
 11
35.24350171668284
 21
1.360252661345124
 31
0.0
  0
LINE
  5
B844
330
B829
100
AcDbEntity
  8
0
  6
CONTINUOUS
100
AcDbLine
 10
36.18336676155003
 20
2.300117706212308
 30
0.0
 11
37.67199999996831
 21
3.788750944630589
 31
0.0
  0
LINE
  5
B845
330
B829
100
AcDbEntity
  8
0
  6
CONTINUOUS
100
AcDbLine
 10
34.37182574910968
 20
-0.184942515308224
 30
0.0
 11
37.67199999996831
 21
3.115231735550402
 31
0.0
  0
LINE
  5
B846
330
B829
100
AcDbEntity
  8
0
  6
CONTINUOUS
100
AcDbLine
 10
35.0453449581892
 20
-0.1849425153088955
 30
0.0
 11
37.66345697088136
 21
2.433169497383271
 31
0.0
  0
LINE
  5
B847
330
B829
100
AcDbEntity
  8
0
  6
CONTINUOUS
100
AcDbLine
 10
35.98667157609191
 20
0.0828648935136398
 30
0.0
 11
37.51927401744566
 21
1.615467334867382
 31
0.0
  0
LINE
  5
B848
330
B829
100
AcDbEntity
  8
0
  6
CONTINUOUS
100
AcDbLine
 10
32.27747408544484
 20
0.7830920669904482
 30
0.0
 11
32.24716210471949
 21
0.8134040477157893
 31
0.0
  0
LINE
  5
B849
330
B829
100
AcDbEntity
  8
0
  6
CONTINUOUS
100
AcDbLine
 10
33.83656881101902
 20
-0.1024834495035494
 30
0.0
 11
31.72538911593758
 21
2.008696245577891
 31
0.0
  0
LINE
  5
B84A
330
B829
100
AcDbEntity
  8
0
  6
CONTINUOUS
100
AcDbLine
 10
34.5925470859041
 20
-0.1849425153084434
 30
0.0
 11
31.64199999996833
 21
2.765604570627322
 31
0.0
  0
LINE
  5
B84B
330
B829
100
AcDbEntity
  8
0
  6
CONTINUOUS
100
AcDbLine
 10
35.26201302775981
 20
-0.1808892480839752
 30
0.0
 11
31.64199999996833
 21
3.439123779707508
 31
0.0
  0
LINE
  5
B84C
330
B829
100
AcDbEntity
  8
0
  6
CONTINUOUS
100
AcDbLine
 10
35.75580621485512
 20
-0.0011632260990879
 30
0.0
 11
34.51294304365551
 21
1.241699945100514
 31
0.0
  0
LINE
  5
B84D
330
B829
100
AcDbEntity
  8
0
  6
CONTINUOUS
100
AcDbLine
 10
33.08199999996839
 20
2.672642988787641
 30
0.0
 11
31.64199999996833
 21
4.112642988787695
 31
0.0
  0
LINE
  5
B84E
330
B829
100
AcDbEntity
  8
0
  6
CONTINUOUS
100
AcDbLine
 10
36.24959940195042
 20
0.1785627958857976
 30
0.0
 11
35.10501653033629
 21
1.323145667499924
 31
0.0
  0
LINE
  5
B84F
330
B829
100
AcDbEntity
  8
0
  6
CONTINUOUS
100
AcDbLine
 10
33.08199999996839
 20
3.346162197867827
 30
0.0
 11
31.64199999996833
 21
4.786162197867881
 31
0.0
  0
LINE
  5
B850
330
B829
100
AcDbEntity
  8
0
  6
CONTINUOUS
100
AcDbLine
 10
36.64615197150552
 20
0.4555294354108876
 30
0.0
 11
35.6362043832099
 21
1.465477023706505
 31
0.0
  0
LINE
  5
B851
330
B829
100
AcDbEntity
  8
0
  6
CONTINUOUS
100
AcDbLine
 10
33.08199999996839
 20
4.019681406948013
 30
0.0
 11
31.64199999996833
 21
5.459681406948068
 31
0.0
  0
LINE
  5
B852
330
B829
100
AcDbEntity
  8
0
  6
CONTINUOUS
100
AcDbLine
 10
37.0123742237774
 20
0.7628263922191891
 30
0.0
 11
35.97691545773309
 21
1.798285158263504
 31
0.0
  0
LINE
  5
B853
330
B829
100
AcDbEntity
  8
0
  6
CONTINUOUS
100
AcDbLine
 10
33.08199999996839
 20
4.6932006160282
 30
0.0
 11
31.64199999996833
 21
6.133200616028255
 31
0.0
  0
LINE
  5
B854
330
B829
100
AcDbEntity
  8
0
  6
CONTINUOUS
100
AcDbLine
 10
37.27491524157143
 20
1.173804583505349
 30
0.0
 11
36.17602012811361
 21
2.272699696963169
 31
0.0
  0
LINE
  5
B855
330
B829
100
AcDbEntity
  8
0
  6
CONTINUOUS
100
AcDbLine
 10
33.08199999996839
 20
5.366719825108387
 30
0.0
 11
31.64199999996833
 21
6.806719825108441
 31
0.0
  0
LINE
  5
B856
330
B829
100
AcDbEntity
  8
0
  6
CONTINUOUS
100
AcDbLine
 10
37.51739996707661
 20
1.604839067080355
 30
0.0
 11
36.23199999996837
 21
2.890239034188595
 31
0.0
  0
LINE
  5
B857
330
B829
100
AcDbEntity
  8
0
  6
CONTINUOUS
100
AcDbLine
 10
37.6183579579535
 20
2.177400285283649
 30
0.0
 11
36.23199999996837
 21
3.563758243268782
 31
0.0
  0
LINE
  5
B858
330
B829
100
AcDbEntity
  8
0
  6
CONTINUOUS
100
AcDbLine
 10
33.08199999996839
 20
6.040239034188573
 30
0.0
 11
31.64199999996833
 21
7.480239034188628
 31
0.0
  0
LINE
  5
B859
330
B829
100
AcDbEntity
  8
0
  6
CONTINUOUS
100
AcDbLine
 10
33.08199999996839
 20
6.713758243268759
 30
0.0
 11
31.64199999996833
 21
8.153758243268815
 31
0.0
  0
LINE
  5
B85A
330
B829
100
AcDbEntity
  8
0
  6
CONTINUOUS
100
AcDbLine
 10
37.67199999996831
 20
2.797277452349027
 30
0.0
 11
36.23199999996837
 21
4.237277452348969
 31
0.0
  0
LINE
  5
B85B
330
B829
100
AcDbEntity
  8
0
  6
CONTINUOUS
100
AcDbLine
 10
37.67199999996831
 20
3.470796661429214
 30
0.0
 11
36.23199999996837
 21
4.910796661429155
 31
0.0
  0
LINE
  5
B85C
330
B829
100
AcDbEntity
  8
0
  6
CONTINUOUS
100
AcDbLine
 10
37.67199999996831
 20
4.1443158705094
 30
0.0
 11
36.23199999996837
 21
5.584315870509341
 31
0.0
  0
LINE
  5
B85D
330
B829
100
AcDbEntity
  8
0
  6
CONTINUOUS
100
AcDbLine
 10
33.08199999996839
 20
7.387277452348946
 30
0.0
 11
31.70617745232608
 21
8.763099999991255
 31
0.0
  0
LINE
  5
B85E
330
B829
100
AcDbEntity
  8
0
  6
CONTINUOUS
100
AcDbLine
 10
33.08199999996839
 20
8.060796661429134
 30
0.0
 11
32.37969666140626
 21
8.763099999991255
 31
0.0
  0
LINE
  5
B85F
330
B829
100
AcDbEntity
  8
0
  6
CONTINUOUS
100
AcDbLine
 10
33.08199999996839
 20
8.734315870509318
 30
0.0
 11
33.05321587048645
 21
8.763099999991255
 31
0.0
  0
LINE
  5
B860
330
B829
100
AcDbEntity
  8
0
  6
CONTINUOUS
100
AcDbLine
 10
37.67199999996831
 20
4.817835079589586
 30
0.0
 11
36.23199999996837
 21
6.257835079589528
 31
0.0
  0
LINE
  5
B861
330
B829
100
AcDbEntity
  8
0
  6
CONTINUOUS
100
AcDbLine
 10
37.67199999996831
 20
5.491354288669772
 30
0.0
 11
36.23199999996837
 21
6.931354288669715
 31
0.0
  0
LINE
  5
B862
330
B829
100
AcDbEntity
  8
0
  6
CONTINUOUS
100
AcDbLine
 10
37.67199999996831
 20
6.164873497749959
 30
0.0
 11
36.23199999996837
 21
7.6048734977499
 31
0.0
  0
LINE
  5
B863
330
B829
100
AcDbEntity
  8
0
  6
CONTINUOUS
100
AcDbLine
 10
37.67199999996831
 20
6.838392706830145
 30
0.0
 11
36.23199999996837
 21
8.278392706830086
 31
0.0
  0
LINE
  5
B864
330
B829
100
AcDbEntity
  8
0
  6
CONTINUOUS
100
AcDbLine
 10
37.67199999996831
 20
7.511911915910333
 30
0.0
 11
36.42081191588738
 21
8.763099999991255
 31
0.0
  0
LINE
  5
B865
330
B829
100
AcDbEntity
  8
0
  6
CONTINUOUS
100
AcDbLine
 10
37.67199999996831
 20
8.185431124990519
 30
0.0
 11
37.09433112496757
 21
8.763099999991255
 31
0.0
  0
ENDBLK
  5
B8CD
330
B829
100
AcDbEntity
  8
0
100
AcDbBlockEnd
  0
BLOCK
  5
B8CE
330
B866
100
AcDbEntity
  8
0
100
AcDbBlockBegin
  2
*X83
 70
     1
 10
0.0
 20
0.0
 30
0.0
  3
*X83
  1

  0
LINE
  5
B867
330
B866
100
AcDbEntity
  8
0
  6
CONTINUOUS
100
AcDbLine
 10
38.60499999996136
 20
8.762866199104765
 30
0.0
 11
38.71672554182345
 21
8.874591740966855
 31
0.0
  0
LINE
  5
B868
330
B866
100
AcDbEntity
  8
0
  6
CONTINUOUS
100
AcDbLine
 10
38.60499999996136
 20
8.089346990024577
 30
0.0
 11
39.03418785440363
 21
8.518534844466847
 31
0.0
  0
LINE
  5
B869
330
B866
100
AcDbEntity
  8
0
  6
CONTINUOUS
100
AcDbLine
 10
38.60499999996136
 20
7.41582778094439
 30
0.0
 11
39.35165016698382
 21
8.16247794796684
 31
0.0
  0
LINE
  5
B86A
330
B866
100
AcDbEntity
  8
0
  6
CONTINUOUS
100
AcDbLine
 10
38.60499999996136
 20
6.742308571864204
 30
0.0
 11
39.66911247956399
 21
7.806421051466834
 31
0.0
  0
LINE
  5
B86B
330
B866
100
AcDbEntity
  8
0
  6
CONTINUOUS
100
AcDbLine
 10
38.60499999996136
 20
6.068789362784018
 30
0.0
 11
39.98657479214418
 21
7.450364154966827
 31
0.0
  0
LINE
  5
B86C
330
B866
100
AcDbEntity
  8
0
  6
CONTINUOUS
100
AcDbLine
 10
38.60499999996136
 20
5.395270153703832
 30
0.0
 11
40.30403710472435
 21
7.09430725846682
 31
0.0
  0
LINE
  5
B86D
330
B866
100
AcDbEntity
  8
0
  6
CONTINUOUS
100
AcDbLine
 10
38.60499999996136
 20
4.721750944623645
 30
0.0
 11
40.62149941730453
 21
6.738250361966813
 31
0.0
  0
LINE
  5
B86E
330
B866
100
AcDbEntity
  8
0
  6
CONTINUOUS
100
AcDbLine
 10
38.60499999996136
 20
4.048231735543458
 30
0.0
 11
40.93896172988471
 21
6.382193465466806
 31
0.0
  0
LINE
  5
B86F
330
B866
100
AcDbEntity
  8
0
  6
CONTINUOUS
100
AcDbLine
 10
38.60499999996136
 20
3.374712526463272
 30
0.0
 11
40.02599999995994
 21
4.795712526461843
 31
0.0
  0
LINE
  5
B870
330
B866
100
AcDbEntity
  8
0
  6
CONTINUOUS
100
AcDbLine
 10
38.60499999996136
 20
2.701193317383085
 30
0.0
 11
40.02599999995994
 21
4.122193317381657
 31
0.0
  0
LINE
  5
B871
330
B866
100
AcDbEntity
  8
0
  6
CONTINUOUS
100
AcDbLine
 10
40.28339754687704
 20
5.053110073378947
 30
0.0
 11
41.25642404246489
 21
6.026136568966799
 31
0.0
  0
LINE
  5
B872
330
B866
100
AcDbEntity
  8
0
  6
CONTINUOUS
100
AcDbLine
 10
40.60085985945722
 20
4.697053176878939
 30
0.0
 11
41.57388635504507
 21
5.670079672466793
 31
0.0
  0
LINE
  5
B873
330
B866
100
AcDbEntity
  8
0
  6
CONTINUOUS
100
AcDbLine
 10
43.57899999995641
 20
8.348712526458318
 30
0.0
 11
43.99338747348935
 21
8.763099999991255
 31
0.0
  0
LINE
  5
B874
330
B866
100
AcDbEntity
  8
0
  6
CONTINUOUS
100
AcDbLine
 10
43.57899999995641
 20
7.675193317378131
 30
0.0
 11
44.66690668256953
 21
8.763099999991255
 31
0.0
  0
LINE
  5
B875
330
B866
100
AcDbEntity
  8
0
  6
CONTINUOUS
100
AcDbLine
 10
38.60499999996136
 20
2.027674108302898
 30
0.0
 11
40.02599999995994
 21
3.44867410830147
 31
0.0
  0
LINE
  5
B876
330
B866
100
AcDbEntity
  8
0
  6
CONTINUOUS
100
AcDbLine
 10
38.60499999996136
 20
1.354154899222712
 30
0.0
 11
40.02599999995994
 21
2.775154899221284
 31
0.0
  0
LINE
  5
B877
330
B866
100
AcDbEntity
  8
0
  6
CONTINUOUS
100
AcDbLine
 10
38.60499999996136
 20
0.6806356901425255
 30
0.0
 11
40.02599999995994
 21
2.101635690141098
 31
0.0
  0
LINE
  5
B878
330
B866
100
AcDbEntity
  8
0
  6
CONTINUOUS
100
AcDbLine
 10
38.60499999996136
 20
0.0071164810623383
 30
0.0
 11
40.02599999995994
 21
1.428116481060911
 31
0.0
  0
LINE
  5
B879
330
B866
100
AcDbEntity
  8
0
  6
CONTINUOUS
100
AcDbLine
 10
40.9183221720374
 20
4.340996280378933
 30
0.0
 11
41.89134866762525
 21
5.314022775966786
 31
0.0
  0
LINE
  5
B87A
330
B866
100
AcDbEntity
  8
0
  6
CONTINUOUS
100
AcDbLine
 10
41.23578448461758
 20
3.984939383878926
 30
0.0
 11
42.20881098020543
 21
4.957965879466778
 31
0.0
  0
LINE
  5
B87B
330
B866
100
AcDbEntity
  8
0
  6
CONTINUOUS
100
AcDbLine
 10
41.55324679719776
 20
3.628882487378919
 30
0.0
 11
42.52627329278561
 21
4.601908982966772
 31
0.0
  0
LINE
  5
B87C
330
B866
100
AcDbEntity
  8
0
  6
CONTINUOUS
100
AcDbLine
 10
41.87070910977793
 20
3.272825590878912
 30
0.0
 11
42.84373560536579
 21
4.245852086466765
 31
0.0
  0
LINE
  5
B87D
330
B866
100
AcDbEntity
  8
0
  6
CONTINUOUS
100
AcDbLine
 10
43.57899999995641
 20
7.001674108297943
 30
0.0
 11
44.99999999995498
 21
8.422674108296516
 31
0.0
  0
LINE
  5
B87E
330
B866
100
AcDbEntity
  8
0
  6
CONTINUOUS
100
AcDbLine
 10
43.57899999995641
 20
6.328154899217758
 30
0.0
 11
44.99999999995498
 21
7.749154899216329
 31
0.0
  0
LINE
  5
B87F
330
B866
100
AcDbEntity
  8
0
  6
CONTINUOUS
100
AcDbLine
 10
43.57899999995641
 20
5.654635690137571
 30
0.0
 11
44.99999999995498
 21
7.075635690136142
 31
0.0
  0
LINE
  5
B880
330
B866
100
AcDbEntity
  8
0
  6
CONTINUOUS
100
AcDbLine
 10
43.57899999995641
 20
4.981116481057384
 30
0.0
 11
44.99999999995498
 21
6.402116481055955
 31
0.0
  0
LINE
  5
B881
330
B866
100
AcDbEntity
  8
0
  6
CONTINUOUS
100
AcDbLine
 10
39.27140272797921
 20
-0.0000000000000009
 30
0.0
 11
40.02599999995994
 21
0.7545972719807246
 31
0.0
  0
LINE
  5
B882
330
B866
100
AcDbEntity
  8
0
  6
CONTINUOUS
100
AcDbLine
 10
39.9449219370594
 20
-0.0000000000000009
 30
0.0
 11
40.02599999995994
 21
0.0810780629005379
 31
0.0
  0
LINE
  5
B883
330
B866
100
AcDbEntity
  8
0
  6
CONTINUOUS
100
AcDbLine
 10
42.18817142235812
 20
2.916768694378905
 30
0.0
 11
43.16119791794597
 21
3.889795189966758
 31
0.0
  0
LINE
  5
B884
330
B866
100
AcDbEntity
  8
0
  6
CONTINUOUS
100
AcDbLine
 10
42.50563373493829
 20
2.560711797878898
 30
0.0
 11
43.47866023052615
 21
3.533738293466751
 31
0.0
  0
LINE
  5
B885
330
B866
100
AcDbEntity
  8
0
  6
CONTINUOUS
100
AcDbLine
 10
43.57899999995641
 20
4.307597271977198
 30
0.0
 11
44.99999999995498
 21
5.728597271975769
 31
0.0
  0
LINE
  5
B886
330
B866
100
AcDbEntity
  8
0
  6
CONTINUOUS
100
AcDbLine
 10
43.57899999995641
 20
3.634078062897011
 30
0.0
 11
44.99999999995498
 21
5.055078062895582
 31
0.0
  0
LINE
  5
B887
330
B866
100
AcDbEntity
  8
0
  6
CONTINUOUS
100
AcDbLine
 10
42.82309604751848
 20
2.204654901378891
 30
0.0
 11
44.99999999995498
 21
4.381558853815395
 31
0.0
  0
LINE
  5
B888
330
B866
100
AcDbEntity
  8
0
  6
CONTINUOUS
100
AcDbLine
 10
43.14055836009865
 20
1.848598004878885
 30
0.0
 11
44.99999999995498
 21
3.70803964473521
 31
0.0
  0
LINE
  5
B889
330
B866
100
AcDbEntity
  8
0
  6
CONTINUOUS
100
AcDbLine
 10
43.45802067267883
 20
1.492541108378878
 30
0.0
 11
44.99999999995498
 21
3.034520435655023
 31
0.0
  0
LINE
  5
B88A
330
B866
100
AcDbEntity
  8
0
  6
CONTINUOUS
100
AcDbLine
 10
43.77548298525902
 20
1.136484211878871
 30
0.0
 11
44.99999999995498
 21
2.361001226574837
 31
0.0
  0
LINE
  5
B88B
330
B866
100
AcDbEntity
  8
0
  6
CONTINUOUS
100
AcDbLine
 10
44.09294529783919
 20
0.7804273153788639
 30
0.0
 11
44.99999999995498
 21
1.687482017494649
 31
0.0
  0
LINE
  5
B88C
330
B866
100
AcDbEntity
  8
0
  6
CONTINUOUS
100
AcDbLine
 10
44.41040761041938
 20
0.4243704188788566
 30
0.0
 11
44.99999999995498
 21
1.013962808414463
 31
0.0
  0
LINE
  5
B88D
330
B866
100
AcDbEntity
  8
0
  6
CONTINUOUS
100
AcDbLine
 10
44.72786992299955
 20
0.0683135223788494
 30
0.0
 11
44.99999999995498
 21
0.340443599334276
 31
0.0
  0
LINE
  5
B88E
330
B866
100
AcDbEntity
  8
0
  6
CONTINUOUS
100
AcDbLine
 10
39.12223903415696
 20
-0.0000000000000009
 30
0.0
 11
38.60499999996136
 21
0.5172390341955961
 31
0.0
  0
LINE
  5
B88F
330
B866
100
AcDbEntity
  8
0
  6
CONTINUOUS
100
AcDbLine
 10
39.79575824323715
 20
-0.0000000000000009
 30
0.0
 11
38.60499999996136
 21
1.190758243275783
 31
0.0
  0
LINE
  5
B890
330
B866
100
AcDbEntity
  8
0
  6
CONTINUOUS
100
AcDbLine
 10
40.02599999995994
 20
0.443277452357397
 30
0.0
 11
38.60499999996136
 21
1.864277452355969
 31
0.0
  0
LINE
  5
B891
330
B866
100
AcDbEntity
  8
0
  6
CONTINUOUS
100
AcDbLine
 10
40.02599999995994
 20
1.116796661437583
 30
0.0
 11
38.60499999996136
 21
2.537796661436155
 31
0.0
  0
LINE
  5
B892
330
B866
100
AcDbEntity
  8
0
  6
CONTINUOUS
100
AcDbLine
 10
40.02599999995994
 20
1.79031587051777
 30
0.0
 11
38.60499999996136
 21
3.211315870516341
 31
0.0
  0
LINE
  5
B893
330
B866
100
AcDbEntity
  8
0
  6
CONTINUOUS
100
AcDbLine
 10
40.02599999995994
 20
2.463835079597956
 30
0.0
 11
38.60499999996136
 21
3.884835079596527
 31
0.0
  0
LINE
  5
B894
330
B866
100
AcDbEntity
  8
0
  6
CONTINUOUS
100
AcDbLine
 10
40.02599999995994
 20
3.137354288678143
 30
0.0
 11
38.60499999996136
 21
4.558354288676714
 31
0.0
  0
LINE
  5
B895
330
B866
100
AcDbEntity
  8
0
  6
CONTINUOUS
100
AcDbLine
 10
40.02599999995994
 20
3.810873497758329
 30
0.0
 11
38.60499999996136
 21
5.2318734977569
 31
0.0
  0
LINE
  5
B896
330
B866
100
AcDbEntity
  8
0
  6
CONTINUOUS
100
AcDbLine
 10
40.02599999995994
 20
4.484392706838515
 30
0.0
 11
38.60499999996136
 21
5.905392706837086
 31
0.0
  0
LINE
  5
B897
330
B866
100
AcDbEntity
  8
0
  6
CONTINUOUS
100
AcDbLine
 10
44.99999999995498
 20
0.183911915923658
 30
0.0
 11
41.53858364506288
 21
3.64532827081576
 31
0.0
  0
LINE
  5
B898
330
B866
100
AcDbEntity
  8
0
  6
CONTINUOUS
100
AcDbLine
 10
40.02599999995994
 20
5.157911915918703
 30
0.0
 11
38.60499999996136
 21
6.578911915917274
 31
0.0
  0
LINE
  5
B899
330
B866
100
AcDbEntity
  8
0
  6
CONTINUOUS
100
AcDbLine
 10
44.99999999995498
 20
0.8574311250038447
 30
0.0
 11
38.60499999996136
 21
7.25243112499746
 31
0.0
  0
LINE
  5
B89A
330
B866
100
AcDbEntity
  8
0
  6
CONTINUOUS
100
AcDbLine
 10
44.99999999995498
 20
1.530950334084031
 30
0.0
 11
38.60499999996136
 21
7.925950334077647
 31
0.0
  0
LINE
  5
B89B
330
B866
100
AcDbEntity
  8
0
  6
CONTINUOUS
100
AcDbLine
 10
44.99999999995498
 20
2.204469543164218
 30
0.0
 11
43.57899999995641
 21
3.625469543162789
 31
0.0
  0
LINE
  5
B89C
330
B866
100
AcDbEntity
  8
0
  6
CONTINUOUS
100
AcDbLine
 10
41.89876730984767
 20
5.305702233271528
 30
0.0
 11
38.60499999996136
 21
8.599469543157834
 31
0.0
  0
LINE
  5
B89D
330
B866
100
AcDbEntity
  8
0
  6
CONTINUOUS
100
AcDbLine
 10
44.99999999995498
 20
2.877988752244405
 30
0.0
 11
43.57899999995641
 21
4.298988752242975
 31
0.0
  0
LINE
  5
B89E
330
B866
100
AcDbEntity
  8
0
  6
CONTINUOUS
100
AcDbLine
 10
44.99999999995498
 20
3.551507961324591
 30
0.0
 11
43.57899999995641
 21
4.972507961323163
 31
0.0
  0
LINE
  5
B89F
330
B866
100
AcDbEntity
  8
0
  6
CONTINUOUS
100
AcDbLine
 10
44.99999999995498
 20
4.225027170404777
 30
0.0
 11
43.57899999995641
 21
5.646027170403348
 31
0.0
  0
LINE
  5
B8A0
330
B866
100
AcDbEntity
  8
0
  6
CONTINUOUS
100
AcDbLine
 10
44.99999999995498
 20
4.898546379484964
 30
0.0
 11
43.57899999995641
 21
6.319546379483535
 31
0.0
  0
LINE
  5
B8A1
330
B866
100
AcDbEntity
  8
0
  6
CONTINUOUS
100
AcDbLine
 10
44.99999999995498
 20
5.572065588565151
 30
0.0
 11
43.57899999995641
 21
6.993065588563722
 31
0.0
  0
LINE
  5
B8A2
330
B866
100
AcDbEntity
  8
0
  6
CONTINUOUS
100
AcDbLine
 10
44.99999999995498
 20
6.245584797645336
 30
0.0
 11
43.57899999995641
 21
7.666584797643908
 31
0.0
  0
LINE
  5
B8A3
330
B866
100
AcDbEntity
  8
0
  6
CONTINUOUS
100
AcDbLine
 10
44.99999999995498
 20
6.919104006725522
 30
0.0
 11
43.57899999995641
 21
8.340104006724093
 31
0.0
  0
LINE
  5
B8A4
330
B866
100
AcDbEntity
  8
0
  6
CONTINUOUS
100
AcDbLine
 10
44.99999999995498
 20
7.592623215805709
 30
0.0
 11
43.82952321576943
 21
8.763099999991255
 31
0.0
  0
LINE
  5
B8A5
330
B866
100
AcDbEntity
  8
0
  6
CONTINUOUS
100
AcDbLine
 10
44.99999999995498
 20
8.266142424885896
 30
0.0
 11
44.50304242484962
 21
8.763099999991255
 31
0.0
  0
ENDBLK
  5
B8CF
330
B866
100
AcDbEntity
  8
0
100
AcDbBlockEnd
  0
BLOCK
  5
B8D0
330
B8A6
100
AcDbEntity
  8
0
100
AcDbBlockBegin
  2
*X84
 70
     1
 10
0.0
 20
0.0
 30
0.0
  3
*X84
  1

  0
LINE
  5
B8A7
330
B8A6
100
AcDbEntity
  8
0
  6
CONTINUOUS
100
AcDbLine
 10
0.0
 20
8.548461116714023
 30
0.0
 11
0.2146388832772324
 21
8.763099999991255
 31
0.0
  0
LINE
  5
B8A8
330
B8A6
100
AcDbEntity
  8
0
  6
CONTINUOUS
100
AcDbLine
 10
-0.0000000000000002
 20
7.874941907633837
 30
0.0
 11
0.8881580923574184
 21
8.763099999991255
 31
0.0
  0
LINE
  5
B8A9
330
B8A6
100
AcDbEntity
  8
0
  6
CONTINUOUS
100
AcDbLine
 10
0.0
 20
7.20142269855365
 30
0.0
 11
1.420999999998572
 21
8.622422698552223
 31
0.0
  0
LINE
  5
B8AA
330
B8A6
100
AcDbEntity
  8
0
  6
CONTINUOUS
100
AcDbLine
 10
-0.0000000000000001
 20
6.527903489473465
 30
0.0
 11
1.420999999998571
 21
7.948903489472036
 31
0.0
  0
LINE
  5
B8AB
330
B8A6
100
AcDbEntity
  8
0
  6
CONTINUOUS
100
AcDbLine
 10
-0.0000000000000002
 20
5.854384280393278
 30
0.0
 11
1.420999999998571
 21
7.275384280391849
 31
0.0
  0
LINE
  5
B8AC
330
B8A6
100
AcDbEntity
  8
0
  6
CONTINUOUS
100
AcDbLine
 10
-0.0000000000000002
 20
5.180865071313091
 30
0.0
 11
1.420999999998571
 21
6.601865071311663
 31
0.0
  0
LINE
  5
B8AD
330
B8A6
100
AcDbEntity
  8
0
  6
CONTINUOUS
100
AcDbLine
 10
0.0
 20
4.507345862232905
 30
0.0
 11
1.420999999998571
 21
5.928345862231477
 31
0.0
  0
LINE
  5
B8AE
330
B8A6
100
AcDbEntity
  8
0
  6
CONTINUOUS
100
AcDbLine
 10
-0.0000000000000003
 20
3.833826653152718
 30
0.0
 11
1.420999999998571
 21
5.25482665315129
 31
0.0
  0
LINE
  5
B8AF
330
B8A6
100
AcDbEntity
  8
0
  6
CONTINUOUS
100
AcDbLine
 10
-0.0000000000000002
 20
3.160307444072532
 30
0.0
 11
1.420999999998571
 21
4.581307444071103
 31
0.0
  0
LINE
  5
B8B0
330
B8A6
100
AcDbEntity
  8
0
  6
CONTINUOUS
100
AcDbLine
 10
-0.0000000000000001
 20
2.486788234992345
 30
0.0
 11
1.420999999998571
 21
3.907788234990917
 31
0.0
  0
LINE
  5
B8B1
330
B8A6
100
AcDbEntity
  8
0
  6
CONTINUOUS
100
AcDbLine
 10
-0.0000000000000006
 20
1.813269025912159
 30
0.0
 11
1.420999999998571
 21
3.234269025910731
 31
0.0
  0
LINE
  5
B8B2
330
B8A6
100
AcDbEntity
  8
0
  6
CONTINUOUS
100
AcDbLine
 10
0.0
 20
1.139749816831973
 30
0.0
 11
1.420999999998571
 21
2.560749816830544
 31
0.0
  0
LINE
  5
B8B3
330
B8A6
100
AcDbEntity
  8
0
  6
CONTINUOUS
100
AcDbLine
 10
0.0000000000000002
 20
0.466230607751787
 30
0.0
 11
1.420999999998571
 21
1.887230607750358
 31
0.0
  0
LINE
  5
B8B4
330
B8A6
100
AcDbEntity
  8
0
  6
CONTINUOUS
100
AcDbLine
 10
0.2072886013284003
 20
-0.0000000000000009
 30
0.0
 11
1.420999999998571
 21
1.213711398670171
 31
0.0
  0
LINE
  5
B8B5
330
B8A6
100
AcDbEntity
  8
0
  6
CONTINUOUS
100
AcDbLine
 10
0.8808078104085864
 20
-0.0000000000000009
 30
0.0
 11
1.420999999998571
 21
0.5401921895899839
 31
0.0
  0
LINE
  5
B8B6
330
B8A6
100
AcDbEntity
  8
0
  6
CONTINUOUS
100
AcDbLine
 10
0.0581249075061505
 20
-0.0000000000000009
 30
0.0
 11
-0.0000000000000002
 21
0.0581249075061496
 31
0.0
  0
LINE
  5
B8B7
330
B8A6
100
AcDbEntity
  8
0
  6
CONTINUOUS
100
AcDbLine
 10
0.7316441165863372
 20
-0.0000000000000009
 30
0.0
 11
-0.0000000000000002
 21
0.7316441165863363
 31
0.0
  0
LINE
  5
B8B8
330
B8A6
100
AcDbEntity
  8
0
  6
CONTINUOUS
100
AcDbLine
 10
1.405163325666523
 20
-0.0000000000000009
 30
0.0
 11
-0.0000000000000002
 21
1.405163325666523
 31
0.0
  0
LINE
  5
B8B9
330
B8A6
100
AcDbEntity
  8
0
  6
CONTINUOUS
100
AcDbLine
 10
1.420999999998572
 20
0.6576825347481381
 30
0.0
 11
-0.0000000000000001
 21
2.07868253474671
 31
0.0
  0
LINE
  5
B8BA
330
B8A6
100
AcDbEntity
  8
0
  6
CONTINUOUS
100
AcDbLine
 10
1.420999999998571
 20
1.331201743828324
 30
0.0
 11
-0.0000000000000001
 21
2.752201743826896
 31
0.0
  0
LINE
  5
B8BB
330
B8A6
100
AcDbEntity
  8
0
  6
CONTINUOUS
100
AcDbLine
 10
1.420999999998571
 20
2.004720952908511
 30
0.0
 11
-0.0000000000000002
 21
3.425720952907082
 31
0.0
  0
LINE
  5
B8BC
330
B8A6
100
AcDbEntity
  8
0
  6
CONTINUOUS
100
AcDbLine
 10
1.420999999998571
 20
2.678240161988697
 30
0.0
 11
-0.0000000000000001
 21
4.099240161987269
 31
0.0
  0
LINE
  5
B8BD
330
B8A6
100
AcDbEntity
  8
0
  6
CONTINUOUS
100
AcDbLine
 10
1.420999999998572
 20
3.351759371068884
 30
0.0
 11
0.0
 21
4.772759371067455
 31
0.0
  0
LINE
  5
B8BE
330
B8A6
100
AcDbEntity
  8
0
  6
CONTINUOUS
100
AcDbLine
 10
1.420999999998571
 20
4.02527858014907
 30
0.0
 11
-0.0000000000000003
 21
5.446278580147642
 31
0.0
  0
LINE
  5
B8BF
330
B8A6
100
AcDbEntity
  8
0
  6
CONTINUOUS
100
AcDbLine
 10
1.420999999998571
 20
4.698797789229257
 30
0.0
 11
0.0
 21
6.119797789227828
 31
0.0
  0
LINE
  5
B8C0
330
B8A6
100
AcDbEntity
  8
0
  6
CONTINUOUS
100
AcDbLine
 10
1.420999999998571
 20
5.372316998309444
 30
0.0
 11
-0.0000000000000001
 21
6.793316998308015
 31
0.0
  0
LINE
  5
B8C1
330
B8A6
100
AcDbEntity
  8
0
  6
CONTINUOUS
100
AcDbLine
 10
1.420999999998572
 20
6.045836207389629
 30
0.0
 11
-0.0000000000000004
 21
7.466836207388202
 31
0.0
  0
LINE
  5
B8C2
330
B8A6
100
AcDbEntity
  8
0
  6
CONTINUOUS
100
AcDbLine
 10
1.420999999998571
 20
6.719355416469816
 30
0.0
 11
0.0
 21
8.140355416468388
 31
0.0
  0
LINE
  5
B8C3
330
B8A6
100
AcDbEntity
  8
0
  6
CONTINUOUS
100
AcDbLine
 10
1.420999999998571
 20
7.392874625550003
 30
0.0
 11
0.0507746255573185
 21
8.763099999991255
 31
0.0
  0
LINE
  5
B8C4
330
B8A6
100
AcDbEntity
  8
0
  6
CONTINUOUS
100
AcDbLine
 10
1.420999999998571
 20
8.06639383463019
 30
0.0
 11
0.7242938346375052
 21
8.763099999991255
 31
0.0
  0
LINE
  5
B8C5
330
B8A6
100
AcDbEntity
  8
0
  6
CONTINUOUS
100
AcDbLine
 10
1.420999999998571
 20
8.739913043710375
 30
0.0
 11
1.397813043717691
 21
8.763099999991255
 31
0.0
  0
ENDBLK
  5
B8D1
330
B8A6
100
AcDbEntity
  8
0
100
AcDbBlockEnd
  0
ENDSEC
  0
SECTION
  2
ENTITIES
  0
LINE
  5
AFD3
330
18
100
AcDbEntity
  8
01
  6
BYBLOCK
100
AcDbLine
 10
4951.094144947423
 20
-151.5155912619707
 30
0.0000000001127424
 11
5104.848525102454
 21
-151.5155912619707
 31
0.0000000001127424
  0
LINE
  5
AFD4
330
18
100
AcDbEntity
  8
01
100
AcDbLine
 10
5002.093377105106
 20
-146.5155912619707
 30
0.0000000001127424
 11
5002.093377105106
 21
-173.0155912619707
 31
0.0000000001127424
  0
LINE
  5
AFDA
330
18
100
AcDbEntity
  8
01
100
AcDbLine
 10
4852.093377105106
 20
-191.5142729488679
 30
0.0000000000563712
 11
4852.093377105106
 21
-381.5142729488679
 31
0.0000000000563712
  0
LINE
  5
AFDB
330
18
100
AcDbEntity
  8
1CENTER
100
AcDbLine
 10
4866.593377105106
 20
-326.5142729488679
 30
0.0000000000563712
 11
4866.593377105106
 21
-318.5142729488679
 31
0.0000000000563712
  0
LINE
  5
AFDC
330
18
100
AcDbEntity
  8
01
100
AcDbLine
 10
4972.093377105106
 20
-311.5142729488679
 30
0.0000000000563712
 11
5032.093377105106
 21
-311.5142729488679
 31
0.0000000000563712
  0
LINE
  5
AFDD
330
18
100
AcDbEntity
  8
01
100
AcDbLine
 10
5002.093377105106
 20
-281.5142729488679
 30
0.0000000000563712
 11
5002.093377105106
 21
-341.5142729488679
 31
0.0000000000563712
  0
LINE
  5
AFDF
330
18
100
AcDbEntity
  8
01
100
AcDbLine
 10
5028.093377105106
 20
-285.0142729488697
 30
0.0000000000563712
 11
4976.09337710511
 21
-285.0142729488697
 31
0.0000000000563712
  0
LINE
  5
AFE0
330
18
100
AcDbEntity
  8
01
100
AcDbLine
 10
4976.09337710511
 20
-338.0142729488697
 30
0.0000000000563712
 11
5028.093377105106
 21
-338.0142729488697
 31
0.0000000000563712
  0
LINE
  5
AFE1
330
18
100
AcDbEntity
  8
01
100
AcDbLine
 10
4975.59337710511
 20
-285.5142729488697
 30
0.0000000000563712
 11
4975.59337710511
 21
-337.5142729488697
 31
0.0000000000563712
  0
ARC
  5
AFE2
330
18
100
AcDbEntity
  8
01
100
AcDbCircle
 10
4976.09337710511
 20
-337.5142729488697
 30
0.0000000000563712
 40
0.5
100
AcDbArc
 50
180.0
 51
270.0
  0
ARC
  5
AFE3
330
18
100
AcDbEntity
  8
01
100
AcDbCircle
 10
4976.09337710511
 20
-285.5142729488697
 30
0.0000000000563712
 40
0.5
100
AcDbArc
 50
90.0
 51
180.0
  0
LINE
  5
AFE4
330
18
100
AcDbEntity
  8
01
100
AcDbLine
 10
5028.593377105106
 20
-285.5142729488697
 30
0.0000000000563712
 11
5028.593377105106
 21
-300.5142745802179
 31
0.0000000000563712
  0
ARC
  5
AFE5
330
18
100
AcDbEntity
  8
01
100
AcDbCircle
 10
5028.093377105106
 20
-337.5142729488697
 30
0.0000000000563712
 40
0.5
100
AcDbArc
 50
270.0
 51
0.0
  0
ARC
  5
AFE6
330
18
100
AcDbEntity
  8
01
100
AcDbCircle
 10
5028.093377105106
 20
-285.5142729488697
 30
0.0000000000563712
 40
0.5
100
AcDbArc
 50
0.0
 51
90.0
  0
LINE
  5
AFE7
330
18
100
AcDbEntity
  8
01
100
AcDbLine
 10
4975.59337710511
 20
-151.5155912619707
 30
0.0000000001127424
 11
5028.593377105106
 21
-151.5155912619707
 31
0.0000000001127424
  0
LINE
  5
AFE8
330
18
100
AcDbEntity
  8
01
100
AcDbLine
 10
4976.09337710511
 20
-160.0155912619707
 30
0.0000000001127424
 11
5028.093377105106
 21
-160.0155912619707
 31
0.0000000001127424
  0
LINE
  5
AFE9
330
18
100
AcDbEntity
  8
01
100
AcDbLine
 10
5028.593377105106
 20
-151.5155912619707
 30
0.0000000001127424
 11
5028.593377105106
 21
-159.5155912619707
 31
0.0000000001127424
  0
LINE
  5
AFEA
330
18
100
AcDbEntity
  8
01
100
AcDbLine
 10
4975.59337710511
 20
-151.5155912619707
 30
0.0000000001127424
 11
4975.59337710511
 21
-159.5155912619707
 31
0.0000000001127424
  0
ARC
  5
AFEB
330
18
100
AcDbEntity
  8
01
100
AcDbCircle
 10
4976.09337710511
 20
-159.5155912619707
 30
0.0000000001127424
 40
0.5
100
AcDbArc
 50
180.0
 51
270.0
  0
ARC
  5
AFEC
330
18
100
AcDbEntity
  8
01
100
AcDbCircle
 10
5028.093377105106
 20
-159.5155912619707
 30
0.0000000001127424
 40
0.5
100
AcDbArc
 50
270.0
 51
0.0
  0
LINE
  5
AFED
330
18
100
AcDbEntity
  8
01
100
AcDbLine
 10
4852.093377105106
 20
-338.014272948867
 30
0.0000000000563712
 11
4852.093377105106
 21
-285.0142729488697
 31
0.0000000000563712
  0
LINE
  5
AFEE
330
18
100
AcDbEntity
  8
01
100
AcDbLine
 10
4860.593377105106
 20
-337.514272948867
 30
0.0000000000563712
 11
4860.593377105106
 21
-285.5142729488697
 31
0.0000000000563712
  0
LINE
  5
AFEF
330
18
100
AcDbEntity
  8
01
100
AcDbLine
 10
4852.093377105106
 20
-285.0142729488697
 30
0.0000000000563712
 11
4860.093377105106
 21
-285.0142729488697
 31
0.0000000000563712
  0
LINE
  5
AFF0
330
18
100
AcDbEntity
  8
01
100
AcDbLine
 10
4852.093377105106
 20
-338.014272948867
 30
0.0000000000563712
 11
4860.093377105106
 21
-338.014272948867
 31
0.0000000000563712
  0
ARC
  5
AFF1
330
18
100
AcDbEntity
  8
01
100
AcDbCircle
 10
4860.093377105106
 20
-337.514272948867
 30
0.0000000000563712
 40
0.5
100
AcDbArc
 50
270.0
 51
0.0
  0
ARC
  5
AFF2
330
18
100
AcDbEntity
  8
01
100
AcDbCircle
 10
4860.093377105106
 20
-285.5142729488697
 30
0.0000000000563712
 40
0.5
100
AcDbArc
 50
0.0
 51
90.0
  0
TEXT
  5
AFF3
330
18
100
AcDbEntity
  8
1TEXT
100
AcDbText
 10
4852.093377105106
 20
-151.5155912619711
 30
0.0
 40
10.0
  1
WGT
 41
1.0171875
100
AcDbText
  0
LINE
  5
B079
330
18
100
AcDbEntity
  8
01
100
AcDbLine
 10
5028.593377105106
 20
-322.5142713171396
 30
0.0000000000563712
 11
5028.593377105106
 21
-337.5142729488697
 31
0.0000000000563712
  0
SPLINE
  5
B2C6
330
18
100
AcDbEntity
  8
01
  6
CONTINUOUS
100
AcDbSpline
210
0.0
220
0.0
230
1.0
 70
    24
 71
     3
 72
    14
 73
    10
 74
     0
 42
0.000000001
 43
0.00000001
 40
0.0
 40
0.0
 40
0.0
 40
0.0
 40
0.25
 40
0.25
 40
0.5
 40
0.5
 40
0.75
 40
0.75
 40
1.0
 40
1.0
 40
1.0
 40
1.0
 10
5126.093377105106
 20
-322.5142713174957
 30
0.0000000000563712
 10
5126.093377105106
 20
-322.5142713174537
 30
0.0000000000563712
 10
5126.071898366295
 20
-322.5142713174085
 30
0.0000000000563712
 10
5125.974432446056
 20
-322.5142713173208
 30
0.0000000000563712
 10
5125.898114959249
 20
-322.5142713172787
 30
0.0000000000563712
 10
5125.702852813391
 20
-322.5142713172092
 30
0.0000000000563712
 10
5125.584568765101
 20
-322.5142713171821
 30
0.0000000000563712
 10
5125.338374864364
 20
-322.5142713171473
 30
0.0000000000563712
 10
5125.211228235402
 20
-322.5142713171397
 30
0.0000000000563712
 10
5125.093377105225
 20
-322.5142713171397
 30
0.0000000000563712
  0
ARC
  5
B2C7
330
18
100
AcDbEntity
  8
01
  6
CONTINUOUS
100
AcDbCircle
 10
5126.093377105106
 20
-321.5142713174957
 30
0.0000000000563712
 40
1.0
100
AcDbArc
 50
270.0
 51
0.0000000000032569
  0
LINE
  5
B2C8
330
18
100
AcDbEntity
  8
01
  6
CONTINUOUS
100
AcDbLine
 10
5125.093377105106
 20
-322.5142713171397
 30
0.0000000000563712
 11
4992.393377105106
 21
-322.5142713171396
 31
0.0000000000563712
  0
LINE
  5
B2C9
330
18
100
AcDbEntity
  8
01
  6
CONTINUOUS
100
AcDbLine
 10
4992.393377105106
 20
-322.5142713171396
 30
0.0000000000563712
 11
4986.393377105106
 21
-322.514271319276
 31
0.0000000000563712
  0
ARC
  5
B2CA
330
18
100
AcDbEntity
  8
01
  6
CONTINUOUS
100
AcDbCircle
 10
4986.393377105106
 20
-321.514271319276
 30
0.0000000000563712
 40
1.000000000000053
100
AcDbArc
 50
179.9999999999967
 51
270.0
  0
LINE
  5
B2CB
330
18
100
AcDbEntity
  8
01
  6
CONTINUOUS
100
AcDbLine
 10
5127.093377105106
 20
-301.5142745802402
 30
0.0000000000563712
 11
5127.093377105106
 21
-321.5142713174957
 31
0.0000000000563712
  0
LINE
  5
B2CC
330
18
100
AcDbEntity
  8
01
  6
CONTINUOUS
100
AcDbLine
 10
4985.393377105106
 20
-321.514271319276
 30
0.0000000000563712
 11
4985.393377105106
 21
-301.5142745803738
 31
0.0000000000563712
  0
LINE
  5
B2CD
330
18
100
AcDbEntity
  8
01
  6
CONTINUOUS
100
AcDbLine
 10
5125.093377105106
 20
-300.514274580218
 30
0.0000000000563712
 11
5126.093377105106
 21
-300.5142745802179
 31
0.0000000000563712
  0
ARC
  5
B2CE
330
18
100
AcDbEntity
  8
01
  6
CONTINUOUS
100
AcDbCircle
 10
5126.093377105106
 20
-301.5142745802179
 30
0.0000000000563712
 40
1.0
100
AcDbArc
 50
0.0000000012701863
 51
90.0
  0
LINE
  5
B2CF
330
18
100
AcDbEntity
  8
01
  6
CONTINUOUS
100
AcDbLine
 10
4992.393377105106
 20
-300.5142745802179
 30
0.0000000000563712
 11
5125.093377105106
 21
-300.514274580218
 31
0.0000000000563712
  0
ARC
  5
B2D0
330
18
100
AcDbEntity
  8
01
  6
CONTINUOUS
100
AcDbCircle
 10
4986.393377105106
 20
-301.514274580218
 30
0.0000000000563712
 40
1.000000000000007
100
AcDbArc
 50
90.0
 51
180.0000000089238
  0
LINE
  5
B2D1
330
18
100
AcDbEntity
  8
01
  6
CONTINUOUS
100
AcDbLine
 10
4986.393377105106
 20
-300.5142745802179
 30
0.0000000000563712
 11
4992.393377105106
 21
-300.5142745802179
 31
0.0000000000563712
  0
SPLINE
  5
B348
330
18
100
AcDbEntity
  8
01
  6
CONTINUOUS
100
AcDbSpline
210
0.0
220
0.0
230
1.0
 70
     8
 71
     3
 72
    16
 73
    12
 74
     0
 42
0.000000001
 43
0.00000001
 40
0.0
 40
0.0
 40
0.0
 40
0.0
 40
0.1242317223989412
 40
0.2481493868831142
 40
0.4967926447147001
 40
0.6252933397502237
 40
0.7479706591759305
 40
0.8109543674587096
 40
0.8739903449042807
 40
0.9370796827533742
 40
1.0
 40
1.0
 40
1.0
 40
1.0
 10
5014.843377108123
 20
-196.0157178726257
 30
0.0000000001127424
 10
5014.843208550252
 20
-195.969001641631
 30
0.0000000001127424
 10
5014.842871860626
 20
-195.8756872783188
 30
0.0000000001127424
 10
5014.847583378408
 20
-195.6893215822
 30
0.0000000001127424
 10
5014.880593803245
 20
-195.4997989526272
 30
0.0000000001127424
 10
5014.973348072068
 20
-195.3339310780791
 30
0.0000000001127424
 10
5015.058206968791
 20
-195.2493927723579
 30
0.0000000001127424
 10
5015.137469602077
 20
-195.1991585638147
 30
0.0000000001127424
 10
5015.20309057565
 20
-195.1712229742282
 30
0.0000000001127424
 10
5015.272268455872
 20
-195.1530098509553
 30
0.0000000001127424
 10
5015.319695417212
 20
-195.1507976914716
 30
0.0000000001127424
 10
5015.343377090264
 20
-195.1496930953485
 30
0.0000000001127424
  0
LINE
  5
B349
330
18
100
AcDbEntity
  8
01
  6
CONTINUOUS
100
AcDbLine
 10
5014.843377108457
 20
-198.8155938550626
 30
0.0000000001127424
 11
5014.843377108123
 21
-196.0157178726257
 31
0.0000000001127424
  0
SPLINE
  5
B34A
330
18
100
AcDbEntity
  8
01
100
AcDbSpline
210
0.0
220
0.0
230
1.0
 70
     8
 71
     3
 72
    14
 73
    10
 74
     0
 42
0.000000001
 43
0.00000001
 40
0.0
 40
0.0
 40
0.0
 40
0.0
 40
0.0639028946735518
 40
0.1467764635931944
 40
0.2478118304169069
 40
0.4018412050283744
 40
0.5004133773778895
 40
0.7170450311632145
 40
1.0
 40
1.0
 40
1.0
 40
1.0
 10
5016.535109703583
 20
-195.1496926936306
 30
0.0000000001127424
 10
5016.570580570597
 20
-195.149471410874
 30
0.0000000001127424
 10
5016.652052442061
 20
-195.1489631537657
 30
0.0000000001127424
 10
5016.789255135829
 20
-195.1433674121639
 30
0.0000000001127424
 10
5016.974938638194
 20
-195.130060106011
 30
0.0000000001127424
 10
5017.165985491865
 20
-195.1087224650696
 30
0.0000000001127424
 10
5017.413013711342
 20
-195.0764672373838
 30
0.0000000001127424
 10
5017.716650014824
 20
-195.0311397428063
 30
0.0000000001127424
 10
5017.957158794131
 20
-195.0212938219368
 30
0.0000000001127424
 10
5018.093377722085
 20
-195.0157173070611
 30
0.0000000001127424
  0
LINE
  5
B34B
330
18
100
AcDbEntity
  8
01
  6
CONTINUOUS
100
AcDbLine
 10
5018.093377722086
 20
-195.015717307061
 30
0.0000000001127424
 11
5125.093377566101
 21
-195.0156953014525
 31
0.0000000001127424
  0
LINE
  5
B34C
330
18
100
AcDbEntity
  8
01
100
AcDbLine
 10
5015.343377090264
 20
-195.1496930953485
 30
0.0000000001127424
 11
5016.535109703583
 21
-195.149692850257
 31
0.0000000001127424
  0
LINE
  5
B34D
330
18
100
AcDbEntity
  8
01
  6
CONTINUOUS
100
AcDbLine
 10
4986.393377105107
 20
-160.5155912900469
 30
0.0000000001127424
 11
4988.843377105106
 21
-160.5155908453213
 31
0.0000000001127424
  0
ARC
  5
B34E
330
18
100
AcDbEntity
  8
01
  6
CONTINUOUS
100
AcDbCircle
 10
5125.09337754082
 20
-197.0156948657396
 30
0.0000000001127424
 40
1.999999564287123
100
AcDbArc
 50
359.9999874922397
 51
89.99999927574612
  0
LINE
  5
B34F
330
18
100
AcDbEntity
  8
01
  6
CONTINUOUS
100
AcDbLine
 10
4985.393377105106
 20
-199.015593847834
 30
0.0000000001127424
 11
4985.393377105106
 21
-160.5155928967925
 31
0.0000000001127424
  0
LINE
  5
B351
330
18
100
AcDbEntity
  8
01
  6
CONTINUOUS
100
AcDbLine
 10
4989.343377105103
 20
-160.5155917227184
 30
0.0000000001127424
 11
4989.343377105105
 21
-198.8155938550626
 31
0.0000000001127424
  0
LINE
  5
B353
330
18
100
AcDbEntity
  8
01
  6
CONTINUOUS
100
AcDbLine
 10
5127.093377105106
 20
-197.0156953023427
 30
0.0000000001127424
 11
5127.093377105106
 21
-204.0155938478351
 31
0.0000000001127424
  0
ARC
  5
B354
330
18
100
AcDbEntity
  8
01
  6
CONTINUOUS
100
AcDbCircle
 10
4992.593377105105
 20
-198.8155938550626
 30
0.0000000001127424
 40
3.250000000000782
100
AcDbArc
 50
179.9999999999689
 51
270.000000000016
  0
ARC
  5
B355
330
18
100
AcDbEntity
  8
01
  6
CONTINUOUS
100
AcDbCircle
 10
5011.593377105107
 20
-198.8155938483627
 30
0.0000000001127424
 40
3.250000006700773
100
AcDbArc
 50
269.999999999984
 51
359.9999998818842
  0
LINE
  5
B356
330
18
100
AcDbEntity
  8
01
  6
CONTINUOUS
100
AcDbLine
 10
4992.593377105106
 20
-202.0655938550634
 30
0.0000000001127424
 11
5011.593377105106
 21
-202.0655938550634
 31
0.0000000001127424
  0
ARC
  5
B357
330
18
100
AcDbEntity
  8
01
  6
CONTINUOUS
100
AcDbCircle
 10
4992.393377105106
 20
-199.015593847834
 30
0.0000000001127424
 40
7.0
100
AcDbArc
 50
179.9999999976322
 51
270.0
  0
LINE
  5
B358
330
18
100
AcDbEntity
  8
01
  6
CONTINUOUS
100
AcDbLine
 10
5125.093377105106
 20
-206.015593847835
 30
0.0000000001127424
 11
4992.393377105106
 21
-206.0155938478339
 31
0.0000000001127424
  0
ARC
  5
B359
330
18
100
AcDbEntity
  8
01
  6
CONTINUOUS
100
AcDbCircle
 10
5125.093377105106
 20
-204.0155938478351
 30
0.0000000001127424
 40
2.0
100
AcDbArc
 50
270.0
 51
0.0000000057353798
  0
LINE
  5
B35C
330
18
100
AcDbEntity
  8
01
  6
CONTINUOUS
100
AcDbLine
 10
5014.593377105105
 20
-160.515590810257
 30
0.0000000001127424
 11
4989.343377105103
 21
-160.5155917227184
 31
0.0000000001127424
  0
SPLINE
  5
B35D
330
18
100
AcDbEntity
  8
01
  6
CONTINUOUS
100
AcDbSpline
210
0.0
220
0.0
230
1.0
 70
     8
 71
     3
 72
     8
 73
     4
 74
     0
 42
0.000000001
 43
0.00000001
 40
0.0
 40
0.0
 40
0.0
 40
0.0
 40
1.0
 40
1.0
 40
1.0
 40
1.0
 10
5015.100021631536
 20
-192.2152743386324
 30
0.0000000001127424
 10
5015.09559358315
 20
-192.1488536128311
 30
0.0000000001127424
 10
5015.093377105106
 20
-192.0822854708369
 30
0.0000000001127424
 10
5015.093377105106
 20
-192.0157173070611
 30
0.0000000001127424
  0
SPLINE
  5
B35E
330
18
100
AcDbEntity
  8
01
  6
CONTINUOUS
100
AcDbSpline
210
0.0
220
0.0
230
1.0
 70
     8
 71
     3
 72
    14
 73
    10
 74
     0
 42
0.000000001
 43
0.00000001
 40
0.0
 40
0.0
 40
0.0
 40
0.0
 40
0.25
 40
0.25
 40
0.5
 40
0.5
 40
0.75
 40
0.75
 40
1.0
 40
1.0
 40
1.0
 40
1.0
 10
5018.093377105106
 20
-195.0157173070611
 30
0.0000000001127424
 10
5017.717320064351
 20
-195.0157173070611
 30
0.0000000001127424
 10
5017.341387529946
 20
-194.9441862887564
 30
0.0000000001127424
 10
5016.641831227723
 20
-194.6679679482624
 30
0.0000000001127424
 10
5016.318439071581
 20
-194.4633720774579
 30
0.0000000001127424
 10
5015.769210625378
 20
-193.9495397064585
 30
0.0000000001127424
 10
5015.543556175893
 20
-193.6404733277759
 30
0.0000000001127424
 10
5015.221415822391
 20
-192.960840203031
 30
0.0000000001127424
 10
5015.125036573788
 20
-192.590498472405
 30
0.0000000001127424
 10
5015.100021631536
 20
-192.2152743386323
 30
0.0000000001127424
  0
LINE
  5
B35F
330
18
100
AcDbEntity
  8
01
  6
CONTINUOUS
100
AcDbLine
 10
5015.093377105106
 20
-160.5155908088339
 30
0.0000000001127424
 11
5015.093377105106
 21
-192.0157173070611
 31
0.0000000001127424
  0
LINE
  5
B360
330
18
100
AcDbEntity
  8
01
  6
CONTINUOUS
100
AcDbLine
 10
5015.093377105106
 20
-160.5155908088339
 30
0.0000000001127424
 11
5014.593377105105
 21
-160.515590810257
 31
0.0000000001127424
  0
LINE
  5
B361
330
18
100
AcDbEntity
  8
01
  6
CONTINUOUS
100
AcDbLine
 10
5012.09320989845
 20
-160.5155938550627
 30
0.0000000001127424
 11
5012.09320989845
 21
-160.3155938550627
 31
0.0000000001127424
  0
LINE
  5
B362
330
18
100
AcDbEntity
  8
01
  6
CONTINUOUS
100
AcDbLine
 10
4992.09320989845
 20
-160.3155938550627
 30
0.0000000001127424
 11
4992.09320989845
 21
-160.5155938550627
 31
0.0000000001127424
  0
LINE
  5
B363
330
18
100
AcDbEntity
  8
01
  6
CONTINUOUS
100
AcDbLine
 10
4992.09320989845
 20
-160.3155938550627
 30
0.0000000001127424
 11
5012.09320989845
 21
-160.3155938550627
 31
0.0000000001127424
  0
LINE
  5
B364
330
18
100
AcDbEntity
  8
01
  6
CONTINUOUS
100
AcDbLine
 10
5010.043377105106
 20
-160.0155912619707
 30
0.0000000001127424
 11
5010.043377105106
 21
-160.3155938550628
 31
0.0000000001127424
  0
LINE
  5
B365
330
18
100
AcDbEntity
  8
01
  6
CONTINUOUS
100
AcDbLine
 10
4994.143377105106
 20
-160.3155938550627
 30
0.0000000001127424
 11
4994.143377105106
 21
-160.0155912619707
 31
0.0000000001127424
  0
ARC
  5
B370
330
18
100
AcDbEntity
  8
01
  6
CONTINUOUS
100
AcDbCircle
 10
5013.59340660747
 20
-161.8155912619707
 30
0.0000000001127424
 40
1.000000000000014
100
AcDbArc
 50
359.999842755741
 51
90.0
  0
LINE
  5
B371
330
18
100
AcDbEntity
  8
01
  6
CONTINUOUS
100
AcDbLine
 10
5014.593348974927
 20
-198.8155994386591
 30
0.0000000001127424
 11
5014.593406607466
 21
-161.8155940064007
 31
0.0000000001127424
  0
LINE
  5
B372
330
18
100
AcDbEntity
  8
01
  6
CONTINUOUS
100
AcDbLine
 10
5013.59340660747
 20
-160.5155912619707
 30
0.0000000001127424
 11
4990.593347602742
 21
-160.5155912619707
 31
0.0000000001127424
  0
LINE
  5
B373
330
18
100
AcDbEntity
  8
01
  6
CONTINUOUS
100
AcDbLine
 10
4992.593347602747
 20
-201.8155912619706
 30
0.0000000001127424
 11
5011.600353263979
 21
-201.8155912619706
 31
0.0000000001127424
  0
LINE
  5
B374
330
18
100
AcDbEntity
  8
01
  6
CONTINUOUS
100
AcDbLine
 10
4989.593347602747
 20
-161.8155940064007
 30
0.0000000001127424
 11
4989.593347602747
 21
-198.8155912619705
 31
0.0000000001127424
  0
ARC
  5
B375
330
18
100
AcDbEntity
  8
01
  6
CONTINUOUS
100
AcDbCircle
 10
4992.593347602747
 20
-198.8155912619706
 30
0.0000000001127424
 40
3.000000000000013
100
AcDbArc
 50
179.9999999999978
 51
269.9999999999826
  0
ARC
  5
B376
330
18
100
AcDbEntity
  8
01
  6
CONTINUOUS
100
AcDbCircle
 10
5011.593348974927
 20
-198.8155994386592
 30
0.0000000001127424
 40
3.000000000000012
100
AcDbArc
 50
270.0
 51
0.0000000000021713
  0
ARC
  5
B377
330
18
100
AcDbEntity
  8
01
  6
CONTINUOUS
100
AcDbCircle
 10
4990.593347602742
 20
-161.8155912619707
 30
0.0000000001127424
 40
1.000000000000014
100
AcDbArc
 50
90.0
 51
180.0001572442589
  0
LINE
  5
B37D
330
18
100
AcDbEntity
  8
01
100
AcDbLine
 10
4990.593347602742
 20
-160.8155912619707
 30
0.0000000001127424
 11
5013.59340660747
 21
-160.8155912619707
 31
0.0000000001127424
  0
LINE
  5
B380
330
18
100
AcDbEntity
  8
01
100
AcDbLine
 10
5002.09320989845
 20
-160.3155938550627
 30
0.0000000001127424
 11
5002.09320989845
 21
-160.5155912619766
 31
0.0000000001127424
  0
LINE
  5
B3DF
330
18
100
AcDbEntity
  8
01
  6
CONTINUOUS
100
AcDbLine
 10
4860.893378508269
 20
-321.5142546578867
 30
0.0000000000563712
 11
4861.093378508269
 21
-321.5142546578867
 31
0.0000000000563712
  0
LINE
  5
B3E0
330
18
100
AcDbEntity
  8
01
  6
CONTINUOUS
100
AcDbLine
 10
4861.093378508269
 20
-301.5142546578867
 30
0.0000000000563712
 11
4860.893378508269
 21
-301.5142546578867
 31
0.0000000000563712
  0
LINE
  5
B3E1
330
18
100
AcDbEntity
  8
01
  6
CONTINUOUS
100
AcDbLine
 10
4860.593377105106
 20
-319.4642555781525
 30
0.0000000000563712
 11
4860.893378508269
 21
-319.4642555781524
 31
0.0000000000563712
  0
LINE
  5
B3E4
330
18
100
AcDbEntity
  8
01
  6
CONTINUOUS
100
AcDbLine
 10
4860.893378508269
 20
-303.5642555781528
 30
0.0000000000563712
 11
4860.593377105106
 21
-303.5642555781528
 31
0.0000000000563712
  0
LINE
  5
B3E5
330
18
100
AcDbEntity
  8
01
  6
CONTINUOUS
100
AcDbLine
 10
4899.593378508517
 20
-322.5142534023284
 30
0.0000000000563712
 11
4861.093375943419
 21
-322.5142536282787
 31
0.0000000000563712
  0
LINE
  5
B3E7
330
18
100
AcDbEntity
  8
01
  6
CONTINUOUS
100
AcDbLine
 10
4905.593378508399
 20
-322.514253400192
 30
0.0000000000563712
 11
4899.593378508517
 21
-322.5142534023284
 31
0.0000000000563712
  0
ARC
  5
B3E8
330
18
100
AcDbEntity
  8
01
  6
CONTINUOUS
100
AcDbCircle
 10
4905.593378508162
 20
-321.5142534001029
 30
0.0000000000563712
 40
1.000000000089003
100
AcDbArc
 50
270.0000000136008
 51
0.0000000101614905
  0
LINE
  5
B3E9
330
18
100
AcDbEntity
  8
01
  6
CONTINUOUS
100
AcDbLine
 10
4906.59337850104
 20
-301.5142566629815
 30
0.0000000000563712
 11
4906.593378508162
 21
-321.5142533999255
 31
0.0000000000563712
  0
LINE
  5
B3EA
330
18
100
AcDbEntity
  8
01
  6
CONTINUOUS
100
AcDbLine
 10
4861.093376660212
 20
-321.5142534160436
 30
0.0000000000563712
 11
4861.093377549999
 21
-301.5142566632707
 31
0.0000000000563712
  0
LINE
  5
B3EB
330
18
100
AcDbEntity
  8
01
  6
CONTINUOUS
100
AcDbLine
 10
4861.093375943253
 20
-300.5142565480605
 30
0.0000000000563712
 11
4899.59337850104
 21
-300.5142566632707
 31
0.0000000000563712
  0
LINE
  5
B3ED
330
18
100
AcDbEntity
  8
01
  6
CONTINUOUS
100
AcDbLine
 10
4899.59337850104
 20
-300.5142566632707
 30
0.0000000000563712
 11
4905.59337850104
 21
-300.5142566632707
 31
0.0000000000563712
  0
ARC
  5
B3EE
330
18
100
AcDbEntity
  8
01
  6
CONTINUOUS
100
AcDbCircle
 10
4905.59337850104
 20
-301.5142566632707
 30
0.0000000000563712
 40
0.9999999999999574
100
AcDbArc
 50
0.0000000165710461
 51
90.0
  0
LINE
  5
B3EF
330
18
100
AcDbEntity
  8
01
  6
CONTINUOUS
100
AcDbLine
 10
4860.893378508269
 20
-321.5142546578867
 30
0.0000000000563712
 11
4860.893378508269
 21
-311.5142546578867
 31
0.0000000000563712
  0
LINE
  5
B3F0
330
18
100
AcDbEntity
  8
01
  6
CONTINUOUS
100
AcDbLine
 10
4860.893378508269
 20
-311.5142546578867
 30
0.0000000000563712
 11
4860.893378508269
 21
-301.5142546578867
 31
0.0000000000563712
  0
LINE
  5
B3F5
330
18
100
AcDbEntity
  8
01
  6
CONTINUOUS
100
AcDbLine
 10
4899.393378508447
 20
-322.5142534023993
 30
0.0000000000563712
 11
4896.59350253319
 21
-322.5142534033488
 31
0.0000000000563712
  0
LINE
  5
B4BC
330
18
100
AcDbEntity
  8
01
  6
CONTINUOUS
100
AcDbLine
 10
5014.593348288837
 20
-300.5142745802179
 30
0.0000000000563712
 11
5014.593348288837
 21
-298.6246771060146
 31
0.0000000000563712
  0
LINE
  5
B4BD
330
18
100
AcDbEntity
  8
01
  6
CONTINUOUS
100
AcDbLine
 10
4989.593348288837
 20
-300.5142745802179
 30
0.0000000000563712
 11
4989.593348288837
 21
-298.6246771060146
 31
0.0000000000563712
  0
ARC
  5
B4BE
330
18
100
AcDbEntity
  8
01
100
AcDbCircle
 10
5002.093348288837
 20
-897.5142746112642
 30
0.0000000000563712
 40
600.0
100
AcDbArc
 50
88.89992996929914
 51
91.10007003070095
  0
ARC
  5
B4BF
330
18
100
AcDbEntity
  8
01
100
AcDbCircle
 10
5013.593348288837
 20
-298.6246771060146
 30
0.0000000000563712
 40
1.0
100
AcDbArc
 50
0.0
 51
88.89992996931771
  0
ARC
  5
B4C0
330
18
100
AcDbEntity
  8
01
100
AcDbCircle
 10
4990.593348288837
 20
-298.6246771060146
 30
0.0000000000563712
 40
1.0
100
AcDbArc
 50
91.1000700307344
 51
180.0
  0
LINE
  5
B4C1
330
18
100
AcDbEntity
  8
01
  6
CONTINUOUS
100
AcDbLine
 10
5014.593348288837
 20
-322.5142713171397
 30
0.0000000000563712
 11
5014.593348288837
 21
-324.4038687936352
 31
0.0000000000563712
  0
LINE
  5
B4C2
330
18
100
AcDbEntity
  8
01
  6
CONTINUOUS
100
AcDbLine
 10
4989.593348288837
 20
-322.5142713181367
 30
0.0000000000563712
 11
4989.593348288837
 21
-324.4038687936352
 31
0.0000000000563712
  0
ARC
  5
B4C3
330
18
100
AcDbEntity
  8
01
100
AcDbCircle
 10
5002.093348288837
 20
274.4857287116146
 30
0.0000000000563712
 40
600.0
100
AcDbArc
 50
268.899929969299
 51
271.1000700307009
  0
ARC
  5
B4C4
330
18
100
AcDbEntity
  8
01
100
AcDbCircle
 10
5013.593348288837
 20
-324.4038687936352
 30
0.0000000000563712
 40
1.0
100
AcDbArc
 50
271.1000700306823
 51
0.0
  0
ARC
  5
B4C5
330
18
100
AcDbEntity
  8
01
100
AcDbCircle
 10
4990.593348288837
 20
-324.4038687936352
 30
0.0000000000563712
 40
1.0
100
AcDbArc
 50
180.0
 51
268.8999299692656
  0
SPLINE
  5
B549
330
18
100
AcDbEntity
  8
01
  6
CONTINUOUS
100
AcDbSpline
210
0.0
220
0.0
230
1.0
 70
     8
 71
     3
 72
    66
 73
    62
 74
     0
 42
0.000000001
 43
0.00000001
 40
0.0
 40
0.0
 40
0.0
 40
0.0
 40
0.0227786175924677
 40
0.044982061993746
 40
0.0666030317217794
 40
0.0876346772285196
 40
0.1080707663534947
 40
0.1279057957191263
 40
0.150504515170152
 40
0.1722556374555276
 40
0.1931545117292749
 40
0.2131980112280084
 40
0.2327253081132301
 40
0.2513636337407225
 40
0.2691138205937842
 40
0.2859973189376639
 40
0.3020343859985118
 40
0.3169658124991637
 40
0.3310882858757505
 40
0.3444033336362425
 40
0.3569112798745331
 40
0.3701889259280596
 40
0.3824137328431345
 40
0.3935822725293894
 40
0.4036892911892869
 40
0.4127057810144205
 40
0.4205761348587685
 40
0.4285907402119079
 40
0.4371027347420257
 40
0.4461113947679181
 40
0.4598418578445955
 40
0.4745862177242292
 40
0.4903478307731237
 40
0.5071330198269555
 40
0.5249515640910882
 40
0.542062509704677
 40
0.5600844362597178
 40
0.5790200443184054
 40
0.5988587293546446
 40
0.6195316324737764
 40
0.6401439401465637
 40
0.6603656903082361
 40
0.6821346361928873
 40
0.7034025983323596
 40
0.724190981601948
 40
0.744520080803882
 40
0.7644077819584085
 40
0.7874793654302803
 40
0.8099734719442008
 40
0.8319103009771942
 40
0.8451603267233563
 40
0.8594523814767945
 40
0.8747809041523048
 40
0.8911360578091561
 40
0.9065948342072943
 40
0.9228468062706905
 40
0.9398751574279431
 40
0.9576969300056809
 40
0.9763361327797849
 40
0.9958079894291472
 40
1.0
 40
1.0
 40
1.0
 40
1.0
 10
4897.200963679847
 20
-297.6013617677449
 30
0.0000000000563712
 10
4897.247035348802
 20
-297.6017967630082
 30
0.0000000000563712
 10
4897.33801535058
 20
-297.6026557696554
 30
0.0000000000563712
 10
4897.472569890044
 20
-297.6039009382588
 30
0.0000000000563712
 10
4897.60330899251
 20
-297.6050940032396
 30
0.0000000000563712
 10
4897.730089721351
 20
-297.6062337512516
 30
0.0000000000563712
 10
4897.852795242327
 20
-297.6073213950835
 30
0.0000000000563712
 10
4897.978044153656
 20
-297.6084163438304
 30
0.0000000000563712
 10
4898.105165380559
 20
-297.6095115580624
 30
0.0000000000563712
 10
4898.233457945794
 20
-297.6106000183185
 30
0.0000000000563712
 10
4898.35573860608
 20
-297.6116220986227
 30
0.0000000000563712
 10
4898.472653891473
 20
-297.6125852341642
 30
0.0000000000563712
 10
4898.584138014461
 20
-297.6134905911881
 30
0.0000000000563712
 10
4898.690152083317
 20
-297.6143395483345
 30
0.0000000000563712
 10
4898.79007973854
 20
-297.6151287805509
 30
0.0000000000563712
 10
4898.884103093159
 20
-297.6158619548755
 30
0.0000000000563712
 10
4898.971934296369
 20
-297.6165389640859
 30
0.0000000000563712
 10
4899.053792173999
 20
-297.6171631206648
 30
0.0000000000563712
 10
4899.129871688828
 20
-297.6177374613666
 30
0.0000000000563712
 10
4899.200821042231
 20
-297.6182681608547
 30
0.0000000000563712
 10
4899.269523861215
 20
-297.6187777520522
 30
0.0000000000563712
 10
4899.335561148458
 20
-297.6192636298578
 30
0.0000000000563712
 10
4899.398527646887
 20
-297.6197234678306
 30
0.0000000000563712
 10
4899.455405121787
 20
-297.6201362459382
 30
0.0000000000563712
 10
4899.506283790867
 20
-297.620503779311
 30
0.0000000000563712
 10
4899.551171977394
 20
-297.6208268245359
 30
0.0000000000563712
 10
4899.592170665749
 20
-297.621122303693
 30
0.0000000000563712
 10
4899.632057406875
 20
-297.621406231145
 30
0.0000000000563712
 10
4899.673492299093
 20
-297.6216972794604
 30
0.0000000000563712
 10
4899.723773749204
 20
-297.6220459248684
 30
0.0000000000563712
 10
4899.783391399843
 20
-297.6224527210883
 30
0.0000000000563712
 10
4899.852675314677
 20
-297.6229167715996
 30
0.0000000000563712
 10
4899.925460681662
 20
-297.6233953021533
 30
0.0000000000563712
 10
4900.001464985279
 20
-297.6238858369711
 30
0.0000000000563712
 10
4900.077797009248
 20
-297.6243695306061
 30
0.0000000000563712
 10
4900.1541449909
 20
-297.6248451057349
 30
0.0000000000563712
 10
4900.230139389887
 20
-297.6253108191717
 30
0.0000000000563712
 10
4900.307764271597
 20
-297.6257789926771
 30
0.0000000000563712
 10
4900.386534489407
 20
-297.6262468997615
 30
0.0000000000563712
 10
4900.464828471988
 20
-297.626704733198
 30
0.0000000000563712
 10
4900.540629475721
 20
-297.6271440394761
 30
0.0000000000563712
 10
4900.614669642296
 20
-297.6275695327199
 30
0.0000000000563712
 10
4900.686138098426
 20
-297.6279766365819
 30
0.0000000000563712
 10
4900.754771670666
 20
-297.6283643515666
 30
0.0000000000563712
 10
4900.818430698047
 20
-297.6287210287705
 30
0.0000000000563712
 10
4900.877332397426
 20
-297.6290484871883
 30
0.0000000000563712
 10
4900.934977419985
 20
-297.6293666117867
 30
0.0000000000563712
 10
4900.990703221285
 20
-297.6296719296028
 30
0.0000000000563712
 10
4901.043905955431
 20
-297.6299613866526
 30
0.0000000000563712
 10
4901.085602442599
 20
-297.6301874911837
 30
0.0000000000563712
 10
4901.118989670715
 20
-297.6303669611911
 30
0.0000000000563712
 10
4901.146495462895
 20
-297.6305124682526
 30
0.0000000000563712
 10
4901.174240359011
 20
-297.6306574933864
 30
0.0000000000563712
 10
4901.20074457539
 20
-297.6307945115399
 30
0.0000000000563712
 10
4901.225724846309
 20
-297.6309226792513
 30
0.0000000000563712
 10
4901.248958902379
 20
-297.6310413966352
 30
0.0000000000563712
 10
4901.270919258473
 20
-297.6311536731086
 30
0.0000000000563712
 10
4901.291377350295
 20
-297.631258984597
 30
0.0000000000563712
 10
4901.30963139216
 20
-297.6313547297217
 30
0.0000000000563712
 10
4901.321936240266
 20
-297.6314202992357
 30
0.0000000000563712
 10
4901.327003047344
 20
-297.6314492853057
 30
0.0000000000563712
 10
4901.327900622902
 20
-297.6314544201354
 30
0.0000000000563712
  0
SPLINE
  5
B54A
330
18
100
AcDbEntity
  8
01
  6
CONTINUOUS
100
AcDbSpline
210
0.0
220
0.0
230
1.0
 70
     8
 71
     3
 72
    69
 73
    65
 74
     0
 42
0.000000001
 43
0.00000001
 40
0.0
 40
0.0
 40
0.0
 40
0.0
 40
0.0145475632907566
 40
0.030579529558583
 40
0.0454188298995093
 40
0.0590652179757352
 40
0.0715191340547295
 40
0.0821700646223789
 40
0.0917628859742022
 40
0.1003055863735424
 40
0.108535245249265
 40
0.1169501538635806
 40
0.136397696319749
 40
0.1567563249281052
 40
0.1780160449455583
 40
0.2001653192074081
 40
0.2147191058466303
 40
0.229645406294666
 40
0.2449549868793503
 40
0.260654039210182
 40
0.2767497109422516
 40
0.293230168818351
 40
0.3094128394163328
 40
0.3249604532578589
 40
0.3436055262314632
 40
0.3611682302453699
 40
0.3776068380309412
 40
0.3929410586437909
 40
0.4071863749317386
 40
0.4189702021926219
 40
0.4299055296656436
 40
0.4399970697791175
 40
0.4492481883387071
 40
0.4559288769739742
 40
0.4624047958418793
 40
0.4698798036084358
 40
0.4784766211632983
 40
0.4884181259675757
 40
0.4995457458707531
 40
0.511861843008133
 40
0.5253667662899996
 40
0.5400581648934786
 40
0.55593025371521
 40
0.5729730474947526
 40
0.5891308094941489
 40
0.6061916256941466
 40
0.6241379481981473
 40
0.6429686546025295
 40
0.6626934515105775
 40
0.6829500082952586
 40
0.7041007306536468
 40
0.7261687960419995
 40
0.7491864444372209
 40
0.7694832298908039
 40
0.7904655123848534
 40
0.8121072271637841
 40
0.8343767407931233
 40
0.8572366829449599
 40
0.8806569414021332
 40
0.9033016875208538
 40
0.926526158260034
 40
0.9503601729366484
 40
0.9748382821682111
 40
1.0
 40
1.0
 40
1.0
 40
1.0
 10
4893.064955530268
 20
-297.5530288083459
 30
0.0000000000563712
 10
4893.068109948862
 20
-297.5530702859682
 30
0.0000000000563712
 10
4893.074740656335
 20
-297.5531574735018
 30
0.0000000000563712
 10
4893.087356109461
 20
-297.5533313581531
 30
0.0000000000563712
 10
4893.10140659782
 20
-297.5535276288296
 30
0.0000000000563712
 10
4893.115950119442
 20
-297.5537322761151
 30
0.0000000000563712
 10
4893.130240217756
 20
-297.5539334075551
 30
0.0000000000563712
 10
4893.1438822256
 20
-297.5541246036032
 30
0.0000000000563712
 10
4893.156573229126
 20
-297.5543013020492
 30
0.0000000000563712
 10
4893.168631568014
 20
-297.5544672245937
 30
0.0000000000563712
 10
4893.180674639842
 20
-297.5546320786484
 30
0.0000000000563712
 10
4893.198848555818
 20
-297.5548808306834
 30
0.0000000000563712
 10
4893.225085282654
 20
-297.5552391977857
 30
0.0000000000563712
 10
4893.261864327383
 20
-297.555740252425
 30
0.0000000000563712
 10
4893.304134624759
 20
-297.5563144611037
 30
0.0000000000563712
 10
4893.346211658671
 20
-297.5568842976695
 30
0.0000000000563712
 10
4893.386455959768
 20
-297.5574279215411
 30
0.0000000000563712
 10
4893.423226936436
 20
-297.5579233548701
 30
0.0000000000563712
 10
4893.462871452298
 20
-297.5584559268468
 30
0.0000000000563712
 10
4893.50554419898
 20
-297.5590273221118
 30
0.0000000000563712
 10
4893.55137947775
 20
-297.5596389096667
 30
0.0000000000563712
 10
4893.599816595452
 20
-297.5602827188017
 30
0.0000000000563712
 10
4893.649831694953
 20
-297.5609450256056
 30
0.0000000000563712
 10
4893.704223121005
 20
-297.5616626464302
 30
0.0000000000563712
 10
4893.762428830653
 20
-297.5624274951955
 30
0.0000000000563712
 10
4893.824085641853
 20
-297.5632341229525
 30
0.0000000000563712
 10
4893.88400207355
 20
-297.5640146093342
 30
0.0000000000563712
 10
4893.941736607157
 20
-297.5647636194312
 30
0.0000000000563712
 10
4893.995163092914
 20
-297.5654541441513
 30
0.0000000000563712
 10
4894.044102503844
 20
-297.5660846713503
 30
0.0000000000563712
 10
4894.088463594279
 20
-297.5666547478244
 30
0.0000000000563712
 10
4894.130185484981
 20
-297.5671897990009
 30
0.0000000000563712
 10
4894.166666756661
 20
-297.5676569508691
 30
0.0000000000563712
 10
4894.198526247525
 20
-297.5680646568011
 30
0.0000000000563712
 10
4894.228202001877
 20
-297.5684443936483
 30
0.0000000000563712
 10
4894.260888821424
 20
-297.5688605031214
 30
0.0000000000563712
 10
4894.299001535069
 20
-297.5693436782817
 30
0.0000000000563712
 10
4894.343013933511
 20
-297.5698989823244
 30
0.0000000000563712
 10
4894.393248474151
 20
-297.5705296330302
 30
0.0000000000563712
 10
4894.449705254079
 20
-297.571234602969
 30
0.0000000000563712
 10
4894.512631766343
 20
-297.5720158395956
 30
0.0000000000563712
 10
4894.582276075901
 20
-297.5728751003839
 30
0.0000000000563712
 10
4894.658880357018
 20
-297.5738138593719
 30
0.0000000000563712
 10
4894.739329757031
 20
-297.574792507577
 30
0.0000000000563712
 10
4894.823222577464
 20
-297.575805355013
 30
0.0000000000563712
 10
4894.910121112091
 20
-297.5768463660983
 30
0.0000000000563712
 10
4895.003149202058
 20
-297.577951578643
 30
0.0000000000563712
 10
4895.102451096686
 20
-297.5791209587227
 30
0.0000000000563712
 10
4895.207571933985
 20
-297.5803471701487
 30
0.0000000000563712
 10
4895.318643530692
 20
-297.581629822615
 30
0.0000000000563712
 10
4895.435806838947
 20
-297.582968471825
 30
0.0000000000563712
 10
4895.559935060915
 20
-297.5843706454265
 30
0.0000000000563712
 10
4895.684241688502
 20
-297.5857578803693
 30
0.0000000000563712
 10
4895.808058890499
 20
-297.5871228626415
 30
0.0000000000563712
 10
4895.930558296532
 20
-297.5884577701713
 30
0.0000000000563712
 10
4896.05818629939
 20
-297.5898318202193
 30
0.0000000000563712
 10
4896.190736686021
 20
-297.5912408076269
 30
0.0000000000563712
 10
4896.327973633575
 20
-297.5926800971342
 30
0.0000000000563712
 10
4896.467010882248
 20
-297.5941173202868
 30
0.0000000000563712
 10
4896.607642319787
 20
-297.5955501802832
 30
0.0000000000563712
 10
4896.749821890799
 20
-297.5969778562371
 30
0.0000000000563712
 10
4896.896308840428
 20
-297.5984259727397
 30
0.0000000000563712
 10
4897.047166940101
 20
-297.5998953483508
 30
0.0000000000563712
 10
4897.149229585913
 20
-297.6008684675348
 30
0.0000000000563712
 10
4897.200963680227
 20
-297.6013617277208
 30
0.0000000000563712
  0
SPLINE
  5
B54B
330
18
100
AcDbEntity
  8
01
  6
CONTINUOUS
100
AcDbSpline
210
0.0
220
0.0
230
1.0
 70
     8
 71
     3
 72
    14
 73
    10
 74
     0
 42
0.000000001
 43
0.00000001
 40
0.0
 40
0.0
 40
0.0
 40
0.0
 40
0.2500000000000002
 40
0.2500000000000002
 40
0.5000000000000001
 40
0.5000000000000001
 40
0.75
 40
0.75
 40
1.0
 40
1.0
 40
1.0
 40
1.0
 10
4901.40546756921
 20
-297.63222997631
 30
0.0000000000563712
 10
4901.522595478817
 20
-297.6336463784814
 30
0.0000000000563712
 10
4901.648560952367
 20
-297.656383170854
 30
0.0000000000563712
 10
4901.89189968585
 20
-297.7553856660456
 30
0.0000000000563712
 10
4902.008534592745
 20
-297.8319574251104
 30
0.0000000000563712
 10
4902.200955267999
 20
-298.0267190175113
 30
0.0000000000563712
 10
4902.276111112267
 20
-298.1442712633392
 30
0.0000000000563712
 10
4902.372163968872
 20
-298.3887892679363
 30
0.0000000000563712
 10
4902.393375943253
 20
-298.5150204286523
 30
0.0000000000563712
 10
4902.393375943253
 20
-298.632156869929
 30
0.0000000000563712
  0
SPLINE
  5
B54C
330
18
100
AcDbEntity
  8
01
  6
CONTINUOUS
100
AcDbSpline
210
0.0
220
0.0
230
1.0
 70
     8
 71
     3
 72
     8
 73
     4
 74
     0
 42
0.000000001
 43
0.00000001
 40
0.0
 40
0.0
 40
0.0
 40
0.0
 40
1.0
 40
1.0
 40
1.0
 40
1.0
 10
4881.893375943253
 20
-297.5142565791061
 30
0.0000000000563712
 10
4885.611907401103
 20
-297.5142565734754
 30
0.0000000000563712
 10
4889.330461960413
 20
-297.5271103292984
 30
0.0000000000563712
 10
4893.048906330964
 20
-297.5528173858378
 30
0.0000000000563712
  0
SPLINE
  5
B54D
330
18
100
AcDbEntity
  8
01
  6
CONTINUOUS
100
AcDbSpline
210
0.0
220
0.0
230
1.0
 70
     8
 71
     3
 72
     8
 73
     4
 74
     0
 42
0.000000001
 43
0.00000001
 40
0.0
 40
0.0
 40
0.0
 40
0.0
 40
1.0
 40
1.0
 40
1.0
 40
1.0
 10
4862.38128421716
 20
-297.6322299775206
 30
0.0000000000563712
 10
4868.884958156645
 20
-297.5535824916573
 30
0.0000000000563712
 10
4875.38922648774
 20
-297.5142565880082
 30
0.0000000000563712
 10
4881.893375943253
 20
-297.5142565791061
 30
0.0000000000563712
  0
SPLINE
  5
B54E
330
18
100
AcDbEntity
  8
01
  6
CONTINUOUS
100
AcDbSpline
210
0.0
220
0.0
230
1.0
 70
     8
 71
     3
 72
    14
 73
    10
 74
     0
 42
0.000000001
 43
0.00000001
 40
0.0
 40
0.0
 40
0.0
 40
0.0
 40
0.25
 40
0.25
 40
0.5
 40
0.5
 40
0.75
 40
0.75
 40
1.0
 40
1.0
 40
1.0
 40
1.0
 10
4861.393375943253
 20
-298.632156869929
 30
0.0000000000563712
 10
4861.393375943253
 20
-298.5150204286523
 30
0.0000000000563712
 10
4861.414587915483
 20
-298.3887892679626
 30
0.0000000000563712
 10
4861.510640762352
 20
-298.1442712634829
 30
0.0000000000563712
 10
4861.585796599003
 20
-298.0267190177469
 30
0.0000000000563712
 10
4861.778217254752
 20
-297.8319574255824
 30
0.0000000000563712
 10
4861.894852149826
 20
-297.7553856666604
 30
0.0000000000563712
 10
4862.138190858645
 20
-297.6563831717662
 30
0.0000000000563712
 10
4862.264156319426
 20
-297.6336463795491
 30
0.0000000000563712
 10
4862.38128421716
 20
-297.6322299775206
 30
0.0000000000563712
  0
LINE
  5
B54F
330
18
100
AcDbEntity
  8
01
  6
CONTINUOUS
100
AcDbLine
 10
4861.393375943253
 20
-300.5142565489581
 30
0.0000000000563712
 11
4861.393375943253
 21
-298.632156869929
 31
0.0000000000563712
  0
LINE
  5
B550
330
18
100
AcDbEntity
  8
01
  6
CONTINUOUS
100
AcDbLine
 10
4902.393375943253
 20
-298.632156869929
 30
0.0000000000563712
 11
4902.393375943253
 21
-300.5142566632698
 31
0.0000000000563712
  0
SPLINE
  5
B552
330
18
100
AcDbEntity
  8
01
  6
CONTINUOUS
100
AcDbSpline
210
0.0
220
0.0
230
1.0
 70
     8
 71
     3
 72
     9
 73
     5
 74
     0
 42
0.000000001
 43
0.00000001
 40
0.0
 40
0.0
 40
0.0
 40
0.0
 40
0.54561276273686
 40
1.0
 40
1.0
 40
1.0
 40
1.0
 10
4901.347397247319
 20
-297.6315678404985
 30
0.0000000000563712
 10
4901.345403929857
 20
-297.6315576454094
 30
0.0000000000563712
 10
4901.341750574219
 20
-297.6315389598325
 30
0.0000000000563712
 10
4901.333636045733
 20
-297.6314971352862
 30
0.0000000000563712
 10
4901.329948907553
 20
-297.631478130746
 30
0.0000000000563712
  0
LINE
  5
B553
330
18
100
AcDbEntity
  8
01
  6
CONTINUOUS
100
AcDbLine
 10
4893.062901552923
 20
-297.5530137227919
 30
0.0000000000563712
 11
4893.054402904838
 21
-297.5528946484087
 31
0.0000000000563712
  0
SPLINE
  5
B554
330
18
100
AcDbEntity
  8
01
  6
PHANTOM
100
AcDbSpline
210
0.0
220
0.0
230
1.0
 70
     8
 71
     3
 72
     9
 73
     5
 74
     0
 42
0.000000001
 43
0.00000001
 40
0.0
 40
0.0
 40
0.0
 40
0.0
 40
0.80328111212524
 40
1.0
 40
1.0
 40
1.0
 40
1.0
 10
4901.353023266854
 20
-297.6315966312681
 30
0.0000000000563712
 10
4901.352812482109
 20
-297.6315955775121
 30
0.0000000000563712
 10
4901.352550077402
 20
-297.6315942656979
 30
0.0000000000563712
 10
4901.348244279161
 20
-297.6315721843225
 30
0.0000000000563712
 10
4901.347397247319
 20
-297.6315678404985
 30
0.0000000000563712
  0
SPLINE
  5
B555
330
18
100
AcDbEntity
  8
01
  6
PHANTOM
100
AcDbSpline
210
0.0
220
0.0
230
1.0
 70
     8
 71
     3
 72
     9
 73
     5
 74
     0
 42
0.000000001
 43
0.00000001
 40
0.0
 40
0.0
 40
0.0
 40
0.0
 40
0.1152981967666634
 40
1.0
 40
1.0
 40
1.0
 40
1.0
 10
4893.054402904838
 20
-297.5528946484087
 30
0.0000000000563712
 10
4893.053869354297
 20
-297.5528871734691
 30
0.0000000000563712
 10
4893.049241783734
 20
-297.5528223421083
 30
0.0000000000563712
 10
4893.049063796549
 20
-297.5528197123708
 30
0.0000000000563712
 10
4893.048906330964
 20
-297.5528173858378
 30
0.0000000000563712
  0
SPLINE
  5
B556
330
18
100
AcDbEntity
  8
01
  6
CONTINUOUS
100
AcDbSpline
210
0.0
220
0.0
230
1.0
 70
     8
 71
     3
 72
    66
 73
    62
 74
     0
 42
0.000000001
 43
0.00000001
 40
0.0
 40
0.0
 40
0.0
 40
0.0
 40
0.0227786175924677
 40
0.044982061993746
 40
0.0666030317217794
 40
0.0876346772285196
 40
0.1080707663534947
 40
0.1279057957191263
 40
0.150504515170152
 40
0.1722556374555276
 40
0.1931545117292749
 40
0.2131980112280084
 40
0.2327253081132301
 40
0.2513636337407225
 40
0.2691138205937842
 40
0.2859973189376639
 40
0.3020343859985118
 40
0.3169658124991637
 40
0.3310882858757505
 40
0.3444033336362425
 40
0.3569112798745331
 40
0.3701889259280596
 40
0.3824137328431345
 40
0.3935822725293894
 40
0.4036892911892869
 40
0.4127057810144205
 40
0.4205761348587685
 40
0.4285907402119079
 40
0.4371027347420257
 40
0.4461113947679181
 40
0.4598418578445955
 40
0.4745862177242292
 40
0.4903478307731237
 40
0.5071330198269555
 40
0.5249515640910882
 40
0.542062509704677
 40
0.5600844362597178
 40
0.5790200443184054
 40
0.5988587293546446
 40
0.6195316324737764
 40
0.6401439401465637
 40
0.6603656903082361
 40
0.6821346361928873
 40
0.7034025983323596
 40
0.724190981601948
 40
0.744520080803882
 40
0.7644077819584085
 40
0.7874793654302803
 40
0.8099734719442008
 40
0.8319103009771942
 40
0.8451603267233563
 40
0.8594523814767945
 40
0.8747809041523048
 40
0.8911360578091561
 40
0.9065948342072943
 40
0.9228468062706905
 40
0.9398751574279431
 40
0.9576969300056809
 40
0.9763361327797849
 40
0.9958079894291472
 40
1.0
 40
1.0
 40
1.0
 40
1.0
 10
4897.200963679847
 20
-325.4271493867149
 30
0.0000000000563712
 10
4897.247035348802
 20
-325.4267143914507
 30
0.0000000000563712
 10
4897.33801535058
 20
-325.4258553848035
 30
0.0000000000563712
 10
4897.472569890044
 20
-325.4246102162001
 30
0.0000000000563712
 10
4897.60330899251
 20
-325.4234171512202
 30
0.0000000000563712
 10
4897.730089721351
 20
-325.4222774032082
 30
0.0000000000563712
 10
4897.852795242327
 20
-325.4211897593763
 30
0.0000000000563712
 10
4897.978044153656
 20
-325.4200948106295
 30
0.0000000000563712
 10
4898.105165380559
 20
-325.4189995963974
 30
0.0000000000563712
 10
4898.233457945794
 20
-325.4179111361413
 30
0.0000000000563712
 10
4898.35573860608
 20
-325.4168890558371
 30
0.0000000000563712
 10
4898.472653891473
 20
-325.4159259202947
 30
0.0000000000563712
 10
4898.584138014461
 20
-325.4150205632718
 30
0.0000000000563712
 10
4898.690152083317
 20
-325.4141716061244
 30
0.0000000000563712
 10
4898.79007973854
 20
-325.413382373908
 30
0.0000000000563712
 10
4898.884103093159
 20
-325.4126491995843
 30
0.0000000000563712
 10
4898.971934296369
 20
-325.4119721903739
 30
0.0000000000563712
 10
4899.053792173999
 20
-325.411348033795
 30
0.0000000000563712
 10
4899.129871688828
 20
-325.4107736930932
 30
0.0000000000563712
 10
4899.200821042231
 20
-325.4102429936051
 30
0.0000000000563712
 10
4899.269523861215
 20
-325.4097334024067
 30
0.0000000000563712
 10
4899.335561148458
 20
-325.4092475246011
 30
0.0000000000563712
 10
4899.398527646887
 20
-325.4087876866292
 30
0.0000000000563712
 10
4899.455405121787
 20
-325.4083749085207
 30
0.0000000000563712
 10
4899.506283790867
 20
-325.4080073751488
 30
0.0000000000563712
 10
4899.551171977394
 20
-325.407684329923
 30
0.0000000000563712
 10
4899.592170665749
 20
-325.4073888507668
 30
0.0000000000563712
 10
4899.632057406875
 20
-325.4071049233148
 30
0.0000000000563712
 10
4899.673492299093
 20
-325.4068138749985
 30
0.0000000000563712
 10
4899.723773749204
 20
-325.4064652295914
 30
0.0000000000563712
 10
4899.783391399843
 20
-325.4060584333715
 30
0.0000000000563712
 10
4899.852675314677
 20
-325.4055943828593
 30
0.0000000000563712
 10
4899.925460681662
 20
-325.4051158523066
 30
0.0000000000563712
 10
4900.001464985279
 20
-325.4046253174888
 30
0.0000000000563712
 10
4900.077797009248
 20
-325.4041416238528
 30
0.0000000000563712
 10
4900.1541449909
 20
-325.4036660487249
 30
0.0000000000563712
 10
4900.230139389887
 20
-325.4032003352881
 30
0.0000000000563712
 10
4900.307764271597
 20
-325.4027321617827
 30
0.0000000000563712
 10
4900.386534489407
 20
-325.4022642546983
 30
0.0000000000563712
 10
4900.464828471988
 20
-325.4018064212618
 30
0.0000000000563712
 10
4900.540629475721
 20
-325.4013671149827
 30
0.0000000000563712
 10
4900.614669642296
 20
-325.400941621739
 30
0.0000000000563712
 10
4900.686138098426
 20
-325.400534517877
 30
0.0000000000563712
 10
4900.754771670666
 20
-325.4001468028923
 30
0.0000000000563712
 10
4900.818430698047
 20
-325.3997901256884
 30
0.0000000000563712
 10
4900.877332397426
 20
-325.3994626672715
 30
0.0000000000563712
 10
4900.934977419985
 20
-325.3991445426731
 30
0.0000000000563712
 10
4900.990703221285
 20
-325.3988392248561
 30
0.0000000000563712
 10
4901.043905955431
 20
-325.3985497678072
 30
0.0000000000563712
 10
4901.085602442599
 20
-325.3983236632752
 30
0.0000000000563712
 10
4901.118989670715
 20
-325.3981441932687
 30
0.0000000000563712
 10
4901.146495462895
 20
-325.3979986862063
 30
0.0000000000563712
 10
4901.174240359011
 20
-325.3978536610734
 30
0.0000000000563712
 10
4901.20074457539
 20
-325.3977166429199
 30
0.0000000000563712
 10
4901.225724846309
 20
-325.3975884752085
 30
0.0000000000563712
 10
4901.248958902379
 20
-325.3974697578237
 30
0.0000000000563712
 10
4901.270919258473
 20
-325.3973574813503
 30
0.0000000000563712
 10
4901.291377350295
 20
-325.3972521698628
 30
0.0000000000563712
 10
4901.30963139216
 20
-325.3971564247381
 30
0.0000000000563712
 10
4901.321936240266
 20
-325.3970908552241
 30
0.0000000000563712
 10
4901.327003047344
 20
-325.3970618691532
 30
0.0000000000563712
 10
4901.327900622902
 20
-325.3970567343244
 30
0.0000000000563712
  0
SPLINE
  5
B557
330
18
100
AcDbEntity
  8
01
  6
CONTINUOUS
100
AcDbSpline
210
0.0
220
0.0
230
1.0
 70
     8
 71
     3
 72
    69
 73
    65
 74
     0
 42
0.000000001
 43
0.00000001
 40
0.0
 40
0.0
 40
0.0
 40
0.0
 40
0.0145475632907566
 40
0.030579529558583
 40
0.0454188298995093
 40
0.0590652179757352
 40
0.0715191340547295
 40
0.0821700646223789
 40
0.0917628859742022
 40
0.1003055863735424
 40
0.108535245249265
 40
0.1169501538635806
 40
0.136397696319749
 40
0.1567563249281052
 40
0.1780160449455583
 40
0.2001653192074081
 40
0.2147191058466303
 40
0.229645406294666
 40
0.2449549868793503
 40
0.260654039210182
 40
0.2767497109422516
 40
0.293230168818351
 40
0.3094128394163328
 40
0.3249604532578589
 40
0.3436055262314632
 40
0.3611682302453699
 40
0.3776068380309412
 40
0.3929410586437909
 40
0.4071863749317386
 40
0.4189702021926219
 40
0.4299055296656436
 40
0.4399970697791175
 40
0.4492481883387071
 40
0.4559288769739742
 40
0.4624047958418793
 40
0.4698798036084358
 40
0.4784766211632983
 40
0.4884181259675757
 40
0.4995457458707531
 40
0.511861843008133
 40
0.5253667662899996
 40
0.5400581648934786
 40
0.55593025371521
 40
0.5729730474947526
 40
0.5891308094941489
 40
0.6061916256941466
 40
0.6241379481981473
 40
0.6429686546025295
 40
0.6626934515105775
 40
0.6829500082952586
 40
0.7041007306536468
 40
0.7261687960419995
 40
0.7491864444372209
 40
0.7694832298908039
 40
0.7904655123848534
 40
0.8121072271637841
 40
0.8343767407931233
 40
0.8572366829449599
 40
0.8806569414021332
 40
0.9033016875208538
 40
0.926526158260034
 40
0.9503601729366484
 40
0.9748382821682111
 40
1.0
 40
1.0
 40
1.0
 40
1.0
 10
4893.064955530268
 20
-325.4754823461139
 30
0.0000000000563712
 10
4893.068109948862
 20
-325.4754408684916
 30
0.0000000000563712
 10
4893.074740656335
 20
-325.4753536809571
 30
0.0000000000563712
 10
4893.087356109461
 20
-325.4751797963058
 30
0.0000000000563712
 10
4893.10140659782
 20
-325.4749835256293
 30
0.0000000000563712
 10
4893.115950119442
 20
-325.4747788783447
 30
0.0000000000563712
 10
4893.130240217756
 20
-325.4745777469038
 30
0.0000000000563712
 10
4893.1438822256
 20
-325.4743865508567
 30
0.0000000000563712
 10
4893.156573229126
 20
-325.4742098524106
 30
0.0000000000563712
 10
4893.168631568014
 20
-325.4740439298661
 30
0.0000000000563712
 10
4893.180674639842
 20
-325.4738790758105
 30
0.0000000000563712
 10
4893.198848555818
 20
-325.4736303237764
 30
0.0000000000563712
 10
4893.225085282654
 20
-325.4732719566741
 30
0.0000000000563712
 10
4893.261864327383
 20
-325.4727709020339
 30
0.0000000000563712
 10
4893.304134624759
 20
-325.4721966933561
 30
0.0000000000563712
 10
4893.346211658671
 20
-325.4716268567904
 30
0.0000000000563712
 10
4893.386455959768
 20
-325.4710832329187
 30
0.0000000000563712
 10
4893.423226936436
 20
-325.4705877995888
 30
0.0000000000563712
 10
4893.462871452298
 20
-325.470055227613
 30
0.0000000000563712
 10
4893.50554419898
 20
-325.469483832348
 30
0.0000000000563712
 10
4893.55137947775
 20
-325.4688722447931
 30
0.0000000000563712
 10
4893.599816595452
 20
-325.4682284356581
 30
0.0000000000563712
 10
4893.649831694953
 20
-325.4675661288533
 30
0.0000000000563712
 10
4893.704223121005
 20
-325.4668485080296
 30
0.0000000000563712
 10
4893.762428830653
 20
-325.4660836592643
 30
0.0000000000563712
 10
4893.824085641853
 20
-325.4652770315064
 30
0.0000000000563712
 10
4893.88400207355
 20
-325.4644965451247
 30
0.0000000000563712
 10
4893.941736607157
 20
-325.4637475350277
 30
0.0000000000563712
 10
4893.995163092914
 20
-325.4630570103076
 30
0.0000000000563712
 10
4894.044102503844
 20
-325.4624264831095
 30
0.0000000000563712
 10
4894.088463594279
 20
-325.4618564066354
 30
0.0000000000563712
 10
4894.130185484981
 20
-325.4613213554589
 30
0.0000000000563712
 10
4894.166666756661
 20
-325.4608542035907
 30
0.0000000000563712
 10
4894.198526247525
 20
-325.4604464976587
 30
0.0000000000563712
 10
4894.228202001877
 20
-325.4600667608115
 30
0.0000000000563712
 10
4894.260888821424
 20
-325.4596506513384
 30
0.0000000000563712
 10
4894.299001535069
 20
-325.4591674761772
 30
0.0000000000563712
 10
4894.343013933511
 20
-325.4586121721345
 30
0.0000000000563712
 10
4894.393248474151
 20
-325.4579815214287
 30
0.0000000000563712
 10
4894.449705254079
 20
-325.4572765514899
 30
0.0000000000563712
 10
4894.512631766343
 20
-325.4564953148642
 30
0.0000000000563712
 10
4894.582276075901
 20
-325.4556360540759
 30
0.0000000000563712
 10
4894.658880357018
 20
-325.4546972950879
 30
0.0000000000563712
 10
4894.739329757031
 20
-325.4537186468828
 30
0.0000000000563712
 10
4894.823222577464
 20
-325.4527057994459
 30
0.0000000000563712
 10
4894.910121112091
 20
-325.4516647883615
 30
0.0000000000563712
 10
4895.003149202058
 20
-325.4505595758168
 30
0.0000000000563712
 10
4895.102451096686
 20
-325.4493901957371
 30
0.0000000000563712
 10
4895.207571933985
 20
-325.4481639843102
 30
0.0000000000563712
 10
4895.318643530692
 20
-325.4468813318448
 30
0.0000000000563712
 10
4895.435806838947
 20
-325.4455426826339
 30
0.0000000000563712
 10
4895.559935060915
 20
-325.4441405090333
 30
0.0000000000563712
 10
4895.684241688502
 20
-325.4427532740896
 30
0.0000000000563712
 10
4895.808058890499
 20
-325.4413882918183
 30
0.0000000000563712
 10
4895.930558296532
 20
-325.4400533842885
 30
0.0000000000563712
 10
4896.05818629939
 20
-325.4386793342405
 30
0.0000000000563712
 10
4896.190736686021
 20
-325.4372703468329
 30
0.0000000000563712
 10
4896.327973633575
 20
-325.4358310573247
 30
0.0000000000563712
 10
4896.467010882248
 20
-325.4343938341721
 30
0.0000000000563712
 10
4896.607642319787
 20
-325.4329609741766
 30
0.0000000000563712
 10
4896.749821890799
 20
-325.4315332982218
 30
0.0000000000563712
 10
4896.896308840428
 20
-325.4300851817201
 30
0.0000000000563712
 10
4897.047166940101
 20
-325.428615806109
 30
0.0000000000563712
 10
4897.149229585913
 20
-325.427642686925
 30
0.0000000000563712
 10
4897.200963680227
 20
-325.427149426739
 30
0.0000000000563712
  0
SPLINE
  5
B558
330
18
100
AcDbEntity
  8
01
  6
CONTINUOUS
100
AcDbSpline
210
0.0
220
0.0
230
1.0
 70
     8
 71
     3
 72
    14
 73
    10
 74
     0
 42
0.000000001
 43
0.00000001
 40
0.0
 40
0.0
 40
0.0
 40
0.0
 40
0.2500000000000002
 40
0.2500000000000002
 40
0.5000000000000001
 40
0.5000000000000001
 40
0.75
 40
0.75
 40
1.0
 40
1.0
 40
1.0
 40
1.0
 10
4901.40546756921
 20
-325.3962811781498
 30
0.0000000000563712
 10
4901.522595478817
 20
-325.3948647759775
 30
0.0000000000563712
 10
4901.648560952367
 20
-325.3721279836058
 30
0.0000000000563712
 10
4901.89189968585
 20
-325.2731254884142
 30
0.0000000000563712
 10
4902.008534592745
 20
-325.1965537293485
 30
0.0000000000563712
 10
4902.200955267999
 20
-325.0017921369485
 30
0.0000000000563712
 10
4902.276111112267
 20
-324.8842398911206
 30
0.0000000000563712
 10
4902.372163968872
 20
-324.6397218865226
 30
0.0000000000563712
 10
4902.393375943253
 20
-324.5134907258075
 30
0.0000000000563712
 10
4902.393375943253
 20
-324.3963542845308
 30
0.0000000000563712
  0
SPLINE
  5
B559
330
18
100
AcDbEntity
  8
01
  6
CONTINUOUS
100
AcDbSpline
210
0.0
220
0.0
230
1.0
 70
     8
 71
     3
 72
     8
 73
     4
 74
     0
 42
0.000000001
 43
0.00000001
 40
0.0
 40
0.0
 40
0.0
 40
0.0
 40
1.0
 40
1.0
 40
1.0
 40
1.0
 10
4881.893375943253
 20
-325.5142545753528
 30
0.0000000000563712
 10
4885.611907401103
 20
-325.5142545809844
 30
0.0000000000563712
 10
4889.330461960413
 20
-325.5014008251614
 30
0.0000000000563712
 10
4893.048906330964
 20
-325.4756937686211
 30
0.0000000000563712
  0
SPLINE
  5
B55A
330
18
100
AcDbEntity
  8
01
  6
CONTINUOUS
100
AcDbSpline
210
0.0
220
0.0
230
1.0
 70
     8
 71
     3
 72
     8
 73
     4
 74
     0
 42
0.000000001
 43
0.00000001
 40
0.0
 40
0.0
 40
0.0
 40
0.0
 40
1.0
 40
1.0
 40
1.0
 40
1.0
 10
4862.38128421716
 20
-325.3962811769383
 30
0.0000000000563712
 10
4868.884958156645
 20
-325.4749286628025
 30
0.0000000000563712
 10
4875.38922648774
 20
-325.5142545664516
 30
0.0000000000563712
 10
4881.893375943253
 20
-325.5142545753528
 30
0.0000000000563712
  0
SPLINE
  5
B55B
330
18
100
AcDbEntity
  8
01
  6
CONTINUOUS
100
AcDbSpline
210
0.0
220
0.0
230
1.0
 70
     8
 71
     3
 72
    14
 73
    10
 74
     0
 42
0.000000001
 43
0.00000001
 40
0.0
 40
0.0
 40
0.0
 40
0.0
 40
0.25
 40
0.25
 40
0.5
 40
0.5
 40
0.75
 40
0.75
 40
1.0
 40
1.0
 40
1.0
 40
1.0
 10
4861.393375943253
 20
-324.3963542845308
 30
0.0000000000563712
 10
4861.393375943253
 20
-324.5134907258075
 30
0.0000000000563712
 10
4861.414587915483
 20
-324.6397218864972
 30
0.0000000000563712
 10
4861.510640762352
 20
-324.8842398909769
 30
0.0000000000563712
 10
4861.585796599003
 20
-325.001792136712
 30
0.0000000000563712
 10
4861.778217254752
 20
-325.1965537288774
 30
0.0000000000563712
 10
4861.894852149826
 20
-325.2731254877994
 30
0.0000000000563712
 10
4862.138190858645
 20
-325.3721279826927
 30
0.0000000000563712
 10
4862.264156319426
 20
-325.3948647749107
 30
0.0000000000563712
 10
4862.38128421716
 20
-325.3962811769383
 30
0.0000000000563712
  0
LINE
  5
B55C
330
18
100
AcDbEntity
  8
01
  6
CONTINUOUS
100
AcDbLine
 10
4861.393375943253
 20
-322.5142546055017
 30
0.0000000000563712
 11
4861.393375943253
 21
-324.3963542845308
 31
0.0000000000563712
  0
LINE
  5
B55D
330
18
100
AcDbEntity
  8
01
  6
CONTINUOUS
100
AcDbLine
 10
4902.393375943253
 20
-324.3963542845308
 30
0.0000000000563712
 11
4902.393375943253
 21
-322.5142544911891
 31
0.0000000000563712
  0
SPLINE
  5
B55F
330
18
100
AcDbEntity
  8
01
  6
CONTINUOUS
100
AcDbSpline
210
0.0
220
0.0
230
1.0
 70
     8
 71
     3
 72
     9
 73
     5
 74
     0
 42
0.000000001
 43
0.00000001
 40
0.0
 40
0.0
 40
0.0
 40
0.0
 40
0.54561276273686
 40
1.0
 40
1.0
 40
1.0
 40
1.0
 10
4901.347397247319
 20
-325.3969433139604
 30
0.0000000000563712
 10
4901.345403929857
 20
-325.3969535090504
 30
0.0000000000563712
 10
4901.341750574219
 20
-325.3969721946273
 30
0.0000000000563712
 10
4901.333636045733
 20
-325.3970140191736
 30
0.0000000000563712
 10
4901.329948907553
 20
-325.3970330237129
 30
0.0000000000563712
  0
SPLINE
  5
B560
330
18
100
AcDbEntity
  8
01
  6
PHANTOM
100
AcDbSpline
210
0.0
220
0.0
230
1.0
 70
     8
 71
     3
 72
     9
 73
     5
 74
     0
 42
0.000000001
 43
0.00000001
 40
0.0
 40
0.0
 40
0.0
 40
0.0
 40
0.80328111212524
 40
1.0
 40
1.0
 40
1.0
 40
1.0
 10
4901.353023266854
 20
-325.3969145231917
 30
0.0000000000563712
 10
4901.352812482109
 20
-325.3969155769477
 30
0.0000000000563712
 10
4901.352550077402
 20
-325.396916888762
 30
0.0000000000563712
 10
4901.348244279161
 20
-325.3969389701373
 30
0.0000000000563712
 10
4901.347397247319
 20
-325.3969433139604
 30
0.0000000000563712
  0
LINE
  5
B69F
330
18
100
AcDbEntity
  8
01
100
AcDbLine
 10
4976.09337710511
 20
-285.0142729488697
 30
0.0
 11
4965.793377105106
 21
-285.0142729488697
 31
0.0
1001
ACAD
1000
DSTYLE
1002
{
1070
     3
1000
□<>
1070
    40
1040
1.3
1070
    45
1040
0.5
1002
}
  0
LINE
  5
B6A0
330
18
100
AcDbEntity
  8
01
100
AcDbLine
 10
4976.09337710511
 20
-338.0142729488697
 30
0.0
 11
4965.793377105106
 21
-338.0142729488697
 31
0.0
1001
ACAD
1000
DSTYLE
1002
{
1070
     3
1000
□<>
1070
    40
1040
1.3
1070
    45
1040
0.5
1002
}
  0
LINE
  5
B6A1
330
18
100
AcDbEntity
  8
01
100
AcDbLine
 10
4967.093377105106
 20
-287.6142729488698
 30
0.0
 11
4967.093377105106
 21
-335.4142729488697
 31
0.0
1001
ACAD
1000
DSTYLE
1002
{
1070
     3
1000
□<>
1070
    40
1040
1.3
1070
    45
1040
0.5
1002
}
  0
LINE
  5
B6A5
330
18
100
AcDbEntity
  8
01
  6
CONTINUOUS
100
AcDbLine
 10
4985.393377105106
 20
-160.5155928967925
 30
0.0000000001127424
 11
4985.397182406776
 21
-160.5155928237169
 31
0.0000000001127424
  0
LINE
  5
B6A6
330
18
100
AcDbEntity
  8
01
  6
CONTINUOUS
100
AcDbLine
 10
4985.397182406776
 20
-160.5155928237169
 30
0.0000000001127424
 11
4985.408569351149
 21
-160.5155927450832
 31
0.0000000001127424
  0
LINE
  5
B6A7
330
18
100
AcDbEntity
  8
01
  6
CONTINUOUS
100
AcDbLine
 10
4985.408569351149
 20
-160.5155927450832
 30
0.0000000001127424
 11
4985.427451276729
 21
-160.51559266149
 31
0.0000000001127424
  0
LINE
  5
B6A8
330
18
100
AcDbEntity
  8
01
  6
CONTINUOUS
100
AcDbLine
 10
4985.427451276729
 20
-160.51559266149
 30
0.0000000001127424
 11
4985.453684480703
 21
-160.5155925735735
 31
0.0000000001127424
  0
LINE
  5
B6A9
330
18
100
AcDbEntity
  8
01
  6
CONTINUOUS
100
AcDbLine
 10
4985.453684480703
 20
-160.5155925735735
 30
0.0000000001127424
 11
4985.487069312608
 21
-160.5155924820027
 31
0.0000000001127424
  0
LINE
  5
B6AA
330
18
100
AcDbEntity
  8
01
  6
CONTINUOUS
100
AcDbLine
 10
4985.487069312608
 20
-160.5155924820027
 30
0.0000000001127424
 11
4985.527351693789
 21
-160.5155923874745
 31
0.0000000001127424
  0
LINE
  5
B6AB
330
18
100
AcDbEntity
  8
01
  6
CONTINUOUS
100
AcDbLine
 10
4985.527351693789
 20
-160.5155923874745
 30
0.0000000001127424
 11
4985.574225051091
 21
-160.5155922907084
 31
0.0000000001127424
  0
LINE
  5
B6AC
330
18
100
AcDbEntity
  8
01
  6
CONTINUOUS
100
AcDbLine
 10
4985.574225051091
 20
-160.5155922907084
 30
0.0000000001127424
 11
4985.627332650068
 21
-160.5155921924408
 31
0.0000000001127424
  0
LINE
  5
B6AD
330
18
100
AcDbEntity
  8
01
  6
CONTINUOUS
100
AcDbLine
 10
4985.627332650068
 20
-160.5155921924408
 30
0.0000000001127424
 11
4985.686270309942
 21
-160.5155920934197
 31
0.0000000001127424
  0
LINE
  5
B6AE
330
18
100
AcDbEntity
  8
01
  6
CONTINUOUS
100
AcDbLine
 10
4985.686270309942
 20
-160.5155920934197
 30
0.0000000001127424
 11
4985.750589479667
 21
-160.5155919943985
 31
0.0000000001127424
  0
LINE
  5
B6AF
330
18
100
AcDbEntity
  8
01
  6
CONTINUOUS
100
AcDbLine
 10
4985.750589479667
 20
-160.5155919943985
 30
0.0000000001127424
 11
4985.819800651665
 21
-160.5155918961309
 31
0.0000000001127424
  0
LINE
  5
B6B0
330
18
100
AcDbEntity
  8
01
  6
CONTINUOUS
100
AcDbLine
 10
4985.819800651665
 20
-160.5155918961309
 30
0.0000000001127424
 11
4985.893377087284
 21
-160.5155917993648
 31
0.0000000001127424
  0
LINE
  5
B6B1
330
18
100
AcDbEntity
  8
01
  6
CONTINUOUS
100
AcDbLine
 10
4985.893377087284
 20
-160.5155917993648
 30
0.0000000001127424
 11
4985.970758825583
 21
-160.5155917048366
 31
0.0000000001127424
  0
LINE
  5
B6B2
330
18
100
AcDbEntity
  8
01
  6
CONTINUOUS
100
AcDbLine
 10
4985.970758825583
 20
-160.5155917048366
 30
0.0000000001127424
 11
4986.051356944985
 21
-160.5155916132659
 31
0.0000000001127424
  0
LINE
  5
B6B3
330
18
100
AcDbEntity
  8
01
  6
CONTINUOUS
100
AcDbLine
 10
4986.051356944985
 20
-160.5155916132659
 30
0.0000000001127424
 11
4986.134558045313
 21
-160.5155915253493
 31
0.0000000001127424
  0
LINE
  5
B6B4
330
18
100
AcDbEntity
  8
01
  6
CONTINUOUS
100
AcDbLine
 10
4986.134558045313
 20
-160.5155915253493
 30
0.0000000001127424
 11
4986.219728916142
 21
-160.5155914417561
 31
0.0000000001127424
  0
LINE
  5
B6B5
330
18
100
AcDbEntity
  8
01
  6
CONTINUOUS
100
AcDbLine
 10
4986.219728916142
 20
-160.5155914417561
 30
0.0000000001127424
 11
4986.306221355906
 21
-160.5155913631224
 31
0.0000000001127424
  0
LINE
  5
B6B6
330
18
100
AcDbEntity
  8
01
  6
CONTINUOUS
100
AcDbLine
 10
4986.306221355906
 20
-160.5155913631224
 30
0.0000000001127424
 11
4986.393377105107
 21
-160.5155912900469
 31
0.0000000001127424
  0
LINE
  5
B6B7
330
18
100
AcDbEntity
  8
01
  6
CONTINUOUS
100
AcDbLine
 10
4988.843377105106
 20
-160.5155908453213
 30
0.0000000001127424
 11
4988.903645348187
 21
-160.5155909013992
 31
0.0000000001127424
  0
LINE
  5
B6B8
330
18
100
AcDbEntity
  8
01
  6
CONTINUOUS
100
AcDbLine
 10
4988.903645348187
 20
-160.5155909013992
 30
0.0000000001127424
 11
4988.96303474487
 21
-160.5155909630566
 31
0.0000000001127424
  0
LINE
  5
B6B9
330
18
100
AcDbEntity
  8
01
  6
CONTINUOUS
100
AcDbLine
 10
4988.96303474487
 20
-160.5155909630566
 30
0.0000000001127424
 11
4989.020679266791
 21
-160.5155910293942
 31
0.0000000001127424
  0
LINE
  5
B6BA
330
18
100
AcDbEntity
  8
01
  6
CONTINUOUS
100
AcDbLine
 10
4989.020679266791
 20
-160.5155910293942
 30
0.0000000001127424
 11
4989.075738329701
 21
-160.515591099445
 31
0.0000000001127424
  0
LINE
  5
B6BB
330
18
100
AcDbEntity
  8
01
  6
CONTINUOUS
100
AcDbLine
 10
4989.075738329701
 20
-160.515591099445
 30
0.0000000001127424
 11
4989.127409051051
 21
-160.5155911721872
 31
0.0000000001127424
  0
LINE
  5
B6BC
330
18
100
AcDbEntity
  8
01
  6
CONTINUOUS
100
AcDbLine
 10
4989.127409051051
 20
-160.5155911721872
 30
0.0000000001127424
 11
4989.174937957778
 21
-160.5155912465602
 31
0.0000000001127424
  0
LINE
  5
B6BD
330
18
100
AcDbEntity
  8
01
  6
CONTINUOUS
100
AcDbLine
 10
4989.174937957778
 20
-160.5155912465602
 30
0.0000000001127424
 11
4989.217631973613
 21
-160.5155913214794
 31
0.0000000001127424
  0
LINE
  5
B6BE
330
18
100
AcDbEntity
  8
01
  6
CONTINUOUS
100
AcDbLine
 10
4989.217631973613
 20
-160.5155913214794
 30
0.0000000001127424
 11
4989.254868525657
 21
-160.5155913958524
 31
0.0000000001127424
  0
LINE
  5
B6BF
330
18
100
AcDbEntity
  8
01
  6
CONTINUOUS
100
AcDbLine
 10
4989.254868525657
 20
-160.5155913958524
 30
0.0000000001127424
 11
4989.28610462287
 21
-160.5155914685946
 31
0.0000000001127424
  0
LINE
  5
B6C0
330
18
100
AcDbEntity
  8
01
  6
CONTINUOUS
100
AcDbLine
 10
4989.28610462287
 20
-160.5155914685946
 30
0.0000000001127424
 11
4989.310884774071
 21
-160.5155915386453
 31
0.0000000001127424
  0
LINE
  5
B6C1
330
18
100
AcDbEntity
  8
01
  6
CONTINUOUS
100
AcDbLine
 10
4989.310884774071
 20
-160.5155915386453
 30
0.0000000001127424
 11
4989.328847630013
 21
-160.515591604983
 31
0.0000000001127424
  0
LINE
  5
B6C2
330
18
100
AcDbEntity
  8
01
  6
CONTINUOUS
100
AcDbLine
 10
4989.328847630013
 20
-160.515591604983
 30
0.0000000001127424
 11
4989.339731252644
 21
-160.5155916666403
 31
0.0000000001127424
  0
LINE
  5
B6C3
330
18
100
AcDbEntity
  8
01
  6
CONTINUOUS
100
AcDbLine
 10
4989.339731252644
 20
-160.5155916666403
 30
0.0000000001127424
 11
4989.343377105103
 21
-160.5155917227184
 31
0.0000000001127424
  0
LINE
  5
B6C4
330
18
100
AcDbEntity
  8
01
  6
CONTINUOUS
100
AcDbLine
 10
4861.093375943419
 20
-322.5142536282787
 30
0.0
 11
4861.093375976019
 21
-322.5104482906222
 31
0.0
  0
LINE
  5
B6C5
330
18
100
AcDbEntity
  8
01
  6
CONTINUOUS
100
AcDbLine
 10
4861.093375976019
 20
-322.5104482906222
 30
0.0
 11
4861.093376011099
 21
-322.499061312546
 31
0.0
  0
LINE
  5
B6C6
330
18
100
AcDbEntity
  8
01
  6
CONTINUOUS
100
AcDbLine
 10
4861.093376011099
 20
-322.499061312546
 30
0.0
 11
4861.093376048391
 21
-322.4801793557821
 31
0.0
  0
LINE
  5
B6C7
330
18
100
AcDbEntity
  8
01
  6
CONTINUOUS
100
AcDbLine
 10
4861.093376048391
 20
-322.4801793557821
 30
0.0
 11
4861.093376087612
 21
-322.4539461233457
 31
0.0
  0
LINE
  5
B6C8
330
18
100
AcDbEntity
  8
01
  6
CONTINUOUS
100
AcDbLine
 10
4861.093376087612
 20
-322.4539461233457
 30
0.0
 11
4861.093376128463
 21
-322.4205612658674
 31
0.0
  0
LINE
  5
B6C9
330
18
100
AcDbEntity
  8
01
  6
CONTINUOUS
100
AcDbLine
 10
4861.093376128463
 20
-322.4205612658674
 30
0.0
 11
4861.093376170634
 21
-322.3802788621346
 31
0.0
  0
LINE
  5
B6CA
330
18
100
AcDbEntity
  8
01
  6
CONTINUOUS
100
AcDbLine
 10
4861.093376170634
 20
-322.3802788621346
 30
0.0
 11
4861.093376213802
 21
-322.3334054853962
 31
0.0
  0
LINE
  5
B6CB
330
18
100
AcDbEntity
  8
01
  6
CONTINUOUS
100
AcDbLine
 10
4861.093376213802
 20
-322.3334054853962
 30
0.0
 11
4861.093376257641
 21
-322.2802978701597
 31
0.0
  0
LINE
  5
B6CC
330
18
100
AcDbEntity
  8
01
  6
CONTINUOUS
100
AcDbLine
 10
4861.093376257641
 20
-322.2802978701597
 30
0.0
 11
4861.093376301816
 21
-322.2213601972257
 31
0.0
  0
LINE
  5
B6CD
330
18
100
AcDbEntity
  8
01
  6
CONTINUOUS
100
AcDbLine
 10
4861.093376301816
 20
-322.2213601972257
 30
0.0
 11
4861.093376345991
 21
-322.1570410176313
 31
0.0
  0
LINE
  5
B6CE
330
18
100
AcDbEntity
  8
01
  6
CONTINUOUS
100
AcDbLine
 10
4861.093376345991
 20
-322.1570410176313
 30
0.0
 11
4861.093376389829
 21
-322.0878298389056
 31
0.0
  0
LINE
  5
B6CF
330
18
100
AcDbEntity
  8
01
  6
CONTINUOUS
100
AcDbLine
 10
4861.093376389829
 20
-322.0878298389056
 30
0.0
 11
4861.093376432998
 21
-322.0142533996245
 31
0.0
  0
LINE
  5
B6D0
330
18
100
AcDbEntity
  8
01
  6
CONTINUOUS
100
AcDbLine
 10
4861.093376432998
 20
-322.0142533996245
 30
0.0
 11
4861.093376475168
 21
-321.9368716606145
 31
0.0
  0
LINE
  5
B6D1
330
18
100
AcDbEntity
  8
01
  6
CONTINUOUS
100
AcDbLine
 10
4861.093376475168
 20
-321.9368716606145
 30
0.0
 11
4861.09337651602
 21
-321.8562735433183
 31
0.0
  0
LINE
  5
B6D2
330
18
100
AcDbEntity
  8
01
  6
CONTINUOUS
100
AcDbLine
 10
4861.09337651602
 20
-321.8562735433183
 30
0.0
 11
4861.09337655524
 21
-321.773072447741
 31
0.0
  0
LINE
  5
B6D3
330
18
100
AcDbEntity
  8
01
  6
CONTINUOUS
100
AcDbLine
 10
4861.09337655524
 20
-321.773072447741
 30
0.0
 11
4861.093376592533
 21
-321.6879015841172
 31
0.0
  0
LINE
  5
B6D4
330
18
100
AcDbEntity
  8
01
  6
CONTINUOUS
100
AcDbLine
 10
4861.093376592533
 20
-321.6879015841172
 30
0.0
 11
4861.093376627612
 21
-321.6014091537967
 31
0.0
  0
LINE
  5
B6D5
330
18
100
AcDbEntity
  8
01
  6
CONTINUOUS
100
AcDbLine
 10
4861.093376627612
 20
-321.6014091537967
 30
0.0
 11
4861.093376660212
 21
-321.5142534160436
 31
0.0
  0
LINE
  5
B6D6
330
18
100
AcDbEntity
  8
01
  6
CONTINUOUS
100
AcDbLine
 10
4861.093377549999
 20
-301.5142566632707
 30
0.0
 11
4861.093377476923
 21
-301.427100913193
 31
0.0
  0
LINE
  5
B6D7
330
18
100
AcDbEntity
  8
01
  6
CONTINUOUS
100
AcDbLine
 10
4861.093377476923
 20
-301.427100913193
 30
0.0
 11
4861.09337739829
 21
-301.3406084708044
 31
0.0
  0
LINE
  5
B6D8
330
18
100
AcDbEntity
  8
01
  6
CONTINUOUS
100
AcDbLine
 10
4861.09337739829
 20
-301.3406084708044
 30
0.0
 11
4861.093377314696
 21
-301.2554375956256
 31
0.0
  0
LINE
  5
B6D9
330
18
100
AcDbEntity
  8
01
  6
CONTINUOUS
100
AcDbLine
 10
4861.093377314696
 20
-301.2554375956256
 30
0.0
 11
4861.09337722678
 21
-301.1722364892525
 31
0.0
  0
LINE
  5
B6DA
330
18
100
AcDbEntity
  8
01
  6
CONTINUOUS
100
AcDbLine
 10
4861.09337722678
 20
-301.1722364892525
 30
0.0
 11
4861.093377135209
 21
-301.0916383621583
 31
0.0
  0
LINE
  5
B6DB
330
18
100
AcDbEntity
  8
01
  6
CONTINUOUS
100
AcDbLine
 10
4861.093377135209
 20
-301.0916383621583
 30
0.0
 11
4861.093377040681
 21
-301.0142566145764
 31
0.0
  0
LINE
  5
B6DC
330
18
100
AcDbEntity
  8
01
  6
CONTINUOUS
100
AcDbLine
 10
4861.093377040681
 20
-301.0142566145764
 30
0.0
 11
4861.093376943914
 21
-300.9406801681584
 31
0.0
  0
LINE
  5
B6DD
330
18
100
AcDbEntity
  8
01
  6
CONTINUOUS
100
AcDbLine
 10
4861.093376943914
 20
-300.9406801681584
 30
0.0
 11
4861.093376845647
 21
-300.8714689839221
 31
0.0
  0
LINE
  5
B6DE
330
18
100
AcDbEntity
  8
01
  6
CONTINUOUS
100
AcDbLine
 10
4861.093376845647
 20
-300.8714689839221
 30
0.0
 11
4861.093376746626
 21
-300.8071498006179
 31
0.0
  0
LINE
  5
B6DF
330
18
100
AcDbEntity
  8
01
  6
CONTINUOUS
100
AcDbLine
 10
4861.093376746626
 20
-300.8071498006179
 30
0.0
 11
4861.093376647605
 21
-300.7482121259231
 31
0.0
  0
LINE
  5
B6E0
330
18
100
AcDbEntity
  8
01
  6
CONTINUOUS
100
AcDbLine
 10
4861.093376647605
 20
-300.7482121259231
 30
0.0
 11
4861.093376549337
 21
-300.6951045109994
 31
0.0
  0
LINE
  5
B6E1
330
18
100
AcDbEntity
  8
01
  6
CONTINUOUS
100
AcDbLine
 10
4861.093376549337
 20
-300.6951045109994
 30
0.0
 11
4861.093376452571
 21
-300.648231136743
 31
0.0
  0
LINE
  5
B6E2
330
18
100
AcDbEntity
  8
01
  6
CONTINUOUS
100
AcDbLine
 10
4861.093376452571
 20
-300.648231136743
 30
0.0
 11
4861.093376358043
 21
-300.6079487377323
 31
0.0
  0
LINE
  5
B6E3
330
18
100
AcDbEntity
  8
01
  6
CONTINUOUS
100
AcDbLine
 10
4861.093376358043
 20
-300.6079487377323
 30
0.0
 11
4861.093376266472
 21
-300.5745638872563
 31
0.0
  0
LINE
  5
B6E4
330
18
100
AcDbEntity
  8
01
  6
CONTINUOUS
100
AcDbLine
 10
4861.093376266472
 20
-300.5745638872563
 30
0.0
 11
4861.093376178555
 21
-300.5483306641103
 31
0.0
  0
LINE
  5
B6E5
330
18
100
AcDbEntity
  8
01
  6
CONTINUOUS
100
AcDbLine
 10
4861.093376178555
 20
-300.5483306641103
 30
0.0
 11
4861.093376094962
 21
-300.5294487189053
 31
0.0
  0
LINE
  5
B6E6
330
18
100
AcDbEntity
  8
01
  6
CONTINUOUS
100
AcDbLine
 10
4861.093376094962
 20
-300.5294487189053
 30
0.0
 11
4861.093376016329
 21
-300.5180617546025
 31
0.0
  0
LINE
  5
B6E7
330
18
100
AcDbEntity
  8
01
  6
CONTINUOUS
100
AcDbLine
 10
4861.093376016329
 20
-300.5180617546025
 30
0.0
 11
4861.093375943253
 21
-300.5142565480605
 31
0.0
  0
LINE
  5
B6E8
330
18
100
AcDbEntity
  8
01
  6
CONTINUOUS
100
AcDbLine
 10
4901.353023266854
 20
-297.6315966312681
 30
0.0
 11
4901.38239207871
 21
-297.6319510944863
 31
0.0
  0
LINE
  5
B6E9
330
18
100
AcDbEntity
  8
01
  6
CONTINUOUS
100
AcDbLine
 10
4901.38239207871
 20
-297.6319510944863
 30
0.0
 11
4901.40546756921
 21
-297.63222997631
 31
0.0
  0
LINE
  5
B6EA
330
18
100
AcDbEntity
  8
01
  6
CONTINUOUS
100
AcDbLine
 10
4901.353023266854
 20
-325.3969145231917
 30
0.0
 11
4901.38239207871
 21
-325.3965600599726
 31
0.0
  0
LINE
  5
B6EB
330
18
100
AcDbEntity
  8
01
  6
CONTINUOUS
100
AcDbLine
 10
4901.38239207871
 20
-325.3965600599726
 30
0.0
 11
4901.40546756921
 21
-325.3962811781498
 31
0.0
  0
LINE
  5
B6EC
330
18
100
AcDbEntity
  8
01
  6
BYBLOCK
100
AcDbLine
 10
4966.396709211106
 20
-287.6142729488698
 30
0.0
 11
4967.093377105106
 21
-285.0142729488697
 31
0.0
  0
LINE
  5
B6ED
330
18
100
AcDbEntity
  8
01
  6
BYBLOCK
100
AcDbLine
 10
4967.093377105106
 20
-285.0142729488697
 30
0.0
 11
4967.790044999106
 21
-287.6142729488698
 31
0.0
  0
LINE
  5
B6EE
330
18
100
AcDbEntity
  8
01
  6
BYBLOCK
100
AcDbLine
 10
4967.093377105106
 20
-285.0142729488697
 30
0.0
 11
4967.093377105106
 21
-287.6142729488698
 31
0.0
  0
LINE
  5
B6EF
330
18
100
AcDbEntity
  8
01
  6
BYBLOCK
100
AcDbLine
 10
4967.790044999106
 20
-335.4142729488697
 30
0.0
 11
4967.093377105106
 21
-338.0142729488697
 31
0.0
  0
LINE
  5
B6F0
330
18
100
AcDbEntity
  8
01
  6
BYBLOCK
100
AcDbLine
 10
4967.093377105106
 20
-338.0142729488697
 30
0.0
 11
4966.396709211106
 21
-335.4142729488697
 31
0.0
  0
LINE
  5
B6F1
330
18
100
AcDbEntity
  8
01
  6
BYBLOCK
100
AcDbLine
 10
4967.093377105106
 20
-338.0142729488697
 30
0.0
 11
4967.093377105106
 21
-335.4142729488697
 31
0.0
  0
TEXT
  5
B6F2
330
18
100
AcDbEntity
  8
01
  6
CONTINUOUS
100
AcDbText
 10
4966.183377105105
 20
-319.5431508554666
 30
0.0
 40
4.55
  1
□53
 50
90.0
100
AcDbText
1001
ACAD
1000
DSTYLE
1002
{
1070
     3
1000
□<>
1070
    40
1040
1.3
1070
    45
1040
0.5
1002
}
  0
LINE
  5
B6F3
330
18
100
AcDbEntity
  8
1DIM
100
AcDbLine
 10
5002.093377105106
 20
-173.0155912619707
 30
0.0000000001127424
 11
5002.093377105106
 21
-237.8155912619707
 31
0.0000000001127424
1001
ACAD
1000
DSTYLE
1002
{
1070
    40
1040
1.3
1070
    45
1040
0.5
1002
}
  0
LINE
  5
B6F4
330
18
100
AcDbEntity
  8
1DIM
100
AcDbLine
 10
5127.093374311138
 20
-203.815618706021
 30
0.0000000001127424
 11
5127.093374311138
 21
-237.8155912619707
 31
0.0000000001127424
1001
ACAD
1000
DSTYLE
1002
{
1070
    40
1040
1.3
1070
    45
1040
0.5
1002
}
  0
LINE
  5
B6F5
330
18
100
AcDbEntity
  8
1DIM
100
AcDbLine
 10
5004.693377105106
 20
-236.5155912619707
 30
0.0000000001127424
 11
5124.493374311138
 21
-236.5155912619707
 31
0.0000000001127424
1001
ACAD
1000
DSTYLE
1002
{
1070
    40
1040
1.3
1070
    45
1040
0.5
1002
}
  0
LINE
  5
B6F9
330
18
100
AcDbEntity
  8
1DIM
100
AcDbLine
 10
4985.393377105106
 20
-199.0155938475447
 30
0.0000000001127424
 11
4985.393377105106
 21
-247.8155912619707
 31
0.0000000001127424
1001
ACAD
1000
DSTYLE
1002
{
1070
    40
1040
1.3
1070
    45
1040
0.5
1002
}
  0
LINE
  5
B6FA
330
18
100
AcDbEntity
  8
1DIM
100
AcDbLine
 10
5127.093374311138
 20
-203.8156177940711
 30
0.0000000001127424
 11
5127.093374311138
 21
-247.8155912619707
 31
0.0000000001127424
1001
ACAD
1000
DSTYLE
1002
{
1070
    40
1040
1.3
1070
    45
1040
0.5
1002
}
  0
LINE
  5
B6FB
330
18
100
AcDbEntity
  8
1DIM
100
AcDbLine
 10
4987.993377105106
 20
-246.5155912619707
 30
0.0000000001127424
 11
5124.493374311138
 21
-246.5155912619707
 31
0.0000000001127424
1001
ACAD
1000
DSTYLE
1002
{
1070
    40
1040
1.3
1070
    45
1040
0.5
1002
}
  0
LINE
  5
B6FF
330
18
100
AcDbEntity
  8
1DIM
100
AcDbLine
 10
5125.093347513359
 20
-195.0156953014587
 30
0.0000000001127424
 11
5158.393377105106
 21
-195.0156953014587
 31
0.0000000001127424
1001
ACAD
1000
DSTYLE
1002
{
1070
    40
1040
1.3
1070
    45
1040
0.5
1002
}
  0
LINE
  5
B700
330
18
100
AcDbEntity
  8
1DIM
100
AcDbLine
 10
5104.848525102454
 20
-151.5155912619707
 30
0.0000000001127424
 11
5158.393377105106
 21
-151.5155912619707
 31
0.0000000001127424
1001
ACAD
1000
DSTYLE
1002
{
1070
    40
1040
1.3
1070
    45
1040
0.5
1002
}
  0
LINE
  5
B701
330
18
100
AcDbEntity
  8
1DIM
100
AcDbLine
 10
5157.093377105106
 20
-192.4156953014587
 30
0.0000000001127424
 11
5157.093377105106
 21
-154.1155912619706
 31
0.0000000001127424
1001
ACAD
1000
DSTYLE
1002
{
1070
    40
1040
1.3
1070
    45
1040
0.5
1002
}
  0
LINE
  5
B705
330
18
100
AcDbEntity
  8
1DIM
100
AcDbLine
 10
5125.093374311138
 20
-206.015593847835
 30
0.0000000001127424
 11
5168.393377105106
 21
-206.015593847835
 31
0.0000000001127424
1001
ACAD
1000
DSTYLE
1002
{
1070
    40
1040
1.3
1070
    45
1040
0.5
1002
}
  0
LINE
  5
B706
330
18
100
AcDbEntity
  8
1DIM
100
AcDbLine
 10
5104.848525102454
 20
-151.5155912619707
 30
0.0000000001127424
 11
5168.393377105106
 21
-151.5155912619707
 31
0.0000000001127424
1001
ACAD
1000
DSTYLE
1002
{
1070
    40
1040
1.3
1070
    45
1040
0.5
1002
}
  0
LINE
  5
B707
330
18
100
AcDbEntity
  8
1DIM
100
AcDbLine
 10
5167.093377105106
 20
-203.4155938478351
 30
0.0000000001127424
 11
5167.093377105106
 21
-154.1155912619706
 31
0.0000000001127424
1001
ACAD
1000
DSTYLE
1002
{
1070
    40
1040
1.3
1070
    45
1040
0.5
1002
}
  0
LINE
  5
B70B
330
18
100
AcDbEntity
  8
1DIM
100
AcDbLine
 10
5126.093377105106
 20
-322.5142713174957
 30
0.0
 11
5158.393377105106
 21
-322.5142713174957
 31
0.0
1001
ACAD
1000
DSTYLE
1002
{
1070
    40
1040
1.3
1070
    45
1040
0.5
1002
}
  0
LINE
  5
B70C
330
18
100
AcDbEntity
  8
1DIM
100
AcDbLine
 10
5126.093377105106
 20
-300.5142745802179
 30
0.0
 11
5158.393377105106
 21
-300.5142745802179
 31
0.0
1001
ACAD
1000
DSTYLE
1002
{
1070
    40
1040
1.3
1070
    45
1040
0.5
1002
}
  0
LINE
  5
B70D
330
18
100
AcDbEntity
  8
1DIM
100
AcDbLine
 10
5157.093377105106
 20
-319.9142713174957
 30
0.0
 11
5157.093377105106
 21
-303.1142745802179
 31
0.0
1001
ACAD
1000
DSTYLE
1002
{
1070
    40
1040
1.3
1070
    45
1040
0.5
1002
}
  0
LINE
  5
B711
330
18
100
AcDbEntity
  8
0
  6
BYBLOCK
100
AcDbLine
 10
5004.693377105106
 20
-237.2122591559707
 30
0.0000000001127424
 11
5002.093377105106
 21
-236.5155912619707
 31
0.0000000001127424
  0
LINE
  5
B712
330
18
100
AcDbEntity
  8
0
  6
BYBLOCK
100
AcDbLine
 10
5002.093377105106
 20
-236.5155912619707
 30
0.0000000001127424
 11
5004.693377105106
 21
-235.8189233679707
 31
0.0000000001127424
  0
LINE
  5
B713
330
18
100
AcDbEntity
  8
0
  6
BYBLOCK
100
AcDbLine
 10
5002.093377105106
 20
-236.5155912619707
 30
0.0000000001127424
 11
5004.693377105106
 21
-236.5155912619707
 31
0.0000000001127424
  0
LINE
  5
B714
330
18
100
AcDbEntity
  8
0
  6
BYBLOCK
100
AcDbLine
 10
5124.493374311138
 20
-235.8189233679707
 30
0.0000000001127424
 11
5127.093374311138
 21
-236.5155912619707
 31
0.0000000001127424
  0
LINE
  5
B715
330
18
100
AcDbEntity
  8
0
  6
BYBLOCK
100
AcDbLine
 10
5127.093374311138
 20
-236.5155912619707
 30
0.0000000001127424
 11
5124.493374311138
 21
-237.2122591559707
 31
0.0000000001127424
  0
LINE
  5
B716
330
18
100
AcDbEntity
  8
0
  6
BYBLOCK
100
AcDbLine
 10
5127.093374311138
 20
-236.5155912619707
 30
0.0000000001127424
 11
5124.493374311138
 21
-236.5155912619707
 31
0.0000000001127424
  0
TEXT
  5
B717
330
18
100
AcDbEntity
  8
1DIM
  6
CONTINUOUS
100
AcDbText
 10
5059.285042374789
 20
-235.6055912619707
 30
0.0000000001127424
 40
4.55
  1
125
100
AcDbText
1001
ACAD
1000
DSTYLE
1002
{
1070
    40
1040
1.3
1070
    45
1040
0.5
1002
}
  0
LINE
  5
B718
330
18
100
AcDbEntity
  8
0
  6
BYBLOCK
100
AcDbLine
 10
4987.993377105106
 20
-247.2122591559707
 30
0.0000000001127424
 11
4985.393377105106
 21
-246.5155912619707
 31
0.0000000001127424
  0
LINE
  5
B719
330
18
100
AcDbEntity
  8
0
  6
BYBLOCK
100
AcDbLine
 10
4985.393377105106
 20
-246.5155912619707
 30
0.0000000001127424
 11
4987.993377105106
 21
-245.8189233679707
 31
0.0000000001127424
  0
LINE
  5
B71A
330
18
100
AcDbEntity
  8
0
  6
BYBLOCK
100
AcDbLine
 10
4985.393377105106
 20
-246.5155912619707
 30
0.0000000001127424
 11
4987.993377105106
 21
-246.5155912619707
 31
0.0000000001127424
  0
LINE
  5
B71B
330
18
100
AcDbEntity
  8
0
  6
BYBLOCK
100
AcDbLine
 10
5124.493374311138
 20
-245.8189233679707
 30
0.0000000001127424
 11
5127.093374311138
 21
-246.5155912619707
 31
0.0000000001127424
  0
LINE
  5
B71C
330
18
100
AcDbEntity
  8
0
  6
BYBLOCK
100
AcDbLine
 10
5127.093374311138
 20
-246.5155912619707
 30
0.0000000001127424
 11
5124.493374311138
 21
-247.2122591559707
 31
0.0000000001127424
  0
LINE
  5
B71D
330
18
100
AcDbEntity
  8
0
  6
BYBLOCK
100
AcDbLine
 10
5127.093374311138
 20
-246.5155912619707
 30
0.0000000001127424
 11
5124.493374311138
 21
-246.5155912619707
 31
0.0000000001127424
  0
TEXT
  5
B71E
330
18
100
AcDbEntity
  8
1DIM
  6
CONTINUOUS
100
AcDbText
 10
5048.660042374789
 20
-245.6055912619707
 30
0.0000000001127424
 40
4.55
  1
141.5
100
AcDbText
1001
ACAD
1000
DSTYLE
1002
{
1070
    40
1040
1.3
1070
    45
1040
0.5
1002
}
  0
LINE
  5
B71F
330
18
100
AcDbEntity
  8
0
  6
BYBLOCK
100
AcDbLine
 10
5157.790044999106
 20
-192.4156953014587
 30
0.0000000001127424
 11
5157.093377105106
 21
-195.0156953014587
 31
0.0000000001127424
  0
LINE
  5
B720
330
18
100
AcDbEntity
  8
0
  6
BYBLOCK
100
AcDbLine
 10
5157.093377105106
 20
-195.0156953014587
 30
0.0000000001127424
 11
5156.396709211106
 21
-192.4156953014587
 31
0.0000000001127424
  0
LINE
  5
B721
330
18
100
AcDbEntity
  8
0
  6
BYBLOCK
100
AcDbLine
 10
5157.093377105106
 20
-195.0156953014587
 30
0.0000000001127424
 11
5157.093377105106
 21
-192.4156953014587
 31
0.0000000001127424
  0
LINE
  5
B722
330
18
100
AcDbEntity
  8
0
  6
BYBLOCK
100
AcDbLine
 10
5156.396709211106
 20
-154.1155912619706
 30
0.0000000001127424
 11
5157.093377105106
 21
-151.5155912619707
 31
0.0000000001127424
  0
LINE
  5
B723
330
18
100
AcDbEntity
  8
0
  6
BYBLOCK
100
AcDbLine
 10
5157.093377105106
 20
-151.5155912619707
 30
0.0000000001127424
 11
5157.790044999106
 21
-154.1155912619706
 31
0.0000000001127424
  0
LINE
  5
B724
330
18
100
AcDbEntity
  8
0
  6
BYBLOCK
100
AcDbLine
 10
5157.093377105106
 20
-151.5155912619707
 30
0.0000000001127424
 11
5157.093377105106
 21
-154.1155912619706
 31
0.0000000001127424
  0
TEXT
  5
B725
330
18
100
AcDbEntity
  8
1DIM
  6
CONTINUOUS
100
AcDbText
 10
5156.183377105105
 20
-180.0906432817146
 30
0.0000000001127424
 40
4.55
  1
43.5
 50
90.0
100
AcDbText
1001
ACAD
1000
DSTYLE
1002
{
1070
    40
1040
1.3
1070
    45
1040
0.5
1002
}
  0
LINE
  5
B726
330
18
100
AcDbEntity
  8
0
  6
BYBLOCK
100
AcDbLine
 10
5167.790044999106
 20
-203.4155938478351
 30
0.0000000001127424
 11
5167.093377105106
 21
-206.015593847835
 31
0.0000000001127424
  0
LINE
  5
B727
330
18
100
AcDbEntity
  8
0
  6
BYBLOCK
100
AcDbLine
 10
5167.093377105106
 20
-206.015593847835
 30
0.0000000001127424
 11
5166.396709211106
 21
-203.4155938478351
 31
0.0000000001127424
  0
LINE
  5
B728
330
18
100
AcDbEntity
  8
0
  6
BYBLOCK
100
AcDbLine
 10
5167.093377105106
 20
-206.015593847835
 30
0.0000000001127424
 11
5167.093377105106
 21
-203.4155938478351
 31
0.0000000001127424
  0
LINE
  5
B729
330
18
100
AcDbEntity
  8
0
  6
BYBLOCK
100
AcDbLine
 10
5166.396709211106
 20
-154.1155912619706
 30
0.0000000001127424
 11
5167.093377105106
 21
-151.5155912619707
 31
0.0000000001127424
  0
LINE
  5
B72A
330
18
100
AcDbEntity
  8
0
  6
BYBLOCK
100
AcDbLine
 10
5167.093377105106
 20
-151.5155912619707
 30
0.0000000001127424
 11
5167.790044999106
 21
-154.1155912619706
 31
0.0000000001127424
  0
LINE
  5
B72B
330
18
100
AcDbEntity
  8
0
  6
BYBLOCK
100
AcDbLine
 10
5167.093377105106
 20
-151.5155912619707
 30
0.0000000001127424
 11
5167.093377105106
 21
-154.1155912619706
 31
0.0000000001127424
  0
TEXT
  5
B72C
330
18
100
AcDbEntity
  8
1DIM
  6
CONTINUOUS
100
AcDbText
 10
5166.183377105106
 20
-185.606391166014
 30
0.0000000001127424
 40
4.55
  1
54.5
 50
90.0
100
AcDbText
1001
ACAD
1000
DSTYLE
1002
{
1070
    40
1040
1.3
1070
    45
1040
0.5
1002
}
  0
LINE
  5
B72D
330
18
100
AcDbEntity
  8
0
  6
BYBLOCK
100
AcDbLine
 10
5157.790044999106
 20
-319.9142713174957
 30
0.0
 11
5157.093377105106
 21
-322.5142713174957
 31
0.0
  0
LINE
  5
B72E
330
18
100
AcDbEntity
  8
0
  6
BYBLOCK
100
AcDbLine
 10
5157.093377105106
 20
-322.5142713174957
 30
0.0
 11
5156.396709211106
 21
-319.9142713174957
 31
0.0
  0
LINE
  5
B72F
330
18
100
AcDbEntity
  8
0
  6
BYBLOCK
100
AcDbLine
 10
5157.093377105106
 20
-322.5142713174957
 30
0.0
 11
5157.093377105106
 21
-319.9142713174957
 31
0.0
  0
LINE
  5
B730
330
18
100
AcDbEntity
  8
0
  6
BYBLOCK
100
AcDbLine
 10
5156.396709211106
 20
-303.1142745802179
 30
0.0
 11
5157.093377105106
 21
-300.5142745802179
 31
0.0
  0
LINE
  5
B731
330
18
100
AcDbEntity
  8
0
  6
BYBLOCK
100
AcDbLine
 10
5157.093377105106
 20
-300.5142745802179
 30
0.0
 11
5157.790044999106
 21
-303.1142745802179
 31
0.0
  0
LINE
  5
B732
330
18
100
AcDbEntity
  8
0
  6
BYBLOCK
100
AcDbLine
 10
5157.093377105106
 20
-300.5142745802179
 30
0.0
 11
5157.093377105106
 21
-303.1142745802179
 31
0.0
  0
TEXT
  5
B733
330
18
100
AcDbEntity
  8
1DIM
  6
CONTINUOUS
100
AcDbText
 10
5156.183377105105
 20
-315.305939615524
 30
0.0
 40
4.55
  1
22
 50
90.0
100
AcDbText
1001
ACAD
1000
DSTYLE
1002
{
1070
    40
1040
1.3
1070
    45
1040
0.5
1002
}
  0
VIEWPORT
  5
57
330
15
100
AcDbEntity
 67
     1
  8
0
100
AcDbViewport
 68
     1
 10
0.0
 20
0.0
 30
0.0
 40
634.7234042553191
 41
297.0
 68
     1
 69
     1
1001
ACAD
1000
MVIEW
1002
{
1070
    16
1010
0.0
1020
0.0
1030
0.0
1010
0.0
1020
0.0
1030
1.0
1040
0.0
1040
297.0
1040
5.728000000000009
1040
25.33900000000001
1040
50.0
1040
0.0
1040
0.0
1070
    16
1070
   100
1070
     0
1070
     1
1070
     0
1070
     0
1070
     0
1070
     0
1040
0.0
1040
0.0
1040
0.0
1040
10.0
1040
10.0
1040
10.0
1040
10.0
1070
     0
1002
{
1002
}
1002
}
  0
ENDSEC
  0
SECTION
  2
OBJECTS
  0
DICTIONARY
  5
C
330
0
100
AcDbDictionary
  3
ACAD_COLOR
350
18D
  3
ACAD_GROUP
350
D
  3
ACAD_LAYOUT
350
18E
  3
ACAD_MATERIAL
350
18C
  3
ACAD_MLEADERSTYLE
350
9583
  3
ACAD_MLINESTYLE
350
1B
  3
ACAD_PLOTSETTINGS
350
18F
  3
ACAD_SCALELIST
350
9561
  3
ACAD_VISUALSTYLE
350
9550
  3
ACDBHEADERROUNDTRIPXREC
350
B734
  3
ACDBVARIABLEDICTIONARY
350
37
  3
CONTENTDICTIONARY
350
D8
  3
DRAWINGVARIABLESDICT
350
20
  3
DWGPROPS
350
B737
1001
ACAD
1000
TREAT_AS_HARD
1070
     0
  0
DICTIONARY
  5
96D9
330
2
100
AcDbDictionary
  3
ACAD_LAYERSTATES
360
96DA
1001
ACAD
1000
TREAT_AS_HARD
1070
     1
  0
DICTIONARY
  5
9593
330
E
100
AcDbDictionary
  3
ADSK_XREC_LAYER_RECONCILED
360
9594
1001
ACAD
1000
TREAT_AS_HARD
1070
     1
  0
DICTIONARY
  5
9595
330
29
100
AcDbDictionary
  3
ADSK_XREC_LAYER_RECONCILED
360
9596
1001
ACAD
1000
TREAT_AS_HARD
1070
     1
  0
DICTIONARY
  5
9597
330
31
100
AcDbDictionary
  3
ADSK_XREC_LAYER_RECONCILED
360
9598
1001
ACAD
1000
TREAT_AS_HARD
1070
     1
  0
DICTIONARY
  5
959D
330
243
100
AcDbDictionary
  3
ADSK_XREC_LAYER_RECONCILED
360
959E
1001
ACAD
1000
TREAT_AS_HARD
1070
     1
  0
DICTIONARY
  5
95A3
330
24E
100
AcDbDictionary
  3
ADSK_XREC_LAYER_RECONCILED
360
95A4
1001
ACAD
1000
TREAT_AS_HARD
1070
     1
  0
DICTIONARY
  5
88F
330
18
100
AcDbDictionary
  3
ACAD_SORTENTS
360
890
1001
ACAD
1000
TREAT_AS_HARD
1070
     1
  0
DICTIONARY
  5
18D
102
{ACAD_REACTORS
330
C
102
}
330
C
100
AcDbDictionary
1001
ACAD
1000
TREAT_AS_HARD
1070
     0
  0
DICTIONARY
  5
D
102
{ACAD_REACTORS
330
C
102
}
330
C
100
AcDbDictionary
1001
ACAD
1000
TREAT_AS_HARD
1070
     0
  0
DICTIONARY
  5
18E
102
{ACAD_REACTORS
330
C
102
}
330
C
100
AcDbDictionary
1001
ACAD
1000
TREAT_AS_HARD
1070
     0
  0
DICTIONARY
  5
18C
102
{ACAD_REACTORS
330
C
102
}
330
C
100
AcDbDictionary
  3
BYBLOCK
350
9540
  3
BYLAYER
350
9538
  3
GLOBAL
350
9548
1001
ACAD
1000
TREAT_AS_HARD
1070
     0
  0
DICTIONARY
  5
9583
102
{ACAD_REACTORS
330
C
102
}
330
C
100
AcDbDictionary
  3
STANDARD
350
9584
1001
ACAD
1000
TREAT_AS_HARD
1070
     0
  0
DICTIONARY
  5
1B
102
{ACAD_REACTORS
330
C
102
}
330
C
100
AcDbDictionary
  3
STANDARD
350
1C
1001
ACAD
1000
TREAT_AS_HARD
1070
     0
  0
DICTIONARY
  5
18F
102
{ACAD_REACTORS
330
C
102
}
330
C
100
AcDbDictionary
1001
ACAD
1000
TREAT_AS_HARD
1070
     0
  0
DICTIONARY
  5
9561
102
{ACAD_REACTORS
330
C
102
}
330
C
100
AcDbDictionary
  3
A0
350
9562
  3
A1
350
9563
  3
A2
350
9564
  3
A3
350
9565
  3
A4
350
9566
  3
A5
350
9567
  3
A6
350
9568
  3
A7
350
9569
  3
A8
350
956A
  3
A9
350
956B
  3
B0
350
956C
  3
B1
350
956D
  3
B2
350
956E
  3
B3
350
956F
  3
B4
350
9570
  3
B5
350
9571
  3
B6
350
9572
  3
B7
350
9573
  3
B8
350
9574
  3
B9
350
9575
  3
C0
350
9576
  3
C1
350
9577
  3
C2
350
9578
  3
C3
350
9579
  3
C4
350
957A
  3
C5
350
957B
  3
C6
350
957C
  3
C7
350
957D
  3
C8
350
957E
  3
C9
350
957F
  3
D0
350
9580
  3
D1
350
9581
  3
D2
350
9582
1001
ACAD
1000
TREAT_AS_HARD
1070
     0
  0
DICTIONARY
  5
9550
102
{ACAD_REACTORS
330
C
102
}
330
C
100
AcDbDictionary
  3
2DWIREFRAME
350
9556
  3
3D_HIDDEN
350
9558
  3
3DWIREFRAME
350
9557
  3
BASIC
350
9555
  3
BRIGHTEN
350
955C
  3
COLORCHANGE
350
9560
  3
CONCEPTUAL
350
9559
  3
DIM
350
955B
  3
EDGECOLOROFF
350
A211
  3
FACEPATTERN
350
955F
  3
FLAT
350
9551
  3
FLATWITHEDGES
350
9552
  3
GOURAUD
350
9553
  3
GOURAUDWITHEDGES
350
9554
  3
HIDDEN
350
A260
  3
JITTEROFF
350
A20F
  3
LINEPATTERN
350
955E
  3
MODELING
350
A266
  3
OVERHANGOFF
350
A210
  3
REALISTIC
350
955A
  3
SHADED
350
A265
  3
SHADED_WITH_EDGES
350
A264
  3
SHADES_OF_GRAY
350
A261
  3
SKETCHY
350
A262
  3
THICKEN
350
955D
  3
WIREFRAME
350
A25F
  3
X-RAY
350
A263
1001
ACAD
1000
TREAT_AS_HARD
1070
     0
  0
DICTIONARY
  5
B734
102
{ACAD_REACTORS
330
C
102
}
330
C
100
AcDbDictionary
  3
COLORDICT
350
B735
  3
MATERIALDICT
350
B736
1001
ACAD
1000
TREAT_AS_HARD
1070
     0
  0
DICTIONARY
  5
37
102
{ACAD_REACTORS
330
C
102
}
330
C
100
AcDbDictionary
  3
CANNOSCALE
350
AAE0
  3
CMLEADERSTYLE
350
9627
  3
CTABLESTYLE
350
29E
  3
DIMADEC
350
38
  3
DIMASSOC
350
1CE
  3
HIDETEXT
350
704E
  3
INDEXCTL
350
962A
  3
INTERSECTIONCOLOR
350
7052
  3
INTERSECTIONDISPLAY
350
7051
  3
MSLTSCALE
350
AB30
  3
OBSCOLOR
350
704F
  3
OBSLTYPE
350
7050
  3
PROJECTNAME
350
1CF
  3
SORTENTS
350
9629
  3
XCLIPFRAME
350
A25E
1001
ACAD
1000
TREAT_AS_HARD
1070
     0
  0
DICTIONARY
  5
D8
102
{ACAD_REACTORS
330
C
102
}
330
C
100
AcDbDictionary
1001
ACAD
1000
TREAT_AS_HARD
1070
     0
  0
DICTIONARY
  5
20
102
{ACAD_REACTORS
330
C
102
}
330
C
100
AcDbDictionary
1001
DRAWINGVARIABLESXDATA
1000
POLARANG
1000
0.261799387799149410000000
1000
POLARMODE
1000
1
1000
POLARSTYLE
1000
1
1001
ACAD
1000
TREAT_AS_HARD
1070
     0
  0
XRECORD
  5
B737
102
{ACAD_REACTORS
330
C
102
}
330
C
100
AcDbXrecord
  1
DWGPROPS COOKIE
  2

  3

  4

  6

  7

  8
3684
  9

300
=
301
=
302
=
303
=
304
=
305
=
306
=
307
=
308
=
309
=
 40
0.0
 41
2451318.246352917
 42
2459535.013023808
  1

 90
        0
  0
DICTIONARY
  5
96DA
102
{ACAD_REACTORS
330
96D9
102
}
330
96D9
100
AcDbDictionary
1001
ACAD
1000
TREAT_AS_HARD
1070
     0
  0
ACAD_PROXY_OBJECT
  5
9594
102
{ACAD_REACTORS
330
9593
102
}
330
9593
100
AcDbZombieObject
 90
      499
 91
      514
 93
       34
310
40C8804040
  0
ACAD_PROXY_OBJECT
  5
9596
102
{ACAD_REACTORS
330
9595
102
}
330
9595
100
AcDbZombieObject
 90
      499
 91
      514
 93
       34
310
40C8804040
  0
ACAD_PROXY_OBJECT
  5
9598
102
{ACAD_REACTORS
330
9597
102
}
330
9597
100
AcDbZombieObject
 90
      499
 91
      514
 93
       34
310
40C8804040
  0
ACAD_PROXY_OBJECT
  5
959E
102
{ACAD_REACTORS
330
959D
102
}
330
959D
100
AcDbZombieObject
 90
      499
 91
      514
 93
       34
310
40C8804040
  0
ACAD_PROXY_OBJECT
  5
95A4
102
{ACAD_REACTORS
330
95A3
102
}
330
95A3
100
AcDbZombieObject
 90
      499
 91
      514
 93
       34
310
40C8804040
  0
SORTENTSTABLE
  5
890
102
{ACAD_REACTORS
330
88F
102
}
330
88F
100
AcDbSortentsTable
330
18
331
AFDA
  5
B374
331
AFDB
  5
B375
331
AFDC
  5
B376
331
AFDD
  5
B377
331
AFDF
  5
B3EA
331
AFE0
  5
B3EB
331
AFE1
  5
B3ED
331
AFE2
  5
B3EE
331
AFE3
  5
B3EF
331
AFE4
  5
B3F0
331
AFE5
  5
B3F5
331
AFE6
  5
B4BC
331
AFE7
  5
B4BD
331
AFE8
  5
B4BE
331
AFE9
  5
B4BF
331
AFEA
  5
B4C0
331
AFEB
  5
B4C1
331
AFEC
  5
B4C2
331
AFED
  5
B4C3
331
AFEE
  5
B4C4
331
AFEF
  5
B4C5
331
AFF0
  5
B549
331
AFF1
  5
B54A
331
AFF2
  5
B54B
331
AFF3
  5
B54C
331
B079
  5
B54D
331
B2C6
  5
B54E
331
B2C7
  5
B54F
331
B2C8
  5
B550
331
B2C9
  5
B552
331
B2CA
  5
B553
331
B2CB
  5
B554
331
B2CC
  5
B555
331
B2CD
  5
B556
331
B2CE
  5
B557
331
B2CF
  5
B558
331
B2D0
  5
B559
331
B2D1
  5
B55A
331
B348
  5
B55B
331
B349
  5
B55C
331
B34A
  5
B55D
331
B34B
  5
B55F
331
B34C
  5
B560
331
B34D
  5
B69F
331
B34E
  5
B6A0
331
B34F
  5
B6A1
331
B351
  5
B6B4
331
B353
  5
B6C2
331
B354
  5
B6C3
331
B355
  5
B6C4
331
B356
  5
B6C5
331
B357
  5
B6C6
331
B358
  5
B6C7
331
B359
  5
B6C8
331
B35C
  5
B6C9
331
B35D
  5
B6CA
331
B35E
  5
B6CB
331
B35F
  5
B6CC
331
B360
  5
B6CD
331
B361
  5
B6CE
331
B362
  5
B6CF
331
B363
  5
B6D0
331
B364
  5
B6D1
331
B365
  5
B6D2
331
B370
  5
B6D3
331
B371
  5
B6D4
331
B372
  5
B6D5
331
B373
  5
B6D6
331
B374
  5
B6D7
331
B375
  5
B6D8
331
B376
  5
B6D9
331
B377
  5
B6DA
331
B37D
  5
B6DB
331
B380
  5
B6DC
331
B3DF
  5
B6DD
331
B3E0
  5
B6DE
331
B3E1
  5
B6DF
331
B3E4
  5
B6E0
331
B3E5
  5
B6E1
331
B3E7
  5
B6F4
331
B3E8
  5
B6F5
331
B3E9
  5
B6F6
331
B3EA
  5
B6F7
331
B3EB
  5
B6F8
331
B3ED
  5
B70B
331
B3EE
  5
B70C
331
B3EF
  5
B70D
331
B3F0
  5
B70E
331
B3F5
  5
B70F
331
B4BC
  5
B710
331
B4BD
  5
B711
331
B4BE
  5
B712
331
B4BF
  5
B713
331
B4C0
  5
B714
331
B4C1
  5
B715
331
B4C2
  5
B716
331
B4C3
  5
B717
331
B4C4
  5
B718
331
B4C5
  5
B719
331
B549
  5
B71A
331
B54A
  5
B71B
331
B54B
  5
B71C
331
B54C
  5
B71D
331
B54D
  5
B71E
331
B54E
  5
B71F
331
B54F
  5
B720
331
B550
  5
B721
331
B552
  5
B724
331
B553
  5
B725
331
B554
  5
B726
331
B555
  5
B727
331
B556
  5
B728
331
B557
  5
B729
331
B558
  5
B72A
331
B559
  5
B72B
331
B55A
  5
B72C
331
B55B
  5
B72D
331
B55C
  5
B72E
331
B55D
  5
B72F
331
B55F
  5
B732
331
B560
  5
B733
331
B69F
  5
B37D
331
B6A0
  5
B380
331
B6A1
  5
B3DF
331
0
  5
AFE2
331
0
  5
AFE3
331
0
  5
AFE4
331
B6A5
  5
B6A2
331
B6A6
  5
B6A3
331
B6A7
  5
B6A4
331
B6A8
  5
B6A5
331
B6A9
  5
B6A6
331
B6AA
  5
B6A7
331
B6AB
  5
B6A8
331
B6AC
  5
B6A9
331
B6AD
  5
B6AA
331
B6AE
  5
B6AB
331
B6AF
  5
B6AC
331
B6B0
  5
B6AD
331
B6B1
  5
B6AE
331
B6B2
  5
B6AF
331
B6B3
  5
B6B0
331
B6B4
  5
B6B1
331
B6B5
  5
B6B2
331
B6B6
  5
B6B3
331
B6B7
  5
B6B5
331
B6B8
  5
B6B6
331
B6B9
  5
B6B7
331
B6BA
  5
B6B8
331
B6BB
  5
B6B9
331
B6BC
  5
B6BA
331
B6BD
  5
B6BB
331
B6BE
  5
B6BC
331
B6BF
  5
B6BD
331
B6C0
  5
B6BE
331
B6C1
  5
B6BF
331
B6C2
  5
B6C0
331
B6C3
  5
B6C1
331
B6C4
  5
B6E2
331
B6C5
  5
B6E3
331
B6C6
  5
B6E4
331
B6C7
  5
B6E5
331
B6C8
  5
B6E6
331
B6C9
  5
B6E7
331
B6CA
  5
B6E8
331
B6CB
  5
B6E9
331
B6CC
  5
B6EA
331
B6CD
  5
B6EB
331
B6CE
  5
B6EC
331
B6CF
  5
B6ED
331
B6D0
  5
B6EE
331
B6D1
  5
B6EF
331
B6D2
  5
B6F0
331
B6D3
  5
B6F1
331
B6D4
  5
B6F2
331
B6D5
  5
B6F3
331
B6D6
  5
B6F9
331
B6D7
  5
B6FA
331
B6D8
  5
B6FB
331
B6D9
  5
B6FC
331
B6DA
  5
B6FD
331
B6DB
  5
B6FE
331
B6DC
  5
B6FF
331
B6DD
  5
B700
331
B6DE
  5
B701
331
B6DF
  5
B702
331
B6E0
  5
B703
331
B6E1
  5
B704
331
B6E2
  5
B705
331
B6E3
  5
B706
331
B6E4
  5
B707
331
B6E5
  5
B708
331
B6E6
  5
B709
331
B6E7
  5
B70A
331
B6E8
  5
B722
331
B6E9
  5
B723
331
B6EA
  5
B730
331
B6EB
  5
B731
331
B6EC
  5
B3E0
331
B6ED
  5
B3E1
331
B6EE
  5
B3E4
331
B6EF
  5
B3E5
331
B6F0
  5
B3E7
331
B6F1
  5
B3E8
331
B6F2
  5
B3E9
331
B6F3
  5
AFDA
331
B6F4
  5
AFDB
331
B6F5
  5
AFDC
331
0
  5
AFDD
331
0
  5
AFDF
331
0
  5
AFE0
331
B6F9
  5
AFF1
331
B6FA
  5
AFF2
331
B6FB
  5
B2C7
331
0
  5
AFE7
331
0
  5
AFE8
331
0
  5
AFE9
331
B6FF
  5
B348
331
B700
  5
B349
331
B701
  5
B34A
331
0
  5
AFED
331
0
  5
AFEE
331
0
  5
AFEF
331
B705
  5
B354
331
B706
  5
B355
331
B707
  5
B356
331
0
  5
AFF3
331
0
  5
B079
331
0
  5
B2C6
331
B70B
  5
B360
331
B70C
  5
B361
331
B70D
  5
B362
331
0
  5
B2CA
331
0
  5
B2CB
331
0
  5
B2CC
331
B711
  5
AFE1
331
B712
  5
AFE5
331
B713
  5
AFE6
331
B714
  5
AFEA
331
B715
  5
AFEB
331
B716
  5
AFEC
331
B717
  5
AFF0
331
B718
  5
B2C8
331
B719
  5
B2C9
331
B71A
  5
B2CD
331
B71B
  5
B2CE
331
B71C
  5
B2CF
331
B71D
  5
B2D0
331
B71E
  5
B2D1
331
B71F
  5
B34B
331
B720
  5
B34C
331
B721
  5
B34D
331
B722
  5
B34E
331
B723
  5
B34F
331
B724
  5
B351
331
B725
  5
B353
331
B726
  5
B357
331
B727
  5
B358
331
B728
  5
B359
331
B729
  5
B35C
331
B72A
  5
B35D
331
B72B
  5
B35E
331
B72C
  5
B35F
331
B72D
  5
B363
331
B72E
  5
B364
331
B72F
  5
B365
331
B730
  5
B370
331
B731
  5
B371
331
B732
  5
B372
331
B733
  5
B373
  0
MATERIAL
  5
9540
102
{ACAD_REACTORS
330
18C
102
}
102
{ACAD_XDICTIONARY
360
B8D2
102
}
330
18C
100
AcDbMaterial
  1
BYBLOCK
 72
     0
 73
     2
 43
0.0208333333333333
 43
0.0
 43
0.0
 43
0.0
 43
0.0
 43
0.0208333333333333
 43
0.0
 43
0.0
 43
0.0
 43
0.0
 43
1.0
 43
0.0
 43
0.0
 43
0.0
 43
0.0
 43
1.0
 77
     0
 78
     2
 47
0.0208333333333333
 47
0.0
 47
0.0
 47
0.0
 47
0.0
 47
0.0208333333333333
 47
0.0
 47
0.0
 47
0.0
 47
0.0
 47
1.0
 47
0.0
 47
0.0
 47
0.0
 47
0.0
 47
1.0
171
     0
172
     2
 49
0.0208333333333333
 49
0.0
 49
0.0
 49
0.0
 49
0.0
 49
0.0208333333333333
 49
0.0
 49
0.0
 49
0.0
 49
0.0
 49
1.0
 49
0.0
 49
0.0
 49
0.0
 49
0.0
 49
1.0
175
     0
176
     2
142
0.0208333333333333
142
0.0
142
0.0
142
0.0
142
0.0
142
0.0208333333333333
142
0.0
142
0.0
142
0.0
142
0.0
142
1.0
142
0.0
142
0.0
142
0.0
142
0.0
142
1.0
179
     0
270
     2
144
0.0208333333333333
144
0.0
144
0.0
144
0.0
144
0.0
144
0.0208333333333333
144
0.0
144
0.0
144
0.0
144
0.0
144
1.0
144
0.0
144
0.0
144
0.0
144
0.0
144
1.0
274
     2
147
0.0208333333333333
147
0.0
147
0.0
147
0.0
147
0.0
147
0.0208333333333333
147
0.0
147
0.0
147
0.0
147
0.0
147
1.0
147
0.0
147
0.0
147
0.0
147
0.0
147
1.0
  0
MATERIAL
  5
9538
102
{ACAD_REACTORS
330
18C
102
}
102
{ACAD_XDICTIONARY
360
B8D4
102
}
330
18C
100
AcDbMaterial
  1
BYLAYER
 72
     0
 73
     2
 43
0.0208333333333333
 43
0.0
 43
0.0
 43
0.0
 43
0.0
 43
0.0208333333333333
 43
0.0
 43
0.0
 43
0.0
 43
0.0
 43
1.0
 43
0.0
 43
0.0
 43
0.0
 43
0.0
 43
1.0
 77
     0
 78
     2
 47
0.0208333333333333
 47
0.0
 47
0.0
 47
0.0
 47
0.0
 47
0.0208333333333333
 47
0.0
 47
0.0
 47
0.0
 47
0.0
 47
1.0
 47
0.0
 47
0.0
 47
0.0
 47
0.0
 47
1.0
171
     0
172
     2
 49
0.0208333333333333
 49
0.0
 49
0.0
 49
0.0
 49
0.0
 49
0.0208333333333333
 49
0.0
 49
0.0
 49
0.0
 49
0.0
 49
1.0
 49
0.0
 49
0.0
 49
0.0
 49
0.0
 49
1.0
175
     0
176
     2
142
0.0208333333333333
142
0.0
142
0.0
142
0.0
142
0.0
142
0.0208333333333333
142
0.0
142
0.0
142
0.0
142
0.0
142
1.0
142
0.0
142
0.0
142
0.0
142
0.0
142
1.0
179
     0
270
     2
144
0.0208333333333333
144
0.0
144
0.0
144
0.0
144
0.0
144
0.0208333333333333
144
0.0
144
0.0
144
0.0
144
0.0
144
1.0
144
0.0
144
0.0
144
0.0
144
0.0
144
1.0
274
     2
147
0.0208333333333333
147
0.0
147
0.0
147
0.0
147
0.0
147
0.0208333333333333
147
0.0
147
0.0
147
0.0
147
0.0
147
1.0
147
0.0
147
0.0
147
0.0
147
0.0
147
1.0
  0
MATERIAL
  5
9548
102
{ACAD_REACTORS
330
18C
102
}
102
{ACAD_XDICTIONARY
360
B8D6
102
}
330
18C
100
AcDbMaterial
  1
GLOBAL
 72
     0
 73
     2
 43
0.0208333333333333
 43
0.0
 43
0.0
 43
0.0
 43
0.0
 43
0.0208333333333333
 43
0.0
 43
0.0
 43
0.0
 43
0.0
 43
1.0
 43
0.0
 43
0.0
 43
0.0
 43
0.0
 43
1.0
 77
     0
 78
     2
 47
0.0208333333333333
 47
0.0
 47
0.0
 47
0.0
 47
0.0
 47
0.0208333333333333
 47
0.0
 47
0.0
 47
0.0
 47
0.0
 47
1.0
 47
0.0
 47
0.0
 47
0.0
 47
0.0
 47
1.0
171
     0
172
     2
 49
0.0208333333333333
 49
0.0
 49
0.0
 49
0.0
 49
0.0
 49
0.0208333333333333
 49
0.0
 49
0.0
 49
0.0
 49
0.0
 49
1.0
 49
0.0
 49
0.0
 49
0.0
 49
0.0
 49
1.0
175
     0
176
     2
142
0.0208333333333333
142
0.0
142
0.0
142
0.0
142
0.0
142
0.0208333333333333
142
0.0
142
0.0
142
0.0
142
0.0
142
1.0
142
0.0
142
0.0
142
0.0
142
0.0
142
1.0
179
     0
270
     2
144
0.0208333333333333
144
0.0
144
0.0
144
0.0
144
0.0
144
0.0208333333333333
144
0.0
144
0.0
144
0.0
144
0.0
144
1.0
144
0.0
144
0.0
144
0.0
144
0.0
144
1.0
274
     2
147
0.0208333333333333
147
0.0
147
0.0
147
0.0
147
0.0
147
0.0208333333333333
147
0.0
147
0.0
147
0.0
147
0.0
147
1.0
147
0.0
147
0.0
147
0.0
147
0.0
147
1.0
  0
ACAD_PROXY_OBJECT
  5
9584
102
{ACAD_REACTORS
330
9583
102
}
330
9583
100
AcDbZombieObject
 90
      499
 91
      511
 93
      610
310
40901902A4063FBFFFFFE000000000000002040AD7A3703D0AD73F4214DD185B99185C990000000000000104090141901A00000000000004100000000000000041025764000000000000300FC0
340
12
340
0
340
F
340
0
 94
        0
1001
ACAD_MLEADERVER
1070
     2
  0
MLINESTYLE
  5
1C
102
{ACAD_REACTORS
330
1B
102
}
330
1B
100
AcDbMlineStyle
  2
STANDARD
 70
     0
  3

 62
   256
 51
90.0
 52
90.0
 71
     2
 49
0.5
 62
   256
  6
BYLAYER
 49
-0.5
 62
   256
  6
BYLAYER
  0
ACAD_PROXY_OBJECT
  5
9562
102
{ACAD_REACTORS
330
9561
102
}
330
9561
100
AcDbZombieObject
 90
      499
 91
      510
 93
       41
310
903313A31580
  0
ACAD_PROXY_OBJECT
  5
9563
102
{ACAD_REACTORS
330
9561
102
}
330
9561
100
AcDbZombieObject
 90
      499
 91
      510
 93
      105
310
903313A324000000000000004000
  0
ACAD_PROXY_OBJECT
  5
9564
102
{ACAD_REACTORS
330
9561
102
}
330
9561
100
AcDbZombieObject
 90
      499
 91
      510
 93
      105
310
903313A344000000000000104000
  0
ACAD_PROXY_OBJECT
  5
9565
102
{ACAD_REACTORS
330
9561
102
}
330
9561
100
AcDbZombieObject
 90
      499
 91
      510
 93
      105
310
903313A354000000000000144000
  0
ACAD_PROXY_OBJECT
  5
9566
102
{ACAD_REACTORS
330
9561
102
}
330
9561
100
AcDbZombieObject
 90
      499
 91
      510
 93
      105
310
903313A384000000000000204000
  0
ACAD_PROXY_OBJECT
  5
9567
102
{ACAD_REACTORS
330
9561
102
}
330
9561
100
AcDbZombieObject
 90
      499
 91
      510
 93
      113
310
904313A31304000000000000244000
  0
ACAD_PROXY_OBJECT
  5
9568
102
{ACAD_REACTORS
330
9561
102
}
330
9561
100
AcDbZombieObject
 90
      499
 91
      510
 93
      113
310
904313A31364000000000000304000
  0
ACAD_PROXY_OBJECT
  5
9569
102
{ACAD_REACTORS
330
9561
102
}
330
9561
100
AcDbZombieObject
 90
      499
 91
      510
 93
      113
310
904313A32304000000000000344000
  0
ACAD_PROXY_OBJECT
  5
956A
102
{ACAD_REACTORS
330
9561
102
}
330
9561
100
AcDbZombieObject
 90
      499
 91
      510
 93
      113
310
904313A333040000000000003E4000
  0
ACAD_PROXY_OBJECT
  5
956B
102
{ACAD_REACTORS
330
9561
102
}
330
9561
100
AcDbZombieObject
 90
      499
 91
      510
 93
      113
310
904313A34304000000000000444000
  0
ACAD_PROXY_OBJECT
  5
956C
102
{ACAD_REACTORS
330
9561
102
}
330
9561
100
AcDbZombieObject
 90
      499
 91
      510
 93
      113
310
904313A35304000000000000494000
  0
ACAD_PROXY_OBJECT
  5
956D
102
{ACAD_REACTORS
330
9561
102
}
330
9561
100
AcDbZombieObject
 90
      499
 91
      510
 93
      121
310
905313A3130304000000000000594000
  0
ACAD_PROXY_OBJECT
  5
956E
102
{ACAD_REACTORS
330
9561
102
}
330
9561
100
AcDbZombieObject
 90
      499
 91
      510
 93
      105
310
903323A310000000000000010100
  0
ACAD_PROXY_OBJECT
  5
956F
102
{ACAD_REACTORS
330
9561
102
}
330
9561
100
AcDbZombieObject
 90
      499
 91
      510
 93
      105
310
903343A310000000000000410100
  0
ACAD_PROXY_OBJECT
  5
9570
102
{ACAD_REACTORS
330
9561
102
}
330
9561
100
AcDbZombieObject
 90
      499
 91
      510
 93
      105
310
903383A310000000000000810100
  0
ACAD_PROXY_OBJECT
  5
9571
102
{ACAD_REACTORS
330
9561
102
}
330
9561
100
AcDbZombieObject
 90
      499
 91
      510
 93
      113
310
90431303A310000000000000910100
  0
ACAD_PROXY_OBJECT
  5
9572
102
{ACAD_REACTORS
330
9561
102
}
330
9561
100
AcDbZombieObject
 90
      499
 91
      510
 93
      121
310
9053130303A310000000000001650100
  0
ACAD_PROXY_OBJECT
  5
9573
102
{ACAD_REACTORS
330
9561
102
}
330
9561
100
AcDbZombieObject
 90
      499
 91
      510
 93
      257
310
90E312F31323822203D2031272D3022000000000000200FC000000000000284000
  0
ACAD_PROXY_OBJECT
  5
9574
102
{ACAD_REACTORS
330
9561
102
}
330
9561
100
AcDbZombieObject
 90
      499
 91
      510
 93
      249
310
90D312F363422203D2031272D3022000000000000240FC000000000000284000
  0
ACAD_PROXY_OBJECT
  5
9575
102
{ACAD_REACTORS
330
9561
102
}
330
9561
100
AcDbZombieObject
 90
      499
 91
      510
 93
      249
310
90D312F333222203D2031272D3022000000000000280FC000000000000284000
  0
ACAD_PROXY_OBJECT
  5
9576
102
{ACAD_REACTORS
330
9561
102
}
330
9561
100
AcDbZombieObject
 90
      499
 91
      510
 93
      249
310
90D312F313622203D2031272D30220000000000002C0FC000000000000284000
  0
ACAD_PROXY_OBJECT
  5
9577
102
{ACAD_REACTORS
330
9561
102
}
330
9561
100
AcDbZombieObject
 90
      499
 91
      510
 93
      249
310
90D332F333222203D2031272D30220000000000002E0FC000000000000284000
  0
ACAD_PROXY_OBJECT
  5
9578
102
{ACAD_REACTORS
330
9561
102
}
330
9561
100
AcDbZombieObject
 90
      499
 91
      510
 93
      241
310
90C312F3822203D2031272D3022000000000000300FC000000000000284000
  0
ACAD_PROXY_OBJECT
  5
9579
102
{ACAD_REACTORS
330
9561
102
}
330
9561
100
AcDbZombieObject
 90
      499
 91
      510
 93
      249
310
90D332F313622203D2031272D3022000000000000320FC000000000000284000
  0
ACAD_PROXY_OBJECT
  5
957A
102
{ACAD_REACTORS
330
9561
102
}
330
9561
100
AcDbZombieObject
 90
      499
 91
      510
 93
      241
310
90C312F3422203D2031272D3022000000000000340FC000000000000284000
  0
ACAD_PROXY_OBJECT
  5
957B
102
{ACAD_REACTORS
330
9561
102
}
330
9561
100
AcDbZombieObject
 90
      499
 91
      510
 93
      241
310
90C332F3822203D2031272D3022000000000000360FC000000000000284000
  0
ACAD_PROXY_OBJECT
  5
957C
102
{ACAD_REACTORS
330
9561
102
}
330
9561
100
AcDbZombieObject
 90
      499
 91
      510
 93
      241
310
90C312F3222203D2031272D3022000000000000380FC000000000000284000
  0
ACAD_PROXY_OBJECT
  5
957D
102
{ACAD_REACTORS
330
9561
102
}
330
9561
100
AcDbZombieObject
 90
      499
 91
      510
 93
      241
310
90C332F3422203D2031272D30220000000000003A0FC000000000000284000
  0
ACAD_PROXY_OBJECT
  5
957E
102
{ACAD_REACTORS
330
9561
102
}
330
9561
100
AcDbZombieObject
 90
      499
 91
      510
 93
      161
310
90A3122203D2031272D30224000000000000284000
  0
ACAD_PROXY_OBJECT
  5
957F
102
{ACAD_REACTORS
330
9561
102
}
330
9561
100
AcDbZombieObject
 90
      499
 91
      510
 93
      257
310
90E312D312F3222203D2031272D30220000000000003E0FC000000000000284000
  0
ACAD_PROXY_OBJECT
  5
9580
102
{ACAD_REACTORS
330
9561
102
}
330
9561
100
AcDbZombieObject
 90
      499
 91
      510
 93
      225
310
90A3322203D2031272D302200000000000002100000000000000284000
  0
ACAD_PROXY_OBJECT
  5
9581
102
{ACAD_REACTORS
330
9561
102
}
330
9561
100
AcDbZombieObject
 90
      499
 91
      510
 93
      225
310
90A3622203D2031272D302200000000000006100000000000000284000
  0
ACAD_PROXY_OBJECT
  5
9582
102
{ACAD_REACTORS
330
9561
102
}
330
9561
100
AcDbZombieObject
 90
      499
 91
      510
 93
      249
310
90D31272D3022203D2031272D30220000000000000A100000000000000284000
  0
ACAD_PROXY_OBJECT
  5
9556
102
{ACAD_REACTORS
330
9550
102
}
330
9550
100
AcDbZombieObject
 90
      499
 91
      509
 93
      436
310
42CC9915DA5C99599C985B595049028333333333333E3BF0000000000000FB0107901411070040501600405405064090741402480A0340
1001
ACAD
1000
AcDbSavedByObjectVersion
1070
     0
  0
ACAD_PROXY_OBJECT
  5
9558
102
{ACAD_REACTORS
330
9550
102
}
330
9550
100
AcDbZombieObject
 90
      499
 91
      509
 93
      500
310
424CD108121A5919195B90640502408333333333333E3BF0000000000000FB01079024090700405020000000000001110200405405064090740C02480A0340
1001
ACAD
1000
AcDbSavedByObjectVersion
1070
     0
  0
ACAD_PROXY_OBJECT
  5
9557
102
{ACAD_REACTORS
330
9550
102
}
330
9550
100
AcDbZombieObject
 90
      499
 91
      509
 93
      436
310
42CCD915DA5C99599C985B595059028333333333333E3BF0000000000000FB0107901411070040501600405405064090741402480A0340
1001
ACAD
1000
AcDbSavedByObjectVersion
1070
     0
  0
ACAD_PROXY_OBJECT
  5
9555
102
{ACAD_REACTORS
330
9550
102
}
330
9550
100
AcDbZombieObject
 90
      499
 91
      509
 93
      388
310
4150985CDA58D07406404333333333333E3BF0000000000000FB0107A41107004050150841D405064090741402480A0350
1001
ACAD
1000
AcDbSavedByObjectVersion
1070
     0
  0
ACAD_PROXY_OBJECT
  5
955C
102
{ACAD_REACTORS
330
9550
102
}
330
9550
100
AcDbZombieObject
 90
      499
 91
      509
 93
      428
310
42109C9A59DA1D195B90C409028333333333333E3BF0000000000000FB010790141107004050150841D405064090741402480A029950
1001
ACAD
1000
AcDbSavedByObjectVersion
1070
     0
  0
ACAD_PROXY_OBJECT
  5
9560
102
{ACAD_REACTORS
330
9550
102
}
330
9550
100
AcDbZombieObject
 90
      499
 91
      509
 93
      452
310
42D0DBDB1BDC90DA185B99D95104090240C333333333333E3BF0000000000000FB0108901411070040501508421405064090741402480A0350
1001
ACAD
1000
AcDbSavedByObjectVersion
1070
     0
  0
ACAD_PROXY_OBJECT
  5
9559
102
{ACAD_REACTORS
330
9550
102
}
330
9550
100
AcDbZombieObject
 90
      499
 91
      509
 93
      500
310
4290DBDB98D95C1D1D585B10940D028333333333333E3BF0000000000000FB0107902409070040501000000000000111010841D405064090740C02480A0340
1001
ACAD
1000
AcDbSavedByObjectVersion
1070
     0
  0
ACAD_PROXY_OBJECT
  5
955B
102
{ACAD_REACTORS
330
9550
102
}
330
9550
100
AcDbZombieObject
 90
      499
 91
      509
 93
      412
310
40D11A5B50B409028333333333333E3BF0000000000000FB010790141107004050150841D405064090741402480A02677FFFFFD0
1001
ACAD
1000
AcDbSavedByObjectVersion
1070
     0
  0
ACAD_PROXY_OBJECT
  5
A211
102
{ACAD_REACTORS
330
9550
102
}
330
9550
100
AcDbZombieObject
 90
      499
 91
      509
 93
      452
310
43115919D950DBDB1BDC93D999916409028333333333333E3BF0000000000000FB010790141107004050150841D405064090741402480A0350
1001
ACAD
1000
AcDbSavedByObjectVersion
1070
     0
  0
ACAD_PROXY_OBJECT
  5
955F
102
{ACAD_REACTORS
330
9550
102
}
330
9550
100
AcDbZombieObject
 90
      499
 91
      509
 93
      444
310
42D19858D95C185D1D195C9B90F409028333333333333E3BF0000000000000FB010790141107004050150841D405064090741402480A0350
1001
ACAD
1000
AcDbSavedByObjectVersion
1070
     0
  0
ACAD_PROXY_OBJECT
  5
9551
102
{ACAD_REACTORS
330
9550
102
}
330
9550
100
AcDbZombieObject
 90
      499
 91
      509
 93
      388
310
41119B185D240901404333333333333E3BF0000000000000F9010740A41107004050150841D405064090741402480A1B50
1001
ACAD
1000
AcDbSavedByObjectVersion
1070
     0
  0
ACAD_PROXY_OBJECT
  5
9552
102
{ACAD_REACTORS
330
9550
102
}
330
9550
100
AcDbZombieObject
 90
      499
 91
      509
 93
      476
310
43519B185D15DA5D1A115919D95CD0140901404333333333333E3BF0000000000000F9010740901411070040501600405405064090741402480A1B50
1001
ACAD
1000
AcDbSavedByObjectVersion
1070
     0
  0
ACAD_PROXY_OBJECT
  5
9553
102
{ACAD_REACTORS
330
9550
102
}
330
9550
100
AcDbZombieObject
 90
      499
 91
      509
 93
      412
310
41D1DBDD5C985D5910240902404333333333333E3BF0000000000000F9010740A411070040501641D405064090741402480A1B50
1001
ACAD
1000
AcDbSavedByObjectVersion
1070
     0
  0
ACAD_PROXY_OBJECT
  5
9554
102
{ACAD_REACTORS
330
9550
102
}
330
9550
100
AcDbZombieObject
 90
      499
 91
      509
 93
      500
310
4411DBDD5C985D5915DA5D1A115919D95CD0340902404333333333333E3BF0000000000000F9010740901411070040501600405405064090741402480A1B50
1001
ACAD
1000
AcDbSavedByObjectVersion
1070
     0
  0
ACAD_PROXY_OBJECT
  5
A260
102
{ACAD_REACTORS
330
9550
102
}
330
9550
100
AcDbZombieObject
 90
      499
 91
      509
 93
      476
310
41921A5919195B90640502408333333333333E33F0000000000000F901079024090700405020000000000001110200405405064090740C02480A0340
1001
ACAD
1000
AcDbSavedByObjectVersion
1070
     0
  0
ACAD_PROXY_OBJECT
  5
A20F
102
{ACAD_REACTORS
330
9550
102
}
330
9550
100
AcDbZombieObject
 90
      499
 91
      509
 93
      428
310
42529A5D1D195C93D999914409028333333333333E3BF0000000000000FB010790141107004050150A41D405064090741402480A0350
1001
ACAD
1000
AcDbSavedByObjectVersion
1070
     0
  0
ACAD_PROXY_OBJECT
  5
955E
102
{ACAD_REACTORS
330
9550
102
}
330
9550
100
AcDbZombieObject
 90
      499
 91
      509
 93
      444
310
42D31A5B995C185D1D195C9B90E409028333333333333E3BF0000000000000FB010790141107004050750841D405064090741402483A0350
1001
ACAD
1000
AcDbSavedByObjectVersion
1070
     0
  0
ACAD_PROXY_OBJECT
  5
A266
102
{ACAD_REACTORS
330
9550
102
}
330
9550
100
AcDbZombieObject
 90
      499
 91
      509
 93
      484
310
42135BD9195B1A5B99D0A409038333333333333E33F0000000000000F901074090290700405010000000000201990108421405064090741402480A1B40
1001
ACAD
1000
AcDbSavedByObjectVersion
1070
     0
  0
ACAD_PROXY_OBJECT
  5
A210
102
{ACAD_REACTORS
330
9550
102
}
330
9550
100
AcDbZombieObject
 90
      499
 91
      509
 93
      444
310
42D3DD995C9A185B99D3D999915409028333333333333E3BF0000000000000FB010790141107004050150941D405064090741402480A0350
1001
ACAD
1000
AcDbSavedByObjectVersion
1070
     0
  0
ACAD_PROXY_OBJECT
  5
955A
102
{ACAD_REACTORS
330
9550
102
}
330
9550
100
AcDbZombieObject
 90
      499
 91
      509
 93
      420
310
425499585B1A5CDD1A58D08409028333333333333E3BF0000000000000FB01079019070040501508421405064090741402480A1B40
1001
ACAD
1000
AcDbSavedByObjectVersion
1070
     0
  0
ACAD_PROXY_OBJECT
  5
A265
102
{ACAD_REACTORS
330
9550
102
}
330
9550
100
AcDbZombieObject
 90
      499
 91
      509
 93
      420
310
4194DA1859195911B40902404333333333333E33F0000000000000F9010740A41107004050150800405405064090840C02480A0B40
1001
ACAD
1000
AcDbSavedByObjectVersion
1070
     0
  0
ACAD_PROXY_OBJECT
  5
A264
102
{ACAD_REACTORS
330
9550
102
}
330
9550
100
AcDbZombieObject
 90
      499
 91
      509
 93
      516
310
4454DA18591959081DDA5D1A08195919D95CD1A40902404333333333333E33F0000000000000F901074090142907004050250800405405064090740C02480A0B40
1001
ACAD
1000
AcDbSavedByObjectVersion
1070
     0
  0
ACAD_PROXY_OBJECT
  5
A261
102
{ACAD_REACTORS
330
9550
102
}
330
9550
100
AcDbZombieObject
 90
      499
 91
      509
 93
      532
310
4394DA1859195CC81BD98811DC985E5174090240C333333333333E33F0000000000000F901079024090741D01000000000000111010841D405064090740C02480A0340
1001
ACAD
1000
AcDbSavedByObjectVersion
1070
     0
  0
ACAD_PROXY_OBJECT
  5
A262
102
{ACAD_REACTORS
330
9550
102
}
330
9550
100
AcDbZombieObject
 90
      499
 91
      509
 93
      476
310
41D4DAD95D18DA1E51840502408333333333333E33F0000000000000F901079024090741D01000000000000111010B41D405064090741802480A0340
1001
ACAD
1000
AcDbSavedByObjectVersion
1070
     0
  0
ACAD_PROXY_OBJECT
  5
955D
102
{ACAD_REACTORS
330
9550
102
}
330
9550
100
AcDbZombieObject
 90
      499
 91
      509
 93
      412
310
41D51A1A58DAD95B90D409028333333333333E3BF0000000000000FB010790141107004050150C41D405064090741402480A0350
1001
ACAD
1000
AcDbSavedByObjectVersion
1070
     0
  0
ACAD_PROXY_OBJECT
  5
A25F
102
{ACAD_REACTORS
330
9550
102
}
330
9550
100
AcDbZombieObject
 90
      499
 91
      509
 93
      420
310
4255DA5C99599C985B595059028333333333333E33F0000000000000F90107901411070040501600405405064090740C02480A0340
1001
ACAD
1000
AcDbSavedByObjectVersion
1070
     0
  0
ACAD_PROXY_OBJECT
  5
A263
102
{ACAD_REACTORS
330
9550
102
}
330
9550
100
AcDbZombieObject
 90
      499
 91
      509
 93
      404
310
41560B54985E51940902404000000000000E03F0000000000000F9010740501907004050150841D405064090740C02480A1B40
1001
ACAD
1000
AcDbSavedByObjectVersion
1070
     0
  0
XRECORD
  5
B735
102
{ACAD_REACTORS
330
B734
102
}
330
B734
100
AcDbXrecord
340
18D
  0
XRECORD
  5
B736
102
{ACAD_REACTORS
330
B734
102
}
330
B734
100
AcDbXrecord
340
18C
  0
DICTIONARYVAR
  5
AAE0
102
{ACAD_REACTORS
330
37
102
}
330
37
100
DictionaryVariables
280
     0
  1
1:1
  0
DICTIONARYVAR
  5
9627
102
{ACAD_REACTORS
330
37
102
}
330
37
100
DictionaryVariables
280
     0
  1
Standard
  0
DICTIONARYVAR
  5
29E
102
{ACAD_REACTORS
330
37
102
}
330
37
100
DictionaryVariables
280
     0
  1
Standard
  0
DICTIONARYVAR
  5
38
102
{ACAD_REACTORS
330
37
102
}
330
37
100
DictionaryVariables
280
     0
  1
-1
  0
DICTIONARYVAR
  5
1CE
102
{ACAD_REACTORS
330
37
102
}
330
37
100
DictionaryVariables
280
     0
  1
2
  0
DICTIONARYVAR
  5
704E
102
{ACAD_REACTORS
330
37
102
}
330
37
100
DictionaryVariables
280
     0
  1
1
  0
DICTIONARYVAR
  5
962A
102
{ACAD_REACTORS
330
37
102
}
330
37
100
DictionaryVariables
280
     0
  1
0
  0
DICTIONARYVAR
  5
7052
102
{ACAD_REACTORS
330
37
102
}
330
37
100
DictionaryVariables
280
     0
  1
8
  0
DICTIONARYVAR
  5
7051
102
{ACAD_REACTORS
330
37
102
}
330
37
100
DictionaryVariables
280
     0
  1
1
  0
DICTIONARYVAR
  5
AB30
102
{ACAD_REACTORS
330
37
102
}
330
37
100
DictionaryVariables
280
     0
  1
0
  0
DICTIONARYVAR
  5
704F
102
{ACAD_REACTORS
330
37
102
}
330
37
100
DictionaryVariables
280
     0
  1
8
  0
DICTIONARYVAR
  5
7050
102
{ACAD_REACTORS
330
37
102
}
330
37
100
DictionaryVariables
280
     0
  1
2
  0
DICTIONARYVAR
  5
1CF
102
{ACAD_REACTORS
330
37
102
}
330
37
100
DictionaryVariables
280
     0
  1

  0
DICTIONARYVAR
  5
9629
102
{ACAD_REACTORS
330
37
102
}
330
37
100
DictionaryVariables
280
     0
  1
127
  0
DICTIONARYVAR
  5
A25E
102
{ACAD_REACTORS
330
37
102
}
330
37
100
DictionaryVariables
280
     0
  1
2
  0
DICTIONARY
  5
B8D2
330
9540
100
AcDbDictionary
  3
ACAD_XREC_ROUNDTRIP
360
B8D3
1001
ACAD
1000
TREAT_AS_HARD
1070
     1
  0
DICTIONARY
  5
B8D4
330
9538
100
AcDbDictionary
  3
ACAD_XREC_ROUNDTRIP
360
B8D5
1001
ACAD
1000
TREAT_AS_HARD
1070
     1
  0
DICTIONARY
  5
B8D6
330
9548
100
AcDbDictionary
  3
ACAD_XREC_ROUNDTRIP
360
B8D7
1001
ACAD
1000
TREAT_AS_HARD
1070
     1
  0
XRECORD
  5
B8D3
102
{ACAD_REACTORS
330
B8D2
102
}
330
B8D2
100
AcDbXrecord
102
MATERIAL
148
0.0
149
0.0
149
0.0
 93
        0
 94
      127
282
     0
 72
     0
 77
     0
171
     0
175
     0
179
     0
273
     0
  0
XRECORD
  5
B8D5
102
{ACAD_REACTORS
330
B8D4
102
}
330
B8D4
100
AcDbXrecord
102
MATERIAL
148
0.0
149
0.0
149
0.0
 93
        0
 94
      127
282
     0
 72
     0
 77
     0
171
     0
175
     0
179
     0
273
     0
  0
XRECORD
  5
B8D7
102
{ACAD_REACTORS
330
B8D6
102
}
330
B8D6
100
AcDbXrecord
102
MATERIAL
148
0.0
149
0.0
149
0.0
 93
        0
 94
      127
282
     0
 72
     0
 77
     0
171
     0
175
     0
179
     0
273
     0
  0
ENDSEC
  0
EOF
