  0
SECTION
  2
HEADER
  9
$ACADVER
  1
AC1012
  9
$DWGCODEPAGE
  3
ansi_932
  9
$INSBASE
 10
0.0
 20
0.0
 30
0.0
  9
$EXTMIN
 10
4953.749483614019
 20
-360.9673238821802
 30
0.0
  9
$EXTMAX
 10
5272.17776899645
 20
-120.9686421952833
 30
0.0000000001127424
  9
$LIMMIN
 10
0.0
 20
0.0
  9
$LIMMAX
 10
420.0
 20
297.0
  9
$ORTHOMODE
 70
     0
  9
$REGENMODE
 70
     1
  9
$FILLMODE
 70
     1
  9
$QTEXTMODE
 70
     0
  9
$MIRRTEXT
 70
     0
  9
$DRAGMODE
 70
     2
  9
$LTSCALE
 40
0.5
  9
$OSMODE
 70
 16383
  9
$ATTMODE
 70
     1
  9
$TEXTSIZE
 40
4.0
  9
$TRACEWID
 40
1.0
  9
$TEXTSTYLE
  7
STANDARD
  9
$CLAYER
  8
1TEXT
  9
$CELTYPE
  6
BYLAYER
  9
$CECOLOR
 62
   256
  9
$CELTSCALE
 40
1.0
  9
$DELOBJ
 70
     1
  9
$DISPSILH
 70
     0
  9
$DIMSCALE
 40
1.0
  9
$DIMASZ
 40
2.0
  9
$DIMEXO
 40
0.0
  9
$DIMDLI
 40
7.0
  9
$DIMRND
 40
0.0
  9
$DIMDLE
 40
0.0
  9
$DIMEXE
 40
1.0
  9
$DIMTP
 40
0.0
  9
$DIMTM
 40
0.0
  9
$DIMTXT
 40
3.5
  9
$DIMCEN
 40
0.0
  9
$DIMTSZ
 40
0.0
  9
$DIMTOL
 70
     0
  9
$DIMLIM
 70
     0
  9
$DIMTIH
 70
     0
  9
$DIMTOH
 70
     0
  9
$DIMSE1
 70
     0
  9
$DIMSE2
 70
     0
  9
$DIMTAD
 70
     1
  9
$DIMZIN
 70
     8
  9
$DIMBLK
  1

  9
$DIMASO
 70
     1
  9
$DIMSHO
 70
     1
  9
$DIMPOST
  1
 
  9
$DIMAPOST
  1

  9
$DIMALT
 70
     0
  9
$DIMALTD
 70
     2
  9
$DIMALTF
 40
25.4
  9
$DIMLFAC
 40
1.0
  9
$DIMTOFL
 70
     1
  9
$DIMTVP
 40
0.0
  9
$DIMTIX
 70
     0
  9
$DIMSOXD
 70
     0
  9
$DIMSAH
 70
     1
  9
$DIMBLK1
  1
OPEN30
  9
$DIMBLK2
  1
OPEN30
  9
$DIMSTYLE
  2
NEWX10
  9
$DIMCLRD
 70
   256
  9
$DIMCLRE
 70
   256
  9
$DIMCLRT
 70
   201
  9
$DIMTFAC
 40
0.7
  9
$DIMGAP
 40
0.7
  9
$DIMJUST
 70
     0
  9
$DIMSD1
 70
     0
  9
$DIMSD2
 70
     0
  9
$DIMTOLJ
 70
     1
  9
$DIMTZIN
 70
     8
  9
$DIMALTZ
 70
     0
  9
$DIMALTTZ
 70
     0
  9
$DIMFIT
 70
     2
  9
$DIMUPT
 70
     0
  9
$DIMUNIT
 70
     2
  9
$DIMDEC
 70
     2
  9
$DIMTDEC
 70
     4
  9
$DIMALTU
 70
     2
  9
$DIMALTTD
 70
     2
  9
$DIMTXSTY
  7
STANDARD
  9
$DIMAUNIT
 70
     0
  9
$LUNITS
 70
     2
  9
$LUPREC
 70
     4
  9
$SKETCHINC
 40
1.0
  9
$FILLETRAD
 40
0.0
  9
$AUNITS
 70
     0
  9
$AUPREC
 70
     2
  9
$MENU
  1
acad
  9
$ELEVATION
 40
0.0
  9
$PELEVATION
 40
0.0
  9
$THICKNESS
 40
0.0
  9
$LIMCHECK
 70
     0
  9
$CHAMFERA
 40
10.0
  9
$CHAMFERB
 40
10.0
  9
$CHAMFERC
 40
20.0
  9
$CHAMFERD
 40
0.0
  9
$SKPOLY
 70
     0
  9
$TDCREATE
 40
2451318.621352917
  9
$TDUPDATE
 40
2458912.62172007
  9
$TDINDWG
 40
1.4778205324
  9
$TDUSRTIMER
 40
1.4778205324
  9
$USRTIMER
 70
     1
  9
$ANGBASE
 50
0.0
  9
$ANGDIR
 70
     0
  9
$PDMODE
 70
     0
  9
$PDSIZE
 40
0.0
  9
$PLINEWID
 40
0.0
  9
$COORDS
 70
     2
  9
$SPLFRAME
 70
     0
  9
$SPLINETYPE
 70
     6
  9
$SPLINESEGS
 70
     8
  9
$ATTDIA
 70
     0
  9
$ATTREQ
 70
     1
  9
$HANDLING
 70
     1
  9
$HANDSEED
  5
C56D
  9
$SURFTAB1
 70
     6
  9
$SURFTAB2
 70
     6
  9
$SURFTYPE
 70
     6
  9
$SURFU
 70
     6
  9
$SURFV
 70
     6
  9
$UCSNAME
  2

  9
$UCSORG
 10
0.0
 20
0.0
 30
0.0
  9
$UCSXDIR
 10
1.0
 20
0.0
 30
0.0
  9
$UCSYDIR
 10
0.0
 20
1.0
 30
0.0
  9
$PUCSNAME
  2

  9
$PUCSORG
 10
0.0
 20
0.0
 30
0.0
  9
$PUCSXDIR
 10
1.0
 20
0.0
 30
0.0
  9
$PUCSYDIR
 10
0.0
 20
1.0
 30
0.0
  9
$USERI1
 70
     0
  9
$USERI2
 70
     0
  9
$USERI3
 70
     0
  9
$USERI4
 70
     0
  9
$USERI5
 70
     0
  9
$USERR1
 40
0.0
  9
$USERR2
 40
0.0
  9
$USERR3
 40
0.0
  9
$USERR4
 40
0.0
  9
$USERR5
 40
0.0
  9
$WORLDVIEW
 70
     1
  9
$SHADEDGE
 70
     3
  9
$SHADEDIF
 70
    70
  9
$TILEMODE
 70
     1
  9
$MAXACTVP
 70
    48
  9
$PINSBASE
 10
0.0
 20
0.0
 30
0.0
  9
$PLIMCHECK
 70
     0
  9
$PEXTMIN
 10
1.000000000000000E+20
 20
1.000000000000000E+20
 30
1.000000000000000E+20
  9
$PEXTMAX
 10
-1.000000000000000E+20
 20
-1.000000000000000E+20
 30
-1.000000000000000E+20
  9
$PLIMMIN
 10
0.0
 20
0.0
  9
$PLIMMAX
 10
420.0
 20
297.0
  9
$UNITMODE
 70
     0
  9
$VISRETAIN
 70
     1
  9
$PLINEGEN
 70
     0
  9
$PSLTSCALE
 70
     1
  9
$TREEDEPTH
 70
  3020
  9
$PICKSTYLE
 70
     1
  9
$CMLSTYLE
  2
STANDARD
  9
$CMLJUST
 70
     0
  9
$CMLSCALE
 40
20.0
  9
$SAVEIMAGES
 70
     1
  0
ENDSEC
  0
SECTION
  2
CLASSES
  0
CLASS
  1
DICTIONARYVAR
  2
AcDbDictionaryVar
  3
ObjectDBX Classes
 90
        0
280
     0
281
     0
  0
CLASS
  1
IDBUFFER
  2
AcDbIdBuffer
  3
ObjectDBX Classes
 90
    32768
280
     0
281
     0
  0
CLASS
  1
LWPOLYLINE
  2
AcDbPolyline
  3
ObjectDBX Classes
 90
    32768
280
     0
281
     1
  0
CLASS
  1
ACDBDICTIONARYWDFLT
  2
AcDbDictionaryWithDefault
  3
ObjectDBX Classes
 90
    32768
280
     0
281
     0
  0
CLASS
  1
ACDBPLACEHOLDER
  2
AcDbPlaceHolder
  3
ObjectDBX Classes
 90
        0
280
     0
281
     0
  0
CLASS
  1
LAYOUT
  2
AcDbLayout
  3
ObjectDBX Classes
 90
        0
280
     0
281
     0
  0
CLASS
  1
TABLESTYLE
  2
AcDbTableStyle
  3
ObjectDBX Classes
 90
     4095
280
     0
281
     0
  0
CLASS
  1
SORTENTSTABLE
  2
AcDbSortentsTable
  3
ObjectDBX Classes
 90
    32768
280
     0
281
     0
  0
CLASS
  1
MATERIAL
  2
AcDbMaterial
  3
ObjectDBX Classes
 90
     1153
280
     0
281
     0
  0
CLASS
  1
VISUALSTYLE
  2
AcDbVisualStyle
  3
ObjectDBX Classes
 90
     4095
280
     0
281
     0
  0
CLASS
  1
SCALE
  2
AcDbScale
  3
ObjectDBX Classes
 90
     1153
280
     0
281
     0
  0
CLASS
  1
MLEADERSTYLE
  2
AcDbMLeaderStyle
  3
ACDB_MLEADERSTYLE_CLASS
 90
     4095
280
     0
281
     0
  0
CLASS
  1
CELLSTYLEMAP
  2
AcDbCellStyleMap
  3
ObjectDBX Classes
 90
     1152
280
     0
281
     0
  0
CLASS
  1
SUN
  2
AcDbSun
  3
SCENEOE
 90
     1153
280
     0
281
     0
  0
CLASS
  1
XRECORD
  2
AcDbXrecord
  3
ObjectDBX Classes
 90
    32768
280
     0
281
     0
  0
CLASS
  1
HATCH
  2
AcDbHatch
  3
ObjectDBX Classes
 90
    32768
280
     0
281
     1
  0
ENDSEC
  0
SECTION
  2
TABLES
  0
TABLE
  2
VPORT
  5
8
330
0
100
AcDbSymbolTable
 70
     1
  0
VPORT
  5
952D
330
8
100
AcDbSymbolTableRecord
100
AcDbViewportTableRecord
  2
*ACTIVE
 70
     0
 10
0.0
 20
0.0
 11
1.0
 21
1.0
 12
5112.963626305234
 22
-240.9679830387317
 13
0.0
 23
0.0
 14
10.0
 24
10.0
 15
10.0
 25
10.0
 16
0.0
 26
0.0
 36
1.0
 17
0.0
 27
0.0
 37
0.0
 40
257.6827950743524
 41
1.803066037735849
 42
50.0
 43
0.0
 44
0.0
 50
0.0
 51
0.0
 71
    16
 72
   100
 73
     1
 74
     1
 75
     0
 76
     0
 77
     0
 78
     0
  0
ENDTAB
  0
TABLE
  2
LTYPE
  5
5
330
0
100
AcDbSymbolTable
 70
     3
  0
LTYPE
  5
12
330
5
100
AcDbSymbolTableRecord
100
AcDbLinetypeTableRecord
  2
BYBLOCK
 70
     0
  3

 72
    65
 73
     0
 40
0.0
  0
LTYPE
  5
13
330
5
100
AcDbSymbolTableRecord
100
AcDbLinetypeTableRecord
  2
BYLAYER
 70
     0
  3

 72
    65
 73
     0
 40
0.0
  0
LTYPE
  5
14
330
5
100
AcDbSymbolTableRecord
100
AcDbLinetypeTableRecord
  2
CONTINUOUS
 70
     0
  3
Solid line
 72
    65
 73
     0
 40
0.0
  0
LTYPE
  5
9837
330
5
100
AcDbSymbolTableRecord
100
AcDbLinetypeTableRecord
  2
CENTER2
 70
     0
  3
Center (.5x) ___ _ ___ _ ___ _ ___ _ ___ _ ___
 72
    65
 73
     4
 40
28.575
 49
19.05
 74
     0
 49
-3.175
 74
     0
 49
3.175
 74
     0
 49
-3.175
 74
     0
  0
LTYPE
  5
AD71
330
5
100
AcDbSymbolTableRecord
100
AcDbLinetypeTableRecord
  2
PHANTOM2
 70
     0
  3
Phantom (0.5x) ___ _ _ ___ _ _ ___ _ _ ___ _ _
 72
    65
 73
     6
 40
31.75
 49
15.875
 74
     0
 49
-3.175
 74
     0
 49
3.175
 74
     0
 49
-3.175
 74
     0
 49
3.175
 74
     0
 49
-3.175
 74
     0
  0
ENDTAB
  0
TABLE
  2
LAYER
  5
2
102
{ACAD_XDICTIONARY
360
96D9
102
}
330
0
100
AcDbSymbolTable
 70
     6
  0
LAYER
  5
E
102
{ACAD_XDICTIONARY
360
9593
102
}
330
2
100
AcDbSymbolTableRecord
100
AcDbLayerTableRecord
  2
0
 70
     0
 62
     7
  6
CONTINUOUS
  0
LAYER
  5
29
102
{ACAD_XDICTIONARY
360
9595
102
}
330
2
100
AcDbSymbolTableRecord
100
AcDbLayerTableRecord
  2
1CENTER
 70
     0
 62
     7
  6
CENTER2
  0
LAYER
  5
31
102
{ACAD_XDICTIONARY
360
9597
102
}
330
2
100
AcDbSymbolTableRecord
100
AcDbLayerTableRecord
  2
1TEXT
 70
     0
 62
     7
  6
CONTINUOUS
  0
LAYER
  5
243
102
{ACAD_XDICTIONARY
360
959D
102
}
330
2
100
AcDbSymbolTableRecord
100
AcDbLayerTableRecord
  2
01
 70
     0
 62
     1
  6
CONTINUOUS
  0
LAYER
  5
24E
102
{ACAD_XDICTIONARY
360
95A3
102
}
330
2
100
AcDbSymbolTableRecord
100
AcDbLayerTableRecord
  2
1DIM
 70
     0
 62
     7
  6
CONTINUOUS
  0
LAYER
  5
AD70
330
2
100
AcDbSymbolTableRecord
100
AcDbLayerTableRecord
  2
1PHANTOM
 70
     0
 62
     7
  6
PHANTOM2
  0
ENDTAB
  0
TABLE
  2
STYLE
  5
3
330
0
100
AcDbSymbolTable
 70
     1
  0
STYLE
  5
F
330
3
100
AcDbSymbolTableRecord
100
AcDbTextStyleTableRecord
  2
STANDARD
 70
     0
 40
0.0
 41
1.0
 50
0.0
 71
     0
 42
4.0
  3
txt.shx
  4
extfont.shx
  0
ENDTAB
  0
TABLE
  2
VIEW
  5
6
330
0
100
AcDbSymbolTable
 70
     0
  0
ENDTAB
  0
TABLE
  2
UCS
  5
7
330
0
100
AcDbSymbolTable
 70
     0
  0
ENDTAB
  0
TABLE
  2
APPID
  5
9
330
0
100
AcDbSymbolTable
 70
    12
  0
APPID
  5
10
330
9
100
AcDbSymbolTableRecord
100
AcDbRegAppTableRecord
  2
ACAD
 70
     0
  0
APPID
  5
21
330
9
100
AcDbSymbolTableRecord
100
AcDbRegAppTableRecord
  2
DRAWINGVARIABLESXDATA
 70
     0
  0
APPID
  5
64
330
9
100
AcDbSymbolTableRecord
100
AcDbRegAppTableRecord
  2
CONTENTTABDATA
 70
     0
  0
APPID
  5
65
330
9
100
AcDbSymbolTableRecord
100
AcDbRegAppTableRecord
  2
CONTENTCURRENTTAB
 70
     0
  0
APPID
  5
66
330
9
100
AcDbSymbolTableRecord
100
AcDbRegAppTableRecord
  2
CONTENTBLOCKDESCRIPTION
 70
     0
  0
APPID
  5
67
330
9
100
AcDbSymbolTableRecord
100
AcDbRegAppTableRecord
  2
CONTENTBLOCKICON
 70
     0
  0
APPID
  5
68
330
9
100
AcDbSymbolTableRecord
100
AcDbRegAppTableRecord
  2
CONTENTLONGBLOCKNAME
 70
     0
  0
APPID
  5
2AE
330
9
100
AcDbSymbolTableRecord
100
AcDbRegAppTableRecord
  2
ACAD_PSEXT
 70
     0
  0
APPID
  5
9585
330
9
100
AcDbSymbolTableRecord
100
AcDbRegAppTableRecord
  2
ACAD_MLEADERVER
 70
     0
  0
APPID
  5
A2E3
330
9
100
AcDbSymbolTableRecord
100
AcDbRegAppTableRecord
  2
ACADANNOTATIVE
 70
     0
  0
APPID
  5
A2E4
330
9
100
AcDbSymbolTableRecord
100
AcDbRegAppTableRecord
  2
ACDBBLOCKREPETAG
 70
     0
  0
APPID
  5
AD6C
330
9
100
AcDbSymbolTableRecord
100
AcDbRegAppTableRecord
  2
ACAECLAYERSTANDARD
 70
     0
  0
ENDTAB
  0
TABLE
  2
DIMSTYLE
  5
A
330
0
100
AcDbSymbolTable
 70
     1
  0
DIMSTYLE
105
48
330
A
100
AcDbSymbolTableRecord
100
AcDbDimStyleTableRecord
  2
NEWX10
 70
     0
  3
 
  4

  5

  6
OPEN30
  7
OPEN30
 40
1.0
 41
2.0
 42
0.0
 43
7.0
 44
1.0
 45
0.0
 46
0.0
 47
0.0
 48
0.0
140
3.5
141
0.0
142
0.0
143
25.4
144
1.0
145
0.0
146
0.7
147
0.7
 71
     0
 72
     0
 73
     0
 74
     0
 75
     0
 76
     0
 77
     1
 78
     8
170
     0
171
     2
172
     1
173
     1
174
     0
175
     0
176
   256
177
   256
178
   201
179
     2
270
     2
271
     2
272
     4
273
     2
274
     2
340
F
275
     0
280
     0
281
     0
282
     0
283
     1
284
     8
285
     0
286
     0
287
     2
288
     0
  0
ENDTAB
  0
TABLE
  2
BLOCK_RECORD
  5
1
330
0
100
AcDbSymbolTable
 70
     8
  0
BLOCK_RECORD
  5
18
102
{ACAD_XDICTIONARY
360
88F
102
}
330
1
100
AcDbSymbolTableRecord
100
AcDbBlockTableRecord
  2
*MODEL_SPACE
  0
BLOCK_RECORD
  5
15
330
1
100
AcDbSymbolTableRecord
100
AcDbBlockTableRecord
  2
*PAPER_SPACE
  0
BLOCK_RECORD
  5
42
330
1
100
AcDbSymbolTableRecord
100
AcDbBlockTableRecord
  2
_OPEN30
  0
BLOCK_RECORD
  5
A333
330
1
100
AcDbSymbolTableRecord
100
AcDbBlockTableRecord
  2
A3WAKUKAWAJUN2017_HYOUDAI_
  0
BLOCK_RECORD
  5
C3CD
330
1
100
AcDbSymbolTableRecord
100
AcDbBlockTableRecord
  2
*X85
  0
BLOCK_RECORD
  5
C41B
330
1
100
AcDbSymbolTableRecord
100
AcDbBlockTableRecord
  2
*X86
  0
BLOCK_RECORD
  5
C46D
330
1
100
AcDbSymbolTableRecord
100
AcDbBlockTableRecord
  2
*X87
  0
BLOCK_RECORD
  5
C4BE
330
1
100
AcDbSymbolTableRecord
100
AcDbBlockTableRecord
  2
*X88
  0
BLOCK_RECORD
  5
C4FB
330
1
100
AcDbSymbolTableRecord
100
AcDbBlockTableRecord
  2
*X89
  0
BLOCK_RECORD
  5
C53B
330
1
100
AcDbSymbolTableRecord
100
AcDbBlockTableRecord
  2
*X90
  0
ENDTAB
  0
ENDSEC
  0
SECTION
  2
BLOCKS
  0
BLOCK
  5
19
330
18
100
AcDbEntity
  8
0
100
AcDbBlockBegin
  2
*MODEL_SPACE
 70
     0
 10
0.0
 20
0.0
 30
0.0
  3
*MODEL_SPACE
  1

  0
ENDBLK
  5
1A
330
18
100
AcDbEntity
  8
0
100
AcDbBlockEnd
  0
BLOCK
  5
16
330
15
100
AcDbEntity
 67
     1
  8
0
100
AcDbBlockBegin
  2
*PAPER_SPACE
 70
     0
 10
0.0
 20
0.0
 30
0.0
  3
*PAPER_SPACE
  1

  0
ENDBLK
  5
17
330
15
100
AcDbEntity
 67
     1
  8
0
100
AcDbBlockEnd
  0
BLOCK
  5
43
330
42
100
AcDbEntity
  8
0
100
AcDbBlockBegin
  2
_OPEN30
 70
     0
 10
0.0
 20
0.0
 30
0.0
  3
_OPEN30
  1

  0
LINE
  5
44
330
42
100
AcDbEntity
  8
0
  6
BYBLOCK
 62
     0
100
AcDbLine
 10
-1.0
 20
0.26794919
 30
0.0
 11
0.0
 21
0.0
 31
0.0
  0
LINE
  5
45
330
42
100
AcDbEntity
  8
0
  6
BYBLOCK
 62
     0
100
AcDbLine
 10
0.0
 20
0.0
 30
0.0
 11
-1.0
 21
-0.26794919
 31
0.0
  0
LINE
  5
46
330
42
100
AcDbEntity
  8
0
  6
BYBLOCK
 62
     0
100
AcDbLine
 10
0.0
 20
0.0
 30
0.0
 11
-1.0
 21
0.0
 31
0.0
  0
ENDBLK
  5
47
330
42
100
AcDbEntity
  8
0
100
AcDbBlockEnd
  0
BLOCK
  5
AA56
330
A333
100
AcDbEntity
  8
0
100
AcDbBlockBegin
  2
A3WAKUKAWAJUN2017_HYOUDAI_
 70
     0
 10
0.0
 20
0.0
 30
0.0
  3
A3WAKUKAWAJUN2017_HYOUDAI_
  1

  0
LINE
  5
A335
330
A333
100
AcDbEntity
  8
0
100
AcDbLine
 10
13.26299999998673
 20
-0.0001000000000317
 30
0.0
 11
9.236999999990758
 21
8.999899999990987
 31
0.0
1001
ACAD
1000
ASC_BOUNDS
1002
{
1070
    19
1005
A376
1002
}
  0
LINE
  5
A336
330
A333
100
AcDbEntity
  8
0
100
AcDbLine
 10
5.657999999994331
 20
0.9999999999989768
 30
0.0
 11
9.236999999990758
 21
8.999999999991019
 31
0.0
1001
ACAD
1000
ASC_BOUNDS
1002
{
1070
    19
1005
A376
1002
}
  0
LINE
  5
A337
330
A333
100
AcDbEntity
  8
0
100
AcDbLine
 10
18.59199999998134
 20
-0.2368999999997641
 30
0.0
 11
16.46099999998353
 21
5.432899999994561
 31
0.0
1001
ACAD
1000
ASC_BOUNDS
1002
{
1070
    19
1005
A377
1002
}
  0
LINE
  5
A338
330
A333
100
AcDbEntity
  8
0
100
AcDbLine
 10
18.59199999998134
 20
-0.2368999999997641
 30
0.0
 11
22.38199999997767
 21
8.763099999991255
 31
0.0
1001
ACAD
1000
ASC_BOUNDS
1002
{
1070
    19
1005
A377
1002
}
  0
LINE
  5
A339
330
A333
100
AcDbEntity
  8
0
100
AcDbLine
 10
14.32899999998563
 20
-0.2368999999997641
 30
0.0
 11
16.46099999998353
 21
5.432899999994561
 31
0.0
1001
ACAD
1000
ASC_BOUNDS
1002
{
1070
    19
1005
A377
1002
}
  0
LINE
  5
A33A
330
A333
100
AcDbEntity
  8
0
100
AcDbLine
 10
14.32899999998563
 20
-0.2368999999997641
 30
0.0
 11
10.53899999998941
 21
8.763099999991255
 31
0.0
1001
ACAD
1000
ASC_BOUNDS
1002
{
1070
    19
1005
A377
1002
}
  0
LINE
  5
A33B
330
A333
100
AcDbEntity
  8
0
100
AcDbLine
 10
19.53899999998043
 20
-0.0001000000000317
 30
0.0
 11
23.56599999997638
 21
8.999899999990987
 31
0.0
1001
ACAD
1000
ASC_BOUNDS
1002
{
1070
    19
1005
A378
1002
}
  0
LINE
  5
A33C
330
A333
100
AcDbEntity
  8
0
100
AcDbLine
 10
26.97358892824991
 20
1.383099999991202
 30
0.0
 11
23.56599999997638
 21
8.999899999990987
 31
0.0
1001
ACAD
1000
ASC_BOUNDS
1002
{
1070
    19
1005
A378
1002
}
  0
LINE
  5
A33D
330
A333
100
AcDbEntity
  8
0
100
AcDbLine
 10
5.657999999994331
 20
0.9999999999989768
 30
0.0
 11
3.181999999996833
 21
4.668599999995308
 31
0.0
1001
ACAD
1000
ASC_BOUNDS
1002
{
1070
    19
1005
A376
1002
}
  0
LINE
  5
A33E
330
A333
100
AcDbEntity
  8
0
100
AcDbLine
 10
4.617999999995391
 20
-0.0001000000000317
 30
0.0
 11
1.420999999998571
 21
4.736799999995242
 31
0.0
1001
ACAD
1000
ASC_BOUNDS
1002
{
1070
    19
1005
A376
1002
}
  0
LINE
  5
A33F
330
A333
100
AcDbEntity
  8
0
100
AcDbLine
 10
1.420999999998571
 20
8.763099999991255
 30
0.0
 11
1.420999999998571
 21
0.0
 31
0.0
1001
ACAD
1000
ASC_BOUNDS
1002
{
1070
    19
1005
A37B
1002
}
  0
LINE
  5
A340
330
A333
100
AcDbEntity
  8
0
100
AcDbLine
 10
0.0
 20
8.763099999991255
 30
0.0
 11
0.0
 21
0.0
 31
0.0
1001
ACAD
1000
ASC_BOUNDS
1002
{
1070
    19
1005
A37B
1002
}
  0
LINE
  5
A341
330
A333
100
AcDbEntity
  8
0
100
AcDbLine
 10
6.766999999993232
 20
-0.0001000000000317
 30
0.0
 11
7.826999999992154
 21
2.368399999997621
 31
0.0
1001
ACAD
1000
ASC_BOUNDS
1002
{
1070
    19
1005
A376
1002
}
  0
LINE
  5
A342
330
A333
100
AcDbEntity
  8
0
100
AcDbLine
 10
0.0
 20
0.0
 30
0.0
 11
1.420999999998571
 21
0.0
 31
0.0
1001
ACAD
1000
ASC_BOUNDS
1002
{
1070
    19
1005
A37B
1002
}
  0
LINE
  5
A343
330
A333
100
AcDbEntity
  8
0
100
AcDbLine
 10
4.617999999995391
 20
0.0
 30
0.0
 11
6.766999999993232
 21
0.0
 31
0.0
1001
ACAD
1000
ASC_BOUNDS
1002
{
1070
    19
1005
A376
1002
}
  0
LINE
  5
A344
330
A333
100
AcDbEntity
  8
0
100
AcDbLine
 10
11.70599999998831
 20
-0.0001000000000317
 30
0.0
 11
10.64699999998936
 21
2.368399999997621
 31
0.0
1001
ACAD
1000
ASC_BOUNDS
1002
{
1070
    19
1005
A376
1002
}
  0
LINE
  5
A345
330
A333
100
AcDbEntity
  8
0
100
AcDbLine
 10
7.826999999992154
 20
2.368399999997621
 30
0.0
 11
10.64699999998936
 21
2.368399999997621
 31
0.0
1001
ACAD
1000
ASC_BOUNDS
1002
{
1070
    19
1005
A376
1002
}
  0
LINE
  5
A346
330
A333
100
AcDbEntity
  8
0
100
AcDbLine
 10
11.70599999998831
 20
0.0
 30
0.0
 11
13.26299999998673
 21
0.0
 31
0.0
1001
ACAD
1000
ASC_BOUNDS
1002
{
1070
    19
1005
A376
1002
}
  0
LINE
  5
A347
330
A333
100
AcDbEntity
  8
0
100
AcDbLine
 10
22.15599999997789
 20
2.368399999997621
 30
0.0
 11
24.97599999997499
 21
2.368399999997621
 31
0.0
1001
ACAD
1000
ASC_BOUNDS
1002
{
1070
    19
1005
A378
1002
}
  0
LINE
  5
A348
330
A333
100
AcDbEntity
  8
0
100
AcDbLine
 10
19.53899999998043
 20
0.0
 30
0.0
 11
21.09599999997886
 21
0.0
 31
0.0
1001
ACAD
1000
ASC_BOUNDS
1002
{
1070
    19
1005
A378
1002
}
  0
LINE
  5
A349
330
A333
100
AcDbEntity
  8
0
100
AcDbLine
 10
21.09599999997886
 20
-0.0001000000000317
 30
0.0
 11
22.15599999997789
 21
2.368399999997621
 31
0.0
1001
ACAD
1000
ASC_BOUNDS
1002
{
1070
    19
1005
A378
1002
}
  0
LINE
  5
A34A
330
A333
100
AcDbEntity
  8
0
100
AcDbLine
 10
26.02015566812236
 20
0.0330999999912365
 30
0.0
 11
24.97599999997499
 21
2.368399999997621
 31
0.0
1001
ACAD
1000
ASC_BOUNDS
1002
{
1070
    19
1005
A378
1002
}
  0
LINE
  5
A34B
330
A333
100
AcDbEntity
  8
0
100
AcDbLine
 10
14.32399999998563
 20
3.315799999996671
 30
0.0
 11
16.46099999998353
 21
8.999899999990987
 31
0.0
1001
ACAD
1000
ASC_BOUNDS
1002
{
1070
    19
1005
A377
1002
}
  0
LINE
  5
A34C
330
A333
100
AcDbEntity
  8
0
100
AcDbLine
 10
6.432999999993513
 20
8.763099999991255
 30
0.0
 11
3.181999999996833
 21
4.668599999995308
 31
0.0
1001
ACAD
1000
ASC_BOUNDS
1002
{
1070
    19
1005
A376
1002
}
  0
LINE
  5
A34D
330
A333
100
AcDbEntity
  8
0
100
AcDbLine
 10
4.617999999995391
 20
8.763099999991255
 30
0.0
 11
1.420999999998571
 21
4.736799999995242
 31
0.0
1001
ACAD
1000
ASC_BOUNDS
1002
{
1070
    19
1005
A376
1002
}
  0
LINE
  5
A34E
330
A333
100
AcDbEntity
  8
0
100
AcDbLine
 10
0.0
 20
8.763099999991255
 30
0.0
 11
1.420999999998571
 21
8.763099999991255
 31
0.0
1001
ACAD
1000
ASC_BOUNDS
1002
{
1070
    19
1005
A37B
1002
}
  0
LINE
  5
A34F
330
A333
100
AcDbEntity
  8
0
100
AcDbLine
 10
4.617999999995391
 20
8.763099999991255
 30
0.0
 11
6.432999999993513
 21
8.763099999991255
 31
0.0
1001
ACAD
1000
ASC_BOUNDS
1002
{
1070
    19
1005
A376
1002
}
  0
LINE
  5
A350
330
A333
100
AcDbEntity
  8
0
100
AcDbLine
 10
14.32399999998563
 20
3.315799999996671
 30
0.0
 11
12.02999999998792
 21
8.763099999991255
 31
0.0
1001
ACAD
1000
ASC_BOUNDS
1002
{
1070
    19
1005
A377
1002
}
  0
LINE
  5
A351
330
A333
100
AcDbEntity
  8
0
100
AcDbLine
 10
10.06399999998996
 20
3.670999999996297
 30
0.0
 11
9.236999999990758
 21
5.5200999999945
 31
0.0
1001
ACAD
1000
ASC_BOUNDS
1002
{
1070
    19
1005
A376
1002
}
  0
LINE
  5
A352
330
A333
100
AcDbEntity
  8
0
100
AcDbLine
 10
8.409999999991555
 20
3.670999999996297
 30
0.0
 11
9.236999999990758
 21
5.5200999999945
 31
0.0
1001
ACAD
1000
ASC_BOUNDS
1002
{
1070
    19
1005
A376
1002
}
  0
LINE
  5
A353
330
A333
100
AcDbEntity
  8
0
100
AcDbLine
 10
8.409999999991555
 20
3.670999999996297
 30
0.0
 11
10.06399999998996
 21
3.670999999996297
 31
0.0
1001
ACAD
1000
ASC_BOUNDS
1002
{
1070
    19
1005
A376
1002
}
  0
LINE
  5
A354
330
A333
100
AcDbEntity
  8
0
100
AcDbLine
 10
10.53899999998941
 20
8.763099999991255
 30
0.0
 11
12.02999999998792
 21
8.763099999991255
 31
0.0
1001
ACAD
1000
ASC_BOUNDS
1002
{
1070
    19
1005
A377
1002
}
  0
LINE
  5
A355
330
A333
100
AcDbEntity
  8
0
100
AcDbLine
 10
22.7389999999773
 20
3.670999999996297
 30
0.0
 11
23.56599999997638
 21
5.5200999999945
 31
0.0
1001
ACAD
1000
ASC_BOUNDS
1002
{
1070
    19
1005
A378
1002
}
  0
LINE
  5
A356
330
A333
100
AcDbEntity
  8
0
100
AcDbLine
 10
22.7389999999773
 20
3.670999999996297
 30
0.0
 11
24.39299999997559
 21
3.670999999996297
 31
0.0
1001
ACAD
1000
ASC_BOUNDS
1002
{
1070
    19
1005
A378
1002
}
  0
LINE
  5
A357
330
A333
100
AcDbEntity
  8
0
100
AcDbLine
 10
18.59799999998143
 20
3.315799999996671
 30
0.0
 11
20.89099999997916
 21
8.763099999991255
 31
0.0
1001
ACAD
1000
ASC_BOUNDS
1002
{
1070
    19
1005
A377
1002
}
  0
LINE
  5
A358
330
A333
100
AcDbEntity
  8
0
100
AcDbLine
 10
18.59799999998143
 20
3.315799999996671
 30
0.0
 11
16.46099999998353
 21
8.999899999990987
 31
0.0
1001
ACAD
1000
ASC_BOUNDS
1002
{
1070
    19
1005
A377
1002
}
  0
LINE
  5
A359
330
A333
100
AcDbEntity
  8
0
100
AcDbLine
 10
20.89099999997916
 20
8.763099999991255
 30
0.0
 11
22.38199999997767
 21
8.763099999991255
 31
0.0
1001
ACAD
1000
ASC_BOUNDS
1002
{
1070
    19
1005
A377
1002
}
  0
LINE
  5
A35A
330
A333
100
AcDbEntity
  8
0
100
AcDbLine
 10
24.39299999997559
 20
3.670999999996297
 30
0.0
 11
23.56599999997638
 21
5.5200999999945
 31
0.0
1001
ACAD
1000
ASC_BOUNDS
1002
{
1070
    19
1005
A378
1002
}
  0
LINE
  5
A35B
330
A333
100
AcDbEntity
  8
0
100
AcDbLine
 10
44.99999999995498
 20
-0.2368999999997641
 30
0.0
 11
40.02599999995994
 21
5.341799999994635
 31
0.0
1001
ACAD
1000
ASC_BOUNDS
1002
{
1070
    19
1005
A37A
1002
}
  0
LINE
  5
A35C
330
A333
100
AcDbEntity
  8
0
100
AcDbLine
 10
40.02599999995994
 20
5.341799999994635
 30
0.0
 11
40.02599999995994
 21
0.0
 31
0.0
1001
ACAD
1000
ASC_BOUNDS
1002
{
1070
    19
1005
A37A
1002
}
  0
LINE
  5
A35D
330
A333
100
AcDbEntity
  8
0
100
AcDbLine
 10
38.60499999996136
 20
8.999999999991019
 30
0.0
 11
38.60499999996136
 21
0.0
 31
0.0
1001
ACAD
1000
ASC_BOUNDS
1002
{
1070
    19
1005
A37A
1002
}
  0
LINE
  5
A35E
330
A333
100
AcDbEntity
  8
0
100
AcDbLine
 10
44.99999999995498
 20
8.763099999991255
 30
0.0
 11
44.99999999995498
 21
-0.2368999999997641
 31
0.0
1001
ACAD
1000
ASC_BOUNDS
1002
{
1070
    19
1005
A37A
1002
}
  0
LINE
  5
A35F
330
A333
100
AcDbEntity
  8
0
100
AcDbLine
 10
38.60499999996136
 20
0.0
 30
0.0
 11
40.02599999995994
 21
0.0
 31
0.0
1001
ACAD
1000
ASC_BOUNDS
1002
{
1070
    19
1005
A37A
1002
}
  0
LINE
  5
A360
330
A333
100
AcDbEntity
  8
0
100
AcDbLine
 10
43.57899999995641
 20
3.421199999996588
 30
0.0
 11
38.60499999996136
 21
8.999899999990987
 31
0.0
1001
ACAD
1000
ASC_BOUNDS
1002
{
1070
    19
1005
A37A
1002
}
  0
LINE
  5
A361
330
A333
100
AcDbEntity
  8
0
100
AcDbLine
 10
43.57899999995641
 20
8.763099999991255
 30
0.0
 11
43.57899999995641
 21
3.421199999996588
 31
0.0
1001
ACAD
1000
ASC_BOUNDS
1002
{
1070
    19
1005
A37A
1002
}
  0
LINE
  5
A362
330
A333
100
AcDbEntity
  8
0
100
AcDbLine
 10
43.57899999995641
 20
8.763099999991255
 30
0.0
 11
44.99999999995498
 21
8.763099999991255
 31
0.0
1001
ACAD
1000
ASC_BOUNDS
1002
{
1070
    19
1005
A37A
1002
}
  0
LINE
  5
A363
330
A333
100
AcDbEntity
  8
0
100
AcDbLine
 10
37.67199999996831
 20
8.763099999991255
 30
0.0
 11
36.23199999996837
 21
8.763099999991255
 31
0.0
  0
LINE
  5
A364
330
A333
100
AcDbEntity
  8
0
100
AcDbLine
 10
31.64199999996833
 20
8.763099999991255
 30
0.0
 11
31.64199999996833
 21
2.481619422925121
 31
0.0
  0
LINE
  5
A365
330
A333
100
AcDbEntity
  8
0
100
AcDbLine
 10
37.67199999996831
 20
8.763099999991255
 30
0.0
 11
37.67199999996831
 21
2.481619422925121
 31
0.0
  0
LINE
  5
A366
330
A333
100
AcDbEntity
  8
0
100
AcDbLine
 10
36.23199999996837
 20
8.763099999991255
 30
0.0
 11
36.23199999996837
 21
2.481619422925064
 31
0.0
  0
LINE
  5
A367
330
A333
100
AcDbEntity
  8
0
100
AcDbLine
 10
33.08199999996839
 20
8.763099999991255
 30
0.0
 11
33.08199999996839
 21
2.481619422925121
 31
0.0
  0
ARC
  5
A368
330
A333
100
AcDbEntity
  8
0
100
AcDbCircle
 10
34.65699999996832
 20
3.183099999991214
 30
0.0
 40
3.420000000000007
100
AcDbArc
 50
240.0000000000255
 51
299.9999999999766
  0
ARC
  5
A369
330
A333
100
AcDbEntity
  8
0
100
AcDbCircle
 10
34.65699999996832
 20
3.183099999991214
 30
0.0
 40
1.97999999999999
100
AcDbArc
 50
240.000000000026
 51
299.9999999999703
  0
LINE
  5
A36A
330
A333
100
AcDbEntity
  8
0
100
AcDbLine
 10
33.08199999996828
 20
8.763099999991255
 30
0.0
 11
31.64199999996833
 21
8.763099999991255
 31
0.0
  0
ARC
  5
A36B
330
A333
100
AcDbEntity
  8
0
100
AcDbCircle
 10
35.06199999996829
 20
2.481619422925064
 30
0.0
 40
1.17
100
AcDbArc
 50
299.9999999999699
 51
0.0
  0
ARC
  5
A36C
330
A333
100
AcDbEntity
  8
0
100
AcDbCircle
 10
34.25199999996835
 20
2.481619422925121
 30
0.0
 40
1.17
100
AcDbArc
 50
180.0
 51
240.0000000000238
  0
ARC
  5
A36D
330
A333
100
AcDbEntity
  8
0
100
AcDbCircle
 10
35.06199999996841
 20
2.481619422925121
 30
0.0
 40
2.61
100
AcDbArc
 50
299.9999999999756
 51
0.0
  0
ARC
  5
A36E
330
A333
100
AcDbEntity
  8
0
100
AcDbCircle
 10
34.25199999996835
 20
2.481619422925121
 30
0.0
 40
2.61
100
AcDbArc
 50
180.0
 51
240.0000000000244
  0
LINE
  5
A36F
330
A333
100
AcDbEntity
  8
0
100
AcDbLine
 10
29.30199999996933
 20
8.763099999991255
 30
0.0
 11
30.74199999996927
 21
8.763099999991255
 31
0.0
1001
ACAD
1000
ASC_BOUNDS
1002
{
1070
    19
1005
A378
1002
}
  0
LINE
  5
A370
330
A333
100
AcDbEntity
  8
0
100
AcDbLine
 10
30.74199999996927
 20
8.763099999991255
 30
0.0
 11
30.74199999996927
 21
2.373099999991211
 31
0.0
1001
ACAD
1000
ASC_BOUNDS
1002
{
1070
    19
1005
A378
1002
}
  0
LINE
  5
A371
330
A333
100
AcDbEntity
  8
0
100
AcDbLine
 10
26.02015566812236
 20
0.0330999999912365
 30
0.0
 11
28.40199999996923
 21
0.0330999999912365
 31
0.0
1001
ACAD
1000
ASC_BOUNDS
1002
{
1070
    19
1005
A378
1002
}
  0
LINE
  5
A372
330
A333
100
AcDbEntity
  8
0
100
AcDbLine
 10
29.30199999996933
 20
8.763099999991255
 30
0.0
 11
29.30199999996933
 21
2.283099999991236
 31
0.0
1001
ACAD
1000
ASC_BOUNDS
1002
{
1070
    19
1005
A378
1002
}
  0
LINE
  5
A373
330
A333
100
AcDbEntity
  8
0
100
AcDbLine
 10
26.97358892824991
 20
1.383099999991202
 30
0.0
 11
28.40199999996923
 21
1.383099999991202
 31
0.0
1001
ACAD
1000
ASC_BOUNDS
1002
{
1070
    19
1005
A378
1002
}
  0
ARC
  5
A374
330
A333
100
AcDbEntity
  8
0
100
AcDbCircle
 10
28.40199999996923
 20
2.283099999991236
 30
0.0
 40
0.9
100
AcDbArc
 50
270.0
 51
0.0
1001
ACAD
1000
ASC_BOUNDS
1002
{
1070
    19
1005
A378
1002
}
  0
ARC
  5
A375
330
A333
100
AcDbEntity
  8
0
100
AcDbCircle
 10
28.40199999996923
 20
2.373099999991211
 30
0.0
 40
2.34
100
AcDbArc
 50
270.0
 51
0.0
1001
ACAD
1000
ASC_BOUNDS
1002
{
1070
    19
1005
A378
1002
}
  0
INSERT
  5
A376
330
A333
100
AcDbEntity
  8
0
100
AcDbBlockReference
  2
*X85
 10
0.0
 20
0.0
 30
0.0
1001
ACAD
1000
HATCH
1002
{
1070
    19
1000
ANSI37
1040
0.15
1040
0.0
1000
ASC_BOUNDS
1070
     2
1070
     2
1070
    12
1005
A335
1005
A336
1005
A33D
1005
A34C
1005
A34F
1005
A34D
1005
A33E
1005
A343
1005
A341
1005
A345
1005
A344
1005
A346
1070
     2
1070
     3
1005
A351
1005
A353
1005
A352
1000
ASC_SEEDPOINT
1011
3.614004224891801
1021
2.996669441146025
1031
0.0
1000
R14_HATCH_DATA
1000
A376
1011
1.0
1021
0.0
1031
0.0
1011
0.0
1021
1.0
1031
0.0
1011
0.0
1021
0.0
1031
1.0
1040
0.0
1010
0.0
1020
0.0
1030
1.0
1000
ANSI37
1070
     0
1070
     1
1071
        2
1071
        7
1070
     0
1070
     1
1071
       17
1040
13.26299999998673
1040
-0.0001000000000317
1040
9.236999999990758
1040
8.999899999990987
1040
9.236999999990758
1040
8.999999999991019
1040
5.657999999994331
1040
0.9999999999989768
1040
3.181999999996833
1040
4.668599999995308
1040
6.432999999993513
1040
8.763099999991255
1040
4.617999999995391
1040
8.763099999991255
1040
1.420999999998571
1040
4.736799999995242
1040
4.617999999995391
1040
-0.0001000000000317
1040
4.617999999995391
1040
0.0
1040
6.766999999993232
1040
0.0
1040
6.766999999993232
1040
-0.0001000000000317
1040
7.826999999992154
1040
2.368399999997621
1040
10.64699999998936
1040
2.368399999997621
1040
11.70599999998831
1040
-0.0001000000000317
1040
11.70599999998831
1040
0.0
1040
13.26299999998673
1040
0.0
1071
       12
1005
A335
1005
A336
1005
A33D
1005
A34C
1005
A34F
1005
A34D
1005
A33E
1005
A343
1005
A341
1005
A345
1005
A344
1005
A346
1071
       22
1070
     0
1070
     1
1071
        3
1040
9.236999999990758
1040
5.5200999999945
1040
10.06399999998996
1040
3.670999999996297
1040
8.409999999991555
1040
3.670999999996297
1071
        3
1005
A351
1005
A353
1005
A352
1070
     0
1070
     1
1040
0.0
1040
0.15
1070
     0
1070
     2
1040
0.7853981633974483
1040
49.29960901727088
1040
-10.17736998311392
1040
-0.3367596045400932
1040
0.3367596045400932
1070
     0
1040
2.356194490192345
1040
49.29960901727088
1040
-10.17736998311392
1040
-0.3367596045400932
1040
-0.3367596045400932
1070
     0
1040
0.0110235143455945
1071
        2
1040
3.614004224891801
1040
2.996669441146025
1040
0.0
1040
3.614004224891801
1040
2.996669441146025
1040
0.0
1002
}
  0
INSERT
  5
A377
330
A333
100
AcDbEntity
  8
0
100
AcDbBlockReference
  2
*X86
 10
0.0
 20
0.0
 30
0.0
1001
ACAD
1000
HATCH
1002
{
1070
    19
1000
ANSI37
1040
0.15
1040
0.0
1000
ASC_BOUNDS
1070
     1
1070
     2
1070
    10
1005
A337
1005
A338
1005
A359
1005
A357
1005
A358
1005
A34B
1005
A350
1005
A354
1005
A33A
1005
A339
1000
ASC_SEEDPOINT
1011
14.73245321214324
1021
2.798246178283421
1031
0.0
1000
R14_HATCH_DATA
1000
A377
1011
1.0
1021
0.0
1031
0.0
1011
0.0
1021
1.0
1031
0.0
1011
0.0
1021
0.0
1031
1.0
1040
0.0
1010
0.0
1020
0.0
1030
1.0
1000
ANSI37
1070
     0
1070
     1
1071
        1
1071
        7
1070
     0
1070
     1
1071
       10
1040
16.46099999998353
1040
5.432899999994561
1040
18.59199999998134
1040
-0.2368999999997641
1040
22.38199999997767
1040
8.763099999991255
1040
20.89099999997916
1040
8.763099999991255
1040
18.59799999998143
1040
3.315799999996671
1040
16.46099999998353
1040
8.999899999990987
1040
14.32399999998563
1040
3.315799999996671
1040
12.02999999998792
1040
8.763099999991255
1040
10.53899999998941
1040
8.763099999991255
1040
14.32899999998563
1040
-0.2368999999997641
1071
       10
1005
A337
1005
A338
1005
A359
1005
A357
1005
A358
1005
A34B
1005
A350
1005
A354
1005
A33A
1005
A339
1070
     0
1070
     1
1040
0.0
1040
0.15
1070
     0
1070
     2
1040
0.7853981633974483
1040
49.29960901727088
1040
-10.17736998311392
1040
-0.3367596045400932
1040
0.3367596045400932
1070
     0
1040
2.356194490192345
1040
49.29960901727088
1040
-10.17736998311392
1040
-0.3367596045400932
1040
-0.3367596045400932
1070
     0
1040
0.0110235143455945
1071
        1
1040
14.73245321214324
1040
2.798246178283421
1040
0.0
1002
}
  0
INSERT
  5
A378
330
A333
100
AcDbEntity
  8
0
100
AcDbBlockReference
  2
*X87
 10
0.0
 20
0.0
 30
0.0
1001
ACAD
1000
HATCH
1002
{
1070
    19
1000
ANSI37
1040
0.15
1040
0.0
1000
ASC_BOUNDS
1070
     2
1070
     2
1070
    13
1005
A33B
1005
A348
1005
A349
1005
A347
1005
A34A
1005
A371
1005
A375
1005
A370
1005
A36F
1005
A372
1005
A374
1005
A373
1005
A33C
1070
     2
1070
     3
1005
A355
1005
A35A
1005
A356
1000
ASC_SEEDPOINT
1011
21.97929957367762
1021
3.294304244259308
1031
0.0
1000
R14_HATCH_DATA
1000
A378
1011
1.0
1021
0.0
1031
0.0
1011
0.0
1021
1.0
1031
0.0
1011
0.0
1021
0.0
1031
1.0
1040
0.0
1010
0.0
1020
0.0
1030
1.0
1000
ANSI37
1070
     0
1070
     1
1071
        2
1071
        7
1070
     1
1070
     1
1071
       15
1040
23.56599999997638
1040
8.999899999990987
1040
0.0
1040
19.53899999998043
1040
-0.0001000000000317
1040
0.0
1040
19.53899999998043
1040
0.0
1040
0.0
1040
21.09599999997886
1040
0.0
1040
0.0
1040
21.09599999997886
1040
-0.0001000000000317
1040
0.0
1040
22.15599999997789
1040
2.368399999997621
1040
0.0
1040
24.97599999997499
1040
2.368399999997621
1040
0.0
1040
26.02015566812236
1040
0.0330999999912365
1040
0.0
1040
28.40199999996923
1040
0.0330999999912365
1040
0.414213562373095
1040
30.74199999996923
1040
2.373099999991211
1040
0.0
1040
30.74199999996927
1040
8.763099999991255
1040
0.0
1040
29.30199999996933
1040
8.763099999991255
1040
0.0
1040
29.30199999996933
1040
2.283099999991236
1040
-0.414213562373095
1040
28.40199999996923
1040
1.383099999991237
1040
0.0
1040
26.97358892824991
1040
1.383099999991202
1040
0.0
1071
       13
1005
A33B
1005
A348
1005
A349
1005
A347
1005
A34A
1005
A371
1005
A375
1005
A370
1005
A36F
1005
A372
1005
A374
1005
A373
1005
A33C
1071
       22
1070
     0
1070
     1
1071
        3
1040
22.7389999999773
1040
3.670999999996297
1040
23.56599999997638
1040
5.5200999999945
1040
24.39299999997559
1040
3.670999999996297
1071
        3
1005
A355
1005
A35A
1005
A356
1070
     0
1070
     1
1040
0.0
1040
0.15
1070
     0
1070
     2
1040
0.7853981633974483
1040
49.29960901727088
1040
-10.17736998311392
1040
-0.3367596045400932
1040
0.3367596045400932
1070
     0
1040
2.356194490192345
1040
49.29960901727088
1040
-10.17736998311392
1040
-0.3367596045400932
1040
-0.3367596045400932
1070
     0
1040
0.0110235143455945
1071
        2
1040
21.97929957367762
1040
3.294304244259308
1040
0.0
1040
21.97929957367762
1040
3.294304244259308
1040
0.0
1002
}
  0
INSERT
  5
A379
330
A333
100
AcDbEntity
  8
0
100
AcDbBlockReference
  2
*X88
 10
0.0
 20
0.0
 30
0.0
1001
ACAD
1000
HATCH
1002
{
1070
    19
1000
ANSI37
1040
0.15
1040
0.0
1000
R14_HATCH_DATA
1000
A379
1011
1.0
1021
0.0
1031
0.0
1011
0.0
1021
1.0
1031
0.0
1011
0.0
1021
0.0
1031
1.0
1040
0.0
1010
0.0
1020
0.0
1030
1.0
1000
ANSI37
1070
     0
1070
     1
1071
        1
1071
        7
1070
     1
1070
     1
1071
       12
1040
31.64199999996833
1040
2.481619422925121
1040
0.2679491924310942
1040
32.94699999997067
1040
0.2212931190493919
1040
0.2679491924301353
1040
36.36699999995983
1040
0.2212931190459813
1040
0.2679491924321411
1040
37.67199999996831
1040
2.481619422928361
1040
0.0
1040
37.67199999996831
1040
8.763099999991255
1040
0.0
1040
36.23199999996837
1040
8.763099999991255
1040
0.0
1040
36.23199999996837
1040
2.481619422925064
1040
-0.2679491924310291
1040
35.64699999996708
1040
1.468369700498386
1040
-0.267949192430519
1040
33.66699999997093
1040
1.468369700497703
1040
-0.267949192431809
1040
33.08199999996839
1040
2.481619422926997
1040
0.0
1040
33.08199999996839
1040
8.763099999991255
1040
0.0
1040
31.64199999996833
1040
8.763099999991255
1040
0.0
1071
        0
1070
     0
1070
     1
1040
0.0
1040
0.15
1070
     0
1070
     2
1040
0.7853981633974483
1040
49.29960901727088
1040
-10.17736998311392
1040
-0.3367596045400932
1040
0.3367596045400932
1070
     0
1040
2.356194490192345
1040
49.29960901727088
1040
-10.17736998311392
1040
-0.3367596045400932
1040
-0.3367596045400932
1070
     0
1040
0.0110235143455945
1071
        1
1040
32.30357378967278
1040
3.988785755459219
1040
0.0
1002
}
  0
INSERT
  5
A37A
330
A333
100
AcDbEntity
  8
0
100
AcDbBlockReference
  2
*X89
 10
0.0
 20
0.0
 30
0.0
1001
ACAD
1000
HATCH
1002
{
1070
    19
1000
ANSI37
1040
0.15
1040
0.0
1000
ASC_BOUNDS
1070
     1
1070
     2
1070
     8
1005
A35B
1005
A35E
1005
A362
1005
A361
1005
A360
1005
A35D
1005
A35F
1005
A35C
1000
ASC_SEEDPOINT
1011
39.74896370716704
1021
4.484843821435049
1031
0.0
1000
R14_HATCH_DATA
1000
A37A
1011
1.0
1021
0.0
1031
0.0
1011
0.0
1021
1.0
1031
0.0
1011
0.0
1021
0.0
1031
1.0
1040
0.0
1010
0.0
1020
0.0
1030
1.0
1000
ANSI37
1070
     0
1070
     1
1071
        1
1071
        7
1070
     0
1070
     1
1071
        9
1040
40.02599999995994
1040
5.341799999994635
1040
44.99999999995498
1040
-0.2368999999997641
1040
44.99999999995498
1040
8.763099999991255
1040
43.57899999995641
1040
8.763099999991255
1040
43.57899999995641
1040
3.421199999996588
1040
38.60499999996136
1040
8.999899999990987
1040
38.60499999996136
1040
8.999999999991019
1040
38.60499999996136
1040
0.0
1040
40.02599999995994
1040
0.0
1071
        8
1005
A35B
1005
A35E
1005
A362
1005
A361
1005
A360
1005
A35D
1005
A35F
1005
A35C
1070
     0
1070
     1
1040
0.0
1040
0.15
1070
     0
1070
     2
1040
0.7853981633974483
1040
49.29960901727088
1040
-10.17736998311392
1040
-0.3367596045400932
1040
0.3367596045400932
1070
     0
1040
2.356194490192345
1040
49.29960901727088
1040
-10.17736998311392
1040
-0.3367596045400932
1040
-0.3367596045400932
1070
     0
1040
0.0110235143455945
1071
        1
1040
39.74896370716704
1040
4.484843821435049
1040
0.0
1002
}
  0
INSERT
  5
A37B
330
A333
100
AcDbEntity
  8
0
100
AcDbBlockReference
  2
*X90
 10
0.0
 20
0.0
 30
0.0
1001
ACAD
1000
HATCH
1002
{
1070
    19
1000
ANSI37
1040
0.15
1040
0.0
1000
ASC_BOUNDS
1070
     1
1070
     2
1070
     4
1005
A33F
1005
A34E
1005
A340
1005
A342
1000
ASC_SEEDPOINT
1011
1.079051535452663
1021
4.148538732891836
1031
0.0
1000
R14_HATCH_DATA
1000
A37B
1011
1.0
1021
0.0
1031
0.0
1011
0.0
1021
1.0
1031
0.0
1011
0.0
1021
0.0
1031
1.0
1040
0.0
1010
0.0
1020
0.0
1030
1.0
1000
ANSI37
1070
     0
1070
     1
1071
        1
1071
        7
1070
     0
1070
     1
1071
        4
1040
1.420999999998571
1040
0.0
1040
1.420999999998571
1040
8.763099999991255
1040
0.0
1040
8.763099999991255
1040
0.0
1040
0.0
1071
        4
1005
A33F
1005
A34E
1005
A340
1005
A342
1070
     0
1070
     1
1040
0.0
1040
0.15
1070
     0
1070
     2
1040
0.7853981633974483
1040
49.29960901727088
1040
-10.17736998311392
1040
-0.3367596045400932
1040
0.3367596045400932
1070
     0
1040
2.356194490192345
1040
49.29960901727088
1040
-10.17736998311392
1040
-0.3367596045400932
1040
-0.3367596045400932
1070
     0
1040
0.0053004257112761
1071
        1
1040
1.079051535452663
1040
4.148538732891836
1040
0.0
1002
}
  0
ENDBLK
  5
AA57
330
A333
100
AcDbEntity
  8
0
100
AcDbBlockEnd
  0
BLOCK
  5
C55B
330
C3CD
100
AcDbEntity
  8
0
100
AcDbBlockBegin
  2
*X85
 70
     1
 10
0.0
 20
0.0
 30
0.0
  3
*X85
  1

  0
LINE
  5
C3CE
330
C3CD
100
AcDbEntity
  8
0
  6
CONTINUOUS
100
AcDbLine
 10
3.418023043697893
 20
7.251849696850613
 30
0.0
 11
4.929273346838536
 21
8.763099999991255
 31
0.0
  0
LINE
  5
C3CF
330
C3CD
100
AcDbEntity
  8
0
  6
CONTINUOUS
100
AcDbLine
 10
1.483656411257782
 20
4.643963855330318
 30
0.0
 11
5.60279255591872
 21
8.763099999991255
 31
0.0
  0
LINE
  5
C3D0
330
C3CD
100
AcDbEntity
  8
0
  6
CONTINUOUS
100
AcDbLine
 10
1.755053947328235
 20
4.241842182320584
 30
0.0
 11
6.276311764998907
 21
8.763099999991255
 31
0.0
  0
LINE
  5
C3D1
330
C3CD
100
AcDbEntity
  8
0
  6
CONTINUOUS
100
AcDbLine
 10
2.026451483398688
 20
3.839720509310849
 30
0.0
 11
4.441040904851878
 21
6.254309930764039
 31
0.0
  0
LINE
  5
C3D2
330
C3CD
100
AcDbEntity
  8
0
  6
CONTINUOUS
100
AcDbLine
 10
2.297849019469139
 20
3.437598836301114
 30
0.0
 11
3.321765168359338
 21
4.461514985191313
 31
0.0
  0
LINE
  5
C3D3
330
C3CD
100
AcDbEntity
  8
0
  6
CONTINUOUS
100
AcDbLine
 10
2.569246555539591
 20
3.03547716329138
 30
0.0
 11
3.593163397972743
 21
4.059394005724531
 31
0.0
  0
LINE
  5
C3D4
330
C3CD
100
AcDbEntity
  8
0
  6
CONTINUOUS
100
AcDbLine
 10
2.840644091610043
 20
2.633355490281646
 30
0.0
 11
3.864561627586149
 21
3.657273026257751
 31
0.0
  0
LINE
  5
C3D5
330
C3CD
100
AcDbEntity
  8
0
  6
CONTINUOUS
100
AcDbLine
 10
3.112041627680496
 20
2.231233817271911
 30
0.0
 11
4.135959857199554
 21
3.25515204679097
 31
0.0
  0
LINE
  5
C3D6
330
C3CD
100
AcDbEntity
  8
0
  6
CONTINUOUS
100
AcDbLine
 10
3.383439163750948
 20
1.829112144262177
 30
0.0
 11
4.40735808681296
 21
2.853031067324189
 31
0.0
  0
LINE
  5
C3D7
330
C3CD
100
AcDbEntity
  8
0
  6
CONTINUOUS
100
AcDbLine
 10
3.654836699821399
 20
1.426990471252442
 30
0.0
 11
4.678756316426365
 21
2.450910087857407
 31
0.0
  0
LINE
  5
C3D8
330
C3CD
100
AcDbEntity
  8
0
  6
CONTINUOUS
100
AcDbLine
 10
3.926234235891853
 20
1.024868798242709
 30
0.0
 11
4.95015454603977
 21
2.048789108390626
 31
0.0
  0
LINE
  5
C3D9
330
C3CD
100
AcDbEntity
  8
0
  6
CONTINUOUS
100
AcDbLine
 10
4.197631771962304
 20
0.6227471252329737
 30
0.0
 11
5.221552775653176
 21
1.646668128923846
 31
0.0
  0
LINE
  5
C3DA
330
C3CD
100
AcDbEntity
  8
0
  6
CONTINUOUS
100
AcDbLine
 10
8.715877546767851
 20
7.835069736359266
 30
0.0
 11
9.435953450375058
 21
8.555145639966472
 31
0.0
  0
LINE
  5
C3DB
330
C3CD
100
AcDbEntity
  8
0
  6
CONTINUOUS
100
AcDbLine
 10
8.170620868422267
 20
6.616293848933497
 30
0.0
 11
9.644120833743461
 21
8.08979381425469
 31
0.0
  0
LINE
  5
C3DC
330
C3CD
100
AcDbEntity
  8
0
  6
CONTINUOUS
100
AcDbLine
 10
7.625364190076684
 20
5.397517961507727
 30
0.0
 11
9.852288217111864
 21
7.624441988542907
 31
0.0
  0
LINE
  5
C3DD
330
C3CD
100
AcDbEntity
  8
0
  6
CONTINUOUS
100
AcDbLine
 10
7.080107511731101
 20
4.178742074081957
 30
0.0
 11
10.06045560048027
 21
7.159090162831124
 31
0.0
  0
LINE
  5
C3DE
330
C3CD
100
AcDbEntity
  8
0
  6
CONTINUOUS
100
AcDbLine
 10
6.534850833385518
 20
2.959966186656187
 30
0.0
 11
10.26862298384867
 21
6.693738337119342
 31
0.0
  0
LINE
  5
C3DF
330
C3CD
100
AcDbEntity
  8
0
  6
CONTINUOUS
100
AcDbLine
 10
4.469029308032756
 20
0.2206254522232385
 30
0.0
 11
5.492951005266582
 21
1.244547149457064
 31
0.0
  0
LINE
  5
C3E0
330
C3CD
100
AcDbEntity
  8
0
  6
CONTINUOUS
100
AcDbLine
 10
5.989594155039935
 20
1.741190299230417
 30
0.0
 11
8.806950407233131
 21
4.558546551423613
 31
0.0
  0
LINE
  5
C3E1
330
C3CD
100
AcDbEntity
  8
0
  6
CONTINUOUS
100
AcDbLine
 10
9.401251593263643
 20
5.152847737454126
 30
0.0
 11
10.47679036721708
 21
6.228386511407559
 31
0.0
  0
LINE
  5
C3E2
330
C3CD
100
AcDbEntity
  8
0
  6
CONTINUOUS
100
AcDbLine
 10
4.921837203428691
 20
-0.0000858614610131
 30
0.0
 11
8.592923064886001
 21
3.670999999996297
 31
0.0
  0
LINE
  5
C3E3
330
C3CD
100
AcDbEntity
  8
0
  6
CONTINUOUS
100
AcDbLine
 10
9.609390446785305
 20
4.6874673818956
 30
0.0
 11
10.68495775058548
 21
5.763034685695775
 31
0.0
  0
LINE
  5
C3E4
330
C3CD
100
AcDbEntity
  8
0
  6
CONTINUOUS
100
AcDbLine
 10
5.595387755019432
 20
-0.0000545189504582
 30
0.0
 11
7.716137258923768
 21
2.120694984953879
 31
0.0
  0
LINE
  5
C3E5
330
C3CD
100
AcDbEntity
  8
0
  6
CONTINUOUS
100
AcDbLine
 10
6.268938306610172
 20
-0.000023176439905
 30
0.0
 11
7.170485805526503
 21
0.9015243224764267
 31
0.0
  0
LINE
  5
C3E6
330
C3CD
100
AcDbEntity
  8
0
  6
CONTINUOUS
100
AcDbLine
 10
7.963842273967511
 20
2.368399999997621
 30
0.0
 11
9.266442273966188
 21
3.670999999996297
 31
0.0
  0
LINE
  5
C3E7
330
C3CD
100
AcDbEntity
  8
0
  6
CONTINUOUS
100
AcDbLine
 10
8.637361483047696
 20
2.368399999997621
 30
0.0
 11
9.939961483046375
 21
3.670999999996297
 31
0.0
  0
LINE
  5
C3E8
330
C3CD
100
AcDbEntity
  8
0
  6
CONTINUOUS
100
AcDbLine
 10
9.817529300306965
 20
4.222087026337075
 30
0.0
 11
10.89312513395388
 21
5.297682859983993
 31
0.0
  0
LINE
  5
C3E9
330
C3CD
100
AcDbEntity
  8
0
  6
CONTINUOUS
100
AcDbLine
 10
10.02566815382863
 20
3.756706670778549
 30
0.0
 11
11.10129251732229
 21
4.832331034272211
 31
0.0
  0
LINE
  5
C3EA
330
C3CD
100
AcDbEntity
  8
0
  6
CONTINUOUS
100
AcDbLine
 10
9.310880692127883
 20
2.368399999997621
 30
0.0
 11
11.30945990069069
 21
4.366979208560428
 31
0.0
  0
LINE
  5
C3EB
330
C3CD
100
AcDbEntity
  8
0
  6
CONTINUOUS
100
AcDbLine
 10
9.98439990120807
 20
2.36839999999762
 30
0.0
 11
11.5176272840591
 21
3.901627382848645
 31
0.0
  0
LINE
  5
C3EC
330
C3CD
100
AcDbEntity
  8
0
  6
CONTINUOUS
100
AcDbLine
 10
10.65037369446246
 20
2.36085458417182
 30
0.0
 11
11.7257946674275
 21
3.436275557136862
 31
0.0
  0
LINE
  5
C3ED
330
C3CD
100
AcDbEntity
  8
0
  6
CONTINUOUS
100
AcDbLine
 10
10.85847197087848
 20
1.895433651507656
 30
0.0
 11
11.9339620507959
 21
2.97092373142508
 31
0.0
  0
LINE
  5
C3EE
330
C3CD
100
AcDbEntity
  8
0
  6
CONTINUOUS
100
AcDbLine
 10
11.0665702472945
 20
1.430012718843491
 30
0.0
 11
12.14212943416431
 21
2.505571905713296
 31
0.0
  0
LINE
  5
C3EF
330
C3CD
100
AcDbEntity
  8
0
  6
CONTINUOUS
100
AcDbLine
 10
11.27466852371052
 20
0.9645917861793256
 30
0.0
 11
12.35029681753271
 21
2.040220080001513
 31
0.0
  0
LINE
  5
C3F0
330
C3CD
100
AcDbEntity
  8
0
  6
CONTINUOUS
100
AcDbLine
 10
11.48276680012654
 20
0.4991708535151611
 30
0.0
 11
12.55846420090111
 21
1.57486825428973
 31
0.0
  0
LINE
  5
C3F1
330
C3CD
100
AcDbEntity
  8
0
  6
CONTINUOUS
100
AcDbLine
 10
11.69086507654257
 20
0.0337499208509957
 30
0.0
 11
12.76663158426952
 21
1.109516428577947
 31
0.0
  0
LINE
  5
C3F2
330
C3CD
100
AcDbEntity
  8
0
  6
CONTINUOUS
100
AcDbLine
 10
12.33057447873954
 20
-0.0000598860322123
 30
0.0
 11
12.97479896763792
 21
0.6441646028661663
 31
0.0
  0
LINE
  5
C3F3
330
C3CD
100
AcDbEntity
  8
0
  6
CONTINUOUS
100
AcDbLine
 10
13.00413694809395
 20
-0.0000166257579952
 30
0.0
 11
13.18296635100632
 21
0.1788127771543824
 31
0.0
  0
LINE
  5
C3F4
330
C3CD
100
AcDbEntity
  8
0
  6
CONTINUOUS
100
AcDbLine
 10
4.772852165289667
 20
-0.000092794222212
 30
0.0
 11
4.296495091028902
 21
0.4762642800385528
 31
0.0
  0
LINE
  5
C3F5
330
C3CD
100
AcDbEntity
  8
0
  6
CONTINUOUS
100
AcDbLine
 10
5.446340034776103
 20
-0.0000614546284616
 30
0.0
 11
2.898195908335625
 21
2.548082671812017
 31
0.0
  0
LINE
  5
C3F6
330
C3CD
100
AcDbEntity
  8
0
  6
CONTINUOUS
100
AcDbLine
 10
6.119827904262539
 20
-0.0000301150347113
 30
0.0
 11
1.499896725642348
 21
4.61990106358548
 31
0.0
  0
LINE
  5
C3F7
330
C3CD
100
AcDbEntity
  8
0
  6
CONTINUOUS
100
AcDbLine
 10
6.775136745476159
 20
0.0181802528318542
 30
0.0
 11
5.699826040202669
 21
1.093490958105344
 31
0.0
  0
LINE
  5
C3F8
330
C3CD
100
AcDbEntity
  8
0
  6
CONTINUOUS
100
AcDbLine
 10
6.983376846288489
 20
0.4834593610997118
 30
0.0
 11
5.908008617934405
 21
1.558827589453796
 31
0.0
  0
LINE
  5
C3F9
330
C3CD
100
AcDbEntity
  8
0
  6
CONTINUOUS
100
AcDbLine
 10
5.377063484962296
 20
1.416253513345719
 30
0.0
 11
1.702276957014131
 21
5.091040041293883
 31
0.0
  0
LINE
  5
C3FA
330
C3CD
100
AcDbEntity
  8
0
  6
CONTINUOUS
100
AcDbLine
 10
3.978745891735324
 20
3.488090315652877
 30
0.0
 11
2.000373521109399
 21
5.466462686278803
 31
0.0
  0
LINE
  5
C3FB
330
C3CD
100
AcDbEntity
  8
0
  6
CONTINUOUS
100
AcDbLine
 10
7.191616947100819
 20
0.948738469367568
 30
0.0
 11
6.11619119566614
 21
2.024164220802247
 31
0.0
  0
LINE
  5
C3FC
330
C3CD
100
AcDbEntity
  8
0
  6
CONTINUOUS
100
AcDbLine
 10
7.399857047913149
 20
1.414017577635424
 30
0.0
 11
6.324373773397875
 21
2.489500852150698
 31
0.0
  0
LINE
  5
C3FD
330
C3CD
100
AcDbEntity
  8
0
  6
CONTINUOUS
100
AcDbLine
 10
7.608097148725479
 20
1.879296685903281
 30
0.0
 11
6.53255635112961
 21
2.95483748349915
 31
0.0
  0
LINE
  5
C3FE
330
C3CD
100
AcDbEntity
  8
0
  6
CONTINUOUS
100
AcDbLine
 10
7.816337249537808
 20
2.344575794171138
 30
0.0
 11
6.740738928861345
 21
3.420174114847601
 31
0.0
  0
LINE
  5
C3FF
330
C3CD
100
AcDbEntity
  8
0
  6
CONTINUOUS
100
AcDbLine
 10
3.310241080789734
 20
4.830114335678653
 30
0.0
 11
2.298470085204666
 21
5.84188533126372
 31
0.0
  0
LINE
  5
C400
330
C3CD
100
AcDbEntity
  8
0
  6
CONTINUOUS
100
AcDbLine
 10
3.60832983563551
 20
5.205544789913063
 30
0.0
 11
2.596566649299935
 21
6.217307976248638
 31
0.0
  0
LINE
  5
C401
330
C3CD
100
AcDbEntity
  8
0
  6
CONTINUOUS
100
AcDbLine
 10
3.906418590481286
 20
5.580975244147473
 30
0.0
 11
2.894663213395203
 21
6.592730621233557
 31
0.0
  0
LINE
  5
C402
330
C3CD
100
AcDbEntity
  8
0
  6
CONTINUOUS
100
AcDbLine
 10
4.204507345327062
 20
5.956405698381884
 30
0.0
 11
3.192759777490472
 21
6.968153266218474
 31
0.0
  0
LINE
  5
C403
330
C3CD
100
AcDbEntity
  8
0
  6
CONTINUOUS
100
AcDbLine
 10
8.466032252791512
 20
2.368399999997621
 30
0.0
 11
6.948921506593081
 21
3.885510746196053
 31
0.0
  0
LINE
  5
C404
330
C3CD
100
AcDbEntity
  8
0
  6
CONTINUOUS
100
AcDbLine
 10
9.139551461871699
 20
2.36839999999762
 30
0.0
 11
7.157104084324816
 21
4.350847377544504
 31
0.0
  0
LINE
  5
C405
330
C3CD
100
AcDbEntity
  8
0
  6
CONTINUOUS
100
AcDbLine
 10
4.502596100172839
 20
6.331836152616295
 30
0.0
 11
3.49085634158574
 21
7.343575911203393
 31
0.0
  0
LINE
  5
C406
330
C3CD
100
AcDbEntity
  8
0
  6
CONTINUOUS
100
AcDbLine
 10
4.800684855018615
 20
6.707266606850705
 30
0.0
 11
3.788952905681008
 21
7.718998556188312
 31
0.0
  0
LINE
  5
C407
330
C3CD
100
AcDbEntity
  8
0
  6
CONTINUOUS
100
AcDbLine
 10
12.18154012887317
 20
-0.0000694579236642
 30
0.0
 11
11.32140332908496
 21
0.8600673418645499
 31
0.0
  0
LINE
  5
C408
330
C3CD
100
AcDbEntity
  8
0
  6
CONTINUOUS
100
AcDbLine
 10
12.85501608323566
 20
-0.0000262032059659
 30
0.0
 11
10.77672456435345
 21
2.078265315676246
 31
0.0
  0
LINE
  5
C409
330
C3CD
100
AcDbEntity
  8
0
  6
CONTINUOUS
100
AcDbLine
 10
9.813070670951886
 20
2.36839999999762
 30
0.0
 11
8.51047067095321
 21
3.670999999996297
 31
0.0
  0
LINE
  5
C40A
330
C3CD
100
AcDbEntity
  8
0
  6
CONTINUOUS
100
AcDbLine
 10
10.48658988003207
 20
2.36839999999762
 30
0.0
 11
9.183989880033396
 21
3.670999999996297
 31
0.0
  0
LINE
  5
C40B
330
C3CD
100
AcDbEntity
  8
0
  6
CONTINUOUS
100
AcDbLine
 10
8.441048632286794
 20
3.740422038662712
 30
0.0
 11
7.365286662056551
 21
4.816184008892956
 31
0.0
  0
LINE
  5
C40C
330
C3CD
100
AcDbEntity
  8
0
  6
CONTINUOUS
100
AcDbLine
 10
8.649187485808454
 20
4.205802394221237
 30
0.0
 11
7.573469239788285
 21
5.281520640241407
 31
0.0
  0
LINE
  5
C40D
330
C3CD
100
AcDbEntity
  8
0
  6
CONTINUOUS
100
AcDbLine
 10
5.098773609864391
 20
7.082697061085115
 30
0.0
 11
4.087049469776277
 21
8.09442120117323
 31
0.0
  0
LINE
  5
C40E
330
C3CD
100
AcDbEntity
  8
0
  6
CONTINUOUS
100
AcDbLine
 10
5.396862364710167
 20
7.458127515319526
 30
0.0
 11
4.385146033871544
 21
8.469843846158149
 31
0.0
  0
LINE
  5
C40F
330
C3CD
100
AcDbEntity
  8
0
  6
CONTINUOUS
100
AcDbLine
 10
13.04801363231285
 20
0.4804954567970334
 30
0.0
 11
9.85750908911358
 21
3.670999999996297
 31
0.0
  0
LINE
  5
C410
330
C3CD
100
AcDbEntity
  8
0
  6
CONTINUOUS
100
AcDbLine
 10
8.857326339330116
 20
4.671182749779763
 30
0.0
 11
7.781651817520021
 21
5.746857271589858
 31
0.0
  0
LINE
  5
C411
330
C3CD
100
AcDbEntity
  8
0
  6
CONTINUOUS
100
AcDbLine
 10
5.694951119555943
 20
7.833557969553937
 30
0.0
 11
4.765409089118624
 21
8.763099999991255
 31
0.0
  0
LINE
  5
C412
330
C3CD
100
AcDbEntity
  8
0
  6
CONTINUOUS
100
AcDbLine
 10
12.50286117236978
 20
1.699167125820288
 30
0.0
 11
9.68611877250287
 21
4.515909525687196
 31
0.0
  0
LINE
  5
C413
330
C3CD
100
AcDbEntity
  8
0
  6
CONTINUOUS
100
AcDbLine
 10
9.065465192851777
 20
5.136563105338288
 30
0.0
 11
7.989834395251757
 21
6.21219390293831
 31
0.0
  0
LINE
  5
C414
330
C3CD
100
AcDbEntity
  8
0
  6
CONTINUOUS
100
AcDbLine
 10
5.993039874401719
 20
8.208988423788346
 30
0.0
 11
5.43892829819881
 21
8.763099999991255
 31
0.0
  0
LINE
  5
C415
330
C3CD
100
AcDbEntity
  8
0
  6
CONTINUOUS
100
AcDbLine
 10
11.95770871242671
 20
2.917838794843543
 30
0.0
 11
8.19801697298349
 21
6.677530534286761
 31
0.0
  0
LINE
  5
C416
330
C3CD
100
AcDbEntity
  8
0
  6
CONTINUOUS
100
AcDbLine
 10
6.291128629247495
 20
8.584418878022756
 30
0.0
 11
6.112447507278997
 21
8.763099999991255
 31
0.0
  0
LINE
  5
C417
330
C3CD
100
AcDbEntity
  8
0
  6
CONTINUOUS
100
AcDbLine
 10
11.41255625248364
 20
4.136510463866797
 30
0.0
 11
8.406199550715227
 21
7.142867165635211
 31
0.0
  0
LINE
  5
C418
330
C3CD
100
AcDbEntity
  8
0
  6
CONTINUOUS
100
AcDbLine
 10
10.86740379254057
 20
5.355182132890051
 30
0.0
 11
8.614382128446962
 21
7.608203796983664
 31
0.0
  0
LINE
  5
C419
330
C3CD
100
AcDbEntity
  8
0
  6
CONTINUOUS
100
AcDbLine
 10
10.3222513325975
 20
6.573853801913305
 30
0.0
 11
8.822564706178696
 21
8.073540428332114
 31
0.0
  0
LINE
  5
C41A
330
C3CD
100
AcDbEntity
  8
0
  6
CONTINUOUS
100
AcDbLine
 10
9.777098872654436
 20
7.792525470936562
 30
0.0
 11
9.030747283910433
 21
8.538877059680566
 31
0.0
  0
ENDBLK
  5
C55C
330
C3CD
100
AcDbEntity
  8
0
100
AcDbBlockEnd
  0
BLOCK
  5
C55D
330
C41B
100
AcDbEntity
  8
0
100
AcDbBlockBegin
  2
*X86
 70
     1
 10
0.0
 20
0.0
 30
0.0
  3
*X86
  1

  0
LINE
  5
C41C
330
C41B
100
AcDbEntity
  8
0
  6
CONTINUOUS
100
AcDbLine
 10
10.67292308101235
 20
8.445076852443387
 30
0.0
 11
10.99094622856022
 21
8.763099999991255
 31
0.0
  0
LINE
  5
C41D
330
C41B
100
AcDbEntity
  8
0
  6
CONTINUOUS
100
AcDbLine
 10
10.87250383178748
 20
7.971138394138331
 30
0.0
 11
11.6644654376404
 21
8.763099999991255
 31
0.0
  0
LINE
  5
C41E
330
C41B
100
AcDbEntity
  8
0
  6
CONTINUOUS
100
AcDbLine
 10
11.07208458256261
 20
7.497199935833273
 30
0.0
 11
12.12126590876355
 21
8.546381262034211
 31
0.0
  0
LINE
  5
C41F
330
C41B
100
AcDbEntity
  8
0
  6
CONTINUOUS
100
AcDbLine
 10
11.27166533333774
 20
7.023261477528216
 30
0.0
 11
12.32085164573666
 21
8.072447789927136
 31
0.0
  0
LINE
  5
C420
330
C41B
100
AcDbEntity
  8
0
  6
CONTINUOUS
100
AcDbLine
 10
11.47124608411287
 20
6.549323019223158
 30
0.0
 11
12.52043738270977
 21
7.59851431782006
 31
0.0
  0
LINE
  5
C421
330
C41B
100
AcDbEntity
  8
0
  6
CONTINUOUS
100
AcDbLine
 10
11.670826834888
 20
6.075384560918101
 30
0.0
 11
12.72002311968288
 21
7.124580845712984
 31
0.0
  0
LINE
  5
C422
330
C41B
100
AcDbEntity
  8
0
  6
CONTINUOUS
100
AcDbLine
 10
11.87040758566313
 20
5.601446102613043
 30
0.0
 11
12.91960885665599
 21
6.650647373605907
 31
0.0
  0
LINE
  5
C423
330
C41B
100
AcDbEntity
  8
0
  6
CONTINUOUS
100
AcDbLine
 10
12.06998833643825
 20
5.127507644307986
 30
0.0
 11
13.1191945936291
 21
6.176713901498832
 31
0.0
  0
LINE
  5
C424
330
C41B
100
AcDbEntity
  8
0
  6
CONTINUOUS
100
AcDbLine
 10
12.26956908721338
 20
4.65356918600293
 30
0.0
 11
13.31878033060221
 21
5.702780429391757
 31
0.0
  0
LINE
  5
C425
330
C41B
100
AcDbEntity
  8
0
  6
CONTINUOUS
100
AcDbLine
 10
12.46914983798851
 20
4.179630727697873
 30
0.0
 11
13.51836606757532
 21
5.228846957284683
 31
0.0
  0
LINE
  5
C426
330
C41B
100
AcDbEntity
  8
0
  6
CONTINUOUS
100
AcDbLine
 10
12.66873058876364
 20
3.705692269392816
 30
0.0
 11
13.71795180454843
 21
4.754913485177607
 31
0.0
  0
LINE
  5
C427
330
C41B
100
AcDbEntity
  8
0
  6
CONTINUOUS
100
AcDbLine
 10
12.86831133953877
 20
3.231753811087759
 30
0.0
 11
13.91753754152154
 21
4.280980013070531
 31
0.0
  0
LINE
  5
C428
330
C41B
100
AcDbEntity
  8
0
  6
CONTINUOUS
100
AcDbLine
 10
13.0678920903139
 20
2.757815352782702
 30
0.0
 11
14.11712327849465
 21
3.807046540963456
 31
0.0
  0
LINE
  5
C429
330
C41B
100
AcDbEntity
  8
0
  6
CONTINUOUS
100
AcDbLine
 10
13.26747284108903
 20
2.283876894477644
 30
0.0
 11
14.31670901546777
 21
3.333113068856379
 31
0.0
  0
LINE
  5
C42A
330
C41B
100
AcDbEntity
  8
0
  6
CONTINUOUS
100
AcDbLine
 10
16.36767838827179
 20
8.751678487061342
 30
0.0
 11
16.50332410898388
 21
8.887324207773432
 31
0.0
  0
LINE
  5
C42B
330
C41B
100
AcDbEntity
  8
0
  6
CONTINUOUS
100
AcDbLine
 10
15.96190732182191
 20
7.67238821153127
 30
0.0
 11
16.68735328004734
 21
8.397834169756699
 31
0.0
  0
LINE
  5
C42C
330
C41B
100
AcDbEntity
  8
0
  6
CONTINUOUS
100
AcDbLine
 10
15.55613625537202
 20
6.593097936001196
 30
0.0
 11
16.87138245111079
 21
7.908344131739965
 31
0.0
  0
LINE
  5
C42D
330
C41B
100
AcDbEntity
  8
0
  6
CONTINUOUS
100
AcDbLine
 10
15.15036518892213
 20
5.513807660471122
 30
0.0
 11
17.05541162217424
 21
7.418854093723231
 31
0.0
  0
LINE
  5
C42E
330
C41B
100
AcDbEntity
  8
0
  6
CONTINUOUS
100
AcDbLine
 10
14.74459412247225
 20
4.434517384941048
 30
0.0
 11
17.2394407932377
 21
6.929364055706499
 31
0.0
  0
LINE
  5
C42F
330
C41B
100
AcDbEntity
  8
0
  6
CONTINUOUS
100
AcDbLine
 10
14.33882305602236
 20
3.355227109410975
 30
0.0
 11
17.42346996430115
 21
6.439874017689766
 31
0.0
  0
LINE
  5
C430
330
C41B
100
AcDbEntity
  8
0
  6
CONTINUOUS
100
AcDbLine
 10
13.46705359186416
 20
1.809938436172586
 30
0.0
 11
16.0819338255367
 21
4.424818669845129
 31
0.0
  0
LINE
  5
C431
330
C41B
100
AcDbEntity
  8
0
  6
CONTINUOUS
100
AcDbLine
 10
16.63283254238972
 20
4.975717386698149
 30
0.0
 11
17.60749913536461
 21
5.950383979673033
 31
0.0
  0
LINE
  5
C432
330
C41B
100
AcDbEntity
  8
0
  6
CONTINUOUS
100
AcDbLine
 10
13.66663434263929
 20
1.335999977867529
 30
0.0
 11
15.67604797733754
 21
3.345413612565779
 31
0.0
  0
LINE
  5
C433
330
C41B
100
AcDbEntity
  8
0
  6
CONTINUOUS
100
AcDbLine
 10
13.86621509341442
 20
0.8620615195624723
 30
0.0
 11
15.27016212913838
 21
2.26600855528643
 31
0.0
  0
LINE
  5
C434
330
C41B
100
AcDbEntity
  8
0
  6
CONTINUOUS
100
AcDbLine
 10
16.81682257348267
 20
4.486188208710908
 30
0.0
 11
17.79152830642806
 21
5.460893941656299
 31
0.0
  0
LINE
  5
C435
330
C41B
100
AcDbEntity
  8
0
  6
CONTINUOUS
100
AcDbLine
 10
17.00081260457561
 20
3.996659030723667
 30
0.0
 11
17.97555747749151
 21
4.971403903639565
 31
0.0
  0
LINE
  5
C436
330
C41B
100
AcDbEntity
  8
0
  6
CONTINUOUS
100
AcDbLine
 10
20.74362343514722
 20
8.412989070375462
 30
0.0
 11
21.09373436476302
 21
8.763099999991256
 31
0.0
  0
LINE
  5
C437
330
C41B
100
AcDbEntity
  8
0
  6
CONTINUOUS
100
AcDbLine
 10
20.25401257174777
 20
7.249858997895826
 30
0.0
 11
21.7672535738432
 21
8.763099999991255
 31
0.0
  0
LINE
  5
C438
330
C41B
100
AcDbEntity
  8
0
  6
CONTINUOUS
100
AcDbLine
 10
14.06579584418955
 20
0.3881230612574149
 30
0.0
 11
14.86427628093921
 21
1.186603498007082
 31
0.0
  0
LINE
  5
C439
330
C41B
100
AcDbEntity
  8
0
  6
CONTINUOUS
100
AcDbLine
 10
14.26537659496467
 20
-0.0858153970476412
 30
0.0
 11
14.45839043274005
 21
0.1071984407277329
 31
0.0
  0
LINE
  5
C43A
330
C41B
100
AcDbEntity
  8
0
  6
CONTINUOUS
100
AcDbLine
 10
17.18480263566856
 20
3.507129852736426
 30
0.0
 11
18.15958664855496
 21
4.481913865622833
 31
0.0
  0
LINE
  5
C43B
330
C41B
100
AcDbEntity
  8
0
  6
CONTINUOUS
100
AcDbLine
 10
17.3687926667615
 20
3.017600674749186
 30
0.0
 11
18.34361581961842
 21
3.9924238276061
 31
0.0
  0
LINE
  5
C43C
330
C41B
100
AcDbEntity
  8
0
  6
CONTINUOUS
100
AcDbLine
 10
19.76440170834832
 20
6.086728925416191
 30
0.0
 11
22.33924590259489
 21
8.661573119662755
 31
0.0
  0
LINE
  5
C43D
330
C41B
100
AcDbEntity
  8
0
  6
CONTINUOUS
100
AcDbLine
 10
19.27479084494887
 20
4.923598852936555
 30
0.0
 11
21.84929622842713
 21
7.498104236414807
 31
0.0
  0
LINE
  5
C43E
330
C41B
100
AcDbEntity
  8
0
  6
CONTINUOUS
100
AcDbLine
 10
17.55278269785445
 20
2.528071496761945
 30
0.0
 11
18.52764499068187
 21
3.502933789589366
 31
0.0
  0
LINE
  5
C43F
330
C41B
100
AcDbEntity
  8
0
  6
CONTINUOUS
100
AcDbLine
 10
18.78517998154942
 20
3.760468780456919
 30
0.0
 11
21.35934655425936
 21
6.33463535316686
 31
0.0
  0
LINE
  5
C440
330
C41B
100
AcDbEntity
  8
0
  6
CONTINUOUS
100
AcDbLine
 10
17.73677272894739
 20
2.038542318774704
 30
0.0
 11
20.8693968800916
 21
5.171166469918914
 31
0.0
  0
LINE
  5
C441
330
C41B
100
AcDbEntity
  8
0
  6
CONTINUOUS
100
AcDbLine
 10
17.92076276004034
 20
1.549013140787464
 30
0.0
 11
20.37944720592384
 21
4.007697586670968
 31
0.0
  0
LINE
  5
C442
330
C41B
100
AcDbEntity
  8
0
  6
CONTINUOUS
100
AcDbLine
 10
18.10475279113329
 20
1.059483962800223
 30
0.0
 11
19.88949753175608
 21
2.84422870342302
 31
0.0
  0
LINE
  5
C443
330
C41B
100
AcDbEntity
  8
0
  6
CONTINUOUS
100
AcDbLine
 10
18.28874282222623
 20
0.5699547848129822
 30
0.0
 11
19.39954785758832
 21
1.680759820175074
 31
0.0
  0
LINE
  5
C444
330
C41B
100
AcDbEntity
  8
0
  6
CONTINUOUS
100
AcDbLine
 10
18.47273285331918
 20
0.0804256068257416
 30
0.0
 11
18.90959818342056
 21
0.517290936927127
 31
0.0
  0
LINE
  5
C445
330
C41B
100
AcDbEntity
  8
0
  6
CONTINUOUS
100
AcDbLine
 10
14.3590401358224
 20
-0.1570118376323384
 30
0.0
 11
14.24903296539946
 21
-0.0470046672093929
 31
0.0
  0
LINE
  5
C446
330
C41B
100
AcDbEntity
  8
0
  6
CONTINUOUS
100
AcDbLine
 10
14.54309291258661
 20
0.332454594683643
 30
0.0
 11
13.75908329123172
 21
1.116464216038529
 31
0.0
  0
LINE
  5
C447
330
C41B
100
AcDbEntity
  8
0
  6
CONTINUOUS
100
AcDbLine
 10
14.72714568935081
 20
0.8219210269996244
 30
0.0
 11
13.26913361706399
 21
2.27993309928645
 31
0.0
  0
LINE
  5
C448
330
C41B
100
AcDbEntity
  8
0
  6
CONTINUOUS
100
AcDbLine
 10
14.91119846611502
 20
1.311387459315606
 30
0.0
 11
12.77918394289625
 21
3.443401982534371
 31
0.0
  0
LINE
  5
C449
330
C41B
100
AcDbEntity
  8
0
  6
CONTINUOUS
100
AcDbLine
 10
15.09525124287922
 20
1.800853891631587
 30
0.0
 11
12.28923426872852
 21
4.606870865782293
 31
0.0
  0
LINE
  5
C44A
330
C41B
100
AcDbEntity
  8
0
  6
CONTINUOUS
100
AcDbLine
 10
15.27930401964343
 20
2.290320323947569
 30
0.0
 11
11.79928459456078
 21
5.770339749030213
 31
0.0
  0
LINE
  5
C44B
330
C41B
100
AcDbEntity
  8
0
  6
CONTINUOUS
100
AcDbLine
 10
15.46335679640763
 20
2.77978675626355
 30
0.0
 11
14.48885470994921
 21
3.754288842721972
 31
0.0
  0
LINE
  5
C44C
330
C41B
100
AcDbEntity
  8
0
  6
CONTINUOUS
100
AcDbLine
 10
13.88507249233704
 20
4.358071060334137
 30
0.0
 11
11.30933492039305
 21
6.933808632278135
 31
0.0
  0
LINE
  5
C44D
330
C41B
100
AcDbEntity
  8
0
  6
CONTINUOUS
100
AcDbLine
 10
18.75840522805855
 20
0.1582575336928151
 30
0.0
 11
18.25383727664818
 21
0.6628254851031863
 31
0.0
  0
LINE
  5
C44E
330
C41B
100
AcDbEntity
  8
0
  6
CONTINUOUS
100
AcDbLine
 10
15.64740957317184
 20
3.269253188579531
 30
0.0
 11
14.67288388101266
 21
4.243778880738705
 31
0.0
  0
LINE
  5
C44F
330
C41B
100
AcDbEntity
  8
0
  6
CONTINUOUS
100
AcDbLine
 10
13.39509276772158
 20
5.521569994029786
 30
0.0
 11
10.81938524622531
 21
8.097277515526056
 31
0.0
  0
LINE
  5
C450
330
C41B
100
AcDbEntity
  8
0
  6
CONTINUOUS
100
AcDbLine
 10
18.95798597883369
 20
0.6321959919978686
 30
0.0
 11
17.84825644852853
 21
1.741925522303024
 31
0.0
  0
LINE
  5
C451
330
C41B
100
AcDbEntity
  8
0
  6
CONTINUOUS
100
AcDbLine
 10
19.15756672960882
 20
1.106134450302922
 30
0.0
 11
17.44267562040888
 21
2.821025559502861
 31
0.0
  0
LINE
  5
C452
330
C41B
100
AcDbEntity
  8
0
  6
CONTINUOUS
100
AcDbLine
 10
15.83146234993604
 20
3.758719620895513
 30
0.0
 11
14.85691305207612
 21
4.733268918755439
 31
0.0
  0
LINE
  5
C453
330
C41B
100
AcDbEntity
  8
0
  6
CONTINUOUS
100
AcDbLine
 10
16.01551512670025
 20
4.248186053211494
 30
0.0
 11
15.04094222313957
 21
5.222758956772172
 31
0.0
  0
LINE
  5
C454
330
C41B
100
AcDbEntity
  8
0
  6
CONTINUOUS
100
AcDbLine
 10
12.90511304310612
 20
6.685068927725435
 30
0.0
 11
10.8270819708403
 21
8.763099999991255
 31
0.0
  0
LINE
  5
C455
330
C41B
100
AcDbEntity
  8
0
  6
CONTINUOUS
100
AcDbLine
 10
12.41513331849066
 20
7.848567861421083
 30
0.0
 11
11.50060117992049
 21
8.763099999991255
 31
0.0
  0
LINE
  5
C456
330
C41B
100
AcDbEntity
  8
0
  6
CONTINUOUS
100
AcDbLine
 10
19.35714748038395
 20
1.580072908607975
 30
0.0
 11
17.03709479228923
 21
3.900125596702697
 31
0.0
  0
LINE
  5
C457
330
C41B
100
AcDbEntity
  8
0
  6
CONTINUOUS
100
AcDbLine
 10
19.55672823115909
 20
2.054011366913028
 30
0.0
 11
16.63151396416958
 21
4.979225633902534
 31
0.0
  0
LINE
  5
C458
330
C41B
100
AcDbEntity
  8
0
  6
CONTINUOUS
100
AcDbLine
 10
16.19956790346445
 20
4.737652485527476
 30
0.0
 11
15.22497139420302
 21
5.712248994788904
 31
0.0
  0
LINE
  5
C459
330
C41B
100
AcDbEntity
  8
0
  6
CONTINUOUS
100
AcDbLine
 10
16.38362068022866
 20
5.227118917843457
 30
0.0
 11
15.40900056526648
 21
6.201739032805637
 31
0.0
  0
LINE
  5
C45A
330
C41B
100
AcDbEntity
  8
0
  6
CONTINUOUS
100
AcDbLine
 10
19.75630898193422
 20
2.527949825218081
 30
0.0
 11
18.70774536448286
 21
3.576513442669441
 31
0.0
  0
LINE
  5
C45B
330
C41B
100
AcDbEntity
  8
0
  6
CONTINUOUS
100
AcDbLine
 10
19.95588973270936
 20
3.001888283523134
 30
0.0
 11
18.90726987211446
 21
4.050508144118028
 31
0.0
  0
LINE
  5
C45C
330
C41B
100
AcDbEntity
  8
0
  6
CONTINUOUS
100
AcDbLine
 10
20.15547048348449
 20
3.475826741828186
 30
0.0
 11
19.10679437974606
 21
4.524502845566614
 31
0.0
  0
LINE
  5
C45D
330
C41B
100
AcDbEntity
  8
0
  6
CONTINUOUS
100
AcDbLine
 10
20.35505123425962
 20
3.94976520013324
 30
0.0
 11
19.30631888737766
 21
4.998497547015201
 31
0.0
  0
LINE
  5
C45E
330
C41B
100
AcDbEntity
  8
0
  6
CONTINUOUS
100
AcDbLine
 10
20.55463198503475
 20
4.423703658438292
 30
0.0
 11
19.50584339500926
 21
5.472492248463787
 31
0.0
  0
LINE
  5
C45F
330
C41B
100
AcDbEntity
  8
0
  6
CONTINUOUS
100
AcDbLine
 10
18.37481191085755
 20
3.909446896294752
 30
0.0
 11
15.59302973632993
 21
6.691229070822371
 31
0.0
  0
LINE
  5
C460
330
C41B
100
AcDbEntity
  8
0
  6
CONTINUOUS
100
AcDbLine
 10
17.96904084440766
 20
4.988737171824825
 30
0.0
 11
15.77705890739338
 21
7.180719108839104
 31
0.0
  0
LINE
  5
C461
330
C41B
100
AcDbEntity
  8
0
  6
CONTINUOUS
100
AcDbLine
 10
17.56326977795777
 20
6.068027447354899
 30
0.0
 11
15.96108807845684
 21
7.670209146855838
 31
0.0
  0
LINE
  5
C462
330
C41B
100
AcDbEntity
  8
0
  6
CONTINUOUS
100
AcDbLine
 10
17.15749871150789
 20
7.147317722884972
 30
0.0
 11
16.14511724952029
 21
8.15969918487257
 31
0.0
  0
LINE
  5
C463
330
C41B
100
AcDbEntity
  8
0
  6
CONTINUOUS
100
AcDbLine
 10
16.751727645058
 20
8.226607998415046
 30
0.0
 11
16.32914642058374
 21
8.649189222889303
 31
0.0
  0
LINE
  5
C464
330
C41B
100
AcDbEntity
  8
0
  6
CONTINUOUS
100
AcDbLine
 10
20.75421273580989
 20
4.897642116743345
 30
0.0
 11
19.70536790264086
 21
5.946486949912374
 31
0.0
  0
LINE
  5
C465
330
C41B
100
AcDbEntity
  8
0
  6
CONTINUOUS
100
AcDbLine
 10
20.95379348658502
 20
5.371580575048398
 30
0.0
 11
19.90489241027246
 21
6.42048165136096
 31
0.0
  0
LINE
  5
C466
330
C41B
100
AcDbEntity
  8
0
  6
CONTINUOUS
100
AcDbLine
 10
21.15337423736015
 20
5.845519033353452
 30
0.0
 11
20.10441691790406
 21
6.894476352809547
 31
0.0
  0
LINE
  5
C467
330
C41B
100
AcDbEntity
  8
0
  6
CONTINUOUS
100
AcDbLine
 10
21.35295498813529
 20
6.319457491658505
 30
0.0
 11
20.30394142553566
 21
7.368471054258134
 31
0.0
  0
LINE
  5
C468
330
C41B
100
AcDbEntity
  8
0
  6
CONTINUOUS
100
AcDbLine
 10
21.55253573891042
 20
6.793395949963558
 30
0.0
 11
20.50346593316726
 21
7.842465755706721
 31
0.0
  0
LINE
  5
C469
330
C41B
100
AcDbEntity
  8
0
  6
CONTINUOUS
100
AcDbLine
 10
21.75211648968556
 20
7.267334408268612
 30
0.0
 11
20.70299044079886
 21
8.316460457155308
 31
0.0
  0
LINE
  5
C46A
330
C41B
100
AcDbEntity
  8
0
  6
CONTINUOUS
100
AcDbLine
 10
21.95169724046069
 20
7.741272866573663
 30
0.0
 11
20.9298701070431
 21
8.763099999991256
 31
0.0
  0
LINE
  5
C46B
330
C41B
100
AcDbEntity
  8
0
  6
CONTINUOUS
100
AcDbLine
 10
22.15127799123582
 20
8.215211324878716
 30
0.0
 11
21.60338931612328
 21
8.763099999991256
 31
0.0
  0
LINE
  5
C46C
330
C41B
100
AcDbEntity
  8
0
  6
CONTINUOUS
100
AcDbLine
 10
22.35085874201096
 20
8.689149783183769
 30
0.0
 11
22.27690852520347
 21
8.763099999991255
 31
0.0
  0
ENDBLK
  5
C55E
330
C41B
100
AcDbEntity
  8
0
100
AcDbBlockEnd
  0
BLOCK
  5
C55F
330
C46D
100
AcDbEntity
  8
0
100
AcDbBlockBegin
  2
*X87
 70
     1
 10
0.0
 20
0.0
 30
0.0
  3
*X87
  1

  0
LINE
  5
C46E
330
C46D
100
AcDbEntity
  8
0
  6
CONTINUOUS
100
AcDbLine
 10
23.19462913593892
 20
8.169917934846424
 30
0.0
 11
23.70775465517246
 21
8.683043454079957
 31
0.0
  0
LINE
  5
C46F
330
C46D
100
AcDbEntity
  8
0
  6
CONTINUOUS
100
AcDbLine
 10
22.64923161835078
 20
6.951001208178088
 30
0.0
 11
23.9159364069932
 21
8.217705996820516
 31
0.0
  0
LINE
  5
C470
330
C46D
100
AcDbEntity
  8
0
  6
CONTINUOUS
100
AcDbLine
 10
22.10383410076263
 20
5.732084481509751
 30
0.0
 11
24.12411815881395
 21
7.752368539561078
 31
0.0
  0
LINE
  5
C471
330
C46D
100
AcDbEntity
  8
0
  6
CONTINUOUS
100
AcDbLine
 10
21.55843658317447
 20
4.513167754841414
 30
0.0
 11
24.3322999106347
 21
7.287031082301639
 31
0.0
  0
LINE
  5
C472
330
C46D
100
AcDbEntity
  8
0
  6
CONTINUOUS
100
AcDbLine
 10
21.01303906558632
 20
3.294251028173077
 30
0.0
 11
24.54048166245544
 21
6.821693625042199
 31
0.0
  0
LINE
  5
C473
330
C46D
100
AcDbEntity
  8
0
  6
CONTINUOUS
100
AcDbLine
 10
20.46764154799817
 20
2.075334301504738
 30
0.0
 11
23.28571549467848
 21
4.89340824818505
 31
0.0
  0
LINE
  5
C474
330
C46D
100
AcDbEntity
  8
0
  6
CONTINUOUS
100
AcDbLine
 10
19.92224403041002
 20
0.8564175748364002
 30
0.0
 11
22.74075865492779
 21
3.674932199354171
 31
0.0
  0
LINE
  5
C475
330
C46D
100
AcDbEntity
  8
0
  6
CONTINUOUS
100
AcDbLine
 10
23.67305085490148
 20
5.280743608408048
 30
0.0
 11
24.74866341427619
 21
6.356356167782759
 31
0.0
  0
LINE
  5
C476
330
C46D
100
AcDbEntity
  8
0
  6
CONTINUOUS
100
AcDbLine
 10
23.88118970842314
 20
4.815363252849522
 30
0.0
 11
24.95684516609694
 21
5.89101871052332
 31
0.0
  0
LINE
  5
C477
330
C46D
100
AcDbEntity
  8
0
  6
CONTINUOUS
100
AcDbLine
 10
19.73925852647308
 20
-0.0000871381807288
 30
0.0
 11
23.4103456646501
 21
3.670999999996297
 31
0.0
  0
LINE
  5
C478
330
C46D
100
AcDbEntity
  8
0
  6
CONTINUOUS
100
AcDbLine
 10
24.0893285619448
 20
4.349982897290997
 30
0.0
 11
25.16502691791769
 21
5.42568125326388
 31
0.0
  0
LINE
  5
C479
330
C46D
100
AcDbEntity
  8
0
  6
CONTINUOUS
100
AcDbLine
 10
20.41282099582748
 20
-0.0000438779065108
 30
0.0
 11
21.64944178675636
 21
1.236576913022366
 31
0.0
  0
LINE
  5
C47A
330
C46D
100
AcDbEntity
  8
0
  6
CONTINUOUS
100
AcDbLine
 10
22.78126487373161
 20
2.36839999999762
 30
0.0
 11
24.08386487373029
 21
3.670999999996297
 31
0.0
  0
LINE
  5
C47B
330
C46D
100
AcDbEntity
  8
0
  6
CONTINUOUS
100
AcDbLine
 10
24.29746741546646
 20
3.884602541732471
 30
0.0
 11
25.37320866973843
 21
4.960343796004441
 31
0.0
  0
LINE
  5
C47C
330
C46D
100
AcDbEntity
  8
0
  6
CONTINUOUS
100
AcDbLine
 10
21.08638346518189
 20
-0.0000006176322938
 30
0.0
 11
21.10379033335899
 21
0.0174062505448083
 31
0.0
  0
LINE
  5
C47D
330
C46D
100
AcDbEntity
  8
0
  6
CONTINUOUS
100
AcDbLine
 10
23.4547840828118
 20
2.36839999999762
 30
0.0
 11
25.58139042155918
 21
4.495006338745002
 31
0.0
  0
LINE
  5
C47E
330
C46D
100
AcDbEntity
  8
0
  6
CONTINUOUS
100
AcDbLine
 10
29.30199999996933
 20
8.215615917155148
 30
0.0
 11
29.84948408280543
 21
8.763099999991255
 31
0.0
  0
LINE
  5
C47F
330
C46D
100
AcDbEntity
  8
0
  6
CONTINUOUS
100
AcDbLine
 10
24.12830329189199
 20
2.36839999999762
 30
0.0
 11
25.78957217337993
 21
4.029668881485562
 31
0.0
  0
LINE
  5
C480
330
C46D
100
AcDbEntity
  8
0
  6
CONTINUOUS
100
AcDbLine
 10
29.30199999996933
 20
7.54209670807496
 30
0.0
 11
30.52300329188562
 21
8.763099999991255
 31
0.0
  0
LINE
  5
C481
330
C46D
100
AcDbEntity
  8
0
  6
CONTINUOUS
100
AcDbLine
 10
24.80182250097217
 20
2.36839999999762
 30
0.0
 11
25.99775392520067
 21
3.564331424226122
 31
0.0
  0
LINE
  5
C482
330
C46D
100
AcDbEntity
  8
0
  6
CONTINUOUS
100
AcDbLine
 10
29.30199999996933
 20
6.868577498994774
 30
0.0
 11
30.74199999996926
 21
8.308577498994712
 31
0.0
  0
LINE
  5
C483
330
C46D
100
AcDbEntity
  8
0
  6
CONTINUOUS
100
AcDbLine
 10
25.13028238392013
 20
2.023340673865392
 30
0.0
 11
26.20593567702142
 21
3.098993966966683
 31
0.0
  0
LINE
  5
C484
330
C46D
100
AcDbEntity
  8
0
  6
CONTINUOUS
100
AcDbLine
 10
25.33838066033617
 20
1.557919741201244
 30
0.0
 11
26.41411742884217
 21
2.633656509707244
 31
0.0
  0
LINE
  5
C485
330
C46D
100
AcDbEntity
  8
0
  6
CONTINUOUS
100
AcDbLine
 10
25.54647893675221
 20
1.092498808537098
 30
0.0
 11
26.62229918066291
 21
2.168319052447804
 31
0.0
  0
LINE
  5
C486
330
C46D
100
AcDbEntity
  8
0
  6
CONTINUOUS
100
AcDbLine
 10
25.75457721316825
 20
0.62707787587295
 30
0.0
 11
26.83048093248366
 21
1.702981595188365
 31
0.0
  0
LINE
  5
C487
330
C46D
100
AcDbEntity
  8
0
  6
CONTINUOUS
100
AcDbLine
 10
29.30199999996933
 20
6.195058289914587
 30
0.0
 11
30.74199999996926
 21
7.635058289914522
 31
0.0
  0
LINE
  5
C488
330
C46D
100
AcDbEntity
  8
0
  6
CONTINUOUS
100
AcDbLine
 10
29.30199999996933
 20
5.521539080834401
 30
0.0
 11
30.74199999996926
 21
6.961539080834331
 31
0.0
  0
LINE
  5
C489
330
C46D
100
AcDbEntity
  8
0
  6
CONTINUOUS
100
AcDbLine
 10
29.30199999996933
 20
4.848019871754214
 30
0.0
 11
30.74199999996925
 21
6.288019871754143
 31
0.0
  0
LINE
  5
C48A
330
C46D
100
AcDbEntity
  8
0
  6
CONTINUOUS
100
AcDbLine
 10
29.30199999996933
 20
4.174500662674028
 30
0.0
 11
30.74199999996925
 21
5.614500662673953
 31
0.0
  0
LINE
  5
C48B
330
C46D
100
AcDbEntity
  8
0
  6
CONTINUOUS
100
AcDbLine
 10
25.96267548958429
 20
0.1616569432088024
 30
0.0
 11
27.18411854636669
 21
1.383099999991207
 31
0.0
  0
LINE
  5
C48C
330
C46D
100
AcDbEntity
  8
0
  6
CONTINUOUS
100
AcDbLine
 10
29.30199999996933
 20
3.500981453593841
 30
0.0
 11
30.74199999996925
 21
4.940981453593762
 31
0.0
  0
LINE
  5
C48D
330
C46D
100
AcDbEntity
  8
0
  6
CONTINUOUS
100
AcDbLine
 10
26.50763775544691
 20
0.0330999999912356
 30
0.0
 11
27.85763775544689
 21
1.383099999991223
 31
0.0
  0
LINE
  5
C48E
330
C46D
100
AcDbEntity
  8
0
  6
CONTINUOUS
100
AcDbLine
 10
29.30199999996933
 20
2.827462244513656
 30
0.0
 11
30.74199999996925
 21
4.267462244513574
 31
0.0
  0
LINE
  5
C48F
330
C46D
100
AcDbEntity
  8
0
  6
CONTINUOUS
100
AcDbLine
 10
27.18115696452709
 20
0.0330999999912356
 30
0.0
 11
28.55073879889363
 21
1.402681834357775
 31
0.0
  0
LINE
  5
C490
330
C46D
100
AcDbEntity
  8
0
  6
CONTINUOUS
100
AcDbLine
 10
29.28241816560272
 20
2.134361201066866
 30
0.0
 11
30.74199999996924
 21
3.593943035433383
 31
0.0
  0
LINE
  5
C491
330
C46D
100
AcDbEntity
  8
0
  6
CONTINUOUS
100
AcDbLine
 10
27.85467617360728
 20
0.0330999999912356
 30
0.0
 11
30.74199999996924
 21
2.920423826353195
 31
0.0
  0
LINE
  5
C492
330
C46D
100
AcDbEntity
  8
0
  6
CONTINUOUS
100
AcDbLine
 10
28.53897559587887
 20
0.0438802131826428
 30
0.0
 11
30.73121978677781
 21
2.236124404081585
 31
0.0
  0
LINE
  5
C493
330
C46D
100
AcDbEntity
  8
0
  6
CONTINUOUS
100
AcDbLine
 10
29.45140055588722
 20
0.2827859641107988
 30
0.0
 11
30.49231403584965
 21
1.323699444073236
 31
0.0
  0
LINE
  5
C494
330
C46D
100
AcDbEntity
  8
0
  6
CONTINUOUS
100
AcDbLine
 10
19.59027867740337
 20
-0.0000967065718083
 30
0.0
 11
19.55485265190471
 21
0.035329318926844
 31
0.0
  0
LINE
  5
C495
330
C46D
100
AcDbEntity
  8
0
  6
CONTINUOUS
100
AcDbLine
 10
20.26375463176586
 20
-0.0000534518541091
 30
0.0
 11
19.76305575737534
 21
0.5006454225364014
 31
0.0
  0
LINE
  5
C496
330
C46D
100
AcDbEntity
  8
0
  6
CONTINUOUS
100
AcDbLine
 10
20.93723058612834
 20
-0.0000101971364099
 30
0.0
 11
19.97125886284597
 21
0.965961526145958
 31
0.0
  0
LINE
  5
C497
330
C46D
100
AcDbEntity
  8
0
  6
CONTINUOUS
100
AcDbLine
 10
21.25514828313686
 20
0.355591314935257
 30
0.0
 11
20.1794619683166
 21
1.431277629755512
 31
0.0
  0
LINE
  5
C498
330
C46D
100
AcDbEntity
  8
0
  6
CONTINUOUS
100
AcDbLine
 10
21.46338838394921
 20
0.8208704232030986
 30
0.0
 11
20.38766507378723
 21
1.896593733365069
 31
0.0
  0
LINE
  5
C499
330
C46D
100
AcDbEntity
  8
0
  6
CONTINUOUS
100
AcDbLine
 10
21.67162848476155
 20
1.28614953147094
 30
0.0
 11
20.59586817925786
 21
2.361909836974626
 31
0.0
  0
LINE
  5
C49A
330
C46D
100
AcDbEntity
  8
0
  6
CONTINUOUS
100
AcDbLine
 10
21.8798685855739
 20
1.751428639738782
 30
0.0
 11
20.80407128472849
 21
2.827225940584183
 31
0.0
  0
LINE
  5
C49B
330
C46D
100
AcDbEntity
  8
0
  6
CONTINUOUS
100
AcDbLine
 10
22.08810868638624
 20
2.216707748006623
 30
0.0
 11
21.01227439019912
 21
3.292542044193739
 31
0.0
  0
LINE
  5
C49C
330
C46D
100
AcDbEntity
  8
0
  6
CONTINUOUS
100
AcDbLine
 10
22.60993564347543
 20
2.36839999999762
 30
0.0
 11
21.22047749566975
 21
3.757858147803296
 31
0.0
  0
LINE
  5
C49D
330
C46D
100
AcDbEntity
  8
0
  6
CONTINUOUS
100
AcDbLine
 10
23.28345485255561
 20
2.36839999999762
 30
0.0
 11
21.42868060114038
 21
4.223174251412853
 31
0.0
  0
LINE
  5
C49E
330
C46D
100
AcDbEntity
  8
0
  6
CONTINUOUS
100
AcDbLine
 10
26.29227406164219
 20
0.0330999999912356
 30
0.0
 11
25.80009199592872
 21
0.5252820657046957
 31
0.0
  0
LINE
  5
C49F
330
C46D
100
AcDbEntity
  8
0
  6
CONTINUOUS
100
AcDbLine
 10
23.9569740616358
 20
2.36839999999762
 30
0.0
 11
21.63688370661101
 21
4.688490355022409
 31
0.0
  0
LINE
  5
C4A0
330
C46D
100
AcDbEntity
  8
0
  6
CONTINUOUS
100
AcDbLine
 10
26.96579327072237
 20
0.0330999999912356
 30
0.0
 11
25.2554132311971
 21
1.743480039516508
 31
0.0
  0
LINE
  5
C4A1
330
C46D
100
AcDbEntity
  8
0
  6
CONTINUOUS
100
AcDbLine
 10
24.63049327071599
 20
2.36839999999762
 30
0.0
 11
23.32789327071731
 21
3.670999999996297
 31
0.0
  0
LINE
  5
C4A2
330
C46D
100
AcDbEntity
  8
0
  6
CONTINUOUS
100
AcDbLine
 10
22.92098674744635
 20
4.077906523267254
 30
0.0
 11
21.84508681208164
 21
5.153806458631966
 31
0.0
  0
LINE
  5
C4A3
330
C46D
100
AcDbEntity
  8
0
  6
CONTINUOUS
100
AcDbLine
 10
27.63931247980256
 20
0.0330999999912356
 30
0.0
 11
24.0014124797975
 21
3.670999999996297
 31
0.0
  0
LINE
  5
C4A4
330
C46D
100
AcDbEntity
  8
0
  6
CONTINUOUS
100
AcDbLine
 10
23.129125600968
 20
4.5432868788258
 30
0.0
 11
22.05328991755227
 21
5.619122562241522
 31
0.0
  0
LINE
  5
C4A5
330
C46D
100
AcDbEntity
  8
0
  6
CONTINUOUS
100
AcDbLine
 10
28.31283168888275
 20
0.0330999999912356
 30
0.0
 11
24.16488385994816
 21
4.181047828925828
 31
0.0
  0
LINE
  5
C4A6
330
C46D
100
AcDbEntity
  8
0
  6
CONTINUOUS
100
AcDbLine
 10
23.33726445448964
 20
5.008667234384345
 30
0.0
 11
22.2614930230229
 21
6.084438665851079
 31
0.0
  0
LINE
  5
C4A7
330
C46D
100
AcDbEntity
  8
0
  6
CONTINUOUS
100
AcDbLine
 10
28.92085740005492
 20
0.0985934978992438
 30
0.0
 11
27.63635089796295
 21
1.383099999991217
 31
0.0
  0
LINE
  5
C4A8
330
C46D
100
AcDbEntity
  8
0
  6
CONTINUOUS
100
AcDbLine
 10
26.43704649509776
 20
2.582404402856405
 30
0.0
 11
23.61992702019732
 21
5.399523877756844
 31
0.0
  0
LINE
  5
C4A9
330
C46D
100
AcDbEntity
  8
0
  6
CONTINUOUS
100
AcDbLine
 10
23.54540330801128
 20
5.47404758994289
 30
0.0
 11
22.46969612849353
 21
6.549754769460635
 31
0.0
  0
LINE
  5
C4AA
330
C46D
100
AcDbEntity
  8
0
  6
CONTINUOUS
100
AcDbLine
 10
29.42225615078443
 20
0.2707139562499279
 30
0.0
 11
28.30987010704312
 21
1.383099999991234
 31
0.0
  0
LINE
  5
C4AB
330
C46D
100
AcDbEntity
  8
0
  6
CONTINUOUS
100
AcDbLine
 10
25.89179548232307
 20
3.801174624711282
 30
0.0
 11
22.67789923396416
 21
7.015070873070191
 31
0.0
  0
LINE
  5
C4AC
330
C46D
100
AcDbEntity
  8
0
  6
CONTINUOUS
100
AcDbLine
 10
29.83624534690007
 20
0.5302439692144705
 30
0.0
 11
28.85811781497101
 21
1.508371501143527
 31
0.0
  0
LINE
  5
C4AD
330
C46D
100
AcDbEntity
  8
0
  6
CONTINUOUS
100
AcDbLine
 10
25.34654446954838
 20
5.01994484656616
 30
0.0
 11
22.88610233943479
 21
7.480386976679748
 31
0.0
  0
LINE
  5
C4AE
330
C46D
100
AcDbEntity
  8
0
  6
CONTINUOUS
100
AcDbLine
 10
30.17865975401872
 20
0.8613487711760022
 30
0.0
 11
29.18888744090175
 21
1.851121084292977
 31
0.0
  0
LINE
  5
C4AF
330
C46D
100
AcDbEntity
  8
0
  6
CONTINUOUS
100
AcDbLine
 10
24.80129345677369
 20
6.238715068421037
 30
0.0
 11
23.09430544490542
 21
7.945703080289305
 31
0.0
  0
LINE
  5
C4B0
330
C46D
100
AcDbEntity
  8
0
  6
CONTINUOUS
100
AcDbLine
 10
30.45496647202376
 20
1.258561262251155
 30
0.0
 11
29.30199999996933
 21
2.411527734305588
 31
0.0
  0
LINE
  5
C4B1
330
C46D
100
AcDbEntity
  8
0
  6
CONTINUOUS
100
AcDbLine
 10
24.256042443999
 20
7.457485290275915
 30
0.0
 11
23.30250855037605
 21
8.411019183898862
 31
0.0
  0
LINE
  5
C4B2
330
C46D
100
AcDbEntity
  8
0
  6
CONTINUOUS
100
AcDbLine
 10
30.64868582078271
 20
1.738361122572387
 30
0.0
 11
29.30199999996933
 21
3.085046943385775
 31
0.0
  0
LINE
  5
C4B3
330
C46D
100
AcDbEntity
  8
0
  6
CONTINUOUS
100
AcDbLine
 10
23.71079143122431
 20
8.676255512130794
 30
0.0
 11
23.51071165584668
 21
8.876335287508416
 31
0.0
  0
LINE
  5
C4B4
330
C46D
100
AcDbEntity
  8
0
  6
CONTINUOUS
100
AcDbLine
 10
30.73802122914428
 20
2.322544923291007
 30
0.0
 11
29.30199999996933
 21
3.758566152465961
 31
0.0
  0
LINE
  5
C4B5
330
C46D
100
AcDbEntity
  8
0
  6
CONTINUOUS
100
AcDbLine
 10
30.74199999996924
 20
2.992085361546236
 30
0.0
 11
29.30199999996933
 21
4.432085361546148
 31
0.0
  0
LINE
  5
C4B6
330
C46D
100
AcDbEntity
  8
0
  6
CONTINUOUS
100
AcDbLine
 10
30.74199999996924
 20
3.665604570626419
 30
0.0
 11
29.30199999996933
 21
5.105604570626333
 31
0.0
  0
LINE
  5
C4B7
330
C46D
100
AcDbEntity
  8
0
  6
CONTINUOUS
100
AcDbLine
 10
30.74199999996925
 20
4.339123779706602
 30
0.0
 11
29.30199999996933
 21
5.77912377970652
 31
0.0
  0
LINE
  5
C4B8
330
C46D
100
AcDbEntity
  8
0
  6
CONTINUOUS
100
AcDbLine
 10
30.74199999996925
 20
5.012642988786785
 30
0.0
 11
29.30199999996933
 21
6.452642988786707
 31
0.0
  0
LINE
  5
C4B9
330
C46D
100
AcDbEntity
  8
0
  6
CONTINUOUS
100
AcDbLine
 10
30.74199999996925
 20
5.68616219786697
 30
0.0
 11
29.30199999996933
 21
7.126162197866894
 31
0.0
  0
LINE
  5
C4BA
330
C46D
100
AcDbEntity
  8
0
  6
CONTINUOUS
100
AcDbLine
 10
30.74199999996925
 20
6.359681406947153
 30
0.0
 11
29.30199999996933
 21
7.799681406947081
 31
0.0
  0
LINE
  5
C4BB
330
C46D
100
AcDbEntity
  8
0
  6
CONTINUOUS
100
AcDbLine
 10
30.74199999996926
 20
7.033200616027337
 30
0.0
 11
29.30199999996933
 21
8.473200616027269
 31
0.0
  0
LINE
  5
C4BC
330
C46D
100
AcDbEntity
  8
0
  6
CONTINUOUS
100
AcDbLine
 10
30.74199999996926
 20
7.706719825107518
 30
0.0
 11
29.68561982508552
 21
8.763099999991255
 31
0.0
  0
LINE
  5
C4BD
330
C46D
100
AcDbEntity
  8
0
  6
CONTINUOUS
100
AcDbLine
 10
30.74199999996926
 20
8.380239034187703
 30
0.0
 11
30.35913903416571
 21
8.763099999991255
 31
0.0
  0
ENDBLK
  5
C560
330
C46D
100
AcDbEntity
  8
0
100
AcDbBlockEnd
  0
BLOCK
  5
C561
330
C4BE
100
AcDbEntity
  8
0
100
AcDbBlockBegin
  2
*X88
 70
     1
 10
0.0
 20
0.0
 30
0.0
  3
*X88
  1

  0
LINE
  5
C4BF
330
C4BE
100
AcDbEntity
  8
0
  6
CONTINUOUS
100
AcDbLine
 10
31.64199999996833
 20
8.535058289913598
 30
0.0
 11
31.87004171004599
 21
8.763099999991255
 31
0.0
  0
LINE
  5
C4C0
330
C4BE
100
AcDbEntity
  8
0
  6
CONTINUOUS
100
AcDbLine
 10
31.64199999996833
 20
7.861539080833412
 30
0.0
 11
32.54356091912618
 21
8.763099999991255
 31
0.0
  0
LINE
  5
C4C1
330
C4BE
100
AcDbEntity
  8
0
  6
CONTINUOUS
100
AcDbLine
 10
31.64199999996833
 20
7.188019871753226
 30
0.0
 11
33.08199999996839
 21
8.628019871753281
 31
0.0
  0
LINE
  5
C4C2
330
C4BE
100
AcDbEntity
  8
0
  6
CONTINUOUS
100
AcDbLine
 10
31.64199999996833
 20
6.51450066267304
 30
0.0
 11
33.08199999996839
 21
7.954500662673095
 31
0.0
  0
LINE
  5
C4C3
330
C4BE
100
AcDbEntity
  8
0
  6
CONTINUOUS
100
AcDbLine
 10
31.64199999996833
 20
5.840981453592853
 30
0.0
 11
33.08199999996839
 21
7.280981453592908
 31
0.0
  0
LINE
  5
C4C4
330
C4BE
100
AcDbEntity
  8
0
  6
CONTINUOUS
100
AcDbLine
 10
31.64199999996833
 20
5.167462244512667
 30
0.0
 11
33.08199999996839
 21
6.607462244512721
 31
0.0
  0
LINE
  5
C4C5
330
C4BE
100
AcDbEntity
  8
0
  6
CONTINUOUS
100
AcDbLine
 10
31.64199999996833
 20
4.493943035432481
 30
0.0
 11
33.08199999996839
 21
5.933943035432535
 31
0.0
  0
LINE
  5
C4C6
330
C4BE
100
AcDbEntity
  8
0
  6
CONTINUOUS
100
AcDbLine
 10
31.64199999996833
 20
3.820423826352293
 30
0.0
 11
33.08199999996839
 21
5.260423826352348
 31
0.0
  0
LINE
  5
C4C7
330
C4BE
100
AcDbEntity
  8
0
  6
CONTINUOUS
100
AcDbLine
 10
31.64199999996833
 20
3.146904617272106
 30
0.0
 11
33.08199999996839
 21
4.586904617272161
 31
0.0
  0
LINE
  5
C4C8
330
C4BE
100
AcDbEntity
  8
0
  6
CONTINUOUS
100
AcDbLine
 10
36.23199999996837
 20
8.410423826352325
 30
0.0
 11
36.5846761736073
 21
8.763099999991255
 31
0.0
  0
LINE
  5
C4C9
330
C4BE
100
AcDbEntity
  8
0
  6
CONTINUOUS
100
AcDbLine
 10
36.23199999996837
 20
7.73690461727214
 30
0.0
 11
37.25819538268748
 21
8.763099999991255
 31
0.0
  0
LINE
  5
C4CA
330
C4BE
100
AcDbEntity
  8
0
  6
CONTINUOUS
100
AcDbLine
 10
31.64257403601376
 20
2.473959444237348
 30
0.0
 11
33.08199999996839
 21
3.913385408191974
 31
0.0
  0
LINE
  5
C4CB
330
C4BE
100
AcDbEntity
  8
0
  6
CONTINUOUS
100
AcDbLine
 10
36.23199999996837
 20
7.063385408191953
 30
0.0
 11
37.67199999996831
 21
8.503385408191894
 31
0.0
  0
LINE
  5
C4CC
330
C4BE
100
AcDbEntity
  8
0
  6
CONTINUOUS
100
AcDbLine
 10
31.72013636841932
 20
1.87800256756272
 30
0.0
 11
33.08199999996839
 21
3.239866199111788
 31
0.0
  0
LINE
  5
C4CD
330
C4BE
100
AcDbEntity
  8
0
  6
CONTINUOUS
100
AcDbLine
 10
36.23199999996837
 20
6.389866199111767
 30
0.0
 11
37.67199999996831
 21
7.829866199111708
 31
0.0
  0
LINE
  5
C4CE
330
C4BE
100
AcDbEntity
  8
0
  6
CONTINUOUS
100
AcDbLine
 10
31.89042734314753
 20
1.374774333210744
 30
0.0
 11
33.08199999996839
 21
2.566346990031601
 31
0.0
  0
LINE
  5
C4CF
330
C4BE
100
AcDbEntity
  8
0
  6
CONTINUOUS
100
AcDbLine
 10
36.23199999996837
 20
5.71634699003158
 30
0.0
 11
37.67199999996831
 21
7.156346990031521
 31
0.0
  0
LINE
  5
C4D0
330
C4BE
100
AcDbEntity
  8
0
  6
CONTINUOUS
100
AcDbLine
 10
32.14210568064475
 20
0.952933461627778
 30
0.0
 11
33.18745552475986
 21
1.998283305742888
 31
0.0
  0
LINE
  5
C4D1
330
C4BE
100
AcDbEntity
  8
0
  6
CONTINUOUS
100
AcDbLine
 10
36.23199999996837
 20
5.042827780951393
 30
0.0
 11
37.67199999996831
 21
6.482827780951334
 31
0.0
  0
LINE
  5
C4D2
330
C4BE
100
AcDbEntity
  8
0
  6
CONTINUOUS
100
AcDbLine
 10
32.45820639400955
 20
0.5955149659123915
 30
0.0
 11
33.47242681921943
 21
1.60973539112227
 31
0.0
  0
LINE
  5
C4D3
330
C4BE
100
AcDbEntity
  8
0
  6
CONTINUOUS
100
AcDbLine
 10
36.23199999996837
 20
4.369308571871207
 30
0.0
 11
37.67199999996831
 21
5.809308571871147
 31
0.0
  0
LINE
  5
C4D4
330
C4BE
100
AcDbEntity
  8
0
  6
CONTINUOUS
100
AcDbLine
 10
32.83432456621412
 20
0.2981139290367771
 30
0.0
 11
33.89722476612215
 21
1.361014128944803
 31
0.0
  0
LINE
  5
C4D5
330
C4BE
100
AcDbEntity
  8
0
  6
CONTINUOUS
100
AcDbLine
 10
36.23199999996837
 20
3.69578936279102
 30
0.0
 11
37.67199999996831
 21
5.135789362790962
 31
0.0
  0
LINE
  5
C4D6
330
C4BE
100
AcDbEntity
  8
0
  6
CONTINUOUS
100
AcDbLine
 10
33.2711633111245
 20
0.0614334648669672
 30
0.0
 11
34.43247338014423
 21
1.222743533886696
 31
0.0
  0
LINE
  5
C4D7
330
C4BE
100
AcDbEntity
  8
0
  6
CONTINUOUS
100
AcDbLine
 10
36.23199999996837
 20
3.022270153710834
 30
0.0
 11
37.67199999996831
 21
4.462270153710775
 31
0.0
  0
LINE
  5
C4D8
330
C4BE
100
AcDbEntity
  8
0
  6
CONTINUOUS
100
AcDbLine
 10
33.76515245874577
 20
-0.1180965965919523
 30
0.0
 11
35.1587445516215
 21
1.27549549628378
 31
0.0
  0
LINE
  5
C4D9
330
C4BE
100
AcDbEntity
  8
0
  6
CONTINUOUS
100
AcDbLine
 10
36.21639478609585
 20
2.333145730758136
 30
0.0
 11
37.67199999996831
 21
3.788750944630588
 31
0.0
  0
LINE
  5
C4DA
330
C4BE
100
AcDbEntity
  8
0
  6
CONTINUOUS
100
AcDbLine
 10
34.34060583368432
 20
-0.2161624307335863
 30
0.0
 11
37.67199999996831
 21
3.115231735550401
 31
0.0
  0
LINE
  5
C4DB
330
C4BE
100
AcDbEntity
  8
0
  6
CONTINUOUS
100
AcDbLine
 10
35.01698193613905
 20
-0.2133055373590427
 30
0.0
 11
37.66876712070525
 21
2.438479647207154
 31
0.0
  0
LINE
  5
C4DC
330
C4BE
100
AcDbEntity
  8
0
  6
CONTINUOUS
100
AcDbLine
 10
35.90743367693304
 20
0.0036269943547609
 30
0.0
 11
37.51723902192366
 21
1.613432339345381
 31
0.0
  0
LINE
  5
C4DD
330
C4BE
100
AcDbEntity
  8
0
  6
CONTINUOUS
100
AcDbLine
 10
32.55309425579761
 20
0.5074718966376706
 30
0.0
 11
32.27784730925847
 21
0.7827188431768102
 31
0.0
  0
LINE
  5
C4DE
330
C4BE
100
AcDbEntity
  8
0
  6
CONTINUOUS
100
AcDbLine
 10
33.87496468909684
 20
-0.1408793275813673
 30
0.0
 11
31.67993083278052
 21
2.054154528734943
 31
0.0
  0
LINE
  5
C4DF
330
C4BE
100
AcDbEntity
  8
0
  6
CONTINUOUS
100
AcDbLine
 10
34.64362813207632
 20
-0.2360235614806649
 30
0.0
 11
31.64199999996833
 21
2.765604570627322
 31
0.0
  0
LINE
  5
C4E0
330
C4BE
100
AcDbEntity
  8
0
  6
CONTINUOUS
100
AcDbLine
 10
35.25801106796118
 20
-0.1768872882853429
 30
0.0
 11
31.64199999996833
 21
3.439123779707508
 31
0.0
  0
LINE
  5
C4E1
330
C4BE
100
AcDbEntity
  8
0
  6
CONTINUOUS
100
AcDbLine
 10
35.79065650332146
 20
-0.0360135145654361
 30
0.0
 11
34.54143210838231
 21
1.213210880373721
 31
0.0
  0
LINE
  5
C4E2
330
C4BE
100
AcDbEntity
  8
0
  6
CONTINUOUS
100
AcDbLine
 10
33.08199999996839
 20
2.67264298878764
 30
0.0
 11
31.64199999996833
 21
4.112642988787695
 31
0.0
  0
LINE
  5
C4E3
330
C4BE
100
AcDbEntity
  8
0
  6
CONTINUOUS
100
AcDbLine
 10
36.25975597779143
 20
0.1684062200447833
 30
0.0
 11
35.15395110240023
 21
1.274211095435983
 31
0.0
  0
LINE
  5
C4E4
330
C4BE
100
AcDbEntity
  8
0
  6
CONTINUOUS
100
AcDbLine
 10
33.08199999996839
 20
3.346162197867826
 30
0.0
 11
31.64199999996833
 21
4.786162197867881
 31
0.0
  0
LINE
  5
C4E5
330
C4BE
100
AcDbEntity
  8
0
  6
CONTINUOUS
100
AcDbLine
 10
36.67226329638774
 20
0.4294181105286579
 30
0.0
 11
35.63766478748767
 21
1.464016619428737
 31
0.0
  0
LINE
  5
C4E6
330
C4BE
100
AcDbEntity
  8
0
  6
CONTINUOUS
100
AcDbLine
 10
33.08199999996839
 20
4.019681406948012
 30
0.0
 11
31.64199999996833
 21
5.459681406948068
 31
0.0
  0
LINE
  5
C4E7
330
C4BE
100
AcDbEntity
  8
0
  6
CONTINUOUS
100
AcDbLine
 10
37.01677749710036
 20
0.7584231188962329
 30
0.0
 11
35.99563422741351
 21
1.779566388583076
 31
0.0
  0
LINE
  5
C4E8
330
C4BE
100
AcDbEntity
  8
0
  6
CONTINUOUS
100
AcDbLine
 10
33.08199999996839
 20
4.693200616028199
 30
0.0
 11
31.64199999996833
 21
6.133200616028255
 31
0.0
  0
LINE
  5
C4E9
330
C4BE
100
AcDbEntity
  8
0
  6
CONTINUOUS
100
AcDbLine
 10
37.29859977568887
 20
1.1501200493879
 30
0.0
 11
36.20680593341555
 21
2.241913891661226
 31
0.0
  0
LINE
  5
C4EA
330
C4BE
100
AcDbEntity
  8
0
  6
CONTINUOUS
100
AcDbLine
 10
33.08199999996839
 20
5.366719825108386
 30
0.0
 11
31.64199999996833
 21
6.80671982510844
 31
0.0
  0
LINE
  5
C4EB
330
C4BE
100
AcDbEntity
  8
0
  6
CONTINUOUS
100
AcDbLine
 10
37.5148623517228
 20
1.607376682434161
 30
0.0
 11
36.23199999996837
 21
2.890239034188594
 31
0.0
  0
LINE
  5
C4EC
330
C4BE
100
AcDbEntity
  8
0
  6
CONTINUOUS
100
AcDbLine
 10
33.08199999996839
 20
6.040239034188573
 30
0.0
 11
31.64199999996833
 21
7.480239034188627
 31
0.0
  0
LINE
  5
C4ED
330
C4BE
100
AcDbEntity
  8
0
  6
CONTINUOUS
100
AcDbLine
 10
37.64705163358367
 20
2.148706609653477
 30
0.0
 11
36.23199999996837
 21
3.56375824326878
 31
0.0
  0
LINE
  5
C4EE
330
C4BE
100
AcDbEntity
  8
0
  6
CONTINUOUS
100
AcDbLine
 10
33.08199999996839
 20
6.713758243268758
 30
0.0
 11
31.64199999996833
 21
8.153758243268815
 31
0.0
  0
LINE
  5
C4EF
330
C4BE
100
AcDbEntity
  8
0
  6
CONTINUOUS
100
AcDbLine
 10
37.67199999996831
 20
2.797277452349026
 30
0.0
 11
36.23199999996837
 21
4.237277452348967
 31
0.0
  0
LINE
  5
C4F0
330
C4BE
100
AcDbEntity
  8
0
  6
CONTINUOUS
100
AcDbLine
 10
37.67199999996831
 20
3.470796661429213
 30
0.0
 11
36.23199999996837
 21
4.910796661429154
 31
0.0
  0
LINE
  5
C4F1
330
C4BE
100
AcDbEntity
  8
0
  6
CONTINUOUS
100
AcDbLine
 10
37.67199999996831
 20
4.144315870509399
 30
0.0
 11
36.23199999996837
 21
5.58431587050934
 31
0.0
  0
LINE
  5
C4F2
330
C4BE
100
AcDbEntity
  8
0
  6
CONTINUOUS
100
AcDbLine
 10
33.08199999996839
 20
7.387277452348945
 30
0.0
 11
31.70617745232608
 21
8.763099999991255
 31
0.0
  0
LINE
  5
C4F3
330
C4BE
100
AcDbEntity
  8
0
  6
CONTINUOUS
100
AcDbLine
 10
33.08199999996839
 20
8.060796661429132
 30
0.0
 11
32.37969666140626
 21
8.763099999991255
 31
0.0
  0
LINE
  5
C4F4
330
C4BE
100
AcDbEntity
  8
0
  6
CONTINUOUS
100
AcDbLine
 10
33.08199999996839
 20
8.734315870509318
 30
0.0
 11
33.05321587048645
 21
8.763099999991255
 31
0.0
  0
LINE
  5
C4F5
330
C4BE
100
AcDbEntity
  8
0
  6
CONTINUOUS
100
AcDbLine
 10
37.67199999996831
 20
4.817835079589585
 30
0.0
 11
36.23199999996837
 21
6.257835079589526
 31
0.0
  0
LINE
  5
C4F6
330
C4BE
100
AcDbEntity
  8
0
  6
CONTINUOUS
100
AcDbLine
 10
37.67199999996831
 20
5.491354288669771
 30
0.0
 11
36.23199999996837
 21
6.931354288669713
 31
0.0
  0
LINE
  5
C4F7
330
C4BE
100
AcDbEntity
  8
0
  6
CONTINUOUS
100
AcDbLine
 10
37.67199999996831
 20
6.164873497749958
 30
0.0
 11
36.23199999996837
 21
7.6048734977499
 31
0.0
  0
LINE
  5
C4F8
330
C4BE
100
AcDbEntity
  8
0
  6
CONTINUOUS
100
AcDbLine
 10
37.67199999996831
 20
6.838392706830144
 30
0.0
 11
36.23199999996837
 21
8.278392706830086
 31
0.0
  0
LINE
  5
C4F9
330
C4BE
100
AcDbEntity
  8
0
  6
CONTINUOUS
100
AcDbLine
 10
37.67199999996831
 20
7.511911915910332
 30
0.0
 11
36.42081191588738
 21
8.763099999991255
 31
0.0
  0
LINE
  5
C4FA
330
C4BE
100
AcDbEntity
  8
0
  6
CONTINUOUS
100
AcDbLine
 10
37.67199999996831
 20
8.185431124990519
 30
0.0
 11
37.09433112496757
 21
8.763099999991255
 31
0.0
  0
ENDBLK
  5
C562
330
C4BE
100
AcDbEntity
  8
0
100
AcDbBlockEnd
  0
BLOCK
  5
C563
330
C4FB
100
AcDbEntity
  8
0
100
AcDbBlockBegin
  2
*X89
 70
     1
 10
0.0
 20
0.0
 30
0.0
  3
*X89
  1

  0
LINE
  5
C4FC
330
C4FB
100
AcDbEntity
  8
0
  6
CONTINUOUS
100
AcDbLine
 10
38.60499999996136
 20
8.762866199104765
 30
0.0
 11
38.71672554182345
 21
8.874591740966855
 31
0.0
  0
LINE
  5
C4FD
330
C4FB
100
AcDbEntity
  8
0
  6
CONTINUOUS
100
AcDbLine
 10
38.60499999996136
 20
8.089346990024577
 30
0.0
 11
39.03418785440363
 21
8.518534844466847
 31
0.0
  0
LINE
  5
C4FE
330
C4FB
100
AcDbEntity
  8
0
  6
CONTINUOUS
100
AcDbLine
 10
38.60499999996136
 20
7.41582778094439
 30
0.0
 11
39.35165016698382
 21
8.16247794796684
 31
0.0
  0
LINE
  5
C4FF
330
C4FB
100
AcDbEntity
  8
0
  6
CONTINUOUS
100
AcDbLine
 10
38.60499999996136
 20
6.742308571864204
 30
0.0
 11
39.66911247956399
 21
7.806421051466834
 31
0.0
  0
LINE
  5
C500
330
C4FB
100
AcDbEntity
  8
0
  6
CONTINUOUS
100
AcDbLine
 10
38.60499999996136
 20
6.068789362784018
 30
0.0
 11
39.98657479214418
 21
7.450364154966827
 31
0.0
  0
LINE
  5
C501
330
C4FB
100
AcDbEntity
  8
0
  6
CONTINUOUS
100
AcDbLine
 10
38.60499999996136
 20
5.395270153703832
 30
0.0
 11
40.30403710472435
 21
7.09430725846682
 31
0.0
  0
LINE
  5
C502
330
C4FB
100
AcDbEntity
  8
0
  6
CONTINUOUS
100
AcDbLine
 10
38.60499999996136
 20
4.721750944623645
 30
0.0
 11
40.62149941730453
 21
6.738250361966813
 31
0.0
  0
LINE
  5
C503
330
C4FB
100
AcDbEntity
  8
0
  6
CONTINUOUS
100
AcDbLine
 10
38.60499999996136
 20
4.048231735543458
 30
0.0
 11
40.93896172988471
 21
6.382193465466806
 31
0.0
  0
LINE
  5
C504
330
C4FB
100
AcDbEntity
  8
0
  6
CONTINUOUS
100
AcDbLine
 10
38.60499999996136
 20
3.374712526463272
 30
0.0
 11
40.02599999995994
 21
4.795712526461843
 31
0.0
  0
LINE
  5
C505
330
C4FB
100
AcDbEntity
  8
0
  6
CONTINUOUS
100
AcDbLine
 10
38.60499999996136
 20
2.701193317383085
 30
0.0
 11
40.02599999995994
 21
4.122193317381657
 31
0.0
  0
LINE
  5
C506
330
C4FB
100
AcDbEntity
  8
0
  6
CONTINUOUS
100
AcDbLine
 10
40.28339754687704
 20
5.053110073378947
 30
0.0
 11
41.25642404246489
 21
6.026136568966799
 31
0.0
  0
LINE
  5
C507
330
C4FB
100
AcDbEntity
  8
0
  6
CONTINUOUS
100
AcDbLine
 10
40.60085985945722
 20
4.697053176878939
 30
0.0
 11
41.57388635504507
 21
5.670079672466793
 31
0.0
  0
LINE
  5
C508
330
C4FB
100
AcDbEntity
  8
0
  6
CONTINUOUS
100
AcDbLine
 10
43.57899999995641
 20
8.348712526458318
 30
0.0
 11
43.99338747348935
 21
8.763099999991255
 31
0.0
  0
LINE
  5
C509
330
C4FB
100
AcDbEntity
  8
0
  6
CONTINUOUS
100
AcDbLine
 10
43.57899999995641
 20
7.675193317378131
 30
0.0
 11
44.66690668256953
 21
8.763099999991255
 31
0.0
  0
LINE
  5
C50A
330
C4FB
100
AcDbEntity
  8
0
  6
CONTINUOUS
100
AcDbLine
 10
38.60499999996136
 20
2.027674108302898
 30
0.0
 11
40.02599999995994
 21
3.44867410830147
 31
0.0
  0
LINE
  5
C50B
330
C4FB
100
AcDbEntity
  8
0
  6
CONTINUOUS
100
AcDbLine
 10
38.60499999996136
 20
1.354154899222712
 30
0.0
 11
40.02599999995994
 21
2.775154899221284
 31
0.0
  0
LINE
  5
C50C
330
C4FB
100
AcDbEntity
  8
0
  6
CONTINUOUS
100
AcDbLine
 10
38.60499999996136
 20
0.6806356901425255
 30
0.0
 11
40.02599999995994
 21
2.101635690141098
 31
0.0
  0
LINE
  5
C50D
330
C4FB
100
AcDbEntity
  8
0
  6
CONTINUOUS
100
AcDbLine
 10
38.60499999996136
 20
0.0071164810623383
 30
0.0
 11
40.02599999995994
 21
1.428116481060911
 31
0.0
  0
LINE
  5
C50E
330
C4FB
100
AcDbEntity
  8
0
  6
CONTINUOUS
100
AcDbLine
 10
40.9183221720374
 20
4.340996280378933
 30
0.0
 11
41.89134866762525
 21
5.314022775966786
 31
0.0
  0
LINE
  5
C50F
330
C4FB
100
AcDbEntity
  8
0
  6
CONTINUOUS
100
AcDbLine
 10
41.23578448461758
 20
3.984939383878926
 30
0.0
 11
42.20881098020543
 21
4.957965879466778
 31
0.0
  0
LINE
  5
C510
330
C4FB
100
AcDbEntity
  8
0
  6
CONTINUOUS
100
AcDbLine
 10
41.55324679719776
 20
3.628882487378919
 30
0.0
 11
42.52627329278561
 21
4.601908982966772
 31
0.0
  0
LINE
  5
C511
330
C4FB
100
AcDbEntity
  8
0
  6
CONTINUOUS
100
AcDbLine
 10
41.87070910977793
 20
3.272825590878912
 30
0.0
 11
42.84373560536579
 21
4.245852086466765
 31
0.0
  0
LINE
  5
C512
330
C4FB
100
AcDbEntity
  8
0
  6
CONTINUOUS
100
AcDbLine
 10
43.57899999995641
 20
7.001674108297943
 30
0.0
 11
44.99999999995498
 21
8.422674108296516
 31
0.0
  0
LINE
  5
C513
330
C4FB
100
AcDbEntity
  8
0
  6
CONTINUOUS
100
AcDbLine
 10
43.57899999995641
 20
6.328154899217758
 30
0.0
 11
44.99999999995498
 21
7.749154899216329
 31
0.0
  0
LINE
  5
C514
330
C4FB
100
AcDbEntity
  8
0
  6
CONTINUOUS
100
AcDbLine
 10
43.57899999995641
 20
5.654635690137571
 30
0.0
 11
44.99999999995498
 21
7.075635690136142
 31
0.0
  0
LINE
  5
C515
330
C4FB
100
AcDbEntity
  8
0
  6
CONTINUOUS
100
AcDbLine
 10
43.57899999995641
 20
4.981116481057384
 30
0.0
 11
44.99999999995498
 21
6.402116481055955
 31
0.0
  0
LINE
  5
C516
330
C4FB
100
AcDbEntity
  8
0
  6
CONTINUOUS
100
AcDbLine
 10
39.27140272797921
 20
-0.0000000000000009
 30
0.0
 11
40.02599999995994
 21
0.7545972719807246
 31
0.0
  0
LINE
  5
C517
330
C4FB
100
AcDbEntity
  8
0
  6
CONTINUOUS
100
AcDbLine
 10
39.9449219370594
 20
-0.0000000000000009
 30
0.0
 11
40.02599999995994
 21
0.0810780629005379
 31
0.0
  0
LINE
  5
C518
330
C4FB
100
AcDbEntity
  8
0
  6
CONTINUOUS
100
AcDbLine
 10
42.18817142235812
 20
2.916768694378905
 30
0.0
 11
43.16119791794597
 21
3.889795189966758
 31
0.0
  0
LINE
  5
C519
330
C4FB
100
AcDbEntity
  8
0
  6
CONTINUOUS
100
AcDbLine
 10
42.50563373493829
 20
2.560711797878898
 30
0.0
 11
43.47866023052615
 21
3.533738293466751
 31
0.0
  0
LINE
  5
C51A
330
C4FB
100
AcDbEntity
  8
0
  6
CONTINUOUS
100
AcDbLine
 10
43.57899999995641
 20
4.307597271977198
 30
0.0
 11
44.99999999995498
 21
5.728597271975769
 31
0.0
  0
LINE
  5
C51B
330
C4FB
100
AcDbEntity
  8
0
  6
CONTINUOUS
100
AcDbLine
 10
43.57899999995641
 20
3.634078062897011
 30
0.0
 11
44.99999999995498
 21
5.055078062895582
 31
0.0
  0
LINE
  5
C51C
330
C4FB
100
AcDbEntity
  8
0
  6
CONTINUOUS
100
AcDbLine
 10
42.82309604751848
 20
2.204654901378891
 30
0.0
 11
44.99999999995498
 21
4.381558853815395
 31
0.0
  0
LINE
  5
C51D
330
C4FB
100
AcDbEntity
  8
0
  6
CONTINUOUS
100
AcDbLine
 10
43.14055836009865
 20
1.848598004878885
 30
0.0
 11
44.99999999995498
 21
3.70803964473521
 31
0.0
  0
LINE
  5
C51E
330
C4FB
100
AcDbEntity
  8
0
  6
CONTINUOUS
100
AcDbLine
 10
43.45802067267883
 20
1.492541108378878
 30
0.0
 11
44.99999999995498
 21
3.034520435655023
 31
0.0
  0
LINE
  5
C51F
330
C4FB
100
AcDbEntity
  8
0
  6
CONTINUOUS
100
AcDbLine
 10
43.77548298525902
 20
1.136484211878871
 30
0.0
 11
44.99999999995498
 21
2.361001226574837
 31
0.0
  0
LINE
  5
C520
330
C4FB
100
AcDbEntity
  8
0
  6
CONTINUOUS
100
AcDbLine
 10
44.09294529783919
 20
0.7804273153788639
 30
0.0
 11
44.99999999995498
 21
1.687482017494649
 31
0.0
  0
LINE
  5
C521
330
C4FB
100
AcDbEntity
  8
0
  6
CONTINUOUS
100
AcDbLine
 10
44.41040761041938
 20
0.4243704188788566
 30
0.0
 11
44.99999999995498
 21
1.013962808414463
 31
0.0
  0
LINE
  5
C522
330
C4FB
100
AcDbEntity
  8
0
  6
CONTINUOUS
100
AcDbLine
 10
44.72786992299955
 20
0.0683135223788494
 30
0.0
 11
44.99999999995498
 21
0.340443599334276
 31
0.0
  0
LINE
  5
C523
330
C4FB
100
AcDbEntity
  8
0
  6
CONTINUOUS
100
AcDbLine
 10
39.12223903415696
 20
-0.0000000000000009
 30
0.0
 11
38.60499999996136
 21
0.5172390341955961
 31
0.0
  0
LINE
  5
C524
330
C4FB
100
AcDbEntity
  8
0
  6
CONTINUOUS
100
AcDbLine
 10
39.79575824323715
 20
-0.0000000000000009
 30
0.0
 11
38.60499999996136
 21
1.190758243275783
 31
0.0
  0
LINE
  5
C525
330
C4FB
100
AcDbEntity
  8
0
  6
CONTINUOUS
100
AcDbLine
 10
40.02599999995994
 20
0.443277452357397
 30
0.0
 11
38.60499999996136
 21
1.864277452355969
 31
0.0
  0
LINE
  5
C526
330
C4FB
100
AcDbEntity
  8
0
  6
CONTINUOUS
100
AcDbLine
 10
40.02599999995994
 20
1.116796661437583
 30
0.0
 11
38.60499999996136
 21
2.537796661436155
 31
0.0
  0
LINE
  5
C527
330
C4FB
100
AcDbEntity
  8
0
  6
CONTINUOUS
100
AcDbLine
 10
40.02599999995994
 20
1.79031587051777
 30
0.0
 11
38.60499999996136
 21
3.211315870516341
 31
0.0
  0
LINE
  5
C528
330
C4FB
100
AcDbEntity
  8
0
  6
CONTINUOUS
100
AcDbLine
 10
40.02599999995994
 20
2.463835079597956
 30
0.0
 11
38.60499999996136
 21
3.884835079596527
 31
0.0
  0
LINE
  5
C529
330
C4FB
100
AcDbEntity
  8
0
  6
CONTINUOUS
100
AcDbLine
 10
40.02599999995994
 20
3.137354288678143
 30
0.0
 11
38.60499999996136
 21
4.558354288676714
 31
0.0
  0
LINE
  5
C52A
330
C4FB
100
AcDbEntity
  8
0
  6
CONTINUOUS
100
AcDbLine
 10
40.02599999995994
 20
3.810873497758329
 30
0.0
 11
38.60499999996136
 21
5.2318734977569
 31
0.0
  0
LINE
  5
C52B
330
C4FB
100
AcDbEntity
  8
0
  6
CONTINUOUS
100
AcDbLine
 10
40.02599999995994
 20
4.484392706838515
 30
0.0
 11
38.60499999996136
 21
5.905392706837086
 31
0.0
  0
LINE
  5
C52C
330
C4FB
100
AcDbEntity
  8
0
  6
CONTINUOUS
100
AcDbLine
 10
44.99999999995498
 20
0.183911915923658
 30
0.0
 11
41.53858364506288
 21
3.64532827081576
 31
0.0
  0
LINE
  5
C52D
330
C4FB
100
AcDbEntity
  8
0
  6
CONTINUOUS
100
AcDbLine
 10
40.02599999995994
 20
5.157911915918703
 30
0.0
 11
38.60499999996136
 21
6.578911915917274
 31
0.0
  0
LINE
  5
C52E
330
C4FB
100
AcDbEntity
  8
0
  6
CONTINUOUS
100
AcDbLine
 10
44.99999999995498
 20
0.8574311250038447
 30
0.0
 11
38.60499999996136
 21
7.25243112499746
 31
0.0
  0
LINE
  5
C52F
330
C4FB
100
AcDbEntity
  8
0
  6
CONTINUOUS
100
AcDbLine
 10
44.99999999995498
 20
1.530950334084031
 30
0.0
 11
38.60499999996136
 21
7.925950334077647
 31
0.0
  0
LINE
  5
C530
330
C4FB
100
AcDbEntity
  8
0
  6
CONTINUOUS
100
AcDbLine
 10
44.99999999995498
 20
2.204469543164218
 30
0.0
 11
43.57899999995641
 21
3.625469543162789
 31
0.0
  0
LINE
  5
C531
330
C4FB
100
AcDbEntity
  8
0
  6
CONTINUOUS
100
AcDbLine
 10
41.89876730984767
 20
5.305702233271528
 30
0.0
 11
38.60499999996136
 21
8.599469543157834
 31
0.0
  0
LINE
  5
C532
330
C4FB
100
AcDbEntity
  8
0
  6
CONTINUOUS
100
AcDbLine
 10
44.99999999995498
 20
2.877988752244405
 30
0.0
 11
43.57899999995641
 21
4.298988752242975
 31
0.0
  0
LINE
  5
C533
330
C4FB
100
AcDbEntity
  8
0
  6
CONTINUOUS
100
AcDbLine
 10
44.99999999995498
 20
3.551507961324591
 30
0.0
 11
43.57899999995641
 21
4.972507961323163
 31
0.0
  0
LINE
  5
C534
330
C4FB
100
AcDbEntity
  8
0
  6
CONTINUOUS
100
AcDbLine
 10
44.99999999995498
 20
4.225027170404777
 30
0.0
 11
43.57899999995641
 21
5.646027170403348
 31
0.0
  0
LINE
  5
C535
330
C4FB
100
AcDbEntity
  8
0
  6
CONTINUOUS
100
AcDbLine
 10
44.99999999995498
 20
4.898546379484964
 30
0.0
 11
43.57899999995641
 21
6.319546379483535
 31
0.0
  0
LINE
  5
C536
330
C4FB
100
AcDbEntity
  8
0
  6
CONTINUOUS
100
AcDbLine
 10
44.99999999995498
 20
5.572065588565151
 30
0.0
 11
43.57899999995641
 21
6.993065588563722
 31
0.0
  0
LINE
  5
C537
330
C4FB
100
AcDbEntity
  8
0
  6
CONTINUOUS
100
AcDbLine
 10
44.99999999995498
 20
6.245584797645336
 30
0.0
 11
43.57899999995641
 21
7.666584797643908
 31
0.0
  0
LINE
  5
C538
330
C4FB
100
AcDbEntity
  8
0
  6
CONTINUOUS
100
AcDbLine
 10
44.99999999995498
 20
6.919104006725522
 30
0.0
 11
43.57899999995641
 21
8.340104006724093
 31
0.0
  0
LINE
  5
C539
330
C4FB
100
AcDbEntity
  8
0
  6
CONTINUOUS
100
AcDbLine
 10
44.99999999995498
 20
7.592623215805709
 30
0.0
 11
43.82952321576943
 21
8.763099999991255
 31
0.0
  0
LINE
  5
C53A
330
C4FB
100
AcDbEntity
  8
0
  6
CONTINUOUS
100
AcDbLine
 10
44.99999999995498
 20
8.266142424885896
 30
0.0
 11
44.50304242484962
 21
8.763099999991255
 31
0.0
  0
ENDBLK
  5
C564
330
C4FB
100
AcDbEntity
  8
0
100
AcDbBlockEnd
  0
BLOCK
  5
C565
330
C53B
100
AcDbEntity
  8
0
100
AcDbBlockBegin
  2
*X90
 70
     1
 10
0.0
 20
0.0
 30
0.0
  3
*X90
  1

  0
LINE
  5
C53C
330
C53B
100
AcDbEntity
  8
0
  6
CONTINUOUS
100
AcDbLine
 10
0.0
 20
8.548461116714023
 30
0.0
 11
0.2146388832772324
 21
8.763099999991255
 31
0.0
  0
LINE
  5
C53D
330
C53B
100
AcDbEntity
  8
0
  6
CONTINUOUS
100
AcDbLine
 10
-0.0000000000000002
 20
7.874941907633837
 30
0.0
 11
0.8881580923574184
 21
8.763099999991255
 31
0.0
  0
LINE
  5
C53E
330
C53B
100
AcDbEntity
  8
0
  6
CONTINUOUS
100
AcDbLine
 10
0.0
 20
7.20142269855365
 30
0.0
 11
1.420999999998572
 21
8.622422698552223
 31
0.0
  0
LINE
  5
C53F
330
C53B
100
AcDbEntity
  8
0
  6
CONTINUOUS
100
AcDbLine
 10
-0.0000000000000001
 20
6.527903489473465
 30
0.0
 11
1.420999999998571
 21
7.948903489472036
 31
0.0
  0
LINE
  5
C540
330
C53B
100
AcDbEntity
  8
0
  6
CONTINUOUS
100
AcDbLine
 10
-0.0000000000000002
 20
5.854384280393278
 30
0.0
 11
1.420999999998571
 21
7.275384280391849
 31
0.0
  0
LINE
  5
C541
330
C53B
100
AcDbEntity
  8
0
  6
CONTINUOUS
100
AcDbLine
 10
-0.0000000000000002
 20
5.180865071313091
 30
0.0
 11
1.420999999998571
 21
6.601865071311663
 31
0.0
  0
LINE
  5
C542
330
C53B
100
AcDbEntity
  8
0
  6
CONTINUOUS
100
AcDbLine
 10
0.0
 20
4.507345862232905
 30
0.0
 11
1.420999999998571
 21
5.928345862231477
 31
0.0
  0
LINE
  5
C543
330
C53B
100
AcDbEntity
  8
0
  6
CONTINUOUS
100
AcDbLine
 10
-0.0000000000000003
 20
3.833826653152718
 30
0.0
 11
1.420999999998571
 21
5.25482665315129
 31
0.0
  0
LINE
  5
C544
330
C53B
100
AcDbEntity
  8
0
  6
CONTINUOUS
100
AcDbLine
 10
-0.0000000000000002
 20
3.160307444072532
 30
0.0
 11
1.420999999998571
 21
4.581307444071103
 31
0.0
  0
LINE
  5
C545
330
C53B
100
AcDbEntity
  8
0
  6
CONTINUOUS
100
AcDbLine
 10
-0.0000000000000001
 20
2.486788234992345
 30
0.0
 11
1.420999999998571
 21
3.907788234990917
 31
0.0
  0
LINE
  5
C546
330
C53B
100
AcDbEntity
  8
0
  6
CONTINUOUS
100
AcDbLine
 10
-0.0000000000000006
 20
1.813269025912159
 30
0.0
 11
1.420999999998571
 21
3.234269025910731
 31
0.0
  0
LINE
  5
C547
330
C53B
100
AcDbEntity
  8
0
  6
CONTINUOUS
100
AcDbLine
 10
0.0
 20
1.139749816831973
 30
0.0
 11
1.420999999998571
 21
2.560749816830544
 31
0.0
  0
LINE
  5
C548
330
C53B
100
AcDbEntity
  8
0
  6
CONTINUOUS
100
AcDbLine
 10
0.0000000000000002
 20
0.466230607751787
 30
0.0
 11
1.420999999998571
 21
1.887230607750358
 31
0.0
  0
LINE
  5
C549
330
C53B
100
AcDbEntity
  8
0
  6
CONTINUOUS
100
AcDbLine
 10
0.2072886013284003
 20
-0.0000000000000009
 30
0.0
 11
1.420999999998571
 21
1.213711398670171
 31
0.0
  0
LINE
  5
C54A
330
C53B
100
AcDbEntity
  8
0
  6
CONTINUOUS
100
AcDbLine
 10
0.8808078104085864
 20
-0.0000000000000009
 30
0.0
 11
1.420999999998571
 21
0.5401921895899839
 31
0.0
  0
LINE
  5
C54B
330
C53B
100
AcDbEntity
  8
0
  6
CONTINUOUS
100
AcDbLine
 10
0.0581249075061505
 20
-0.0000000000000009
 30
0.0
 11
-0.0000000000000002
 21
0.0581249075061496
 31
0.0
  0
LINE
  5
C54C
330
C53B
100
AcDbEntity
  8
0
  6
CONTINUOUS
100
AcDbLine
 10
0.7316441165863372
 20
-0.0000000000000009
 30
0.0
 11
-0.0000000000000002
 21
0.7316441165863363
 31
0.0
  0
LINE
  5
C54D
330
C53B
100
AcDbEntity
  8
0
  6
CONTINUOUS
100
AcDbLine
 10
1.405163325666523
 20
-0.0000000000000009
 30
0.0
 11
-0.0000000000000002
 21
1.405163325666523
 31
0.0
  0
LINE
  5
C54E
330
C53B
100
AcDbEntity
  8
0
  6
CONTINUOUS
100
AcDbLine
 10
1.420999999998572
 20
0.6576825347481381
 30
0.0
 11
-0.0000000000000001
 21
2.07868253474671
 31
0.0
  0
LINE
  5
C54F
330
C53B
100
AcDbEntity
  8
0
  6
CONTINUOUS
100
AcDbLine
 10
1.420999999998571
 20
1.331201743828324
 30
0.0
 11
-0.0000000000000001
 21
2.752201743826896
 31
0.0
  0
LINE
  5
C550
330
C53B
100
AcDbEntity
  8
0
  6
CONTINUOUS
100
AcDbLine
 10
1.420999999998571
 20
2.004720952908511
 30
0.0
 11
-0.0000000000000002
 21
3.425720952907082
 31
0.0
  0
LINE
  5
C551
330
C53B
100
AcDbEntity
  8
0
  6
CONTINUOUS
100
AcDbLine
 10
1.420999999998571
 20
2.678240161988697
 30
0.0
 11
-0.0000000000000001
 21
4.099240161987269
 31
0.0
  0
LINE
  5
C552
330
C53B
100
AcDbEntity
  8
0
  6
CONTINUOUS
100
AcDbLine
 10
1.420999999998572
 20
3.351759371068884
 30
0.0
 11
0.0
 21
4.772759371067455
 31
0.0
  0
LINE
  5
C553
330
C53B
100
AcDbEntity
  8
0
  6
CONTINUOUS
100
AcDbLine
 10
1.420999999998571
 20
4.02527858014907
 30
0.0
 11
-0.0000000000000003
 21
5.446278580147642
 31
0.0
  0
LINE
  5
C554
330
C53B
100
AcDbEntity
  8
0
  6
CONTINUOUS
100
AcDbLine
 10
1.420999999998571
 20
4.698797789229257
 30
0.0
 11
0.0
 21
6.119797789227828
 31
0.0
  0
LINE
  5
C555
330
C53B
100
AcDbEntity
  8
0
  6
CONTINUOUS
100
AcDbLine
 10
1.420999999998571
 20
5.372316998309444
 30
0.0
 11
-0.0000000000000001
 21
6.793316998308015
 31
0.0
  0
LINE
  5
C556
330
C53B
100
AcDbEntity
  8
0
  6
CONTINUOUS
100
AcDbLine
 10
1.420999999998572
 20
6.045836207389629
 30
0.0
 11
-0.0000000000000004
 21
7.466836207388202
 31
0.0
  0
LINE
  5
C557
330
C53B
100
AcDbEntity
  8
0
  6
CONTINUOUS
100
AcDbLine
 10
1.420999999998571
 20
6.719355416469816
 30
0.0
 11
0.0
 21
8.140355416468388
 31
0.0
  0
LINE
  5
C558
330
C53B
100
AcDbEntity
  8
0
  6
CONTINUOUS
100
AcDbLine
 10
1.420999999998571
 20
7.392874625550003
 30
0.0
 11
0.0507746255573185
 21
8.763099999991255
 31
0.0
  0
LINE
  5
C559
330
C53B
100
AcDbEntity
  8
0
  6
CONTINUOUS
100
AcDbLine
 10
1.420999999998571
 20
8.06639383463019
 30
0.0
 11
0.7242938346375052
 21
8.763099999991255
 31
0.0
  0
LINE
  5
C55A
330
C53B
100
AcDbEntity
  8
0
  6
CONTINUOUS
100
AcDbLine
 10
1.420999999998571
 20
8.739913043710375
 30
0.0
 11
1.397813043717691
 21
8.763099999991255
 31
0.0
  0
ENDBLK
  5
C566
330
C53B
100
AcDbEntity
  8
0
100
AcDbBlockEnd
  0
ENDSEC
  0
SECTION
  2
ENTITIES
  0
LINE
  5
C0FF
330
18
100
AcDbEntity
  8
01
100
AcDbLine
 10
4953.749483614019
 20
-290.9673238821802
 30
0.0000000000563712
 11
4976.37776899645
 21
-290.9673238821802
 31
0.0000000000563712
  0
LINE
  5
C100
330
18
100
AcDbEntity
  8
01
  6
BYBLOCK
100
AcDbLine
 10
5054.878536838767
 20
-130.9686421952829
 30
0.0000000001127424
 11
5208.632916993798
 21
-130.9686421952829
 31
0.0000000001127424
  0
LINE
  5
C101
330
18
100
AcDbEntity
  8
01
100
AcDbLine
 10
5105.87776899645
 20
-125.9686421952829
 30
0.0000000001127424
 11
5105.87776899645
 21
-152.4686421952829
 31
0.0000000001127424
  0
LINE
  5
C102
330
18
100
AcDbEntity
  8
01
100
AcDbLine
 10
4955.87776899645
 20
-170.9673238821802
 30
0.0000000000563712
 11
4955.87776899645
 21
-360.9673238821802
 31
0.0000000000563712
  0
LINE
  5
C103
330
18
100
AcDbEntity
  8
1CENTER
100
AcDbLine
 10
4970.37776899645
 20
-305.9673238821802
 30
0.0000000000563712
 11
4970.37776899645
 21
-297.9673238821802
 31
0.0000000000563712
  0
LINE
  5
C104
330
18
100
AcDbEntity
  8
01
100
AcDbLine
 10
5075.87776899645
 20
-290.9673238821802
 30
0.0000000000563712
 11
5135.87776899645
 21
-290.9673238821802
 31
0.0000000000563712
  0
LINE
  5
C105
330
18
100
AcDbEntity
  8
01
100
AcDbLine
 10
5105.87776899645
 20
-260.9673238821802
 30
0.0000000000563712
 11
5105.87776899645
 21
-320.9673238821802
 31
0.0000000000563712
  0
LINE
  5
C107
330
18
100
AcDbEntity
  8
01
100
AcDbLine
 10
5131.87776899645
 20
-264.467323882182
 30
0.0000000000563712
 11
5079.877768996454
 21
-264.467323882182
 31
0.0000000000563712
  0
LINE
  5
C108
330
18
100
AcDbEntity
  8
01
100
AcDbLine
 10
5079.877768996454
 20
-317.467323882182
 30
0.0000000000563712
 11
5131.87776899645
 21
-317.467323882182
 31
0.0000000000563712
  0
LINE
  5
C109
330
18
100
AcDbEntity
  8
01
100
AcDbLine
 10
5079.377768996454
 20
-264.967323882182
 30
0.0000000000563712
 11
5079.377768996454
 21
-316.967323882182
 31
0.0000000000563712
  0
ARC
  5
C10A
330
18
100
AcDbEntity
  8
01
100
AcDbCircle
 10
5079.877768996454
 20
-316.967323882182
 30
0.0000000000563712
 40
0.5
100
AcDbArc
 50
180.0
 51
270.0
  0
ARC
  5
C10B
330
18
100
AcDbEntity
  8
01
100
AcDbCircle
 10
5079.877768996454
 20
-264.967323882182
 30
0.0000000000563712
 40
0.5
100
AcDbArc
 50
90.0
 51
180.0
  0
LINE
  5
C10C
330
18
100
AcDbEntity
  8
01
100
AcDbLine
 10
5132.37776899645
 20
-264.967323882182
 30
0.0000000000563712
 11
5132.37776899645
 21
-278.9673238829407
 31
0.0000000000563712
  0
ARC
  5
C10D
330
18
100
AcDbEntity
  8
01
100
AcDbCircle
 10
5131.87776899645
 20
-316.967323882182
 30
0.0000000000563712
 40
0.5
100
AcDbArc
 50
270.0
 51
0.0
  0
ARC
  5
C10E
330
18
100
AcDbEntity
  8
01
100
AcDbCircle
 10
5131.87776899645
 20
-264.967323882182
 30
0.0000000000563712
 40
0.5
100
AcDbArc
 50
0.0
 51
90.0
  0
LINE
  5
C10F
330
18
100
AcDbEntity
  8
01
100
AcDbLine
 10
5079.377768996454
 20
-130.9686421952829
 30
0.0000000001127424
 11
5132.37776899645
 21
-130.9686421952829
 31
0.0000000001127424
  0
LINE
  5
C110
330
18
100
AcDbEntity
  8
01
100
AcDbLine
 10
5079.877768996454
 20
-139.4686421952829
 30
0.0000000001127424
 11
5131.87776899645
 21
-139.4686421952829
 31
0.0000000001127424
  0
LINE
  5
C111
330
18
100
AcDbEntity
  8
01
100
AcDbLine
 10
5132.37776899645
 20
-130.9686421952829
 30
0.0000000001127424
 11
5132.37776899645
 21
-138.9686421952829
 31
0.0000000001127424
  0
LINE
  5
C112
330
18
100
AcDbEntity
  8
01
100
AcDbLine
 10
5079.377768996454
 20
-130.9686421952829
 30
0.0000000001127424
 11
5079.377768996454
 21
-138.9686421952829
 31
0.0000000001127424
  0
ARC
  5
C113
330
18
100
AcDbEntity
  8
01
100
AcDbCircle
 10
5079.877768996454
 20
-138.9686421952829
 30
0.0000000001127424
 40
0.5
100
AcDbArc
 50
180.0
 51
270.0
  0
ARC
  5
C114
330
18
100
AcDbEntity
  8
01
100
AcDbCircle
 10
5131.87776899645
 20
-138.9686421952829
 30
0.0000000001127424
 40
0.5
100
AcDbArc
 50
270.0
 51
0.0
  0
LINE
  5
C115
330
18
100
AcDbEntity
  8
01
100
AcDbLine
 10
4955.87776899645
 20
-317.4673238821792
 30
0.0000000000563712
 11
4955.87776899645
 21
-264.467323882182
 31
0.0000000000563712
  0
LINE
  5
C116
330
18
100
AcDbEntity
  8
01
100
AcDbLine
 10
4964.37776899645
 20
-316.9673238821792
 30
0.0000000000563712
 11
4964.37776899645
 21
-264.967323882182
 31
0.0000000000563712
  0
LINE
  5
C117
330
18
100
AcDbEntity
  8
01
100
AcDbLine
 10
4955.87776899645
 20
-264.467323882182
 30
0.0000000000563712
 11
4963.87776899645
 21
-264.467323882182
 31
0.0000000000563712
  0
LINE
  5
C118
330
18
100
AcDbEntity
  8
01
100
AcDbLine
 10
4955.87776899645
 20
-317.4673238821792
 30
0.0000000000563712
 11
4963.87776899645
 21
-317.4673238821792
 31
0.0000000000563712
  0
ARC
  5
C119
330
18
100
AcDbEntity
  8
01
100
AcDbCircle
 10
4963.87776899645
 20
-316.9673238821792
 30
0.0000000000563712
 40
0.5
100
AcDbArc
 50
270.0
 51
0.0
  0
ARC
  5
C11A
330
18
100
AcDbEntity
  8
01
100
AcDbCircle
 10
4963.87776899645
 20
-264.967323882182
 30
0.0000000000563712
 40
0.5
100
AcDbArc
 50
0.0
 51
90.0
  0
TEXT
  5
C11B
330
18
100
AcDbEntity
  8
1TEXT
100
AcDbText
 10
4955.87776899645
 20
-130.9686421952833
 30
0.0
 40
10.0
  1
Y6T
 41
1.0171875
100
AcDbText
  0
LINE
  5
C11D
330
18
100
AcDbEntity
  8
01
100
AcDbLine
 10
4964.87776899645
 20
-280.4673238821802
 30
0.0000000000563712
 11
4964.87776899645
 21
-301.4673238821802
 31
0.0000000000563712
  0
LINE
  5
C11E
330
18
100
AcDbEntity
  8
01
100
AcDbLine
 10
4964.87776899645
 20
-280.4673238821802
 30
0.0000000000563712
 11
4993.441277324164
 21
-280.4673238821802
 31
0.0000000000563712
  0
LINE
  5
C11F
330
18
100
AcDbEntity
  8
01
100
AcDbLine
 10
4964.87776899645
 20
-301.4673238821802
 30
0.0000000000563712
 11
4993.441277324163
 21
-301.4673238821802
 31
0.0000000000563712
  0
LINE
  5
C120
330
18
100
AcDbEntity
  8
01
100
AcDbLine
 10
4995.377768997267
 20
-302.9673238821797
 30
0.0000000000563712
 11
5004.477768997267
 21
-302.9673238821792
 31
0.0000000000563712
  0
LINE
  5
C121
330
18
100
AcDbEntity
  8
01
100
AcDbLine
 10
4995.377768997268
 20
-278.9673238821797
 30
0.0000000000563712
 11
5004.477768997267
 21
-278.9673238821797
 31
0.0000000000563712
  0
ARC
  5
C122
330
18
100
AcDbEntity
  8
01
100
AcDbCircle
 10
4995.377768997268
 20
-279.9673238821797
 30
0.0000000000563712
 40
1.0
100
AcDbArc
 50
90.0
 51
165.5224878140514
  0
ARC
  5
C123
330
18
100
AcDbEntity
  8
01
100
AcDbCircle
 10
4993.441277324164
 20
-279.4673238821797
 30
0.0000000000563712
 40
1.0
100
AcDbArc
 50
270.0
 51
345.5224878140514
  0
ARC
  5
C124
330
18
100
AcDbEntity
  8
01
100
AcDbCircle
 10
5004.477768997267
 20
-279.4673238821797
 30
0.0000000000563712
 40
0.5
100
AcDbArc
 50
0.0
 51
90.0
  0
LINE
  5
C125
330
18
100
AcDbEntity
  8
01
100
AcDbLine
 10
5004.977768997267
 20
-302.4673238821792
 30
0.0000000000563712
 11
5004.977768997267
 21
-279.4673238821797
 31
0.0000000000563712
  0
ARC
  5
C126
330
18
100
AcDbEntity
  8
01
100
AcDbCircle
 10
5004.477768997267
 20
-302.4673238821792
 30
0.0000000000563712
 40
0.5
100
AcDbArc
 50
270.0
 51
0.0
  0
LINE
  5
C127
330
18
100
AcDbEntity
  8
01
100
AcDbLine
 10
4994.377768997268
 20
-279.9673238821802
 30
0.0000000000563712
 11
4994.377768997267
 21
-279.9673238821797
 31
0.0000000000563712
  0
LINE
  5
C128
330
18
100
AcDbEntity
  8
01
100
AcDbLine
 10
4994.377768997267
 20
-301.9673238821797
 30
0.0000000000563712
 11
4994.377768997268
 21
-279.9673238821797
 31
0.0000000000563712
  0
ARC
  5
C129
330
18
100
AcDbEntity
  8
01
100
AcDbCircle
 10
4995.377768997267
 20
-301.9673238821797
 30
0.0000000000563712
 40
1.0
100
AcDbArc
 50
194.4775121859486
 51
270.0
  0
ARC
  5
C12A
330
18
100
AcDbEntity
  8
01
100
AcDbCircle
 10
4993.441277324163
 20
-302.4673238821802
 30
0.0000000000563712
 40
1.0
100
AcDbArc
 50
14.47751218594858
 51
90.0
  0
LINE
  5
C12F
330
18
100
AcDbEntity
  8
01
100
AcDbLine
 10
5079.87776899645
 20
-180.0686421961009
 30
0.0000000000563712
 11
5220.37776899645
 21
-180.0686421961009
 31
0.0000000000563712
  0
LINE
  5
C130
330
18
100
AcDbEntity
  8
01
100
AcDbLine
 10
5079.37776899645
 20
-170.468642196101
 30
0.0000000000563712
 11
5079.37776899645
 21
-179.5686421961009
 31
0.0000000000563712
  0
LINE
  5
C131
330
18
100
AcDbEntity
  8
01
100
AcDbLine
 10
5220.87776899645
 20
-170.4686421960996
 30
0.0000000000563712
 11
5220.87776899645
 21
-179.5686421960995
 31
0.0000000000563712
  0
ARC
  5
C132
330
18
100
AcDbEntity
  8
01
100
AcDbCircle
 10
5220.37776899645
 20
-179.5686421960995
 30
0.0000000000563712
 40
0.5
100
AcDbArc
 50
270.0
 51
0.0
  0
ARC
  5
C133
330
18
100
AcDbEntity
  8
01
100
AcDbCircle
 10
5219.87776899645
 20
-170.4686421960996
 30
0.0000000000563712
 40
1.0
100
AcDbArc
 50
0.0
 51
90.0
  0
ARC
  5
C134
330
18
100
AcDbEntity
  8
01
100
AcDbCircle
 10
5079.87776899645
 20
-179.5686421961009
 30
0.0000000000563712
 40
0.5
100
AcDbArc
 50
180.0
 51
270.0
  0
ARC
  5
C135
330
18
100
AcDbEntity
  8
01
100
AcDbCircle
 10
5080.37776899645
 20
-170.468642196101
 30
0.0000000000563712
 40
1.0
100
AcDbArc
 50
90.0
 51
180.0
  0
LINE
  5
C136
330
18
100
AcDbEntity
  8
01
100
AcDbLine
 10
5095.37776899645
 20
-139.9686421961005
 30
0.0000000000563712
 11
5095.37776899645
 21
-168.468642196101
 31
0.0000000000563712
  0
ARC
  5
C137
330
18
100
AcDbEntity
  8
01
100
AcDbCircle
 10
5117.37776899645
 20
-168.468642196101
 30
0.0000000000563712
 40
1.0
100
AcDbArc
 50
180.0
 51
270.0
  0
ARC
  5
C138
330
18
100
AcDbEntity
  8
01
100
AcDbCircle
 10
5094.37776899645
 20
-168.468642196101
 30
0.0000000000563712
 40
1.0
100
AcDbArc
 50
270.0
 51
0.0
  0
LINE
  5
C139
330
18
100
AcDbEntity
  8
01
100
AcDbLine
 10
5095.37776899645
 20
-139.9686421952829
 30
0.0000000000563712
 11
5116.37776899645
 21
-139.9686421952829
 31
0.0000000000563712
  0
LINE
  5
C13A
330
18
100
AcDbEntity
  8
01
100
AcDbLine
 10
5116.37776899645
 20
-139.9686421952829
 30
0.0000000000563712
 11
5116.37776899645
 21
-168.468642196101
 31
0.0000000000563712
  0
LINE
  5
C13B
330
18
100
AcDbEntity
  8
01
100
AcDbLine
 10
5080.37776899645
 20
-169.468642196101
 30
0.0000000000563712
 11
5219.87776899645
 21
-169.4686421960996
 31
0.0000000000563712
  0
LINE
  5
C13C
330
18
100
AcDbEntity
  8
01
100
AcDbLine
 10
5132.37776899645
 20
-302.9673238829407
 30
0.0000000000563712
 11
5132.37776899645
 21
-316.967323882182
 31
0.0000000000563712
  0
SPLINE
  5
C13D
330
18
100
AcDbEntity
  8
1PHANTOM
100
AcDbSpline
210
0.0
220
0.0
230
1.0
 70
    24
 71
     2
 72
     6
 73
     3
 74
     0
 42
0.000000001
 43
0.0000000001
 40
0.0
 40
0.0
 40
0.0
 40
22.50000150669861
 40
22.50000150669861
 40
22.50000150669861
 10
5147.706507958609
 20
-279.9673239684882
 30
0.0000000000563712
 10
5147.706507958609
 20
-290.71732312883
 30
0.0000000000563712
 10
5147.706507958609
 20
-301.967323882179
 30
0.0000000000563712
  0
SPLINE
  5
C13E
330
18
100
AcDbEntity
  8
1PHANTOM
100
AcDbSpline
210
0.0
220
0.0
230
1.0
 70
    24
 71
     2
 72
     6
 73
     3
 74
     0
 42
0.000000001
 43
0.0000000001
 40
0.4999984069939357
 40
0.4999984069939357
 40
0.4999984069939357
 40
23.00000000000384
 40
23.00000000000384
 40
23.00000000000384
 10
5169.042428133183
 20
-301.967323882179
 30
0.0000000000563712
 10
5169.042428133184
 20
-290.7173230856745
 30
0.0000000000563712
 10
5169.042428133185
 20
-279.967324438195
 30
0.0000000000563712
  0
SPLINE
  5
C13F
330
18
100
AcDbEntity
  8
1PHANTOM
100
AcDbSpline
210
0.0
220
0.0
230
1.0
 70
    24
 71
     2
 72
     6
 73
     3
 74
     0
 42
0.000000001
 43
0.0000000001
 40
0.0
 40
0.0
 40
0.0
 40
22.5000015930061
 40
22.5000015930061
 40
22.5000015930061
 10
5162.667277776013
 20
-279.9673406562918
 30
0.0000000000563712
 10
5162.667277776017
 20
-290.7173230856763
 30
0.0000000000563712
 10
5162.66727777602
 20
-301.967323882179
 30
0.0000000000563712
  0
SPLINE
  5
C140
330
18
100
AcDbEntity
  8
1PHANTOM
100
AcDbSpline
210
0.0
220
0.0
230
1.0
 70
    24
 71
     2
 72
     6
 73
     3
 74
     0
 42
0.000000001
 43
0.0000000001
 40
0.0
 40
0.0
 40
0.0
 40
22.50000159300603
 40
22.50000159300603
 40
22.50000159300603
 10
5169.702251846268
 20
-279.9673238821799
 30
0.0000000000563712
 10
5169.702251846268
 20
-290.7173230856763
 30
0.0000000000563712
 10
5169.702251846269
 20
-301.967323882179
 30
0.0000000000563712
  0
SPLINE
  5
C141
330
18
100
AcDbEntity
  8
1PHANTOM
100
AcDbSpline
210
0.0
220
0.0
230
1.0
 70
    24
 71
     2
 72
     6
 73
     3
 74
     0
 42
0.000000001
 43
0.0000000001
 40
0.499998406993875
 40
0.499998406993875
 40
0.499998406993875
 40
23.0000000000031
 40
23.0000000000031
 40
23.0000000000031
 10
5183.968959207204
 20
-301.967323882179
 30
0.0000000000563712
 10
5183.968959207205
 20
-290.7173230856745
 30
0.0000000000563712
 10
5183.968959207205
 20
-279.967324374031
 30
0.0000000000563712
  0
SPLINE
  5
C142
330
18
100
AcDbEntity
  8
1PHANTOM
100
AcDbSpline
210
0.0
220
0.0
230
1.0
 70
    24
 71
     2
 72
     6
 73
     3
 74
     0
 42
0.000000001
 43
0.0000000001
 40
0.0
 40
0.0
 40
0.0
 40
22.49999000600776
 40
22.49999000600776
 40
22.49999000600776
 10
5176.63212723282
 20
-279.9673354691779
 30
0.0000000000563712
 10
5176.63212723282
 20
-290.7173288791753
 30
0.0000000000563712
 10
5176.63212723282
 20
-301.967323882179
 30
0.0000000000563712
  0
SPLINE
  5
C143
330
18
100
AcDbEntity
  8
1PHANTOM
100
AcDbSpline
210
0.0
220
0.0
230
1.0
 70
    24
 71
     2
 72
     6
 73
     3
 74
     0
 42
0.000000001
 43
0.0000000001
 40
0.4999984069939379
 40
0.4999984069939379
 40
0.4999984069939379
 40
23.00000000005153
 40
23.00000000005153
 40
23.00000000005153
 10
5191.005605433688
 20
-301.967323882179
 30
0.0000000000563712
 10
5191.005605433708
 20
-290.7173230856504
 30
0.0000000000563712
 10
5191.005605433728
 20
-279.9673244252747
 30
0.0000000000563712
  0
SPLINE
  5
C144
330
18
100
AcDbEntity
  8
1PHANTOM
100
AcDbSpline
210
0.0
220
0.0
230
1.0
 70
    24
 71
     2
 72
     6
 73
     3
 74
     0
 42
0.000000001
 43
0.0000000001
 40
0.5002349233783442
 40
0.5002349233783442
 40
0.5002349233783442
 40
23.00000000000324
 40
23.00000000000324
 40
23.00000000000324
 10
5214.766580535937
 20
-301.9673238836033
 30
0.0000000000563712
 10
5214.766580535935
 20
-290.7280795370764
 30
0.0000000000563712
 10
5214.766580535934
 20
-279.9673240061632
 30
0.0000000000563712
  0
SPLINE
  5
C145
330
18
100
AcDbEntity
  8
1PHANTOM
100
AcDbSpline
210
0.0
220
0.0
230
1.0
 70
    24
 71
     2
 72
     6
 73
     3
 74
     0
 42
0.000000001
 43
0.0000000001
 40
0.0
 40
0.0
 40
0.0
 40
22.50000159300617
 40
22.50000159300617
 40
22.50000159300617
 10
5206.413573438189
 20
-279.967328377146
 30
0.0000000000563712
 10
5206.413573438189
 20
-290.7173230856763
 30
0.0000000000563712
 10
5206.413573438189
 20
-301.967323882179
 30
0.0000000000563712
  0
SPLINE
  5
C146
330
18
100
AcDbEntity
  8
1PHANTOM
100
AcDbSpline
210
0.0
220
0.0
230
1.0
 70
    24
 71
     2
 72
     6
 73
     3
 74
     0
 42
0.000000001
 43
0.0000000001
 40
0.4999984069939922
 40
0.4999984069939922
 40
0.4999984069939922
 40
23.0000000000054
 40
23.0000000000054
 40
23.0000000000054
 10
5092.56245846496
 20
-301.967323882179
 30
0.0000000000563712
 10
5092.562458464961
 20
-290.7173230856736
 30
0.0000000000563712
 10
5092.562458464964
 20
-279.9673238821799
 30
0.0000000000563712
  0
SPLINE
  5
C147
330
18
100
AcDbEntity
  8
1PHANTOM
100
AcDbSpline
210
0.0
220
0.0
230
1.0
 70
    24
 71
     2
 72
     6
 73
     3
 74
     0
 42
0.000000001
 43
0.0000000001
 40
0.0
 40
0.0
 40
0.0
 40
22.50000159300608
 40
22.50000159300608
 40
22.50000159300608
 10
5087.428235698458
 20
-279.9673238821799
 30
0.0000000000563712
 10
5087.428235698457
 20
-290.7173230856763
 30
0.0000000000563712
 10
5087.428235698456
 20
-301.967323882179
 30
0.0000000000563712
  0
SPLINE
  5
C148
330
18
100
AcDbEntity
  8
1PHANTOM
100
AcDbSpline
210
0.0
220
0.0
230
1.0
 70
    24
 71
     2
 72
     6
 73
     3
 74
     0
 42
0.000000001
 43
0.0000000001
 40
0.4999984131304764
 40
0.4999984131304764
 40
0.4999984131304764
 40
23.00000001227815
 40
23.00000001227815
 40
23.00000001227815
 10
5105.859657194374
 20
-301.967323882179
 30
0.0000000000563712
 10
5105.859657194374
 20
-290.7173230826054
 30
0.0000000000563712
 10
5105.859657194374
 20
-279.9673238821799
 30
0.0000000000563712
  0
SPLINE
  5
C149
330
18
100
AcDbEntity
  8
1PHANTOM
100
AcDbSpline
210
0.0
220
0.0
230
1.0
 70
     8
 71
     2
 72
     6
 73
     3
 74
     0
 42
0.000000001
 43
0.0000000001
 40
0.4999984112949422
 40
0.4999984112949422
 40
0.4999984112949422
 40
23.0000000086021
 40
23.0000000086021
 40
23.0000000086021
 10
5120.76731158514
 20
-301.967323882179
 30
0.0000000000563712
 10
5120.767312904562
 20
-290.7173230835253
 30
0.0000000000563712
 10
5120.767314223984
 20
-279.9673238821799
 30
0.0000000000563712
  0
SPLINE
  5
C14A
330
18
100
AcDbEntity
  8
1PHANTOM
100
AcDbSpline
210
0.0
220
0.0
230
1.0
 70
    24
 71
     2
 72
     6
 73
     3
 74
     0
 42
0.000000001
 43
0.0000000001
 40
0.0
 40
0.0
 40
0.0
 40
22.5000014922702
 40
22.5000014922702
 40
22.5000014922702
 10
5106.255955863674
 20
-279.9673239829156
 30
0.0000000000563712
 10
5106.255955863674
 20
-290.7173231360441
 30
0.0000000000563712
 10
5106.255955863674
 20
-301.967323882179
 30
0.0000000000563712
  0
SPLINE
  5
C14B
330
18
100
AcDbEntity
  8
1PHANTOM
100
AcDbSpline
210
0.0
220
0.0
230
1.0
 70
    24
 71
     2
 72
     6
 73
     3
 74
     0
 42
0.000000001
 43
0.0000000001
 40
0.4999984069939382
 40
0.4999984069939382
 40
0.4999984069939382
 40
23.00000000000847
 40
23.00000000000847
 40
23.00000000000847
 10
5129.636605045041
 20
-301.967323882179
 30
0.0000000000563712
 10
5129.636605045044
 20
-290.7173230856718
 30
0.0000000000563712
 10
5129.636605045049
 20
-279.9673238821799
 30
0.0000000000563712
  0
SPLINE
  5
C14C
330
18
100
AcDbEntity
  8
1PHANTOM
100
AcDbSpline
210
0.0
220
0.0
230
1.0
 70
    24
 71
     2
 72
     6
 73
     3
 74
     0
 42
0.000000001
 43
0.0000000001
 40
0.0
 40
0.0
 40
0.0
 40
22.50000159300606
 40
22.50000159300606
 40
22.50000159300606
 10
5121.240224268646
 20
-279.9673283769837
 30
0.0000000000563712
 10
5121.240224268646
 20
-290.7173230856763
 30
0.0000000000563712
 10
5121.240224268646
 20
-301.967323882179
 30
0.0000000000563712
  0
SPLINE
  5
C14D
330
18
100
AcDbEntity
  8
1PHANTOM
100
AcDbSpline
210
0.0
220
0.0
230
1.0
 70
    24
 71
     2
 72
     6
 73
     3
 74
     0
 42
0.000000001
 43
0.0000000001
 40
0.4999984069939954
 40
0.4999984069939954
 40
0.4999984069939954
 40
23.00000000000742
 40
23.00000000000742
 40
23.00000000000742
 10
5136.634105003893
 20
-301.967323882179
 30
0.0000000000563712
 10
5136.634105003893
 20
-290.7173230856727
 30
0.0000000000563712
 10
5136.634105003892
 20
-279.9673248849829
 30
0.0000000000563712
  0
SPLINE
  5
C14E
330
18
100
AcDbEntity
  8
1PHANTOM
100
AcDbSpline
210
0.0
220
0.0
230
1.0
 70
    24
 71
     2
 72
     6
 73
     3
 74
     0
 42
0.000000001
 43
0.0000000001
 40
0.0
 40
0.0
 40
0.0
 40
22.50000159300607
 40
22.50000159300607
 40
22.50000159300607
 10
5130.250582170081
 20
-279.967328230756
 30
0.0000000000563712
 10
5130.250582170077
 20
-290.7173230856763
 30
0.0000000000563712
 10
5130.250582170073
 20
-301.967323882179
 30
0.0000000000563712
  0
SPLINE
  5
C14F
330
18
100
AcDbEntity
  8
1PHANTOM
100
AcDbSpline
210
0.0
220
0.0
230
1.0
 70
     8
 71
     2
 72
     6
 73
     3
 74
     0
 42
0.000000001
 43
0.0000000001
 40
0.0
 40
0.0
 40
0.0
 40
22.50000161790104
 40
22.50000161790104
 40
22.50000161790104
 10
5147.267761656474
 20
-279.9673245292299
 30
0.0000000000563712
 10
5147.267763438792
 20
-290.717323073229
 30
0.0000000000563712
 10
5147.26776522111
 20
-301.967323882179
 30
0.0000000000563712
  0
SPLINE
  5
C150
330
18
100
AcDbEntity
  8
1PHANTOM
100
AcDbSpline
210
0.0
220
0.0
230
1.0
 70
    24
 71
     2
 72
     6
 73
     3
 74
     0
 42
0.000000001
 43
0.0000000001
 40
0.4999984358770465
 40
0.4999984358770465
 40
0.4999984358770465
 40
23.0000000812412
 40
23.0000000812412
 40
23.0000000812412
 10
5137.217599521357
 20
-301.967323882179
 30
0.0000000000563712
 10
5137.217599521404
 20
-290.7173230594974
 30
0.0000000000563712
 10
5137.217599521449
 20
-279.9673256236085
 30
0.0000000000563712
  0
SPLINE
  5
C151
330
18
100
AcDbEntity
  8
1PHANTOM
100
AcDbSpline
210
0.0
220
0.0
230
1.0
 70
    24
 71
     2
 72
     6
 73
     3
 74
     0
 42
0.000000001
 43
0.0000000001
 40
0.0
 40
0.0
 40
0.0
 40
22.50000159870768
 40
22.50000159870768
 40
22.50000159870768
 10
5162.141241404069
 20
-279.96732449463
 30
0.0000000000563712
 10
5162.141241404069
 20
-290.717323082825
 30
0.0000000000563712
 10
5162.141241404069
 20
-301.967323882179
 30
0.0000000000563712
  0
SPLINE
  5
C152
330
18
100
AcDbEntity
  8
1PHANTOM
100
AcDbSpline
210
0.0
220
0.0
230
1.0
 70
    24
 71
     2
 72
     6
 73
     3
 74
     0
 42
0.000000001
 43
0.0000000001
 40
0.0
 40
0.0
 40
0.0
 40
22.50000159300607
 40
22.50000159300607
 40
22.50000159300607
 10
5175.997839535089
 20
-279.9673244141406
 30
0.0000000000563712
 10
5175.99783953509
 20
-290.7173230856763
 30
0.0000000000563712
 10
5175.99783953509
 20
-301.967323882179
 30
0.0000000000563712
  0
SPLINE
  5
C153
330
18
100
AcDbEntity
  8
1PHANTOM
100
AcDbSpline
210
0.0
220
0.0
230
1.0
 70
    24
 71
     2
 72
     6
 73
     3
 74
     0
 42
0.000000001
 43
0.0000000001
 40
0.4999984069939318
 40
0.4999984069939318
 40
0.4999984069939318
 40
23.0
 40
23.0
 40
23.0
 10
5184.603246904821
 20
-301.967323882179
 30
0.0000000000563712
 10
5184.603246904817
 20
-290.7173230856763
 30
0.0000000000563712
 10
5184.603246904812
 20
-279.9673346251632
 30
0.0000000000563712
  0
SPLINE
  5
C154
330
18
100
AcDbEntity
  8
1PHANTOM
100
AcDbSpline
210
0.0
220
0.0
230
1.0
 70
    24
 71
     2
 72
     6
 73
     3
 74
     0
 42
0.000000001
 43
0.0000000001
 40
0.4999984069939453
 40
0.4999984069939453
 40
0.4999984069939453
 40
23.0
 40
23.0
 40
23.0
 10
5191.531641805979
 20
-301.967323882179
 30
0.0000000000563712
 10
5191.531641805979
 20
-290.7173230856763
 30
0.0000000000563712
 10
5191.531641805979
 20
-279.9673285921829
 30
0.0000000000563712
  0
SPLINE
  5
C155
330
18
100
AcDbEntity
  8
1PHANTOM
100
AcDbSpline
210
0.0
220
0.0
230
1.0
 70
    24
 71
     2
 72
     6
 73
     3
 74
     0
 42
0.000000001
 43
0.0000000001
 40
0.0
 40
0.0
 40
0.0
 40
22.50000159730363
 40
22.50000159730363
 40
22.50000159730363
 10
5205.940663393523
 20
-279.9673241625771
 30
0.0000000000563712
 10
5205.940663393523
 20
-290.7173230835272
 30
0.0000000000563712
 10
5205.940663393523
 20
-301.967323882179
 30
0.0000000000563712
  0
SPLINE
  5
C156
330
18
100
AcDbEntity
  8
1PHANTOM
100
AcDbSpline
210
0.0
220
0.0
230
1.0
 70
    24
 71
     2
 72
     6
 73
     3
 74
     0
 42
0.000000001
 43
0.0000000001
 40
0.5002349233184967
 40
0.5002349233184967
 40
0.5002349233184967
 40
23.00000000000421
 40
23.00000000000421
 40
23.00000000000421
 10
5215.414073370858
 20
-301.9673238836033
 30
0.0000000000563712
 10
5215.414073370908
 20
-290.728079534407
 30
0.0000000000563712
 10
5215.414073370958
 20
-279.9673238821799
 30
0.0000000000563712
  0
SPLINE
  5
C157
330
18
100
AcDbEntity
  8
1PHANTOM
100
AcDbSpline
210
0.0
220
0.0
230
1.0
 70
    24
 71
     2
 72
     6
 73
     3
 74
     0
 42
0.000000001
 43
0.0000000001
 40
0.0
 40
0.0
 40
0.0
 40
22.50000161183608
 40
22.50000161183608
 40
22.50000161183608
 10
5086.754044490046
 20
-279.9673239005381
 30
0.0000000000563712
 10
5086.754044490042
 20
-290.7173230762612
 30
0.0000000000563712
 10
5086.75404449004
 20
-301.967323882179
 30
0.0000000000563712
  0
SPLINE
  5
C158
330
18
100
AcDbEntity
  8
1PHANTOM
100
AcDbSpline
210
0.0
220
0.0
230
1.0
 70
    24
 71
     2
 72
     6
 73
     3
 74
     0
 42
0.000000001
 43
0.0000000001
 40
0.4999984069939453
 40
0.4999984069939453
 40
0.4999984069939453
 40
23.0
 40
23.0
 40
23.0
 10
5093.146733576675
 20
-301.967323882179
 30
0.0000000000563712
 10
5093.146733576674
 20
-290.7173230856763
 30
0.0000000000563712
 10
5093.146733576674
 20
-279.967334997056
 30
0.0000000000563712
  0
SPLINE
  5
C159
330
18
100
AcDbEntity
  8
1PHANTOM
100
AcDbSpline
210
0.0
220
0.0
230
1.0
 70
    12
 71
     3
 72
    12
 73
     8
 74
     0
 42
0.0000000001
 43
0.0000000001
 40
-1.00000000984264
 40
-1.00000000984264
 40
-1.00000000984264
 40
-1.00000000984264
 40
-0.8118869786421052
 40
-0.8118869786421052
 40
-0.55203856507019
 40
-0.55203856507019
 40
-0.0000008065681554
 40
-0.0000008065681554
 40
-0.0000008065681554
 40
-0.0000008065681554
 10
5147.5199717794
 20
-278.9673223376165
 30
0.0000000000563712
 41
1.0
 10
5147.494615013074
 20
-278.9672795326926
 30
0.0000000000563712
 41
1.0
 10
5147.470708192945
 20
-278.9743552046859
 30
0.0000000000563712
 41
1.0
 10
5147.412942519598
 20
-279.0092521010149
 30
0.0000000000563712
 41
1.0
 10
5147.384397876905
 20
-279.0399102567801
 30
0.0000000000563712
 41
1.0
 10
5147.300558310711
 20
-279.1796332009037
 30
0.0000000000563712
 41
1.0
 10
5147.267716985723
 20
-279.3197018579169
 30
0.0000000000563712
 41
1.0
 10
5147.267761656279
 20
-279.9673238821799
 30
0.0000000000563712
 41
1.0
  0
SPLINE
  5
C15A
330
18
100
AcDbEntity
  8
1PHANTOM
100
AcDbSpline
210
0.0
220
0.0
230
1.0
 70
    12
 71
     3
 72
    10
 73
     6
 74
     0
 42
0.0000000001
 43
0.0000000001
 40
-1.00000010643774
 40
-1.00000010643774
 40
-1.00000010643774
 40
-1.00000010643774
 40
-0.4680602278773754
 40
-0.4680602278773754
 40
0.0
 40
0.0
 40
0.0
 40
0.0
 10
5147.706507958609
 20
-279.9673238821799
 30
0.0000000000563712
 41
1.0
 10
5147.706580838361
 20
-279.3255500966495
 30
0.0000000000563712
 41
1.0
 10
5147.684098757873
 20
-279.1904507119791
 30
0.0000000000563712
 41
1.0
 10
5147.610315575632
 20
-279.0121881757889
 30
0.0000000000563712
 41
1.0
 10
5147.566539376357
 20
-278.9672750752391
 30
0.0000000000563712
 41
1.0
 10
5147.5199717794
 20
-278.9673223376165
 30
0.0000000000563712
 41
1.0
  0
SPLINE
  5
C15B
330
18
100
AcDbEntity
  8
1PHANTOM
100
AcDbSpline
210
0.0
220
0.0
230
1.0
 70
    12
 71
     3
 72
    12
 73
     8
 74
     0
 42
0.0000000001
 43
0.0000000001
 40
-1.00000021507182
 40
-1.00000021507182
 40
-1.00000021507182
 40
-1.00000021507182
 40
-0.8241534344843816
 40
-0.8241534344843816
 40
-0.5698596209031228
 40
-0.5698596209031228
 40
-0.0000012508799065
 40
-0.0000012508799065
 40
-0.0000012508799065
 40
-0.0000012508799065
 10
5136.970893616064
 20
-278.9673223960956
 30
0.0000000000563712
 41
1.0
 10
5136.939236371758
 20
-278.9673162769034
 30
0.0000000000563712
 41
1.0
 10
5136.909083849708
 20
-278.9735690251839
 30
0.0000000000563712
 41
1.0
 10
5136.834698541242
 20
-279.0050478912556
 30
0.0000000000563712
 41
1.0
 10
5136.79688133138
 20
-279.0338751248366
 30
0.0000000000563712
 41
1.0
 10
5136.680619328185
 20
-279.171081062467
 30
0.0000000000563712
 41
1.0
 10
5136.634003239416
 20
-279.3150402633185
 30
0.0000000000563712
 41
1.0
 10
5136.634105003221
 20
-279.9673238821799
 30
0.0000000000563712
 41
1.0
  0
SPLINE
  5
C15C
330
18
100
AcDbEntity
  8
1PHANTOM
100
AcDbSpline
210
0.0
220
0.0
230
1.0
 70
    12
 71
     3
 72
    10
 73
     6
 74
     0
 42
0.0000000001
 43
0.0000000001
 40
-0.9999978395403766
 40
-0.9999978395403766
 40
-0.9999978395403766
 40
-0.9999978395403766
 40
-0.4577021167197055
 40
-0.4577021167197055
 40
0.0
 40
0.0
 40
0.0
 40
0.0
 10
5137.217599522183
 20
-279.9673238821799
 30
0.0000000000563712
 41
1.0
 10
5137.217660487838
 20
-279.3223836517811
 30
0.0000000000563712
 41
1.0
 10
5137.186681761248
 20
-279.1846275536502
 30
0.0000000000563712
 41
1.0
 10
5137.087143691812
 20
-279.00948314222
 30
0.0000000000563712
 41
1.0
 10
5137.031183909976
 20
-278.9671663816055
 30
0.0000000000563712
 41
1.0
 10
5136.970893616064
 20
-278.9673223960956
 30
0.0000000000563712
 41
1.0
  0
SPLINE
  5
C15D
330
18
100
AcDbEntity
  8
1PHANTOM
100
AcDbSpline
210
0.0
220
0.0
230
1.0
 70
    12
 71
     3
 72
    10
 73
     6
 74
     0
 42
0.0000000001
 43
0.0000000001
 40
-1.00000000057659
 40
-1.00000000057659
 40
-1.00000000057659
 40
-1.00000000057659
 40
-0.5285282341175929
 40
-0.5285282341175929
 40
-0.0000007664007654
 40
-0.0000007664007654
 40
-0.0000007664007654
 40
-0.0000007664007654
 10
5162.326211569167
 20
-278.9673222993526
 30
0.0000000000563712
 41
1.0
 10
5162.279765782564
 20
-278.9672723300953
 30
0.0000000000563712
 41
1.0
 10
5162.235973695169
 20
-279.0130057693179
 30
0.0000000000563712
 41
1.0
 10
5162.163218974893
 20
-279.1922968916444
 30
0.0000000000563712
 41
1.0
 10
5162.141223044268
 20
-279.3265351062594
 30
0.0000000000563712
 41
1.0
 10
5162.141241403989
 20
-279.9673238821799
 30
0.0000000000563712
 41
1.0
  0
SPLINE
  5
C15E
330
18
100
AcDbEntity
  8
1PHANTOM
100
AcDbSpline
210
0.0
220
0.0
230
1.0
 70
    12
 71
     3
 72
    12
 73
     8
 74
     0
 42
0.0000000001
 43
0.0000000001
 40
-0.9999790983525996
 40
-0.9999790983525996
 40
-0.9999790983525996
 40
-0.9999790983525996
 40
-0.4245260337330338
 40
-0.4245260337330338
 40
-0.1720316392127929
 40
-0.1720316392127929
 40
0.0
 40
0.0
 40
0.0
 40
0.0
 10
5162.667277779283
 20
-279.9673238821799
 30
0.0000000000563712
 41
1.0
 10
5162.667305997677
 20
-279.3135405417272
 30
0.0000000000563712
 41
1.0
 10
5162.619174705238
 20
-279.168334074044
 30
0.0000000000563712
 41
1.0
 10
5162.500114146777
 20
-279.0319867335959
 30
0.0000000000563712
 41
1.0
 10
5162.461928781356
 20
-279.0037393006944
 30
0.0000000000563712
 41
1.0
 10
5162.387495286269
 20
-278.9733135922659
 30
0.0000000000563712
 41
1.0
 10
5162.357570285304
 20
-278.9673160976392
 30
0.0000000000563712
 41
1.0
 10
5162.326211569167
 20
-278.9673222993526
 30
0.0000000000563712
 41
1.0
  0
SPLINE
  5
C15F
330
18
100
AcDbEntity
  8
1PHANTOM
100
AcDbSpline
210
0.0
220
0.0
230
1.0
 70
    12
 71
     3
 72
    12
 73
     8
 74
     0
 42
0.0000000001
 43
0.0000000001
 40
-1.00000000029583
 40
-1.00000000029583
 40
-1.00000000029583
 40
-1.00000000029583
 40
-0.8281156636894471
 40
-0.8281156636894471
 40
-0.5753462877826026
 40
-0.5753462877826026
 40
-0.0000006936454805
 40
-0.0000006936454805
 40
-0.0000006936454805
 40
-0.0000006936454805
 10
5169.37233999075
 20
-278.9673222894473
 30
0.0000000000563712
 41
1.0
 10
5169.3420368826
 20
-278.9673200221562
 30
0.0000000000563712
 41
1.0
 10
5169.313123658515
 20
-278.973311024208
 30
0.0000000000563712
 41
1.0
 10
5169.24110698706
 20
-279.0037277764989
 30
0.0000000000563712
 41
1.0
 10
5169.204134573038
 20
-279.0320028760705
 30
0.0000000000563712
 41
1.0
 10
5169.088960683733
 20
-279.1684116885801
 30
0.0000000000563712
 41
1.0
 10
5169.042421541167
 20
-279.3135923476887
 30
0.0000000000563712
 41
1.0
 10
5169.042428133161
 20
-279.9673238821799
 30
0.0000000000563712
 41
1.0
  0
SPLINE
  5
C160
330
18
100
AcDbEntity
  8
1PHANTOM
100
AcDbSpline
210
0.0
220
0.0
230
1.0
 70
    12
 71
     3
 72
    12
 73
     8
 74
     0
 42
0.0000000001
 43
0.0000000001
 40
-1.00000000029587
 40
-1.00000000029587
 40
-1.00000000029587
 40
-1.00000000029587
 40
-0.4247346840694694
 40
-0.4247346840694694
 40
-0.1719738555979941
 40
-0.1719738555979941
 40
0.0
 40
0.0
 40
0.0
 40
0.0
 10
5169.702251846268
 20
-279.9673238821799
 30
0.0000000000563712
 41
1.0
 10
5169.702258550333
 20
-279.3136147208418
 30
0.0000000000563712
 41
1.0
 10
5169.655732225491
 20
-279.1684510996668
 30
0.0000000000563712
 41
1.0
 10
5169.540582146627
 20
-279.0320358082033
 30
0.0000000000563712
 41
1.0
 10
5169.503613198096
 20
-279.0037543280725
 30
0.0000000000563712
 41
1.0
 10
5169.43158566471
 20
-278.9733169136173
 30
0.0000000000563712
 41
1.0
 10
5169.402658804569
 20
-278.967320021113
 30
0.0000000000563712
 41
1.0
 10
5169.37233999075
 20
-278.9673222894473
 30
0.0000000000563712
 41
1.0
  0
SPLINE
  5
C161
330
18
100
AcDbEntity
  8
1PHANTOM
100
AcDbSpline
210
0.0
220
0.0
230
1.0
 70
    12
 71
     3
 72
    12
 73
     8
 74
     0
 42
0.0000000001
 43
0.0000000001
 40
-1.00000000000065
 40
-1.00000000000065
 40
-1.00000000000065
 40
-1.00000000000065
 40
-0.8301187422604426
 40
-0.8301187422604426
 40
-0.5786903239791849
 40
-0.5786903239791849
 40
-0.0000006636523246
 40
-0.0000006636523246
 40
-0.0000006636523246
 40
-0.0000006636523246
 10
5176.330634513473
 20
-278.967322289471
 30
0.0000000000563712
 41
1.0
 10
5176.300424563138
 20
-278.9673191870172
 30
0.0000000000563712
 41
1.0
 10
5176.271678922499
 20
-278.9731772816588
 30
0.0000000000563712
 41
1.0
 10
5176.199467621783
 20
-279.0030175149361
 30
0.0000000000563712
 41
1.0
 10
5176.162249815196
 20
-279.0309342070416
 30
0.0000000000563712
 41
1.0
 10
5176.045317146745
 20
-279.1667815728154
 30
0.0000000000563712
 41
1.0
 10
5175.997833776662
 20
-279.3127024619096
 30
0.0000000000563712
 41
1.0
 10
5175.997839535069
 20
-279.9673238821799
 30
0.0000000000563712
 41
1.0
  0
SPLINE
  5
C162
330
18
100
AcDbEntity
  8
1PHANTOM
100
AcDbSpline
210
0.0
220
0.0
230
1.0
 70
    12
 71
     3
 72
    12
 73
     8
 74
     0
 42
0.0000000001
 43
0.0000000001
 40
-1.0000000007364
 40
-1.0000000007364
 40
-1.0000000007364
 40
-1.0000000007364
 40
-0.4341062510252106
 40
-0.4341062510252106
 40
-0.1778279396707931
 40
-0.1778279396707931
 40
0.0
 40
0.0
 40
0.0
 40
0.0
 10
5176.63212723282
 20
-279.9673238821799
 30
0.0000000000563712
 41
1.0
 10
5176.63213235043
 20
-279.3161047288706
 30
0.0000000000563712
 41
1.0
 10
5176.590950024613
 20
-279.1730212446357
 30
0.0000000000563712
 41
1.0
 10
5176.487682407996
 20
-279.0351126336539
 30
0.0000000000563712
 41
1.0
 10
5176.453695311514
 20
-279.0058330246241
 30
0.0000000000563712
 41
1.0
 10
5176.386547344775
 20
-278.9737136684364
 30
0.0000000000563712
 41
1.0
 10
5176.359288661765
 20
-278.967321668644
 30
0.0000000000563712
 41
1.0
 10
5176.330634513473
 20
-278.967322289471
 30
0.0000000000563712
 41
1.0
  0
SPLINE
  5
C163
330
18
100
AcDbEntity
  8
1PHANTOM
100
AcDbSpline
210
0.0
220
0.0
230
1.0
 70
    12
 71
     3
 72
    12
 73
     8
 74
     0
 42
0.0000000001
 43
0.0000000001
 40
-1.00000000073632
 40
-1.00000000073632
 40
-1.00000000073632
 40
-1.00000000073632
 40
-0.8221837509638799
 40
-0.8221837509638799
 40
-0.565886829073162
 40
-0.565886829073162
 40
-0.0000006135449653
 40
-0.0000006135449653
 40
-0.0000006135449653
 40
-0.0000006135449653
 10
5184.270451927866
 20
-278.967322289471
 30
0.0000000000563712
 41
1.0
 10
5184.241799721102
 20
-278.9673216686899
 30
0.0000000000563712
 41
1.0
 10
5184.214542710471
 20
-278.9737128500312
 30
0.0000000000563712
 41
1.0
 10
5184.147393457983
 20
-279.0058305989653
 30
0.0000000000563712
 41
1.0
 10
5184.113404201902
 20
-279.0351116977197
 30
0.0000000000563712
 41
1.0
 10
5184.01013607717
 20
-279.173023265362
 30
0.0000000000563712
 41
1.0
 10
5183.968954179188
 20
-279.3161065737588
 30
0.0000000000563712
 41
1.0
 10
5183.968959207189
 20
-279.9673238821799
 30
0.0000000000563712
 41
1.0
  0
SPLINE
  5
C164
330
18
100
AcDbEntity
  8
1PHANTOM
100
AcDbSpline
210
0.0
220
0.0
230
1.0
 70
    12
 71
     3
 72
    12
 73
     8
 74
     0
 42
0.0000000001
 43
0.0000000001
 40
-0.9999865974965946
 40
-0.9999865974965946
 40
-0.9999865974965946
 40
-0.9999865974965946
 40
-0.4214176338820836
 40
-0.4214176338820836
 40
-0.1699582279509027
 40
-0.1699582279509027
 40
-0.0000000000000248
 40
-0.0000000000000248
 40
-0.0000000000000248
 40
-0.0000000000000248
 10
5184.603246905144
 20
-279.9673238821799
 30
0.0000000000563712
 41
1.0
 10
5184.603250573106
 20
-279.3127247889645
 30
0.0000000000563712
 41
1.0
 10
5184.555785155204
 20
-279.1668321656814
 30
0.0000000000563712
 41
1.0
 10
5184.438880009108
 20
-279.030970641624
 30
0.0000000000563712
 41
1.0
 10
5184.401660734944
 20
-279.003043072825
 30
0.0000000000563712
 41
1.0
 10
5184.329433187295
 20
-278.973182328443
 30
0.0000000000563712
 41
1.0
 10
5184.300675584009
 20
-278.9673191857767
 30
0.0000000000563712
 41
1.0
 10
5184.270451927866
 20
-278.967322289471
 30
0.0000000000563712
 41
1.0
  0
SPLINE
  5
C165
330
18
100
AcDbEntity
  8
1PHANTOM
100
AcDbSpline
210
0.0
220
0.0
230
1.0
 70
    12
 71
     3
 72
    12
 73
     8
 74
     0
 42
0.0000000001
 43
0.0000000001
 40
-1.00000002356595
 40
-1.00000002356595
 40
-1.00000002356595
 40
-1.00000002356595
 40
-0.828058030609997
 40
-0.828058030609997
 40
-0.5754232456153681
 40
-0.5754232456153681
 40
-0.0000006774909363
 40
-0.0000006774909363
 40
-0.0000006774909363
 40
-0.0000006774909363
 10
5191.346671643565
 20
-278.9673222993526
 30
0.0000000000563712
 41
1.0
 10
5191.31532914745
 20
-278.9673161005715
 30
0.0000000000563712
 41
1.0
 10
5191.285418229916
 20
-278.9733077111553
 30
0.0000000000563712
 41
1.0
 10
5191.210972766851
 20
-279.0037222564276
 30
0.0000000000563712
 41
1.0
 10
5191.172768280891
 20
-279.0319815395117
 30
0.0000000000563712
 41
1.0
 10
5191.053698103818
 20
-279.1683598626398
 30
0.0000000000563712
 41
1.0
 10
5191.005573826882
 20
-279.3135637250564
 30
0.0000000000563712
 41
1.0
 10
5191.005605433616
 20
-279.9673238821799
 30
0.0000000000563712
 41
1.0
  0
SPLINE
  5
C166
330
18
100
AcDbEntity
  8
1PHANTOM
100
AcDbSpline
210
0.0
220
0.0
230
1.0
 70
    12
 71
     3
 72
    10
 73
     6
 74
     0
 42
0.0000000001
 43
0.0000000001
 40
-0.9999941064771852
 40
-0.9999941064771852
 40
-0.9999941064771852
 40
-0.9999941064771852
 40
-0.4715801571422454
 40
-0.4715801571422454
 40
0.0
 40
0.0
 40
0.0
 40
0.0
 10
5191.531641806588
 20
-279.9673238821799
 30
0.0000000000563712
 41
1.0
 10
5191.531659740471
 20
-279.3265649357506
 30
0.0000000000563712
 41
1.0
 10
5191.509673803414
 20
-279.1923551076882
 30
0.0000000000563712
 41
1.0
 10
5191.436933201338
 20
-279.0130332431379
 30
0.0000000000563712
 41
1.0
 10
5191.393126933733
 20
-278.9672723198266
 30
0.0000000000563712
 41
1.0
 10
5191.346671643565
 20
-278.9673222993526
 30
0.0000000000563712
 41
1.0
  0
SPLINE
  5
C167
330
18
100
AcDbEntity
  8
1PHANTOM
100
AcDbSpline
210
0.0
220
0.0
230
1.0
 70
    12
 71
     3
 72
    10
 73
     6
 74
     0
 42
0.0000000001
 43
0.0000000001
 40
-1.00000000452855
 40
-1.00000000452855
 40
-1.00000000452855
 40
-1.00000000452855
 40
-0.5310406101528783
 40
-0.5310406101528783
 40
-0.0000003507526919
 40
-0.0000003507526919
 40
-0.0000003507526919
 40
-0.0000003507526919
 10
5206.126907851904
 20
-278.9673222979438
 30
0.0000000000563712
 41
1.0
 10
5206.080376466001
 20
-278.9672794616993
 30
0.0000000000563712
 41
1.0
 10
5206.036588819045
 20
-279.012412208612
 30
0.0000000000563712
 41
1.0
 10
5205.963038642718
 20
-279.1909459764368
 30
0.0000000000563712
 41
1.0
 10
5205.940653006041
 20
-279.3258145088123
 30
0.0000000000563712
 41
1.0
 10
5205.940663393503
 20
-279.9673238821799
 30
0.0000000000563712
 41
1.0
  0
SPLINE
  5
C168
330
18
100
AcDbEntity
  8
1PHANTOM
100
AcDbSpline
210
0.0
220
0.0
230
1.0
 70
    12
 71
     3
 72
    12
 73
     8
 74
     0
 42
0.0000000001
 43
0.0000000001
 40
-0.9999944166495882
 40
-0.9999944166495882
 40
-0.9999944166495882
 40
-0.9999944166495882
 40
-0.4383660470629285
 40
-0.4383660470629285
 40
-0.1805991554149991
 40
-0.1805991554149991
 40
0.0
 40
0.0
 40
0.0
 40
0.0
 10
5206.413573438994
 20
-279.9673238821799
 30
0.0000000000563712
 41
1.0
 10
5206.413599933603
 20
-279.3172271129436
 30
0.0000000000563712
 41
1.0
 10
5206.375004971385
 20
-279.1750826775185
 30
0.0000000000563712
 41
1.0
 10
5206.277692269035
 20
-279.0365372944345
 30
0.0000000000563712
 41
1.0
 10
5206.245309579628
 20
-279.0068090500456
 30
0.0000000000563712
 41
1.0
 10
5206.18087833608
 20
-278.9738988410352
 30
0.0000000000563712
 41
1.0
 10
5206.154583794793
 20
-278.9673189752455
 30
0.0000000000563712
 41
1.0
 10
5206.126907851904
 20
-278.9673222979438
 30
0.0000000000563712
 41
1.0
  0
SPLINE
  5
C169
330
18
100
AcDbEntity
  8
1PHANTOM
100
AcDbSpline
210
0.0
220
0.0
230
1.0
 70
    12
 71
     3
 72
    12
 73
     8
 74
     0
 42
0.0000000001
 43
0.0000000001
 40
-1.00000037223214
 40
-1.00000037223214
 40
-1.00000037223214
 40
-1.00000037223214
 40
-0.8129154162611391
 40
-0.8129154162611391
 40
-0.5531721574106007
 40
-0.5531721574106007
 40
-0.0000001546292806
 40
-0.0000001546292806
 40
-0.0000001546292806
 40
-0.0000001546292806
 10
5215.04221188603
 20
-278.9673224749147
 30
0.0000000000563712
 41
1.0
 10
5215.014631968987
 20
-278.967321195277
 30
0.0000000000563712
 41
1.0
 10
5214.988615600704
 20
-278.9743557557861
 30
0.0000000000563712
 41
1.0
 10
5214.925679361671
 20
-279.0090435046125
 30
0.0000000000563712
 41
1.0
 10
5214.894645461735
 20
-279.0396165021505
 30
0.0000000000563712
 41
1.0
 10
5214.802667077432
 20
-279.1792361698483
 30
0.0000000000563712
 41
1.0
 10
5214.766438301954
 20
-279.3194759243672
 30
0.0000000000563712
 41
1.0
 10
5214.766580535815
 20
-279.9673238821799
 30
0.0000000000563712
 41
1.0
  0
SPLINE
  5
C16A
330
18
100
AcDbEntity
  8
1PHANTOM
100
AcDbSpline
210
0.0
220
0.0
230
1.0
 70
    12
 71
     3
 72
    12
 73
     8
 74
     0
 42
0.0000000001
 43
0.0000000001
 40
-1.0000000067847
 40
-1.0000000067847
 40
-1.0000000067847
 40
-1.0000000067847
 40
-0.40771766120655
 40
-0.40771766120655
 40
-0.1635091726416399
 40
-0.1635091726416399
 40
0.0
 40
0.0
 40
0.0
 40
0.0
 10
5215.414073370958
 20
-279.9673238821799
 30
0.0000000000563712
 41
1.0
 10
5215.414200220172
 20
-279.3089201518844
 30
0.0000000000563712
 41
1.0
 10
5215.35863179387
 20
-279.1599016737912
 30
0.0000000000563712
 41
1.0
 10
5215.224788611267
 20
-279.0267102106957
 30
0.0000000000563712
 41
1.0
 10
5215.183914092879
 20
-279.0003627436693
 30
0.0000000000563712
 41
1.0
 10
5215.105680448905
 20
-278.9726365644735
 30
0.0000000000563712
 41
1.0
 10
5215.074690765431
 20
-278.9672482669796
 30
0.0000000000563712
 41
1.0
 10
5215.04221188603
 20
-278.9673224749147
 30
0.0000000000563712
 41
1.0
  0
SPLINE
  5
C16B
330
18
100
AcDbEntity
  8
1PHANTOM
100
AcDbSpline
210
0.0
220
0.0
230
1.0
 70
    12
 71
     3
 72
    12
 73
     8
 74
     0
 42
0.0000000001
 43
0.0000000001
 40
-1.000000001662
 40
-1.000000001662
 40
-1.000000001662
 40
-1.000000001662
 40
-0.8198959261932297
 40
-0.8198959261932297
 40
-0.5629353698987167
 40
-0.5629353698987167
 40
0.0
 40
0.0
 40
0.0
 40
0.0
 10
5087.058045767602
 20
-278.9673223679954
 30
0.0000000000563712
 41
1.0
 10
5087.028787306685
 20
-278.9672687721379
 30
0.0000000000563712
 41
1.0
 10
5087.000984868957
 20
-278.9737751543223
 30
0.0000000000563712
 41
1.0
 10
5086.932876244497
 20
-279.0064292316677
 30
0.0000000000563712
 41
1.0
 10
5086.8985927245
 20
-279.0359781323079
 30
0.0000000000563712
 41
1.0
 10
5086.795092780521
 20
-279.1742731296501
 30
0.0000000000563712
 41
1.0
 10
5086.753973378032
 20
-279.3167782053899
 30
0.0000000000563712
 41
1.0
 10
5086.754044490046
 20
-279.9673238821799
 30
0.0000000000563712
 41
1.0
  0
SPLINE
  5
C16C
330
18
100
AcDbEntity
  8
1PHANTOM
100
AcDbSpline
210
0.0
220
0.0
230
1.0
 70
    12
 71
     3
 72
    12
 73
     8
 74
     0
 42
0.0000000001
 43
0.0000000001
 40
-1.00000015778253
 40
-1.00000015778253
 40
-1.00000015778253
 40
-1.00000015778253
 40
-0.4104555635630154
 40
-0.4104555635630154
 40
-0.1647617661271124
 40
-0.1647617661271124
 40
0.0
 40
0.0
 40
0.0
 40
0.0
 10
5087.428235698458
 20
-279.9673238821799
 30
0.0000000000563712
 41
1.0
 10
5087.428307229217
 20
-279.3098297504823
 30
0.0000000000563712
 41
1.0
 10
5087.373540925234
 20
-279.1615499652291
 30
0.0000000000563712
 41
1.0
 10
5087.240956417596
 20
-279.0277853596538
 30
0.0000000000563712
 41
1.0
 10
5087.200112436765
 20
-279.0010894034779
 30
0.0000000000563712
 41
1.0
 10
5087.121689629996
 20
-278.9728515780628
 30
0.0000000000563712
 41
1.0
 10
5087.090639543898
 20
-278.9673232809862
 30
0.0000000000563712
 41
1.0
 10
5087.058045767602
 20
-278.9673223679954
 30
0.0000000000563712
 41
1.0
  0
SPLINE
  5
C16D
330
18
100
AcDbEntity
  8
1PHANTOM
100
AcDbSpline
210
0.0
220
0.0
230
1.0
 70
    12
 71
     3
 72
    12
 73
     8
 74
     0
 42
0.0000000001
 43
0.0000000001
 40
-1.0000000641239
 40
-1.0000000641239
 40
-1.0000000641239
 40
-1.0000000641239
 40
-0.8307509881114197
 40
-0.8307509881114197
 40
-0.5821065728779191
 40
-0.5821065728779191
 40
0.0
 40
0.0
 40
0.0
 40
0.0
 10
5092.94308996912
 20
-278.9673223147386
 30
0.0000000000563712
 41
1.0
 10
5092.908661640496
 20
-278.9673172821506
 30
0.0000000000563712
 41
1.0
 10
5092.875754793831
 20
-278.9731314795647
 30
0.0000000000563712
 41
1.0
 10
5092.793910486288
 20
-279.0026171361681
 30
0.0000000000563712
 41
1.0
 10
5092.751719857032
 20
-279.0300933403253
 30
0.0000000000563712
 41
1.0
 10
5092.61735104653
 20
-279.1651327021539
 30
0.0000000000563712
 41
1.0
 10
5092.562418370439
 20
-279.3117989924956
 30
0.0000000000563712
 41
1.0
 10
5092.562458464964
 20
-279.9673238821799
 30
0.0000000000563712
 41
1.0
  0
SPLINE
  5
C16E
330
18
100
AcDbEntity
  8
1PHANTOM
100
AcDbSpline
210
0.0
220
0.0
230
1.0
 70
    12
 71
     3
 72
    10
 73
     6
 74
     0
 42
0.0000000001
 43
0.0000000001
 40
-0.9999861017683267
 40
-0.9999861017683267
 40
-0.9999861017683267
 40
-0.9999861017683267
 40
-0.4698984563185891
 40
-0.4698984563185891
 40
0.0
 40
0.0
 40
0.0
 40
0.0
 10
5093.146733579147
 20
-279.9673238821799
 30
0.0000000000563712
 41
1.0
 10
5093.146764373656
 20
-279.32601511898
 30
0.0000000000563712
 41
1.0
 10
5093.122402791276
 20
-279.1913759611691
 30
0.0000000000563712
 41
1.0
 10
5093.042017280814
 20
-279.0125338040355
 30
0.0000000000563712
 41
1.0
 10
5092.994078676621
 20
-278.9672435270097
 30
0.0000000000563712
 41
1.0
 10
5092.94308996912
 20
-278.9673223147386
 30
0.0000000000563712
 41
1.0
  0
SPLINE
  5
C16F
330
18
100
AcDbEntity
  8
1PHANTOM
100
AcDbSpline
210
0.0
220
0.0
230
1.0
 70
    12
 71
     3
 72
    10
 73
     6
 74
     0
 42
0.0000000001
 43
0.0000000001
 40
-1.00000000002863
 40
-1.00000000002863
 40
-1.00000000002863
 40
-1.00000000002863
 40
-0.5397453102381335
 40
-0.5397453102381335
 40
0.0
 40
0.0
 40
0.0
 40
0.0
 10
5106.068488318826
 20
-278.9673223005077
 30
0.0000000000563712
 41
1.0
 10
5106.017189309449
 20
-278.9672703704912
 30
0.0000000000563712
 41
1.0
 10
5105.969356102155
 20
-279.0102770553378
 30
0.0000000000563712
 41
1.0
 10
5105.885627260454
 20
-279.1861771844763
 30
0.0000000000563712
 41
1.0
 10
5105.859631611845
 20
-279.3232461499467
 30
0.0000000000563712
 41
1.0
 10
5105.859657194374
 20
-279.9673238821799
 30
0.0000000000563712
 41
1.0
  0
SPLINE
  5
C170
330
18
100
AcDbEntity
  8
1PHANTOM
100
AcDbSpline
210
0.0
220
0.0
230
1.0
 70
    12
 71
     3
 72
    10
 73
     6
 74
     0
 42
0.0000000001
 43
0.0000000001
 40
-1.0000000127271
 40
-1.0000000127271
 40
-1.0000000127271
 40
-1.0000000127271
 40
-0.4664870960439885
 40
-0.4664870960439885
 40
0.0
 40
0.0
 40
0.0
 40
0.0
 10
5106.255955863674
 20
-279.9673238821799
 30
0.0000000000563712
 41
1.0
 10
5106.255990684911
 20
-279.3251051778946
 30
0.0000000000563712
 41
1.0
 10
5106.233236908086
 20
-279.1896232807142
 30
0.0000000000563712
 41
1.0
 10
5106.158910708938
 20
-279.0118359848486
 30
0.0000000000563712
 41
1.0
 10
5106.115115153508
 20
-278.9672826280614
 30
0.0000000000563712
 41
1.0
 10
5106.068488318826
 20
-278.9673223005077
 30
0.0000000000563712
 41
1.0
  0
SPLINE
  5
C171
330
18
100
AcDbEntity
  8
1PHANTOM
100
AcDbSpline
210
0.0
220
0.0
230
1.0
 70
    12
 71
     3
 72
    10
 73
     6
 74
     0
 42
0.0000000001
 43
0.0000000001
 40
-1.00000000452855
 40
-1.00000000452855
 40
-1.00000000452855
 40
-1.00000000452855
 40
-0.5310406099419931
 40
-0.5310406099419931
 40
0.0
 40
0.0
 40
0.0
 40
0.0
 10
5120.953558682361
 20
-278.9673222979438
 30
0.0000000000563712
 41
1.0
 10
5120.907027296407
 20
-278.9672794616993
 30
0.0000000000563712
 41
1.0
 10
5120.863239649415
 20
-279.0124122087188
 30
0.0000000000563712
 41
1.0
 10
5120.789689447307
 20
-279.1909460394479
 30
0.0000000000563712
 41
1.0
 10
5120.767303806942
 20
-279.3258146869323
 30
0.0000000000563712
 41
1.0
 10
5120.767314223984
 20
-279.9673238821799
 30
0.0000000000563712
 41
1.0
  0
SPLINE
  5
C172
330
18
100
AcDbEntity
  8
1PHANTOM
100
AcDbSpline
210
0.0
220
0.0
230
1.0
 70
    12
 71
     3
 72
    12
 73
     8
 74
     0
 42
0.0000000001
 43
0.0000000001
 40
-0.9999944168521089
 40
-0.9999944168521089
 40
-0.9999944168521089
 40
-0.9999944168521089
 40
-0.4383660470794983
 40
-0.4383660470794983
 40
-0.1805991554450586
 40
-0.1805991554450586
 40
0.0
 40
0.0
 40
0.0
 40
0.0
 10
5121.240224269451
 20
-279.9673238821799
 30
0.0000000000563712
 41
1.0
 10
5121.240250764088
 20
-279.3172271130504
 30
0.0000000000563712
 41
1.0
 10
5121.201655801869
 20
-279.1750826775617
 30
0.0000000000563712
 41
1.0
 10
5121.104343099501
 20
-279.0365372944436
 30
0.0000000000563712
 41
1.0
 10
5121.071960410097
 20
-279.0068090500538
 30
0.0000000000563712
 41
1.0
 10
5121.007529166546
 20
-278.9738988410375
 30
0.0000000000563712
 41
1.0
 10
5120.981234625256
 20
-278.9673189752455
 30
0.0000000000563712
 41
1.0
 10
5120.953558682361
 20
-278.9673222979438
 30
0.0000000000563712
 41
1.0
  0
SPLINE
  5
C173
330
18
100
AcDbEntity
  8
1PHANTOM
100
AcDbSpline
210
0.0
220
0.0
230
1.0
 70
    12
 71
     3
 72
    12
 73
     8
 74
     0
 42
0.0000000001
 43
0.0000000001
 40
-1.0000000009217
 40
-1.0000000009217
 40
-1.0000000009217
 40
-1.0000000009217
 40
-0.8096653603729745
 40
-0.8096653603729745
 40
-0.5489490148442486
 40
-0.5489490148442486
 40
0.0
 40
0.0
 40
0.0
 40
0.0
 10
5129.915849780734
 20
-278.9673222896083
 30
0.0000000000563712
 41
1.0
 10
5129.887435141824
 20
-278.967320572254
 30
0.0000000000563712
 41
1.0
 10
5129.860614003681
 20
-278.9745882280743
 30
0.0000000000563712
 41
1.0
 10
5129.796353040781
 20
-279.0101820041702
 30
0.0000000000563712
 41
1.0
 10
5129.764965019674
 20
-279.0411795260263
 30
0.0000000000563712
 41
1.0
 10
5129.672771699552
 20
-279.1813221404952
 30
0.0000000000563712
 41
1.0
 10
5129.636597864826
 20
-279.3205881493425
 30
0.0000000000563712
 41
1.0
 10
5129.636605045049
 20
-279.9673238821799
 30
0.0000000000563712
 41
1.0
  0
SPLINE
  5
C174
330
18
100
AcDbEntity
  8
1PHANTOM
100
AcDbSpline
210
0.0
220
0.0
230
1.0
 70
    12
 71
     3
 72
    12
 73
     8
 74
     0
 42
0.0000000001
 43
0.0000000001
 40
-0.9999945757848987
 40
-0.9999945757848987
 40
-0.9999945757848987
 40
-0.9999945757848987
 40
-0.4334852923074896
 40
-0.4334852923074896
 40
-0.1781967014409396
 40
-0.1781967014409396
 40
0.0
 40
0.0
 40
0.0
 40
0.0
 10
5130.250582170292
 20
-279.9673238821799
 30
0.0000000000563712
 41
1.0
 10
5130.250589082269
 20
-279.3159290813535
 30
0.0000000000563712
 41
1.0
 10
5130.204791468622
 20
-279.172730229878
 30
0.0000000000563712
 41
1.0
 10
5130.090077457851
 20
-279.0350360054229
 30
0.0000000000563712
 41
1.0
 10
5130.052461668054
 20
-279.0058644584517
 30
0.0000000000563712
 41
1.0
 10
5129.97805115901
 20
-278.9737329485708
 30
0.0000000000563712
 41
1.0
 10
5129.94772789355
 20
-278.9673184106571
 30
0.0000000000563712
 41
1.0
 10
5129.915849780734
 20
-278.9673222896083
 30
0.0000000000563712
 41
1.0
  0
LINE
  5
C175
330
18
100
AcDbEntity
  8
1PHANTOM
100
AcDbLine
 10
5219.461852605538
 20
-301.967323882179
 30
0.0000000000563712
 11
5219.461852605538
 21
-279.9673238821799
 31
0.0000000000563712
  0
LINE
  5
C176
330
18
100
AcDbEntity
  8
01
100
AcDbLine
 10
5219.87776899645
 20
-302.967323882179
 30
0.0000000000563712
 11
5080.37776899645
 21
-302.967323882179
 31
0.0000000000563712
  0
LINE
  5
C177
330
18
100
AcDbEntity
  8
01
100
AcDbLine
 10
5219.87776899645
 20
-278.9673238821799
 30
0.0000000000563712
 11
5080.37776899645
 21
-278.9673238821799
 31
0.0000000000563712
  0
LINE
  5
C178
330
18
100
AcDbEntity
  8
01
100
AcDbLine
 10
5220.87776899645
 20
-279.9673238821799
 30
0.0000000000563712
 11
5220.87776899645
 21
-301.967323882179
 31
0.0000000000563712
  0
LINE
  5
C179
330
18
100
AcDbEntity
  8
01
100
AcDbLine
 10
5079.37776899645
 20
-279.9673238821799
 30
0.0000000000563712
 11
5079.37776899645
 21
-301.967323882179
 31
0.0000000000563712
  0
ARC
  5
C17A
330
18
100
AcDbEntity
  8
01
100
AcDbCircle
 10
5080.37776899645
 20
-279.9673238821799
 30
0.0000000000563712
 40
1.0
100
AcDbArc
 50
90.0
 51
180.0
  0
ARC
  5
C17B
330
18
100
AcDbEntity
  8
01
100
AcDbCircle
 10
5080.37776899645
 20
-301.967323882179
 30
0.0000000000563712
 40
1.0
100
AcDbArc
 50
180.0
 51
270.0
  0
ARC
  5
C17C
330
18
100
AcDbEntity
  8
01
100
AcDbCircle
 10
5219.87776899645
 20
-301.967323882179
 30
0.0000000000563712
 40
1.0
100
AcDbArc
 50
270.0
 51
0.0
  0
ARC
  5
C17D
330
18
100
AcDbEntity
  8
01
100
AcDbCircle
 10
5219.87776899645
 20
-279.9673238821799
 30
0.0000000000563712
 40
1.0
100
AcDbArc
 50
0.0
 51
90.0
  0
LINE
  5
C17E
330
18
100
AcDbEntity
  8
1PHANTOM
100
AcDbLine
 10
5220.87776899645
 20
-279.9673238821799
 30
0.0000000000563712
 11
5079.37776899645
 21
-279.9673238821799
 31
0.0000000000563712
  0
LINE
  5
C17F
330
18
100
AcDbEntity
  8
1PHANTOM
100
AcDbLine
 10
5079.37776899645
 20
-301.967323882179
 30
0.0000000000563712
 11
5220.87776899645
 21
-301.967323882179
 31
0.0000000000563712
  0
LINE
  5
C180
330
18
100
AcDbEntity
  8
1PHANTOM
100
AcDbLine
 10
5219.87776899645
 20
-302.967323882179
 30
0.0000000000563712
 11
5219.461852605538
 21
-301.967323882179
 31
0.0000000000563712
  0
LINE
  5
C181
330
18
100
AcDbEntity
  8
1PHANTOM
100
AcDbLine
 10
5219.461852605538
 20
-279.9673238821799
 30
0.0000000000563712
 11
5219.87776899645
 21
-278.9673238821799
 31
0.0000000000563712
  0
LINE
  5
C182
330
18
100
AcDbEntity
  8
1PHANTOM
100
AcDbLine
 10
5080.80333495687
 20
-301.967323882179
 30
0.0000000000563712
 11
5080.80333495687
 21
-279.9673238821799
 31
0.0000000000563712
  0
LINE
  5
C183
330
18
100
AcDbEntity
  8
1PHANTOM
100
AcDbLine
 10
5080.37776899645
 20
-302.967323882179
 30
0.0000000000563712
 11
5080.80333495687
 21
-301.967323882179
 31
0.0000000000563712
  0
LINE
  5
C184
330
18
100
AcDbEntity
  8
1PHANTOM
100
AcDbLine
 10
5080.37776899645
 20
-278.9673238821799
 30
0.0000000000563712
 11
5080.80333495687
 21
-279.9673238821799
 31
0.0000000000563712
  0
SPLINE
  5
C185
330
18
100
AcDbEntity
  8
1PHANTOM
100
AcDbSpline
210
0.0
220
0.0
230
1.0
 70
    12
 71
     3
 72
    12
 73
     8
 74
     0
 42
0.0000000001
 43
0.0000000001
 40
-1.00000000984264
 40
-1.00000000984264
 40
-1.00000000984264
 40
-1.00000000984264
 40
-0.8118869786421052
 40
-0.8118869786421052
 40
-0.55203856507019
 40
-0.55203856507019
 40
-0.0000008065681554
 40
-0.0000008065681554
 40
-0.0000008065681554
 40
-0.0000008065681554
 10
5147.5199717794
 20
-302.967325426742
 30
0.0000000000563712
 41
1.0
 10
5147.494615013074
 20
-302.9673682316663
 30
0.0000000000563712
 41
1.0
 10
5147.470708192945
 20
-302.960292559673
 30
0.0000000000563712
 41
1.0
 10
5147.412942519598
 20
-302.925395663344
 30
0.0000000000563712
 41
1.0
 10
5147.384397876905
 20
-302.8947375075784
 30
0.0000000000563712
 41
1.0
 10
5147.300558310711
 20
-302.7550145634552
 30
0.0000000000563712
 41
1.0
 10
5147.267716985723
 20
-302.614945906442
 30
0.0000000000563712
 41
1.0
 10
5147.267761656279
 20
-301.967323882179
 30
0.0000000000563712
 41
1.0
  0
SPLINE
  5
C186
330
18
100
AcDbEntity
  8
1PHANTOM
100
AcDbSpline
210
0.0
220
0.0
230
1.0
 70
    12
 71
     3
 72
    10
 73
     6
 74
     0
 42
0.0000000001
 43
0.0000000001
 40
-1.00000010643774
 40
-1.00000010643774
 40
-1.00000010643774
 40
-1.00000010643774
 40
-0.4680602278773754
 40
-0.4680602278773754
 40
0.0
 40
0.0
 40
0.0
 40
0.0
 10
5147.706507958609
 20
-301.967323882179
 30
0.0000000000563712
 41
1.0
 10
5147.706580838361
 20
-302.6090976677094
 30
0.0000000000563712
 41
1.0
 10
5147.684098757873
 20
-302.7441970523794
 30
0.0000000000563712
 41
1.0
 10
5147.610315575632
 20
-302.9224595885701
 30
0.0000000000563712
 41
1.0
 10
5147.566539376357
 20
-302.9673726891199
 30
0.0000000000563712
 41
1.0
 10
5147.5199717794
 20
-302.967325426742
 30
0.0000000000563712
 41
1.0
  0
SPLINE
  5
C187
330
18
100
AcDbEntity
  8
1PHANTOM
100
AcDbSpline
210
0.0
220
0.0
230
1.0
 70
    12
 71
     3
 72
    12
 73
     8
 74
     0
 42
0.0000000001
 43
0.0000000001
 40
-1.00000021507182
 40
-1.00000021507182
 40
-1.00000021507182
 40
-1.00000021507182
 40
-0.8241534344843816
 40
-0.8241534344843816
 40
-0.5698596209031228
 40
-0.5698596209031228
 40
-0.0000012508799065
 40
-0.0000012508799065
 40
-0.0000012508799065
 40
-0.0000012508799065
 10
5136.970893616064
 20
-302.9673253682633
 30
0.0000000000563712
 41
1.0
 10
5136.939236371758
 20
-302.9673314874556
 30
0.0000000000563712
 41
1.0
 10
5136.909083849708
 20
-302.961078739175
 30
0.0000000000563712
 41
1.0
 10
5136.834698541242
 20
-302.9295998731034
 30
0.0000000000563712
 41
1.0
 10
5136.79688133138
 20
-302.9007726395218
 30
0.0000000000563712
 41
1.0
 10
5136.680619328185
 20
-302.7635667018915
 30
0.0000000000563712
 41
1.0
 10
5136.634003239416
 20
-302.61960750104
 30
0.0000000000563712
 41
1.0
 10
5136.634105003221
 20
-301.967323882179
 30
0.0000000000563712
 41
1.0
  0
SPLINE
  5
C188
330
18
100
AcDbEntity
  8
1PHANTOM
100
AcDbSpline
210
0.0
220
0.0
230
1.0
 70
    12
 71
     3
 72
    10
 73
     6
 74
     0
 42
0.0000000001
 43
0.0000000001
 40
-0.9999978395403766
 40
-0.9999978395403766
 40
-0.9999978395403766
 40
-0.9999978395403766
 40
-0.4577021167197055
 40
-0.4577021167197055
 40
0.0
 40
0.0
 40
0.0
 40
0.0
 10
5137.217599522183
 20
-301.967323882179
 30
0.0000000000563712
 41
1.0
 10
5137.217660487838
 20
-302.6122641125778
 30
0.0000000000563712
 41
1.0
 10
5137.186681761248
 20
-302.7500202107083
 30
0.0000000000563712
 41
1.0
 10
5137.087143691812
 20
-302.9251646221385
 30
0.0000000000563712
 41
1.0
 10
5137.031183909976
 20
-302.967481382753
 30
0.0000000000563712
 41
1.0
 10
5136.970893616064
 20
-302.9673253682633
 30
0.0000000000563712
 41
1.0
  0
SPLINE
  5
C189
330
18
100
AcDbEntity
  8
1PHANTOM
100
AcDbSpline
210
0.0
220
0.0
230
1.0
 70
    12
 71
     3
 72
    10
 73
     6
 74
     0
 42
0.0000000001
 43
0.0000000001
 40
-1.00000000057659
 40
-1.00000000057659
 40
-1.00000000057659
 40
-1.00000000057659
 40
-0.5285282341175929
 40
-0.5285282341175929
 40
-0.0000007664007654
 40
-0.0000007664007654
 40
-0.0000007664007654
 40
-0.0000007664007654
 10
5162.326211569167
 20
-302.9673254650063
 30
0.0000000000563712
 41
1.0
 10
5162.279765782564
 20
-302.9673754342632
 30
0.0000000000563712
 41
1.0
 10
5162.235973695169
 20
-302.921641995041
 30
0.0000000000563712
 41
1.0
 10
5162.163218974893
 20
-302.7423508727145
 30
0.0000000000563712
 41
1.0
 10
5162.141223044268
 20
-302.6081126580996
 30
0.0000000000563712
 41
1.0
 10
5162.141241403989
 20
-301.967323882179
 30
0.0000000000563712
 41
1.0
  0
SPLINE
  5
C18A
330
18
100
AcDbEntity
  8
1PHANTOM
100
AcDbSpline
210
0.0
220
0.0
230
1.0
 70
    12
 71
     3
 72
    12
 73
     8
 74
     0
 42
0.0000000001
 43
0.0000000001
 40
-0.9999790983525996
 40
-0.9999790983525996
 40
-0.9999790983525996
 40
-0.9999790983525996
 40
-0.4245260337330338
 40
-0.4245260337330338
 40
-0.1720316392127929
 40
-0.1720316392127929
 40
0.0
 40
0.0
 40
0.0
 40
0.0
 10
5162.667277779283
 20
-301.967323882179
 30
0.0000000000563712
 41
1.0
 10
5162.667305997677
 20
-302.6211072226317
 30
0.0000000000563712
 41
1.0
 10
5162.619174705238
 20
-302.7663136903145
 30
0.0000000000563712
 41
1.0
 10
5162.500114146777
 20
-302.9026610307631
 30
0.0000000000563712
 41
1.0
 10
5162.461928781356
 20
-302.9309084636645
 30
0.0000000000563712
 41
1.0
 10
5162.387495286269
 20
-302.9613341720926
 30
0.0000000000563712
 41
1.0
 10
5162.357570285304
 20
-302.9673316667192
 30
0.0000000000563712
 41
1.0
 10
5162.326211569167
 20
-302.9673254650063
 30
0.0000000000563712
 41
1.0
  0
SPLINE
  5
C18B
330
18
100
AcDbEntity
  8
1PHANTOM
100
AcDbSpline
210
0.0
220
0.0
230
1.0
 70
    12
 71
     3
 72
    12
 73
     8
 74
     0
 42
0.0000000001
 43
0.0000000001
 40
-1.00000000029583
 40
-1.00000000029583
 40
-1.00000000029583
 40
-1.00000000029583
 40
-0.8281156636894471
 40
-0.8281156636894471
 40
-0.5753462877826026
 40
-0.5753462877826026
 40
-0.0000006936454805
 40
-0.0000006936454805
 40
-0.0000006936454805
 40
-0.0000006936454805
 10
5169.37233999075
 20
-302.9673254749111
 30
0.0000000000563712
 41
1.0
 10
5169.3420368826
 20
-302.9673277422023
 30
0.0000000000563712
 41
1.0
 10
5169.313123658515
 20
-302.961336740151
 30
0.0000000000563712
 41
1.0
 10
5169.24110698706
 20
-302.9309199878601
 30
0.0000000000563712
 41
1.0
 10
5169.204134573038
 20
-302.902644888288
 30
0.0000000000563712
 41
1.0
 10
5169.088960683733
 20
-302.7662360757788
 30
0.0000000000563712
 41
1.0
 10
5169.042421541167
 20
-302.6210554166698
 30
0.0000000000563712
 41
1.0
 10
5169.042428133161
 20
-301.967323882179
 30
0.0000000000563712
 41
1.0
  0
SPLINE
  5
C18C
330
18
100
AcDbEntity
  8
1PHANTOM
100
AcDbSpline
210
0.0
220
0.0
230
1.0
 70
    12
 71
     3
 72
    12
 73
     8
 74
     0
 42
0.0000000001
 43
0.0000000001
 40
-1.00000000029587
 40
-1.00000000029587
 40
-1.00000000029587
 40
-1.00000000029587
 40
-0.4247346840694694
 40
-0.4247346840694694
 40
-0.1719738555979941
 40
-0.1719738555979941
 40
0.0
 40
0.0
 40
0.0
 40
0.0
 10
5169.702251846268
 20
-301.967323882179
 30
0.0000000000563712
 41
1.0
 10
5169.702258550333
 20
-302.6210330435172
 30
0.0000000000563712
 41
1.0
 10
5169.655732225491
 20
-302.7661966646922
 30
0.0000000000563712
 41
1.0
 10
5169.540582146627
 20
-302.9026119561552
 30
0.0000000000563712
 41
1.0
 10
5169.503613198096
 20
-302.9308934362864
 30
0.0000000000563712
 41
1.0
 10
5169.43158566471
 20
-302.9613308507417
 30
0.0000000000563712
 41
1.0
 10
5169.402658804569
 20
-302.967327743246
 30
0.0000000000563712
 41
1.0
 10
5169.37233999075
 20
-302.9673254749111
 30
0.0000000000563712
 41
1.0
  0
SPLINE
  5
C18D
330
18
100
AcDbEntity
  8
1PHANTOM
100
AcDbSpline
210
0.0
220
0.0
230
1.0
 70
    12
 71
     3
 72
    12
 73
     8
 74
     0
 42
0.0000000001
 43
0.0000000001
 40
-1.00000000000065
 40
-1.00000000000065
 40
-1.00000000000065
 40
-1.00000000000065
 40
-0.8301187422604426
 40
-0.8301187422604426
 40
-0.5786903239791849
 40
-0.5786903239791849
 40
-0.0000006636523246
 40
-0.0000006636523246
 40
-0.0000006636523246
 40
-0.0000006636523246
 10
5176.330634513473
 20
-302.967325474888
 30
0.0000000000563712
 41
1.0
 10
5176.300424563138
 20
-302.9673285773417
 30
0.0000000000563712
 41
1.0
 10
5176.271678922499
 20
-302.9614704826997
 30
0.0000000000563712
 41
1.0
 10
5176.199467621783
 20
-302.9316302494228
 30
0.0000000000563712
 41
1.0
 10
5176.162249815196
 20
-302.9037135573174
 30
0.0000000000563712
 41
1.0
 10
5176.045317146745
 20
-302.7678661915436
 30
0.0000000000563712
 41
1.0
 10
5175.997833776662
 20
-302.6219453024489
 30
0.0000000000563712
 41
1.0
 10
5175.997839535069
 20
-301.967323882179
 30
0.0000000000563712
 41
1.0
  0
SPLINE
  5
C18E
330
18
100
AcDbEntity
  8
1PHANTOM
100
AcDbSpline
210
0.0
220
0.0
230
1.0
 70
    12
 71
     3
 72
    12
 73
     8
 74
     0
 42
0.0000000001
 43
0.0000000001
 40
-1.0000000007364
 40
-1.0000000007364
 40
-1.0000000007364
 40
-1.0000000007364
 40
-0.4341062510252106
 40
-0.4341062510252106
 40
-0.1778279396707931
 40
-0.1778279396707931
 40
0.0
 40
0.0
 40
0.0
 40
0.0
 10
5176.63212723282
 20
-301.967323882179
 30
0.0000000000563712
 41
1.0
 10
5176.63213235043
 20
-302.6185430354883
 30
0.0000000000563712
 41
1.0
 10
5176.590950024613
 20
-302.7616265197228
 30
0.0000000000563712
 41
1.0
 10
5176.487682407996
 20
-302.8995351307051
 30
0.0000000000563712
 41
1.0
 10
5176.453695311514
 20
-302.9288147397349
 30
0.0000000000563712
 41
1.0
 10
5176.386547344775
 20
-302.9609340959225
 30
0.0000000000563712
 41
1.0
 10
5176.359288661765
 20
-302.9673260957145
 30
0.0000000000563712
 41
1.0
 10
5176.330634513473
 20
-302.967325474888
 30
0.0000000000563712
 41
1.0
  0
SPLINE
  5
C18F
330
18
100
AcDbEntity
  8
1PHANTOM
100
AcDbSpline
210
0.0
220
0.0
230
1.0
 70
    12
 71
     3
 72
    12
 73
     8
 74
     0
 42
0.0000000001
 43
0.0000000001
 40
-1.00000000073632
 40
-1.00000000073632
 40
-1.00000000073632
 40
-1.00000000073632
 40
-0.8221837509638799
 40
-0.8221837509638799
 40
-0.565886829073162
 40
-0.565886829073162
 40
-0.0000006135449653
 40
-0.0000006135449653
 40
-0.0000006135449653
 40
-0.0000006135449653
 10
5184.270451927866
 20
-302.967325474888
 30
0.0000000000563712
 41
1.0
 10
5184.241799721102
 20
-302.967326095669
 30
0.0000000000563712
 41
1.0
 10
5184.214542710471
 20
-302.9609349143273
 30
0.0000000000563712
 41
1.0
 10
5184.147393457983
 20
-302.9288171653936
 30
0.0000000000563712
 41
1.0
 10
5184.113404201902
 20
-302.8995360666393
 30
0.0000000000563712
 41
1.0
 10
5184.01013607717
 20
-302.7616244989965
 30
0.0000000000563712
 41
1.0
 10
5183.968954179188
 20
-302.6185411906001
 30
0.0000000000563712
 41
1.0
 10
5183.968959207189
 20
-301.967323882179
 30
0.0000000000563712
 41
1.0
  0
SPLINE
  5
C190
330
18
100
AcDbEntity
  8
1PHANTOM
100
AcDbSpline
210
0.0
220
0.0
230
1.0
 70
    12
 71
     3
 72
    12
 73
     8
 74
     0
 42
0.0000000001
 43
0.0000000001
 40
-0.9999865974965946
 40
-0.9999865974965946
 40
-0.9999865974965946
 40
-0.9999865974965946
 40
-0.4214176338820836
 40
-0.4214176338820836
 40
-0.1699582279509027
 40
-0.1699582279509027
 40
-0.0000000000000248
 40
-0.0000000000000248
 40
-0.0000000000000248
 40
-0.0000000000000248
 10
5184.603246905144
 20
-301.967323882179
 30
0.0000000000563712
 41
1.0
 10
5184.603250573106
 20
-302.6219229753945
 30
0.0000000000563712
 41
1.0
 10
5184.555785155204
 20
-302.7678155986771
 30
0.0000000000563712
 41
1.0
 10
5184.438880009108
 20
-302.903677122735
 30
0.0000000000563712
 41
1.0
 10
5184.401660734944
 20
-302.9316046915339
 30
0.0000000000563712
 41
1.0
 10
5184.329433187295
 20
-302.9614654359159
 30
0.0000000000563712
 41
1.0
 10
5184.300675584009
 20
-302.9673285785823
 30
0.0000000000563712
 41
1.0
 10
5184.270451927866
 20
-302.967325474888
 30
0.0000000000563712
 41
1.0
  0
SPLINE
  5
C191
330
18
100
AcDbEntity
  8
1PHANTOM
100
AcDbSpline
210
0.0
220
0.0
230
1.0
 70
    12
 71
     3
 72
    12
 73
     8
 74
     0
 42
0.0000000001
 43
0.0000000001
 40
-1.00000002356595
 40
-1.00000002356595
 40
-1.00000002356595
 40
-1.00000002356595
 40
-0.828058030609997
 40
-0.828058030609997
 40
-0.5754232456153681
 40
-0.5754232456153681
 40
-0.0000006774909363
 40
-0.0000006774909363
 40
-0.0000006774909363
 40
-0.0000006774909363
 10
5191.346671643565
 20
-302.9673254650063
 30
0.0000000000563712
 41
1.0
 10
5191.31532914745
 20
-302.9673316637875
 30
0.0000000000563712
 41
1.0
 10
5191.285418229916
 20
-302.9613400532032
 30
0.0000000000563712
 41
1.0
 10
5191.210972766851
 20
-302.9309255079309
 30
0.0000000000563712
 41
1.0
 10
5191.172768280891
 20
-302.9026662248468
 30
0.0000000000563712
 41
1.0
 10
5191.053698103818
 20
-302.7662879017191
 30
0.0000000000563712
 41
1.0
 10
5191.005573826882
 20
-302.6210840393021
 30
0.0000000000563712
 41
1.0
 10
5191.005605433616
 20
-301.967323882179
 30
0.0000000000563712
 41
1.0
  0
SPLINE
  5
C192
330
18
100
AcDbEntity
  8
1PHANTOM
100
AcDbSpline
210
0.0
220
0.0
230
1.0
 70
    12
 71
     3
 72
    10
 73
     6
 74
     0
 42
0.0000000001
 43
0.0000000001
 40
-0.9999941064771852
 40
-0.9999941064771852
 40
-0.9999941064771852
 40
-0.9999941064771852
 40
-0.4715801571422454
 40
-0.4715801571422454
 40
0.0
 40
0.0
 40
0.0
 40
0.0
 10
5191.531641806588
 20
-301.967323882179
 30
0.0000000000563712
 41
1.0
 10
5191.531659740471
 20
-302.6080828286083
 30
0.0000000000563712
 41
1.0
 10
5191.509673803414
 20
-302.7422926566708
 30
0.0000000000563712
 41
1.0
 10
5191.436933201338
 20
-302.9216145212206
 30
0.0000000000563712
 41
1.0
 10
5191.393126933733
 20
-302.9673754445319
 30
0.0000000000563712
 41
1.0
 10
5191.346671643565
 20
-302.9673254650063
 30
0.0000000000563712
 41
1.0
  0
SPLINE
  5
C193
330
18
100
AcDbEntity
  8
1PHANTOM
100
AcDbSpline
210
0.0
220
0.0
230
1.0
 70
    12
 71
     3
 72
    10
 73
     6
 74
     0
 42
0.0000000001
 43
0.0000000001
 40
-1.00000000452855
 40
-1.00000000452855
 40
-1.00000000452855
 40
-1.00000000452855
 40
-0.5310406101528783
 40
-0.5310406101528783
 40
-0.0000003507526919
 40
-0.0000003507526919
 40
-0.0000003507526919
 40
-0.0000003507526919
 10
5206.126907851904
 20
-302.9673254664151
 30
0.0000000000563712
 41
1.0
 10
5206.080376466001
 20
-302.9673683026592
 30
0.0000000000563712
 41
1.0
 10
5206.036588819045
 20
-302.922235555747
 30
0.0000000000563712
 41
1.0
 10
5205.963038642718
 20
-302.7437017879217
 30
0.0000000000563712
 41
1.0
 10
5205.940653006041
 20
-302.6088332555462
 30
0.0000000000563712
 41
1.0
 10
5205.940663393503
 20
-301.967323882179
 30
0.0000000000563712
 41
1.0
  0
SPLINE
  5
C194
330
18
100
AcDbEntity
  8
1PHANTOM
100
AcDbSpline
210
0.0
220
0.0
230
1.0
 70
    12
 71
     3
 72
    12
 73
     8
 74
     0
 42
0.0000000001
 43
0.0000000001
 40
-0.9999944166495882
 40
-0.9999944166495882
 40
-0.9999944166495882
 40
-0.9999944166495882
 40
-0.4383660470629285
 40
-0.4383660470629285
 40
-0.1805991554149991
 40
-0.1805991554149991
 40
0.0
 40
0.0
 40
0.0
 40
0.0
 10
5206.413573438994
 20
-301.967323882179
 30
0.0000000000563712
 41
1.0
 10
5206.413599933603
 20
-302.6174206514154
 30
0.0000000000563712
 41
1.0
 10
5206.375004971385
 20
-302.75956508684
 30
0.0000000000563712
 41
1.0
 10
5206.277692269035
 20
-302.8981104699244
 30
0.0000000000563712
 41
1.0
 10
5206.245309579628
 20
-302.9278387143133
 30
0.0000000000563712
 41
1.0
 10
5206.18087833608
 20
-302.9607489233233
 30
0.0000000000563712
 41
1.0
 10
5206.154583794793
 20
-302.967328789113
 30
0.0000000000563712
 41
1.0
 10
5206.126907851904
 20
-302.9673254664151
 30
0.0000000000563712
 41
1.0
  0
SPLINE
  5
C195
330
18
100
AcDbEntity
  8
1PHANTOM
100
AcDbSpline
210
0.0
220
0.0
230
1.0
 70
    12
 71
     3
 72
    12
 73
     8
 74
     0
 42
0.0000000001
 43
0.0000000001
 40
-1.00000037223214
 40
-1.00000037223214
 40
-1.00000037223214
 40
-1.00000037223214
 40
-0.8129154162611391
 40
-0.8129154162611391
 40
-0.5531721574106007
 40
-0.5531721574106007
 40
-0.0000001546292806
 40
-0.0000001546292806
 40
-0.0000001546292806
 40
-0.0000001546292806
 10
5215.04221188603
 20
-302.9673252894438
 30
0.0000000000563712
 41
1.0
 10
5215.014631968987
 20
-302.9673265690819
 30
0.0000000000563712
 41
1.0
 10
5214.988615600704
 20
-302.9602920085729
 30
0.0000000000563712
 41
1.0
 10
5214.925679361671
 20
-302.925604259746
 30
0.0000000000563712
 41
1.0
 10
5214.894645461735
 20
-302.8950312622085
 30
0.0000000000563712
 41
1.0
 10
5214.802667077432
 20
-302.7554115945106
 30
0.0000000000563712
 41
1.0
 10
5214.766438301954
 20
-302.6151718399917
 30
0.0000000000563712
 41
1.0
 10
5214.766580535815
 20
-301.967323882179
 30
0.0000000000563712
 41
1.0
  0
SPLINE
  5
C196
330
18
100
AcDbEntity
  8
1PHANTOM
100
AcDbSpline
210
0.0
220
0.0
230
1.0
 70
    12
 71
     3
 72
    12
 73
     8
 74
     0
 42
0.0000000001
 43
0.0000000001
 40
-1.0000000067847
 40
-1.0000000067847
 40
-1.0000000067847
 40
-1.0000000067847
 40
-0.40771766120655
 40
-0.40771766120655
 40
-0.1635091726416399
 40
-0.1635091726416399
 40
0.0
 40
0.0
 40
0.0
 40
0.0
 10
5215.414073370958
 20
-301.967323882179
 30
0.0000000000563712
 41
1.0
 10
5215.414200220172
 20
-302.6257276124745
 30
0.0000000000563712
 41
1.0
 10
5215.35863179387
 20
-302.7747460905678
 30
0.0000000000563712
 41
1.0
 10
5215.224788611267
 20
-302.9079375536628
 30
0.0000000000563712
 41
1.0
 10
5215.183914092879
 20
-302.9342850206897
 30
0.0000000000563712
 41
1.0
 10
5215.105680448905
 20
-302.9620111998854
 30
0.0000000000563712
 41
1.0
 10
5215.074690765431
 20
-302.9673994973793
 30
0.0000000000563712
 41
1.0
 10
5215.04221188603
 20
-302.9673252894438
 30
0.0000000000563712
 41
1.0
  0
SPLINE
  5
C197
330
18
100
AcDbEntity
  8
1PHANTOM
100
AcDbSpline
210
0.0
220
0.0
230
1.0
 70
    12
 71
     3
 72
    12
 73
     8
 74
     0
 42
0.0000000001
 43
0.0000000001
 40
-1.000000001662
 40
-1.000000001662
 40
-1.000000001662
 40
-1.000000001662
 40
-0.8198959261932297
 40
-0.8198959261932297
 40
-0.5629353698987167
 40
-0.5629353698987167
 40
0.0
 40
0.0
 40
0.0
 40
0.0
 10
5087.058045767602
 20
-302.9673253963635
 30
0.0000000000563712
 41
1.0
 10
5087.028787306685
 20
-302.967378992221
 30
0.0000000000563712
 41
1.0
 10
5087.000984868957
 20
-302.9608726100362
 30
0.0000000000563712
 41
1.0
 10
5086.932876244497
 20
-302.9282185326913
 30
0.0000000000563712
 41
1.0
 10
5086.8985927245
 20
-302.8986696320505
 30
0.0000000000563712
 41
1.0
 10
5086.795092780521
 20
-302.7603746347088
 30
0.0000000000563712
 41
1.0
 10
5086.753973378032
 20
-302.617869558969
 30
0.0000000000563712
 41
1.0
 10
5086.754044490046
 20
-301.967323882179
 30
0.0000000000563712
 41
1.0
  0
SPLINE
  5
C198
330
18
100
AcDbEntity
  8
1PHANTOM
100
AcDbSpline
210
0.0
220
0.0
230
1.0
 70
    12
 71
     3
 72
    12
 73
     8
 74
     0
 42
0.0000000001
 43
0.0000000001
 40
-1.00000015778253
 40
-1.00000015778253
 40
-1.00000015778253
 40
-1.00000015778253
 40
-0.4104555635630154
 40
-0.4104555635630154
 40
-0.1647617661271124
 40
-0.1647617661271124
 40
0.0
 40
0.0
 40
0.0
 40
0.0
 10
5087.428235698458
 20
-301.967323882179
 30
0.0000000000563712
 41
1.0
 10
5087.428307229217
 20
-302.6248180138762
 30
0.0000000000563712
 41
1.0
 10
5087.373540925234
 20
-302.7730977991298
 30
0.0000000000563712
 41
1.0
 10
5087.240956417596
 20
-302.9068624047052
 30
0.0000000000563712
 41
1.0
 10
5087.200112436765
 20
-302.9335583608806
 30
0.0000000000563712
 41
1.0
 10
5087.121689629996
 20
-302.9617961862962
 30
0.0000000000563712
 41
1.0
 10
5087.090639543898
 20
-302.9673244833723
 30
0.0000000000563712
 41
1.0
 10
5087.058045767602
 20
-302.9673253963635
 30
0.0000000000563712
 41
1.0
  0
SPLINE
  5
C199
330
18
100
AcDbEntity
  8
1PHANTOM
100
AcDbSpline
210
0.0
220
0.0
230
1.0
 70
    12
 71
     3
 72
    12
 73
     8
 74
     0
 42
0.0000000001
 43
0.0000000001
 40
-1.0000000641239
 40
-1.0000000641239
 40
-1.0000000641239
 40
-1.0000000641239
 40
-0.8307509881114197
 40
-0.8307509881114197
 40
-0.5821065728779191
 40
-0.5821065728779191
 40
0.0
 40
0.0
 40
0.0
 40
0.0
 10
5092.94308996912
 20
-302.9673254496204
 30
0.0000000000563712
 41
1.0
 10
5092.908661640496
 20
-302.9673304822079
 30
0.0000000000563712
 41
1.0
 10
5092.875754793831
 20
-302.9615162847942
 30
0.0000000000563712
 41
1.0
 10
5092.793910486288
 20
-302.9320306281904
 30
0.0000000000563712
 41
1.0
 10
5092.751719857032
 20
-302.9045544240337
 30
0.0000000000563712
 41
1.0
 10
5092.61735104653
 20
-302.7695150622051
 30
0.0000000000563712
 41
1.0
 10
5092.562418370439
 20
-302.6228487718629
 30
0.0000000000563712
 41
1.0
 10
5092.562458464964
 20
-301.967323882179
 30
0.0000000000563712
 41
1.0
  0
SPLINE
  5
C19A
330
18
100
AcDbEntity
  8
1PHANTOM
100
AcDbSpline
210
0.0
220
0.0
230
1.0
 70
    12
 71
     3
 72
    10
 73
     6
 74
     0
 42
0.0000000001
 43
0.0000000001
 40
-0.9999861017683267
 40
-0.9999861017683267
 40
-0.9999861017683267
 40
-0.9999861017683267
 40
-0.4698984563185891
 40
-0.4698984563185891
 40
0.0
 40
0.0
 40
0.0
 40
0.0
 10
5093.146733579147
 20
-301.967323882179
 30
0.0000000000563712
 41
1.0
 10
5093.146764373656
 20
-302.608632645379
 30
0.0000000000563712
 41
1.0
 10
5093.122402791276
 20
-302.7432718031898
 30
0.0000000000563712
 41
1.0
 10
5093.042017280814
 20
-302.922113960323
 30
0.0000000000563712
 41
1.0
 10
5092.994078676621
 20
-302.9674042373492
 30
0.0000000000563712
 41
1.0
 10
5092.94308996912
 20
-302.9673254496204
 30
0.0000000000563712
 41
1.0
  0
SPLINE
  5
C19B
330
18
100
AcDbEntity
  8
1PHANTOM
100
AcDbSpline
210
0.0
220
0.0
230
1.0
 70
    12
 71
     3
 72
    10
 73
     6
 74
     0
 42
0.0000000001
 43
0.0000000001
 40
-1.00000000002863
 40
-1.00000000002863
 40
-1.00000000002863
 40
-1.00000000002863
 40
-0.5397453102381335
 40
-0.5397453102381335
 40
0.0
 40
0.0
 40
0.0
 40
0.0
 10
5106.068488318826
 20
-302.9673254638508
 30
0.0000000000563712
 41
1.0
 10
5106.017189309449
 20
-302.9673773938678
 30
0.0000000000563712
 41
1.0
 10
5105.969356102155
 20
-302.9243707090206
 30
0.0000000000563712
 41
1.0
 10
5105.885627260454
 20
-302.7484705798822
 30
0.0000000000563712
 41
1.0
 10
5105.859631611845
 20
-302.6114016144122
 30
0.0000000000563712
 41
1.0
 10
5105.859657194374
 20
-301.967323882179
 30
0.0000000000563712
 41
1.0
  0
SPLINE
  5
C19C
330
18
100
AcDbEntity
  8
1PHANTOM
100
AcDbSpline
210
0.0
220
0.0
230
1.0
 70
    12
 71
     3
 72
    10
 73
     6
 74
     0
 42
0.0000000001
 43
0.0000000001
 40
-1.0000000127271
 40
-1.0000000127271
 40
-1.0000000127271
 40
-1.0000000127271
 40
-0.4664870960439885
 40
-0.4664870960439885
 40
0.0
 40
0.0
 40
0.0
 40
0.0
 10
5106.255955863674
 20
-301.967323882179
 30
0.0000000000563712
 41
1.0
 10
5106.255990684911
 20
-302.6095425864644
 30
0.0000000000563712
 41
1.0
 10
5106.233236908086
 20
-302.7450244836448
 30
0.0000000000563712
 41
1.0
 10
5106.158910708938
 20
-302.9228117795103
 30
0.0000000000563712
 41
1.0
 10
5106.115115153508
 20
-302.9673651362975
 30
0.0000000000563712
 41
1.0
 10
5106.068488318826
 20
-302.9673254638508
 30
0.0000000000563712
 41
1.0
  0
SPLINE
  5
C19D
330
18
100
AcDbEntity
  8
1PHANTOM
100
AcDbSpline
210
0.0
220
0.0
230
1.0
 70
    12
 71
     3
 72
    10
 73
     6
 74
     0
 42
0.0000000001
 43
0.0000000001
 40
-1.00000000452855
 40
-1.00000000452855
 40
-1.00000000452855
 40
-1.00000000452855
 40
-0.5310406099419931
 40
-0.5310406099419931
 40
0.0
 40
0.0
 40
0.0
 40
0.0
 10
5120.953558682361
 20
-302.9673254664151
 30
0.0000000000563712
 41
1.0
 10
5120.907027296407
 20
-302.9673683026597
 30
0.0000000000563712
 41
1.0
 10
5120.863239649415
 20
-302.9222355556396
 30
0.0000000000563712
 41
1.0
 10
5120.789689447307
 20
-302.7437017249106
 30
0.0000000000563712
 41
1.0
 10
5120.767303806942
 20
-302.6088330774267
 30
0.0000000000563712
 41
1.0
 10
5120.767314223984
 20
-301.967323882179
 30
0.0000000000563712
 41
1.0
  0
SPLINE
  5
C19E
330
18
100
AcDbEntity
  8
1PHANTOM
100
AcDbSpline
210
0.0
220
0.0
230
1.0
 70
    12
 71
     3
 72
    12
 73
     8
 74
     0
 42
0.0000000001
 43
0.0000000001
 40
-0.9999944168521089
 40
-0.9999944168521089
 40
-0.9999944168521089
 40
-0.9999944168521089
 40
-0.4383660470794983
 40
-0.4383660470794983
 40
-0.1805991554450586
 40
-0.1805991554450586
 40
0.0
 40
0.0
 40
0.0
 40
0.0
 10
5121.240224269451
 20
-301.967323882179
 30
0.0000000000563712
 41
1.0
 10
5121.240250764088
 20
-302.6174206513081
 30
0.0000000000563712
 41
1.0
 10
5121.201655801869
 20
-302.7595650867972
 30
0.0000000000563712
 41
1.0
 10
5121.104343099501
 20
-302.8981104699153
 30
0.0000000000563712
 41
1.0
 10
5121.071960410097
 20
-302.9278387143052
 30
0.0000000000563712
 41
1.0
 10
5121.007529166546
 20
-302.9607489233215
 30
0.0000000000563712
 41
1.0
 10
5120.981234625256
 20
-302.967328789113
 30
0.0000000000563712
 41
1.0
 10
5120.953558682361
 20
-302.9673254664151
 30
0.0000000000563712
 41
1.0
  0
SPLINE
  5
C19F
330
18
100
AcDbEntity
  8
1PHANTOM
100
AcDbSpline
210
0.0
220
0.0
230
1.0
 70
    12
 71
     3
 72
    12
 73
     8
 74
     0
 42
0.0000000001
 43
0.0000000001
 40
-1.0000000009217
 40
-1.0000000009217
 40
-1.0000000009217
 40
-1.0000000009217
 40
-0.8096653603729745
 40
-0.8096653603729745
 40
-0.5489490148442486
 40
-0.5489490148442486
 40
0.0
 40
0.0
 40
0.0
 40
0.0
 10
5129.915849780734
 20
-302.9673254747506
 30
0.0000000000563712
 41
1.0
 10
5129.887435141824
 20
-302.9673271921049
 30
0.0000000000563712
 41
1.0
 10
5129.860614003681
 20
-302.9600595362847
 30
0.0000000000563712
 41
1.0
 10
5129.796353040781
 20
-302.9244657601887
 30
0.0000000000563712
 41
1.0
 10
5129.764965019674
 20
-302.8934682383326
 30
0.0000000000563712
 41
1.0
 10
5129.672771699552
 20
-302.7533256238632
 30
0.0000000000563712
 41
1.0
 10
5129.636597864826
 20
-302.6140596150165
 30
0.0000000000563712
 41
1.0
 10
5129.636605045049
 20
-301.967323882179
 30
0.0000000000563712
 41
1.0
  0
SPLINE
  5
C1A0
330
18
100
AcDbEntity
  8
1PHANTOM
100
AcDbSpline
210
0.0
220
0.0
230
1.0
 70
    12
 71
     3
 72
    12
 73
     8
 74
     0
 42
0.0000000001
 43
0.0000000001
 40
-0.9999945757848987
 40
-0.9999945757848987
 40
-0.9999945757848987
 40
-0.9999945757848987
 40
-0.4334852923074896
 40
-0.4334852923074896
 40
-0.1781967014409396
 40
-0.1781967014409396
 40
0.0
 40
0.0
 40
0.0
 40
0.0
 10
5130.250582170292
 20
-301.967323882179
 30
0.0000000000563712
 41
1.0
 10
5130.250589082269
 20
-302.618718683005
 30
0.0000000000563712
 41
1.0
 10
5130.204791468622
 20
-302.761917534481
 30
0.0000000000563712
 41
1.0
 10
5130.090077457851
 20
-302.8996117589361
 30
0.0000000000563712
 41
1.0
 10
5130.052461668054
 20
-302.9287833059072
 30
0.0000000000563712
 41
1.0
 10
5129.97805115901
 20
-302.9609148157881
 30
0.0000000000563712
 41
1.0
 10
5129.94772789355
 20
-302.9673293537019
 30
0.0000000000563712
 41
1.0
 10
5129.915849780734
 20
-302.9673254747506
 30
0.0000000000563712
 41
1.0
  0
LINE
  5
C1A1
330
18
100
AcDbEntity
  8
01
100
AcDbLine
 10
5010.977768997268
 20
-278.9673238821799
 30
0.0000000000563712
 11
5006.477768997267
 21
-278.9673238821799
 31
0.0000000000563712
  0
ARC
  5
C1A2
330
18
100
AcDbEntity
  8
01
100
AcDbCircle
 10
5006.477768997267
 20
-279.4673238821799
 30
0.0000000000563712
 40
0.5
100
AcDbArc
 50
90.0
 51
180.0
  0
ARC
  5
C1A3
330
18
100
AcDbEntity
  8
01
100
AcDbCircle
 10
5010.977768997268
 20
-279.9673238821799
 30
0.0000000000563712
 40
1.0
100
AcDbArc
 50
0.0
 51
90.0
  0
ARC
  5
C1A4
330
18
100
AcDbEntity
  8
01
100
AcDbCircle
 10
5010.977768997268
 20
-301.9673238821799
 30
0.0000000000563712
 40
1.0
100
AcDbArc
 50
270.0
 51
0.0
  0
LINE
  5
C1A5
330
18
100
AcDbEntity
  8
01
100
AcDbLine
 10
5010.977768997268
 20
-302.9673238821799
 30
0.0000000000563712
 11
5006.477768997267
 21
-302.9673238821799
 31
0.0000000000563712
  0
LINE
  5
C1A6
330
18
100
AcDbEntity
  8
01
100
AcDbLine
 10
5005.977768997267
 20
-279.4673238821799
 30
0.0000000000563712
 11
5005.977768997267
 21
-302.4673238821799
 31
0.0000000000563712
  0
ARC
  5
C1A7
330
18
100
AcDbEntity
  8
01
100
AcDbCircle
 10
5006.477768997267
 20
-302.4673238821799
 30
0.0000000000563712
 40
0.5
100
AcDbArc
 50
180.0
 51
270.0
  0
LINE
  5
C1A8
330
18
100
AcDbEntity
  8
01
100
AcDbLine
 10
5005.977768997267
 20
-279.9673238821799
 30
0.0000000000563712
 11
5004.977768997267
 21
-279.9673238821799
 31
0.0000000000563712
  0
LINE
  5
C1A9
330
18
100
AcDbEntity
  8
01
100
AcDbLine
 10
5004.977768997267
 20
-279.9673238821799
 30
0.0000000000563712
 11
5004.977768997267
 21
-301.967323882179
 31
0.0000000000563712
  0
LINE
  5
C1AA
330
18
100
AcDbEntity
  8
01
100
AcDbLine
 10
5005.977768997267
 20
-301.967323882179
 30
0.0000000000563712
 11
5004.977768997267
 21
-301.967323882179
 31
0.0000000000563712
  0
SPLINE
  5
C1AB
330
18
100
AcDbEntity
  8
1PHANTOM
100
AcDbSpline
210
0.0
220
0.0
230
1.0
 70
    24
 71
     2
 72
     6
 73
     3
 74
     0
 42
0.0000000001
 43
0.0000000001
 40
0.0
 40
0.0
 40
0.0
 40
0.9999999999999147
 40
0.9999999999999147
 40
0.9999999999999147
 10
5010.977768997268
 20
-279.9673238821795
 30
0.0000000000563712
 10
5011.477768997268
 20
-279.9673238821795
 30
0.0000000000563712
 10
5011.977768997268
 20
-279.9673238821795
 30
0.0000000000563712
  0
SPLINE
  5
C1AC
330
18
100
AcDbEntity
  8
1PHANTOM
100
AcDbSpline
210
0.0
220
0.0
230
1.0
 70
    24
 71
     2
 72
     6
 73
     3
 74
     0
 42
0.0000000001
 43
0.0000000001
 40
0.0
 40
0.0
 40
0.0
 40
4.500000000000028
 40
4.500000000000028
 40
4.500000000000028
 10
5006.477768997268
 20
-279.9673238821795
 30
0.0000000000563712
 10
5008.727768997268
 20
-279.9673238821795
 30
0.0000000000563712
 10
5010.977768997268
 20
-279.9673238821795
 30
0.0000000000563712
  0
SPLINE
  5
C1AD
330
18
100
AcDbEntity
  8
1PHANTOM
100
AcDbSpline
210
0.0
220
0.0
230
1.0
 70
    24
 71
     2
 72
     6
 73
     3
 74
     0
 42
0.0000000001
 43
0.0000000001
 40
0.0
 40
0.0
 40
0.0
 40
22.0
 40
22.0
 40
22.0
 10
5006.477768997268
 20
-301.9673238821795
 30
0.0000000000563712
 10
5006.477768997268
 20
-290.9673238821795
 30
0.0000000000563712
 10
5006.477768997268
 20
-279.9673238821795
 30
0.0000000000563712
  0
SPLINE
  5
C1AE
330
18
100
AcDbEntity
  8
1PHANTOM
100
AcDbSpline
210
0.0
220
0.0
230
1.0
 70
    24
 71
     2
 72
     6
 73
     3
 74
     0
 42
0.0000000001
 43
0.0000000001
 40
0.0
 40
0.0
 40
0.0
 40
4.500000000000171
 40
4.500000000000171
 40
4.500000000000171
 10
5010.977768997268
 20
-301.9673238821795
 30
0.0000000000563712
 10
5008.727768997268
 20
-301.9673238821795
 30
0.0000000000563712
 10
5006.477768997268
 20
-301.9673238821795
 30
0.0000000000563712
  0
SPLINE
  5
C1AF
330
18
100
AcDbEntity
  8
1PHANTOM
100
AcDbSpline
210
0.0
220
0.0
230
1.0
 70
    24
 71
     2
 72
     6
 73
     3
 74
     0
 42
0.0000000001
 43
0.0000000001
 40
0.0
 40
0.0
 40
0.0
 40
0.9990058067079804
 40
0.9990058067079804
 40
0.9990058067079804
 10
5006.477768997268
 20
-301.9673238821795
 30
0.0000000000563712
 10
5006.477768997268
 20
-302.4668267855334
 30
0.0000000000563712
 10
5006.477768997268
 20
-302.9663296888878
 30
0.0000000000563712
  0
SPLINE
  5
C1B0
330
18
100
AcDbEntity
  8
1PHANTOM
100
AcDbSpline
210
0.0
220
0.0
230
1.0
 70
    24
 71
     2
 72
     6
 73
     3
 74
     0
 42
0.0000000001
 43
0.0000000001
 40
0.0
 40
0.0
 40
0.0
 40
0.5
 40
0.5
 40
0.5
 10
5006.477768997268
 20
-301.9673238821795
 30
0.0000000000563712
 10
5006.227768997268
 20
-301.967323882179
 30
0.0000000000563712
 10
5005.977768997268
 20
-301.9673238821781
 30
0.0000000000563712
  0
SPLINE
  5
C1B1
330
18
100
AcDbEntity
  8
1PHANTOM
100
AcDbSpline
210
0.0
220
0.0
230
1.0
 70
    24
 71
     2
 72
     6
 73
     3
 74
     0
 42
0.0000000001
 43
0.0000000001
 40
0.0
 40
0.0
 40
0.0
 40
0.5
 40
0.5
 40
0.5
 10
5005.977768997268
 20
-279.9673238821817
 30
0.0000000000563712
 10
5006.227768997268
 20
-279.9673238821808
 30
0.0000000000563712
 10
5006.477768997268
 20
-279.9673238821795
 30
0.0000000000563712
  0
SPLINE
  5
C1B2
330
18
100
AcDbEntity
  8
1PHANTOM
100
AcDbSpline
210
0.0
220
0.0
230
1.0
 70
    24
 71
     2
 72
     6
 73
     3
 74
     0
 42
0.0000000001
 43
0.0000000001
 40
0.0
 40
0.0
 40
0.0
 40
1.0
 40
1.0
 40
1.0
 10
5006.477768997268
 20
-279.9673238821795
 30
0.0000000000563712
 10
5006.477768997268
 20
-279.4673238821795
 30
0.0000000000563712
 10
5006.477768997268
 20
-278.9673238821795
 30
0.0000000000563712
  0
SPLINE
  5
C1B3
330
18
100
AcDbEntity
  8
1PHANTOM
100
AcDbSpline
210
0.0
220
0.0
230
1.0
 70
    24
 71
     2
 72
     6
 73
     3
 74
     0
 42
0.0000000001
 43
0.0000000001
 40
0.0
 40
0.0
 40
0.0
 40
0.9999999999999716
 40
0.9999999999999716
 40
0.9999999999999716
 10
5010.977768997268
 20
-301.9673238821795
 30
0.0000000000563712
 10
5010.977768997268
 20
-302.4673238821795
 30
0.0000000000563712
 10
5010.977768997268
 20
-302.9673238821795
 30
0.0000000000563712
  0
SPLINE
  5
C1B4
330
18
100
AcDbEntity
  8
1PHANTOM
100
AcDbSpline
210
0.0
220
0.0
230
1.0
 70
    24
 71
     2
 72
     6
 73
     3
 74
     0
 42
0.0000000001
 43
0.0000000001
 40
0.0
 40
0.0
 40
0.0
 40
0.9990058067055259
 40
0.9990058067055259
 40
0.9990058067055259
 10
5010.977768997268
 20
-301.9673238821795
 30
0.0000000000563712
 10
5011.477271900621
 20
-301.9673238821795
 30
0.0000000000563712
 10
5011.976774803974
 20
-301.9673238821799
 30
0.0000000000563712
  0
SPLINE
  5
C1B5
330
18
100
AcDbEntity
  8
1PHANTOM
100
AcDbSpline
210
0.0
220
0.0
230
1.0
 70
    24
 71
     2
 72
     6
 73
     3
 74
     0
 42
0.0000000001
 43
0.0000000001
 40
0.0
 40
0.0
 40
0.0
 40
0.9999999999999716
 40
0.9999999999999716
 40
0.9999999999999716
 10
5010.977768997268
 20
-279.9673238821795
 30
0.0000000000563712
 10
5010.977768997268
 20
-279.4673238821795
 30
0.0000000000563712
 10
5010.977768997268
 20
-278.9673238821799
 30
0.0000000000563712
  0
LINE
  5
C1B6
330
18
100
AcDbEntity
  8
01
100
AcDbLine
 10
5011.977768997268
 20
-301.9673238821799
 30
0.0000000000563712
 11
5011.977768997268
 21
-279.9673238821795
 31
0.0000000000563712
  0
LINE
  5
C1B7
330
18
100
AcDbEntity
  8
1PHANTOM
100
AcDbLine
 10
5010.977768997268
 20
-301.9673238821795
 30
0.0000000000563712
 11
5010.977768997268
 21
-279.9673238821795
 31
0.0000000000563712
  0
LINE
  5
C1B8
330
18
100
AcDbEntity
  8
01
100
AcDbLine
 10
5080.37776899645
 20
-180.0686421961009
 30
0.0000000000563712
 11
5219.87776899645
 21
-180.0686421961009
 31
0.0000000000563712
  0
LINE
  5
C1B9
330
18
100
AcDbEntity
  8
01
100
AcDbLine
 10
5080.37776899645
 20
-180.0686421961009
 30
0.0000000000563712
 11
5080.37776899645
 21
-181.0686421961009
 31
0.0000000000563712
  0
LINE
  5
C1BA
330
18
100
AcDbEntity
  8
01
100
AcDbLine
 10
5219.87776899645
 20
-180.0686421961009
 30
0.0000000000563712
 11
5219.87776899645
 21
-181.0686421960995
 31
0.0000000000563712
  0
ARC
  5
C1BB
330
18
100
AcDbEntity
  8
01
100
AcDbCircle
 10
5220.37776899645
 20
-181.5686421961004
 30
0.0000000000563712
 40
0.5
100
AcDbArc
 50
0.0
 51
90.0
  0
LINE
  5
C1BC
330
18
100
AcDbEntity
  8
01
100
AcDbLine
 10
5220.37776899645
 20
-181.0686421961009
 30
0.0000000000563712
 11
5079.87776899645
 21
-181.0686421961009
 31
0.0000000000563712
  0
ARC
  5
C1BD
330
18
100
AcDbEntity
  8
01
100
AcDbCircle
 10
5079.87776899645
 20
-181.5686421961009
 30
0.0000000000563712
 40
0.5
100
AcDbArc
 50
90.0
 51
180.0
  0
SPLINE
  5
C1BE
330
18
100
AcDbEntity
  8
1PHANTOM
100
AcDbSpline
210
0.0
220
0.0
230
1.0
 70
    24
 71
     2
 72
     6
 73
     3
 74
     0
 42
0.0000000001
 43
0.0000000001
 40
0.0
 40
0.0
 40
0.0
 40
139.4999999999999
 40
139.4999999999999
 40
139.4999999999999
 10
5219.877768996445
 20
-181.5686421961018
 30
0.0000000000563712
 10
5150.127768996445
 20
-181.5686421961018
 30
0.0000000000563712
 10
5080.377768996445
 20
-181.5686421961018
 30
0.0000000000563712
  0
SPLINE
  5
C1BF
330
18
100
AcDbEntity
  8
1PHANTOM
100
AcDbSpline
210
0.0
220
0.0
230
1.0
 70
    24
 71
     2
 72
     6
 73
     3
 74
     0
 42
0.0000000001
 43
0.0000000001
 40
0.0
 40
0.0
 40
0.0
 40
0.5
 40
0.5
 40
0.5
 10
5219.877768996445
 20
-181.5686421961018
 30
0.0000000000563712
 10
5219.877768996444
 20
-181.3186421961018
 30
0.0000000000563712
 10
5219.877768996444
 20
-181.0686421961018
 30
0.0000000000563712
  0
SPLINE
  5
C1C0
330
18
100
AcDbEntity
  8
1PHANTOM
100
AcDbSpline
210
0.0
220
0.0
230
1.0
 70
    24
 71
     2
 72
     6
 73
     3
 74
     0
 42
0.0000000001
 43
0.0000000001
 40
0.0
 40
0.0
 40
0.0
 40
0.5
 40
0.5
 40
0.5
 10
5080.377768996447
 20
-181.0686421961018
 30
0.0000000000563712
 10
5080.377768996445
 20
-181.3186421961018
 30
0.0000000000563712
 10
5080.377768996445
 20
-181.5686421961018
 30
0.0000000000563712
  0
SPLINE
  5
C1C1
330
18
100
AcDbEntity
  8
1PHANTOM
100
AcDbSpline
210
0.0
220
0.0
230
1.0
 70
    24
 71
     2
 72
     6
 73
     3
 74
     0
 42
0.0000000001
 43
0.0000000001
 40
0.0
 40
0.0
 40
0.0
 40
1.000000000001251
 40
1.000000000001251
 40
1.000000000001251
 10
5220.877768996445
 20
-181.5686421961018
 30
0.0000000000563712
 10
5220.377768996445
 20
-181.5686421961018
 30
0.0000000000563712
 10
5219.877768996445
 20
-181.5686421961018
 30
0.0000000000563712
  0
SPLINE
  5
C1C2
330
18
100
AcDbEntity
  8
1PHANTOM
100
AcDbSpline
210
0.0
220
0.0
230
1.0
 70
    24
 71
     2
 72
     6
 73
     3
 74
     0
 42
0.0000000001
 43
0.0000000001
 40
0.0
 40
0.0
 40
0.0
 40
1.000000000000654
 40
1.000000000000654
 40
1.000000000000654
 10
5080.377768996445
 20
-181.5686421961018
 30
0.0000000000563712
 10
5079.877768996445
 20
-181.5686421961018
 30
0.0000000000563712
 10
5079.377768996444
 20
-181.5686421961018
 30
0.0000000000563712
  0
LINE
  5
C1C3
330
18
100
AcDbEntity
  8
01
100
AcDbLine
 10
5220.877768996445
 20
-181.5686421961018
 30
0.0000000000563712
 11
5220.877768996446
 21
-184.9757705417242
 31
0.0000000000563712
  0
LINE
  5
C1C4
330
18
100
AcDbEntity
  8
01
100
AcDbLine
 10
5079.377768996445
 20
-181.5686421961018
 30
0.0000000000563712
 11
5079.377768996446
 21
-185.2114029974141
 31
0.0000000000563712
  0
ARC
  5
C1C5
330
18
100
AcDbEntity
  8
01
100
AcDbCircle
 10
5215.042924879615
 20
-186.3876266732582
 30
0.0000000000563712
 40
0.5000000000000061
100
AcDbArc
 50
236.4487130116746
 51
317.9526416750142
  0
ARC
  5
C1C6
330
18
100
AcDbEntity
  8
01
100
AcDbCircle
 10
5206.126782660562
 20
-186.5002992445689
 30
0.0000000000563712
 40
0.500000000000009
100
AcDbArc
 50
248.1432648590845
 51
304.999294217997
  0
ARC
  5
C1C7
330
18
100
AcDbEntity
  8
01
100
AcDbCircle
 10
5191.346767281146
 20
-186.4805529007517
 30
0.0000000000563712
 40
0.5
100
AcDbArc
 50
226.9757199499179
 51
291.703639023035
  0
ARC
  5
C1C8
330
18
100
AcDbEntity
  8
01
100
AcDbCircle
 10
5184.270479028946
 20
-186.4003166080111
 30
0.0000000000563712
 40
0.4999999999999972
100
AcDbArc
 50
232.912959205864
 51
311.7250102147015
  0
ARC
  5
C1C9
330
18
100
AcDbEntity
  8
01
100
AcDbCircle
 10
5176.330615969472
 20
-186.4003166080111
 30
0.0000000000563712
 40
0.500000000000007
100
AcDbArc
 50
228.2749897852985
 51
307.087040794136
  0
ARC
  5
C1CA
330
18
100
AcDbEntity
  8
01
100
AcDbCircle
 10
5169.372344268935
 20
-186.3737087365871
 30
0.0000000000563712
 40
0.5000000000000114
100
AcDbArc
 50
228.7131765560837
 51
311.2868234438208
  0
ARC
  5
C1CB
330
18
100
AcDbEntity
  8
01
100
AcDbCircle
 10
5162.326124486998
 20
-186.4805529007517
 30
0.0000000000563712
 40
0.4999999999999996
100
AcDbArc
 50
248.296360976965
 51
313.0242800500821
  0
ARC
  5
C1CC
330
18
100
AcDbEntity
  8
01
100
AcDbCircle
 10
5147.519682511923
 20
-186.5109214370523
 30
0.0000000000563712
 40
0.4999999999999982
100
AcDbArc
 50
239.7370530067684
 51
291.9386700349126
  0
ARC
  5
C1CD
330
18
100
AcDbEntity
  8
01
100
AcDbCircle
 10
5136.97133220348
 20
-186.442518883468
 30
0.0000000000563712
 40
0.4999999999999883
100
AcDbArc
 50
227.5875840423352
 51
299.5198691506271
  0
ARC
  5
C1CE
330
18
100
AcDbEntity
  8
01
100
AcDbCircle
 10
5129.915875960797
 20
-186.4185667842557
 30
0.0000000000563712
 40
0.4999999999999953
100
AcDbArc
 50
236.0456877118228
 51
312.023398188639
  0
ARC
  5
C1CF
330
18
100
AcDbEntity
  8
01
100
AcDbCircle
 10
5120.953433491019
 20
-186.5002992445689
 30
0.0000000000563712
 40
0.4999999999999944
100
AcDbArc
 50
248.1432648590845
 51
304.9992942179989
  0
ARC
  5
C1D0
330
18
100
AcDbEntity
  8
01
100
AcDbCircle
 10
5106.068422551982
 20
-186.5226892780761
 30
0.0000000000563712
 40
0.5000000000000072
100
AcDbArc
 50
245.3189395010867
 51
292.0291036343943
  0
ARC
  5
C1D1
330
18
100
AcDbEntity
  8
01
100
AcDbCircle
 10
5092.94325329351
 20
-186.4469406738026
 30
0.0000000000563712
 40
0.499999999999992
100
AcDbArc
 50
220.3980517409032
 51
294.0197315577209
  0
ARC
  5
C1D2
330
18
100
AcDbEntity
  8
01
100
AcDbCircle
 10
5087.057666995412
 20
-186.3558636975572
 30
0.0000000000563712
 40
0.4999999999999846
100
AcDbArc
 50
232.598410572464
 51
317.8288335297249
  0
ARC
  5
C1D3
330
18
100
AcDbEntity
  8
01
100
AcDbCircle
 10
5083.254908572737
 20
-191.3293792941117
 30
0.0000000000563712
 40
5.760737098010286
100
AcDbArc
 50
52.59841057247237
 51
115.186492118993
  0
ARC
  5
C1D4
330
18
100
AcDbEntity
  8
01
100
AcDbCircle
 10
5089.960475273773
 20
-188.9853088627669
 30
0.0000000000563712
 40
3.416666666665644
100
AcDbArc
 50
40.39805174089907
 51
137.8288335297067
  0
ARC
  5
C1D5
330
18
100
AcDbEntity
  8
01
100
AcDbCircle
 10
5099.42215197923
 20
-200.9853088627597
 30
0.0000000000563712
 40
15.41666666665801
100
AcDbArc
 50
65.31893950105301
 51
114.0197315577406
  0
ARC
  5
C1D6
330
18
100
AcDbEntity
  8
01
100
AcDbCircle
 10
5218.008710591512
 20
-189.0624742397422
 30
0.0000000000563712
 40
3.4938320436407
100
AcDbArc
 50
65.42296075219816
 51
137.9526416750419
  0
ARC
  5
C1D7
330
18
100
AcDbEntity
  8
01
100
AcDbCircle
 10
5210.667516231579
 20
-192.9853088627619
 30
0.0000000000563712
 40
7.416666666660375
100
AcDbArc
 50
56.4487130117093
 51
124.9992942180336
  0
ARC
  5
C1D8
330
18
100
AcDbEntity
  8
01
100
AcDbCircle
 10
5198.712065503032
 20
-204.9853088627597
 30
0.0000000000563712
 40
19.41666666665799
100
AcDbArc
 50
68.14326485910358
 51
111.7036390230225
  0
ARC
  5
C1D9
330
18
100
AcDbEntity
  8
01
100
AcDbCircle
 10
5187.764649114347
 20
-190.3186421960986
 30
0.0000000000563712
 40
4.749999999997047
100
AcDbArc
 50
46.97571994985341
 51
131.7250102147423
  0
ARC
  5
C1DA
330
18
100
AcDbEntity
  8
01
100
AcDbCircle
 10
5180.30054749921
 20
-191.6519755294321
 30
0.0000000000563712
 40
6.083333333330878
100
AcDbArc
 50
52.91295920588797
 51
127.0870407941218
  0
ARC
  5
C1DB
330
18
100
AcDbEntity
  8
01
100
AcDbCircle
 10
5172.836445884072
 20
-190.3186421960986
 30
0.0000000000563712
 40
4.749999999997047
100
AcDbArc
 50
48.27498978526767
 51
131.2868234438287
  0
ARC
  5
C1DC
330
18
100
AcDbEntity
  8
01
100
AcDbCircle
 10
5165.908242653798
 20
-190.3186421960986
 30
0.0000000000563712
 40
4.749999999997047
100
AcDbArc
 50
48.7131765561834
 51
133.0242800501619
  0
ARC
  5
C1DD
330
18
100
AcDbEntity
  8
01
100
AcDbCircle
 10
5154.960826265113
 20
-204.9853088627597
 30
0.0000000000563712
 40
19.41666666665799
100
AcDbArc
 50
68.29636097698035
 51
111.9386700349327
  0
ARC
  5
C1DE
330
18
100
AcDbEntity
  8
01
100
AcDbCircle
 10
5113.538716333489
 20
-204.9853088627601
 30
0.0000000000563712
 40
19.41666666665868
100
AcDbArc
 50
68.14326485910432
 51
112.0291036343873
  0
ARC
  5
C1DF
330
18
100
AcDbEntity
  8
01
100
AcDbCircle
 10
5125.494167062036
 20
-192.9853088627628
 30
0.0000000000563712
 40
7.416666666661283
100
AcDbArc
 50
56.04568771189786
 51
124.9992942180278
  0
ARC
  5
C1E0
330
18
100
AcDbEntity
  8
01
100
AcDbCircle
 10
5133.430404632171
 20
-190.3186421960991
 30
0.0000000000563712
 40
4.749999999997358
100
AcDbArc
 50
47.58758404240273
 51
132.023398188637
  0
ARC
  5
C1E1
330
18
100
AcDbEntity
  8
01
100
AcDbCircle
 10
5142.186008869437
 20
-195.6519755294266
 30
0.0000000000563712
 40
10.08333333332484
100
AcDbArc
 50
59.73705300677155
 51
119.5198691507146
  0
SPLINE
  5
C1E2
330
18
100
AcDbEntity
  8
1PHANTOM
100
AcDbSpline
210
0.0
220
0.0
230
1.0
 70
    24
 71
     2
 72
     6
 73
     3
 74
     0
 42
0.000000001
 43
0.0000000001
 40
0.0
 40
0.0
 40
0.0
 40
3.642651519166519
 40
3.642651519166519
 40
3.642651519166519
 10
5080.377768996445
 20
-181.5686421961018
 30
0.0000000000563712
 10
5080.377768996445
 20
-183.3899679556853
 30
0.0000000000563712
 10
5080.377768996445
 20
-185.2112937152683
 30
0.0000000000563712
  0
SPLINE
  5
C1E3
330
18
100
AcDbEntity
  8
1PHANTOM
100
AcDbSpline
210
0.0
220
0.0
230
1.0
 70
    24
 71
     2
 72
     6
 73
     3
 74
     0
 42
0.000000001
 43
0.0000000001
 40
0.0
 40
0.0
 40
0.0
 40
3.407174293672001
 40
3.407174293672001
 40
3.407174293672001
 10
5219.877768996445
 20
-181.5686421961018
 30
0.0000000000563712
 10
5219.877768996445
 20
-183.2722293429379
 30
0.0000000000563712
 10
5219.877768996445
 20
-184.9758164897739
 30
0.0000000000563712
  0
SPLINE
  5
C1E4
330
18
100
AcDbEntity
  8
1PHANTOM
100
AcDbSpline
210
0.0
220
0.0
230
1.0
 70
    28
 71
     3
 72
    11
 73
     7
 74
     0
 42
0.0000000001
 43
0.0000000001
 40
0.0
 40
0.0
 40
0.0
 40
0.0
 40
0.182285626915747
 40
0.379746070889646
 40
0.578208754906534
 40
0.785372704444899
 40
0.785372704444899
 40
0.785372704444899
 40
0.785372704444899
 10
5079.377768996445
 20
-181.5686421961018
 30
0.0000000000563712
 41
1.0
 10
5079.377727959327
 20
-181.5686421961018
 30
0.0000000000563712
 41
1.0
 10
5079.42439345832
 20
-181.5686421961018
 30
0.0000000000563712
 41
1.0
 10
5079.633810955807
 20
-181.5686421961018
 30
0.0000000000563712
 41
1.0
 10
5079.969311592056
 20
-181.5686421961018
 30
0.0000000000563712
 41
1.0
 10
5080.239635844096
 20
-181.5686421961018
 30
0.0000000000563712
 41
1.0
 10
5080.377768996445
 20
-181.5686421961018
 30
0.0000000000563712
 41
1.0
  0
SPLINE
  5
C1E5
330
18
100
AcDbEntity
  8
1PHANTOM
100
AcDbSpline
210
0.0
220
0.0
230
1.0
 70
    24
 71
     2
 72
     6
 73
     3
 74
     0
 42
0.0000000001
 43
0.0000000001
 40
0.0
 40
0.0
 40
0.0
 40
0.5000000000000213
 40
0.5000000000000213
 40
0.5000000000000213
 10
5219.877768996445
 20
-181.5686421961018
 30
0.0000000000563712
 10
5219.877768996445
 20
-181.3186421961018
 30
0.0000000000563712
 10
5219.877768996445
 20
-181.0686421961018
 30
0.0000000000563712
  0
SPLINE
  5
C1E6
330
18
100
AcDbEntity
  8
1PHANTOM
100
AcDbSpline
210
0.0
220
0.0
230
1.0
 70
    24
 71
     2
 72
     6
 73
     3
 74
     0
 42
0.0000000001
 43
0.0000000001
 40
0.0
 40
0.0
 40
0.0
 40
0.5000000000000142
 40
0.5000000000000142
 40
0.5000000000000142
 10
5080.377768996448
 20
-181.0686421961018
 30
0.0000000000563712
 10
5080.377768996447
 20
-181.3186421961018
 30
0.0000000000563712
 10
5080.377768996445
 20
-181.5686421961018
 30
0.0000000000563712
  0
ARC
  5
C1E7
330
18
100
AcDbEntity
  8
01
100
AcDbCircle
 10
5219.877768996446
 20
-184.9757705417242
 30
0.0000000000563712
 40
1.0
100
AcDbArc
 50
245.4229607521382
 51
0.0
  0
ARC
  5
C1E8
330
18
100
AcDbEntity
  8
01
100
AcDbCircle
 10
5080.377768996446
 20
-185.2114029974141
 30
0.0000000000563712
 40
1.0
100
AcDbArc
 50
180.0
 51
295.1864921189826
  0
SPLINE
  5
C1E9
330
18
100
AcDbEntity
  8
1PHANTOM
100
AcDbSpline
210
0.0
220
0.0
230
1.0
 70
     8
 71
     3
 72
    24
 73
    20
 74
     0
 42
0.000000001
 43
0.0000000001
 40
0.5938000840581639
 40
0.5938000840581639
 40
0.5938000840581639
 40
0.5938000840581639
 40
2.383572629828674
 40
2.393240491003266
 40
3.575644687254895
 40
3.617938143220886
 40
4.171715760064298
 40
4.179472113991323
 40
4.899578990726026
 40
4.921434545197085
 40
6.38766766749188
 40
6.392150824206632
 40
7.132331722622194
 40
7.137425666826674
 40
7.876500778504382
 40
7.903458817137873
 40
9.364707786769168
 40
9.370700857473059
 40
10.01109561315506
 40
10.01109561315506
 40
10.01109561315506
 40
10.01109561315506
 10
5087.004861462755
 20
-185.7035445575593
 30
0.0000000000563712
 10
5086.638202252021
 20
-185.4595694239329
 30
0.0000000000563712
 10
5086.245805809003
 20
-185.2507273489555
 30
0.0000000000563712
 10
5085.568736236328
 20
-184.9706577002607
 30
0.0000000000563712
 10
5085.280909262035
 20
-184.8727418123526
 30
0.0000000000563712
 10
5084.858396782048
 20
-184.7598622559581
 30
0.0000000000563712
 10
5084.713649499641
 20
-184.7261996313423
 30
0.0000000000563712
 10
5084.404353747995
 20
-184.6643184291543
 30
0.0000000000563712
 10
5084.22211689902
 20
-184.6354372088372
 30
0.0000000000563712
 10
5083.68262888779
 20
-184.572255096155
 30
0.0000000000563712
 10
5083.314578709282
 20
-184.5592568360953
 30
0.0000000000563712
 10
5082.771425871332
 20
-184.5835265434312
 30
0.0000000000563712
 10
5082.587875472469
 20
-184.599210733059
 30
0.0000000000563712
 10
5082.225772974343
 20
-184.645071755428
 30
0.0000000000563712
 10
5082.038681374858
 20
-184.6765299092472
 30
0.0000000000563712
 10
5081.503065611823
 20
-184.7896664834698
 30
0.0000000000563712
 10
5081.149852558478
 20
-184.8946173637592
 30
0.0000000000563712
 10
5080.666386756006
 20
-185.0816687040724
 30
0.0000000000563712
 10
5080.520241106556
 20
-185.144263761923
 30
0.0000000000563712
 10
5080.377768996445
 20
-185.2112937152683
 30
0.0000000000563712
  0
SPLINE
  5
C1EA
330
18
100
AcDbEntity
  8
1PHANTOM
100
AcDbSpline
210
0.0
220
0.0
230
1.0
 70
     8
 71
     3
 72
    26
 73
    22
 74
     0
 42
0.000000001
 43
0.0000000001
 40
0.3064953779900098
 40
0.3064953779900098
 40
0.3064953779900098
 40
0.3064953779900098
 40
0.9171129602691533
 40
0.9176242751895387
 40
1.279360782716114
 40
1.280253206423545
 40
1.601856915994029
 40
1.605861828412767
 40
2.246677871367226
 40
2.249437418696959
 40
2.569434620628354
 40
2.570572864281649
 40
2.891888254288864
 40
2.896062438706567
 40
3.53662516391237
 40
3.54068409286227
 40
3.859079368141406
 40
3.859846319155013
 40
4.140719078347664
 40
4.141330853670193
 40
4.883323717560813
 40
4.883323717560813
 40
4.883323717560813
 40
4.883323717560813
 10
5087.004861462755
 20
-185.7035445575593
 30
0.0000000000563712
 10
5087.225908439254
 20
-185.5044808632565
 30
0.0000000000563712
 10
5087.467187787199
 20
-185.32739670922
 30
0.0000000000563712
 10
5087.876098897284
 20
-185.0870636465133
 30
0.0000000000563712
 10
5088.033348761822
 20
-185.0070789468082
 30
0.0000000000563712
 10
5088.338939230473
 20
-184.8741403679905
 30
0.0000000000563712
 10
5088.488057529958
 20
-184.8185467341764
 30
0.0000000000563712
 10
5088.93670820263
 20
-184.6780035696802
 30
0.0000000000563712
 10
5089.247417681728
 20
-184.6155535788134
 30
0.0000000000563712
 10
5089.714682500879
 20
-184.5724468446497
 30
0.0000000000563712
 10
5089.872396170522
 20
-184.566363289764
 30
0.0000000000563712
 10
5090.185757371138
 20
-184.571293724407
 30
0.0000000000563712
 10
5090.344750057198
 20
-184.5824428028936
 30
0.0000000000563712
 10
5090.811472262228
 20
-184.6404389111008
 30
0.0000000000563712
 10
5091.120664024235
 20
-184.7127213978829
 30
0.0000000000563712
 10
5091.563242946415
 20
-184.8668623459916
 30
0.0000000000563712
 10
5091.709147243932
 20
-184.9265015292881
 30
0.0000000000563712
 10
5091.973581784472
 20
-185.0514014617502
 30
0.0000000000563712
 10
5092.094659889635
 20
-185.1157323482062
 30
0.0000000000563712
 10
5092.523568000544
 20
-185.3701940933406
 30
0.0000000000563712
 10
5092.811705985057
 20
-185.593259563213
 30
0.0000000000563712
 10
5093.068538857204
 20
-185.847488362821
 30
0.0000000000563712
  0
SPLINE
  5
C1EB
330
18
100
AcDbEntity
  8
1PHANTOM
100
AcDbSpline
210
0.0
220
0.0
230
1.0
 70
     8
 71
     3
 72
    10
 73
     6
 74
     0
 42
0.000000001
 43
0.0000000001
 40
0.0305506515608462
 40
0.0305506515608462
 40
0.0305506515608462
 40
0.0305506515608462
 40
1.0
 40
1.005274848355487
 40
1.922504189739438
 40
1.922504189739438
 40
1.922504189739438
 40
1.922504189739438
 10
5106.080759407178
 20
-185.9792532044248
 30
0.0000000000563712
 10
5103.99178571372
 20
-185.0509296625519
 30
0.0000000000563712
 10
5101.694727822074
 20
-184.5655358666359
 30
0.0000000000563712
 10
5097.235365370314
 20
-184.5706622001117
 30
0.0000000000563712
 10
5095.062381098363
 20
-185.0101198176899
 30
0.0000000000563712
 10
5093.068538857204
 20
-185.847488362821
 30
0.0000000000563712
  0
SPLINE
  5
C1EC
330
18
100
AcDbEntity
  8
1PHANTOM
100
AcDbSpline
210
0.0
220
0.0
230
1.0
 70
     8
 71
     3
 72
    10
 73
     6
 74
     0
 42
0.000000001
 43
0.0000000001
 40
0.0342471679354616
 40
0.0342471679354616
 40
0.0342471679354616
 40
0.0342471679354616
 40
1.0
 40
1.008899109461601
 40
1.980200719659356
 40
1.980200719659356
 40
1.980200719659356
 40
1.980200719659356
 10
5120.891764941367
 20
-185.9383972282294
 30
0.0000000000563712
 10
5118.552638535656
 20
-185.0344442027626
 30
0.0000000000563712
 10
5116.022717142268
 20
-184.5639699349726
 30
0.0000000000563712
 10
5110.971009642712
 20
-184.572625581146
 30
0.0000000000563712
 10
5108.428267648435
 20
-185.0569473433952
 30
0.0000000000563712
 10
5106.080759407178
 20
-185.9792532044248
 30
0.0000000000563712
  0
SPLINE
  5
C1ED
330
18
100
AcDbEntity
  8
1PHANTOM
100
AcDbSpline
210
0.0
220
0.0
230
1.0
 70
     8
 71
     3
 72
    18
 73
    14
 74
     0
 42
0.000000001
 43
0.0000000001
 40
0.2266019299048257
 40
0.2266019299048257
 40
0.2266019299048257
 40
0.2266019299048257
 40
0.9988903319439869
 40
0.9999997517803484
 40
1.997935182890852
 40
1.998382384749765
 40
4.004973145371134
 40
4.005170186679241
 40
6.012011107851511
 40
6.012457992604393
 40
7.011055958798045
 40
7.012165626854721
 40
7.693919361038803
 40
7.693919361038803
 40
7.693919361038803
 40
7.693919361038803
 10
5120.891764941367
 20
-185.9383972282294
 30
0.0000000000563712
 10
5121.151268084294
 20
-185.7688966708861
 30
0.0000000000563712
 10
5121.42439369036
 20
-185.6109783815464
 30
0.0000000000563712
 10
5122.079103939805
 20
-185.2814109674341
 30
0.0000000000563712
 10
5122.467264315206
 20
-185.1201415863429
 30
0.0000000000563712
 10
5123.68356906685
 20
-184.721214538903
 30
0.0000000000563712
 10
5124.542102026757
 20
-184.5767968947112
 30
0.0000000000563712
 10
5126.293238704934
 20
-184.5608731451453
 30
0.0000000000563712
 10
5127.154359492325
 20
-184.6896864611908
 30
0.0000000000563712
 10
5128.378066939948
 20
-185.0665862044898
 30
0.0000000000563712
 10
5128.769333914587
 20
-185.2209036386398
 30
0.0000000000563712
 10
5129.396348792669
 20
-185.5224681085469
 30
0.0000000000563712
 10
5129.641259844287
 20
-185.6560453010479
 30
0.0000000000563712
 10
5129.875683112843
 20
-185.7989891765674
 30
0.0000000000563712
  0
SPLINE
  5
C1EE
330
18
100
AcDbEntity
  8
1PHANTOM
100
AcDbSpline
210
0.0
220
0.0
230
1.0
 70
     8
 71
     3
 72
    22
 73
    18
 74
     0
 42
0.000000001
 43
0.0000000001
 40
0.2750712592514236
 40
0.2750712592514236
 40
0.2750712592514236
 40
0.2750712592514236
 40
0.9968393558249701
 40
0.9972549890294917
 40
1.596926218995869
 40
1.597459616518402
 40
2.194367386787033
 40
2.194838176731441
 40
2.794595284923385
 40
2.795047069935363
 40
3.392085632399534
 40
3.392556269186099
 40
3.992263724159772
 40
3.992797023378941
 40
4.589615639430447
 40
4.590031975168829
 40
5.33122484407521
 40
5.33122484407521
 40
5.33122484407521
 40
5.33122484407521
 10
5129.875683112843
 20
-185.7989891765674
 30
0.0000000000563712
 10
5130.143357820245
 20
-185.5884274822906
 30
0.0000000000563712
 10
5130.437394013846
 20
-185.3956348275033
 30
0.0000000000563712
 10
5131.022126240407
 20
-185.0884898112781
 30
0.0000000000563712
 10
5131.302864547239
 20
-184.967548493677
 30
0.0000000000563712
 10
5131.888770003437
 20
-184.7703606411555
 30
0.0000000000563712
 10
5132.191893009892
 20
-184.6945694626229
 30
0.0000000000563712
 10
5132.814451736193
 20
-184.5927508489362
 30
0.0000000000563712
 10
5133.131598466816
 20
-184.56734868183
 30
0.0000000000563712
 10
5133.766830649193
 20
-184.5695042355337
 30
0.0000000000563712
 10
5134.082376801798
 20
-184.5968137340697
 30
0.0000000000563712
 10
5134.704383171632
 20
-184.7024046144561
 30
0.0000000000563712
 10
5135.008438375158
 20
-184.7805115528045
 30
0.0000000000563712
 10
5135.592948514334
 20
-184.9816683436752
 30
0.0000000000563712
 10
5135.871589327748
 20
-185.103828034572
 30
0.0000000000563712
 10
5136.46184422711
 20
-185.4184522665064
 30
0.0000000000563712
 10
5136.761922083846
 20
-185.6189778017542
 30
0.0000000000563712
 10
5137.034072100036
 20
-185.8378884891013
 30
0.0000000000563712
  0
SPLINE
  5
C1EF
330
18
100
AcDbEntity
  8
1PHANTOM
100
AcDbSpline
210
0.0
220
0.0
230
1.0
 70
     8
 71
     3
 72
    10
 73
     6
 74
     0
 42
0.000000001
 43
0.0000000001
 40
0.0419764228122041
 40
0.0419764228122041
 40
0.0419764228122041
 40
0.0419764228122041
 40
1.0
 40
1.002235324130001
 40
1.915186816913135
 40
1.915186816913135
 40
1.915186816913135
 40
1.915186816913135
 10
5147.558966530289
 20
-185.9572993252254
 30
0.0000000000563712
 10
5145.923469111773
 20
-185.0493106145395
 30
0.0000000000563712
 10
5144.050729940982
 20
-184.566764602514
 30
0.0000000000563712
 10
5140.39614282438
 20
-184.5689609360261
 30
0.0000000000563712
 10
5138.61189318931
 20
-185.0092435877914
 30
0.0000000000563712
 10
5137.034072361834
 20
-185.8378888015227
 30
0.0000000000563712
  0
SPLINE
  5
C1F0
330
18
100
AcDbEntity
  8
1PHANTOM
100
AcDbSpline
210
0.0
220
0.0
230
1.0
 70
     8
 71
     3
 72
    10
 73
     6
 74
     0
 42
0.000000001
 43
0.0000000001
 40
0.0311009813453596
 40
0.0311009813453596
 40
0.0311009813453596
 40
0.0311009813453596
 40
1.0
 40
1.008527061073823
 40
1.949908926204729
 40
1.949908926204729
 40
1.949908926204729
 40
1.949908926204729
 10
5147.558966530289
 20
-185.9572993252254
 30
0.0000000000563712
 10
5149.912008777822
 20
-185.0409571632363
 30
0.0000000000563712
 10
5152.458471430547
 20
-184.5641198174953
 30
0.0000000000563712
 10
5157.458039756041
 20
-184.5723595729114
 30
0.0000000000563712
 10
5159.9313504816
 20
-185.0305237023995
 30
0.0000000000563712
 10
5162.223994010608
 20
-185.903914092522
 30
0.0000000000563712
  0
SPLINE
  5
C1F1
330
18
100
AcDbEntity
  8
1PHANTOM
100
AcDbSpline
210
0.0
220
0.0
230
1.0
 70
     8
 71
     3
 72
    22
 73
    18
 74
     0
 42
0.000000001
 43
0.0000000001
 40
0.227683887368913
 40
0.227683887368913
 40
0.227683887368913
 40
0.227683887368913
 40
0.9995857596960562
 40
0.9999997666065813
 40
1.595297052300656
 40
1.595832514757187
 40
2.191096844978433
 40
2.191569910944895
 40
2.78694514387247
 40
2.787399315590366
 40
3.382793442765623
 40
3.383266476389804
 40
3.978593235442545
 40
3.979128724396768
 40
4.574304528046063
 40
4.574718768351585
 40
5.270737334806199
 40
5.270737334806199
 40
5.270737334806199
 40
5.270737334806199
 10
5162.223994010294
 20
-185.9039140927844
 30
0.0000000000563712
 10
5162.50302555556
 20
-185.6710220854002
 30
0.0000000000563712
 10
5162.812651196606
 20
-185.457491482256
 30
0.0000000000563712
 10
5163.41339081619
 20
-185.1293187167148
 30
0.0000000000563712
 10
5163.690460187422
 20
-185.004419437249
 30
0.0000000000563712
 10
5164.270759868699
 20
-184.7979178849528
 30
0.0000000000563712
 10
5164.572094467292
 20
-184.7169977907051
 30
0.0000000000563712
 10
5165.190441023625
 20
-184.6047459144447
 30
0.0000000000563712
 10
5165.505152305349
 20
-184.5738418262222
 30
0.0000000000563712
 10
5166.137869437943
 20
-184.5643004560065
 30
0.0000000000563712
 10
5166.453377829103
 20
-184.5857020946178
 30
0.0000000000563712
 10
5167.07486335946
 20
-184.679265935627
 30
0.0000000000563712
 10
5167.378526991132
 20
-184.7510728650013
 30
0.0000000000563712
 10
5167.964743057952
 20
-184.9399797469086
 30
0.0000000000563712
 10
5168.245388141065
 20
-185.0564406804842
 30
0.0000000000563712
 10
5168.821817512501
 20
-185.3491080247195
 30
0.0000000000563712
 10
5169.109243315867
 20
-185.5305633718508
 30
0.0000000000563712
 10
5169.37233649093
 20
-185.7291765169298
 30
0.0000000000563712
  0
SPLINE
  5
C1F2
330
18
100
AcDbEntity
  8
1PHANTOM
100
AcDbSpline
210
0.0
220
0.0
230
1.0
 70
     8
 71
     3
 72
    22
 73
    18
 74
     0
 42
0.000000001
 43
0.0000000001
 40
0.4981279505009679
 40
0.4981279505009679
 40
0.4981279505009679
 40
0.4981279505009679
 40
0.9888093670822354
 40
0.9906667409201663
 40
1.790983305064032
 40
1.79250762759522
 40
2.785002074726799
 40
2.785485051403714
 40
4.786973606449193
 40
4.787185368739917
 40
6.784200104048405
 40
6.78468348513372
 40
7.77821789242959
 40
7.779747918319848
 40
8.575720341589733
 40
8.577568190760951
 40
9.04744237767295
 40
9.04744237767295
 40
9.04744237767295
 40
9.04744237767295
 10
5176.353923189579
 20
-185.7699414498366
 30
0.0000000000563712
 10
5176.248115299132
 20
-185.6881056294824
 30
0.0000000000563712
 10
5176.137785476232
 20
-185.6086961186529
 30
0.0000000000563712
 10
5175.837356758234
 20
-185.4086006128782
 30
0.0000000000563712
 10
5175.640429364646
 20
-185.2931971760981
 30
0.0000000000563712
 10
5175.17912475491
 20
-185.0595259551419
 30
0.0000000000563712
 10
5174.910166029277
 20
-184.9473026777732
 30
0.0000000000563712
 10
5174.065320225717
 20
-184.6698936979519
 30
0.0000000000563712
 10
5173.467701186042
 20
-184.5707610254622
 30
0.0000000000563712
 10
5172.250364633347
 20
-184.5661252116115
 30
0.0000000000563712
 10
5171.653294159735
 20
-184.6602756779675
 30
0.0000000000563712
 10
5170.807055278146
 20
-184.9303845711192
 30
0.0000000000563712
 10
5170.536869148658
 20
-185.0405248147772
 30
0.0000000000563712
 10
5170.074479847976
 20
-185.2700460430251
 30
0.0000000000563712
 10
5169.877613329669
 20
-185.383189295826
 30
0.0000000000563712
 10
5169.581230869477
 20
-185.5768727589848
 30
0.0000000000563712
 10
5169.474703115536
 20
-185.6518958041142
 30
0.0000000000563712
 10
5169.372336494072
 20
-185.7291765145583
 30
0.0000000000563712
  0
SPLINE
  5
C1F3
330
18
100
AcDbEntity
  8
1PHANTOM
100
AcDbSpline
210
0.0
220
0.0
230
1.0
 70
     8
 71
     3
 72
    22
 73
    18
 74
     0
 42
0.000000001
 43
0.0000000001
 40
0.3697596720927633
 40
0.3697596720927633
 40
0.3697596720927633
 40
0.3697596720927633
 40
0.9990200202192814
 40
0.999999615137158
 40
1.998242528702077
 40
1.999027254563853
 40
2.997623189151278
 40
2.998313274178645
 40
3.997090810361059
 40
3.997752391882706
 40
4.996558431571016
 40
4.997248473995585
 40
5.995939092020079
 40
5.996723703954598
 40
6.995161600502676
 40
6.99614158028391
 40
7.624547590929752
 40
7.624547590929752
 40
7.624547590929752
 40
7.624547590929752
 10
5176.353923187051
 20
-185.7699414490444
 30
0.0000000000563712
 10
5176.54340122742
 20
-185.6427866164513
 30
0.0000000000563712
 10
5176.742009908646
 20
-185.5228050875216
 30
0.0000000000563712
 10
5177.277472029201
 20
-185.2351832183604
 30
0.0000000000563712
 10
5177.625475278655
 20
-185.0817265403448
 30
0.0000000000563712
 10
5178.354442664747
 20
-184.8301377669859
 30
0.0000000000563712
 10
5178.732959943882
 20
-184.7328744425877
 30
0.0000000000563712
 10
5179.509494796695
 20
-184.6017382718464
 30
0.0000000000563712
 10
5179.904370122917
 20
-184.568409231284
 30
0.0000000000563712
 10
5180.697521204657
 20
-184.5684533406902
 30
0.0000000000563712
 10
5181.092402222529
 20
-184.601827746269
 30
0.0000000000563712
 10
5181.868962390467
 20
-184.7330602066281
 30
0.0000000000563712
 10
5182.247498095323
 20
-184.8303773722332
 30
0.0000000000563712
 10
5182.976523298691
 20
-185.0820907816651
 30
0.0000000000563712
 10
5183.324562830024
 20
-185.2356225926519
 30
0.0000000000563712
 10
5183.859743019973
 20
-185.5231998481449
 30
0.0000000000563712
 10
5184.058067704481
 20
-185.6430323043305
 30
0.0000000000563712
 10
5184.247285185541
 20
-185.7700175497366
 30
0.0000000000563712
  0
SPLINE
  5
C1F4
330
18
100
AcDbEntity
  8
1PHANTOM
100
AcDbSpline
210
0.0
220
0.0
230
1.0
 70
     8
 71
     3
 72
    20
 73
    16
 74
     0
 42
0.000000001
 43
0.0000000001
 40
21.13574117467061
 40
21.13574117467061
 40
21.13574117467061
 40
21.13574117467061
 40
66.72418607974446
 40
66.81025016970732
 40
99.98199362840475
 40
100.3313036785932
 40
115.8664248316838
 40
117.2651643057673
 40
122.9807933554335
 40
125.0104543167922
 40
127.0401152781509
 40
127.0442807594783
 40
128.3027619570486
 40
128.3037599000968
 40
129.3017640140003
 40
129.3017640140003
 40
129.3017640140003
 40
129.3017640140003
 10
5191.44877128814
 20
-185.903959272423
 30
0.0000000000563712
 10
5191.272716004438
 20
-185.7571070270951
 30
0.0000000000563712
 10
5191.087182357141
 20
-185.6201928562177
 30
0.0000000000563712
 10
5190.752540951239
 20
-185.4031135760733
 30
0.0000000000563712
 10
5190.606057145009
 20
-185.3169630511502
 30
0.0000000000563712
 10
5190.387217370915
 20
-185.2008989088781
 30
0.0000000000563712
 10
5190.309361477943
 20
-185.1616687527085
 30
0.0000000000563712
 10
5190.206348076943
 20
-185.1125957760851
 30
0.0000000000563712
 10
5190.164605450276
 20
-185.0931863172691
 30
0.0000000000563712
 10
5190.119806619545
 20
-185.0729055705797
 30
0.0000000000563712
 10
5190.101147340582
 20
-185.0645775494718
 30
0.0000000000563712
 10
5190.086012610728
 20
-185.0578708246776
 30
0.0000000000563712
 10
5190.079638911005
 20
-185.0550557646043
 30
0.0000000000563712
 10
5190.065218650332
 20
-185.048734006677
 30
0.0000000000563712
 10
5190.05574215874
 20
-185.0445906431723
 30
0.0000000000563712
 10
5190.049205823051
 20
-185.0417661751353
 30
0.0000000000563712
  0
SPLINE
  5
C1F5
330
18
100
AcDbEntity
  8
1PHANTOM
100
AcDbSpline
210
0.0
220
0.0
230
1.0
 70
     8
 71
     3
 72
    22
 73
    18
 74
     0
 42
0.000000001
 43
0.0000000001
 40
0.0
 40
0.0
 40
0.0
 40
0.0
 40
139.1503309009618
 40
139.2674422209066
 40
208.355911812867
 40
208.8537206739796
 40
242.7398373533078
 40
244.5771119303051
 40
266.4557509015613
 40
270.8822702150568
 40
275.3087895285523
 40
277.5220306154063
 40
279.7352717022603
 40
280.8418496754812
 40
281.9484276487022
 40
281.948867498215
 40
282.9479877991895
 40
282.9479877991895
 40
282.9479877991895
 40
282.9479877991895
 10
5190.049205823051
 20
-185.0417661751353
 30
0.0000000000563712
 10
5189.698395117993
 20
-184.890174569292
 30
0.0000000000563712
 10
5189.331271960158
 20
-184.7729312013712
 30
0.0000000000563712
 10
5188.76572110458
 20
-184.6534158223835
 30
0.0000000000563712
 10
5188.574893227662
 20
-184.6229532734219
 30
0.0000000000563712
 10
5188.290254917778
 20
-184.5920012478205
 30
0.0000000000563712
 10
5188.190516562941
 20
-184.5836488589875
 30
0.0000000000563712
 10
5188.031897425926
 20
-184.5744437391772
 30
0.0000000000563712
 10
5187.954435092137
 20
-184.5712702268461
 30
0.0000000000563712
 10
5187.869928203446
 20
-184.5693980443139
 30
0.0000000000563712
 10
5187.839513477984
 20
-184.5689167596456
 30
0.0000000000563712
 10
5187.815191028515
 20
-184.5686472500356
 30
0.0000000000563712
 10
5187.799994011697
 20
-184.5685268998791
 30
0.0000000000563712
 10
5187.787839053563
 20
-184.5684594478507
 30
0.0000000000563712
 10
5187.781761218119
 20
-184.5684353217407
 30
0.0000000000563712
 10
5187.775976467988
 20
-184.5684169304068
 30
0.0000000000563712
 10
5187.767878230689
 20
-184.5683954451861
 30
0.0000000000563712
 10
5187.764243770286
 20
-184.5683983915992
 30
0.0000000000563712
  0
SPLINE
  5
C1F6
330
18
100
AcDbEntity
  8
1PHANTOM
100
AcDbSpline
210
0.0
220
0.0
230
1.0
 70
     8
 71
     3
 72
    22
 73
    18
 74
     0
 42
0.000000001
 43
0.0000000001
 40
0.0
 40
0.0
 40
0.0
 40
0.0
 40
138.1559387880972
 40
138.2722132119179
 40
206.8669647591796
 40
207.3612162006601
 40
241.005176876356
 40
242.8293219735642
 40
264.5516124415314
 40
268.9464990895366
 40
273.3413857375419
 40
275.5388106243954
 40
277.7362355112487
 40
277.7367320777638
 40
278.8691307164561
 40
278.8693370501259
 40
279.8689243827864
 40
279.8689243827864
 40
279.8689243827864
 40
279.8689243827864
 10
5187.764243770286
 20
-184.5683983915992
 30
0.0000000000563712
 10
5187.382081410155
 20
-184.5687082059712
 30
0.0000000000563712
 10
5186.998600487628
 20
-184.6070201115872
 30
0.0000000000563712
 10
5186.432131389704
 20
-184.7221046739405
 30
0.0000000000563712
 10
5186.244913858386
 20
-184.7699882974566
 30
0.0000000000563712
 10
5185.971417569851
 20
-184.8547041480547
 30
0.0000000000563712
 10
5185.876574297086
 20
-184.8866768773332
 30
0.0000000000563712
 10
5185.727360760515
 20
-184.9412670349502
 30
0.0000000000563712
 10
5185.655017009865
 20
-184.9691393521716
 30
0.0000000000563712
 10
5185.576726055835
 20
-185.0010054126096
 30
0.0000000000563712
 10
5185.548625009898
 20
-185.0126509428906
 30
0.0000000000563712
 10
5185.526198643847
 20
-185.0220696629885
 30
0.0000000000563712
 10
5185.515002713982
 20
-185.0268134662156
 30
0.0000000000563712
 10
5185.506524909082
 20
-185.0304213936265
 30
0.0000000000563712
 10
5185.499705872314
 20
-185.0333329433356
 30
0.0000000000563712
 10
5185.494287063928
 20
-185.0356542379777
 30
0.0000000000563712
 10
5185.484431575779
 20
-185.0398840961334
 30
0.0000000000563712
 10
5185.479504726542
 20
-185.0420205686632
 30
0.0000000000563712
  0
SPLINE
  5
C1F7
330
18
100
AcDbEntity
  8
1PHANTOM
100
AcDbSpline
210
0.0
220
0.0
230
1.0
 70
     8
 71
     3
 72
     8
 73
     4
 74
     0
 42
0.000000001
 43
0.0000000001
 40
0.0
 40
0.0
 40
0.0
 40
0.0
 40
0.7812103464634028
 40
0.7812103464634028
 40
0.7812103464634028
 40
0.7812103464634028
 10
5185.479504726542
 20
-185.0420205686632
 30
0.0000000000563712
 10
5185.039633745756
 20
-185.2327656517959
 30
0.0000000000563712
 10
5184.625775332802
 20
-185.477423746041
 30
0.0000000000563712
 10
5184.247285177627
 20
-185.7700175558539
 30
0.0000000000563712
  0
SPLINE
  5
C1F8
330
18
100
AcDbEntity
  8
1PHANTOM
100
AcDbSpline
210
0.0
220
0.0
230
1.0
 70
     8
 71
     3
 72
    10
 73
     6
 74
     0
 42
0.000000001
 43
0.0000000001
 40
0.0342472078928023
 40
0.0342472078928023
 40
0.0342472078928023
 40
0.0342472078928023
 40
1.0
 40
1.008501715572896
 40
1.953416358802793
 40
1.953416358802793
 40
1.953416358802793
 40
1.953416358802793
 10
5206.06511382057
 20
-185.9383971160287
 30
0.0000000000563712
 10
5203.725987497744
 20
-185.0344441641837
 30
0.0000000000563712
 10
5201.197097729879
 20
-184.5641617610645
 30
0.0000000000563712
 10
5196.214922893538
 20
-184.5723170627066
 30
0.0000000000563712
 10
5193.741570673864
 20
-185.0304692059176
 30
0.0000000000563712
 10
5191.448771288169
 20
-185.9039592724471
 30
0.0000000000563712
  0
SPLINE
  5
C1F9
330
18
100
AcDbEntity
  8
1PHANTOM
100
AcDbSpline
210
0.0
220
0.0
230
1.0
 70
     8
 71
     3
 72
    18
 73
    14
 74
     0
 42
0.000000001
 43
0.0000000001
 40
0.2277936067266727
 40
0.2277936067266727
 40
0.2277936067266727
 40
0.2277936067266727
 40
0.9988798448532915
 40
0.9999997463403412
 40
1.997910820459932
 40
1.998363537585262
 40
4.004809724968486
 40
4.005009510400185
 40
6.011708629477177
 40
6.012161022620684
 40
7.010739605084018
 40
7.011859760230228
 40
7.665147629514627
 40
7.665147629514627
 40
7.665147629514627
 40
7.665147629514627
 10
5206.065113820477
 20
-185.9383971160896
 30
0.0000000000563712
 10
5206.322850029968
 20
-185.7700503342408
 30
0.0000000000563712
 10
5206.594005129358
 20
-185.6131412433697
 30
0.0000000000563712
 10
5207.244306614029
 20
-185.2851518633488
 30
0.0000000000563712
 10
5207.630000958276
 20
-185.1243710807307
 30
0.0000000000563712
 10
5208.838273584967
 20
-184.7258559904403
 30
0.0000000000563712
 10
5209.691029857647
 20
-184.5801759433471
 30
0.0000000000563712
 10
5211.430934386079
 20
-184.5581438778299
 30
0.0000000000563712
 10
5212.287210263324
 20
-184.6822158785276
 30
0.0000000000563712
 10
5213.505537548189
 20
-185.0501636677532
 30
0.0000000000563712
 10
5213.895418804584
 20
-185.2012587005838
 30
0.0000000000563712
 10
5214.510188028282
 20
-185.4921404704987
 30
0.0000000000563712
 10
5214.744821305136
 20
-185.6174500560637
 30
0.0000000000563712
 10
5214.969980957819
 20
-185.7513813315704
 30
0.0000000000563712
  0
SPLINE
  5
C1FA
330
18
100
AcDbEntity
  8
1PHANTOM
100
AcDbSpline
210
0.0
220
0.0
230
1.0
 70
     8
 71
     3
 72
    22
 73
    18
 74
     0
 42
0.000000001
 43
0.0000000001
 40
0.1632435734709746
 40
0.1632435734709746
 40
0.1632435734709746
 40
0.1632435734709746
 40
0.4289507235916143
 40
0.4354398089291029
 40
0.6434534094059681
 40
0.6445194038091918
 40
0.8658144168637133
 40
0.8673213420441225
 40
1.761514986420494
 40
1.764255509289262
 40
1.985605786887335
 40
1.986247093497083
 40
2.220525857695861
 40
2.220956551493717
 40
2.720355717095841
 40
2.721430670388154
 40
3.454633817560943
 40
3.454633817560943
 40
3.454633817560943
 40
3.454633817560943
 10
5219.877768996447
 20
-184.9758164897748
 30
0.0000000000563712
 10
5219.749055527392
 20
-184.9169061148832
 30
0.0000000000563712
 10
5219.614326213901
 20
-184.8627302079194
 30
0.0000000000563712
 10
5219.372457182133
 20
-184.7788474974459
 30
0.0000000000563712
 10
5219.262370884539
 20
-184.745320093878
 30
0.0000000000563712
 10
5219.040197729697
 20
-184.6867271102019
 30
0.0000000000563712
 10
5218.923660588527
 20
-184.6609667150215
 30
0.0000000000563712
 10
5218.337303123505
 20
-184.5556346376466
 30
0.0000000000563712
 10
5217.852371859653
 20
-184.5464686406622
 30
0.0000000000563712
 10
5217.262106730479
 20
-184.6291870044488
 30
0.0000000000563712
 10
5217.14407316392
 20
-184.6505484258705
 30
0.0000000000563712
 10
5216.906373469306
 20
-184.7034855997426
 30
0.0000000000563712
 10
5216.785445928469
 20
-184.7358673779636
 30
0.0000000000563712
 10
5216.411525519004
 20
-184.8532970380493
 30
0.0000000000563712
 10
5216.164094074345
 20
-184.9563641492878
 30
0.0000000000563712
 10
5215.582204852229
 20
-185.2609959090842
 30
0.0000000000563712
 10
5215.258780411318
 20
-185.487246755386
 30
0.0000000000563712
 10
5214.969981103649
 20
-185.7513814183148
 30
0.0000000000563712
  0
LINE
  5
C1FB
330
18
100
AcDbEntity
  8
1PHANTOM
100
AcDbLine
 10
5219.877768996446
 20
-184.9757705417242
 30
0.0000000000563712
 11
5220.877768996446
 21
-184.9757705417242
 31
0.0000000000563712
  0
LINE
  5
C1FC
330
18
100
AcDbEntity
  8
1PHANTOM
100
AcDbLine
 10
5219.877768996446
 20
-184.9757705417242
 30
0.0000000000563712
 11
5219.461852605538
 21
-185.8851733984243
 31
0.0000000000563712
  0
LINE
  5
C1FD
330
18
100
AcDbEntity
  8
1PHANTOM
100
AcDbLine
 10
5079.377768996446
 20
-185.2114029974141
 30
0.0000000000563712
 11
5080.377768996445
 21
-185.2112937152683
 31
0.0000000000563712
  0
LINE
  5
C1FE
330
18
100
AcDbEntity
  8
1PHANTOM
100
AcDbLine
 10
5080.377768996445
 20
-185.2112937152683
 30
0.0000000000563712
 11
5080.80333495687
 21
-186.1163304051815
 31
0.0000000000563712
  0
LINE
  5
C1FF
330
18
100
AcDbEntity
  8
1PHANTOM
100
AcDbLine
 10
5087.004861462755
 20
-185.7035445575593
 30
0.0000000000563712
 11
5086.754048769318
 21
-186.7529624553599
 31
0.0000000000563712
  0
LINE
  5
C200
330
18
100
AcDbEntity
  8
1PHANTOM
100
AcDbLine
 10
5087.004861462755
 20
-185.7035445575593
 30
0.0000000000563712
 11
5087.428239977728
 21
-186.6915391027951
 31
0.0000000000563712
  0
LINE
  5
C201
330
18
100
AcDbEntity
  8
1PHANTOM
100
AcDbLine
 10
5093.068538857204
 20
-185.847488362821
 30
0.0000000000563712
 11
5092.562462744235
 21
-186.7709580402079
 31
0.0000000000563712
  0
LINE
  5
C202
330
18
100
AcDbEntity
  8
1PHANTOM
100
AcDbLine
 10
5093.068538857204
 20
-185.847488362821
 30
0.0000000000563712
 11
5093.146737855945
 21
-186.9035666754403
 31
0.0000000000563712
  0
LINE
  5
C203
330
18
100
AcDbEntity
  8
1PHANTOM
100
AcDbLine
 10
5106.080759407178
 20
-185.9792532044248
 30
0.0000000000563712
 11
5105.859661473651
 21
-186.9769624227943
 31
0.0000000000563712
  0
LINE
  5
C204
330
18
100
AcDbEntity
  8
1PHANTOM
100
AcDbLine
 10
5106.255960142945
 20
-186.9861443416544
 30
0.0000000000563712
 11
5106.080759407178
 21
-185.9792532044248
 31
0.0000000000563712
  0
LINE
  5
C205
330
18
100
AcDbEntity
  8
1PHANTOM
100
AcDbLine
 10
5120.767318503255
 20
-186.964318194488
 30
0.0000000000563712
 11
5120.891764941367
 21
-185.9383972282294
 31
0.0000000000563712
  0
LINE
  5
C206
330
18
100
AcDbEntity
  8
1PHANTOM
100
AcDbLine
 10
5120.891764941367
 20
-185.9383972282294
 30
0.0000000000563712
 11
5121.240228547917
 21
-186.9098627451749
 31
0.0000000000563712
  0
LINE
  5
C207
330
18
100
AcDbEntity
  8
1PHANTOM
100
AcDbLine
 10
5129.63660932432
 20
-186.8333028415018
 30
0.0000000000563712
 11
5129.875683112843
 21
-185.7989891765674
 31
0.0000000000563712
  0
LINE
  5
C208
330
18
100
AcDbEntity
  8
1PHANTOM
100
AcDbLine
 10
5129.875683112843
 20
-185.7989891765674
 30
0.0000000000563712
 11
5130.250592977119
 21
-186.7900025377648
 31
0.0000000000563712
  0
LINE
  5
C209
330
18
100
AcDbEntity
  8
1PHANTOM
100
AcDbLine
 10
5136.634634481147
 20
-186.8110523430173
 30
0.0000000000563712
 11
5137.034072361834
 21
-185.8378888015227
 31
0.0000000000563712
  0
LINE
  5
C20A
330
18
100
AcDbEntity
  8
1PHANTOM
100
AcDbLine
 10
5137.034072361834
 20
-185.8378888015227
 30
0.0000000000563712
 11
5137.217603800721
 21
-186.8774875992294
 31
0.0000000000563712
  0
LINE
  5
C20B
330
18
100
AcDbEntity
  8
1PHANTOM
100
AcDbLine
 10
5147.267765935746
 20
-186.9426910576867
 30
0.0000000000563712
 11
5147.558966530289
 21
-185.9572993252254
 31
0.0000000000563712
  0
LINE
  5
C20C
330
18
100
AcDbEntity
  8
1PHANTOM
100
AcDbLine
 10
5147.558966530289
 20
-185.9572993252254
 30
0.0000000000563712
 11
5147.70651223788
 21
-186.9746573496818
 31
0.0000000000563712
  0
LINE
  5
C20D
330
18
100
AcDbEntity
  8
1PHANTOM
100
AcDbLine
 10
5162.14124568334
 20
-186.9450582671466
 30
0.0000000000563712
 11
5162.223994010294
 21
-185.9039140927844
 31
0.0000000000563712
  0
LINE
  5
C20E
330
18
100
AcDbEntity
  8
1PHANTOM
100
AcDbLine
 10
5162.223994010294
 20
-185.9039140927844
 30
0.0000000000563712
 11
5162.667278598122
 21
-186.8460852145945
 31
0.0000000000563712
  0
LINE
  5
C20F
330
18
100
AcDbEntity
  8
1PHANTOM
100
AcDbLine
 10
5169.042432412456
 20
-186.7494106125464
 30
0.0000000000563712
 11
5169.37233649093
 21
-185.7291765169298
 31
0.0000000000563712
  0
LINE
  5
C210
330
18
100
AcDbEntity
  8
1PHANTOM
100
AcDbLine
 10
5169.37233649093
 20
-185.7291765169298
 30
0.0000000000563712
 11
5169.702256125539
 21
-186.7494106124359
 31
0.0000000000563712
  0
LINE
  5
C211
330
18
100
AcDbEntity
  8
1PHANTOM
100
AcDbLine
 10
5175.997843814361
 20
-186.7734839911291
 30
0.0000000000563712
 11
5176.353923189579
 21
-185.7699414498366
 31
0.0000000000563712
  0
LINE
  5
C212
330
18
100
AcDbEntity
  8
1PHANTOM
100
AcDbLine
 10
5176.353923189579
 20
-185.7699414498366
 30
0.0000000000563712
 11
5176.632131512092
 21
-186.7991735878104
 31
0.0000000000563712
  0
LINE
  5
C213
330
18
100
AcDbEntity
  8
1PHANTOM
100
AcDbLine
 10
5183.968963486477
 20
-186.7991735879241
 30
0.0000000000563712
 11
5184.247285185541
 21
-185.7700175497366
 31
0.0000000000563712
  0
LINE
  5
C214
330
18
100
AcDbEntity
  8
1PHANTOM
100
AcDbLine
 10
5184.247285185541
 20
-185.7700175497366
 30
0.0000000000563712
 11
5184.603251184084
 21
-186.7734839911063
 31
0.0000000000563712
  0
LINE
  5
C215
330
18
100
AcDbEntity
  8
1PHANTOM
100
AcDbLine
 10
5191.005609712999
 20
-186.8460619255675
 30
0.0000000000563712
 11
5191.448771288169
 21
-185.9039592724471
 31
0.0000000000563712
  0
LINE
  5
C216
330
18
100
AcDbEntity
  8
1PHANTOM
100
AcDbLine
 10
5191.448771288169
 20
-185.9039592724471
 30
0.0000000000563712
 11
5191.53164608525
 21
-186.9450582669688
 31
0.0000000000563712
  0
LINE
  5
C217
330
18
100
AcDbEntity
  8
1PHANTOM
100
AcDbLine
 10
5205.940667672795
 20
-186.9643181944866
 30
0.0000000000563712
 11
5206.065113820477
 21
-185.9383971160896
 31
0.0000000000563712
  0
LINE
  5
C218
330
18
100
AcDbEntity
  8
1PHANTOM
100
AcDbLine
 10
5206.065113820477
 20
-185.9383971160896
 30
0.0000000000563712
 11
5206.41357771746
 21
-186.9098627451749
 31
0.0000000000563712
  0
LINE
  5
C219
330
18
100
AcDbEntity
  8
1PHANTOM
100
AcDbLine
 10
5214.766584815206
 20
-186.8043200758902
 30
0.0000000000563712
 11
5214.969980957819
 21
-185.7513813315704
 31
0.0000000000563712
  0
LINE
  5
C21A
330
18
100
AcDbEntity
  8
1PHANTOM
100
AcDbLine
 10
5214.969980957819
 20
-185.7513813315704
 30
0.0000000000563712
 11
5215.41407765023
 21
-186.7223783155778
 31
0.0000000000563712
  0
LINE
  5
C37B
330
18
100
AcDbEntity
  8
01
100
AcDbLine
 10
5079.877768996454
 20
-264.467323882182
 30
0.0
 11
5069.57776899645
 21
-264.467323882182
 31
0.0
1001
ACAD
1000
DSTYLE
1002
{
1070
     3
1000
□<>
1070
    40
1040
1.3
1070
    45
1040
0.5
1002
}
  0
LINE
  5
C37C
330
18
100
AcDbEntity
  8
01
100
AcDbLine
 10
5079.877768996454
 20
-317.467323882182
 30
0.0
 11
5069.57776899645
 21
-317.467323882182
 31
0.0
1001
ACAD
1000
DSTYLE
1002
{
1070
     3
1000
□<>
1070
    40
1040
1.3
1070
    45
1040
0.5
1002
}
  0
LINE
  5
C37D
330
18
100
AcDbEntity
  8
01
100
AcDbLine
 10
5070.87776899645
 20
-267.067323882182
 30
0.0
 11
5070.87776899645
 21
-314.8673238821819
 31
0.0
1001
ACAD
1000
DSTYLE
1002
{
1070
     3
1000
□<>
1070
    40
1040
1.3
1070
    45
1040
0.5
1002
}
  0
LINE
  5
C381
330
18
100
AcDbEntity
  8
01
  6
BYBLOCK
100
AcDbLine
 10
5070.18110110245
 20
-267.067323882182
 30
0.0
 11
5070.87776899645
 21
-264.467323882182
 31
0.0
  0
LINE
  5
C382
330
18
100
AcDbEntity
  8
01
  6
BYBLOCK
100
AcDbLine
 10
5070.87776899645
 20
-264.467323882182
 30
0.0
 11
5071.57443689045
 21
-267.067323882182
 31
0.0
  0
LINE
  5
C383
330
18
100
AcDbEntity
  8
01
  6
BYBLOCK
100
AcDbLine
 10
5070.87776899645
 20
-264.467323882182
 30
0.0
 11
5070.87776899645
 21
-267.067323882182
 31
0.0
  0
LINE
  5
C384
330
18
100
AcDbEntity
  8
01
  6
BYBLOCK
100
AcDbLine
 10
5071.57443689045
 20
-314.8673238821819
 30
0.0
 11
5070.87776899645
 21
-317.467323882182
 31
0.0
  0
LINE
  5
C385
330
18
100
AcDbEntity
  8
01
  6
BYBLOCK
100
AcDbLine
 10
5070.87776899645
 20
-317.467323882182
 30
0.0
 11
5070.18110110245
 21
-314.8673238821819
 31
0.0
  0
LINE
  5
C386
330
18
100
AcDbEntity
  8
01
  6
BYBLOCK
100
AcDbLine
 10
5070.87776899645
 20
-317.467323882182
 30
0.0
 11
5070.87776899645
 21
-314.8673238821819
 31
0.0
  0
TEXT
  5
C387
330
18
100
AcDbEntity
  8
01
  6
CONTINUOUS
100
AcDbText
 10
5069.96776899645
 20
-298.9962017887783
 30
0.0
 40
4.55
  1
□53
 50
90.0
100
AcDbText
1001
ACAD
1000
DSTYLE
1002
{
1070
     3
1000
□<>
1070
    40
1040
1.3
1070
    45
1040
0.5
1002
}
  0
LINE
  5
C388
330
18
100
AcDbEntity
  8
1DIM
100
AcDbLine
 10
5219.87776899571
 20
-302.9673277564566
 30
0.0
 11
5262.17776899645
 21
-302.9673277564566
 31
0.0
1001
ACAD
1000
DSTYLE
1002
{
1070
    40
1040
1.3
1070
    45
1040
0.5
1002
}
  0
LINE
  5
C389
330
18
100
AcDbEntity
  8
1DIM
100
AcDbLine
 10
5219.877768996451
 20
-278.9673238829407
 30
0.0
 11
5262.17776899645
 21
-278.9673238829407
 31
0.0
1001
ACAD
1000
DSTYLE
1002
{
1070
    40
1040
1.3
1070
    45
1040
0.5
1002
}
  0
LINE
  5
C38A
330
18
100
AcDbEntity
  8
1DIM
100
AcDbLine
 10
5260.87776899645
 20
-300.3673277564566
 30
0.0
 11
5260.87776899645
 21
-281.5673238829407
 31
0.0
1001
ACAD
1000
DSTYLE
1002
{
1070
    40
1040
1.3
1070
    45
1040
0.5
1002
}
  0
LINE
  5
C38E
330
18
100
AcDbEntity
  8
1DIM
100
AcDbLine
 10
5105.87776899645
 20
-152.4686421952829
 30
0.0
 11
5105.87776899645
 21
-217.2686421952829
 31
0.0
1001
ACAD
1000
DSTYLE
1002
{
1070
    40
1040
1.3
1070
    45
1040
0.5
1002
}
  0
LINE
  5
C38F
330
18
100
AcDbEntity
  8
1DIM
100
AcDbLine
 10
5220.87776899645
 20
-185.0686421961009
 30
0.0
 11
5220.87776899645
 21
-217.2686421952829
 31
0.0
1001
ACAD
1000
DSTYLE
1002
{
1070
    40
1040
1.3
1070
    45
1040
0.5
1002
}
  0
LINE
  5
C390
330
18
100
AcDbEntity
  8
1DIM
100
AcDbLine
 10
5108.47776899645
 20
-215.9686421952829
 30
0.0
 11
5218.27776899645
 21
-215.9686421952829
 31
0.0
1001
ACAD
1000
DSTYLE
1002
{
1070
    40
1040
1.3
1070
    45
1040
0.5
1002
}
  0
LINE
  5
C394
330
18
100
AcDbEntity
  8
1DIM
100
AcDbLine
 10
5079.37776899645
 20
-185.071143849902
 30
0.0
 11
5079.37776899645
 21
-227.2686421952829
 31
0.0
1001
ACAD
1000
DSTYLE
1002
{
1070
    40
1040
1.3
1070
    45
1040
0.5
1002
}
  0
LINE
  5
C395
330
18
100
AcDbEntity
  8
1DIM
100
AcDbLine
 10
5220.87776899645
 20
-185.0686421961009
 30
0.0
 11
5220.87776899645
 21
-227.2686421952829
 31
0.0
1001
ACAD
1000
DSTYLE
1002
{
1070
    40
1040
1.3
1070
    45
1040
0.5
1002
}
  0
LINE
  5
C396
330
18
100
AcDbEntity
  8
1DIM
100
AcDbLine
 10
5081.97776899645
 20
-225.9686421952829
 30
0.0
 11
5218.27776899645
 21
-225.9686421952829
 31
0.0
1001
ACAD
1000
DSTYLE
1002
{
1070
    40
1040
1.3
1070
    45
1040
0.5
1002
}
  0
LINE
  5
C39A
330
18
100
AcDbEntity
  8
1DIM
100
AcDbLine
 10
5219.87776899645
 20
-169.4686421960996
 30
0.0
 11
5262.17776899645
 21
-169.4686421960996
 31
0.0
1001
ACAD
1000
DSTYLE
1002
{
1070
    40
1040
1.3
1070
    45
1040
0.5
1002
}
  0
LINE
  5
C39B
330
18
100
AcDbEntity
  8
1DIM
100
AcDbLine
 10
5208.632916993798
 20
-130.9686421952829
 30
0.0
 11
5262.17776899645
 21
-130.9686421952829
 31
0.0
1001
ACAD
1000
DSTYLE
1002
{
1070
    40
1040
1.3
1070
    45
1040
0.5
1002
}
  0
LINE
  5
C39C
330
18
100
AcDbEntity
  8
1DIM
100
AcDbLine
 10
5260.87776899645
 20
-166.8686421960996
 30
0.0
 11
5260.87776899645
 21
-133.5686421952829
 31
0.0
1001
ACAD
1000
DSTYLE
1002
{
1070
    40
1040
1.3
1070
    45
1040
0.5
1002
}
  0
LINE
  5
C3A0
330
18
100
AcDbEntity
  8
1DIM
100
AcDbLine
 10
5206.126782660562
 20
-187.0002992445689
 30
0.0
 11
5272.17776899645
 21
-187.0002992445689
 31
0.0
1001
ACAD
1000
DSTYLE
1002
{
1070
    40
1040
1.3
1070
    45
1040
0.5
1002
}
  0
LINE
  5
C3A1
330
18
100
AcDbEntity
  8
1DIM
100
AcDbLine
 10
5208.632916993798
 20
-130.9686421952829
 30
0.0
 11
5272.17776899645
 21
-130.9686421952829
 31
0.0
1001
ACAD
1000
DSTYLE
1002
{
1070
    40
1040
1.3
1070
    45
1040
0.5
1002
}
  0
LINE
  5
C3A2
330
18
100
AcDbEntity
  8
1DIM
100
AcDbLine
 10
5270.87776899645
 20
-184.4002992445689
 30
0.0
 11
5270.87776899645
 21
-133.5686421952829
 31
0.0
1001
ACAD
1000
DSTYLE
1002
{
1070
    40
1040
1.3
1070
    45
1040
0.5
1002
}
  0
LINE
  5
C3A6
330
18
100
AcDbEntity
  8
0
  6
BYBLOCK
100
AcDbLine
 10
5261.57443689045
 20
-300.3673277564566
 30
0.0
 11
5260.87776899645
 21
-302.9673277564566
 31
0.0
  0
LINE
  5
C3A7
330
18
100
AcDbEntity
  8
0
  6
BYBLOCK
100
AcDbLine
 10
5260.87776899645
 20
-302.9673277564566
 30
0.0
 11
5260.18110110245
 21
-300.3673277564566
 31
0.0
  0
LINE
  5
C3A8
330
18
100
AcDbEntity
  8
0
  6
BYBLOCK
100
AcDbLine
 10
5260.87776899645
 20
-302.9673277564566
 30
0.0
 11
5260.87776899645
 21
-300.3673277564566
 31
0.0
  0
LINE
  5
C3A9
330
18
100
AcDbEntity
  8
0
  6
BYBLOCK
100
AcDbLine
 10
5260.18110110245
 20
-281.5673238829407
 30
0.0
 11
5260.87776899645
 21
-278.9673238829407
 31
0.0
  0
LINE
  5
C3AA
330
18
100
AcDbEntity
  8
0
  6
BYBLOCK
100
AcDbLine
 10
5260.87776899645
 20
-278.9673238829407
 30
0.0
 11
5261.57443689045
 21
-281.5673238829407
 31
0.0
  0
LINE
  5
C3AB
330
18
100
AcDbEntity
  8
0
  6
BYBLOCK
100
AcDbLine
 10
5260.87776899645
 20
-278.9673238829407
 30
0.0
 11
5260.87776899645
 21
-281.5673238829407
 31
0.0
  0
TEXT
  5
C3AC
330
18
100
AcDbEntity
  8
1DIM
  6
CONTINUOUS
100
AcDbText
 10
5259.967768996449
 20
-294.758992486366
 30
0.0
 40
4.55
  1
24
 50
90.0
100
AcDbText
1001
ACAD
1000
DSTYLE
1002
{
1070
    40
1040
1.3
1070
    45
1040
0.5
1002
}
  0
LINE
  5
C3AD
330
18
100
AcDbEntity
  8
0
  6
BYBLOCK
100
AcDbLine
 10
5108.47776899645
 20
-216.6653100892829
 30
0.0
 11
5105.87776899645
 21
-215.9686421952829
 31
0.0
  0
LINE
  5
C3AE
330
18
100
AcDbEntity
  8
0
  6
BYBLOCK
100
AcDbLine
 10
5105.87776899645
 20
-215.9686421952829
 30
0.0
 11
5108.47776899645
 21
-215.2719743012829
 31
0.0
  0
LINE
  5
C3AF
330
18
100
AcDbEntity
  8
0
  6
BYBLOCK
100
AcDbLine
 10
5105.87776899645
 20
-215.9686421952829
 30
0.0
 11
5108.47776899645
 21
-215.9686421952829
 31
0.0
  0
LINE
  5
C3B0
330
18
100
AcDbEntity
  8
0
  6
BYBLOCK
100
AcDbLine
 10
5218.27776899645
 20
-215.2719743012829
 30
0.0
 11
5220.87776899645
 21
-215.9686421952829
 31
0.0
  0
LINE
  5
C3B1
330
18
100
AcDbEntity
  8
0
  6
BYBLOCK
100
AcDbLine
 10
5220.87776899645
 20
-215.9686421952829
 30
0.0
 11
5218.27776899645
 21
-216.6653100892829
 31
0.0
  0
LINE
  5
C3B2
330
18
100
AcDbEntity
  8
0
  6
BYBLOCK
100
AcDbLine
 10
5220.87776899645
 20
-215.9686421952829
 30
0.0
 11
5218.27776899645
 21
-215.9686421952829
 31
0.0
  0
TEXT
  5
C3B3
330
18
100
AcDbEntity
  8
1DIM
  6
CONTINUOUS
100
AcDbText
 10
5158.82776899645
 20
-215.0586421952829
 30
0.0
 40
4.55
  1
115
100
AcDbText
1001
ACAD
1000
DSTYLE
1002
{
1070
    40
1040
1.3
1070
    45
1040
0.5
1002
}
  0
LINE
  5
C3B4
330
18
100
AcDbEntity
  8
0
  6
BYBLOCK
100
AcDbLine
 10
5081.97776899645
 20
-226.6653100892829
 30
0.0
 11
5079.37776899645
 21
-225.9686421952829
 31
0.0
  0
LINE
  5
C3B5
330
18
100
AcDbEntity
  8
0
  6
BYBLOCK
100
AcDbLine
 10
5079.37776899645
 20
-225.9686421952829
 30
0.0
 11
5081.97776899645
 21
-225.2719743012829
 31
0.0
  0
LINE
  5
C3B6
330
18
100
AcDbEntity
  8
0
  6
BYBLOCK
100
AcDbLine
 10
5079.37776899645
 20
-225.9686421952829
 30
0.0
 11
5081.97776899645
 21
-225.9686421952829
 31
0.0
  0
LINE
  5
C3B7
330
18
100
AcDbEntity
  8
0
  6
BYBLOCK
100
AcDbLine
 10
5218.27776899645
 20
-225.2719743012829
 30
0.0
 11
5220.87776899645
 21
-225.9686421952829
 31
0.0
  0
LINE
  5
C3B8
330
18
100
AcDbEntity
  8
0
  6
BYBLOCK
100
AcDbLine
 10
5220.87776899645
 20
-225.9686421952829
 30
0.0
 11
5218.27776899645
 21
-226.6653100892829
 31
0.0
  0
LINE
  5
C3B9
330
18
100
AcDbEntity
  8
0
  6
BYBLOCK
100
AcDbLine
 10
5220.87776899645
 20
-225.9686421952829
 30
0.0
 11
5218.27776899645
 21
-225.9686421952829
 31
0.0
  0
TEXT
  5
C3BA
330
18
100
AcDbEntity
  8
1DIM
  6
CONTINUOUS
100
AcDbText
 10
5142.544435663117
 20
-225.0586421952829
 30
0.0
 40
4.55
  1
141.5
100
AcDbText
1001
ACAD
1000
DSTYLE
1002
{
1070
    40
1040
1.3
1070
    45
1040
0.5
1002
}
  0
LINE
  5
C3BB
330
18
100
AcDbEntity
  8
0
  6
BYBLOCK
100
AcDbLine
 10
5261.57443689045
 20
-166.8686421960996
 30
0.0
 11
5260.87776899645
 21
-169.4686421960996
 31
0.0
  0
LINE
  5
C3BC
330
18
100
AcDbEntity
  8
0
  6
BYBLOCK
100
AcDbLine
 10
5260.87776899645
 20
-169.4686421960996
 30
0.0
 11
5260.18110110245
 21
-166.8686421960996
 31
0.0
  0
LINE
  5
C3BD
330
18
100
AcDbEntity
  8
0
  6
BYBLOCK
100
AcDbLine
 10
5260.87776899645
 20
-169.4686421960996
 30
0.0
 11
5260.87776899645
 21
-166.8686421960996
 31
0.0
  0
LINE
  5
C3BE
330
18
100
AcDbEntity
  8
0
  6
BYBLOCK
100
AcDbLine
 10
5260.18110110245
 20
-133.5686421952829
 30
0.0
 11
5260.87776899645
 21
-130.9686421952829
 31
0.0
  0
LINE
  5
C3BF
330
18
100
AcDbEntity
  8
0
  6
BYBLOCK
100
AcDbLine
 10
5260.87776899645
 20
-130.9686421952829
 30
0.0
 11
5261.57443689045
 21
-133.5686421952829
 31
0.0
  0
LINE
  5
C3C0
330
18
100
AcDbEntity
  8
0
  6
BYBLOCK
100
AcDbLine
 10
5260.87776899645
 20
-130.9686421952829
 30
0.0
 11
5260.87776899645
 21
-133.5686421952829
 31
0.0
  0
TEXT
  5
C3C1
330
18
100
AcDbEntity
  8
1DIM
  6
CONTINUOUS
100
AcDbText
 10
5259.967768996449
 20
-157.0436421956911
 30
0.0
 40
4.55
  1
38.5
 50
90.0
100
AcDbText
1001
ACAD
1000
DSTYLE
1002
{
1070
    40
1040
1.3
1070
    45
1040
0.5
1002
}
  0
LINE
  5
C3C2
330
18
100
AcDbEntity
  8
0
  6
BYBLOCK
100
AcDbLine
 10
5271.57443689045
 20
-184.4002992445689
 30
0.0
 11
5270.87776899645
 21
-187.0002992445689
 31
0.0
  0
LINE
  5
C3C3
330
18
100
AcDbEntity
  8
0
  6
BYBLOCK
100
AcDbLine
 10
5270.87776899645
 20
-187.0002992445689
 30
0.0
 11
5270.18110110245
 21
-184.4002992445689
 31
0.0
  0
LINE
  5
C3C4
330
18
100
AcDbEntity
  8
0
  6
BYBLOCK
100
AcDbLine
 10
5270.87776899645
 20
-187.0002992445689
 30
0.0
 11
5270.87776899645
 21
-184.4002992445689
 31
0.0
  0
LINE
  5
C3C5
330
18
100
AcDbEntity
  8
0
  6
BYBLOCK
100
AcDbLine
 10
5270.18110110245
 20
-133.5686421952829
 30
0.0
 11
5270.87776899645
 21
-130.9686421952829
 31
0.0
  0
LINE
  5
C3C6
330
18
100
AcDbEntity
  8
0
  6
BYBLOCK
100
AcDbLine
 10
5270.87776899645
 20
-130.9686421952829
 30
0.0
 11
5271.57443689045
 21
-133.5686421952829
 31
0.0
  0
LINE
  5
C3C7
330
18
100
AcDbEntity
  8
0
  6
BYBLOCK
100
AcDbLine
 10
5270.87776899645
 20
-130.9686421952829
 30
0.0
 11
5270.87776899645
 21
-133.5686421952829
 31
0.0
  0
TEXT
  5
C3C8
330
18
100
AcDbEntity
  8
1DIM
  6
CONTINUOUS
100
AcDbText
 10
5269.96776899645
 20
-162.7919359977031
 30
0.0
 40
4.55
  1
56
 50
90.0
100
AcDbText
1001
ACAD
1000
DSTYLE
1002
{
1070
    40
1040
1.3
1070
    45
1040
0.5
1002
}
  0
VIEWPORT
  5
57
330
15
100
AcDbEntity
 67
     1
  8
0
100
AcDbViewport
 68
     1
 10
0.0
 20
0.0
 30
0.0
 40
535.5106132075472
 41
297.0
 68
     1
 69
     1
1001
ACAD
1000
MVIEW
1002
{
1070
    16
1010
0.0
1020
0.0
1030
0.0
1010
0.0
1020
0.0
1030
1.0
1040
0.0
1040
297.0
1040
5.728000000000009
1040
25.339
1040
50.0
1040
0.0
1040
0.0
1070
    16
1070
   100
1070
     0
1070
     1
1070
     0
1070
     0
1070
     0
1070
     0
1040
0.0
1040
0.0
1040
0.0
1040
10.0
1040
10.0
1040
10.0
1040
10.0
1070
     0
1002
{
1002
}
1002
}
  0
ENDSEC
  0
SECTION
  2
OBJECTS
  0
DICTIONARY
  5
C
330
0
100
AcDbDictionary
  3
ACAD_COLOR
350
18D
  3
ACAD_GROUP
350
D
  3
ACAD_LAYOUT
350
18E
  3
ACAD_MATERIAL
350
18C
  3
ACAD_MLEADERSTYLE
350
9583
  3
ACAD_MLINESTYLE
350
1B
  3
ACAD_PLOTSETTINGS
350
18F
  3
ACAD_SCALELIST
350
9561
  3
ACAD_VISUALSTYLE
350
9550
  3
ACDBHEADERROUNDTRIPXREC
350
C3C9
  3
ACDBVARIABLEDICTIONARY
350
37
  3
CONTENTDICTIONARY
350
D8
  3
DRAWINGVARIABLESDICT
350
20
  3
DWGPROPS
350
C3CC
1001
ACAD
1000
TREAT_AS_HARD
1070
     0
  0
DICTIONARY
  5
96D9
330
2
100
AcDbDictionary
  3
ACAD_LAYERSTATES
360
96DA
1001
ACAD
1000
TREAT_AS_HARD
1070
     1
  0
DICTIONARY
  5
9593
330
E
100
AcDbDictionary
  3
ADSK_XREC_LAYER_RECONCILED
360
9594
1001
ACAD
1000
TREAT_AS_HARD
1070
     1
  0
DICTIONARY
  5
9595
330
29
100
AcDbDictionary
  3
ADSK_XREC_LAYER_RECONCILED
360
9596
1001
ACAD
1000
TREAT_AS_HARD
1070
     1
  0
DICTIONARY
  5
9597
330
31
100
AcDbDictionary
  3
ADSK_XREC_LAYER_RECONCILED
360
9598
1001
ACAD
1000
TREAT_AS_HARD
1070
     1
  0
DICTIONARY
  5
959D
330
243
100
AcDbDictionary
  3
ADSK_XREC_LAYER_RECONCILED
360
959E
1001
ACAD
1000
TREAT_AS_HARD
1070
     1
  0
DICTIONARY
  5
95A3
330
24E
100
AcDbDictionary
  3
ADSK_XREC_LAYER_RECONCILED
360
95A4
1001
ACAD
1000
TREAT_AS_HARD
1070
     1
  0
DICTIONARY
  5
88F
330
18
100
AcDbDictionary
  3
ACAD_SORTENTS
360
890
1001
ACAD
1000
TREAT_AS_HARD
1070
     1
  0
DICTIONARY
  5
18D
102
{ACAD_REACTORS
330
C
102
}
330
C
100
AcDbDictionary
1001
ACAD
1000
TREAT_AS_HARD
1070
     0
  0
DICTIONARY
  5
D
102
{ACAD_REACTORS
330
C
102
}
330
C
100
AcDbDictionary
1001
ACAD
1000
TREAT_AS_HARD
1070
     0
  0
DICTIONARY
  5
18E
102
{ACAD_REACTORS
330
C
102
}
330
C
100
AcDbDictionary
1001
ACAD
1000
TREAT_AS_HARD
1070
     0
  0
DICTIONARY
  5
18C
102
{ACAD_REACTORS
330
C
102
}
330
C
100
AcDbDictionary
  3
BYBLOCK
350
9540
  3
BYLAYER
350
9538
  3
GLOBAL
350
9548
1001
ACAD
1000
TREAT_AS_HARD
1070
     0
  0
DICTIONARY
  5
9583
102
{ACAD_REACTORS
330
C
102
}
330
C
100
AcDbDictionary
  3
STANDARD
350
9584
1001
ACAD
1000
TREAT_AS_HARD
1070
     0
  0
DICTIONARY
  5
1B
102
{ACAD_REACTORS
330
C
102
}
330
C
100
AcDbDictionary
  3
STANDARD
350
1C
1001
ACAD
1000
TREAT_AS_HARD
1070
     0
  0
DICTIONARY
  5
18F
102
{ACAD_REACTORS
330
C
102
}
330
C
100
AcDbDictionary
1001
ACAD
1000
TREAT_AS_HARD
1070
     0
  0
DICTIONARY
  5
9561
102
{ACAD_REACTORS
330
C
102
}
330
C
100
AcDbDictionary
  3
A0
350
9562
  3
A1
350
9563
  3
A2
350
9564
  3
A3
350
9565
  3
A4
350
9566
  3
A5
350
9567
  3
A6
350
9568
  3
A7
350
9569
  3
A8
350
956A
  3
A9
350
956B
  3
B0
350
956C
  3
B1
350
956D
  3
B2
350
956E
  3
B3
350
956F
  3
B4
350
9570
  3
B5
350
9571
  3
B6
350
9572
  3
B7
350
9573
  3
B8
350
9574
  3
B9
350
9575
  3
C0
350
9576
  3
C1
350
9577
  3
C2
350
9578
  3
C3
350
9579
  3
C4
350
957A
  3
C5
350
957B
  3
C6
350
957C
  3
C7
350
957D
  3
C8
350
957E
  3
C9
350
957F
  3
D0
350
9580
  3
D1
350
9581
  3
D2
350
9582
1001
ACAD
1000
TREAT_AS_HARD
1070
     0
  0
DICTIONARY
  5
9550
102
{ACAD_REACTORS
330
C
102
}
330
C
100
AcDbDictionary
  3
2DWIREFRAME
350
9556
  3
3D_HIDDEN
350
9558
  3
3DWIREFRAME
350
9557
  3
BASIC
350
9555
  3
BRIGHTEN
350
955C
  3
COLORCHANGE
350
9560
  3
CONCEPTUAL
350
9559
  3
DIM
350
955B
  3
EDGECOLOROFF
350
A211
  3
FACEPATTERN
350
955F
  3
FLAT
350
9551
  3
FLATWITHEDGES
350
9552
  3
GOURAUD
350
9553
  3
GOURAUDWITHEDGES
350
9554
  3
HIDDEN
350
A260
  3
JITTEROFF
350
A20F
  3
LINEPATTERN
350
955E
  3
MODELING
350
A266
  3
OVERHANGOFF
350
A210
  3
REALISTIC
350
955A
  3
SHADED
350
A265
  3
SHADED_WITH_EDGES
350
A264
  3
SHADES_OF_GRAY
350
A261
  3
SKETCHY
350
A262
  3
THICKEN
350
955D
  3
WIREFRAME
350
A25F
  3
X-RAY
350
A263
1001
ACAD
1000
TREAT_AS_HARD
1070
     0
  0
DICTIONARY
  5
C3C9
102
{ACAD_REACTORS
330
C
102
}
330
C
100
AcDbDictionary
  3
COLORDICT
350
C3CA
  3
MATERIALDICT
350
C3CB
1001
ACAD
1000
TREAT_AS_HARD
1070
     0
  0
DICTIONARY
  5
37
102
{ACAD_REACTORS
330
C
102
}
330
C
100
AcDbDictionary
  3
CANNOSCALE
350
AAE0
  3
CMLEADERSTYLE
350
9627
  3
CTABLESTYLE
350
29E
  3
DIMADEC
350
38
  3
DIMASSOC
350
1CE
  3
HIDETEXT
350
704E
  3
INDEXCTL
350
962A
  3
INTERSECTIONCOLOR
350
7052
  3
INTERSECTIONDISPLAY
350
7051
  3
MSLTSCALE
350
AB30
  3
OBSCOLOR
350
704F
  3
OBSLTYPE
350
7050
  3
PROJECTNAME
350
1CF
  3
SORTENTS
350
9629
  3
XCLIPFRAME
350
A25E
1001
ACAD
1000
TREAT_AS_HARD
1070
     0
  0
DICTIONARY
  5
D8
102
{ACAD_REACTORS
330
C
102
}
330
C
100
AcDbDictionary
1001
ACAD
1000
TREAT_AS_HARD
1070
     0
  0
DICTIONARY
  5
20
102
{ACAD_REACTORS
330
C
102
}
330
C
100
AcDbDictionary
1001
DRAWINGVARIABLESXDATA
1000
POLARANG
1000
0.261799387799149410000000
1000
POLARMODE
1000
1
1000
POLARSTYLE
1000
1
1001
ACAD
1000
TREAT_AS_HARD
1070
     0
  0
XRECORD
  5
C3CC
102
{ACAD_REACTORS
330
C
102
}
330
C
100
AcDbXrecord
  1
DWGPROPS COOKIE
  2

  3

  4

  6

  7

  8
3684
  9

300
=
301
=
302
=
303
=
304
=
305
=
306
=
307
=
308
=
309
=
 40
0.0
 41
2451318.246352917
 42
2458912.24672007
  1

 90
        0
  0
DICTIONARY
  5
96DA
102
{ACAD_REACTORS
330
96D9
102
}
330
96D9
100
AcDbDictionary
1001
ACAD
1000
TREAT_AS_HARD
1070
     0
  0
ACAD_PROXY_OBJECT
  5
9594
102
{ACAD_REACTORS
330
9593
102
}
330
9593
100
AcDbZombieObject
 90
      499
 91
      514
 93
       34
310
40C8804040
  0
ACAD_PROXY_OBJECT
  5
9596
102
{ACAD_REACTORS
330
9595
102
}
330
9595
100
AcDbZombieObject
 90
      499
 91
      514
 93
       34
310
40C8804040
  0
ACAD_PROXY_OBJECT
  5
9598
102
{ACAD_REACTORS
330
9597
102
}
330
9597
100
AcDbZombieObject
 90
      499
 91
      514
 93
       34
310
40C8804040
  0
ACAD_PROXY_OBJECT
  5
959E
102
{ACAD_REACTORS
330
959D
102
}
330
959D
100
AcDbZombieObject
 90
      499
 91
      514
 93
       34
310
40C8804040
  0
ACAD_PROXY_OBJECT
  5
95A4
102
{ACAD_REACTORS
330
95A3
102
}
330
95A3
100
AcDbZombieObject
 90
      499
 91
      514
 93
       34
310
40C8804040
  0
SORTENTSTABLE
  5
890
102
{ACAD_REACTORS
330
88F
102
}
330
88F
100
AcDbSortentsTable
330
18
331
C107
  5
C114
331
C108
  5
C115
331
C109
  5
C116
331
C10A
  5
C117
331
C10B
  5
C118
331
C10C
  5
C119
331
C10D
  5
C11A
331
C10E
  5
C11B
331
C10F
  5
C11C
331
C110
  5
C11D
331
C111
  5
C11E
331
C112
  5
C11F
331
C113
  5
C120
331
C114
  5
C121
331
C115
  5
C122
331
C116
  5
C123
331
C117
  5
C124
331
C118
  5
C125
331
C119
  5
C126
331
C11A
  5
C127
331
C11B
  5
C128
331
0
  5
C129
331
C11D
  5
C137
331
C11E
  5
C13C
331
C11F
  5
C13D
331
C120
  5
C13E
331
C121
  5
C13F
331
C122
  5
C140
331
C123
  5
C141
331
C124
  5
C142
331
C125
  5
C143
331
C126
  5
C144
331
C127
  5
C148
331
C128
  5
C149
331
C129
  5
C14A
331
C12A
  5
C14E
331
0
  5
C138
331
0
  5
C139
331
0
  5
C13A
331
0
  5
C13B
331
C12F
  5
C17D
331
C130
  5
C17E
331
C131
  5
C17F
331
C132
  5
C180
331
C133
  5
C181
331
C134
  5
C182
331
C135
  5
C183
331
C136
  5
C184
331
C137
  5
C185
331
C138
  5
C186
331
C139
  5
C187
331
C13A
  5
C188
331
C13B
  5
C189
331
C13C
  5
C18A
331
C13D
  5
C18B
331
C13E
  5
C18C
331
C13F
  5
C18D
331
C140
  5
C18E
331
C141
  5
C18F
331
C142
  5
C190
331
C143
  5
C191
331
C144
  5
C192
331
C145
  5
C193
331
C146
  5
C194
331
C147
  5
C195
331
C148
  5
C196
331
C149
  5
C197
331
C14A
  5
C198
331
C14B
  5
C199
331
C14C
  5
C19A
331
C14D
  5
C19B
331
C14E
  5
C19C
331
C14F
  5
C19D
331
C150
  5
C19E
331
C151
  5
C19F
331
C152
  5
C1A0
331
C153
  5
C1A1
331
C154
  5
C1A2
331
C155
  5
C1A3
331
C156
  5
C1A4
331
C157
  5
C1A5
331
C158
  5
C1A6
331
C159
  5
C1A7
331
C15A
  5
C1A8
331
C15B
  5
C1A9
331
C15C
  5
C1AA
331
C15D
  5
C1AB
331
C15E
  5
C1AC
331
C15F
  5
C1AD
331
C160
  5
C1AE
331
C161
  5
C1AF
331
C162
  5
C1B0
331
C163
  5
C1B1
331
C164
  5
C1B2
331
C165
  5
C1B3
331
C166
  5
C1B4
331
C167
  5
C1B5
331
C168
  5
C1B6
331
C169
  5
C1B7
331
C16A
  5
C1B8
331
C16B
  5
C1B9
331
C16C
  5
C1BA
331
C16D
  5
C1BB
331
C16E
  5
C1BC
331
C16F
  5
C1BD
331
C170
  5
C1BE
331
C171
  5
C1BF
331
C172
  5
C1C0
331
C173
  5
C1C1
331
C174
  5
C1C2
331
C175
  5
C1C3
331
C176
  5
C1C4
331
C177
  5
C1C5
331
C178
  5
C1C6
331
C179
  5
C1C7
331
C17A
  5
C1C8
331
C17B
  5
C1C9
331
C17C
  5
C1CA
331
C17D
  5
C1CB
331
C17E
  5
C1CC
331
C17F
  5
C1CD
331
C180
  5
C1CE
331
C181
  5
C1CF
331
C182
  5
C1D0
331
C183
  5
C1D1
331
C184
  5
C1D2
331
C185
  5
C1D3
331
C186
  5
C1D4
331
C187
  5
C1D5
331
C188
  5
C1D6
331
C189
  5
C1D7
331
C18A
  5
C1D8
331
C18B
  5
C1D9
331
C18C
  5
C1DA
331
C18D
  5
C1DB
331
C18E
  5
C1DC
331
C18F
  5
C1DD
331
C190
  5
C1DE
331
C191
  5
C1DF
331
C192
  5
C1E0
331
C193
  5
C1E1
331
C194
  5
C1E2
331
C195
  5
C1E3
331
C196
  5
C1E4
331
C197
  5
C1E5
331
C198
  5
C1E6
331
C199
  5
C1E7
331
C19A
  5
C1E8
331
C19B
  5
C1E9
331
C19C
  5
C1EA
331
C19D
  5
C1EB
331
C19E
  5
C1EC
331
C19F
  5
C1ED
331
C1A0
  5
C1EE
331
C1A1
  5
C1EF
331
C1A2
  5
C1F0
331
C1A3
  5
C1F1
331
C1A4
  5
C1F2
331
C1A5
  5
C1F3
331
C1A6
  5
C1F4
331
C1A7
  5
C1F5
331
C1A8
  5
C1F6
331
C1A9
  5
C1F7
331
C1AA
  5
C1F8
331
C1AB
  5
C1F9
331
C1AC
  5
C1FA
331
C1AD
  5
C1FB
331
C1AE
  5
C1FC
331
C1AF
  5
C1FD
331
C1B0
  5
C1FE
331
C1B1
  5
C1FF
331
C1B2
  5
C200
331
C1B3
  5
C201
331
C1B4
  5
C202
331
C1B5
  5
C203
331
C1B6
  5
C204
331
C1B7
  5
C205
331
C1B8
  5
C206
331
C1B9
  5
C207
331
C1BA
  5
C208
331
C1BB
  5
C209
331
C1BC
  5
C20A
331
C1BD
  5
C20B
331
C1BE
  5
C20C
331
C1BF
  5
C20D
331
C1C0
  5
C20E
331
C1C1
  5
C20F
331
C1C2
  5
C210
331
C1C3
  5
C211
331
C1C4
  5
C212
331
C1C5
  5
C213
331
C1C6
  5
C214
331
C1C7
  5
C215
331
C1C8
  5
C216
331
C1C9
  5
C217
331
C1CA
  5
C218
331
C1CB
  5
C219
331
C1CC
  5
C21A
331
C1CD
  5
C37B
331
C1CE
  5
C37C
331
C1CF
  5
C37D
331
C1D0
  5
C37E
331
C1D1
  5
C37F
331
C1D2
  5
C380
331
C1D3
  5
C381
331
C1D4
  5
C382
331
C1D5
  5
C383
331
C1D6
  5
C384
331
C1D7
  5
C385
331
C1D8
  5
C386
331
C1D9
  5
C387
331
C1DA
  5
C388
331
C1DB
  5
C389
331
C1DC
  5
C38A
331
C1DD
  5
C38B
331
C1DE
  5
C38C
331
C1DF
  5
C38D
331
C1E0
  5
C38E
331
C1E1
  5
C38F
331
C1E2
  5
C390
331
C1E3
  5
C391
331
C1E4
  5
C392
331
C1E5
  5
C393
331
C1E6
  5
C394
331
C1E7
  5
C395
331
C1E8
  5
C396
331
C1E9
  5
C397
331
C1EA
  5
C398
331
C1EB
  5
C399
331
C1EC
  5
C39A
331
C1ED
  5
C39B
331
C1EE
  5
C39C
331
C1EF
  5
C39D
331
C1F0
  5
C39E
331
C1F1
  5
C39F
331
C1F2
  5
C3A0
331
C1F3
  5
C3A1
331
C1F4
  5
C3A2
331
C1F5
  5
C3A3
331
C1F6
  5
C3A4
331
C1F7
  5
C3A5
331
C1F8
  5
C3A6
331
C1F9
  5
C3A7
331
C1FA
  5
C3A8
331
C1FB
  5
C3A9
331
C1FC
  5
C3AA
331
C1FD
  5
C3AB
331
C1FE
  5
C3AC
331
C1FF
  5
C3AD
331
C200
  5
C3AE
331
C201
  5
C3AF
331
C202
  5
C3B0
331
C203
  5
C3B1
331
C204
  5
C3B2
331
C205
  5
C3B3
331
C206
  5
C3B4
331
C207
  5
C3B5
331
C208
  5
C3B6
331
C209
  5
C3B7
331
C20A
  5
C3B8
331
C20B
  5
C3B9
331
C20C
  5
C3BA
331
C20D
  5
C3BB
331
C20E
  5
C3BC
331
C20F
  5
C3BD
331
C210
  5
C3BE
331
C211
  5
C3BF
331
C212
  5
C3C0
331
C213
  5
C3C1
331
C214
  5
C3C2
331
C215
  5
C3C3
331
C216
  5
C3C4
331
C217
  5
C3C5
331
C218
  5
C3C6
331
C219
  5
C3C7
331
C21A
  5
C3C8
331
C37B
  5
C107
331
C37C
  5
C108
331
C37D
  5
C109
331
0
  5
C10A
331
0
  5
C10B
331
0
  5
C10C
331
C381
  5
C10D
331
C382
  5
C10E
331
C383
  5
C10F
331
C384
  5
C110
331
C385
  5
C111
331
C386
  5
C112
331
C387
  5
C113
331
C388
  5
C12A
331
C389
  5
C12B
331
C38A
  5
C12C
331
0
  5
C12D
331
0
  5
C12E
331
0
  5
C12F
331
C38E
  5
C14F
331
C38F
  5
C150
331
C390
  5
C154
331
0
  5
C145
331
0
  5
C146
331
0
  5
C147
331
C394
  5
C15F
331
C395
  5
C160
331
C396
  5
C161
331
0
  5
C14B
331
0
  5
C14C
331
0
  5
C14D
331
C39A
  5
C169
331
C39B
  5
C16A
331
C39C
  5
C16B
331
0
  5
C151
331
0
  5
C152
331
0
  5
C153
331
C3A0
  5
C173
331
C3A1
  5
C174
331
C3A2
  5
C175
331
0
  5
C157
331
0
  5
C158
331
0
  5
C159
331
C3A6
  5
C130
331
C3A7
  5
C131
331
C3A8
  5
C132
331
C3A9
  5
C133
331
C3AA
  5
C134
331
C3AB
  5
C135
331
C3AC
  5
C136
331
C3AD
  5
C155
331
C3AE
  5
C156
331
C3AF
  5
C15A
331
C3B0
  5
C15B
331
C3B1
  5
C15C
331
C3B2
  5
C15D
331
C3B3
  5
C15E
331
C3B4
  5
C162
331
C3B5
  5
C163
331
C3B6
  5
C164
331
C3B7
  5
C165
331
C3B8
  5
C166
331
C3B9
  5
C167
331
C3BA
  5
C168
331
C3BB
  5
C16C
331
C3BC
  5
C16D
331
C3BD
  5
C16E
331
C3BE
  5
C16F
331
C3BF
  5
C170
331
C3C0
  5
C171
331
C3C1
  5
C172
331
C3C2
  5
C176
331
C3C3
  5
C177
331
C3C4
  5
C178
331
C3C5
  5
C179
331
C3C6
  5
C17A
331
C3C7
  5
C17B
331
C3C8
  5
C17C
  0
MATERIAL
  5
9540
102
{ACAD_REACTORS
330
18C
102
}
102
{ACAD_XDICTIONARY
360
C567
102
}
330
18C
100
AcDbMaterial
  1
BYBLOCK
 72
     0
 73
     2
 43
0.0208333333333333
 43
0.0
 43
0.0
 43
0.0
 43
0.0
 43
0.0208333333333333
 43
0.0
 43
0.0
 43
0.0
 43
0.0
 43
1.0
 43
0.0
 43
0.0
 43
0.0
 43
0.0
 43
1.0
 77
     0
 78
     2
 47
0.0208333333333333
 47
0.0
 47
0.0
 47
0.0
 47
0.0
 47
0.0208333333333333
 47
0.0
 47
0.0
 47
0.0
 47
0.0
 47
1.0
 47
0.0
 47
0.0
 47
0.0
 47
0.0
 47
1.0
171
     0
172
     2
 49
0.0208333333333333
 49
0.0
 49
0.0
 49
0.0
 49
0.0
 49
0.0208333333333333
 49
0.0
 49
0.0
 49
0.0
 49
0.0
 49
1.0
 49
0.0
 49
0.0
 49
0.0
 49
0.0
 49
1.0
175
     0
176
     2
142
0.0208333333333333
142
0.0
142
0.0
142
0.0
142
0.0
142
0.0208333333333333
142
0.0
142
0.0
142
0.0
142
0.0
142
1.0
142
0.0
142
0.0
142
0.0
142
0.0
142
1.0
179
     0
270
     2
144
0.0208333333333333
144
0.0
144
0.0
144
0.0
144
0.0
144
0.0208333333333333
144
0.0
144
0.0
144
0.0
144
0.0
144
1.0
144
0.0
144
0.0
144
0.0
144
0.0
144
1.0
274
     2
147
0.0208333333333333
147
0.0
147
0.0
147
0.0
147
0.0
147
0.0208333333333333
147
0.0
147
0.0
147
0.0
147
0.0
147
1.0
147
0.0
147
0.0
147
0.0
147
0.0
147
1.0
  0
MATERIAL
  5
9538
102
{ACAD_REACTORS
330
18C
102
}
102
{ACAD_XDICTIONARY
360
C569
102
}
330
18C
100
AcDbMaterial
  1
BYLAYER
 72
     0
 73
     2
 43
0.0208333333333333
 43
0.0
 43
0.0
 43
0.0
 43
0.0
 43
0.0208333333333333
 43
0.0
 43
0.0
 43
0.0
 43
0.0
 43
1.0
 43
0.0
 43
0.0
 43
0.0
 43
0.0
 43
1.0
 77
     0
 78
     2
 47
0.0208333333333333
 47
0.0
 47
0.0
 47
0.0
 47
0.0
 47
0.0208333333333333
 47
0.0
 47
0.0
 47
0.0
 47
0.0
 47
1.0
 47
0.0
 47
0.0
 47
0.0
 47
0.0
 47
1.0
171
     0
172
     2
 49
0.0208333333333333
 49
0.0
 49
0.0
 49
0.0
 49
0.0
 49
0.0208333333333333
 49
0.0
 49
0.0
 49
0.0
 49
0.0
 49
1.0
 49
0.0
 49
0.0
 49
0.0
 49
0.0
 49
1.0
175
     0
176
     2
142
0.0208333333333333
142
0.0
142
0.0
142
0.0
142
0.0
142
0.0208333333333333
142
0.0
142
0.0
142
0.0
142
0.0
142
1.0
142
0.0
142
0.0
142
0.0
142
0.0
142
1.0
179
     0
270
     2
144
0.0208333333333333
144
0.0
144
0.0
144
0.0
144
0.0
144
0.0208333333333333
144
0.0
144
0.0
144
0.0
144
0.0
144
1.0
144
0.0
144
0.0
144
0.0
144
0.0
144
1.0
274
     2
147
0.0208333333333333
147
0.0
147
0.0
147
0.0
147
0.0
147
0.0208333333333333
147
0.0
147
0.0
147
0.0
147
0.0
147
1.0
147
0.0
147
0.0
147
0.0
147
0.0
147
1.0
  0
MATERIAL
  5
9548
102
{ACAD_REACTORS
330
18C
102
}
102
{ACAD_XDICTIONARY
360
C56B
102
}
330
18C
100
AcDbMaterial
  1
GLOBAL
 72
     0
 73
     2
 43
0.0208333333333333
 43
0.0
 43
0.0
 43
0.0
 43
0.0
 43
0.0208333333333333
 43
0.0
 43
0.0
 43
0.0
 43
0.0
 43
1.0
 43
0.0
 43
0.0
 43
0.0
 43
0.0
 43
1.0
 77
     0
 78
     2
 47
0.0208333333333333
 47
0.0
 47
0.0
 47
0.0
 47
0.0
 47
0.0208333333333333
 47
0.0
 47
0.0
 47
0.0
 47
0.0
 47
1.0
 47
0.0
 47
0.0
 47
0.0
 47
0.0
 47
1.0
171
     0
172
     2
 49
0.0208333333333333
 49
0.0
 49
0.0
 49
0.0
 49
0.0
 49
0.0208333333333333
 49
0.0
 49
0.0
 49
0.0
 49
0.0
 49
1.0
 49
0.0
 49
0.0
 49
0.0
 49
0.0
 49
1.0
175
     0
176
     2
142
0.0208333333333333
142
0.0
142
0.0
142
0.0
142
0.0
142
0.0208333333333333
142
0.0
142
0.0
142
0.0
142
0.0
142
1.0
142
0.0
142
0.0
142
0.0
142
0.0
142
1.0
179
     0
270
     2
144
0.0208333333333333
144
0.0
144
0.0
144
0.0
144
0.0
144
0.0208333333333333
144
0.0
144
0.0
144
0.0
144
0.0
144
1.0
144
0.0
144
0.0
144
0.0
144
0.0
144
1.0
274
     2
147
0.0208333333333333
147
0.0
147
0.0
147
0.0
147
0.0
147
0.0208333333333333
147
0.0
147
0.0
147
0.0
147
0.0
147
1.0
147
0.0
147
0.0
147
0.0
147
0.0
147
1.0
  0
ACAD_PROXY_OBJECT
  5
9584
102
{ACAD_REACTORS
330
9583
102
}
330
9583
100
AcDbZombieObject
 90
      499
 91
      511
 93
      610
310
40901902A4063FBFFFFFE000000000000002040AD7A3703D0AD73F4214DD185B99185C990000000000000104090141901A00000000000004100000000000000041025764000000000000300FC0
340
12
340
0
340
F
340
0
 94
        0
1001
ACAD_MLEADERVER
1070
     2
  0
MLINESTYLE
  5
1C
102
{ACAD_REACTORS
330
1B
102
}
330
1B
100
AcDbMlineStyle
  2
STANDARD
 70
     0
  3

 62
   256
 51
90.0
 52
90.0
 71
     2
 49
0.5
 62
   256
  6
BYLAYER
 49
-0.5
 62
   256
  6
BYLAYER
  0
ACAD_PROXY_OBJECT
  5
9562
102
{ACAD_REACTORS
330
9561
102
}
330
9561
100
AcDbZombieObject
 90
      499
 91
      510
 93
       41
310
903313A31580
  0
ACAD_PROXY_OBJECT
  5
9563
102
{ACAD_REACTORS
330
9561
102
}
330
9561
100
AcDbZombieObject
 90
      499
 91
      510
 93
      105
310
903313A324000000000000004000
  0
ACAD_PROXY_OBJECT
  5
9564
102
{ACAD_REACTORS
330
9561
102
}
330
9561
100
AcDbZombieObject
 90
      499
 91
      510
 93
      105
310
903313A344000000000000104000
  0
ACAD_PROXY_OBJECT
  5
9565
102
{ACAD_REACTORS
330
9561
102
}
330
9561
100
AcDbZombieObject
 90
      499
 91
      510
 93
      105
310
903313A354000000000000144000
  0
ACAD_PROXY_OBJECT
  5
9566
102
{ACAD_REACTORS
330
9561
102
}
330
9561
100
AcDbZombieObject
 90
      499
 91
      510
 93
      105
310
903313A384000000000000204000
  0
ACAD_PROXY_OBJECT
  5
9567
102
{ACAD_REACTORS
330
9561
102
}
330
9561
100
AcDbZombieObject
 90
      499
 91
      510
 93
      113
310
904313A31304000000000000244000
  0
ACAD_PROXY_OBJECT
  5
9568
102
{ACAD_REACTORS
330
9561
102
}
330
9561
100
AcDbZombieObject
 90
      499
 91
      510
 93
      113
310
904313A31364000000000000304000
  0
ACAD_PROXY_OBJECT
  5
9569
102
{ACAD_REACTORS
330
9561
102
}
330
9561
100
AcDbZombieObject
 90
      499
 91
      510
 93
      113
310
904313A32304000000000000344000
  0
ACAD_PROXY_OBJECT
  5
956A
102
{ACAD_REACTORS
330
9561
102
}
330
9561
100
AcDbZombieObject
 90
      499
 91
      510
 93
      113
310
904313A333040000000000003E4000
  0
ACAD_PROXY_OBJECT
  5
956B
102
{ACAD_REACTORS
330
9561
102
}
330
9561
100
AcDbZombieObject
 90
      499
 91
      510
 93
      113
310
904313A34304000000000000444000
  0
ACAD_PROXY_OBJECT
  5
956C
102
{ACAD_REACTORS
330
9561
102
}
330
9561
100
AcDbZombieObject
 90
      499
 91
      510
 93
      113
310
904313A35304000000000000494000
  0
ACAD_PROXY_OBJECT
  5
956D
102
{ACAD_REACTORS
330
9561
102
}
330
9561
100
AcDbZombieObject
 90
      499
 91
      510
 93
      121
310
905313A3130304000000000000594000
  0
ACAD_PROXY_OBJECT
  5
956E
102
{ACAD_REACTORS
330
9561
102
}
330
9561
100
AcDbZombieObject
 90
      499
 91
      510
 93
      105
310
903323A310000000000000010100
  0
ACAD_PROXY_OBJECT
  5
956F
102
{ACAD_REACTORS
330
9561
102
}
330
9561
100
AcDbZombieObject
 90
      499
 91
      510
 93
      105
310
903343A310000000000000410100
  0
ACAD_PROXY_OBJECT
  5
9570
102
{ACAD_REACTORS
330
9561
102
}
330
9561
100
AcDbZombieObject
 90
      499
 91
      510
 93
      105
310
903383A310000000000000810100
  0
ACAD_PROXY_OBJECT
  5
9571
102
{ACAD_REACTORS
330
9561
102
}
330
9561
100
AcDbZombieObject
 90
      499
 91
      510
 93
      113
310
90431303A310000000000000910100
  0
ACAD_PROXY_OBJECT
  5
9572
102
{ACAD_REACTORS
330
9561
102
}
330
9561
100
AcDbZombieObject
 90
      499
 91
      510
 93
      121
310
9053130303A310000000000001650100
  0
ACAD_PROXY_OBJECT
  5
9573
102
{ACAD_REACTORS
330
9561
102
}
330
9561
100
AcDbZombieObject
 90
      499
 91
      510
 93
      257
310
90E312F31323822203D2031272D3022000000000000200FC000000000000284000
  0
ACAD_PROXY_OBJECT
  5
9574
102
{ACAD_REACTORS
330
9561
102
}
330
9561
100
AcDbZombieObject
 90
      499
 91
      510
 93
      249
310
90D312F363422203D2031272D3022000000000000240FC000000000000284000
  0
ACAD_PROXY_OBJECT
  5
9575
102
{ACAD_REACTORS
330
9561
102
}
330
9561
100
AcDbZombieObject
 90
      499
 91
      510
 93
      249
310
90D312F333222203D2031272D3022000000000000280FC000000000000284000
  0
ACAD_PROXY_OBJECT
  5
9576
102
{ACAD_REACTORS
330
9561
102
}
330
9561
100
AcDbZombieObject
 90
      499
 91
      510
 93
      249
310
90D312F313622203D2031272D30220000000000002C0FC000000000000284000
  0
ACAD_PROXY_OBJECT
  5
9577
102
{ACAD_REACTORS
330
9561
102
}
330
9561
100
AcDbZombieObject
 90
      499
 91
      510
 93
      249
310
90D332F333222203D2031272D30220000000000002E0FC000000000000284000
  0
ACAD_PROXY_OBJECT
  5
9578
102
{ACAD_REACTORS
330
9561
102
}
330
9561
100
AcDbZombieObject
 90
      499
 91
      510
 93
      241
310
90C312F3822203D2031272D3022000000000000300FC000000000000284000
  0
ACAD_PROXY_OBJECT
  5
9579
102
{ACAD_REACTORS
330
9561
102
}
330
9561
100
AcDbZombieObject
 90
      499
 91
      510
 93
      249
310
90D332F313622203D2031272D3022000000000000320FC000000000000284000
  0
ACAD_PROXY_OBJECT
  5
957A
102
{ACAD_REACTORS
330
9561
102
}
330
9561
100
AcDbZombieObject
 90
      499
 91
      510
 93
      241
310
90C312F3422203D2031272D3022000000000000340FC000000000000284000
  0
ACAD_PROXY_OBJECT
  5
957B
102
{ACAD_REACTORS
330
9561
102
}
330
9561
100
AcDbZombieObject
 90
      499
 91
      510
 93
      241
310
90C332F3822203D2031272D3022000000000000360FC000000000000284000
  0
ACAD_PROXY_OBJECT
  5
957C
102
{ACAD_REACTORS
330
9561
102
}
330
9561
100
AcDbZombieObject
 90
      499
 91
      510
 93
      241
310
90C312F3222203D2031272D3022000000000000380FC000000000000284000
  0
ACAD_PROXY_OBJECT
  5
957D
102
{ACAD_REACTORS
330
9561
102
}
330
9561
100
AcDbZombieObject
 90
      499
 91
      510
 93
      241
310
90C332F3422203D2031272D30220000000000003A0FC000000000000284000
  0
ACAD_PROXY_OBJECT
  5
957E
102
{ACAD_REACTORS
330
9561
102
}
330
9561
100
AcDbZombieObject
 90
      499
 91
      510
 93
      161
310
90A3122203D2031272D30224000000000000284000
  0
ACAD_PROXY_OBJECT
  5
957F
102
{ACAD_REACTORS
330
9561
102
}
330
9561
100
AcDbZombieObject
 90
      499
 91
      510
 93
      257
310
90E312D312F3222203D2031272D30220000000000003E0FC000000000000284000
  0
ACAD_PROXY_OBJECT
  5
9580
102
{ACAD_REACTORS
330
9561
102
}
330
9561
100
AcDbZombieObject
 90
      499
 91
      510
 93
      225
310
90A3322203D2031272D302200000000000002100000000000000284000
  0
ACAD_PROXY_OBJECT
  5
9581
102
{ACAD_REACTORS
330
9561
102
}
330
9561
100
AcDbZombieObject
 90
      499
 91
      510
 93
      225
310
90A3622203D2031272D302200000000000006100000000000000284000
  0
ACAD_PROXY_OBJECT
  5
9582
102
{ACAD_REACTORS
330
9561
102
}
330
9561
100
AcDbZombieObject
 90
      499
 91
      510
 93
      249
310
90D31272D3022203D2031272D30220000000000000A100000000000000284000
  0
ACAD_PROXY_OBJECT
  5
9556
102
{ACAD_REACTORS
330
9550
102
}
330
9550
100
AcDbZombieObject
 90
      499
 91
      509
 93
      436
310
42CC9915DA5C99599C985B595049028333333333333E3BF0000000000000FB0107901411070040501600405405064090741402480A0340
1001
ACAD
1000
AcDbSavedByObjectVersion
1070
     0
  0
ACAD_PROXY_OBJECT
  5
9558
102
{ACAD_REACTORS
330
9550
102
}
330
9550
100
AcDbZombieObject
 90
      499
 91
      509
 93
      500
310
424CD108121A5919195B90640502408333333333333E3BF0000000000000FB01079024090700405020000000000001110200405405064090740C02480A0340
1001
ACAD
1000
AcDbSavedByObjectVersion
1070
     0
  0
ACAD_PROXY_OBJECT
  5
9557
102
{ACAD_REACTORS
330
9550
102
}
330
9550
100
AcDbZombieObject
 90
      499
 91
      509
 93
      436
310
42CCD915DA5C99599C985B595059028333333333333E3BF0000000000000FB0107901411070040501600405405064090741402480A0340
1001
ACAD
1000
AcDbSavedByObjectVersion
1070
     0
  0
ACAD_PROXY_OBJECT
  5
9555
102
{ACAD_REACTORS
330
9550
102
}
330
9550
100
AcDbZombieObject
 90
      499
 91
      509
 93
      388
310
4150985CDA58D07406404333333333333E3BF0000000000000FB0107A41107004050150841D405064090741402480A0350
1001
ACAD
1000
AcDbSavedByObjectVersion
1070
     0
  0
ACAD_PROXY_OBJECT
  5
955C
102
{ACAD_REACTORS
330
9550
102
}
330
9550
100
AcDbZombieObject
 90
      499
 91
      509
 93
      428
310
42109C9A59DA1D195B90C409028333333333333E3BF0000000000000FB010790141107004050150841D405064090741402480A029950
1001
ACAD
1000
AcDbSavedByObjectVersion
1070
     0
  0
ACAD_PROXY_OBJECT
  5
9560
102
{ACAD_REACTORS
330
9550
102
}
330
9550
100
AcDbZombieObject
 90
      499
 91
      509
 93
      452
310
42D0DBDB1BDC90DA185B99D95104090240C333333333333E3BF0000000000000FB0108901411070040501508421405064090741402480A0350
1001
ACAD
1000
AcDbSavedByObjectVersion
1070
     0
  0
ACAD_PROXY_OBJECT
  5
9559
102
{ACAD_REACTORS
330
9550
102
}
330
9550
100
AcDbZombieObject
 90
      499
 91
      509
 93
      500
310
4290DBDB98D95C1D1D585B10940D028333333333333E3BF0000000000000FB0107902409070040501000000000000111010841D405064090740C02480A0340
1001
ACAD
1000
AcDbSavedByObjectVersion
1070
     0
  0
ACAD_PROXY_OBJECT
  5
955B
102
{ACAD_REACTORS
330
9550
102
}
330
9550
100
AcDbZombieObject
 90
      499
 91
      509
 93
      412
310
40D11A5B50B409028333333333333E3BF0000000000000FB010790141107004050150841D405064090741402480A02677FFFFFD0
1001
ACAD
1000
AcDbSavedByObjectVersion
1070
     0
  0
ACAD_PROXY_OBJECT
  5
A211
102
{ACAD_REACTORS
330
9550
102
}
330
9550
100
AcDbZombieObject
 90
      499
 91
      509
 93
      452
310
43115919D950DBDB1BDC93D999916409028333333333333E3BF0000000000000FB010790141107004050150841D405064090741402480A0350
1001
ACAD
1000
AcDbSavedByObjectVersion
1070
     0
  0
ACAD_PROXY_OBJECT
  5
955F
102
{ACAD_REACTORS
330
9550
102
}
330
9550
100
AcDbZombieObject
 90
      499
 91
      509
 93
      444
310
42D19858D95C185D1D195C9B90F409028333333333333E3BF0000000000000FB010790141107004050150841D405064090741402480A0350
1001
ACAD
1000
AcDbSavedByObjectVersion
1070
     0
  0
ACAD_PROXY_OBJECT
  5
9551
102
{ACAD_REACTORS
330
9550
102
}
330
9550
100
AcDbZombieObject
 90
      499
 91
      509
 93
      388
310
41119B185D240901404333333333333E3BF0000000000000F9010740A41107004050150841D405064090741402480A1B50
1001
ACAD
1000
AcDbSavedByObjectVersion
1070
     0
  0
ACAD_PROXY_OBJECT
  5
9552
102
{ACAD_REACTORS
330
9550
102
}
330
9550
100
AcDbZombieObject
 90
      499
 91
      509
 93
      476
310
43519B185D15DA5D1A115919D95CD0140901404333333333333E3BF0000000000000F9010740901411070040501600405405064090741402480A1B50
1001
ACAD
1000
AcDbSavedByObjectVersion
1070
     0
  0
ACAD_PROXY_OBJECT
  5
9553
102
{ACAD_REACTORS
330
9550
102
}
330
9550
100
AcDbZombieObject
 90
      499
 91
      509
 93
      412
310
41D1DBDD5C985D5910240902404333333333333E3BF0000000000000F9010740A411070040501641D405064090741402480A1B50
1001
ACAD
1000
AcDbSavedByObjectVersion
1070
     0
  0
ACAD_PROXY_OBJECT
  5
9554
102
{ACAD_REACTORS
330
9550
102
}
330
9550
100
AcDbZombieObject
 90
      499
 91
      509
 93
      500
310
4411DBDD5C985D5915DA5D1A115919D95CD0340902404333333333333E3BF0000000000000F9010740901411070040501600405405064090741402480A1B50
1001
ACAD
1000
AcDbSavedByObjectVersion
1070
     0
  0
ACAD_PROXY_OBJECT
  5
A260
102
{ACAD_REACTORS
330
9550
102
}
330
9550
100
AcDbZombieObject
 90
      499
 91
      509
 93
      476
310
41921A5919195B90640502408333333333333E33F0000000000000F901079024090700405020000000000001110200405405064090740C02480A0340
1001
ACAD
1000
AcDbSavedByObjectVersion
1070
     0
  0
ACAD_PROXY_OBJECT
  5
A20F
102
{ACAD_REACTORS
330
9550
102
}
330
9550
100
AcDbZombieObject
 90
      499
 91
      509
 93
      428
310
42529A5D1D195C93D999914409028333333333333E3BF0000000000000FB010790141107004050150A41D405064090741402480A0350
1001
ACAD
1000
AcDbSavedByObjectVersion
1070
     0
  0
ACAD_PROXY_OBJECT
  5
955E
102
{ACAD_REACTORS
330
9550
102
}
330
9550
100
AcDbZombieObject
 90
      499
 91
      509
 93
      444
310
42D31A5B995C185D1D195C9B90E409028333333333333E3BF0000000000000FB010790141107004050750841D405064090741402483A0350
1001
ACAD
1000
AcDbSavedByObjectVersion
1070
     0
  0
ACAD_PROXY_OBJECT
  5
A266
102
{ACAD_REACTORS
330
9550
102
}
330
9550
100
AcDbZombieObject
 90
      499
 91
      509
 93
      484
310
42135BD9195B1A5B99D0A409038333333333333E33F0000000000000F901074090290700405010000000000201990108421405064090741402480A1B40
1001
ACAD
1000
AcDbSavedByObjectVersion
1070
     0
  0
ACAD_PROXY_OBJECT
  5
A210
102
{ACAD_REACTORS
330
9550
102
}
330
9550
100
AcDbZombieObject
 90
      499
 91
      509
 93
      444
310
42D3DD995C9A185B99D3D999915409028333333333333E3BF0000000000000FB010790141107004050150941D405064090741402480A0350
1001
ACAD
1000
AcDbSavedByObjectVersion
1070
     0
  0
ACAD_PROXY_OBJECT
  5
955A
102
{ACAD_REACTORS
330
9550
102
}
330
9550
100
AcDbZombieObject
 90
      499
 91
      509
 93
      420
310
425499585B1A5CDD1A58D08409028333333333333E3BF0000000000000FB01079019070040501508421405064090741402480A1B40
1001
ACAD
1000
AcDbSavedByObjectVersion
1070
     0
  0
ACAD_PROXY_OBJECT
  5
A265
102
{ACAD_REACTORS
330
9550
102
}
330
9550
100
AcDbZombieObject
 90
      499
 91
      509
 93
      420
310
4194DA1859195911B40902404333333333333E33F0000000000000F9010740A41107004050150800405405064090840C02480A0B40
1001
ACAD
1000
AcDbSavedByObjectVersion
1070
     0
  0
ACAD_PROXY_OBJECT
  5
A264
102
{ACAD_REACTORS
330
9550
102
}
330
9550
100
AcDbZombieObject
 90
      499
 91
      509
 93
      516
310
4454DA18591959081DDA5D1A08195919D95CD1A40902404333333333333E33F0000000000000F901074090142907004050250800405405064090740C02480A0B40
1001
ACAD
1000
AcDbSavedByObjectVersion
1070
     0
  0
ACAD_PROXY_OBJECT
  5
A261
102
{ACAD_REACTORS
330
9550
102
}
330
9550
100
AcDbZombieObject
 90
      499
 91
      509
 93
      532
310
4394DA1859195CC81BD98811DC985E5174090240C333333333333E33F0000000000000F901079024090741D01000000000000111010841D405064090740C02480A0340
1001
ACAD
1000
AcDbSavedByObjectVersion
1070
     0
  0
ACAD_PROXY_OBJECT
  5
A262
102
{ACAD_REACTORS
330
9550
102
}
330
9550
100
AcDbZombieObject
 90
      499
 91
      509
 93
      476
310
41D4DAD95D18DA1E51840502408333333333333E33F0000000000000F901079024090741D01000000000000111010B41D405064090741802480A0340
1001
ACAD
1000
AcDbSavedByObjectVersion
1070
     0
  0
ACAD_PROXY_OBJECT
  5
955D
102
{ACAD_REACTORS
330
9550
102
}
330
9550
100
AcDbZombieObject
 90
      499
 91
      509
 93
      412
310
41D51A1A58DAD95B90D409028333333333333E3BF0000000000000FB010790141107004050150C41D405064090741402480A0350
1001
ACAD
1000
AcDbSavedByObjectVersion
1070
     0
  0
ACAD_PROXY_OBJECT
  5
A25F
102
{ACAD_REACTORS
330
9550
102
}
330
9550
100
AcDbZombieObject
 90
      499
 91
      509
 93
      420
310
4255DA5C99599C985B595059028333333333333E33F0000000000000F90107901411070040501600405405064090740C02480A0340
1001
ACAD
1000
AcDbSavedByObjectVersion
1070
     0
  0
ACAD_PROXY_OBJECT
  5
A263
102
{ACAD_REACTORS
330
9550
102
}
330
9550
100
AcDbZombieObject
 90
      499
 91
      509
 93
      404
310
41560B54985E51940902404000000000000E03F0000000000000F9010740501907004050150841D405064090740C02480A1B40
1001
ACAD
1000
AcDbSavedByObjectVersion
1070
     0
  0
XRECORD
  5
C3CA
102
{ACAD_REACTORS
330
C3C9
102
}
330
C3C9
100
AcDbXrecord
340
18D
  0
XRECORD
  5
C3CB
102
{ACAD_REACTORS
330
C3C9
102
}
330
C3C9
100
AcDbXrecord
340
18C
  0
DICTIONARYVAR
  5
AAE0
102
{ACAD_REACTORS
330
37
102
}
330
37
100
DictionaryVariables
280
     0
  1
1:1
  0
DICTIONARYVAR
  5
9627
102
{ACAD_REACTORS
330
37
102
}
330
37
100
DictionaryVariables
280
     0
  1
Standard
  0
DICTIONARYVAR
  5
29E
102
{ACAD_REACTORS
330
37
102
}
330
37
100
DictionaryVariables
280
     0
  1
Standard
  0
DICTIONARYVAR
  5
38
102
{ACAD_REACTORS
330
37
102
}
330
37
100
DictionaryVariables
280
     0
  1
-1
  0
DICTIONARYVAR
  5
1CE
102
{ACAD_REACTORS
330
37
102
}
330
37
100
DictionaryVariables
280
     0
  1
2
  0
DICTIONARYVAR
  5
704E
102
{ACAD_REACTORS
330
37
102
}
330
37
100
DictionaryVariables
280
     0
  1
1
  0
DICTIONARYVAR
  5
962A
102
{ACAD_REACTORS
330
37
102
}
330
37
100
DictionaryVariables
280
     0
  1
0
  0
DICTIONARYVAR
  5
7052
102
{ACAD_REACTORS
330
37
102
}
330
37
100
DictionaryVariables
280
     0
  1
8
  0
DICTIONARYVAR
  5
7051
102
{ACAD_REACTORS
330
37
102
}
330
37
100
DictionaryVariables
280
     0
  1
1
  0
DICTIONARYVAR
  5
AB30
102
{ACAD_REACTORS
330
37
102
}
330
37
100
DictionaryVariables
280
     0
  1
0
  0
DICTIONARYVAR
  5
704F
102
{ACAD_REACTORS
330
37
102
}
330
37
100
DictionaryVariables
280
     0
  1
8
  0
DICTIONARYVAR
  5
7050
102
{ACAD_REACTORS
330
37
102
}
330
37
100
DictionaryVariables
280
     0
  1
2
  0
DICTIONARYVAR
  5
1CF
102
{ACAD_REACTORS
330
37
102
}
330
37
100
DictionaryVariables
280
     0
  1

  0
DICTIONARYVAR
  5
9629
102
{ACAD_REACTORS
330
37
102
}
330
37
100
DictionaryVariables
280
     0
  1
127
  0
DICTIONARYVAR
  5
A25E
102
{ACAD_REACTORS
330
37
102
}
330
37
100
DictionaryVariables
280
     0
  1
2
  0
DICTIONARY
  5
C567
330
9540
100
AcDbDictionary
  3
ACAD_XREC_ROUNDTRIP
360
C568
1001
ACAD
1000
TREAT_AS_HARD
1070
     1
  0
DICTIONARY
  5
C569
330
9538
100
AcDbDictionary
  3
ACAD_XREC_ROUNDTRIP
360
C56A
1001
ACAD
1000
TREAT_AS_HARD
1070
     1
  0
DICTIONARY
  5
C56B
330
9548
100
AcDbDictionary
  3
ACAD_XREC_ROUNDTRIP
360
C56C
1001
ACAD
1000
TREAT_AS_HARD
1070
     1
  0
XRECORD
  5
C568
102
{ACAD_REACTORS
330
C567
102
}
330
C567
100
AcDbXrecord
102
MATERIAL
148
0.0
149
0.0
149
0.0
 93
        0
 94
      127
282
     0
 72
     0
 77
     0
171
     0
175
     0
179
     0
273
     0
  0
XRECORD
  5
C56A
102
{ACAD_REACTORS
330
C569
102
}
330
C569
100
AcDbXrecord
102
MATERIAL
148
0.0
149
0.0
149
0.0
 93
        0
 94
      127
282
     0
 72
     0
 77
     0
171
     0
175
     0
179
     0
273
     0
  0
XRECORD
  5
C56C
102
{ACAD_REACTORS
330
C56B
102
}
330
C56B
100
AcDbXrecord
102
MATERIAL
148
0.0
149
0.0
149
0.0
 93
        0
 94
      127
282
     0
 72
     0
 77
     0
171
     0
175
     0
179
     0
273
     0
  0
ENDSEC
  0
EOF
