  0
SECTION
  2
HEADER
  9
$ACADVER
  1
AC1009
  9
$INSBASE
 10
0.0
 20
0.0
 30
0.0
  9
$EXTMIN
 10
-79.510222403502624
 20
-106.4119167572682
 30
0.0
  9
$EXTMAX
 10
257.93598637344621
 20
148.4753380261829
 30
0.0
  9
$LIMMIN
 10
0.0
 20
0.0
  9
$LIMMAX
 10
420.0
 20
297.0
  9
$ORTHOMODE
 70
     0
  9
$REGENMODE
 70
     1
  9
$FILLMODE
 70
     1
  9
$QTEXTMODE
 70
     0
  9
$MIRRTEXT
 70
     0
  9
$DRAGMODE
 70
     2
  9
$LTSCALE
 40
0.5
  9
$OSMODE
 70
    63
  9
$ATTMODE
 70
     1
  9
$TEXTSIZE
 40
2.7999999999999989
  9
$TRACEWID
 40
1.0
  9
$TEXTSTYLE
  7
STANDARD
  9
$CLAYER
  8
1TEXT
  9
$CELTYPE
  6
BYLAYER
  9
$CECOLOR
 62
   256
  9
$DIMSCALE
 40
1.3
  9
$DIMASZ
 40
2.0
  9
$DIMEXO
 40
0.0
  9
$DIMDLI
 40
7.0
  9
$DIMRND
 40
0.0
  9
$DIMDLE
 40
0.0
  9
$DIMEXE
 40
1.0
  9
$DIMTP
 40
0.0
  9
$DIMTM
 40
0.0
  9
$DIMTXT
 40
3.5
  9
$DIMCEN
 40
0.0
  9
$DIMTSZ
 40
0.0
  9
$DIMTOL
 70
     0
  9
$DIMLIM
 70
     0
  9
$DIMTIH
 70
     0
  9
$DIMTOH
 70
     0
  9
$DIMSE1
 70
     0
  9
$DIMSE2
 70
     0
  9
$DIMTAD
 70
     1
  9
$DIMZIN
 70
     8
  9
$DIMBLK
  1

  9
$DIMASO
 70
     1
  9
$DIMSHO
 70
     1
  9
$DIMPOST
  1
 
  9
$DIMAPOST
  1

  9
$DIMALT
 70
     0
  9
$DIMALTD
 70
     2
  9
$DIMALTF
 40
25.399999999999999
  9
$DIMLFAC
 40
1.0
  9
$DIMTOFL
 70
     1
  9
$DIMTVP
 40
0.0
  9
$DIMTIX
 70
     0
  9
$DIMSOXD
 70
     0
  9
$DIMSAH
 70
     1
  9
$DIMBLK1
  1
OPEN30
  9
$DIMBLK2
  1
OPEN30
  9
$DIMSTYLE
  2
NEWX10
  9
$DIMCLRD
 70
   256
  9
$DIMCLRE
 70
   256
  9
$DIMCLRT
 70
   201
  9
$DIMTFAC
 40
0.7
  9
$DIMGAP
 40
0.7
  9
$LUNITS
 70
     2
  9
$LUPREC
 70
     4
  9
$SKETCHINC
 40
1.0
  9
$FILLETRAD
 40
0.0
  9
$AUNITS
 70
     0
  9
$AUPREC
 70
     2
  9
$MENU
  1
acad
  9
$ELEVATION
 40
0.0
  9
$PELEVATION
 40
0.0
  9
$THICKNESS
 40
0.0
  9
$LIMCHECK
 70
     0
  9
$BLIPMODE
 70
     0
  9
$CHAMFERA
 40
10.0
  9
$CHAMFERB
 40
10.0
  9
$SKPOLY
 70
     0
  9
$TDCREATE
 40
2451318.621352917
  9
$TDUPDATE
 40
2457014.6573303589
  9
$TDINDWG
 40
0.4356597454
  9
$TDUSRTIMER
 40
0.4356597454
  9
$USRTIMER
 70
     1
  9
$ANGBASE
 50
0.0
  9
$ANGDIR
 70
     0
  9
$PDMODE
 70
     0
  9
$PDSIZE
 40
0.0
  9
$PLINEWID
 40
0.0
  9
$COORDS
 70
     0
  9
$SPLFRAME
 70
     0
  9
$SPLINETYPE
 70
     6
  9
$SPLINESEGS
 70
     8
  9
$ATTDIA
 70
     0
  9
$ATTREQ
 70
     1
  9
$HANDLING
 70
     1
  9
$HANDSEED
  5
27FD
  9
$SURFTAB1
 70
     6
  9
$SURFTAB2
 70
     6
  9
$SURFTYPE
 70
     6
  9
$SURFU
 70
     6
  9
$SURFV
 70
     6
  9
$UCSNAME
  2

  9
$UCSORG
 10
0.0
 20
0.0
 30
0.0
  9
$UCSXDIR
 10
1.0
 20
0.0
 30
0.0
  9
$UCSYDIR
 10
0.0
 20
1.0
 30
0.0
  9
$PUCSNAME
  2

  9
$PUCSORG
 10
0.0
 20
0.0
 30
0.0
  9
$PUCSXDIR
 10
1.0
 20
0.0
 30
0.0
  9
$PUCSYDIR
 10
0.0
 20
1.0
 30
0.0
  9
$USERI1
 70
     0
  9
$USERI2
 70
     0
  9
$USERI3
 70
     0
  9
$USERI4
 70
     0
  9
$USERI5
 70
     0
  9
$USERR1
 40
0.0
  9
$USERR2
 40
0.0
  9
$USERR3
 40
0.0
  9
$USERR4
 40
0.0
  9
$USERR5
 40
0.0
  9
$WORLDVIEW
 70
     1
  9
$SHADEDGE
 70
     3
  9
$SHADEDIF
 70
    70
  9
$TILEMODE
 70
     1
  9
$MAXACTVP
 70
    48
  9
$PLIMCHECK
 70
     0
  9
$PEXTMIN
 10
1.0000000000000000E+020
 20
1.0000000000000000E+020
 30
1.0000000000000000E+020
  9
$PEXTMAX
 10
-1.0000000000000000E+020
 20
-1.0000000000000000E+020
 30
-1.0000000000000000E+020
  9
$PLIMMIN
 10
0.0
 20
0.0
  9
$PLIMMAX
 10
420.0
 20
297.0
  9
$UNITMODE
 70
     0
  9
$VISRETAIN
 70
     1
  9
$PLINEGEN
 70
     0
  9
$PSLTSCALE
 70
     1
  0
ENDSEC
  0
SECTION
  2
TABLES
  0
TABLE
  2
VPORT
 70
     1
  0
VPORT
  2
*ACTIVE
 70
     0
 10
0.0
 20
0.0
 11
1.0
 21
1.0
 12
89.223868380288593
 22
21.027001829697209
 13
0.0
 23
0.0
 14
10.0
 24
10.0
 15
10.0
 25
10.0
 16
0.0
 26
0.0
 36
1.0
 17
0.0
 27
0.0
 37
0.0
 40
270.313308592841
 41
2.1749379652605461
 42
50.0
 43
0.0
 44
0.0
 50
0.0
 51
0.0
 71
     0
 72
   100
 73
     1
 74
     1
 75
     0
 76
     0
 77
     0
 78
     0
  0
ENDTAB
  0
TABLE
  2
LTYPE
 70
    12
  0
LTYPE
  2
CONTINUOUS
 70
     0
  3
Solid line
 72
    65
 73
     0
 40
0.0
  0
LTYPE
  2
XREF1|CENTER2
 70
    48
  3
Center (.5x) ___ _ ___ _ ___ _ ___ _ ___ _ ___
 72
    65
 73
     4
 40
28.574999999999999
 49
19.050000000000001
 49
-3.1749999999999989
 49
3.1749999999999989
 49
-3.1749999999999989
  0
LTYPE
  2
A3WAKUDAKE|CENTER2
 70
    48
  3
Center (.5x) ___ _ ___ _ ___ _ ___ _ ___ _ ___
 72
    65
 73
     4
 40
28.574999999999999
 49
19.050000000000001
 49
-3.1749999999999989
 49
3.1749999999999989
 49
-3.1749999999999989
  0
ENDTAB
  0
TABLE
  2
LAYER
 70
    50
  0
LAYER
  2
0
 70
     0
 62
     7
  6
CONTINUOUS
  0
LAYER
  2
1TEXT
 70
     0
 62
     7
  6
CONTINUOUS
  0
LAYER
  2
01
 70
     0
 62
     1
  6
CONTINUOUS
  0
LAYER
  2
A3WAKUDAKE|THICK
 70
    48
 62
     7
  6
CONTINUOUS
  0
LAYER
  2
A3WAKUDAKE|POINT
 70
    48
 62
     7
  6
CONTINUOUS
  0
LAYER
  2
A3WAKUDAKE|1CENTER
 70
    48
 62
     7
  6
A3WAKUDAKE|CENTER2
  0
LAYER
  2
A3WAKUDAKE|0-6
 70
    48
 62
     7
  6
CONTINUOUS
  0
LAYER
  2
A3WAKUDAKE|1DIM
 70
    48
 62
     7
  6
CONTINUOUS
  0
LAYER
  2
XREF1|1CENTER
 70
    48
 62
     7
  6
XREF1|CENTER2
  0
ENDTAB
  0
TABLE
  2
STYLE
 70
     7
  0
STYLE
  2
STANDARD
 70
     0
 40
0.0
 41
1.0
 50
0.0
 71
     0
 42
2.7999999999999989
  3
romans.shx
  4
extfont.shx
  0
ENDTAB
  0
TABLE
  2
VIEW
 70
     5
  0
ENDTAB
  0
TABLE
  2
UCS
 70
     0
  0
ENDTAB
  0
TABLE
  2
APPID
 70
    13
  0
APPID
  2
ACAD
 70
     0
  0
APPID
  2
DRAWINGVARIABLESXDATA
 70
     0
  0
APPID
  2
CONTENTTABDATA
 70
     0
  0
APPID
  2
CONTENTCURRENTTAB
 70
     0
  0
APPID
  2
CONTENTBLOCKDESCRIPTION
 70
     0
  0
APPID
  2
CONTENTBLOCKICON
 70
     0
  0
APPID
  2
CONTENTLONGBLOCKNAME
 70
     0
  0
APPID
  2
ACAD_MLEADERVER
 70
     0
  0
APPID
  2
ACAD_PSEXT
 70
     0
  0
APPID
  2
ACADANNOTATIVE
 70
     0
  0
APPID
  2
ACAD_DSTYLE_DIMRADIAL_EXTENSION
 70
     0
  0
APPID
  2
ACAD_NAV_VCDISPLAY
 70
     0
  0
APPID
  2
ACAD_EXEMPT_FROM_CAD_STANDARDS
 70
     0
  0
ENDTAB
  0
TABLE
  2
DIMSTYLE
 70
     9
  0
DIMSTYLE
  2
NEWX10
 70
     0
  3
 
  4

  5

  6
OPEN30
  7
OPEN30
 40
1.0
 41
2.0
 42
0.0
 43
7.0
 44
1.0
 45
0.0
 46
0.0
 47
0.0
 48
0.0
140
3.5
141
0.0
142
0.0
143
25.399999999999999
144
1.0
145
0.0
146
0.7
147
0.7
 71
     0
 72
     0
 73
     0
 74
     0
 75
     0
 76
     0
 77
     1
 78
     8
170
     0
171
     2
172
     1
173
     1
174
     0
175
     0
176
   256
177
   256
178
   201
  0
ENDTAB
  0
ENDSEC
  0
SECTION
  2
BLOCKS
  0
BLOCK
  8
0
  2
$MODEL_SPACE
 70
     0
 10
0.0
 20
0.0
 30
0.0
  3
$MODEL_SPACE
  1

  0
ENDBLK
  5
1A
  8
0
  0
BLOCK
 67
     1
  8
0
  2
$PAPER_SPACE
 70
     0
 10
0.0
 20
0.0
 30
0.0
  3
$PAPER_SPACE
  1

  0
ENDBLK
  5
17
 67
     1
  8
0
  0
BLOCK
  8
0
  2
_OPEN30
 70
     0
 10
0.0
 20
0.0
 30
0.0
  3
_OPEN30
  1

  0
LINE
  5
44
  8
0
  6
BYBLOCK
 62
     0
 10
-1.0
 20
0.26794919
 30
0.0
 11
0.0
 21
0.0
 31
0.0
  0
LINE
  5
45
  8
0
  6
BYBLOCK
 62
     0
 10
0.0
 20
0.0
 30
0.0
 11
-1.0
 21
-0.26794919
 31
0.0
  0
LINE
  5
46
  8
0
  6
BYBLOCK
 62
     0
 10
0.0
 20
0.0
 30
0.0
 11
-1.0
 21
0.0
 31
0.0
  0
ENDBLK
  5
47
  8
0
  0
BLOCK
  8
0
  2
XREF1
 70
    36
 10
0.0
 20
0.0
 30
0.0
  3
XREF1
  1
D:\ACLT\FORMAT\KAWAJUN(9)図面用.dwg
  0
ENDBLK
  5
5D
  8
0
  0
BLOCK
  8
0
  2
A3WAKUDAKE
 70
    36
 10
0.0
 20
0.0
 30
0.0
  3
A3WAKUDAKE
  1
D:\ACLT\FORMAT\A3WAKUdake.dwg
  0
ENDBLK
  5
1584
  8
0
  0
ENDSEC
  0
SECTION
  2
ENTITIES
  0
LINE
  5
1028
  8
01
 10
57.024283011644677
 20
58.598523930515292
 30
0.0
 11
57.024282687120603
 21
51.17426911013478
 31
0.0
  0
LINE
  5
1029
  8
01
 10
57.02427741990391
 20
-69.325762727866035
 30
0.0
 11
57.02427709537983
 21
-76.750017548245864
 31
0.0
  0
LINE
  5
1030
  8
01
 10
91.124280108155745
 20
42.174262765349667
 30
0.0
 11
91.124279299493992
 21
23.674262765350139
 31
0.0
  0
LINE
  5
1031
  8
01
 10
91.124280108155745
 20
42.174262765349667
 30
0.0
 11
90.524278960730499
 21
42.174262791576631
 31
0.0
  0
LINE
  5
1032
  8
01
 10
91.124279299493992
 20
23.674262765350139
 30
0.0
 11
90.524278960730484
 21
23.67426279157689
 31
0.0
  0
LINE
  5
1041
  8
01
 10
51.201166761692321
 20
54.924279110131351
 30
0.0
 11
92.227640458201449
 21
54.924279110131351
 31
0.0
  0
LINE
  5
1042
  8
01
 10
51.201166761692321
 20
-73.075772727861931
 30
0.0
 11
92.227640458201449
 21
-73.075772727861931
 31
0.0
  0
LINE
  5
1054
  8
01
 10
82.024282687120589
 20
51.174269110135349
 30
0.0
 11
57.024282687119687
 21
51.17426911013478
 31
0.0
  0
LINE
  5
1055
  8
01
 10
82.024283011644684
 20
58.598523930515292
 30
0.0
 11
57.024283011643782
 21
58.598523930515171
 31
0.0
  0
LINE
  5
1056
  8
01
 10
82.024277419904806
 20
-69.325762727865936
 30
0.0
 11
57.02427741990482
 21
-69.325762727865936
 31
0.0
  0
LINE
  5
1057
  8
01
 10
82.024277095381649
 20
-76.750017548245864
 30
0.0
 11
57.024277095380739
 21
-76.750017548245864
 31
0.0
  0
LINE
  5
105E
  8
01
 10
33.524278960729823
 20
79.424279110129305
 30
0.0
 11
33.524278960729823
 21
-97.575720889870695
 31
0.0
  0
ARC
  5
105F
  8
01
 10
34.024278960729823
 20
-97.575720889870695
 30
0.0
 40
0.5
 50
180.0
 51
270.0
  0
LINE
  5
1060
  8
01
 10
42.024278960729823
 20
79.924279110129305
 30
0.0
 11
42.024278960729823
 21
-98.075720889870695
 31
0.0
  0
LINE
  5
1061
  8
01
 10
34.024278960729823
 20
79.924279110129305
 30
0.0
 11
42.024278960729823
 21
79.924279110129305
 31
0.0
  0
ARC
  5
1062
  8
01
 10
34.024278960729823
 20
79.424279110129305
 30
0.0
 40
0.5
 50
90.0
 51
180.0
  0
LINE
  5
1063
  8
01
 10
34.024278960729823
 20
-98.075720889870695
 30
0.0
 11
42.024278960729823
 21
-98.075720889870695
 31
0.0
  0
LINE
  5
1064
  8
01
 10
27.649687202388581
 20
32.924279110129312
 30
0.0
 11
48.786562900031178
 21
32.924279110129312
 31
0.0
  0
LINE
  5
1065
  8
01
 10
-49.996449097579671
 20
79.424279110129305
 30
0.0
 11
-49.996449097579671
 21
-97.575720889870695
 31
0.0
  0
ARC
  5
1066
  8
01
 10
-49.496449097579671
 20
-97.575720889870695
 30
0.0
 40
0.5
 50
180.0
 51
270.0
  0
LINE
  5
1067
  8
01
 10
-24.996449097579671
 20
132.5878892591893
 30
0.0
 11
-24.996449097579671
 21
100.87922699396999
 31
0.0
  0
LINE
  5
1068
  8
01
 10
0.0035509024203293
 20
79.424279110129305
 30
0.0
 11
0.0035509024203293
 21
-97.575720889870695
 31
0.0
  0
ARC
  5
1069
  8
01
 10
-0.4964490975796707
 20
79.424279110129305
 30
0.0
 40
0.5
 50
0.0
 51
90.0
  0
LINE
  5
106A
  8
01
 10
-0.4964490975796707
 20
-98.075720889870695
 30
0.0
 11
-49.496449097579671
 21
-98.075720889870695
 31
0.0
  0
ARC
  5
106B
  8
01
 10
-0.4964490975796707
 20
-97.575720889870695
 30
0.0
 40
0.5
 50
270.0
 51
0.0
  0
LINE
  5
106C
  8
01
 10
-12.798214779127189
 20
32.924279110129312
 30
0.0
 11
-37.834637983712128
 21
32.924279110129312
 31
0.0
  0
LINE
  5
106D
  8
01
 10
-49.496449097579671
 20
79.924279110129305
 30
0.0
 11
-0.4964490975796707
 21
79.924279110129305
 31
0.0
  0
ARC
  5
106E
  8
01
 10
-49.496449097579671
 20
79.424279110129305
 30
0.0
 40
0.5
 50
90.0
 51
180.0
  0
CIRCLE
  5
106F
  8
01
 10
-24.996449097578989
 20
32.924279110129312
 30
0.0
 40
9.5
  0
LINE
  5
1072
  8
01
 10
123.2639079073972
 20
79.424263358198445
 30
0.0
 11
123.2639079073972
 21
-97.575736641801555
 31
0.0
  0
ARC
  5
1073
  8
01
 10
123.7639079073972
 20
-97.575736641801555
 30
0.0
 40
0.5
 50
180.0
 51
270.0
  0
LINE
  5
1074
  8
01
 10
148.2639079073972
 20
84.173509972172965
 30
0.0
 11
148.2639079073972
 21
-101.6687713191631
 31
0.0
  0
LINE
  5
1075
  8
01
 10
173.2639079073972
 20
79.424263358198445
 30
0.0
 11
173.2639079073972
 21
-97.575736641801555
 31
0.0
  0
ARC
  5
1076
  8
01
 10
172.7639079073972
 20
79.424263358198445
 30
0.0
 40
0.5
 50
0.0
 51
90.0
  0
LINE
  5
1077
  8
01
 10
172.7639079073972
 20
-98.075736641801541
 30
0.0
 11
123.7639079073972
 21
-98.075736641801541
 31
0.0
  0
ARC
  5
1078
  8
01
 10
172.7639079073972
 20
-97.575736641801555
 30
0.0
 40
0.5
 50
270.0
 51
0.0
  0
LINE
  5
1079
  8
01
 10
160.46214222584959
 20
32.924263358198459
 30
0.0
 11
135.42571902126471
 21
32.924263358198459
 31
0.0
  0
LINE
  5
107A
  8
01
 10
123.7639079073972
 20
79.924263358198459
 30
0.0
 11
172.7639079073972
 21
79.924263358198459
 31
0.0
  0
ARC
  5
107B
  8
01
 10
123.7639079073972
 20
79.424263358198445
 30
0.0
 40
0.5
 50
90.0
 51
180.0
  0
CIRCLE
  5
107C
  8
01
 10
148.26390790739791
 20
32.924263358198459
 30
0.0
 40
9.5
  0
LINE
  5
107F
  8
01
 10
90.524278960729816
 20
79.424263163123442
 30
0.0
 11
90.524278960729774
 21
-97.575736836876558
 31
0.0
  0
ARC
  5
1083
  8
01
 10
90.024278960729816
 20
-97.575736836876558
 30
0.0
 40
0.5
 50
270.0
 51
0.0
  0
LINE
  5
1084
  8
01
 10
82.024278960729816
 20
79.924263163123442
 30
0.0
 11
82.024278960729816
 21
-98.075736836876573
 31
0.0
  0
LINE
  5
1086
  8
01
 10
90.024278960729816
 20
79.924263163123442
 30
0.0
 11
82.024278960729816
 21
79.924263163123442
 31
0.0
  0
ARC
  5
1088
  8
01
 10
90.024278960729816
 20
79.424263163123442
 30
0.0
 40
0.5
 50
0.0
 51
90.0
  0
LINE
  5
1089
  8
01
 10
90.024278960729816
 20
-98.075736836876573
 30
0.0
 11
82.024278960729816
 21
-98.075736836876573
 31
0.0
  0
LINE
  5
108B
  8
01
 10
96.39887071907242
 20
32.924263163123442
 30
0.0
 11
75.261995021429811
 21
32.924263163123442
 31
0.0
  0
LINE
  5
1503
  8
01
 10
32.924278621967012
 20
23.674262765350139
 30
0.0
 11
33.524278960730513
 21
23.67426279157689
 31
0.0
  0
LINE
  5
1504
  8
01
 10
32.92427781330526
 20
42.174262765349667
 30
0.0
 11
33.524278960730499
 21
42.174262791576631
 31
0.0
  0
LINE
  5
1505
  8
01
 10
32.92427781330526
 20
42.174262765349667
 30
0.0
 11
32.924278621967012
 21
23.674262765350139
 31
0.0
  0
TEXT
  5
1514
  8
01
 10
211.7938538501686
 20
-49.886469716769881
 30
0.0
 40
4.0
  1
付属ねじ
  0
LINE
  5
1557
  8
01
 10
-49.996449097579671
 20
128.44813664630581
 30
0.0
 11
-49.996449097579671
 21
120.4481366463058
 31
0.0
  0
LINE
  5
1558
  8
01
 10
0.0035509024203293
 20
128.44813664630581
 30
0.0
 11
0.0035509024203293
 21
120.4481366463058
 31
0.0
  0
LINE
  5
1559
  8
01
 10
-49.996449097579671
 20
128.44813664630581
 30
0.0
 11
0.0035509024203293
 21
128.44813664630581
 31
0.0
  0
LINE
  5
155A
  8
01
 10
-49.496449097579671
 20
119.9481366463058
 30
0.0
 11
-0.4964490975796707
 21
119.9481366463058
 31
0.0
  0
ARC
  5
155B
  8
01
 10
-49.496449097579671
 20
120.4481366463058
 30
0.0
 40
0.5
 50
180.0
 51
270.0
  0
ARC
  5
155C
  8
01
 10
-0.4964490975796707
 20
120.4481366463058
 30
0.0
 40
0.5
 50
269.9999999999992
 51
359.99999999999682
  0
LINE
  5
155D
  8
01
 10
-24.996449097579671
 20
86.211114350129037
 30
0.0
 11
-24.996449097579671
 21
-101.6687555672323
 31
0.0
  0
TEXT
  5
1570
  8
01
 10
-80.653079546359777
 20
132.56517872874099
 30
0.0
 40
8.0
  1
Z1-X
  0
ARC
  5
1577
  8
01
 10
172.7639079073972
 20
107.9654306770075
 30
0.0
 40
0.5
 50
269.9999999999992
 51
359.99999999999682
  0
ARC
  5
1578
  8
01
 10
123.7639079073972
 20
107.9654306770075
 30
0.0
 40
0.5
 50
180.0
 51
270.0
  0
LINE
  5
1579
  8
01
 10
123.7639079073972
 20
107.4654306770074
 30
0.0
 11
172.7639079073972
 21
107.4654306770074
 31
0.0
  0
LINE
  5
157A
  8
01
 10
123.2639079073972
 20
115.9654306770075
 30
0.0
 11
173.2639079073972
 21
115.9654306770075
 31
0.0
  0
LINE
  5
157B
  8
01
 10
173.2639079073972
 20
115.9654306770075
 30
0.0
 11
173.2639079073972
 21
107.9654306770075
 31
0.0
  0
LINE
  5
157C
  8
01
 10
123.2639079073972
 20
115.9654306770075
 30
0.0
 11
123.2639079073972
 21
107.9654306770075
 31
0.0
  0
LINE
  5
157D
  8
01
 10
148.2639079073972
 20
148.4753380261829
 30
0.0
 11
148.2639079073972
 21
101.9992946422345
 31
0.0
  0
LINE
  5
157F
  8
01
 10
144.5138979074012
 20
115.9654269506166
 30
0.0
 11
144.5138979074006
 21
140.9654269506176
 31
0.0
  0
LINE
  5
1580
  8
01
 10
152.0139179073937
 20
140.9654266227808
 30
0.0
 11
144.5138979074006
 21
140.96542695061669
 31
0.0
  0
CIRCLE
  5
1613
  8
01
 10
-24.99644909757966
 20
32.924279110129312
 30
0.0
 40
9.2499995171551745
  0
CIRCLE
  5
1614
  8
01
 10
-24.99644909757966
 20
32.924279110129312
 30
0.0
 40
8.0500000000000007
  0
CIRCLE
  5
1615
  8
01
 10
148.2639079073972
 20
32.924263358198459
 30
0.0
 40
9.2499995171551745
  0
CIRCLE
  5
1616
  8
01
 10
148.2639079073972
 20
32.924263358198459
 30
0.0
 40
8.0500000000000007
  0
LINE
  5
1640
  8
01
 10
152.01391790739319
 20
115.9654269506166
 30
0.0
 11
152.0139179073937
 21
140.9654269506176
 31
0.0
  0
LINE
  5
1655
  8
01
 10
147.5139079073972
 20
140.96542681948219
 30
0.0
 11
147.5139079073972
 21
116.7154306770074
 31
0.0
  0
LINE
  5
1656
  8
01
 10
149.0139079073972
 20
140.96542675391521
 30
0.0
 11
149.0139079073972
 21
116.7154306770074
 31
0.0
  0
LINE
  5
1657
  8
01
 10
148.2639079073972
 20
148.4753380261829
 30
0.0
 11
148.2639079073972
 21
101.9992946422345
 31
0.0
  0
ARC
  5
1658
  8
01
 10
148.2639079073972
 20
116.7154306770074
 30
0.0
 40
0.7500000000000157
 50
180.0
 51
0.0
  0
TEXT
  5
2637
  8
01
 10
188.61396986987211
 20
81.333814002277222
 30
0.0
 40
4.0
  1
材質：真鍮・ポリアセタール
 11
188.61396986987211
 21
83.333814002277222
 31
0.0
 73
     2
  0
TEXT
  5
2638
  8
01
 10
196.2693197067797
 20
74.06778641595497
 30
0.0
 40
4.0
  1
表面処理
 72
     1
 11
205.3359863734463
 21
74.06778641595497
 31
0.0
  0
TEXT
  5
2639
  8
01
 10
196.00265304011299
 20
60.232497756430583
 30
0.0
 40
4.0
  1
クローム
 72
     1
 11
205.3359863734463
 21
60.232497756430583
 31
0.0
  0
TEXT
  5
263A
  8
01
 10
194.13598637344629
 20
67.089891395970653
 30
0.0
 40
4.0
  1
本金メッキ
 72
     1
 11
205.3359863734463
 21
67.089891395970653
 31
0.0
  0
LINE
  5
263B
  8
01
 10
187.9359863734463
 20
79.56778641595497
 30
0.0
 11
257.93598637344621
 21
79.56778641595497
 31
0.0
  0
LINE
  5
263C
  8
01
 10
187.93598637344621
 20
65.56778641595497
 30
0.0
 11
257.93598637344621
 21
65.56778641595497
 31
0.0
  0
LINE
  5
263D
  8
01
 10
187.93598637344621
 20
72.56778641595497
 30
0.0
 11
257.93598637344621
 21
72.56778641595497
 31
0.0
  0
LINE
  5
263E
  8
01
 10
187.93598637344621
 20
58.567786415954963
 30
0.0
 11
257.93598637344621
 21
58.567786415954963
 31
0.0
  0
LINE
  5
263F
  8
01
 10
187.93598637344621
 20
58.567786415954963
 30
0.0
 11
257.93598637344621
 21
58.567786415954963
 31
0.0
  0
LINE
  5
2640
  8
01
 10
222.9359863734463
 20
79.56778641595497
 30
0.0
 11
222.93598637344621
 21
16.56778641595497
 31
0.0
  0
TEXT
  5
2641
  8
01
 10
232.05027208773251
 20
66.853429432305575
 30
0.0
 40
4.0
  1
Z1-G
 72
     1
 11
240.33598637344679
 21
66.853429432305575
 31
0.0
  0
TEXT
  5
2642
  8
01
 10
233.53598637344629
 20
74.06778641595497
 30
0.0
 40
4.0
  1
コード
 72
     1
 11
240.3359863734463
 21
74.06778641595497
 31
0.0
  0
LINE
  5
2643
  8
01
 10
187.93598637344621
 20
16.56778641595497
 30
0.0
 11
187.93598637344621
 21
79.56778641595497
 31
0.0
  0
LINE
  5
2644
  8
01
 10
257.93598637344621
 20
16.56778641595497
 30
0.0
 11
257.93598637344621
 21
79.56778641595497
 31
0.0
  0
LINE
  5
2645
  8
01
 10
187.93598637344621
 20
51.56778641595497
 30
0.0
 11
257.93598637344621
 21
51.56778641595497
 31
0.0
  0
LINE
  5
2646
  8
01
 10
187.93598637344621
 20
51.56778641595497
 30
0.0
 11
257.93598637344621
 21
51.56778641595497
 31
0.0
  0
LINE
  5
2647
  8
01
 10
187.93598637344621
 20
44.56778641595497
 30
0.0
 11
257.93598637344621
 21
44.56778641595497
 31
0.0
  0
LINE
  5
2648
  8
01
 10
187.93598637344621
 20
44.56778641595497
 30
0.0
 11
257.93598637344621
 21
44.56778641595497
 31
0.0
  0
TEXT
  5
2649
  8
01
 10
189.06931970677971
 20
46.232497756430568
 30
0.0
 40
4.0
  1
サテンニッケル
 72
     1
 11
205.3359863734463
 21
46.232497756430568
 31
0.0
  0
LINE
  5
264A
  8
01
 10
187.93598637344621
 20
37.56778641595497
 30
0.0
 11
257.93598637344621
 21
37.56778641595497
 31
0.0
  0
LINE
  5
264B
  8
01
 10
187.93598637344621
 20
37.56778641595497
 30
0.0
 11
257.93598637344621
 21
37.56778641595497
 31
0.0
  0
TEXT
  5
264C
  8
01
 10
188.9359863734463
 20
53.232497756430568
 30
0.0
 40
4.0
  1
パールクローム
 72
     1
 11
205.3359863734463
 21
53.232497756430568
 31
0.0
  0
TEXT
  5
264D
  8
01
 10
232.05027208773251
 20
59.853429432305568
 30
0.0
 40
4.0
  1
Z1-C
 72
     1
 11
240.33598637344679
 21
59.853429432305568
 31
0.0
  0
TEXT
  5
264E
  8
01
 10
232.05027208773251
 20
45.853429432305568
 30
0.0
 40
4.0
  1
Z1-N
 72
     1
 11
240.33598637344679
 21
45.853429432305568
 31
0.0
  0
TEXT
  5
264F
  8
01
 10
232.05027208773251
 20
52.853429432305568
 30
0.0
 40
4.0
  1
Z1-B
 72
     1
 11
240.33598637344679
 21
52.853429432305568
 31
0.0
  0
TEXT
  5
2650
  8
01
 10
232.10741494487471
 20
32.06778641595497
 30
0.0
 40
4.0
  1
Z1-4Q
 41
0.8
 72
     1
 11
240.3359863734461
 21
32.06778641595497
 31
0.0
  0
TEXT
  5
2651
  8
01
 10
188.9359863734461
 20
32.06778641595497
 30
0.0
 40
4.0
  1
ダークアンバー
 72
     1
 11
205.3359863734461
 21
32.06778641595497
 31
0.0
  0
LINE
  5
2652
  8
01
 10
187.9359863734463
 20
16.56778641595497
 30
0.0
 11
257.93598637344621
 21
16.56778641595497
 31
0.0
  0
LINE
  5
2653
  8
01
 10
187.93598637344621
 20
30.56778641595497
 30
0.0
 11
257.93598637344621
 21
30.56778641595497
 31
0.0
  0
LINE
  5
2654
  8
01
 10
187.93598637344621
 20
23.56778641595497
 30
0.0
 11
257.93598637344621
 21
23.56778641595497
 31
0.0
  0
TEXT
  5
2655
  8
01
 10
233.7074149448747
 20
39.06778641595497
 30
0.0
 40
4.0
  1
Z1-D
 41
0.8
 72
     1
 11
240.3359863734461
 21
39.06778641595497
 31
0.0
  0
TEXT
  5
2656
  8
01
 10
188.8026530401128
 20
39.06778641595497
 30
0.0
 40
4.0
  1
ミラーニッケル
 72
     1
 11
205.3359863734461
 21
39.06778641595497
 31
0.0
  0
TEXT
  5
2657
  8
01
 10
232.10741494487471
 20
18.06778641595497
 30
0.0
 40
4.0
  1
Z1-8Q
 41
0.8
 72
     1
 11
240.3359863734461
 21
18.06778641595497
 31
0.0
  0
TEXT
  5
2658
  8
01
 10
188.8026530401128
 20
18.06778641595497
 30
0.0
 40
4.0
  1
ミラーブラック
 72
     1
 11
205.3359863734461
 21
18.06778641595497
 31
0.0
  0
TEXT
  5
2659
  8
01
 10
232.0312244686842
 20
25.06778641595497
 30
0.0
 40
4.0
  1
Z1-GQ
 41
0.8
 72
     1
 11
240.3359863734461
 21
25.06778641595497
 31
0.0
  0
TEXT
  5
265A
  8
01
 10
189.06931970677951
 20
25.06778641595497
 30
0.0
 40
4.0
  1
パールブラック
 72
     1
 11
205.3359863734461
 21
25.06778641595497
 31
0.0
  0
LINE
  5
2730
  8
01
 10
82.024278960729816
 20
79.924263163123442
 30
0.0
 11
82.024278960729816
 21
96.175274465977097
 31
0.0
  0
LINE
  5
2733
  8
01
 10
91.124280108155745
 20
42.174262765349667
 30
0.0
 11
91.124280108155745
 21
96.175274465977097
 31
0.0
  0
LINE
  5
2734
  8
01
 10
88.52428010815575
 20
94.875274465977085
 30
0.0
 11
84.624278960729811
 21
94.875274465977085
 31
0.0
  0
LINE
  5
2735
  8
01
 10
82.024278960729816
 20
94.875274465977085
 30
0.0
 11
69.370945627396495
 21
94.875274465977085
 31
0.0
  0
LINE
  5
2739
  8
01
 10
42.024278960729823
 20
79.924279110129305
 30
0.0
 11
42.024278960729823
 21
96.514224383785901
 31
0.0
  0
LINE
  5
273A
  8
01
 10
32.92427781330526
 20
42.174262765349667
 30
0.0
 11
32.92427781330526
 21
96.514224383785901
 31
0.0
  0
LINE
  5
273B
  8
01
 10
39.424278960729808
 20
95.214224383785904
 30
0.0
 11
35.524277813305247
 21
95.214224383785904
 31
0.0
  0
LINE
  5
273C
  8
01
 10
32.92427781330526
 20
95.214224383785904
 30
0.0
 11
20.270944479971931
 21
95.214224383785904
 31
0.0
  0
LINE
  5
2740
  8
01
 10
123.7639079073972
 20
79.924263358198459
 30
0.0
 11
110.9886601820269
 21
79.924263358198459
 31
0.0
  0
LINE
  5
2741
  8
01
 10
135.42571902126471
 20
32.924263358198459
 30
0.0
 11
110.9886601820269
 21
32.924263358198473
 31
0.0
  0
LINE
  5
2742
  8
01
 10
112.2886601820269
 20
77.324263358198465
 30
0.0
 11
112.2886601820269
 21
35.524263358198461
 31
0.0
  0
LINE
  5
2746
  8
01
 10
90.524278960729816
 20
79.424263163123442
 30
0.0
 11
90.524278960729816
 21
86.130940601921054
 31
0.0
  0
LINE
  5
2747
  8
01
 10
82.024278960729816
 20
79.924263163123442
 30
0.0
 11
82.024278960729816
 21
86.130940601921054
 31
0.0
  0
LINE
  5
2748
  8
01
 10
87.924278960729822
 20
84.830940601921057
 30
0.0
 11
84.624278960729811
 21
84.830940601921057
 31
0.0
  0
LINE
  5
2749
  8
01
 10
82.024278960729816
 20
84.830940601921057
 30
0.0
 11
68.070945627396469
 21
84.830940601921057
 31
0.0
  0
TEXT
  5
274F
  8
01
 10
102.0510708514897
 20
97.227021663437398
 30
0.0
 40
3.5
  1
材質：真鍮
  0
TEXT
  5
2750
  8
01
 10
102.0510708514897
 20
91.393688330104055
 30
0.0
 40
3.5
  1
仕上げ：各種メッキ
  0
TEXT
  5
2753
  8
01
 10
29.089235598479831
 20
-105.50191675726821
 30
0.0
 40
3.5
  1
材質：ポリアセタール
  0
LINE
  5
2754
  8
01
 10
42.024278960729823
 20
79.924279110129305
 30
0.0
 11
42.024278960729823
 21
86.130940601921054
 31
0.0
  0
LINE
  5
2755
  8
01
 10
33.524278960729823
 20
79.424279110129305
 30
0.0
 11
33.524278960729823
 21
86.130940601921054
 31
0.0
  0
LINE
  5
2756
  8
01
 10
39.424278960729808
 20
84.830940601921057
 30
0.0
 11
36.124278960729818
 21
84.830940601921057
 31
0.0
  0
LINE
  5
2757
  8
01
 10
33.524278960729823
 20
84.830940601921057
 30
0.0
 11
19.57094562739649
 21
84.830940601921057
 31
0.0
  0
LINE
  5
275B
  8
01
 10
-0.4964490975796707
 20
79.924279110129305
 30
0.0
 11
14.592682642088009
 21
79.924279110129305
 31
0.0
  0
LINE
  5
275C
  8
01
 10
-0.4964490975797027
 20
-98.075720889870695
 30
0.0
 11
14.59268264208797
 21
-98.075720889870695
 31
0.0
  0
LINE
  5
275D
  8
01
 10
13.29268264208801
 20
77.324279110129311
 30
0.0
 11
13.29268264208797
 21
-95.475720889870701
 31
0.0
  0
LINE
  5
2761
  8
01
 10
-49.996449097579671
 20
79.424279110129305
 30
0.0
 11
-49.996449097579671
 21
94.217833372028778
 31
0.0
  0
LINE
  5
2762
  8
01
 10
0.0035509024203293
 20
79.424279110129305
 30
0.0
 11
0.0035509024203302
 21
94.217833372028778
 31
0.0
  0
LINE
  5
2763
  8
01
 10
-47.396449097579662
 20
92.917833372028767
 30
0.0
 11
-2.596449097579669
 21
92.917833372028767
 31
0.0
  0
LINE
  5
2767
  8
01
 10
234.1703788383636
 20
-23.642396811343168
 30
0.0
 11
234.1703788383636
 21
-7.8010015048562131
 31
0.0
  0
LINE
  5
2768
  8
01
 10
204.1703952431879
 20
-21.292164131905249
 30
0.0
 11
204.1703952431879
 21
-7.8010015048562131
 31
0.0
  0
LINE
  5
2769
  8
01
 10
231.57037883836361
 20
-9.1010015048562138
 30
0.0
 11
206.77039524318789
 21
-9.1010015048562138
 31
0.0
  0
LINE
  5
276E
  8
01
 10
234.17037802398539
 20
-39.101456165825688
 30
0.0
 11
206.82040071120099
 21
-39.101248150572957
 31
0.0
  0
LINE
  5
276F
  8
01
 10
234.17035661747241
 20
-42.401456165769368
 30
0.0
 11
206.82034486802169
 21
-42.40124815019626
 31
0.0
  0
LINE
  5
2770
  8
01
 10
236.1318524800914
 20
-40.751474421692173
 30
0.0
 11
202.23061607821251
 21
-40.751205432694647
 31
0.0
  0
LINE
  5
2771
  8
01
 10
233.82035335996969
 20
-42.751453496239968
 30
0.0
 11
233.8203812815085
 21
-38.751453496327173
 31
0.0
  0
LINE
  5
2772
  8
01
 10
204.47033940009831
 20
-44.751226278375178
 30
0.0
 11
204.47039524317569
 21
-36.75122627854833
 31
0.0
  0
LINE
  5
2773
  8
01
 10
206.82040071120099
 20
-39.101248150572957
 30
0.0
 11
206.47039989681431
 21
-38.751244893037473
 31
0.0
  0
LINE
  5
2774
  8
01
 10
206.82034486802169
 20
-42.40124815019626
 30
0.0
 11
206.47034405365
 21
-42.751244892690949
 31
0.0
  0
LINE
  5
2776
  8
01
 10
234.17037802398539
 20
-23.642396811336461
 30
0.0
 11
206.82040071120099
 21
-23.64218879608373
 31
0.0
  0
LINE
  5
2777
  8
01
 10
234.17035661747241
 20
-26.94239681128014
 30
0.0
 11
206.82034486802169
 21
-26.94218879570704
 31
0.0
  0
LINE
  5
2778
  8
01
 10
236.1318524800914
 20
-25.292415067202938
 30
0.0
 11
202.23061607821251
 21
-25.292146078205441
 31
0.0
  0
LINE
  5
2779
  8
01
 10
233.82035335996969
 20
-27.292394141750751
 30
0.0
 11
233.8203812815085
 21
-23.292394141837949
 31
0.0
  0
LINE
  5
277A
  8
01
 10
204.47033940009831
 20
-29.292166923885961
 30
0.0
 11
204.47039524317569
 21
-21.292166924059099
 31
0.0
  0
LINE
  5
277B
  8
01
 10
206.82040071120099
 20
-23.64218879608373
 30
0.0
 11
206.47039989681431
 21
-23.292185538548239
 31
0.0
  0
LINE
  5
277C
  8
01
 10
206.82034486802169
 20
-26.94218879570704
 30
0.0
 11
206.47034405365
 21
-27.292185538201721
 31
0.0
  0
LINE
  5
277D
  8
01
 10
233.8203812815085
 20
-23.292394141837949
 30
0.0
 11
206.47039989681431
 21
-23.292185538548239
 31
0.0
  0
LINE
  5
277E
  8
01
 10
204.47039524317569
 20
-21.292166924059099
 30
0.0
 11
206.47039989681431
 21
-23.292185538548239
 31
0.0
  0
LINE
  5
277F
  8
01
 10
234.1703788383636
 20
-23.642396811343161
 30
0.0
 11
233.8203812815085
 21
-23.292394141837949
 31
0.0
  0
LINE
  5
2780
  8
01
 10
204.47039524317569
 20
-21.292166924059099
 30
0.0
 11
204.1703952431879
 21
-21.292164131905249
 31
0.0
  0
LINE
  5
2781
  8
01
 10
234.1703558030942
 20
-26.94239681127355
 30
0.0
 11
234.1703788383636
 21
-23.642396811343161
 31
0.0
  0
LINE
  5
2782
  8
01
 10
204.17033940011029
 20
-29.292164131732111
 30
0.0
 11
204.1703952431879
 21
-21.292164131905249
 31
0.0
  0
LINE
  5
2783
  8
01
 10
234.1703558030942
 20
-26.94239681127355
 30
0.0
 11
233.82035335996969
 21
-27.292394141750751
 31
0.0
  0
LINE
  5
2784
  8
01
 10
204.47033940009831
 20
-29.292166923885961
 30
0.0
 11
204.17033940011029
 21
-29.292164131732111
 31
0.0
  0
LINE
  5
2785
  8
01
 10
233.82035335996969
 20
-27.292394141750751
 30
0.0
 11
206.47034405365
 21
-27.292185538201721
 31
0.0
  0
LINE
  5
2786
  8
01
 10
204.47033940009831
 20
-29.292166923885961
 30
0.0
 11
206.47034405365
 21
-27.292185538201721
 31
0.0
  0
LINE
  5
2787
  8
01
 10
233.8203812815085
 20
-38.751453496327173
 30
0.0
 11
206.47039989681431
 21
-38.751244893037473
 31
0.0
  0
LINE
  5
2788
  8
01
 10
204.47039524317569
 20
-36.75122627854833
 30
0.0
 11
206.47039989681431
 21
-38.751244893037473
 31
0.0
  0
LINE
  5
2789
  8
01
 10
234.1703788383636
 20
-39.101456165832388
 30
0.0
 11
233.8203812815085
 21
-38.751453496327173
 31
0.0
  0
LINE
  5
278A
  8
01
 10
204.47039524317569
 20
-36.75122627854833
 30
0.0
 11
204.1703952431879
 21
-36.75122348639448
 31
0.0
  0
LINE
  5
278B
  8
01
 10
234.1703558030942
 20
-42.401456165762767
 30
0.0
 11
234.1703788383636
 21
-39.101456165832388
 31
0.0
  0
LINE
  5
278C
  8
01
 10
204.17033940011029
 20
-44.751223486221328
 30
0.0
 11
204.1703952431879
 21
-36.75122348639448
 31
0.0
  0
LINE
  5
278D
  8
01
 10
234.1703558030942
 20
-42.401456165762767
 30
0.0
 11
233.82035335996969
 21
-42.751453496239968
 31
0.0
  0
LINE
  5
278E
  8
01
 10
204.47033940009831
 20
-44.751226278375178
 30
0.0
 11
204.17033940011029
 21
-44.751223486221328
 31
0.0
  0
LINE
  5
278F
  8
01
 10
233.82035335996969
 20
-42.751453496239968
 30
0.0
 11
206.47034405365
 21
-42.751244892690949
 31
0.0
  0
LINE
  5
2790
  8
01
 10
204.47033940009831
 20
-44.751226278375178
 30
0.0
 11
206.47034405365
 21
-42.751244892690949
 31
0.0
  0
TEXT
  5
2791
  8
01
 10
214.83705370744241
 20
-8.1910015048562137
 30
0.0
 40
4.5499999999999989
  1
30
  0
LINE
  5
2792
  8
01
  6
BYBLOCK
 10
206.77039524318789
 20
-9.7976693988562147
 30
0.0
 11
204.1703952431879
 21
-9.1010015048562138
 31
0.0
  0
LINE
  5
2793
  8
01
  6
BYBLOCK
 10
204.1703952431879
 20
-9.1010015048562138
 30
0.0
 11
206.77039524318789
 21
-8.4043336108562148
 31
0.0
  0
LINE
  5
2794
  8
01
  6
BYBLOCK
 10
204.1703952431879
 20
-9.1010015048562138
 30
0.0
 11
206.77039524318789
 21
-9.1010015048562138
 31
0.0
  0
LINE
  5
2795
  8
01
  6
BYBLOCK
 10
231.57037883836361
 20
-8.4043336108562112
 30
0.0
 11
234.1703788383636
 21
-9.1010015048562138
 31
0.0
  0
LINE
  5
2796
  8
01
  6
BYBLOCK
 10
234.1703788383636
 20
-9.1010015048562138
 30
0.0
 11
231.57037883836361
 21
-9.7976693988562147
 31
0.0
  0
LINE
  5
2797
  8
01
  6
BYBLOCK
 10
234.1703788383636
 20
-9.1010015048562138
 30
0.0
 11
231.57037883836361
 21
-9.1010015048562138
 31
0.0
  0
TEXT
  5
2798
  8
01
 10
-29.329782430912999
 20
93.827833372028778
 30
0.0
 40
4.5499999999999989
  1
50
  0
LINE
  5
2799
  8
01
  6
BYBLOCK
 10
-2.596449097579669
 20
93.614501266028782
 30
0.0
 11
0.0035509024203301
 21
92.917833372028767
 31
0.0
  0
LINE
  5
279A
  8
01
  6
BYBLOCK
 10
0.0035509024203301
 20
92.917833372028767
 30
0.0
 11
-2.596449097579669
 21
92.22116547802878
 31
0.0
  0
LINE
  5
279B
  8
01
  6
BYBLOCK
 10
0.0035509024203301
 20
92.917833372028767
 30
0.0
 11
-2.596449097579669
 21
92.917833372028767
 31
0.0
  0
LINE
  5
279C
  8
01
  6
BYBLOCK
 10
-47.396449097579662
 20
92.22116547802878
 30
0.0
 11
-49.996449097579671
 21
92.917833372028767
 31
0.0
  0
LINE
  5
279D
  8
01
  6
BYBLOCK
 10
-49.996449097579671
 20
92.917833372028767
 30
0.0
 11
-47.396449097579662
 21
93.614501266028782
 31
0.0
  0
LINE
  5
279E
  8
01
  6
BYBLOCK
 10
-49.996449097579671
 20
92.917833372028767
 30
0.0
 11
-47.396449097579662
 21
92.917833372028767
 31
0.0
  0
TEXT
  5
279F
  8
01
 10
12.382682642087991
 20
-15.900720889870691
 30
0.0
 40
4.5499999999999989
  1
178
 50
90.0
  0
LINE
  5
27A0
  8
01
  6
BYBLOCK
 10
13.98935053608797
 20
-95.475720889870701
 30
0.0
 11
13.29268264208797
 21
-98.075720889870695
 31
0.0
  0
LINE
  5
27A1
  8
01
  6
BYBLOCK
 10
13.29268264208797
 20
-98.075720889870695
 30
0.0
 11
12.596014748087971
 21
-95.475720889870701
 31
0.0
  0
LINE
  5
27A2
  8
01
  6
BYBLOCK
 10
13.29268264208797
 20
-98.075720889870695
 30
0.0
 11
13.29268264208797
 21
-95.475720889870701
 31
0.0
  0
LINE
  5
27A3
  8
01
  6
BYBLOCK
 10
12.59601474808801
 20
77.324279110129311
 30
0.0
 11
13.29268264208801
 21
79.924279110129305
 31
0.0
  0
LINE
  5
27A4
  8
01
  6
BYBLOCK
 10
13.29268264208801
 20
79.924279110129305
 30
0.0
 11
13.989350536088009
 21
77.324279110129311
 31
0.0
  0
LINE
  5
27A5
  8
01
  6
BYBLOCK
 10
13.29268264208801
 20
79.924279110129305
 30
0.0
 11
13.29268264208801
 21
77.324279110129311
 31
0.0
  0
TEXT
  5
27A6
  8
01
 10
19.830945627396488
 20
85.740940601921068
 30
0.0
 40
4.5499999999999989
  1
8.5
  0
LINE
  5
27A7
  8
01
  6
BYBLOCK
 10
36.124278960729818
 20
84.134272707921056
 30
0.0
 11
33.524278960729823
 21
84.830940601921057
 31
0.0
  0
LINE
  5
27A8
  8
01
  6
BYBLOCK
 10
33.524278960729823
 20
84.830940601921057
 30
0.0
 11
36.124278960729818
 21
85.527608495921058
 31
0.0
  0
LINE
  5
27A9
  8
01
  6
BYBLOCK
 10
33.524278960729823
 20
84.830940601921057
 30
0.0
 11
36.124278960729818
 21
84.830940601921057
 31
0.0
  0
LINE
  5
27AA
  8
01
  6
BYBLOCK
 10
39.424278960729808
 20
85.527608495921058
 30
0.0
 11
42.024278960729823
 21
84.830940601921057
 31
0.0
  0
LINE
  5
27AB
  8
01
  6
BYBLOCK
 10
42.024278960729823
 20
84.830940601921057
 30
0.0
 11
39.424278960729808
 21
84.134272707921056
 31
0.0
  0
LINE
  5
27AC
  8
01
  6
BYBLOCK
 10
42.024278960729823
 20
84.830940601921057
 30
0.0
 11
39.424278960729808
 21
84.830940601921057
 31
0.0
  0
LINE
  5
27AD
  8
01
 10
76.542750278859202
 20
-79.330425755734012
 30
0.0
 11
73.199235598479831
 21
-106.4119167572682
 31
0.0
1001
ACAD
1000
DSTYLE
1002
{
1070
    40
1040
1.3
1002
}
  0
LINE
  5
27AE
  8
01
 10
73.199235598479831
 20
-106.4119167572682
 30
0.0
 11
29.089235598479831
 21
-106.4119167572682
 31
0.0
1001
ACAD
1000
DSTYLE
1002
{
1070
    40
1040
1.3
1002
}
  0
LINE
  5
27AF
  8
01
  6
BYBLOCK
 10
75.851331989793394
 20
-79.245062390783275
 30
0.0
 11
76.861330696850928
 21
-76.750017548245864
 31
0.0
  0
LINE
  5
27B0
  8
01
  6
BYBLOCK
 10
76.861330696850928
 20
-76.750017548245864
 30
0.0
 11
77.234168567924996
 21
-79.415789120684764
 31
0.0
  0
LINE
  5
27B1
  8
01
  6
BYBLOCK
 10
76.861330696850928
 20
-76.750017548245864
 30
0.0
 11
76.542750278859202
 21
-79.330425755734012
 31
0.0
  0
LINE
  5
27B2
  8
01
 10
151.5447478656607
 20
67.764469928803493
 30
0.0
 11
141.96107085148969
 21
90.483688330104044
 31
0.0
1001
ACAD
1000
DSTYLE
1002
{
1070
    40
1040
1.3
1002
}
  0
LINE
  5
27B3
  8
01
 10
141.96107085148969
 20
90.483688330104044
 30
0.0
 11
102.0510708514897
 21
90.483688330104044
 31
0.0
1001
ACAD
1000
DSTYLE
1002
{
1070
    40
1040
1.3
1002
}
  0
LINE
  5
27B4
  8
01
  6
BYBLOCK
 10
152.186642745048
 20
68.035241268399687
 30
0.0
 11
152.55528027143581
 21
65.368885604076354
 31
0.0
  0
LINE
  5
27B5
  8
01
  6
BYBLOCK
 10
152.55528027143581
 20
65.368885604076354
 30
0.0
 11
150.9028529862733
 21
67.493698589207312
 31
0.0
  0
LINE
  5
27B6
  8
01
  6
BYBLOCK
 10
152.55528027143581
 20
65.368885604076354
 30
0.0
 11
151.5447478656607
 21
67.764469928803493
 31
0.0
  0
TEXT
  5
27B7
  8
01
 10
68.330945627396474
 20
85.740940601921068
 30
0.0
 40
4.5499999999999989
  1
8.5
  0
LINE
  5
27B8
  8
01
  6
BYBLOCK
 10
84.624278960729811
 20
84.134272707921056
 30
0.0
 11
82.024278960729816
 21
84.830940601921057
 31
0.0
  0
LINE
  5
27B9
  8
01
  6
BYBLOCK
 10
82.024278960729816
 20
84.830940601921057
 30
0.0
 11
84.624278960729811
 21
85.527608495921058
 31
0.0
  0
LINE
  5
27BA
  8
01
  6
BYBLOCK
 10
82.024278960729816
 20
84.830940601921057
 30
0.0
 11
84.624278960729811
 21
84.830940601921057
 31
0.0
  0
LINE
  5
27BB
  8
01
  6
BYBLOCK
 10
87.924278960729822
 20
85.527608495921058
 30
0.0
 11
90.524278960729816
 21
84.830940601921057
 31
0.0
  0
LINE
  5
27BC
  8
01
  6
BYBLOCK
 10
90.524278960729816
 20
84.830940601921057
 30
0.0
 11
87.924278960729822
 21
84.134272707921056
 31
0.0
  0
LINE
  5
27BD
  8
01
  6
BYBLOCK
 10
90.524278960729816
 20
84.830940601921057
 30
0.0
 11
87.924278960729822
 21
84.830940601921057
 31
0.0
  0
TEXT
  5
27BE
  8
01
 10
111.37866018202681
 20
52.090930024865152
 30
0.0
 40
4.5499999999999989
  1
47
 50
90.0
  0
LINE
  5
27BF
  8
01
  6
BYBLOCK
 10
112.9853280760269
 20
35.524263358198461
 30
0.0
 11
112.2886601820269
 21
32.924263358198459
 31
0.0
  0
LINE
  5
27C0
  8
01
  6
BYBLOCK
 10
112.2886601820269
 20
32.924263358198459
 30
0.0
 11
111.5919922880269
 21
35.524263358198461
 31
0.0
  0
LINE
  5
27C1
  8
01
  6
BYBLOCK
 10
112.2886601820269
 20
32.924263358198459
 30
0.0
 11
112.2886601820269
 21
35.524263358198461
 31
0.0
  0
LINE
  5
27C2
  8
01
  6
BYBLOCK
 10
111.5919922880269
 20
77.324263358198465
 30
0.0
 11
112.2886601820269
 21
79.924263358198459
 31
0.0
  0
LINE
  5
27C3
  8
01
  6
BYBLOCK
 10
112.2886601820269
 20
79.924263358198459
 30
0.0
 11
112.9853280760269
 21
77.324263358198465
 31
0.0
  0
LINE
  5
27C4
  8
01
  6
BYBLOCK
 10
112.2886601820269
 20
79.924263358198459
 30
0.0
 11
112.2886601820269
 21
77.324263358198465
 31
0.0
  0
TEXT
  5
27C5
  8
01
 10
20.530944479971922
 20
96.124224383785915
 30
0.0
 40
4.5499999999999989
  1
9.1
  0
LINE
  5
27C6
  8
01
  6
BYBLOCK
 10
35.524277813305247
 20
94.517556489785903
 30
0.0
 11
32.92427781330526
 21
95.214224383785904
 31
0.0
  0
LINE
  5
27C7
  8
01
  6
BYBLOCK
 10
32.92427781330526
 20
95.214224383785904
 30
0.0
 11
35.524277813305247
 21
95.910892277785905
 31
0.0
  0
LINE
  5
27C8
  8
01
  6
BYBLOCK
 10
32.92427781330526
 20
95.214224383785904
 30
0.0
 11
35.524277813305247
 21
95.214224383785904
 31
0.0
  0
LINE
  5
27C9
  8
01
  6
BYBLOCK
 10
39.424278960729808
 20
95.910892277785905
 30
0.0
 11
42.024278960729823
 21
95.214224383785904
 31
0.0
  0
LINE
  5
27CA
  8
01
  6
BYBLOCK
 10
42.024278960729823
 20
95.214224383785904
 30
0.0
 11
39.424278960729808
 21
94.517556489785903
 31
0.0
  0
LINE
  5
27CB
  8
01
  6
BYBLOCK
 10
42.024278960729823
 20
95.214224383785904
 30
0.0
 11
39.424278960729808
 21
95.214224383785904
 31
0.0
  0
TEXT
  5
27CC
  8
01
 10
69.630945627396486
 20
95.78527446597711
 30
0.0
 40
4.5499999999999989
  1
9.1
  0
LINE
  5
27CD
  8
01
  6
BYBLOCK
 10
84.624278960729811
 20
94.178606571977099
 30
0.0
 11
82.024278960729816
 21
94.875274465977085
 31
0.0
  0
LINE
  5
27CE
  8
01
  6
BYBLOCK
 10
82.024278960729816
 20
94.875274465977085
 30
0.0
 11
84.624278960729811
 21
95.571942359977115
 31
0.0
  0
LINE
  5
27CF
  8
01
  6
BYBLOCK
 10
82.024278960729816
 20
94.875274465977085
 30
0.0
 11
84.624278960729811
 21
94.875274465977085
 31
0.0
  0
LINE
  5
27D0
  8
01
  6
BYBLOCK
 10
88.52428010815575
 20
95.571942359977115
 30
0.0
 11
91.124280108155745
 21
94.875274465977085
 31
0.0
  0
LINE
  5
27D1
  8
01
  6
BYBLOCK
 10
91.124280108155745
 20
94.875274465977085
 30
0.0
 11
88.52428010815575
 21
94.178606571977099
 31
0.0
  0
LINE
  5
27D2
  8
01
  6
BYBLOCK
 10
91.124280108155745
 20
94.875274465977085
 30
0.0
 11
88.52428010815575
 21
94.875274465977085
 31
0.0
  0
VIEWPORT
  5
57
 67
     1
  8
0
 10
-3.7717277109752549
 20
10.09791912461025
 30
0.0
 40
584.3119953342931
 41
268.65685581257293
 68
     1
 69
     1
1001
ACAD
1000
MVIEW
1002
{
1070
    16
1010
0.0
1020
0.0
1030
0.0
1010
0.0
1020
0.0
1030
1.0
1040
0.0
1040
268.65685581257293
1040
-3.7717277109752549
1040
10.09791912461025
1040
50.0
1040
0.0
1040
0.0
1070
     0
1070
   100
1070
     1
1070
     1
1070
     0
1070
     0
1070
     0
1070
     0
1040
0.0
1040
0.0
1040
0.0
1040
10.0
1040
10.0
1040
10.0
1040
10.0
1070
     0
1002
{
1002
}
1002
}
  0
ENDSEC
  0
EOF
