  0
SECTION
  2
HEADER
  9
$ACADVER
  1
AC1009
  9
$INSBASE
 10
0.0
 20
0.0
 30
0.0
  9
$EXTMIN
 10
-79.510222403502624
 20
-117.74930027978471
 30
-0.0000000000562575
  9
$EXTMAX
 10
257.93598637344633
 20
148.4753380261829
 30
0.0000000096142726
  9
$LIMMIN
 10
0.0
 20
0.0
  9
$LIMMAX
 10
420.0
 20
297.0
  9
$ORTHOMODE
 70
     0
  9
$REGENMODE
 70
     1
  9
$FILLMODE
 70
     1
  9
$QTEXTMODE
 70
     0
  9
$MIRRTEXT
 70
     0
  9
$DRAGMODE
 70
     2
  9
$LTSCALE
 40
0.5
  9
$OSMODE
 70
    63
  9
$ATTMODE
 70
     1
  9
$TEXTSIZE
 40
2.7999999999999989
  9
$TRACEWID
 40
1.0
  9
$TEXTSTYLE
  7
STANDARD
  9
$CLAYER
  8
1TEXT
  9
$CELTYPE
  6
BYLAYER
  9
$CECOLOR
 62
   256
  9
$DIMSCALE
 40
1.3
  9
$DIMASZ
 40
2.0
  9
$DIMEXO
 40
0.0
  9
$DIMDLI
 40
7.0
  9
$DIMRND
 40
0.0
  9
$DIMDLE
 40
0.0
  9
$DIMEXE
 40
1.0
  9
$DIMTP
 40
0.0
  9
$DIMTM
 40
0.0
  9
$DIMTXT
 40
3.5
  9
$DIMCEN
 40
0.0
  9
$DIMTSZ
 40
0.0
  9
$DIMTOL
 70
     0
  9
$DIMLIM
 70
     0
  9
$DIMTIH
 70
     0
  9
$DIMTOH
 70
     0
  9
$DIMSE1
 70
     0
  9
$DIMSE2
 70
     0
  9
$DIMTAD
 70
     1
  9
$DIMZIN
 70
     8
  9
$DIMBLK
  1

  9
$DIMASO
 70
     1
  9
$DIMSHO
 70
     1
  9
$DIMPOST
  1
 
  9
$DIMAPOST
  1

  9
$DIMALT
 70
     0
  9
$DIMALTD
 70
     2
  9
$DIMALTF
 40
25.399999999999999
  9
$DIMLFAC
 40
1.0
  9
$DIMTOFL
 70
     1
  9
$DIMTVP
 40
0.0
  9
$DIMTIX
 70
     0
  9
$DIMSOXD
 70
     0
  9
$DIMSAH
 70
     1
  9
$DIMBLK1
  1
OPEN30
  9
$DIMBLK2
  1
OPEN30
  9
$DIMSTYLE
  2
NEWX10
  9
$DIMCLRD
 70
   256
  9
$DIMCLRE
 70
   256
  9
$DIMCLRT
 70
   201
  9
$DIMTFAC
 40
0.7
  9
$DIMGAP
 40
0.7
  9
$LUNITS
 70
     2
  9
$LUPREC
 70
     4
  9
$SKETCHINC
 40
1.0
  9
$FILLETRAD
 40
0.0
  9
$AUNITS
 70
     0
  9
$AUPREC
 70
     2
  9
$MENU
  1
acad
  9
$ELEVATION
 40
0.0
  9
$PELEVATION
 40
0.0
  9
$THICKNESS
 40
0.0
  9
$LIMCHECK
 70
     0
  9
$BLIPMODE
 70
     0
  9
$CHAMFERA
 40
10.0
  9
$CHAMFERB
 40
10.0
  9
$SKPOLY
 70
     0
  9
$TDCREATE
 40
2451318.621352917
  9
$TDUPDATE
 40
2457014.6571997921
  9
$TDINDWG
 40
0.4550897338
  9
$TDUSRTIMER
 40
0.4550897338
  9
$USRTIMER
 70
     1
  9
$ANGBASE
 50
0.0
  9
$ANGDIR
 70
     0
  9
$PDMODE
 70
     0
  9
$PDSIZE
 40
0.0
  9
$PLINEWID
 40
0.0
  9
$COORDS
 70
     0
  9
$SPLFRAME
 70
     0
  9
$SPLINETYPE
 70
     6
  9
$SPLINESEGS
 70
     8
  9
$ATTDIA
 70
     0
  9
$ATTREQ
 70
     1
  9
$HANDLING
 70
     1
  9
$HANDSEED
  5
27D1
  9
$SURFTAB1
 70
     6
  9
$SURFTAB2
 70
     6
  9
$SURFTYPE
 70
     6
  9
$SURFU
 70
     6
  9
$SURFV
 70
     6
  9
$UCSNAME
  2

  9
$UCSORG
 10
0.0
 20
0.0
 30
0.0
  9
$UCSXDIR
 10
1.0
 20
0.0
 30
0.0
  9
$UCSYDIR
 10
0.0
 20
1.0
 30
0.0
  9
$PUCSNAME
  2

  9
$PUCSORG
 10
0.0
 20
0.0
 30
0.0
  9
$PUCSXDIR
 10
1.0
 20
0.0
 30
0.0
  9
$PUCSYDIR
 10
0.0
 20
1.0
 30
0.0
  9
$USERI1
 70
     0
  9
$USERI2
 70
     0
  9
$USERI3
 70
     0
  9
$USERI4
 70
     0
  9
$USERI5
 70
     0
  9
$USERR1
 40
0.0
  9
$USERR2
 40
0.0
  9
$USERR3
 40
0.0
  9
$USERR4
 40
0.0
  9
$USERR5
 40
0.0
  9
$WORLDVIEW
 70
     1
  9
$SHADEDGE
 70
     3
  9
$SHADEDIF
 70
    70
  9
$TILEMODE
 70
     1
  9
$MAXACTVP
 70
    48
  9
$PLIMCHECK
 70
     0
  9
$PEXTMIN
 10
1.0000000000000000E+020
 20
1.0000000000000000E+020
 30
1.0000000000000000E+020
  9
$PEXTMAX
 10
-1.0000000000000000E+020
 20
-1.0000000000000000E+020
 30
-1.0000000000000000E+020
  9
$PLIMMIN
 10
0.0
 20
0.0
  9
$PLIMMAX
 10
420.0
 20
297.0
  9
$UNITMODE
 70
     0
  9
$VISRETAIN
 70
     1
  9
$PLINEGEN
 70
     0
  9
$PSLTSCALE
 70
     1
  0
ENDSEC
  0
SECTION
  2
TABLES
  0
TABLE
  2
VPORT
 70
     1
  0
VPORT
  2
*ACTIVE
 70
     0
 10
0.0
 20
0.0
 11
1.0
 21
1.0
 12
89.21288198497183
 22
15.36301887319908
 13
0.0
 23
0.0
 14
10.0
 24
10.0
 15
10.0
 25
10.0
 16
0.0
 26
0.0
 36
1.0
 17
0.0
 27
0.0
 37
0.0
 40
282.32000383845519
 41
2.1749379652605461
 42
50.0
 43
0.0
 44
0.0
 50
0.0
 51
0.0
 71
     0
 72
   100
 73
     1
 74
     1
 75
     0
 76
     0
 77
     0
 78
     0
  0
ENDTAB
  0
TABLE
  2
LTYPE
 70
    12
  0
LTYPE
  2
CONTINUOUS
 70
     0
  3
Solid line
 72
    65
 73
     0
 40
0.0
  0
LTYPE
  2
XREF1|CENTER2
 70
    48
  3
Center (.5x) ___ _ ___ _ ___ _ ___ _ ___ _ ___
 72
    65
 73
     4
 40
28.574999999999999
 49
19.050000000000001
 49
-3.1749999999999989
 49
3.1749999999999989
 49
-3.1749999999999989
  0
LTYPE
  2
A3WAKUDAKE|CENTER2
 70
    48
  3
Center (.5x) ___ _ ___ _ ___ _ ___ _ ___ _ ___
 72
    65
 73
     4
 40
28.574999999999999
 49
19.050000000000001
 49
-3.1749999999999989
 49
3.1749999999999989
 49
-3.1749999999999989
  0
ENDTAB
  0
TABLE
  2
LAYER
 70
    50
  0
LAYER
  2
0
 70
     0
 62
     7
  6
CONTINUOUS
  0
LAYER
  2
1TEXT
 70
     0
 62
     7
  6
CONTINUOUS
  0
LAYER
  2
01
 70
     0
 62
     1
  6
CONTINUOUS
  0
LAYER
  2
A3WAKUDAKE|THICK
 70
    48
 62
     7
  6
CONTINUOUS
  0
LAYER
  2
A3WAKUDAKE|POINT
 70
    48
 62
     7
  6
CONTINUOUS
  0
LAYER
  2
A3WAKUDAKE|1CENTER
 70
    48
 62
     7
  6
A3WAKUDAKE|CENTER2
  0
LAYER
  2
A3WAKUDAKE|0-6
 70
    48
 62
     7
  6
CONTINUOUS
  0
LAYER
  2
A3WAKUDAKE|1DIM
 70
    48
 62
     7
  6
CONTINUOUS
  0
LAYER
  2
XREF1|1CENTER
 70
    48
 62
     7
  6
XREF1|CENTER2
  0
ENDTAB
  0
TABLE
  2
STYLE
 70
     7
  0
STYLE
  2
STANDARD
 70
     0
 40
0.0
 41
1.0
 50
0.0
 71
     0
 42
2.7999999999999989
  3
romans.shx
  4
extfont.shx
  0
ENDTAB
  0
TABLE
  2
VIEW
 70
     5
  0
ENDTAB
  0
TABLE
  2
UCS
 70
     0
  0
ENDTAB
  0
TABLE
  2
APPID
 70
    13
  0
APPID
  2
ACAD
 70
     0
  0
APPID
  2
DRAWINGVARIABLESXDATA
 70
     0
  0
APPID
  2
CONTENTTABDATA
 70
     0
  0
APPID
  2
CONTENTCURRENTTAB
 70
     0
  0
APPID
  2
CONTENTBLOCKDESCRIPTION
 70
     0
  0
APPID
  2
CONTENTBLOCKICON
 70
     0
  0
APPID
  2
CONTENTLONGBLOCKNAME
 70
     0
  0
APPID
  2
ACAD_MLEADERVER
 70
     0
  0
APPID
  2
ACAD_PSEXT
 70
     0
  0
APPID
  2
ACADANNOTATIVE
 70
     0
  0
APPID
  2
ACAD_DSTYLE_DIMRADIAL_EXTENSION
 70
     0
  0
APPID
  2
ACAD_NAV_VCDISPLAY
 70
     0
  0
APPID
  2
ACAD_EXEMPT_FROM_CAD_STANDARDS
 70
     0
  0
ENDTAB
  0
TABLE
  2
DIMSTYLE
 70
     9
  0
DIMSTYLE
  2
NEWX10
 70
     0
  3
 
  4

  5

  6
OPEN30
  7
OPEN30
 40
1.0
 41
2.0
 42
0.0
 43
7.0
 44
1.0
 45
0.0
 46
0.0
 47
0.0
 48
0.0
140
3.5
141
0.0
142
0.0
143
25.399999999999999
144
1.0
145
0.0
146
0.7
147
0.7
 71
     0
 72
     0
 73
     0
 74
     0
 75
     0
 76
     0
 77
     1
 78
     8
170
     0
171
     2
172
     1
173
     1
174
     0
175
     0
176
   256
177
   256
178
   201
  0
ENDTAB
  0
ENDSEC
  0
SECTION
  2
BLOCKS
  0
BLOCK
  8
0
  2
$MODEL_SPACE
 70
     0
 10
0.0
 20
0.0
 30
0.0
  3
$MODEL_SPACE
  1

  0
ENDBLK
  5
1A
  8
0
  0
BLOCK
 67
     1
  8
0
  2
$PAPER_SPACE
 70
     0
 10
0.0
 20
0.0
 30
0.0
  3
$PAPER_SPACE
  1

  0
ENDBLK
  5
17
 67
     1
  8
0
  0
BLOCK
  8
0
  2
_OPEN30
 70
     0
 10
0.0
 20
0.0
 30
0.0
  3
_OPEN30
  1

  0
LINE
  5
44
  8
0
  6
BYBLOCK
 62
     0
 10
-1.0
 20
0.26794919
 30
0.0
 11
0.0
 21
0.0
 31
0.0
  0
LINE
  5
45
  8
0
  6
BYBLOCK
 62
     0
 10
0.0
 20
0.0
 30
0.0
 11
-1.0
 21
-0.26794919
 31
0.0
  0
LINE
  5
46
  8
0
  6
BYBLOCK
 62
     0
 10
0.0
 20
0.0
 30
0.0
 11
-1.0
 21
0.0
 31
0.0
  0
ENDBLK
  5
47
  8
0
  0
BLOCK
  8
0
  2
XREF1
 70
    36
 10
0.0
 20
0.0
 30
0.0
  3
XREF1
  1
D:\ACLT\FORMAT\KAWAJUN(9)図面用.dwg
  0
ENDBLK
  5
5D
  8
0
  0
BLOCK
  8
0
  2
A3WAKUDAKE
 70
    36
 10
0.0
 20
0.0
 30
0.0
  3
A3WAKUDAKE
  1
D:\ACLT\FORMAT\A3WAKUdake.dwg
  0
ENDBLK
  5
1584
  8
0
  0
ENDSEC
  0
SECTION
  2
ENTITIES
  0
LINE
  5
1028
  8
01
 10
57.024283011644677
 20
58.598523930515292
 30
0.0
 11
57.024282687120603
 21
51.17426911013478
 31
0.0
  0
LINE
  5
1029
  8
01
 10
57.02427741990391
 20
-69.325762727866035
 30
0.0
 11
57.02427709537983
 21
-76.750017548245864
 31
0.0
  0
LINE
  5
1030
  8
01
 10
91.124280108155745
 20
42.174262765349667
 30
0.0
 11
91.124279299493992
 21
23.674262765350139
 31
0.0
  0
LINE
  5
1031
  8
01
 10
91.124280108155745
 20
42.174262765349667
 30
0.0
 11
90.524278960730499
 21
42.174262791576631
 31
0.0
  0
LINE
  5
1032
  8
01
 10
91.124279299493992
 20
23.674262765350139
 30
0.0
 11
90.524278960730484
 21
23.67426279157689
 31
0.0
  0
LINE
  5
1041
  8
01
 10
51.201166761692321
 20
54.924279110131351
 30
0.0
 11
92.227640458201449
 21
54.924279110131351
 31
0.0
  0
LINE
  5
1042
  8
01
 10
51.201166761692321
 20
-73.075772727861931
 30
0.0
 11
92.227640458201449
 21
-73.075772727861931
 31
0.0
  0
LINE
  5
1054
  8
01
 10
82.024282687120589
 20
51.174269110135349
 30
0.0
 11
57.024282687119687
 21
51.17426911013478
 31
0.0
  0
LINE
  5
1055
  8
01
 10
82.024283011644684
 20
58.598523930515292
 30
0.0
 11
57.024283011643782
 21
58.598523930515171
 31
0.0
  0
LINE
  5
1056
  8
01
 10
82.024277419904806
 20
-69.325762727865936
 30
0.0
 11
57.02427741990482
 21
-69.325762727865936
 31
0.0
  0
LINE
  5
1057
  8
01
 10
82.024277095381649
 20
-76.750017548245864
 30
0.0
 11
57.024277095380739
 21
-76.750017548245864
 31
0.0
  0
LINE
  5
105E
  8
01
 10
33.524278960729823
 20
79.424279110129305
 30
0.0
 11
33.524278960729823
 21
-97.575720889870695
 31
0.0
  0
ARC
  5
105F
  8
01
 10
34.024278960729823
 20
-97.575720889870695
 30
0.0
 40
0.5
 50
180.0
 51
270.0
  0
LINE
  5
1060
  8
01
 10
42.024278960729823
 20
79.924279110129305
 30
0.0
 11
42.024278960729823
 21
-98.075720889870695
 31
0.0
  0
LINE
  5
1061
  8
01
 10
34.024278960729823
 20
79.924279110129305
 30
0.0
 11
42.024278960729823
 21
79.924279110129305
 31
0.0
  0
ARC
  5
1062
  8
01
 10
34.024278960729823
 20
79.424279110129305
 30
0.0
 40
0.5
 50
90.0
 51
180.0
  0
LINE
  5
1063
  8
01
 10
34.024278960729823
 20
-98.075720889870695
 30
0.0
 11
42.024278960729823
 21
-98.075720889870695
 31
0.0
  0
LINE
  5
1064
  8
01
 10
27.649687202388581
 20
32.924279110129312
 30
0.0
 11
48.786562900031178
 21
32.924279110129312
 31
0.0
  0
LINE
  5
1065
  8
01
 10
-49.996449097579671
 20
79.424279110129305
 30
0.0
 11
-49.996449097579671
 21
-97.575720889870695
 31
0.0
  0
ARC
  5
1066
  8
01
 10
-49.496449097579671
 20
-97.575720889870695
 30
0.0
 40
0.5
 50
180.0
 51
270.0
  0
LINE
  5
1067
  8
01
 10
-24.996449097579671
 20
132.5878892591893
 30
0.0
 11
-24.996449097579671
 21
100.87922699396999
 31
0.0
  0
LINE
  5
1068
  8
01
 10
0.0035509024203293
 20
79.424279110129305
 30
0.0
 11
0.0035509024203293
 21
-97.575720889870695
 31
0.0
  0
ARC
  5
1069
  8
01
 10
-0.4964490975796707
 20
79.424279110129305
 30
0.0
 40
0.5
 50
0.0
 51
90.0
  0
LINE
  5
106A
  8
01
 10
-0.4964490975796707
 20
-98.075720889870695
 30
0.0
 11
-49.496449097579671
 21
-98.075720889870695
 31
0.0
  0
ARC
  5
106B
  8
01
 10
-0.4964490975796707
 20
-97.575720889870695
 30
0.0
 40
0.5
 50
270.0
 51
0.0
  0
LINE
  5
106C
  8
01
 10
-12.798214779127189
 20
32.924279110129312
 30
0.0
 11
-37.834637983712128
 21
32.924279110129312
 31
0.0
  0
LINE
  5
106D
  8
01
 10
-49.496449097579671
 20
79.924279110129305
 30
0.0
 11
-0.4964490975796707
 21
79.924279110129305
 31
0.0
  0
ARC
  5
106E
  8
01
 10
-49.496449097579671
 20
79.424279110129305
 30
0.0
 40
0.5
 50
90.0
 51
180.0
  0
CIRCLE
  5
106F
  8
01
 10
-24.996449097578989
 20
32.924279110129312
 30
0.0
 40
9.5
  0
LINE
  5
1072
  8
01
 10
123.2639079073972
 20
79.424263358198445
 30
0.0
 11
123.2639079073972
 21
-97.575736641801555
 31
0.0
  0
ARC
  5
1073
  8
01
 10
123.7639079073972
 20
-97.575736641801555
 30
0.0
 40
0.5
 50
180.0
 51
270.0
  0
LINE
  5
1074
  8
01
 10
148.2639079073972
 20
84.173509972172965
 30
0.0
 11
148.2639079073972
 21
-101.6687713191631
 31
0.0
  0
LINE
  5
1075
  8
01
 10
173.2639079073972
 20
79.424263358198445
 30
0.0
 11
173.2639079073972
 21
-97.575736641801555
 31
0.0
  0
ARC
  5
1076
  8
01
 10
172.7639079073972
 20
79.424263358198445
 30
0.0
 40
0.5
 50
0.0
 51
90.0
  0
LINE
  5
1077
  8
01
 10
172.7639079073972
 20
-98.075736641801541
 30
0.0
 11
123.7639079073972
 21
-98.075736641801541
 31
0.0
  0
ARC
  5
1078
  8
01
 10
172.7639079073972
 20
-97.575736641801555
 30
0.0
 40
0.5
 50
270.0
 51
0.0
  0
LINE
  5
1079
  8
01
 10
160.46214222584959
 20
32.924263358198459
 30
0.0
 11
135.42571902126471
 21
32.924263358198459
 31
0.0
  0
LINE
  5
107A
  8
01
 10
123.7639079073972
 20
79.924263358198459
 30
0.0
 11
172.7639079073972
 21
79.924263358198459
 31
0.0
  0
ARC
  5
107B
  8
01
 10
123.7639079073972
 20
79.424263358198445
 30
0.0
 40
0.5
 50
90.0
 51
180.0
  0
CIRCLE
  5
107C
  8
01
 10
148.26390790739791
 20
32.924263358198459
 30
0.0
 40
9.5
  0
LINE
  5
107F
  8
01
 10
90.524278960729816
 20
79.424263163123442
 30
0.0
 11
90.524278960729774
 21
-97.575736836876558
 31
0.0
  0
ARC
  5
1083
  8
01
 10
90.024278960729816
 20
-97.575736836876558
 30
0.0
 40
0.5
 50
270.0
 51
0.0
  0
LINE
  5
1084
  8
01
 10
82.024278960729816
 20
79.924263163123442
 30
0.0
 11
82.024278960729816
 21
-98.075736836876573
 31
0.0
  0
LINE
  5
1086
  8
01
 10
90.024278960729816
 20
79.924263163123442
 30
0.0
 11
82.024278960729816
 21
79.924263163123442
 31
0.0
  0
ARC
  5
1088
  8
01
 10
90.024278960729816
 20
79.424263163123442
 30
0.0
 40
0.5
 50
0.0
 51
90.0
  0
LINE
  5
1089
  8
01
 10
90.024278960729816
 20
-98.075736836876573
 30
0.0
 11
82.024278960729816
 21
-98.075736836876573
 31
0.0
  0
LINE
  5
108B
  8
01
 10
96.39887071907242
 20
32.924263163123442
 30
0.0
 11
75.261995021429811
 21
32.924263163123442
 31
0.0
  0
LINE
  5
1503
  8
01
 10
32.924278621967012
 20
23.674262765350139
 30
0.0
 11
33.524278960730513
 21
23.67426279157689
 31
0.0
  0
LINE
  5
1504
  8
01
 10
32.92427781330526
 20
42.174262765349667
 30
0.0
 11
33.524278960730499
 21
42.174262791576631
 31
0.0
  0
LINE
  5
1505
  8
01
 10
32.92427781330526
 20
42.174262765349667
 30
0.0
 11
32.924278621967012
 21
23.674262765350139
 31
0.0
  0
TEXT
  5
1514
  8
01
 10
211.7938538501686
 20
-49.886469716769881
 30
0.0
 40
4.0
  1
付属ねじ
  0
LINE
  5
1557
  8
01
 10
-49.996449097579671
 20
128.44813664630581
 30
0.0
 11
-49.996449097579671
 21
120.4481366463058
 31
0.0
  0
LINE
  5
1558
  8
01
 10
0.0035509024203293
 20
128.44813664630581
 30
0.0
 11
0.0035509024203293
 21
120.4481366463058
 31
0.0
  0
LINE
  5
1559
  8
01
 10
-49.996449097579671
 20
128.44813664630581
 30
0.0
 11
0.0035509024203293
 21
128.44813664630581
 31
0.0
  0
LINE
  5
155A
  8
01
 10
-49.496449097579671
 20
119.9481366463058
 30
0.0
 11
-0.4964490975796707
 21
119.9481366463058
 31
0.0
  0
ARC
  5
155B
  8
01
 10
-49.496449097579671
 20
120.4481366463058
 30
0.0
 40
0.5
 50
180.0
 51
270.0
  0
ARC
  5
155C
  8
01
 10
-0.4964490975796707
 20
120.4481366463058
 30
0.0
 40
0.5
 50
269.9999999999992
 51
359.99999999999682
  0
LINE
  5
155D
  8
01
 10
-24.996449097579671
 20
86.211114350129037
 30
0.0
 11
-24.996449097579671
 21
-101.6687555672323
 31
0.0
  0
TEXT
  5
1570
  8
01
 10
-80.653079546359777
 20
132.56517872874099
 30
0.0
 40
8.0
  1
Z3-X
  0
ARC
  5
1577
  8
01
 10
172.7639079073972
 20
107.9654306770075
 30
0.0
 40
0.5
 50
269.9999999999992
 51
359.99999999999682
  0
ARC
  5
1578
  8
01
 10
123.7639079073972
 20
107.9654306770075
 30
0.0
 40
0.5
 50
180.0
 51
270.0
  0
LINE
  5
1579
  8
01
 10
123.7639079073972
 20
107.4654306770074
 30
0.0
 11
172.7639079073972
 21
107.4654306770074
 31
0.0
  0
LINE
  5
157A
  8
01
 10
123.2639079073972
 20
115.9654306770075
 30
0.0
 11
173.2639079073972
 21
115.9654306770075
 31
0.0
  0
LINE
  5
157B
  8
01
 10
173.2639079073972
 20
115.9654306770075
 30
0.0
 11
173.2639079073972
 21
107.9654306770075
 31
0.0
  0
LINE
  5
157C
  8
01
 10
123.2639079073972
 20
115.9654306770075
 30
0.0
 11
123.2639079073972
 21
107.9654306770075
 31
0.0
  0
LINE
  5
157D
  8
01
 10
148.2639079073972
 20
148.4753380261829
 30
0.0
 11
148.2639079073972
 21
101.9992946422345
 31
0.0
  0
LINE
  5
157F
  8
01
 10
144.5138979074012
 20
115.9654269506166
 30
0.0
 11
144.5138979074006
 21
140.9654269506176
 31
0.0
  0
LINE
  5
1580
  8
01
 10
152.0139179073937
 20
140.9654266227808
 30
0.0
 11
144.5138979074006
 21
140.96542695061669
 31
0.0
  0
CIRCLE
  5
1613
  8
01
 10
-24.99644909757966
 20
32.924279110129312
 30
0.0
 40
9.2499995171551745
  0
CIRCLE
  5
1614
  8
01
 10
-24.99644909757966
 20
32.924279110129312
 30
0.0
 40
8.0500000000000007
  0
CIRCLE
  5
1615
  8
01
 10
148.2639079073972
 20
32.924263358198459
 30
0.0
 40
9.2499995171551745
  0
CIRCLE
  5
1616
  8
01
 10
148.2639079073972
 20
32.924263358198459
 30
0.0
 40
8.0500000000000007
  0
LINE
  5
1640
  8
01
 10
152.01391790739319
 20
115.9654269506166
 30
0.0
 11
152.0139179073937
 21
140.9654269506176
 31
0.0
  0
LINE
  5
1655
  8
01
 10
147.5139079073972
 20
140.96542681948219
 30
0.0
 11
147.5139079073972
 21
116.7154306770074
 31
0.0
  0
LINE
  5
1656
  8
01
 10
149.0139079073972
 20
140.96542675391521
 30
0.0
 11
149.0139079073972
 21
116.7154306770074
 31
0.0
  0
LINE
  5
1657
  8
01
 10
148.2639079073972
 20
148.4753380261829
 30
0.0
 11
148.2639079073972
 21
101.9992946422345
 31
0.0
  0
ARC
  5
1658
  8
01
 10
148.2639079073972
 20
116.7154306770074
 30
0.0
 40
0.7500000000000157
 50
180.0
 51
0.0
  0
LINE
  5
188E
  8
01
 10
-39.789547683881672
 20
-57.075719919637102
 30
0.0
 11
-10.491291111339249
 21
-57.075719919637102
 31
0.0
  0
LINE
  5
1890
  8
01
 10
163.05700649369939
 20
-57.07573643767364
 30
0.0
 11
133.7587499211561
 21
-57.07573643767364
 31
0.0
  0
LINE
  5
18B8
  8
01
 10
15.846801185027459
 20
-57.07573643767364
 30
0.0000000000023235
 11
57.85611337768767
 21
-57.07573643767364
 31
0.0000000000023235
  0
LINE
  5
1CAA
  8
01
 10
-38.496449097581952
 20
119.4481595905126
 30
0.0
 11
-38.496449097581952
 21
119.9481366463058
 31
0.0
  0
LINE
  5
1CAB
  8
01
 10
-11.49644909757739
 20
119.4481595905124
 30
0.0
 11
-11.49644909757739
 21
119.9481366463058
 31
0.0
  0
LINE
  5
1CAC
  8
01
 10
-11.99644909757739
 20
118.9481595905124
 30
0.0
 11
-20.84644909757958
 21
118.9481595905124
 31
0.0
  0
LINE
  5
1CAD
  8
01
 10
-28.146449097578859
 20
105.9481366463076
 30
0.0
 11
-28.146449097580678
 21
117.94815959051419
 31
0.0
  0
ARC
  5
1CAE
  8
01
 10
-27.146449097577939
 20
105.9481366463076
 30
0.0
 40
1.0
 50
180.0
 51
270.0
  0
LINE
  5
1CAF
  8
01
 10
-22.84644909757958
 20
104.9481366463058
 30
0.0
 11
-27.14644909757795
 21
104.9481366463058
 31
0.0
  0
ARC
  5
1CB0
  8
01
 10
-22.84644909757867
 20
105.9481366463076
 30
0.0
 40
1.0
 50
270.0
 51
359.99999999994787
  0
LINE
  5
1CB1
  8
01
 10
-21.84644909757958
 20
105.94813664630939
 30
0.0
 11
-21.84644909757958
 21
117.9481595905124
 31
0.0
  0
ARC
  5
1CB2
  8
01
 10
-11.99644909757739
 20
119.4481595905124
 30
0.0
 40
0.5
 50
270.0
 51
0.0
  0
ARC
  5
1CB3
  8
01
 10
-20.84644909757867
 20
117.9481595905124
 30
0.0
 40
1.0
 50
90.0
 51
180.0
  0
ARC
  5
1CB4
  8
01
 10
-37.996449097581937
 20
119.4481595905126
 30
0.0
 40
0.5
 50
180.0
 51
270.00000000001302
  0
LINE
  5
1CB5
  8
01
 10
-29.146449097580678
 20
118.94815959051419
 30
0.0
 11
-37.996449097581831
 21
118.9481595905126
 31
0.0
  0
ARC
  5
1CB6
  8
01
 10
-29.146449097579762
 20
117.94815959051419
 30
0.0
 40
1.0
 50
0.0
 51
90.000000000013031
  0
LINE
  5
1CDC
  8
01
 10
64.267470948359261
 20
-57.07573643767364
 30
0.0000000000023235
 11
96.686260447947475
 21
-57.07573643767364
 31
0.0000000000023235
  0
CIRCLE
  5
2378
  8
01
 10
-24.996449097579671
 20
-57.075719919637102
 30
0.0
 40
13.50000000000227
  0
ARC
  5
2379
  8
01
 10
-24.996449097579671
 20
-57.075719919637102
 30
0.0
 40
13.00000000000227
 50
257.76041684384802
 51
282.23958315615198
  0
LINE
  5
237A
  8
01
 10
-21.84644909757958
 20
-69.291590744101313
 30
0.0
 11
-21.84644909757958
 21
-44.859849095172422
 31
0.0
  0
LINE
  5
237B
  8
01
 10
-28.14644909758022
 20
-69.291590744101313
 30
0.0
 11
-28.14644909758022
 21
-44.859849095172869
 31
0.0
  0
ARC
  5
237C
  8
01
 10
-27.64644909758022
 20
-69.291590744101313
 30
0.0
 40
0.5
 50
180.0
 51
257.76041684384802
  0
ARC
  5
237D
  8
01
 10
-22.34644909757958
 20
-69.291590744101313
 30
0.0
 40
0.5
 50
282.23958315615198
 51
0.0
  0
ARC
  5
237E
  8
01
 10
-27.64644909758022
 20
-44.859849095172869
 30
0.0
 40
0.5
 50
102.23958315615189
 51
180.0
  0
ARC
  5
237F
  8
01
 10
-22.34644909757958
 20
-44.859849095172869
 30
0.0
 40
0.5
 50
0.0000000000521102
 51
77.76041684384802
  0
ARC
  5
2380
  8
01
 10
-24.996449097579671
 20
-57.075719919637102
 30
0.0
 40
13.00000000000227
 50
77.76041684384802
 51
102.23958315615189
  0
LINE
  5
2381
  8
01
 10
152.65139088455291
 20
-56.07573643767364
 30
0.0
 11
143.8764249302414
 21
-56.07573643767364
 31
0.0
  0
LINE
  5
2382
  8
01
 10
152.65139088455291
 20
-58.07573643767364
 30
0.0
 11
143.8764249302414
 21
-58.07573643767364
 31
0.0
  0
CIRCLE
  5
2383
  8
01
 10
148.2639079073972
 20
-57.075736437673179
 30
-0.0000000000562575
 40
4.5000007638701609
  0
LINE
  5
2410
  8
01
 10
32.524281815445107
 20
-44.575980268314417
 30
0.0000000000585811
 11
32.524281815443743
 21
-69.575980268314424
 31
0.0000000000585811
  0
LINE
  5
2411
  8
01
 10
18.52428219791901
 20
-44.575980268314417
 30
0.0000000000585811
 11
18.524282197919462
 21
-69.575980268314652
 31
0.0000000000585811
  0
LINE
  5
2412
  8
01
 10
19.024282197919
 20
-44.075980268314417
 30
0.0000000000585811
 11
33.524288169402013
 21
-44.075980268314417
 31
0.0000000000585811
  0
ARC
  5
2413
  8
01
 10
19.024282197919
 20
-44.575980268314417
 30
0.0000000000585811
 40
0.5
 50
90.0
 51
180.0
  0
LINE
  5
2414
  8
01
 10
19.024282197919462
 20
-70.075980268314652
 30
0.0000000000585811
 11
33.52426760980623
 21
-70.075980268314424
 31
0.0000000000585811
  0
ARC
  5
2415
  8
01
 10
19.024282197919462
 20
-69.575980268314652
 30
0.0000000000585811
 40
0.5
 50
180.0
 51
270.0
  0
ARC
  5
2416
  8
01
 10
33.024281815443288
 20
-44.575980268314417
 30
0.0000000000585811
 40
0.5
 50
90.0
 51
180.0
  0
ARC
  5
2417
  8
01
 10
33.02428181544375
 20
-69.575980268314424
 30
0.0000000000585811
 40
0.5
 50
180.0
 51
270.0
  0
LINE
  5
2418
  8
01
 10
91.124331949869614
 20
-56.075736324018408
 30
0.0000000000585811
 11
91.124331851519372
 21
-53.825749426041511
 31
0.0000000000585811
  0
LINE
  5
2419
  8
01
 10
91.124332037291396
 20
-58.075736324018628
 30
0.0000000000585811
 11
91.124332135643016
 21
-60.325749426039692
 31
0.0000000000585811
  0
LINE
  5
241A
  8
01
 10
91.124331949869614
 20
-56.075736324018408
 30
0.0000000000585811
 11
90.524279240908825
 21
-56.075736350247553
 31
0.0000000000585811
  0
LINE
  5
241B
  8
01
 10
91.124332037291396
 20
-58.075736324018628
 30
0.0000000000585811
 11
90.524280822416088
 21
-58.075736350247659
 31
0.0000000000585811
  0
ARC
  5
241C
  8
01
 10
90.124241420707875
 20
-60.32573693927452
 30
-0.0000000000055903
 40
1.0
 50
293.58079822713438
 51
359.99928456083438
  0
ARC
  5
241D
  8
01
 10
90.124316459572555
 20
-53.825736939273163
 30
0.0000000096142726
 40
1.0
 50
359.99928456083438
 51
66.424304750185925
  0
LINE
  5
241F
  8
01
 10
143.76390714352701
 20
107.3654306770075
 30
0.0
 11
143.76390714352701
 21
107.4654306770074
 31
0.0
  0
LINE
  5
2420
  8
01
 10
152.7639086712673
 20
107.3654306770075
 30
-0.0000000000562575
 11
152.7639086712673
 21
107.4654306770074
 31
-0.0000000000562575
  0
LINE
  5
2421
  8
01
 10
144.26390714352701
 20
106.8654306770075
 30
0.0
 11
152.2639086712673
 21
106.8654306770075
 31
0.0
  0
ARC
  5
2422
  8
01
 10
152.26390867126739
 20
107.3654306770074
 30
-0.0000000000562575
 40
0.5
 50
269.99999999999682
 51
0.0000000000032569
  0
ARC
  5
2423
  8
01
 10
144.26390714352701
 20
107.3654306770075
 30
0.0
 40
0.5
 50
180.0
 51
270.0
  0
TEXT
  5
257D
  8
01
 10
188.61396986987211
 20
86.833814002277208
 30
0.0
 40
4.0
  1
材質：真鍮・亜鉛ダイキャスト
 11
188.61396986987211
 21
88.833814002277222
 31
0.0
 73
     2
  0
TEXT
  5
257E
  8
01
 10
196.2693197067797
 20
74.06778641595497
 30
0.0
 40
4.0
  1
表面処理
 72
     1
 11
205.33598637344639
 21
74.06778641595497
 31
0.0
  0
TEXT
  5
257F
  8
01
 10
196.00265304011299
 20
60.232497756430583
 30
0.0
 40
4.0
  1
クローム
 72
     1
 11
205.33598637344639
 21
60.232497756430583
 31
0.0
  0
TEXT
  5
2580
  8
01
 10
194.13598637344629
 20
67.089891395970653
 30
0.0
 40
4.0
  1
本金メッキ
 72
     1
 11
205.33598637344639
 21
67.089891395970653
 31
0.0
  0
LINE
  5
2581
  8
01
 10
187.9359863734463
 20
79.56778641595497
 30
0.0
 11
257.93598637344633
 21
79.56778641595497
 31
0.0
  0
LINE
  5
2582
  8
01
 10
187.9359863734463
 20
65.56778641595497
 30
0.0
 11
257.93598637344633
 21
65.56778641595497
 31
0.0
  0
LINE
  5
2583
  8
01
 10
187.9359863734463
 20
72.56778641595497
 30
0.0
 11
257.93598637344633
 21
72.56778641595497
 31
0.0
  0
LINE
  5
2584
  8
01
 10
187.9359863734463
 20
58.567786415954963
 30
0.0
 11
257.93598637344633
 21
58.567786415954963
 31
0.0
  0
LINE
  5
2585
  8
01
 10
187.9359863734463
 20
58.567786415954963
 30
0.0
 11
257.93598637344633
 21
58.567786415954963
 31
0.0
  0
LINE
  5
2586
  8
01
 10
222.9359863734463
 20
79.56778641595497
 30
0.0
 11
222.93598637344621
 21
16.56778641595497
 31
0.0
  0
TEXT
  5
2587
  8
01
 10
232.05027208773259
 20
66.853429432305575
 30
0.0
 40
4.0
  1
Z3-G
 72
     1
 11
240.33598637344679
 21
66.853429432305575
 31
0.0
  0
TEXT
  5
2588
  8
01
 10
233.53598637344641
 20
74.06778641595497
 30
0.0
 40
4.0
  1
コード
 72
     1
 11
240.33598637344639
 21
74.06778641595497
 31
0.0
  0
LINE
  5
2589
  8
01
 10
187.9359863734463
 20
16.56778641595497
 30
0.0
 11
187.9359863734463
 21
79.56778641595497
 31
0.0
  0
LINE
  5
258A
  8
01
 10
257.93598637344633
 20
16.56778641595497
 30
0.0
 11
257.93598637344633
 21
79.56778641595497
 31
0.0
  0
LINE
  5
258B
  8
01
 10
187.9359863734463
 20
51.56778641595497
 30
0.0
 11
257.93598637344633
 21
51.56778641595497
 31
0.0
  0
LINE
  5
258C
  8
01
 10
187.9359863734463
 20
51.56778641595497
 30
0.0
 11
257.93598637344633
 21
51.56778641595497
 31
0.0
  0
LINE
  5
258D
  8
01
 10
187.9359863734463
 20
44.56778641595497
 30
0.0
 11
257.93598637344633
 21
44.56778641595497
 31
0.0
  0
LINE
  5
258E
  8
01
 10
187.9359863734463
 20
44.56778641595497
 30
0.0
 11
257.93598637344633
 21
44.56778641595497
 31
0.0
  0
TEXT
  5
258F
  8
01
 10
189.06931970677971
 20
46.232497756430568
 30
0.0
 40
4.0
  1
サテンニッケル
 72
     1
 11
205.33598637344639
 21
46.232497756430568
 31
0.0
  0
LINE
  5
2590
  8
01
 10
187.9359863734463
 20
37.56778641595497
 30
0.0
 11
257.93598637344633
 21
37.56778641595497
 31
0.0
  0
LINE
  5
2591
  8
01
 10
187.9359863734463
 20
37.56778641595497
 30
0.0
 11
257.93598637344633
 21
37.56778641595497
 31
0.0
  0
TEXT
  5
2592
  8
01
 10
188.93598637344641
 20
53.232497756430568
 30
0.0
 40
4.0
  1
パールクローム
 72
     1
 11
205.33598637344639
 21
53.232497756430568
 31
0.0
  0
TEXT
  5
2593
  8
01
 10
232.05027208773259
 20
59.853429432305568
 30
0.0
 40
4.0
  1
Z3-C
 72
     1
 11
240.33598637344679
 21
59.853429432305568
 31
0.0
  0
TEXT
  5
2594
  8
01
 10
232.05027208773259
 20
45.853429432305568
 30
0.0
 40
4.0
  1
Z3-N
 72
     1
 11
240.33598637344679
 21
45.853429432305568
 31
0.0
  0
TEXT
  5
2595
  8
01
 10
232.05027208773259
 20
52.853429432305568
 30
0.0
 40
4.0
  1
Z3-B
 72
     1
 11
240.33598637344679
 21
52.853429432305568
 31
0.0
  0
TEXT
  5
2596
  8
01
 10
232.10741494487471
 20
32.06778641595497
 30
0.0
 40
4.0
  1
Z3-4Q
 41
0.8
 72
     1
 11
240.33598637344619
 21
32.06778641595497
 31
0.0
  0
TEXT
  5
2597
  8
01
 10
188.9359863734461
 20
32.06778641595497
 30
0.0
 40
4.0
  1
ダークアンバー
 72
     1
 11
205.33598637344619
 21
32.06778641595497
 31
0.0
  0
LINE
  5
2598
  8
01
 10
187.9359863734463
 20
16.56778641595497
 30
0.0
 11
257.93598637344633
 21
16.56778641595497
 31
0.0
  0
LINE
  5
2599
  8
01
 10
187.9359863734463
 20
30.56778641595497
 30
0.0
 11
257.93598637344633
 21
30.56778641595497
 31
0.0
  0
LINE
  5
259A
  8
01
 10
187.9359863734463
 20
23.56778641595497
 30
0.0
 11
257.93598637344633
 21
23.56778641595497
 31
0.0
  0
TEXT
  5
259B
  8
01
 10
232.05027208773191
 20
39.06778641595497
 30
0.0
 40
4.0
  1
Z3-D
 72
     1
 11
240.33598637344619
 21
39.06778641595497
 31
0.0
  0
TEXT
  5
259C
  8
01
 10
188.8026530401128
 20
39.06778641595497
 30
0.0
 40
4.0
  1
ミラーニッケル
 72
     1
 11
205.33598637344619
 21
39.06778641595497
 31
0.0
  0
TEXT
  5
259D
  8
01
 10
232.10741494487471
 20
18.06778641595497
 30
0.0
 40
4.0
  1
Z3-8Q
 41
0.8
 72
     1
 11
240.33598637344619
 21
18.06778641595497
 31
0.0
  0
TEXT
  5
259E
  8
01
 10
188.8026530401128
 20
18.06778641595497
 30
0.0
 40
4.0
  1
ミラーブラック
 72
     1
 11
205.33598637344619
 21
18.06778641595497
 31
0.0
  0
TEXT
  5
259F
  8
01
 10
232.03122446868429
 20
25.06778641595497
 30
0.0
 40
4.0
  1
Z3-GQ
 41
0.8
 72
     1
 11
240.33598637344619
 21
25.06778641595497
 31
0.0
  0
TEXT
  5
25A0
  8
01
 10
189.06931970677951
 20
25.06778641595497
 30
0.0
 40
4.0
  1
パールブラック
 72
     1
 11
205.33598637344619
 21
25.06778641595497
 31
0.0
  0
TEXT
  5
25A1
  8
01
 10
188.61396986987211
 20
81.333814002277222
 30
0.0
 40
4.0
  1
      ポリアセタール
 11
188.61396986987211
 21
83.333814002277222
 31
0.0
 73
     2
  0
LINE
  5
26E6
  8
01
 10
135.42571902126471
 20
32.924263358198459
 30
0.0
 11
110.9886601820269
 21
32.924263358198473
 31
0.0
  0
LINE
  5
26E9
  8
01
 10
133.7587499211561
 20
-57.07573643767364
 30
0.0
 11
110.98866018202681
 21
-57.075736437673633
 31
0.0
  0
LINE
  5
26EA
  8
01
 10
112.2886601820269
 20
30.324263358198461
 30
0.0
 11
112.2886601820268
 21
-54.475736437673639
 31
0.0
  0
LINE
  5
26EE
  8
01
 10
123.7639079073972
 20
79.924263358198459
 30
0.0
 11
110.9886601820269
 21
79.924263358198459
 31
0.0
  0
LINE
  5
26EF
  8
01
 10
135.42571902126471
 20
32.924263358198459
 30
0.0
 11
110.9886601820269
 21
32.924263358198473
 31
0.0
  0
LINE
  5
26F0
  8
01
 10
112.2886601820269
 20
77.324263358198465
 30
0.0
 11
112.2886601820269
 21
35.524263358198461
 31
0.0
  0
LINE
  5
26F4
  8
01
 10
82.024278960729816
 20
-98.075736836876573
 30
0.0
 11
82.024278960729816
 21
-116.8498680790396
 31
0.0
  0
LINE
  5
26F5
  8
01
 10
91.124241420629915
 20
-60.325749426043551
 30
0.0
 11
91.124241420629915
 21
-116.8498680790396
 31
0.0
  0
LINE
  5
26F6
  8
01
 10
84.624278960729811
 20
-115.5498680790396
 30
0.0
 11
88.524241420629906
 21
-115.5498680790396
 31
0.0
  0
LINE
  5
26F7
  8
01
 10
91.124241420629915
 20
-115.5498680790396
 30
0.0
 11
103.77757475396319
 21
-115.5498680790396
 31
0.0
  0
LINE
  5
26FB
  8
01
 10
18.524282197919462
 20
-69.575980268314666
 30
0.0
 11
18.524282197919462
 21
-108.0548687820489
 31
0.0
  0
LINE
  5
26FC
  8
01
 10
42.024278960729823
 20
-98.075720889870695
 30
0.0
 11
42.024278960729823
 21
-108.0548687820489
 31
0.0
  0
LINE
  5
26FD
  8
01
 10
21.124282197919459
 20
-106.7548687820489
 30
0.0
 11
39.424278960729808
 21
-106.7548687820489
 31
0.0
  0
TEXT
  5
2701
  8
01
 10
132.14983467685411
 20
-109.25596694645139
 30
0.0
 40
4.5499999999999989
  1
材質：亜鉛ダイキャスト
  0
TEXT
  5
2702
  8
01
 10
132.14983467685411
 20
-116.83930027978469
 30
0.0
 40
4.5499999999999989
  1
仕上げ：クローム
  0
TEXT
  5
2705
  8
01
 10
-32.119595613903641
 20
-107.15233760100389
 30
0.0
 40
4.5499999999999989
  1
材質：各種材質
  0
TEXT
  5
2706
  8
01
 10
-42.432928947236931
 20
-114.73567093433731
 30
0.0
 40
4.5499999999999989
  1
仕上げ：各種メッキ
  0
LINE
  5
2709
  8
01
 10
90.524278960729816
 20
79.424263163123442
 30
0.0
 11
90.524278960729816
 21
86.130940601921054
 31
0.0
  0
LINE
  5
270A
  8
01
 10
82.024278960729816
 20
79.924263163123442
 30
0.0
 11
82.024278960729816
 21
86.130940601921054
 31
0.0
  0
LINE
  5
270B
  8
01
 10
87.924278960729822
 20
84.830940601921057
 30
0.0
 11
84.624278960729811
 21
84.830940601921057
 31
0.0
  0
LINE
  5
270C
  8
01
 10
82.024278960729816
 20
84.830940601921057
 30
0.0
 11
68.070945627396469
 21
84.830940601921057
 31
0.0
  0
TEXT
  5
2712
  8
01
 10
102.0510708514897
 20
97.227021663437398
 30
0.0
 40
3.5
  1
材質：真鍮
  0
TEXT
  5
2713
  8
01
 10
102.0510708514897
 20
91.393688330104055
 30
0.0
 40
3.5
  1
仕上げ：各種メッキ
  0
TEXT
  5
2716
  8
01
 10
26.701796864279999
 20
-113.9869928206034
 30
0.0
 40
3.5
  1
材質：ポリアセタール
  0
LINE
  5
2717
  8
01
 10
42.024278960729823
 20
79.924279110129305
 30
0.0
 11
42.024278960729823
 21
86.130940601921054
 31
0.0
  0
LINE
  5
2718
  8
01
 10
33.524278960729823
 20
79.424279110129305
 30
0.0
 11
33.524278960729823
 21
86.130940601921054
 31
0.0
  0
LINE
  5
2719
  8
01
 10
39.424278960729808
 20
84.830940601921057
 30
0.0
 11
36.124278960729818
 21
84.830940601921057
 31
0.0
  0
LINE
  5
271A
  8
01
 10
33.524278960729823
 20
84.830940601921057
 30
0.0
 11
19.57094562739649
 21
84.830940601921057
 31
0.0
  0
LINE
  5
271E
  8
01
 10
-0.4964490975796707
 20
79.924279110129305
 30
0.0
 11
14.592682642088009
 21
79.924279110129305
 31
0.0
  0
LINE
  5
271F
  8
01
 10
-0.4964490975797027
 20
-98.075720889870695
 30
0.0
 11
14.59268264208797
 21
-98.075720889870695
 31
0.0
  0
LINE
  5
2720
  8
01
 10
13.29268264208801
 20
77.324279110129311
 30
0.0
 11
13.29268264208797
 21
-95.475720889870701
 31
0.0
  0
LINE
  5
2724
  8
01
 10
-49.996449097579671
 20
79.424279110129305
 30
0.0
 11
-49.996449097579671
 21
94.217833372028778
 31
0.0
  0
LINE
  5
2725
  8
01
 10
0.0035509024203293
 20
79.424279110129305
 30
0.0
 11
0.0035509024203302
 21
94.217833372028778
 31
0.0
  0
LINE
  5
2726
  8
01
 10
-47.396449097579662
 20
92.917833372028767
 30
0.0
 11
-2.596449097579669
 21
92.917833372028767
 31
0.0
  0
LINE
  5
272A
  8
01
 10
234.1703788383636
 20
-23.642396811343168
 30
0.0
 11
234.1703788383636
 21
-7.8010015048562131
 31
0.0
  0
LINE
  5
272B
  8
01
 10
204.1703952431879
 20
-21.292164131905249
 30
0.0
 11
204.1703952431879
 21
-7.8010015048562131
 31
0.0
  0
LINE
  5
272C
  8
01
 10
231.57037883836361
 20
-9.1010015048562138
 30
0.0
 11
206.77039524318789
 21
-9.1010015048562138
 31
0.0
  0
LINE
  5
2731
  8
01
 10
234.17037802398539
 20
-39.101456165825688
 30
0.0
 11
206.82040071120099
 21
-39.101248150572957
 31
0.0
  0
LINE
  5
2732
  8
01
 10
234.17035661747241
 20
-42.401456165769368
 30
0.0
 11
206.82034486802169
 21
-42.40124815019626
 31
0.0
  0
LINE
  5
2733
  8
01
 10
236.1318524800914
 20
-40.751474421692173
 30
0.0
 11
202.23061607821251
 21
-40.751205432694647
 31
0.0
  0
LINE
  5
2734
  8
01
 10
233.82035335996969
 20
-42.751453496239968
 30
0.0
 11
233.8203812815085
 21
-38.751453496327173
 31
0.0
  0
LINE
  5
2735
  8
01
 10
204.47033940009831
 20
-44.751226278375178
 30
0.0
 11
204.47039524317569
 21
-36.75122627854833
 31
0.0
  0
LINE
  5
2736
  8
01
 10
206.82040071120099
 20
-39.101248150572957
 30
0.0
 11
206.47039989681431
 21
-38.751244893037473
 31
0.0
  0
LINE
  5
2737
  8
01
 10
206.82034486802169
 20
-42.40124815019626
 30
0.0
 11
206.47034405365
 21
-42.751244892690949
 31
0.0
  0
LINE
  5
2739
  8
01
 10
234.17037802398539
 20
-23.642396811336461
 30
0.0
 11
206.82040071120099
 21
-23.64218879608373
 31
0.0
  0
LINE
  5
273A
  8
01
 10
234.17035661747241
 20
-26.94239681128014
 30
0.0
 11
206.82034486802169
 21
-26.94218879570704
 31
0.0
  0
LINE
  5
273B
  8
01
 10
236.1318524800914
 20
-25.292415067202938
 30
0.0
 11
202.23061607821251
 21
-25.292146078205441
 31
0.0
  0
LINE
  5
273C
  8
01
 10
233.82035335996969
 20
-27.292394141750751
 30
0.0
 11
233.8203812815085
 21
-23.292394141837949
 31
0.0
  0
LINE
  5
273D
  8
01
 10
204.47033940009831
 20
-29.292166923885961
 30
0.0
 11
204.47039524317569
 21
-21.292166924059099
 31
0.0
  0
LINE
  5
273E
  8
01
 10
206.82040071120099
 20
-23.64218879608373
 30
0.0
 11
206.47039989681431
 21
-23.292185538548239
 31
0.0
  0
LINE
  5
273F
  8
01
 10
206.82034486802169
 20
-26.94218879570704
 30
0.0
 11
206.47034405365
 21
-27.292185538201721
 31
0.0
  0
LINE
  5
2740
  8
01
 10
233.8203812815085
 20
-23.292394141837949
 30
0.0
 11
206.47039989681431
 21
-23.292185538548239
 31
0.0
  0
LINE
  5
2741
  8
01
 10
204.47039524317569
 20
-21.292166924059099
 30
0.0
 11
206.47039989681431
 21
-23.292185538548239
 31
0.0
  0
LINE
  5
2742
  8
01
 10
234.1703788383636
 20
-23.642396811343161
 30
0.0
 11
233.8203812815085
 21
-23.292394141837949
 31
0.0
  0
LINE
  5
2743
  8
01
 10
204.47039524317569
 20
-21.292166924059099
 30
0.0
 11
204.1703952431879
 21
-21.292164131905249
 31
0.0
  0
LINE
  5
2744
  8
01
 10
234.1703558030942
 20
-26.94239681127355
 30
0.0
 11
234.1703788383636
 21
-23.642396811343161
 31
0.0
  0
LINE
  5
2745
  8
01
 10
204.17033940011029
 20
-29.292164131732111
 30
0.0
 11
204.1703952431879
 21
-21.292164131905249
 31
0.0
  0
LINE
  5
2746
  8
01
 10
234.1703558030942
 20
-26.94239681127355
 30
0.0
 11
233.82035335996969
 21
-27.292394141750751
 31
0.0
  0
LINE
  5
2747
  8
01
 10
204.47033940009831
 20
-29.292166923885961
 30
0.0
 11
204.17033940011029
 21
-29.292164131732111
 31
0.0
  0
LINE
  5
2748
  8
01
 10
233.82035335996969
 20
-27.292394141750751
 30
0.0
 11
206.47034405365
 21
-27.292185538201721
 31
0.0
  0
LINE
  5
2749
  8
01
 10
204.47033940009831
 20
-29.292166923885961
 30
0.0
 11
206.47034405365
 21
-27.292185538201721
 31
0.0
  0
LINE
  5
274A
  8
01
 10
233.8203812815085
 20
-38.751453496327173
 30
0.0
 11
206.47039989681431
 21
-38.751244893037473
 31
0.0
  0
LINE
  5
274B
  8
01
 10
204.47039524317569
 20
-36.75122627854833
 30
0.0
 11
206.47039989681431
 21
-38.751244893037473
 31
0.0
  0
LINE
  5
274C
  8
01
 10
234.1703788383636
 20
-39.101456165832388
 30
0.0
 11
233.8203812815085
 21
-38.751453496327173
 31
0.0
  0
LINE
  5
274D
  8
01
 10
204.47039524317569
 20
-36.75122627854833
 30
0.0
 11
204.1703952431879
 21
-36.75122348639448
 31
0.0
  0
LINE
  5
274E
  8
01
 10
234.1703558030942
 20
-42.401456165762767
 30
0.0
 11
234.1703788383636
 21
-39.101456165832388
 31
0.0
  0
LINE
  5
274F
  8
01
 10
204.17033940011029
 20
-44.751223486221328
 30
0.0
 11
204.1703952431879
 21
-36.75122348639448
 31
0.0
  0
LINE
  5
2750
  8
01
 10
234.1703558030942
 20
-42.401456165762767
 30
0.0
 11
233.82035335996969
 21
-42.751453496239968
 31
0.0
  0
LINE
  5
2751
  8
01
 10
204.47033940009831
 20
-44.751226278375178
 30
0.0
 11
204.17033940011029
 21
-44.751223486221328
 31
0.0
  0
LINE
  5
2752
  8
01
 10
233.82035335996969
 20
-42.751453496239968
 30
0.0
 11
206.47034405365
 21
-42.751244892690949
 31
0.0
  0
LINE
  5
2753
  8
01
 10
204.47033940009831
 20
-44.751226278375178
 30
0.0
 11
206.47034405365
 21
-42.751244892690949
 31
0.0
  0
TEXT
  5
2754
  8
01
 10
214.83705370744241
 20
-8.1910015048562137
 30
0.0
 40
4.5499999999999989
  1
30
  0
LINE
  5
2755
  8
01
  6
BYBLOCK
 10
206.77039524318789
 20
-9.7976693988562147
 30
0.0
 11
204.1703952431879
 21
-9.1010015048562138
 31
0.0
  0
LINE
  5
2756
  8
01
  6
BYBLOCK
 10
204.1703952431879
 20
-9.1010015048562138
 30
0.0
 11
206.77039524318789
 21
-8.4043336108562148
 31
0.0
  0
LINE
  5
2757
  8
01
  6
BYBLOCK
 10
204.1703952431879
 20
-9.1010015048562138
 30
0.0
 11
206.77039524318789
 21
-9.1010015048562138
 31
0.0
  0
LINE
  5
2758
  8
01
  6
BYBLOCK
 10
231.57037883836361
 20
-8.4043336108562112
 30
0.0
 11
234.1703788383636
 21
-9.1010015048562138
 31
0.0
  0
LINE
  5
2759
  8
01
  6
BYBLOCK
 10
234.1703788383636
 20
-9.1010015048562138
 30
0.0
 11
231.57037883836361
 21
-9.7976693988562147
 31
0.0
  0
LINE
  5
275A
  8
01
  6
BYBLOCK
 10
234.1703788383636
 20
-9.1010015048562138
 30
0.0
 11
231.57037883836361
 21
-9.1010015048562138
 31
0.0
  0
TEXT
  5
275B
  8
01
 10
-29.329782430912999
 20
93.827833372028778
 30
0.0
 40
4.5499999999999989
  1
50
  0
LINE
  5
275C
  8
01
  6
BYBLOCK
 10
-2.596449097579669
 20
93.614501266028782
 30
0.0
 11
0.0035509024203301
 21
92.917833372028767
 31
0.0
  0
LINE
  5
275D
  8
01
  6
BYBLOCK
 10
0.0035509024203301
 20
92.917833372028767
 30
0.0
 11
-2.596449097579669
 21
92.22116547802878
 31
0.0
  0
LINE
  5
275E
  8
01
  6
BYBLOCK
 10
0.0035509024203301
 20
92.917833372028767
 30
0.0
 11
-2.596449097579669
 21
92.917833372028767
 31
0.0
  0
LINE
  5
275F
  8
01
  6
BYBLOCK
 10
-47.396449097579662
 20
92.22116547802878
 30
0.0
 11
-49.996449097579671
 21
92.917833372028767
 31
0.0
  0
LINE
  5
2760
  8
01
  6
BYBLOCK
 10
-49.996449097579671
 20
92.917833372028767
 30
0.0
 11
-47.396449097579662
 21
93.614501266028782
 31
0.0
  0
LINE
  5
2761
  8
01
  6
BYBLOCK
 10
-49.996449097579671
 20
92.917833372028767
 30
0.0
 11
-47.396449097579662
 21
92.917833372028767
 31
0.0
  0
TEXT
  5
2762
  8
01
 10
12.382682642087991
 20
-15.900720889870691
 30
0.0
 40
4.5499999999999989
  1
178
 50
90.0
  0
LINE
  5
2763
  8
01
  6
BYBLOCK
 10
13.98935053608797
 20
-95.475720889870701
 30
0.0
 11
13.29268264208797
 21
-98.075720889870695
 31
0.0
  0
LINE
  5
2764
  8
01
  6
BYBLOCK
 10
13.29268264208797
 20
-98.075720889870695
 30
0.0
 11
12.596014748087971
 21
-95.475720889870701
 31
0.0
  0
LINE
  5
2765
  8
01
  6
BYBLOCK
 10
13.29268264208797
 20
-98.075720889870695
 30
0.0
 11
13.29268264208797
 21
-95.475720889870701
 31
0.0
  0
LINE
  5
2766
  8
01
  6
BYBLOCK
 10
12.59601474808801
 20
77.324279110129311
 30
0.0
 11
13.29268264208801
 21
79.924279110129305
 31
0.0
  0
LINE
  5
2767
  8
01
  6
BYBLOCK
 10
13.29268264208801
 20
79.924279110129305
 30
0.0
 11
13.989350536088009
 21
77.324279110129311
 31
0.0
  0
LINE
  5
2768
  8
01
  6
BYBLOCK
 10
13.29268264208801
 20
79.924279110129305
 30
0.0
 11
13.29268264208801
 21
77.324279110129311
 31
0.0
  0
TEXT
  5
2769
  8
01
 10
19.830945627396488
 20
85.740940601921068
 30
0.0
 40
4.5499999999999989
  1
8.5
  0
LINE
  5
276A
  8
01
  6
BYBLOCK
 10
36.124278960729818
 20
84.134272707921056
 30
0.0
 11
33.524278960729823
 21
84.830940601921057
 31
0.0
  0
LINE
  5
276B
  8
01
  6
BYBLOCK
 10
33.524278960729823
 20
84.830940601921057
 30
0.0
 11
36.124278960729818
 21
85.527608495921058
 31
0.0
  0
LINE
  5
276C
  8
01
  6
BYBLOCK
 10
33.524278960729823
 20
84.830940601921057
 30
0.0
 11
36.124278960729818
 21
84.830940601921057
 31
0.0
  0
LINE
  5
276D
  8
01
  6
BYBLOCK
 10
39.424278960729808
 20
85.527608495921058
 30
0.0
 11
42.024278960729823
 21
84.830940601921057
 31
0.0
  0
LINE
  5
276E
  8
01
  6
BYBLOCK
 10
42.024278960729823
 20
84.830940601921057
 30
0.0
 11
39.424278960729808
 21
84.134272707921056
 31
0.0
  0
LINE
  5
276F
  8
01
  6
BYBLOCK
 10
42.024278960729823
 20
84.830940601921057
 30
0.0
 11
39.424278960729808
 21
84.830940601921057
 31
0.0
  0
LINE
  5
2770
  8
01
 10
76.45409895822327
 20
-79.317927653964972
 30
0.0
 11
70.811796864279998
 21
-114.8969928206033
 31
0.0
1001
ACAD
1000
DSTYLE
1002
{
1070
    40
1040
1.3
1002
}
  0
LINE
  5
2771
  8
01
 10
70.811796864279998
 20
-114.8969928206033
 30
0.0
 11
26.701796864279999
 21
-114.8969928206033
 31
0.0
1001
ACAD
1000
DSTYLE
1002
{
1070
    40
1040
1.3
1002
}
  0
LINE
  5
2772
  8
01
  6
BYBLOCK
 10
75.766029525403013
 20
-79.208810239457392
 30
0.0
 11
76.861330696850928
 21
-76.750017548245864
 31
0.0
  0
LINE
  5
2773
  8
01
  6
BYBLOCK
 10
76.861330696850928
 20
-76.750017548245864
 30
0.0
 11
77.142168391043512
 21
-79.427045068472523
 31
0.0
  0
LINE
  5
2774
  8
01
  6
BYBLOCK
 10
76.861330696850928
 20
-76.750017548245864
 30
0.0
 11
76.45409895822327
 21
-79.317927653964972
 31
0.0
  0
LINE
  5
2775
  8
01
 10
151.5447478656607
 20
67.764469928803493
 30
0.0
 11
141.96107085148969
 21
90.483688330104044
 31
0.0
1001
ACAD
1000
DSTYLE
1002
{
1070
    40
1040
1.3
1002
}
  0
LINE
  5
2776
  8
01
 10
141.96107085148969
 20
90.483688330104044
 30
0.0
 11
102.0510708514897
 21
90.483688330104044
 31
0.0
1001
ACAD
1000
DSTYLE
1002
{
1070
    40
1040
1.3
1002
}
  0
LINE
  5
2777
  8
01
  6
BYBLOCK
 10
152.186642745048
 20
68.035241268399687
 30
0.0
 11
152.55528027143581
 21
65.368885604076354
 31
0.0
  0
LINE
  5
2778
  8
01
  6
BYBLOCK
 10
152.55528027143581
 20
65.368885604076354
 30
0.0
 11
150.9028529862733
 21
67.493698589207312
 31
0.0
  0
LINE
  5
2779
  8
01
  6
BYBLOCK
 10
152.55528027143581
 20
65.368885604076354
 30
0.0
 11
151.5447478656607
 21
67.764469928803493
 31
0.0
  0
TEXT
  5
277A
  8
01
 10
68.330945627396474
 20
85.740940601921068
 30
0.0
 40
4.5499999999999989
  1
8.5
  0
LINE
  5
277B
  8
01
  6
BYBLOCK
 10
84.624278960729811
 20
84.134272707921056
 30
0.0
 11
82.024278960729816
 21
84.830940601921057
 31
0.0
  0
LINE
  5
277C
  8
01
  6
BYBLOCK
 10
82.024278960729816
 20
84.830940601921057
 30
0.0
 11
84.624278960729811
 21
85.527608495921058
 31
0.0
  0
LINE
  5
277D
  8
01
  6
BYBLOCK
 10
82.024278960729816
 20
84.830940601921057
 30
0.0
 11
84.624278960729811
 21
84.830940601921057
 31
0.0
  0
LINE
  5
277E
  8
01
  6
BYBLOCK
 10
87.924278960729822
 20
85.527608495921058
 30
0.0
 11
90.524278960729816
 21
84.830940601921057
 31
0.0
  0
LINE
  5
277F
  8
01
  6
BYBLOCK
 10
90.524278960729816
 20
84.830940601921057
 30
0.0
 11
87.924278960729822
 21
84.134272707921056
 31
0.0
  0
LINE
  5
2780
  8
01
  6
BYBLOCK
 10
90.524278960729816
 20
84.830940601921057
 30
0.0
 11
87.924278960729822
 21
84.830940601921057
 31
0.0
  0
LINE
  5
2781
  8
01
 10
27.76234779965095
 20
-75.399484176211217
 30
0.0
 11
8.3970710527630548
 21
-115.6456709343373
 31
0.0
1001
ACAD
1000
DSTYLE
1002
{
1070
    40
1040
1.3
1002
}
  0
LINE
  5
2782
  8
01
 10
8.3970710527630548
 20
-115.6456709343373
 30
0.0
 11
4.8870710527630541
 21
-115.6456709343373
 31
0.0
1001
ACAD
1000
DSTYLE
1002
{
1070
    40
1040
1.3
1002
}
  0
LINE
  5
2783
  8
01
  6
BYBLOCK
 10
27.13457256954943
 20
-75.0974172713683
 30
0.0
 11
28.889676846038132
 21
-73.0565951004819
 31
0.0
  0
LINE
  5
2784
  8
01
  6
BYBLOCK
 10
28.889676846038132
 20
-73.0565951004819
 30
0.0
 11
28.39012302975247
 21
-75.701551081054134
 31
0.0
  0
LINE
  5
2785
  8
01
  6
BYBLOCK
 10
28.889676846038132
 20
-73.0565951004819
 30
0.0
 11
27.76234779965095
 21
-75.399484176211217
 31
0.0
  0
LINE
  5
2786
  8
01
 10
144.91456395405689
 20
-63.236009459514356
 30
0.0
 11
128.63983467685421
 21
-117.74930027978471
 31
0.0
1001
ACAD
1000
DSTYLE
1002
{
1070
    40
1040
1.3
1002
}
  0
LINE
  5
2787
  8
01
 10
128.63983467685421
 20
-117.74930027978471
 30
0.0
 11
132.14983467685411
 21
-117.74930027978471
 31
0.0
1001
ACAD
1000
DSTYLE
1002
{
1070
    40
1040
1.3
1002
}
  0
LINE
  5
2788
  8
01
  6
BYBLOCK
 10
144.2470105980635
 20
-63.036714021954012
 30
0.0
 11
145.6583446594972
 21
-60.744666395579813
 31
0.0
  0
LINE
  5
2789
  8
01
  6
BYBLOCK
 10
145.6583446594972
 20
-60.744666395579813
 30
0.0
 11
145.58211731005031
 21
-63.435304897074708
 31
0.0
  0
LINE
  5
278A
  8
01
  6
BYBLOCK
 10
145.6583446594972
 20
-60.744666395579813
 30
0.0
 11
144.91456395405689
 21
-63.236009459514356
 31
0.0
  0
TEXT
  5
278B
  8
01
 10
22.69094724599131
 20
-105.84486878204891
 30
0.0
 40
4.5499999999999989
  1
23.5
  0
LINE
  5
278C
  8
01
  6
BYBLOCK
 10
39.424278960729808
 20
-106.0582008880489
 30
0.0
 11
42.024278960729823
 21
-106.7548687820489
 31
0.0
  0
LINE
  5
278D
  8
01
  6
BYBLOCK
 10
42.024278960729823
 20
-106.7548687820489
 30
0.0
 11
39.424278960729808
 21
-107.4515366760489
 31
0.0
  0
LINE
  5
278E
  8
01
  6
BYBLOCK
 10
42.024278960729823
 20
-106.7548687820489
 30
0.0
 11
39.424278960729808
 21
-106.7548687820489
 31
0.0
  0
LINE
  5
278F
  8
01
  6
BYBLOCK
 10
21.124282197919459
 20
-107.4515366760489
 30
0.0
 11
18.524282197919462
 21
-106.7548687820489
 31
0.0
  0
LINE
  5
2790
  8
01
  6
BYBLOCK
 10
18.524282197919462
 20
-106.7548687820489
 30
0.0
 11
21.124282197919459
 21
-106.0582008880489
 31
0.0
  0
LINE
  5
2791
  8
01
  6
BYBLOCK
 10
18.524282197919462
 20
-106.7548687820489
 30
0.0
 11
21.124282197919459
 21
-106.7548687820489
 31
0.0
  0
TEXT
  5
2792
  8
01
 10
93.984241420629914
 20
-114.6398680790396
 30
0.0
 40
4.5499999999999989
  1
9.1
  0
LINE
  5
2793
  8
01
  6
BYBLOCK
 10
88.524241420629906
 20
-114.8532001850396
 30
0.0
 11
91.124241420629915
 21
-115.5498680790396
 31
0.0
  0
LINE
  5
2794
  8
01
  6
BYBLOCK
 10
91.124241420629915
 20
-115.5498680790396
 30
0.0
 11
88.524241420629906
 21
-116.2465359730395
 31
0.0
  0
LINE
  5
2795
  8
01
  6
BYBLOCK
 10
91.124241420629915
 20
-115.5498680790396
 30
0.0
 11
88.524241420629906
 21
-115.5498680790396
 31
0.0
  0
LINE
  5
2796
  8
01
  6
BYBLOCK
 10
84.624278960729811
 20
-116.2465359730395
 30
0.0
 11
82.024278960729816
 21
-115.5498680790396
 31
0.0
  0
LINE
  5
2797
  8
01
  6
BYBLOCK
 10
82.024278960729816
 20
-115.5498680790396
 30
0.0
 11
84.624278960729811
 21
-114.8532001850396
 31
0.0
  0
LINE
  5
2798
  8
01
  6
BYBLOCK
 10
82.024278960729816
 20
-115.5498680790396
 30
0.0
 11
84.624278960729811
 21
-115.5498680790396
 31
0.0
  0
TEXT
  5
2799
  8
01
 10
111.37866018202681
 20
52.090930024865152
 30
0.0
 40
4.5499999999999989
  1
47
 50
90.0
  0
LINE
  5
279A
  8
01
  6
BYBLOCK
 10
112.9853280760269
 20
35.524263358198461
 30
0.0
 11
112.2886601820269
 21
32.924263358198459
 31
0.0
  0
LINE
  5
279B
  8
01
  6
BYBLOCK
 10
112.2886601820269
 20
32.924263358198459
 30
0.0
 11
111.5919922880269
 21
35.524263358198461
 31
0.0
  0
LINE
  5
279C
  8
01
  6
BYBLOCK
 10
112.2886601820269
 20
32.924263358198459
 30
0.0
 11
112.2886601820269
 21
35.524263358198461
 31
0.0
  0
LINE
  5
279D
  8
01
  6
BYBLOCK
 10
111.5919922880269
 20
77.324263358198465
 30
0.0
 11
112.2886601820269
 21
79.924263358198459
 31
0.0
  0
LINE
  5
279E
  8
01
  6
BYBLOCK
 10
112.2886601820269
 20
79.924263358198459
 30
0.0
 11
112.9853280760269
 21
77.324263358198465
 31
0.0
  0
LINE
  5
279F
  8
01
  6
BYBLOCK
 10
112.2886601820269
 20
79.924263358198459
 30
0.0
 11
112.2886601820269
 21
77.324263358198465
 31
0.0
  0
TEXT
  5
27A0
  8
01
 10
111.37866018202681
 20
-16.409069873070901
 30
0.0
 40
4.5499999999999989
  1
90
 50
90.0
  0
LINE
  5
27A1
  8
01
  6
BYBLOCK
 10
112.9853280760268
 20
-54.475736437673639
 30
0.0
 11
112.2886601820268
 21
-57.07573643767364
 31
0.0
  0
LINE
  5
27A2
  8
01
  6
BYBLOCK
 10
112.2886601820268
 20
-57.07573643767364
 30
0.0
 11
111.5919922880268
 21
-54.475736437673639
 31
0.0
  0
LINE
  5
27A3
  8
01
  6
BYBLOCK
 10
112.2886601820268
 20
-57.07573643767364
 30
0.0
 11
112.2886601820268
 21
-54.475736437673639
 31
0.0
  0
LINE
  5
27A4
  8
01
  6
BYBLOCK
 10
111.5919922880269
 20
30.324263358198461
 30
0.0
 11
112.2886601820269
 21
32.924263358198459
 31
0.0
  0
LINE
  5
27A5
  8
01
  6
BYBLOCK
 10
112.2886601820269
 20
32.924263358198459
 30
0.0
 11
112.9853280760269
 21
30.324263358198461
 31
0.0
  0
LINE
  5
27A6
  8
01
  6
BYBLOCK
 10
112.2886601820269
 20
32.924263358198459
 30
0.0
 11
112.2886601820269
 21
30.324263358198461
 31
0.0
  0
VIEWPORT
  5
57
 67
     1
  8
0
 10
19.010066469272829
 20
3.5889068650237439
 30
0.0
 40
583.96375558883676
 41
268.49674101802771
 68
     1
 69
     1
1001
ACAD
1000
MVIEW
1002
{
1070
    16
1010
0.0
1020
0.0
1030
0.0
1010
0.0
1020
0.0
1030
1.0
1040
0.0
1040
268.49674101802771
1040
19.010066469272829
1040
3.5889068650237439
1040
50.0
1040
0.0
1040
0.0
1070
     0
1070
   100
1070
     1
1070
     1
1070
     0
1070
     0
1070
     0
1070
     0
1040
0.0
1040
0.0
1040
0.0
1040
10.0
1040
10.0
1040
10.0
1040
10.0
1070
     0
1002
{
1002
}
1002
}
  0
ENDSEC
  0
EOF
