  0
SECTION
  2
HEADER
  9
$ACADVER
  1
AC1009
  9
$INSBASE
 10
0.0
 20
0.0
 30
0.0
  9
$EXTMIN
 10
801.64770661081434
 20
1284.4904267906661
 30
0.0
  9
$EXTMAX
 10
1107.5752347957571
 20
1484.6667507241859
 30
0.0
  9
$LIMMIN
 10
0.0
 20
0.0
  9
$LIMMAX
 10
420.0
 20
297.0
  9
$ORTHOMODE
 70
     0
  9
$REGENMODE
 70
     1
  9
$FILLMODE
 70
     1
  9
$QTEXTMODE
 70
     0
  9
$MIRRTEXT
 70
     0
  9
$DRAGMODE
 70
     2
  9
$LTSCALE
 40
0.5
  9
$OSMODE
 70
   127
  9
$ATTMODE
 70
     1
  9
$TEXTSIZE
 40
4.0
  9
$TRACEWID
 40
1.0
  9
$TEXTSTYLE
  7
STANDARD
  9
$CLAYER
  8
1TEXT
  9
$CELTYPE
  6
BYLAYER
  9
$CECOLOR
 62
   256
  9
$DIMSCALE
 40
1.0
  9
$DIMASZ
 40
2.0
  9
$DIMEXO
 40
0.0
  9
$DIMDLI
 40
7.0
  9
$DIMRND
 40
0.0
  9
$DIMDLE
 40
0.0
  9
$DIMEXE
 40
1.0
  9
$DIMTP
 40
0.0
  9
$DIMTM
 40
0.0
  9
$DIMTXT
 40
3.5
  9
$DIMCEN
 40
0.0
  9
$DIMTSZ
 40
0.0
  9
$DIMTOL
 70
     0
  9
$DIMLIM
 70
     0
  9
$DIMTIH
 70
     0
  9
$DIMTOH
 70
     0
  9
$DIMSE1
 70
     0
  9
$DIMSE2
 70
     0
  9
$DIMTAD
 70
     1
  9
$DIMZIN
 70
     8
  9
$DIMBLK
  1

  9
$DIMASO
 70
     1
  9
$DIMSHO
 70
     1
  9
$DIMPOST
  1
 
  9
$DIMAPOST
  1

  9
$DIMALT
 70
     0
  9
$DIMALTD
 70
     2
  9
$DIMALTF
 40
25.399999999999999
  9
$DIMLFAC
 40
1.0
  9
$DIMTOFL
 70
     1
  9
$DIMTVP
 40
0.0
  9
$DIMTIX
 70
     0
  9
$DIMSOXD
 70
     0
  9
$DIMSAH
 70
     1
  9
$DIMBLK1
  1
OPEN30
  9
$DIMBLK2
  1
OPEN30
  9
$DIMSTYLE
  2
NEWX10
  9
$DIMCLRD
 70
   256
  9
$DIMCLRE
 70
   256
  9
$DIMCLRT
 70
   201
  9
$DIMTFAC
 40
0.7
  9
$DIMGAP
 40
0.7
  9
$LUNITS
 70
     2
  9
$LUPREC
 70
     4
  9
$SKETCHINC
 40
1.0
  9
$FILLETRAD
 40
0.0
  9
$AUNITS
 70
     0
  9
$AUPREC
 70
     2
  9
$MENU
  1
acad
  9
$ELEVATION
 40
0.0
  9
$PELEVATION
 40
0.0
  9
$THICKNESS
 40
0.0
  9
$LIMCHECK
 70
     0
  9
$BLIPMODE
 70
     0
  9
$CHAMFERA
 40
10.0
  9
$CHAMFERB
 40
10.0
  9
$SKPOLY
 70
     0
  9
$TDCREATE
 40
2451318.621352917
  9
$TDUPDATE
 40
2454917.4244583682
  9
$TDINDWG
 40
0.6065607755
  9
$TDUSRTIMER
 40
0.6065607755
  9
$USRTIMER
 70
     1
  9
$ANGBASE
 50
0.0
  9
$ANGDIR
 70
     0
  9
$PDMODE
 70
     0
  9
$PDSIZE
 40
0.0
  9
$PLINEWID
 40
0.0
  9
$COORDS
 70
     2
  9
$SPLFRAME
 70
     0
  9
$SPLINETYPE
 70
     6
  9
$SPLINESEGS
 70
     8
  9
$ATTDIA
 70
     0
  9
$ATTREQ
 70
     1
  9
$HANDLING
 70
     1
  9
$HANDSEED
  5
F9C7
  9
$SURFTAB1
 70
     6
  9
$SURFTAB2
 70
     6
  9
$SURFTYPE
 70
     6
  9
$SURFU
 70
     6
  9
$SURFV
 70
     6
  9
$UCSNAME
  2

  9
$UCSORG
 10
0.0
 20
0.0
 30
0.0
  9
$UCSXDIR
 10
1.0
 20
0.0
 30
0.0
  9
$UCSYDIR
 10
0.0
 20
1.0
 30
0.0
  9
$PUCSNAME
  2

  9
$PUCSORG
 10
0.0
 20
0.0
 30
0.0
  9
$PUCSXDIR
 10
1.0
 20
0.0
 30
0.0
  9
$PUCSYDIR
 10
0.0
 20
1.0
 30
0.0
  9
$USERI1
 70
     0
  9
$USERI2
 70
     0
  9
$USERI3
 70
     0
  9
$USERI4
 70
     0
  9
$USERI5
 70
     0
  9
$USERR1
 40
0.0
  9
$USERR2
 40
0.0
  9
$USERR3
 40
0.0
  9
$USERR4
 40
0.0
  9
$USERR5
 40
0.0
  9
$WORLDVIEW
 70
     1
  9
$SHADEDGE
 70
     3
  9
$SHADEDIF
 70
    70
  9
$TILEMODE
 70
     1
  9
$MAXACTVP
 70
    48
  9
$PLIMCHECK
 70
     0
  9
$PEXTMIN
 10
1.0000000000000000E+020
 20
1.0000000000000000E+020
 30
1.0000000000000000E+020
  9
$PEXTMAX
 10
-1.0000000000000000E+020
 20
-1.0000000000000000E+020
 30
-1.0000000000000000E+020
  9
$PLIMMIN
 10
0.0
 20
0.0
  9
$PLIMMAX
 10
420.0
 20
297.0
  9
$UNITMODE
 70
     0
  9
$VISRETAIN
 70
     1
  9
$PLINEGEN
 70
     0
  9
$PSLTSCALE
 70
     1
  0
ENDSEC
  0
SECTION
  2
TABLES
  0
TABLE
  2
VPORT
 70
     4
  0
VPORT
  2
*ACTIVE
 70
     0
 10
0.0
 20
0.0
 11
1.0
 21
1.0
 12
954.61946296141627
 22
1384.5804252060329
 13
0.0
 23
0.0
 14
10.0
 24
10.0
 15
10.0
 25
10.0
 16
0.0
 26
0.0
 36
1.0
 17
0.0
 27
0.0
 37
0.0
 40
214.71449584188409
 41
1.508086253369272
 42
50.0
 43
0.0
 44
0.0
 50
0.0
 51
0.0
 71
     0
 72
   100
 73
     1
 74
     1
 75
     0
 76
     0
 77
     0
 78
     0
  0
ENDTAB
  0
TABLE
  2
LTYPE
 70
    14
  0
LTYPE
  2
CONTINUOUS
 70
     0
  3
Solid line
 72
    65
 73
     0
 40
0.0
  0
LTYPE
  2
XREF1|CENTER2
 70
    48
  3
Center (.5x) ___ _ ___ _ ___ _ ___ _ ___ _ ___
 72
    65
 73
     4
 40
28.574999999999999
 49
19.050000000000001
 49
-3.1749999999999989
 49
3.1749999999999989
 49
-3.1749999999999989
  0
LTYPE
  2
A3WAKUDAKE|CENTER2
 70
    48
  3
Center (.5x) ___ _ ___ _ ___ _ ___ _ ___ _ ___
 72
    65
 73
     4
 40
28.574999999999999
 49
19.050000000000001
 49
-3.1749999999999989
 49
3.1749999999999989
 49
-3.1749999999999989
  0
LTYPE
  2
CENTER2
 70
     0
  3
Center (.5x) ___ _ ___ _ ___ _ ___ _ ___ _ ___
 72
    65
 73
     4
 40
28.574999999999999
 49
19.050000000000001
 49
-3.1749999999999989
 49
3.1749999999999989
 49
-3.1749999999999989
  0
ENDTAB
  0
TABLE
  2
LAYER
 70
    43
  0
LAYER
  2
0
 70
     0
 62
     7
  6
CONTINUOUS
  0
LAYER
  2
1CENTER
 70
     0
 62
     7
  6
CENTER2
  0
LAYER
  2
1TEXT
 70
     0
 62
     7
  6
CONTINUOUS
  0
LAYER
  2
XREF1|1CENTER
 70
    48
 62
     7
  6
XREF1|CENTER2
  0
LAYER
  2
01
 70
     0
 62
     1
  6
CONTINUOUS
  0
LAYER
  2
1DIM
 70
     0
 62
     7
  6
CONTINUOUS
  0
LAYER
  2
A3WAKUDAKE|THICK
 70
    48
 62
     7
  6
CONTINUOUS
  0
LAYER
  2
A3WAKUDAKE|POINT
 70
    48
 62
     7
  6
CONTINUOUS
  0
LAYER
  2
A3WAKUDAKE|1CENTER
 70
    48
 62
     7
  6
A3WAKUDAKE|CENTER2
  0
LAYER
  2
A3WAKUDAKE|0-6
 70
    48
 62
     7
  6
CONTINUOUS
  0
LAYER
  2
A3WAKUDAKE|1DIM
 70
    48
 62
     7
  6
CONTINUOUS
  0
ENDTAB
  0
TABLE
  2
STYLE
 70
    21
  0
STYLE
  2
STANDARD
 70
     0
 40
0.0
 41
1.0
 50
0.0
 71
     0
 42
4.0
  3
txt.shx
  4
extfont.shx
  0
ENDTAB
  0
TABLE
  2
VIEW
 70
     0
  0
ENDTAB
  0
TABLE
  2
UCS
 70
     0
  0
ENDTAB
  0
TABLE
  2
APPID
 70
     9
  0
APPID
  2
ACAD
 70
     0
  0
APPID
  2
DRAWINGVARIABLESXDATA
 70
     0
  0
APPID
  2
CONTENTTABDATA
 70
     0
  0
APPID
  2
CONTENTCURRENTTAB
 70
     0
  0
APPID
  2
CONTENTBLOCKDESCRIPTION
 70
     0
  0
APPID
  2
CONTENTBLOCKICON
 70
     0
  0
APPID
  2
CONTENTLONGBLOCKNAME
 70
     0
  0
APPID
  2
ACAD_PSEXT
 70
     0
  0
APPID
  2
ACAD_MLEADERVER
 70
     0
  0
ENDTAB
  0
TABLE
  2
DIMSTYLE
 70
     6
  0
DIMSTYLE
  2
NEWX10
 70
     0
  3
 
  4

  5

  6
OPEN30
  7
OPEN30
 40
1.0
 41
2.0
 42
0.0
 43
7.0
 44
1.0
 45
0.0
 46
0.0
 47
0.0
 48
0.0
140
3.5
141
0.0
142
0.0
143
25.399999999999999
144
1.0
145
0.0
146
0.7
147
0.7
 71
     0
 72
     0
 73
     0
 74
     0
 75
     0
 76
     0
 77
     1
 78
     8
170
     0
171
     2
172
     1
173
     1
174
     0
175
     0
176
   256
177
   256
178
   201
  0
ENDTAB
  0
ENDSEC
  0
SECTION
  2
BLOCKS
  0
BLOCK
  8
0
  2
$MODEL_SPACE
 70
     0
 10
0.0
 20
0.0
 30
0.0
  3
$MODEL_SPACE
  1

  0
ENDBLK
  5
1A
  8
0
  0
BLOCK
 67
     1
  8
0
  2
$PAPER_SPACE
 70
     0
 10
0.0
 20
0.0
 30
0.0
  3
$PAPER_SPACE
  1

  0
ENDBLK
  5
17
 67
     1
  8
0
  0
BLOCK
  8
0
  2
_OPEN30
 70
     0
 10
0.0
 20
0.0
 30
0.0
  3
_OPEN30
  1

  0
LINE
  5
44
  8
0
  6
BYBLOCK
 62
     0
 10
-1.0
 20
0.26794919
 30
0.0
 11
0.0
 21
0.0
 31
0.0
  0
LINE
  5
45
  8
0
  6
BYBLOCK
 62
     0
 10
0.0
 20
0.0
 30
0.0
 11
-1.0
 21
-0.26794919
 31
0.0
  0
LINE
  5
46
  8
0
  6
BYBLOCK
 62
     0
 10
0.0
 20
0.0
 30
0.0
 11
-1.0
 21
0.0
 31
0.0
  0
ENDBLK
  5
47
  8
0
  0
BLOCK
  8
0
  2
XREF1
 70
    36
 10
0.0
 20
0.0
 30
0.0
  3
XREF1
  1
D:\ACLT\FORMAT\KAWAJUN(9)図面用.dwg
  0
ENDBLK
  5
5D
  8
0
  0
BLOCK
  8
0
  2
A3WAKUDAKE
 70
    36
 10
0.0
 20
0.0
 30
0.0
  3
A3WAKUDAKE
  1
D:\ACLT\FORMAT\A3WAKUdake.dwg
  0
ENDBLK
  5
6A0
  8
0
  0
BLOCK
  8
0
  2
*U10
 70
     1
 10
0.0
 20
0.0
 30
0.0
  3
*U10
  1

  0
TEXT
  5
F9B8
  8
1DIM
 62
   201
 10
1095.3652347957579
 20
1449.5807299786291
 30
0.0
 40
4.5499999999999989
  1
36.5 
 50
90.0
  0
ENDBLK
  5
F9BA
  8
0
  0
BLOCK
  8
0
  2
*U11
 70
     1
 10
0.0
 20
0.0
 30
0.0
  3
*U11
  1

  0
TEXT
  5
F9BC
  8
1DIM
 62
   201
 10
1105.365234795757
 20
1435.111728930061
 30
0.0
 40
4.5499999999999989
  1
65.5 
 50
90.0
  0
ENDBLK
  5
F9BE
  8
0
  0
BLOCK
  8
0
  2
*U12
 70
     1
 10
0.0
 20
0.0
 30
0.0
  3
*U12
  1

  0
TEXT
  5
F9C0
  8
1DIM
 62
   201
 10
1009.183856498099
 20
1395.1851129864599
 30
0.0
 40
4.5499999999999989
  1
127.5 
  0
ENDBLK
  5
F9C2
  8
0
  0
BLOCK
  8
0
  2
*U13
 70
     1
 10
0.0
 20
0.0
 30
0.0
  3
*U13
  1

  0
TEXT
  5
F9C4
  8
1DIM
 62
   201
 10
1004.966798508173
 20
1385.1851129864599
 30
0.0
 40
4.5499999999999989
  1
142 
  0
ENDBLK
  5
F9C6
  8
0
  0
ENDSEC
  0
SECTION
  2
ENTITIES
  0
ARC
  5
D972
  8
01
 10
979.58079626620167
 20
1451.1206678309541
 30
0.0
 40
36.0
 50
192.9986187773786
 51
263.99855036955682
  0
ARC
  5
D974
  8
01
 10
973.02305983437657
 20
1441.7759237440989
 30
0.0
 40
10.0
 50
166.99855036956231
 51
275.99855036955103
  0
LINE
  5
D976
  8
01
 10
939.27576429046871
 20
1465.6671175861361
 30
0.0
 11
944.5031913837654
 21
1443.0232553206749
 31
0.0
  0
LINE
  5
D978
  8
01
 10
939.27576429046871
 20
1465.6671175861361
 30
0.0
 11
968.27576428118732
 21
1465.6663838622369
 31
0.0
  0
LINE
  5
D97A
  8
01
 10
963.27921675144614
 20
1444.0256602720799
 30
0.0
 11
968.27576428118732
 21
1465.6663838622369
 31
0.0
  0
LINE
  5
D97C
  8
01
 10
974.06810821076726
 20
1431.8306373003311
 30
0.0
 11
986.77534199848083
 21
1433.165915797272
 31
0.0
  0
LINE
  5
D97E
  8
01
 10
975.81689042781886
 20
1415.317993049415
 30
0.0
 11
986.77486128282237
 21
1414.1659158033531
 31
0.0
  0
ARC
  5
D97F
  8
01
 10
1026.5909426962121
 20
1589.2067071359349
 30
0.0
 40
180.0
 50
257.34785282121101
 51
285.8114536109365
  0
ARC
  5
D980
  8
01
 10
1026.5038665547961
 20
1258.144709233072
 30
0.0
 40
180.0
 50
74.221550369581891
 51
102.6234888695592
  0
ARC
  5
D982
  8
01
 10
987.27529826476962
 20
1433.305901804242
 30
0.0
 40
0.5
 50
102.6235503695885
 51
179.99855036956279
  0
LINE
  5
D983
  8
01
 10
986.77481146333935
 20
1414.065371656139
 30
0.0
 11
986.77529826492957
 21
1433.3059144546551
 31
0.0
  0
ARC
  5
D984
  8
01
 10
987.27481146317928
 20
1414.0653590057259
 30
0.0
 40
0.5
 50
179.99855036956279
 51
257.34785282121101
  0
ARC
  5
D985
  8
01
 10
1073.275054336287
 20
1423.663685936451
 30
0.0
 40
8.0
 50
287.22752755331601
 51
74.221550369581891
  0
ARC
  5
DAD3
  8
01
 10
953.77599199324561
 20
1324.6667507241859
 30
0.0
 40
25.0
 50
19.788475785765371
 51
340.2103986947202
  0
LINE
  5
DAD4
  8
1CENTER
 10
953.77599199324561
 20
1318.6667507241859
 30
0.0
 11
953.77599199324561
 21
1330.6667507241859
 31
0.0
  0
LINE
  5
DAD5
  8
1CENTER
 10
947.77599199324584
 20
1324.6667507241859
 30
0.0
 11
959.77599199324573
 21
1324.6667507241859
 31
0.0
  0
LINE
  5
DADA
  8
1CENTER
 10
818.27599199324584
 20
1318.6667507241859
 30
0.0
 11
818.27599199324584
 21
1330.6667507241859
 31
0.0
  0
LINE
  5
DADB
  8
1CENTER
 10
801.64770661081434
 20
1324.6667507241859
 30
0.0
 11
824.27599199324561
 21
1324.6667507241859
 31
0.0
  0
LINE
  5
DAE1
  8
1CENTER
 10
953.77599199324561
 20
1476.795036106618
 30
0.0
 11
953.77599199324561
 21
1454.1667507241859
 31
0.0
  0
LINE
  5
DAE5
  8
01
 10
913.77599199324584
 20
1474.6667507241859
 30
0.0
 11
1056.5311399905929
 21
1474.6667507241859
 31
0.0
  0
TEXT
  5
DAE9
  8
1TEXT
 10
803.77599199324561
 20
1474.6667507241859
 30
0.0
 40
10.0
  1
ZJC
 41
1.017187499999999
  0
LINE
  5
DAEA
  8
01
 10
803.77599199324561
 20
1364.8430746577069
 30
0.0
 11
803.77599199324561
 21
1284.4904267906661
 31
0.0
  0
LINE
  5
DB5C
  8
01
 10
842.0710754500202
 20
1316.5663462330369
 30
0.0
 11
812.77590787961037
 21
1312.6167507244811
 31
0.0
  0
LINE
  5
DB5D
  8
01
 10
841.76535470941656
 20
1332.8080838188171
 30
0.0
 11
812.77607610757946
 21
1336.7168507238939
 31
0.0
  0
LINE
  5
DB5E
  8
01
 10
812.77607610757946
 20
1336.7168507238939
 30
0.0
 11
812.77590787961037
 21
1312.6167507244811
 31
0.0
  0
ARC
  5
DB5F
  8
01
 10
854.77599199222345
 20
1324.6664575480299
 30
0.0
 40
9.5
 50
231.30116788327641
 51
128.6960580892395
  0
ARC
  5
DB60
  8
01
 10
855.83556100023702
 20
1434.833450154515
 30
0.0
 40
102.991
 50
262.14793110063488
 51
267.36404545131478
  0
ARC
  5
DB61
  8
01
 10
855.83402298276064
 20
1214.4992501598831
 30
0.0
 40
102.991
 50
92.734576693619701
 51
97.678600053419714
  0
ARC
  5
DB62
  8
01
 10
854.77599199222345
 20
1324.6664575480299
 30
0.0
 40
14.479798656231189
 50
213.601032042388
 51
146.3977297823954
  0
ARC
  5
DB63
  8
01
 10
953.77523315327892
 20
1321.162550734439
 30
0.0
 40
15.5
 50
44.04720010686173
 51
147.79570010683369
  0
ARC
  5
DB64
  8
01
 10
964.15210033743631
 20
1368.9524058700461
 30
0.0
 40
37.0
 50
259.81520010685477
 51
275.99920010683928
  0
ARC
  5
DB65
  8
01
 10
964.15086381115145
 20
1280.3809058786769
 30
0.0
 40
37.0
 50
83.999200106801524
 51
100.18280010686139
  0
ARC
  5
DB66
  8
01
 10
953.77532987348945
 20
1328.0905507337629
 30
0.0
 40
15.5
 50
212.2022001068319
 51
315.95120010683229
  0
LINE
  5
DB67
  8
01
 10
968.01918662262835
 20
1332.155351878961
 30
0.0
 11
986.7754141374769
 21
1334.1260900277859
 31
0.0
  0
LINE
  5
DB68
  8
01
 10
986.77541610303945
 20
1334.266881848074
 30
0.0
 11
986.77514888285862
 21
1315.126090029637
 31
0.0
  0
LINE
  5
DB69
  8
01
 10
968.01897752939362
 20
1317.17815188042
 30
0.0
 11
986.77515000530525
 21
1315.20649002963
 31
0.0
  0
ARC
  5
DB6A
  8
01
 10
948.27518151391973
 20
1324.6266275197279
 30
0.0
 40
9.0
 50
147.79570010683369
 51
212.2022001068319
  0
ARC
  5
DB6B
  8
01
 10
1026.586934795758
 20
1159.124491367669
 30
0.0
 40
180.0
 50
74.187096758630574
 51
102.6506382357996
  0
ARC
  5
DB6C
  8
01
 10
1073.275234795758
 20
1324.666331367669
 30
0.0
 40
8.0
 50
285.77699999999959
 51
72.7710228162737
  0
LINE
  5
DB6D
  8
01
 10
1075.6363831892891
 20
1332.3126884605731
 30
0.0
 11
1075.6447639287469
 21
1332.307360859035
 31
0.0
  0
ARC
  5
DB6E
  8
01
 10
1026.508234795758
 20
1490.1864913676691
 30
0.0
 40
180.0
 50
257.37501838633398
 51
285.77699999999959
  0
ARC
  5
DB6F
  8
01
 10
987.27514749286161
 20
1315.026522023406
 30
0.0
 40
0.5
 50
179.9992001068496
 51
257.37501838633398
  0
LINE
  5
F1D2
  8
1DIM
 10
1026.586934795758
 20
1339.124491367669
 30
0.0
 11
1097.575234795758
 21
1339.124491367669
 31
0.0
  0
LINE
  5
F1D3
  8
1DIM
 10
1026.508234795758
 20
1310.1864913676691
 30
0.0
 11
1097.575234795758
 21
1310.1864913676691
 31
0.0
  0
LINE
  5
F1D4
  8
1DIM
 10
1096.275234795758
 20
1336.524491367669
 30
0.0
 11
1096.275234795758
 21
1312.786491367669
 31
0.0
  0
LINE
  5
F1D8
  8
1DIM
 10
953.77599199324561
 20
1349.666290028707
 30
0.0
 11
917.47599199324566
 21
1349.666290028707
 31
0.0
  0
LINE
  5
F1D9
  8
1DIM
 10
953.77599199324561
 20
1299.667211419664
 30
0.0
 11
917.47599199324566
 21
1299.667211419664
 31
0.0
  0
LINE
  5
F1DA
  8
1DIM
 10
918.77599199324573
 20
1347.066290028707
 30
0.0
 11
918.77599199324573
 21
1302.2672114196639
 31
0.0
  0
POINT
  5
F1DE
  8
01
 10
818.27599199324584
 20
1324.6667507241859
 30
0.0
  0
LINE
  5
F1DF
  8
01
 10
817.87599198324563
 20
1322.9167507241859
 30
0.0
 11
817.87599198324563
 21
1323.766750744187
 31
0.0
  0
LINE
  5
F1E0
  8
01
 10
818.67599200324571
 20
1322.9167507241859
 30
0.0
 11
818.67599200324571
 21
1323.766750744187
 31
0.0
  0
LINE
  5
F1E1
  8
01
 10
817.37599201324588
 20
1324.2667507141859
 30
0.0
 11
816.52599199324584
 21
1324.2667507141859
 31
0.0
  0
LINE
  5
F1E2
  8
01
 10
817.37599201324588
 20
1325.0667507341859
 30
0.0
 11
816.52599199324584
 21
1325.0667507341859
 31
0.0
  0
LINE
  5
F1E3
  8
01
 10
816.52599199324584
 20
1324.2667507141859
 30
0.0
 11
816.52599199324584
 21
1325.0667507341859
 31
0.0
  0
LINE
  5
F1E4
  8
01
 10
818.67599200324571
 20
1322.9167507241859
 30
0.0
 11
817.87599198324563
 21
1322.9167507241859
 31
0.0
  0
LINE
  5
F1E5
  8
01
 10
818.67599200324571
 20
1326.4167507241859
 30
0.0
 11
818.67599200324571
 21
1325.566750704186
 31
0.0
  0
LINE
  5
F1E6
  8
01
 10
817.87599198324563
 20
1326.4167507241859
 30
0.0
 11
817.87599198324563
 21
1325.566750704186
 31
0.0
  0
LINE
  5
F1E7
  8
01
 10
819.17599197324557
 20
1325.0667507341859
 30
0.0
 11
820.02599199324584
 21
1325.0667507341859
 31
0.0
  0
LINE
  5
F1E8
  8
01
 10
819.17599197324557
 20
1324.2667507141859
 30
0.0
 11
820.02599199324584
 21
1324.2667507141859
 31
0.0
  0
LINE
  5
F1E9
  8
01
 10
820.02599199324584
 20
1325.0667507341859
 30
0.0
 11
820.02599199324584
 21
1324.2667507141859
 31
0.0
  0
LINE
  5
F1EA
  8
01
 10
817.87599198324563
 20
1326.4167507241859
 30
0.0
 11
818.67599200324571
 21
1326.4167507241859
 31
0.0
  0
CIRCLE
  5
F1EB
  8
01
 10
818.27599199324584
 20
1324.6667507241859
 30
0.0
 40
2.5
  0
ARC
  5
F1EC
  8
01
 10
819.17599197324557
 20
1325.566750704186
 30
0.0
 40
0.5
 50
179.999989999999
 51
270.0
  0
ARC
  5
F1ED
  8
01
 10
819.17599197324557
 20
1323.766750744187
 30
0.0
 40
0.5
 50
90.00000299999769
 51
180.000010000001
  0
ARC
  5
F1EE
  8
01
 10
817.37599201324588
 20
1323.766750744187
 30
0.0
 40
0.5
 50
0.0
 51
90.00000299999769
  0
ARC
  5
F1EF
  8
01
 10
817.37599201324588
 20
1325.566750704186
 30
0.0
 40
0.5
 50
270.0
 51
0.0
  0
LINE
  5
F7A5
  8
1CENTER
 10
935.13810838179302
 20
1459.166719724187
 30
0.0
 11
950.76074499324454
 21
1459.166719724187
 31
0.0
  0
LINE
  5
F8AF
  8
01
 10
803.77599199324652
 20
1349.6667507241859
 30
0.0
 11
803.7759919932447
 21
1299.6667507241859
 31
0.0
  0
LINE
  5
F8B0
  8
01
 10
812.27599199324663
 20
1349.1667507241889
 30
0.0
 11
812.275991993243
 21
1300.1667507241859
 31
0.0
  0
LINE
  5
F8B1
  8
01
 10
803.7759919932447
 20
1299.6667507241859
 30
0.0
 11
811.775991993243
 21
1299.6667507241859
 31
0.0
  0
ARC
  5
F8B2
  8
01
 10
811.775991993243
 20
1300.1667507241859
 30
0.0
 40
0.5
 50
270.0
 51
359.99999999998698
  0
LINE
  5
F8B3
  8
01
 10
803.77599199324652
 20
1349.6667507241859
 30
0.0
 11
811.77599199324652
 21
1349.666750724188
 31
0.0
  0
ARC
  5
F8B4
  8
01
 10
811.77599199324652
 20
1349.1667507241889
 30
0.0
 40
0.5
 50
359.99999999998698
 51
90.0
  0
LINE
  5
F8B5
  8
01
 10
928.77599199324561
 20
1474.6667507241859
 30
0.0
 11
928.77599199324561
 21
1466.6667507241859
 31
0.0
  0
LINE
  5
F8B6
  8
01
 10
978.77599199324561
 20
1474.6667507241859
 30
0.0
 11
978.77599199324561
 21
1466.6667507241859
 31
0.0
  0
LINE
  5
F8B7
  8
01
 10
928.77599199324561
 20
1474.6667507241859
 30
0.0
 11
978.77599199324561
 21
1474.6667507241859
 31
0.0
  0
LINE
  5
F8B8
  8
01
 10
929.27599199324573
 20
1466.1667507241859
 30
0.0
 11
978.27599199324573
 21
1466.1667507241859
 31
0.0
  0
ARC
  5
F8B9
  8
01
 10
929.27599199324573
 20
1466.6667507241859
 30
0.0
 40
0.5
 50
179.99999999998701
 51
270.0
  0
ARC
  5
F8BA
  8
01
 10
978.27599199324573
 20
1466.6667507241859
 30
0.0
 40
0.5
 50
270.0
 51
0.0
  0
CIRCLE
  5
F965
  8
01
 10
818.27599199324584
 20
1324.6667507241859
 30
0.0
 40
3.0
  0
TEXT
  5
F966
  8
1DIM
 10
917.86599199324553
 20
1318.0692507241861
 30
0.0
 40
4.5499999999999989
  1
φ50
 50
90.0
  0
LINE
  5
F967
  8
0
  6
BYBLOCK
 10
919.47265988724575
 20
1302.2672114196639
 30
0.0
 11
918.77599199324573
 21
1299.667211419664
 31
0.0
  0
LINE
  5
F968
  8
0
  6
BYBLOCK
 10
918.77599199324573
 20
1299.667211419664
 30
0.0
 11
918.0793240992457
 21
1302.2672114196639
 31
0.0
  0
LINE
  5
F969
  8
0
  6
BYBLOCK
 10
918.77599199324573
 20
1299.667211419664
 30
0.0
 11
918.77599199324573
 21
1302.2672114196639
 31
0.0
  0
LINE
  5
F96A
  8
0
  6
BYBLOCK
 10
918.0793240992457
 20
1347.066290028707
 30
0.0
 11
918.77599199324573
 21
1349.666290028707
 31
0.0
  0
LINE
  5
F96B
  8
0
  6
BYBLOCK
 10
918.77599199324573
 20
1349.666290028707
 30
0.0
 11
919.47265988724575
 21
1347.066290028707
 31
0.0
  0
LINE
  5
F96C
  8
0
  6
BYBLOCK
 10
918.77599199324573
 20
1349.666290028707
 30
0.0
 11
918.77599199324573
 21
1347.066290028707
 31
0.0
  0
TEXT
  5
F96D
  8
1DIM
 10
1095.3652347957579
 20
1317.678824701002
 30
0.0
 40
4.5499999999999989
  1
φ29
 50
90.0
  0
LINE
  5
F96E
  8
0
  6
BYBLOCK
 10
1096.9719026897581
 20
1312.786491367669
 30
0.0
 11
1096.275234795758
 21
1310.1864913676691
 31
0.0
  0
LINE
  5
F96F
  8
0
  6
BYBLOCK
 10
1096.275234795758
 20
1310.1864913676691
 30
0.0
 11
1095.578566901758
 21
1312.786491367669
 31
0.0
  0
LINE
  5
F970
  8
0
  6
BYBLOCK
 10
1096.275234795758
 20
1310.1864913676691
 30
0.0
 11
1096.275234795758
 21
1312.786491367669
 31
0.0
  0
LINE
  5
F971
  8
0
  6
BYBLOCK
 10
1095.578566901758
 20
1336.524491367669
 30
0.0
 11
1096.275234795758
 21
1339.124491367669
 31
0.0
  0
LINE
  5
F972
  8
0
  6
BYBLOCK
 10
1096.275234795758
 20
1339.124491367669
 30
0.0
 11
1096.9719026897581
 21
1336.524491367669
 31
0.0
  0
LINE
  5
F973
  8
0
  6
BYBLOCK
 10
1096.275234795758
 20
1339.124491367669
 30
0.0
 11
1096.275234795758
 21
1336.524491367669
 31
0.0
  0
LINE
  5
F974
  8
1DIM
 10
939.27584898203224
 20
1465.6667507241859
 30
0.0
 11
939.27584898203224
 21
1382.9751129864601
 31
0.0
  0
LINE
  5
F975
  8
1DIM
 10
1081.2744147009801
 20
1423.7648479637389
 30
0.0
 11
1081.2744147009801
 21
1382.9751129864601
 31
0.0
  0
LINE
  5
F976
  8
1DIM
 10
941.87584898203227
 20
1384.27511298646
 30
0.0
 11
1078.6744147009799
 21
1384.27511298646
 31
0.0
  0
LINE
  5
F97A
  8
1DIM
 10
953.77599199324561
 20
1454.1667507241859
 30
0.0
 11
953.77599199324561
 21
1392.9751129864601
 31
0.0
  0
LINE
  5
F97B
  8
1DIM
 10
1081.275054336287
 20
1423.663685936451
 30
0.0
 11
1081.275054336287
 21
1392.9751129864601
 31
0.0
  0
LINE
  5
F97C
  8
1DIM
 10
956.37599199324575
 20
1394.27511298646
 30
0.0
 11
1078.6750543362871
 21
1394.27511298646
 31
0.0
  0
LINE
  5
F980
  8
1DIM
 10
1026.5909426962121
 20
1409.2067071359349
 30
0.0
 11
1107.5752347957571
 21
1409.2067071359349
 31
0.0
  0
LINE
  5
F981
  8
1DIM
 10
1056.5311399905929
 20
1474.6667507241859
 30
0.0
 11
1107.5752347957571
 21
1474.6667507241859
 31
0.0
  0
LINE
  5
F982
  8
1DIM
 10
1106.2752347957569
 20
1411.8067071359351
 30
0.0
 11
1106.2752347957569
 21
1472.066750724186
 31
0.0
  0
LINE
  5
F986
  8
1DIM
 10
1107.2825942858281
 20
1474.6667507241859
 30
0.0
 11
1094.9752347957581
 21
1474.6667507241859
 31
0.0
  0
LINE
  5
F987
  8
1DIM
 10
1026.5038665547961
 20
1438.144709233072
 30
0.0
 11
1097.575234795758
 21
1438.144709233072
 31
0.0
  0
LINE
  5
F988
  8
1DIM
 10
1096.275234795758
 20
1472.066750724186
 30
0.0
 11
1096.275234795758
 21
1440.7447092330719
 31
0.0
  0
TEXT
  5
F98C
  8
1DIM
 10
1095.3652347957579
 20
1449.5807299786291
 30
0.0
 40
4.5499999999999989
  1
36.5 
 50
90.0
  0
LINE
  5
F98D
  8
0
  6
BYBLOCK
 10
1096.9719026897581
 20
1440.7447092330719
 30
0.0
 11
1096.275234795758
 21
1438.144709233072
 31
0.0
  0
LINE
  5
F98E
  8
0
  6
BYBLOCK
 10
1096.275234795758
 20
1438.144709233072
 30
0.0
 11
1095.578566901758
 21
1440.7447092330719
 31
0.0
  0
LINE
  5
F98F
  8
0
  6
BYBLOCK
 10
1096.275234795758
 20
1438.144709233072
 30
0.0
 11
1096.275234795758
 21
1440.7447092330719
 31
0.0
  0
LINE
  5
F990
  8
0
  6
BYBLOCK
 10
1095.578566901758
 20
1472.066750724186
 30
0.0
 11
1096.275234795758
 21
1474.6667507241859
 31
0.0
  0
LINE
  5
F991
  8
0
  6
BYBLOCK
 10
1096.275234795758
 20
1474.6667507241859
 30
0.0
 11
1096.9719026897581
 21
1472.066750724186
 31
0.0
  0
LINE
  5
F992
  8
0
  6
BYBLOCK
 10
1096.275234795758
 20
1474.6667507241859
 30
0.0
 11
1096.275234795758
 21
1472.066750724186
 31
0.0
  0
TEXT
  5
F993
  8
1DIM
 10
1105.365234795757
 20
1435.111728930061
 30
0.0
 40
4.5499999999999989
  1
65.5 
 50
90.0
  0
LINE
  5
F994
  8
0
  6
BYBLOCK
 10
1105.5785669017571
 20
1472.066750724186
 30
0.0
 11
1106.2752347957569
 21
1474.6667507241859
 31
0.0
  0
LINE
  5
F995
  8
0
  6
BYBLOCK
 10
1106.2752347957569
 20
1474.6667507241859
 30
0.0
 11
1106.9719026897569
 21
1472.066750724186
 31
0.0
  0
LINE
  5
F996
  8
0
  6
BYBLOCK
 10
1106.2752347957569
 20
1474.6667507241859
 30
0.0
 11
1106.2752347957569
 21
1472.066750724186
 31
0.0
  0
LINE
  5
F997
  8
0
  6
BYBLOCK
 10
1106.9719026897569
 20
1411.8067071359351
 30
0.0
 11
1106.2752347957569
 21
1409.2067071359349
 31
0.0
  0
LINE
  5
F998
  8
0
  6
BYBLOCK
 10
1106.2752347957569
 20
1409.2067071359349
 30
0.0
 11
1105.5785669017571
 21
1411.8067071359351
 31
0.0
  0
LINE
  5
F999
  8
0
  6
BYBLOCK
 10
1106.2752347957569
 20
1409.2067071359349
 30
0.0
 11
1106.2752347957569
 21
1411.8067071359351
 31
0.0
  0
TEXT
  5
F99A
  8
1DIM
 10
1009.183856498099
 20
1395.1851129864599
 30
0.0
 40
4.5499999999999989
  1
127.5 
  0
LINE
  5
F99B
  8
0
  6
BYBLOCK
 10
1078.6750543362871
 20
1394.9717808804601
 30
0.0
 11
1081.275054336287
 21
1394.27511298646
 31
0.0
  0
LINE
  5
F99C
  8
0
  6
BYBLOCK
 10
1081.275054336287
 20
1394.27511298646
 30
0.0
 11
1078.6750543362871
 21
1393.57844509246
 31
0.0
  0
LINE
  5
F99D
  8
0
  6
BYBLOCK
 10
1081.275054336287
 20
1394.27511298646
 30
0.0
 11
1078.6750543362871
 21
1394.27511298646
 31
0.0
  0
LINE
  5
F99E
  8
0
  6
BYBLOCK
 10
956.37599199324575
 20
1393.57844509246
 30
0.0
 11
953.77599199324561
 21
1394.27511298646
 31
0.0
  0
LINE
  5
F99F
  8
0
  6
BYBLOCK
 10
953.77599199324561
 20
1394.27511298646
 30
0.0
 11
956.37599199324575
 21
1394.9717808804601
 31
0.0
  0
LINE
  5
F9A0
  8
0
  6
BYBLOCK
 10
953.77599199324561
 20
1394.27511298646
 30
0.0
 11
956.37599199324575
 21
1394.27511298646
 31
0.0
  0
TEXT
  5
F9A1
  8
1DIM
 10
1004.966798508173
 20
1385.1851129864599
 30
0.0
 40
4.5499999999999989
  1
142 
  0
LINE
  5
F9A2
  8
0
  6
BYBLOCK
 10
1078.6744147009799
 20
1384.9717808804601
 30
0.0
 11
1081.2744147009801
 21
1384.27511298646
 31
0.0
  0
LINE
  5
F9A3
  8
0
  6
BYBLOCK
 10
1081.2744147009801
 20
1384.27511298646
 30
0.0
 11
1078.6744147009799
 21
1383.57844509246
 31
0.0
  0
LINE
  5
F9A4
  8
0
  6
BYBLOCK
 10
1081.2744147009801
 20
1384.27511298646
 30
0.0
 11
1078.6744147009799
 21
1384.27511298646
 31
0.0
  0
LINE
  5
F9A5
  8
0
  6
BYBLOCK
 10
941.87584898203227
 20
1383.57844509246
 30
0.0
 11
939.27584898203224
 21
1384.27511298646
 31
0.0
  0
LINE
  5
F9A6
  8
0
  6
BYBLOCK
 10
939.27584898203224
 20
1384.27511298646
 30
0.0
 11
941.87584898203227
 21
1384.9717808804601
 31
0.0
  0
LINE
  5
F9A7
  8
0
  6
BYBLOCK
 10
939.27584898203224
 20
1384.27511298646
 30
0.0
 11
941.87584898203227
 21
1384.27511298646
 31
0.0
  0
VIEWPORT
  5
57
 67
     1
  8
0
 10
1.2054914090272171
 20
14.184887304638661
 30
0.0
 40
438.76437408261478
 41
290.94116672859712
 68
     1
 69
     1
1001
ACAD
1000
MVIEW
1002
{
1070
    16
1010
0.0
1020
0.0
1030
0.0
1010
0.0
1020
0.0
1030
1.0
1040
0.0
1040
290.94116672859712
1040
1.2054914090272171
1040
14.184887304638661
1040
50.0
1040
0.0
1040
0.0
1070
     0
1070
   100
1070
     1
1070
     1
1070
     0
1070
     0
1070
     0
1070
     0
1040
0.0
1040
0.0
1040
0.0
1040
10.0
1040
10.0
1040
10.0
1040
10.0
1070
     0
1002
{
1002
}
1002
}
  0
ENDSEC
  0
EOF
