  0
SECTION
  2
HEADER
  9
$ACADVER
  1
AC1012
  9
$DWGCODEPAGE
  3
ansi_932
  9
$INSBASE
 10
0.0
 20
0.0
 30
0.0
  9
$EXTMIN
 10
2208.382939051157
 20
-745.0176174050845
 30
0.0
  9
$EXTMAX
 10
2834.682785848654
 20
-325.1174955962352
 30
0.0
  9
$LIMMIN
 10
0.0
 20
0.0
  9
$LIMMAX
 10
420.0
 20
297.0
  9
$ORTHOMODE
 70
     0
  9
$REGENMODE
 70
     1
  9
$FILLMODE
 70
     1
  9
$QTEXTMODE
 70
     0
  9
$MIRRTEXT
 70
     0
  9
$DRAGMODE
 70
     2
  9
$LTSCALE
 40
0.5
  9
$OSMODE
 70
 16383
  9
$ATTMODE
 70
     1
  9
$TEXTSIZE
 40
4.0
  9
$TRACEWID
 40
1.0
  9
$TEXTSTYLE
  7
STANDARD
  9
$CLAYER
  8
1TEXT
  9
$CELTYPE
  6
BYLAYER
  9
$CECOLOR
 62
   256
  9
$CELTSCALE
 40
1.0
  9
$DELOBJ
 70
     1
  9
$DISPSILH
 70
     0
  9
$DIMSCALE
 40
1.0
  9
$DIMASZ
 40
2.0
  9
$DIMEXO
 40
0.0
  9
$DIMDLI
 40
7.0
  9
$DIMRND
 40
0.0
  9
$DIMDLE
 40
0.0
  9
$DIMEXE
 40
1.0
  9
$DIMTP
 40
0.0
  9
$DIMTM
 40
0.0
  9
$DIMTXT
 40
3.5
  9
$DIMCEN
 40
0.0
  9
$DIMTSZ
 40
0.0
  9
$DIMTOL
 70
     0
  9
$DIMLIM
 70
     0
  9
$DIMTIH
 70
     0
  9
$DIMTOH
 70
     0
  9
$DIMSE1
 70
     0
  9
$DIMSE2
 70
     0
  9
$DIMTAD
 70
     1
  9
$DIMZIN
 70
     8
  9
$DIMBLK
  1

  9
$DIMASO
 70
     1
  9
$DIMSHO
 70
     1
  9
$DIMPOST
  1
 
  9
$DIMAPOST
  1

  9
$DIMALT
 70
     0
  9
$DIMALTD
 70
     2
  9
$DIMALTF
 40
25.4
  9
$DIMLFAC
 40
1.0
  9
$DIMTOFL
 70
     1
  9
$DIMTVP
 40
0.0
  9
$DIMTIX
 70
     0
  9
$DIMSOXD
 70
     0
  9
$DIMSAH
 70
     1
  9
$DIMBLK1
  1
OPEN30
  9
$DIMBLK2
  1
OPEN30
  9
$DIMSTYLE
  2
NEWX10
  9
$DIMCLRD
 70
   256
  9
$DIMCLRE
 70
   256
  9
$DIMCLRT
 70
   201
  9
$DIMTFAC
 40
0.7
  9
$DIMGAP
 40
0.7
  9
$DIMJUST
 70
     0
  9
$DIMSD1
 70
     0
  9
$DIMSD2
 70
     0
  9
$DIMTOLJ
 70
     1
  9
$DIMTZIN
 70
     8
  9
$DIMALTZ
 70
     0
  9
$DIMALTTZ
 70
     0
  9
$DIMFIT
 70
     2
  9
$DIMUPT
 70
     0
  9
$DIMUNIT
 70
     2
  9
$DIMDEC
 70
     2
  9
$DIMTDEC
 70
     4
  9
$DIMALTU
 70
     2
  9
$DIMALTTD
 70
     2
  9
$DIMTXSTY
  7
STANDARD
  9
$DIMAUNIT
 70
     0
  9
$LUNITS
 70
     2
  9
$LUPREC
 70
     4
  9
$SKETCHINC
 40
1.0
  9
$FILLETRAD
 40
0.0
  9
$AUNITS
 70
     0
  9
$AUPREC
 70
     2
  9
$MENU
  1
acad
  9
$ELEVATION
 40
0.0
  9
$PELEVATION
 40
0.0
  9
$THICKNESS
 40
0.0
  9
$LIMCHECK
 70
     0
  9
$CHAMFERA
 40
10.0
  9
$CHAMFERB
 40
10.0
  9
$CHAMFERC
 40
20.0
  9
$CHAMFERD
 40
0.0
  9
$SKPOLY
 70
     0
  9
$TDCREATE
 40
2451318.621352917
  9
$TDUPDATE
 40
2458449.377463484
  9
$TDINDWG
 40
1.6580178356
  9
$TDUSRTIMER
 40
1.6580178356
  9
$USRTIMER
 70
     1
  9
$ANGBASE
 50
0.0
  9
$ANGDIR
 70
     0
  9
$PDMODE
 70
     0
  9
$PDSIZE
 40
0.0
  9
$PLINEWID
 40
0.0
  9
$COORDS
 70
     2
  9
$SPLFRAME
 70
     0
  9
$SPLINETYPE
 70
     6
  9
$SPLINESEGS
 70
     8
  9
$ATTDIA
 70
     0
  9
$ATTREQ
 70
     1
  9
$HANDLING
 70
     1
  9
$HANDSEED
  5
1B3B1
  9
$SURFTAB1
 70
     6
  9
$SURFTAB2
 70
     6
  9
$SURFTYPE
 70
     6
  9
$SURFU
 70
     6
  9
$SURFV
 70
     6
  9
$UCSNAME
  2

  9
$UCSORG
 10
0.0
 20
0.0
 30
0.0
  9
$UCSXDIR
 10
1.0
 20
0.0
 30
0.0
  9
$UCSYDIR
 10
0.0
 20
1.0
 30
0.0
  9
$PUCSNAME
  2

  9
$PUCSORG
 10
0.0
 20
0.0
 30
0.0
  9
$PUCSXDIR
 10
1.0
 20
0.0
 30
0.0
  9
$PUCSYDIR
 10
0.0
 20
1.0
 30
0.0
  9
$USERI1
 70
     0
  9
$USERI2
 70
     0
  9
$USERI3
 70
     0
  9
$USERI4
 70
     0
  9
$USERI5
 70
     0
  9
$USERR1
 40
0.0
  9
$USERR2
 40
0.0
  9
$USERR3
 40
0.0
  9
$USERR4
 40
0.0
  9
$USERR5
 40
0.0
  9
$WORLDVIEW
 70
     1
  9
$SHADEDGE
 70
     3
  9
$SHADEDIF
 70
    70
  9
$TILEMODE
 70
     1
  9
$MAXACTVP
 70
    48
  9
$PINSBASE
 10
0.0
 20
0.0
 30
0.0
  9
$PLIMCHECK
 70
     0
  9
$PEXTMIN
 10
1.000000000000000E+20
 20
1.000000000000000E+20
 30
1.000000000000000E+20
  9
$PEXTMAX
 10
-1.000000000000000E+20
 20
-1.000000000000000E+20
 30
-1.000000000000000E+20
  9
$PLIMMIN
 10
0.0
 20
0.0
  9
$PLIMMAX
 10
420.0
 20
297.0
  9
$UNITMODE
 70
     0
  9
$VISRETAIN
 70
     1
  9
$PLINEGEN
 70
     0
  9
$PSLTSCALE
 70
     1
  9
$TREEDEPTH
 70
  3020
  9
$PICKSTYLE
 70
     0
  9
$CMLSTYLE
  2
STANDARD
  9
$CMLJUST
 70
     0
  9
$CMLSCALE
 40
20.0
  9
$SAVEIMAGES
 70
     1
  0
ENDSEC
  0
SECTION
  2
CLASSES
  0
CLASS
  1
DICTIONARYVAR
  2
AcDbDictionaryVar
  3
ObjectDBX Classes
 90
        0
280
     0
281
     0
  0
CLASS
  1
IDBUFFER
  2
AcDbIdBuffer
  3
ObjectDBX Classes
 90
    32768
280
     0
281
     0
  0
CLASS
  1
LWPOLYLINE
  2
AcDbPolyline
  3
ObjectDBX Classes
 90
    32768
280
     0
281
     1
  0
CLASS
  1
ACDBDICTIONARYWDFLT
  2
AcDbDictionaryWithDefault
  3
ObjectDBX Classes
 90
    32768
280
     0
281
     0
  0
CLASS
  1
ACDBPLACEHOLDER
  2
AcDbPlaceHolder
  3
ObjectDBX Classes
 90
        0
280
     0
281
     0
  0
CLASS
  1
LAYOUT
  2
AcDbLayout
  3
ObjectDBX Classes
 90
        0
280
     0
281
     0
  0
CLASS
  1
TABLESTYLE
  2
AcDbTableStyle
  3
ObjectDBX Classes
 90
     4095
280
     0
281
     0
  0
CLASS
  1
SORTENTSTABLE
  2
AcDbSortentsTable
  3
ObjectDBX Classes
 90
    32768
280
     0
281
     0
  0
CLASS
  1
MATERIAL
  2
AcDbMaterial
  3
ObjectDBX Classes
 90
     1153
280
     0
281
     0
  0
CLASS
  1
VISUALSTYLE
  2
AcDbVisualStyle
  3
ObjectDBX Classes
 90
     4095
280
     0
281
     0
  0
CLASS
  1
SCALE
  2
AcDbScale
  3
ObjectDBX Classes
 90
     1153
280
     0
281
     0
  0
CLASS
  1
MLEADERSTYLE
  2
AcDbMLeaderStyle
  3
ACDB_MLEADERSTYLE_CLASS
 90
     4095
280
     0
281
     0
  0
CLASS
  1
CELLSTYLEMAP
  2
AcDbCellStyleMap
  3
ObjectDBX Classes
 90
     1152
280
     0
281
     0
  0
CLASS
  1
SUN
  2
AcDbSun
  3
SCENEOE
 90
     1153
280
     0
281
     0
  0
CLASS
  1
AEC_REFEDIT_STATUS_TRACKER
  2
AecDbRefEditStatusTracker
  3
AecArchBase60|Product Desc: Autodesk Architectural Desktop 2007 |Company: Autodesk,Inc. |WEB Address: www.autodesk.com
 90
      129
280
     1
281
     0
  0
CLASS
  1
NPOCOLLECTION
  2
AcDbImpNonPersistentObjectsCollection
  3
ObjectDBX Classes
 90
     1153
280
     1
281
     0
  0
CLASS
  1
XRECORD
  2
AcDbXrecord
  3
ObjectDBX Classes
 90
    32768
280
     0
281
     0
  0
CLASS
  1
HATCH
  2
AcDbHatch
  3
ObjectDBX Classes
 90
    32768
280
     0
281
     1
  0
ENDSEC
  0
SECTION
  2
TABLES
  0
TABLE
  2
VPORT
  5
8
330
0
100
AcDbSymbolTable
 70
     1
  0
VPORT
  5
D991
330
8
100
AcDbSymbolTableRecord
100
AcDbViewportTableRecord
  2
*ACTIVE
 70
     0
 10
0.0
 20
0.0
 11
1.0
 21
1.0
 12
2521.532862449906
 22
-535.0675565006599
 13
0.0
 23
0.0
 14
10.0
 24
10.0
 15
10.0
 25
10.0
 16
0.0
 26
0.0
 36
1.0
 17
0.0
 27
0.0
 37
0.0
 40
450.8401307842382
 41
1.803066037735849
 42
50.0
 43
0.0
 44
0.0
 50
0.0
 51
0.0
 71
    16
 72
   100
 73
     1
 74
     1
 75
     0
 76
     0
 77
     0
 78
     0
  0
ENDTAB
  0
TABLE
  2
LTYPE
  5
5
330
0
100
AcDbSymbolTable
 70
     3
  0
LTYPE
  5
12
330
5
100
AcDbSymbolTableRecord
100
AcDbLinetypeTableRecord
  2
BYBLOCK
 70
     0
  3

 72
    65
 73
     0
 40
0.0
  0
LTYPE
  5
13
330
5
100
AcDbSymbolTableRecord
100
AcDbLinetypeTableRecord
  2
BYLAYER
 70
     0
  3

 72
    65
 73
     0
 40
0.0
  0
LTYPE
  5
14
330
5
100
AcDbSymbolTableRecord
100
AcDbLinetypeTableRecord
  2
CONTINUOUS
 70
     0
  3
Solid line
 72
    65
 73
     0
 40
0.0
  0
LTYPE
  5
2C03
330
5
100
AcDbSymbolTableRecord
100
AcDbLinetypeTableRecord
  2
HIDDEN
 70
     0
  3
Hidden __ __ __ __ __ __ __ __ __ __ __ __ __ _
 72
    65
 73
     2
 40
9.524999999999999
 49
6.35
 74
     0
 49
-3.175
 74
     0
  0
LTYPE
  5
13839
330
5
100
AcDbSymbolTableRecord
100
AcDbLinetypeTableRecord
  2
CENTER2
 70
     0
  3
Center (.5x) ___ _ ___ _ ___ _ ___ _ ___ _ ___
 72
    65
 73
     4
 40
28.575
 49
19.05
 74
     0
 49
-3.175
 74
     0
 49
3.175
 74
     0
 49
-3.175
 74
     0
  0
ENDTAB
  0
TABLE
  2
LAYER
  5
2
102
{ACAD_XDICTIONARY
360
E6A6
102
}
330
0
100
AcDbSymbolTable
 70
     6
  0
LAYER
  5
E
102
{ACAD_XDICTIONARY
360
DA05
102
}
330
2
100
AcDbSymbolTableRecord
100
AcDbLayerTableRecord
  2
0
 70
     0
 62
     7
  6
CONTINUOUS
  0
LAYER
  5
29
102
{ACAD_XDICTIONARY
360
DA07
102
}
330
2
100
AcDbSymbolTableRecord
100
AcDbLayerTableRecord
  2
1CENTER
 70
     0
 62
     7
  6
CENTER2
  0
LAYER
  5
31
102
{ACAD_XDICTIONARY
360
DA09
102
}
330
2
100
AcDbSymbolTableRecord
100
AcDbLayerTableRecord
  2
1TEXT
 70
     0
 62
     7
  6
CONTINUOUS
  0
LAYER
  5
243
102
{ACAD_XDICTIONARY
360
DA0F
102
}
330
2
100
AcDbSymbolTableRecord
100
AcDbLayerTableRecord
  2
01
 70
     0
 62
     1
  6
CONTINUOUS
  0
LAYER
  5
24E
102
{ACAD_XDICTIONARY
360
DA15
102
}
330
2
100
AcDbSymbolTableRecord
100
AcDbLayerTableRecord
  2
1DIM
 70
     0
 62
     7
  6
CONTINUOUS
  0
LAYER
  5
2C05
102
{ACAD_XDICTIONARY
360
DA23
102
}
330
2
100
AcDbSymbolTableRecord
100
AcDbLayerTableRecord
  2
1HIDDEN
 70
     0
 62
     7
  6
HIDDEN
  0
ENDTAB
  0
TABLE
  2
STYLE
  5
3
330
0
100
AcDbSymbolTable
 70
     1
  0
STYLE
  5
F
330
3
100
AcDbSymbolTableRecord
100
AcDbTextStyleTableRecord
  2
STANDARD
 70
     0
 40
0.0
 41
1.0
 50
0.0
 71
     0
 42
4.0
  3
txt.shx
  4
extfont.shx
  0
ENDTAB
  0
TABLE
  2
VIEW
  5
6
330
0
100
AcDbSymbolTable
 70
     0
  0
ENDTAB
  0
TABLE
  2
UCS
  5
7
330
0
100
AcDbSymbolTable
 70
     0
  0
ENDTAB
  0
TABLE
  2
APPID
  5
9
330
0
100
AcDbSymbolTable
 70
    15
  0
APPID
  5
10
330
9
100
AcDbSymbolTableRecord
100
AcDbRegAppTableRecord
  2
ACAD
 70
     0
  0
APPID
  5
21
330
9
100
AcDbSymbolTableRecord
100
AcDbRegAppTableRecord
  2
DRAWINGVARIABLESXDATA
 70
     0
  0
APPID
  5
64
330
9
100
AcDbSymbolTableRecord
100
AcDbRegAppTableRecord
  2
CONTENTTABDATA
 70
     0
  0
APPID
  5
65
330
9
100
AcDbSymbolTableRecord
100
AcDbRegAppTableRecord
  2
CONTENTCURRENTTAB
 70
     0
  0
APPID
  5
66
330
9
100
AcDbSymbolTableRecord
100
AcDbRegAppTableRecord
  2
CONTENTBLOCKDESCRIPTION
 70
     0
  0
APPID
  5
67
330
9
100
AcDbSymbolTableRecord
100
AcDbRegAppTableRecord
  2
CONTENTBLOCKICON
 70
     0
  0
APPID
  5
68
330
9
100
AcDbSymbolTableRecord
100
AcDbRegAppTableRecord
  2
CONTENTLONGBLOCKNAME
 70
     0
  0
APPID
  5
2AE
330
9
100
AcDbSymbolTableRecord
100
AcDbRegAppTableRecord
  2
ACAD_PSEXT
 70
     0
  0
APPID
  5
D9E9
330
9
100
AcDbSymbolTableRecord
100
AcDbRegAppTableRecord
  2
ACAD_MLEADERVER
 70
     0
  0
APPID
  5
19CF0
330
9
100
AcDbSymbolTableRecord
100
AcDbRegAppTableRecord
  2
ACADANNOTATIVE
 70
     0
  0
APPID
  5
19CF1
330
9
100
AcDbSymbolTableRecord
100
AcDbRegAppTableRecord
  2
ACDBBLOCKREPETAG
 70
     0
  0
APPID
  5
19CF2
330
9
100
AcDbSymbolTableRecord
100
AcDbRegAppTableRecord
  2
ACLAYERTOOLS
 70
     0
  0
APPID
  5
19CF3
330
9
100
AcDbSymbolTableRecord
100
AcDbRegAppTableRecord
  2
ACAD_NAV_VCDISPLAY
 70
     0
  0
APPID
  5
1A86C
330
9
100
AcDbSymbolTableRecord
100
AcDbRegAppTableRecord
  2
ACAD_OBJECT_CHANGE_GUID
 70
     0
  0
APPID
  5
1AA08
330
9
100
AcDbSymbolTableRecord
100
AcDbRegAppTableRecord
  2
ACAECLAYERSTANDARD
 70
     0
  0
ENDTAB
  0
TABLE
  2
DIMSTYLE
  5
A
330
0
100
AcDbSymbolTable
 70
     1
  0
DIMSTYLE
105
48
330
A
100
AcDbSymbolTableRecord
100
AcDbDimStyleTableRecord
  2
NEWX10
 70
     0
  3
 
  4

  5

  6
OPEN30
  7
OPEN30
 40
1.0
 41
2.0
 42
0.0
 43
7.0
 44
1.0
 45
0.0
 46
0.0
 47
0.0
 48
0.0
140
3.5
141
0.0
142
0.0
143
25.4
144
1.0
145
0.0
146
0.7
147
0.7
 71
     0
 72
     0
 73
     0
 74
     0
 75
     0
 76
     0
 77
     1
 78
     8
170
     0
171
     2
172
     1
173
     1
174
     0
175
     0
176
   256
177
   256
178
   201
179
     2
270
     2
271
     2
272
     4
273
     2
274
     2
340
F
275
     0
280
     0
281
     0
282
     0
283
     1
284
     8
285
     0
286
     0
287
     2
288
     0
  0
ENDTAB
  0
TABLE
  2
BLOCK_RECORD
  5
1
330
0
100
AcDbSymbolTable
 70
     8
  0
BLOCK_RECORD
  5
18
102
{ACAD_XDICTIONARY
360
88F
102
}
330
1
100
AcDbSymbolTableRecord
100
AcDbBlockTableRecord
  2
*MODEL_SPACE
  0
BLOCK_RECORD
  5
15
330
1
100
AcDbSymbolTableRecord
100
AcDbBlockTableRecord
  2
*PAPER_SPACE
  0
BLOCK_RECORD
  5
42
330
1
100
AcDbSymbolTableRecord
100
AcDbBlockTableRecord
  2
_OPEN30
  0
BLOCK_RECORD
  5
19D42
330
1
100
AcDbSymbolTableRecord
100
AcDbBlockTableRecord
  2
A3WAKUKAWAJUN2017_HYOUDAI_
  0
BLOCK_RECORD
  5
1B211
330
1
100
AcDbSymbolTableRecord
100
AcDbBlockTableRecord
  2
*X42
  0
BLOCK_RECORD
  5
1B25F
330
1
100
AcDbSymbolTableRecord
100
AcDbBlockTableRecord
  2
*X43
  0
BLOCK_RECORD
  5
1B2B1
330
1
100
AcDbSymbolTableRecord
100
AcDbBlockTableRecord
  2
*X44
  0
BLOCK_RECORD
  5
1B302
330
1
100
AcDbSymbolTableRecord
100
AcDbBlockTableRecord
  2
*X45
  0
BLOCK_RECORD
  5
1B33F
330
1
100
AcDbSymbolTableRecord
100
AcDbBlockTableRecord
  2
*X46
  0
BLOCK_RECORD
  5
1B37F
330
1
100
AcDbSymbolTableRecord
100
AcDbBlockTableRecord
  2
*X47
  0
ENDTAB
  0
ENDSEC
  0
SECTION
  2
BLOCKS
  0
BLOCK
  5
19
330
18
100
AcDbEntity
  8
0
100
AcDbBlockBegin
  2
*MODEL_SPACE
 70
     0
 10
0.0
 20
0.0
 30
0.0
  3
*MODEL_SPACE
  1

  0
ENDBLK
  5
1A
330
18
100
AcDbEntity
  8
0
100
AcDbBlockEnd
  0
BLOCK
  5
16
330
15
100
AcDbEntity
 67
     1
  8
0
100
AcDbBlockBegin
  2
*PAPER_SPACE
 70
     0
 10
0.0
 20
0.0
 30
0.0
  3
*PAPER_SPACE
  1

  0
ENDBLK
  5
17
330
15
100
AcDbEntity
 67
     1
  8
0
100
AcDbBlockEnd
  0
BLOCK
  5
43
330
42
100
AcDbEntity
  8
0
100
AcDbBlockBegin
  2
_OPEN30
 70
     0
 10
0.0
 20
0.0
 30
0.0
  3
_OPEN30
  1

  0
LINE
  5
44
330
42
100
AcDbEntity
  8
0
  6
BYBLOCK
 62
     0
100
AcDbLine
 10
-1.0
 20
0.26794919
 30
0.0
 11
0.0
 21
0.0
 31
0.0
  0
LINE
  5
45
330
42
100
AcDbEntity
  8
0
  6
BYBLOCK
 62
     0
100
AcDbLine
 10
0.0
 20
0.0
 30
0.0
 11
-1.0
 21
-0.26794919
 31
0.0
  0
LINE
  5
46
330
42
100
AcDbEntity
  8
0
  6
BYBLOCK
 62
     0
100
AcDbLine
 10
0.0
 20
0.0
 30
0.0
 11
-1.0
 21
0.0
 31
0.0
  0
ENDBLK
  5
47
330
42
100
AcDbEntity
  8
0
100
AcDbBlockEnd
  0
BLOCK
  5
1A550
330
19D42
100
AcDbEntity
  8
0
100
AcDbBlockBegin
  2
A3WAKUKAWAJUN2017_HYOUDAI_
 70
     0
 10
0.0
 20
0.0
 30
0.0
  3
A3WAKUKAWAJUN2017_HYOUDAI_
  1

  0
LINE
  5
19D44
330
19D42
100
AcDbEntity
  8
0
100
AcDbLine
 10
13.26299999998673
 20
-0.0001000000000317
 30
0.0
 11
9.236999999990758
 21
8.999899999990987
 31
0.0
1001
ACAD
1000
ASC_BOUNDS
1002
{
1070
    19
1005
19D85
1002
}
  0
LINE
  5
19D45
330
19D42
100
AcDbEntity
  8
0
100
AcDbLine
 10
5.657999999994331
 20
0.9999999999989768
 30
0.0
 11
9.236999999990758
 21
8.999999999991019
 31
0.0
1001
ACAD
1000
ASC_BOUNDS
1002
{
1070
    19
1005
19D85
1002
}
  0
LINE
  5
19D46
330
19D42
100
AcDbEntity
  8
0
100
AcDbLine
 10
18.59199999998134
 20
-0.2368999999997641
 30
0.0
 11
16.46099999998353
 21
5.432899999994561
 31
0.0
1001
ACAD
1000
ASC_BOUNDS
1002
{
1070
    19
1005
19D86
1002
}
  0
LINE
  5
19D47
330
19D42
100
AcDbEntity
  8
0
100
AcDbLine
 10
18.59199999998134
 20
-0.2368999999997641
 30
0.0
 11
22.38199999997767
 21
8.763099999991255
 31
0.0
1001
ACAD
1000
ASC_BOUNDS
1002
{
1070
    19
1005
19D86
1002
}
  0
LINE
  5
19D48
330
19D42
100
AcDbEntity
  8
0
100
AcDbLine
 10
14.32899999998563
 20
-0.2368999999997641
 30
0.0
 11
16.46099999998353
 21
5.432899999994561
 31
0.0
1001
ACAD
1000
ASC_BOUNDS
1002
{
1070
    19
1005
19D86
1002
}
  0
LINE
  5
19D49
330
19D42
100
AcDbEntity
  8
0
100
AcDbLine
 10
14.32899999998563
 20
-0.2368999999997641
 30
0.0
 11
10.53899999998941
 21
8.763099999991255
 31
0.0
1001
ACAD
1000
ASC_BOUNDS
1002
{
1070
    19
1005
19D86
1002
}
  0
LINE
  5
19D4A
330
19D42
100
AcDbEntity
  8
0
100
AcDbLine
 10
19.53899999998043
 20
-0.0001000000000317
 30
0.0
 11
23.56599999997638
 21
8.999899999990987
 31
0.0
1001
ACAD
1000
ASC_BOUNDS
1002
{
1070
    19
1005
19D87
1002
}
  0
LINE
  5
19D4B
330
19D42
100
AcDbEntity
  8
0
100
AcDbLine
 10
26.97358892824991
 20
1.383099999991202
 30
0.0
 11
23.56599999997638
 21
8.999899999990987
 31
0.0
1001
ACAD
1000
ASC_BOUNDS
1002
{
1070
    19
1005
19D87
1002
}
  0
LINE
  5
19D4C
330
19D42
100
AcDbEntity
  8
0
100
AcDbLine
 10
5.657999999994331
 20
0.9999999999989768
 30
0.0
 11
3.181999999996833
 21
4.668599999995308
 31
0.0
1001
ACAD
1000
ASC_BOUNDS
1002
{
1070
    19
1005
19D85
1002
}
  0
LINE
  5
19D4D
330
19D42
100
AcDbEntity
  8
0
100
AcDbLine
 10
4.617999999995391
 20
-0.0001000000000317
 30
0.0
 11
1.420999999998571
 21
4.736799999995242
 31
0.0
1001
ACAD
1000
ASC_BOUNDS
1002
{
1070
    19
1005
19D85
1002
}
  0
LINE
  5
19D4E
330
19D42
100
AcDbEntity
  8
0
100
AcDbLine
 10
1.420999999998571
 20
8.763099999991255
 30
0.0
 11
1.420999999998571
 21
0.0
 31
0.0
1001
ACAD
1000
ASC_BOUNDS
1002
{
1070
    19
1005
19D8A
1002
}
  0
LINE
  5
19D4F
330
19D42
100
AcDbEntity
  8
0
100
AcDbLine
 10
0.0
 20
8.763099999991255
 30
0.0
 11
0.0
 21
0.0
 31
0.0
1001
ACAD
1000
ASC_BOUNDS
1002
{
1070
    19
1005
19D8A
1002
}
  0
LINE
  5
19D50
330
19D42
100
AcDbEntity
  8
0
100
AcDbLine
 10
6.766999999993232
 20
-0.0001000000000317
 30
0.0
 11
7.826999999992154
 21
2.368399999997621
 31
0.0
1001
ACAD
1000
ASC_BOUNDS
1002
{
1070
    19
1005
19D85
1002
}
  0
LINE
  5
19D51
330
19D42
100
AcDbEntity
  8
0
100
AcDbLine
 10
0.0
 20
0.0
 30
0.0
 11
1.420999999998571
 21
0.0
 31
0.0
1001
ACAD
1000
ASC_BOUNDS
1002
{
1070
    19
1005
19D8A
1002
}
  0
LINE
  5
19D52
330
19D42
100
AcDbEntity
  8
0
100
AcDbLine
 10
4.617999999995391
 20
0.0
 30
0.0
 11
6.766999999993232
 21
0.0
 31
0.0
1001
ACAD
1000
ASC_BOUNDS
1002
{
1070
    19
1005
19D85
1002
}
  0
LINE
  5
19D53
330
19D42
100
AcDbEntity
  8
0
100
AcDbLine
 10
11.70599999998831
 20
-0.0001000000000317
 30
0.0
 11
10.64699999998936
 21
2.368399999997621
 31
0.0
1001
ACAD
1000
ASC_BOUNDS
1002
{
1070
    19
1005
19D85
1002
}
  0
LINE
  5
19D54
330
19D42
100
AcDbEntity
  8
0
100
AcDbLine
 10
7.826999999992154
 20
2.368399999997621
 30
0.0
 11
10.64699999998936
 21
2.368399999997621
 31
0.0
1001
ACAD
1000
ASC_BOUNDS
1002
{
1070
    19
1005
19D85
1002
}
  0
LINE
  5
19D55
330
19D42
100
AcDbEntity
  8
0
100
AcDbLine
 10
11.70599999998831
 20
0.0
 30
0.0
 11
13.26299999998673
 21
0.0
 31
0.0
1001
ACAD
1000
ASC_BOUNDS
1002
{
1070
    19
1005
19D85
1002
}
  0
LINE
  5
19D56
330
19D42
100
AcDbEntity
  8
0
100
AcDbLine
 10
22.15599999997789
 20
2.368399999997621
 30
0.0
 11
24.97599999997499
 21
2.368399999997621
 31
0.0
1001
ACAD
1000
ASC_BOUNDS
1002
{
1070
    19
1005
19D87
1002
}
  0
LINE
  5
19D57
330
19D42
100
AcDbEntity
  8
0
100
AcDbLine
 10
19.53899999998043
 20
0.0
 30
0.0
 11
21.09599999997886
 21
0.0
 31
0.0
1001
ACAD
1000
ASC_BOUNDS
1002
{
1070
    19
1005
19D87
1002
}
  0
LINE
  5
19D58
330
19D42
100
AcDbEntity
  8
0
100
AcDbLine
 10
21.09599999997886
 20
-0.0001000000000317
 30
0.0
 11
22.15599999997789
 21
2.368399999997621
 31
0.0
1001
ACAD
1000
ASC_BOUNDS
1002
{
1070
    19
1005
19D87
1002
}
  0
LINE
  5
19D59
330
19D42
100
AcDbEntity
  8
0
100
AcDbLine
 10
26.02015566812236
 20
0.0330999999912365
 30
0.0
 11
24.97599999997499
 21
2.368399999997621
 31
0.0
1001
ACAD
1000
ASC_BOUNDS
1002
{
1070
    19
1005
19D87
1002
}
  0
LINE
  5
19D5A
330
19D42
100
AcDbEntity
  8
0
100
AcDbLine
 10
14.32399999998563
 20
3.315799999996671
 30
0.0
 11
16.46099999998353
 21
8.999899999990987
 31
0.0
1001
ACAD
1000
ASC_BOUNDS
1002
{
1070
    19
1005
19D86
1002
}
  0
LINE
  5
19D5B
330
19D42
100
AcDbEntity
  8
0
100
AcDbLine
 10
6.432999999993513
 20
8.763099999991255
 30
0.0
 11
3.181999999996833
 21
4.668599999995308
 31
0.0
1001
ACAD
1000
ASC_BOUNDS
1002
{
1070
    19
1005
19D85
1002
}
  0
LINE
  5
19D5C
330
19D42
100
AcDbEntity
  8
0
100
AcDbLine
 10
4.617999999995391
 20
8.763099999991255
 30
0.0
 11
1.420999999998571
 21
4.736799999995242
 31
0.0
1001
ACAD
1000
ASC_BOUNDS
1002
{
1070
    19
1005
19D85
1002
}
  0
LINE
  5
19D5D
330
19D42
100
AcDbEntity
  8
0
100
AcDbLine
 10
0.0
 20
8.763099999991255
 30
0.0
 11
1.420999999998571
 21
8.763099999991255
 31
0.0
1001
ACAD
1000
ASC_BOUNDS
1002
{
1070
    19
1005
19D8A
1002
}
  0
LINE
  5
19D5E
330
19D42
100
AcDbEntity
  8
0
100
AcDbLine
 10
4.617999999995391
 20
8.763099999991255
 30
0.0
 11
6.432999999993513
 21
8.763099999991255
 31
0.0
1001
ACAD
1000
ASC_BOUNDS
1002
{
1070
    19
1005
19D85
1002
}
  0
LINE
  5
19D5F
330
19D42
100
AcDbEntity
  8
0
100
AcDbLine
 10
14.32399999998563
 20
3.315799999996671
 30
0.0
 11
12.02999999998792
 21
8.763099999991255
 31
0.0
1001
ACAD
1000
ASC_BOUNDS
1002
{
1070
    19
1005
19D86
1002
}
  0
LINE
  5
19D60
330
19D42
100
AcDbEntity
  8
0
100
AcDbLine
 10
10.06399999998996
 20
3.670999999996297
 30
0.0
 11
9.236999999990758
 21
5.5200999999945
 31
0.0
1001
ACAD
1000
ASC_BOUNDS
1002
{
1070
    19
1005
19D85
1002
}
  0
LINE
  5
19D61
330
19D42
100
AcDbEntity
  8
0
100
AcDbLine
 10
8.409999999991555
 20
3.670999999996297
 30
0.0
 11
9.236999999990758
 21
5.5200999999945
 31
0.0
1001
ACAD
1000
ASC_BOUNDS
1002
{
1070
    19
1005
19D85
1002
}
  0
LINE
  5
19D62
330
19D42
100
AcDbEntity
  8
0
100
AcDbLine
 10
8.409999999991555
 20
3.670999999996297
 30
0.0
 11
10.06399999998996
 21
3.670999999996297
 31
0.0
1001
ACAD
1000
ASC_BOUNDS
1002
{
1070
    19
1005
19D85
1002
}
  0
LINE
  5
19D63
330
19D42
100
AcDbEntity
  8
0
100
AcDbLine
 10
10.53899999998941
 20
8.763099999991255
 30
0.0
 11
12.02999999998792
 21
8.763099999991255
 31
0.0
1001
ACAD
1000
ASC_BOUNDS
1002
{
1070
    19
1005
19D86
1002
}
  0
LINE
  5
19D64
330
19D42
100
AcDbEntity
  8
0
100
AcDbLine
 10
22.7389999999773
 20
3.670999999996297
 30
0.0
 11
23.56599999997638
 21
5.5200999999945
 31
0.0
1001
ACAD
1000
ASC_BOUNDS
1002
{
1070
    19
1005
19D87
1002
}
  0
LINE
  5
19D65
330
19D42
100
AcDbEntity
  8
0
100
AcDbLine
 10
22.7389999999773
 20
3.670999999996297
 30
0.0
 11
24.39299999997559
 21
3.670999999996297
 31
0.0
1001
ACAD
1000
ASC_BOUNDS
1002
{
1070
    19
1005
19D87
1002
}
  0
LINE
  5
19D66
330
19D42
100
AcDbEntity
  8
0
100
AcDbLine
 10
18.59799999998143
 20
3.315799999996671
 30
0.0
 11
20.89099999997916
 21
8.763099999991255
 31
0.0
1001
ACAD
1000
ASC_BOUNDS
1002
{
1070
    19
1005
19D86
1002
}
  0
LINE
  5
19D67
330
19D42
100
AcDbEntity
  8
0
100
AcDbLine
 10
18.59799999998143
 20
3.315799999996671
 30
0.0
 11
16.46099999998353
 21
8.999899999990987
 31
0.0
1001
ACAD
1000
ASC_BOUNDS
1002
{
1070
    19
1005
19D86
1002
}
  0
LINE
  5
19D68
330
19D42
100
AcDbEntity
  8
0
100
AcDbLine
 10
20.89099999997916
 20
8.763099999991255
 30
0.0
 11
22.38199999997767
 21
8.763099999991255
 31
0.0
1001
ACAD
1000
ASC_BOUNDS
1002
{
1070
    19
1005
19D86
1002
}
  0
LINE
  5
19D69
330
19D42
100
AcDbEntity
  8
0
100
AcDbLine
 10
24.39299999997559
 20
3.670999999996297
 30
0.0
 11
23.56599999997638
 21
5.5200999999945
 31
0.0
1001
ACAD
1000
ASC_BOUNDS
1002
{
1070
    19
1005
19D87
1002
}
  0
LINE
  5
19D6A
330
19D42
100
AcDbEntity
  8
0
100
AcDbLine
 10
44.99999999995498
 20
-0.2368999999997641
 30
0.0
 11
40.02599999995994
 21
5.341799999994635
 31
0.0
1001
ACAD
1000
ASC_BOUNDS
1002
{
1070
    19
1005
19D89
1002
}
  0
LINE
  5
19D6B
330
19D42
100
AcDbEntity
  8
0
100
AcDbLine
 10
40.02599999995994
 20
5.341799999994635
 30
0.0
 11
40.02599999995994
 21
0.0
 31
0.0
1001
ACAD
1000
ASC_BOUNDS
1002
{
1070
    19
1005
19D89
1002
}
  0
LINE
  5
19D6C
330
19D42
100
AcDbEntity
  8
0
100
AcDbLine
 10
38.60499999996136
 20
8.999999999991019
 30
0.0
 11
38.60499999996136
 21
0.0
 31
0.0
1001
ACAD
1000
ASC_BOUNDS
1002
{
1070
    19
1005
19D89
1002
}
  0
LINE
  5
19D6D
330
19D42
100
AcDbEntity
  8
0
100
AcDbLine
 10
44.99999999995498
 20
8.763099999991255
 30
0.0
 11
44.99999999995498
 21
-0.2368999999997641
 31
0.0
1001
ACAD
1000
ASC_BOUNDS
1002
{
1070
    19
1005
19D89
1002
}
  0
LINE
  5
19D6E
330
19D42
100
AcDbEntity
  8
0
100
AcDbLine
 10
38.60499999996136
 20
0.0
 30
0.0
 11
40.02599999995994
 21
0.0
 31
0.0
1001
ACAD
1000
ASC_BOUNDS
1002
{
1070
    19
1005
19D89
1002
}
  0
LINE
  5
19D6F
330
19D42
100
AcDbEntity
  8
0
100
AcDbLine
 10
43.57899999995641
 20
3.421199999996588
 30
0.0
 11
38.60499999996136
 21
8.999899999990987
 31
0.0
1001
ACAD
1000
ASC_BOUNDS
1002
{
1070
    19
1005
19D89
1002
}
  0
LINE
  5
19D70
330
19D42
100
AcDbEntity
  8
0
100
AcDbLine
 10
43.57899999995641
 20
8.763099999991255
 30
0.0
 11
43.57899999995641
 21
3.421199999996588
 31
0.0
1001
ACAD
1000
ASC_BOUNDS
1002
{
1070
    19
1005
19D89
1002
}
  0
LINE
  5
19D71
330
19D42
100
AcDbEntity
  8
0
100
AcDbLine
 10
43.57899999995641
 20
8.763099999991255
 30
0.0
 11
44.99999999995498
 21
8.763099999991255
 31
0.0
1001
ACAD
1000
ASC_BOUNDS
1002
{
1070
    19
1005
19D89
1002
}
  0
LINE
  5
19D72
330
19D42
100
AcDbEntity
  8
0
100
AcDbLine
 10
37.67199999996831
 20
8.763099999991255
 30
0.0
 11
36.23199999996837
 21
8.763099999991255
 31
0.0
  0
LINE
  5
19D73
330
19D42
100
AcDbEntity
  8
0
100
AcDbLine
 10
31.64199999996833
 20
8.763099999991255
 30
0.0
 11
31.64199999996833
 21
2.481619422925121
 31
0.0
  0
LINE
  5
19D74
330
19D42
100
AcDbEntity
  8
0
100
AcDbLine
 10
37.67199999996831
 20
8.763099999991255
 30
0.0
 11
37.67199999996831
 21
2.481619422925121
 31
0.0
  0
LINE
  5
19D75
330
19D42
100
AcDbEntity
  8
0
100
AcDbLine
 10
36.23199999996837
 20
8.763099999991255
 30
0.0
 11
36.23199999996837
 21
2.481619422925064
 31
0.0
  0
LINE
  5
19D76
330
19D42
100
AcDbEntity
  8
0
100
AcDbLine
 10
33.08199999996839
 20
8.763099999991255
 30
0.0
 11
33.08199999996839
 21
2.481619422925121
 31
0.0
  0
ARC
  5
19D77
330
19D42
100
AcDbEntity
  8
0
100
AcDbCircle
 10
34.65699999996832
 20
3.183099999991214
 30
0.0
 40
3.420000000000007
100
AcDbArc
 50
240.0000000000255
 51
299.9999999999766
  0
ARC
  5
19D78
330
19D42
100
AcDbEntity
  8
0
100
AcDbCircle
 10
34.65699999996832
 20
3.183099999991214
 30
0.0
 40
1.97999999999999
100
AcDbArc
 50
240.000000000026
 51
299.9999999999703
  0
LINE
  5
19D79
330
19D42
100
AcDbEntity
  8
0
100
AcDbLine
 10
33.08199999996828
 20
8.763099999991255
 30
0.0
 11
31.64199999996833
 21
8.763099999991255
 31
0.0
  0
ARC
  5
19D7A
330
19D42
100
AcDbEntity
  8
0
100
AcDbCircle
 10
35.06199999996829
 20
2.481619422925064
 30
0.0
 40
1.17
100
AcDbArc
 50
299.9999999999699
 51
0.0
  0
ARC
  5
19D7B
330
19D42
100
AcDbEntity
  8
0
100
AcDbCircle
 10
34.25199999996835
 20
2.481619422925121
 30
0.0
 40
1.17
100
AcDbArc
 50
180.0
 51
240.0000000000238
  0
ARC
  5
19D7C
330
19D42
100
AcDbEntity
  8
0
100
AcDbCircle
 10
35.06199999996841
 20
2.481619422925121
 30
0.0
 40
2.61
100
AcDbArc
 50
299.9999999999756
 51
0.0
  0
ARC
  5
19D7D
330
19D42
100
AcDbEntity
  8
0
100
AcDbCircle
 10
34.25199999996835
 20
2.481619422925121
 30
0.0
 40
2.61
100
AcDbArc
 50
180.0
 51
240.0000000000244
  0
LINE
  5
19D7E
330
19D42
100
AcDbEntity
  8
0
100
AcDbLine
 10
29.30199999996933
 20
8.763099999991255
 30
0.0
 11
30.74199999996927
 21
8.763099999991255
 31
0.0
1001
ACAD
1000
ASC_BOUNDS
1002
{
1070
    19
1005
19D87
1002
}
  0
LINE
  5
19D7F
330
19D42
100
AcDbEntity
  8
0
100
AcDbLine
 10
30.74199999996927
 20
8.763099999991255
 30
0.0
 11
30.74199999996927
 21
2.373099999991211
 31
0.0
1001
ACAD
1000
ASC_BOUNDS
1002
{
1070
    19
1005
19D87
1002
}
  0
LINE
  5
19D80
330
19D42
100
AcDbEntity
  8
0
100
AcDbLine
 10
26.02015566812236
 20
0.0330999999912365
 30
0.0
 11
28.40199999996923
 21
0.0330999999912365
 31
0.0
1001
ACAD
1000
ASC_BOUNDS
1002
{
1070
    19
1005
19D87
1002
}
  0
LINE
  5
19D81
330
19D42
100
AcDbEntity
  8
0
100
AcDbLine
 10
29.30199999996933
 20
8.763099999991255
 30
0.0
 11
29.30199999996933
 21
2.283099999991236
 31
0.0
1001
ACAD
1000
ASC_BOUNDS
1002
{
1070
    19
1005
19D87
1002
}
  0
LINE
  5
19D82
330
19D42
100
AcDbEntity
  8
0
100
AcDbLine
 10
26.97358892824991
 20
1.383099999991202
 30
0.0
 11
28.40199999996923
 21
1.383099999991202
 31
0.0
1001
ACAD
1000
ASC_BOUNDS
1002
{
1070
    19
1005
19D87
1002
}
  0
ARC
  5
19D83
330
19D42
100
AcDbEntity
  8
0
100
AcDbCircle
 10
28.40199999996923
 20
2.283099999991236
 30
0.0
 40
0.9
100
AcDbArc
 50
270.0
 51
0.0
1001
ACAD
1000
ASC_BOUNDS
1002
{
1070
    19
1005
19D87
1002
}
  0
ARC
  5
19D84
330
19D42
100
AcDbEntity
  8
0
100
AcDbCircle
 10
28.40199999996923
 20
2.373099999991211
 30
0.0
 40
2.34
100
AcDbArc
 50
270.0
 51
0.0
1001
ACAD
1000
ASC_BOUNDS
1002
{
1070
    19
1005
19D87
1002
}
  0
INSERT
  5
19D85
330
19D42
100
AcDbEntity
  8
0
100
AcDbBlockReference
  2
*X42
 10
0.0
 20
0.0
 30
0.0
1001
ACAD
1000
HATCH
1002
{
1070
    19
1000
ANSI37
1040
0.15
1040
0.0
1000
ASC_BOUNDS
1070
     2
1070
     2
1070
    12
1005
19D44
1005
19D45
1005
19D4C
1005
19D5B
1005
19D5E
1005
19D5C
1005
19D4D
1005
19D52
1005
19D50
1005
19D54
1005
19D53
1005
19D55
1070
     2
1070
     3
1005
19D60
1005
19D62
1005
19D61
1000
ASC_SEEDPOINT
1011
3.614004224891801
1021
2.996669441146025
1031
0.0
1000
R14_HATCH_DATA
1000
19D85
1011
1.0
1021
0.0
1031
0.0
1011
0.0
1021
1.0
1031
0.0
1011
0.0
1021
0.0
1031
1.0
1040
0.0
1010
0.0
1020
0.0
1030
1.0
1000
ANSI37
1070
     0
1070
     1
1071
        2
1071
        7
1070
     0
1070
     1
1071
       17
1040
13.26299999998673
1040
-0.0001000000000317
1040
9.236999999990758
1040
8.999899999990987
1040
9.236999999990758
1040
8.999999999991019
1040
5.657999999994331
1040
0.9999999999989768
1040
3.181999999996833
1040
4.668599999995308
1040
6.432999999993513
1040
8.763099999991255
1040
4.617999999995391
1040
8.763099999991255
1040
1.420999999998571
1040
4.736799999995242
1040
4.617999999995391
1040
-0.0001000000000317
1040
4.617999999995391
1040
0.0
1040
6.766999999993232
1040
0.0
1040
6.766999999993232
1040
-0.0001000000000317
1040
7.826999999992154
1040
2.368399999997621
1040
10.64699999998936
1040
2.368399999997621
1040
11.70599999998831
1040
-0.0001000000000317
1040
11.70599999998831
1040
0.0
1040
13.26299999998673
1040
0.0
1071
       12
1005
19D44
1005
19D45
1005
19D4C
1005
19D5B
1005
19D5E
1005
19D5C
1005
19D4D
1005
19D52
1005
19D50
1005
19D54
1005
19D53
1005
19D55
1071
       22
1070
     0
1070
     1
1071
        3
1040
9.236999999990758
1040
5.5200999999945
1040
10.06399999998996
1040
3.670999999996297
1040
8.409999999991555
1040
3.670999999996297
1071
        3
1005
19D60
1005
19D62
1005
19D61
1070
     0
1070
     1
1040
0.0
1040
0.15
1070
     0
1070
     2
1040
0.7853981633974483
1040
49.29960901727088
1040
-10.17736998311392
1040
-0.3367596045400932
1040
0.3367596045400932
1070
     0
1040
2.356194490192345
1040
49.29960901727088
1040
-10.17736998311392
1040
-0.3367596045400932
1040
-0.3367596045400932
1070
     0
1040
0.0110235143455945
1071
        2
1040
3.614004224891801
1040
2.996669441146025
1040
0.0
1040
3.614004224891801
1040
2.996669441146025
1040
0.0
1002
}
  0
INSERT
  5
19D86
330
19D42
100
AcDbEntity
  8
0
100
AcDbBlockReference
  2
*X43
 10
0.0
 20
0.0
 30
0.0
1001
ACAD
1000
HATCH
1002
{
1070
    19
1000
ANSI37
1040
0.15
1040
0.0
1000
ASC_BOUNDS
1070
     1
1070
     2
1070
    10
1005
19D46
1005
19D47
1005
19D68
1005
19D66
1005
19D67
1005
19D5A
1005
19D5F
1005
19D63
1005
19D49
1005
19D48
1000
ASC_SEEDPOINT
1011
14.73245321214324
1021
2.798246178283421
1031
0.0
1000
R14_HATCH_DATA
1000
19D86
1011
1.0
1021
0.0
1031
0.0
1011
0.0
1021
1.0
1031
0.0
1011
0.0
1021
0.0
1031
1.0
1040
0.0
1010
0.0
1020
0.0
1030
1.0
1000
ANSI37
1070
     0
1070
     1
1071
        1
1071
        7
1070
     0
1070
     1
1071
       10
1040
16.46099999998353
1040
5.432899999994561
1040
18.59199999998134
1040
-0.2368999999997641
1040
22.38199999997767
1040
8.763099999991255
1040
20.89099999997916
1040
8.763099999991255
1040
18.59799999998143
1040
3.315799999996671
1040
16.46099999998353
1040
8.999899999990987
1040
14.32399999998563
1040
3.315799999996671
1040
12.02999999998792
1040
8.763099999991255
1040
10.53899999998941
1040
8.763099999991255
1040
14.32899999998563
1040
-0.2368999999997641
1071
       10
1005
19D46
1005
19D47
1005
19D68
1005
19D66
1005
19D67
1005
19D5A
1005
19D5F
1005
19D63
1005
19D49
1005
19D48
1070
     0
1070
     1
1040
0.0
1040
0.15
1070
     0
1070
     2
1040
0.7853981633974483
1040
49.29960901727088
1040
-10.17736998311392
1040
-0.3367596045400932
1040
0.3367596045400932
1070
     0
1040
2.356194490192345
1040
49.29960901727088
1040
-10.17736998311392
1040
-0.3367596045400932
1040
-0.3367596045400932
1070
     0
1040
0.0110235143455945
1071
        1
1040
14.73245321214324
1040
2.798246178283421
1040
0.0
1002
}
  0
INSERT
  5
19D87
330
19D42
100
AcDbEntity
  8
0
100
AcDbBlockReference
  2
*X44
 10
0.0
 20
0.0
 30
0.0
1001
ACAD
1000
HATCH
1002
{
1070
    19
1000
ANSI37
1040
0.15
1040
0.0
1000
ASC_BOUNDS
1070
     2
1070
     2
1070
    13
1005
19D4A
1005
19D57
1005
19D58
1005
19D56
1005
19D59
1005
19D80
1005
19D84
1005
19D7F
1005
19D7E
1005
19D81
1005
19D83
1005
19D82
1005
19D4B
1070
     2
1070
     3
1005
19D64
1005
19D69
1005
19D65
1000
ASC_SEEDPOINT
1011
21.97929957367762
1021
3.294304244259308
1031
0.0
1000
R14_HATCH_DATA
1000
19D87
1011
1.0
1021
0.0
1031
0.0
1011
0.0
1021
1.0
1031
0.0
1011
0.0
1021
0.0
1031
1.0
1040
0.0
1010
0.0
1020
0.0
1030
1.0
1000
ANSI37
1070
     0
1070
     1
1071
        2
1071
        7
1070
     1
1070
     1
1071
       15
1040
23.56599999997638
1040
8.999899999990987
1040
0.0
1040
19.53899999998043
1040
-0.0001000000000317
1040
0.0
1040
19.53899999998043
1040
0.0
1040
0.0
1040
21.09599999997886
1040
0.0
1040
0.0
1040
21.09599999997886
1040
-0.0001000000000317
1040
0.0
1040
22.15599999997789
1040
2.368399999997621
1040
0.0
1040
24.97599999997499
1040
2.368399999997621
1040
0.0
1040
26.02015566812236
1040
0.0330999999912365
1040
0.0
1040
28.40199999996923
1040
0.0330999999912365
1040
0.414213562373095
1040
30.74199999996923
1040
2.373099999991211
1040
0.0
1040
30.74199999996927
1040
8.763099999991255
1040
0.0
1040
29.30199999996933
1040
8.763099999991255
1040
0.0
1040
29.30199999996933
1040
2.283099999991236
1040
-0.414213562373095
1040
28.40199999996923
1040
1.383099999991237
1040
0.0
1040
26.97358892824991
1040
1.383099999991202
1040
0.0
1071
       13
1005
19D4A
1005
19D57
1005
19D58
1005
19D56
1005
19D59
1005
19D80
1005
19D84
1005
19D7F
1005
19D7E
1005
19D81
1005
19D83
1005
19D82
1005
19D4B
1071
       22
1070
     0
1070
     1
1071
        3
1040
22.7389999999773
1040
3.670999999996297
1040
23.56599999997638
1040
5.5200999999945
1040
24.39299999997559
1040
3.670999999996297
1071
        3
1005
19D64
1005
19D69
1005
19D65
1070
     0
1070
     1
1040
0.0
1040
0.15
1070
     0
1070
     2
1040
0.7853981633974483
1040
49.29960901727088
1040
-10.17736998311392
1040
-0.3367596045400932
1040
0.3367596045400932
1070
     0
1040
2.356194490192345
1040
49.29960901727088
1040
-10.17736998311392
1040
-0.3367596045400932
1040
-0.3367596045400932
1070
     0
1040
0.0110235143455945
1071
        2
1040
21.97929957367762
1040
3.294304244259308
1040
0.0
1040
21.97929957367762
1040
3.294304244259308
1040
0.0
1002
}
  0
INSERT
  5
19D88
330
19D42
100
AcDbEntity
  8
0
100
AcDbBlockReference
  2
*X45
 10
0.0
 20
0.0
 30
0.0
1001
ACAD
1000
HATCH
1002
{
1070
    19
1000
ANSI37
1040
0.15
1040
0.0
1000
R14_HATCH_DATA
1000
19D88
1011
1.0
1021
0.0
1031
0.0
1011
0.0
1021
1.0
1031
0.0
1011
0.0
1021
0.0
1031
1.0
1040
0.0
1010
0.0
1020
0.0
1030
1.0
1000
ANSI37
1070
     0
1070
     1
1071
        1
1071
        7
1070
     1
1070
     1
1071
       12
1040
31.64199999996833
1040
2.481619422925121
1040
0.2679491924310942
1040
32.94699999997067
1040
0.2212931190493919
1040
0.2679491924301353
1040
36.36699999995983
1040
0.2212931190459813
1040
0.2679491924321411
1040
37.67199999996831
1040
2.481619422928361
1040
0.0
1040
37.67199999996831
1040
8.763099999991255
1040
0.0
1040
36.23199999996837
1040
8.763099999991255
1040
0.0
1040
36.23199999996837
1040
2.481619422925064
1040
-0.2679491924310291
1040
35.64699999996708
1040
1.468369700498386
1040
-0.267949192430519
1040
33.66699999997093
1040
1.468369700497703
1040
-0.267949192431809
1040
33.08199999996839
1040
2.481619422926997
1040
0.0
1040
33.08199999996839
1040
8.763099999991255
1040
0.0
1040
31.64199999996833
1040
8.763099999991255
1040
0.0
1071
        0
1070
     0
1070
     1
1040
0.0
1040
0.15
1070
     0
1070
     2
1040
0.7853981633974483
1040
49.29960901727088
1040
-10.17736998311392
1040
-0.3367596045400932
1040
0.3367596045400932
1070
     0
1040
2.356194490192345
1040
49.29960901727088
1040
-10.17736998311392
1040
-0.3367596045400932
1040
-0.3367596045400932
1070
     0
1040
0.0110235143455945
1071
        1
1040
32.30357378967278
1040
3.988785755459219
1040
0.0
1002
}
  0
INSERT
  5
19D89
330
19D42
100
AcDbEntity
  8
0
100
AcDbBlockReference
  2
*X46
 10
0.0
 20
0.0
 30
0.0
1001
ACAD
1000
HATCH
1002
{
1070
    19
1000
ANSI37
1040
0.15
1040
0.0
1000
ASC_BOUNDS
1070
     1
1070
     2
1070
     8
1005
19D6A
1005
19D6D
1005
19D71
1005
19D70
1005
19D6F
1005
19D6C
1005
19D6E
1005
19D6B
1000
ASC_SEEDPOINT
1011
39.74896370716704
1021
4.484843821435049
1031
0.0
1000
R14_HATCH_DATA
1000
19D89
1011
1.0
1021
0.0
1031
0.0
1011
0.0
1021
1.0
1031
0.0
1011
0.0
1021
0.0
1031
1.0
1040
0.0
1010
0.0
1020
0.0
1030
1.0
1000
ANSI37
1070
     0
1070
     1
1071
        1
1071
        7
1070
     0
1070
     1
1071
        9
1040
40.02599999995994
1040
5.341799999994635
1040
44.99999999995498
1040
-0.2368999999997641
1040
44.99999999995498
1040
8.763099999991255
1040
43.57899999995641
1040
8.763099999991255
1040
43.57899999995641
1040
3.421199999996588
1040
38.60499999996136
1040
8.999899999990987
1040
38.60499999996136
1040
8.999999999991019
1040
38.60499999996136
1040
0.0
1040
40.02599999995994
1040
0.0
1071
        8
1005
19D6A
1005
19D6D
1005
19D71
1005
19D70
1005
19D6F
1005
19D6C
1005
19D6E
1005
19D6B
1070
     0
1070
     1
1040
0.0
1040
0.15
1070
     0
1070
     2
1040
0.7853981633974483
1040
49.29960901727088
1040
-10.17736998311392
1040
-0.3367596045400932
1040
0.3367596045400932
1070
     0
1040
2.356194490192345
1040
49.29960901727088
1040
-10.17736998311392
1040
-0.3367596045400932
1040
-0.3367596045400932
1070
     0
1040
0.0110235143455945
1071
        1
1040
39.74896370716704
1040
4.484843821435049
1040
0.0
1002
}
  0
INSERT
  5
19D8A
330
19D42
100
AcDbEntity
  8
0
100
AcDbBlockReference
  2
*X47
 10
0.0
 20
0.0
 30
0.0
1001
ACAD
1000
HATCH
1002
{
1070
    19
1000
ANSI37
1040
0.15
1040
0.0
1000
ASC_BOUNDS
1070
     1
1070
     2
1070
     4
1005
19D4E
1005
19D5D
1005
19D4F
1005
19D51
1000
ASC_SEEDPOINT
1011
1.079051535452663
1021
4.148538732891836
1031
0.0
1000
R14_HATCH_DATA
1000
19D8A
1011
1.0
1021
0.0
1031
0.0
1011
0.0
1021
1.0
1031
0.0
1011
0.0
1021
0.0
1031
1.0
1040
0.0
1010
0.0
1020
0.0
1030
1.0
1000
ANSI37
1070
     0
1070
     1
1071
        1
1071
        7
1070
     0
1070
     1
1071
        4
1040
1.420999999998571
1040
0.0
1040
1.420999999998571
1040
8.763099999991255
1040
0.0
1040
8.763099999991255
1040
0.0
1040
0.0
1071
        4
1005
19D4E
1005
19D5D
1005
19D4F
1005
19D51
1070
     0
1070
     1
1040
0.0
1040
0.15
1070
     0
1070
     2
1040
0.7853981633974483
1040
49.29960901727088
1040
-10.17736998311392
1040
-0.3367596045400932
1040
0.3367596045400932
1070
     0
1040
2.356194490192345
1040
49.29960901727088
1040
-10.17736998311392
1040
-0.3367596045400932
1040
-0.3367596045400932
1070
     0
1040
0.0053004257112761
1071
        1
1040
1.079051535452663
1040
4.148538732891836
1040
0.0
1002
}
  0
ENDBLK
  5
1A551
330
19D42
100
AcDbEntity
  8
0
100
AcDbBlockEnd
  0
BLOCK
  5
1B39F
330
1B211
100
AcDbEntity
  8
0
100
AcDbBlockBegin
  2
*X42
 70
     1
 10
0.0
 20
0.0
 30
0.0
  3
*X42
  1

  0
LINE
  5
1B212
330
1B211
100
AcDbEntity
  8
0
  6
CONTINUOUS
100
AcDbLine
 10
3.418023043697893
 20
7.251849696850613
 30
0.0
 11
4.929273346838536
 21
8.763099999991255
 31
0.0
  0
LINE
  5
1B213
330
1B211
100
AcDbEntity
  8
0
  6
CONTINUOUS
100
AcDbLine
 10
1.483656411257782
 20
4.643963855330318
 30
0.0
 11
5.60279255591872
 21
8.763099999991255
 31
0.0
  0
LINE
  5
1B214
330
1B211
100
AcDbEntity
  8
0
  6
CONTINUOUS
100
AcDbLine
 10
1.755053947328235
 20
4.241842182320584
 30
0.0
 11
6.276311764998907
 21
8.763099999991255
 31
0.0
  0
LINE
  5
1B215
330
1B211
100
AcDbEntity
  8
0
  6
CONTINUOUS
100
AcDbLine
 10
2.026451483398688
 20
3.839720509310849
 30
0.0
 11
4.441040904851878
 21
6.254309930764039
 31
0.0
  0
LINE
  5
1B216
330
1B211
100
AcDbEntity
  8
0
  6
CONTINUOUS
100
AcDbLine
 10
2.297849019469139
 20
3.437598836301114
 30
0.0
 11
3.321765168359338
 21
4.461514985191313
 31
0.0
  0
LINE
  5
1B217
330
1B211
100
AcDbEntity
  8
0
  6
CONTINUOUS
100
AcDbLine
 10
2.569246555539591
 20
3.03547716329138
 30
0.0
 11
3.593163397972743
 21
4.059394005724531
 31
0.0
  0
LINE
  5
1B218
330
1B211
100
AcDbEntity
  8
0
  6
CONTINUOUS
100
AcDbLine
 10
2.840644091610043
 20
2.633355490281646
 30
0.0
 11
3.864561627586149
 21
3.657273026257751
 31
0.0
  0
LINE
  5
1B219
330
1B211
100
AcDbEntity
  8
0
  6
CONTINUOUS
100
AcDbLine
 10
3.112041627680496
 20
2.231233817271911
 30
0.0
 11
4.135959857199554
 21
3.25515204679097
 31
0.0
  0
LINE
  5
1B21A
330
1B211
100
AcDbEntity
  8
0
  6
CONTINUOUS
100
AcDbLine
 10
3.383439163750948
 20
1.829112144262177
 30
0.0
 11
4.40735808681296
 21
2.853031067324189
 31
0.0
  0
LINE
  5
1B21B
330
1B211
100
AcDbEntity
  8
0
  6
CONTINUOUS
100
AcDbLine
 10
3.654836699821399
 20
1.426990471252442
 30
0.0
 11
4.678756316426365
 21
2.450910087857407
 31
0.0
  0
LINE
  5
1B21C
330
1B211
100
AcDbEntity
  8
0
  6
CONTINUOUS
100
AcDbLine
 10
3.926234235891853
 20
1.024868798242709
 30
0.0
 11
4.95015454603977
 21
2.048789108390626
 31
0.0
  0
LINE
  5
1B21D
330
1B211
100
AcDbEntity
  8
0
  6
CONTINUOUS
100
AcDbLine
 10
4.197631771962304
 20
0.6227471252329737
 30
0.0
 11
5.221552775653176
 21
1.646668128923846
 31
0.0
  0
LINE
  5
1B21E
330
1B211
100
AcDbEntity
  8
0
  6
CONTINUOUS
100
AcDbLine
 10
8.715877546767851
 20
7.835069736359266
 30
0.0
 11
9.435953450375058
 21
8.555145639966472
 31
0.0
  0
LINE
  5
1B21F
330
1B211
100
AcDbEntity
  8
0
  6
CONTINUOUS
100
AcDbLine
 10
8.170620868422267
 20
6.616293848933497
 30
0.0
 11
9.644120833743461
 21
8.08979381425469
 31
0.0
  0
LINE
  5
1B220
330
1B211
100
AcDbEntity
  8
0
  6
CONTINUOUS
100
AcDbLine
 10
7.625364190076684
 20
5.397517961507727
 30
0.0
 11
9.852288217111864
 21
7.624441988542907
 31
0.0
  0
LINE
  5
1B221
330
1B211
100
AcDbEntity
  8
0
  6
CONTINUOUS
100
AcDbLine
 10
7.080107511731101
 20
4.178742074081957
 30
0.0
 11
10.06045560048027
 21
7.159090162831124
 31
0.0
  0
LINE
  5
1B222
330
1B211
100
AcDbEntity
  8
0
  6
CONTINUOUS
100
AcDbLine
 10
6.534850833385518
 20
2.959966186656187
 30
0.0
 11
10.26862298384867
 21
6.693738337119342
 31
0.0
  0
LINE
  5
1B223
330
1B211
100
AcDbEntity
  8
0
  6
CONTINUOUS
100
AcDbLine
 10
4.469029308032756
 20
0.2206254522232385
 30
0.0
 11
5.492951005266582
 21
1.244547149457064
 31
0.0
  0
LINE
  5
1B224
330
1B211
100
AcDbEntity
  8
0
  6
CONTINUOUS
100
AcDbLine
 10
5.989594155039935
 20
1.741190299230417
 30
0.0
 11
8.806950407233131
 21
4.558546551423613
 31
0.0
  0
LINE
  5
1B225
330
1B211
100
AcDbEntity
  8
0
  6
CONTINUOUS
100
AcDbLine
 10
9.401251593263643
 20
5.152847737454126
 30
0.0
 11
10.47679036721708
 21
6.228386511407559
 31
0.0
  0
LINE
  5
1B226
330
1B211
100
AcDbEntity
  8
0
  6
CONTINUOUS
100
AcDbLine
 10
4.921837203428691
 20
-0.0000858614610131
 30
0.0
 11
8.592923064886001
 21
3.670999999996297
 31
0.0
  0
LINE
  5
1B227
330
1B211
100
AcDbEntity
  8
0
  6
CONTINUOUS
100
AcDbLine
 10
9.609390446785305
 20
4.6874673818956
 30
0.0
 11
10.68495775058548
 21
5.763034685695775
 31
0.0
  0
LINE
  5
1B228
330
1B211
100
AcDbEntity
  8
0
  6
CONTINUOUS
100
AcDbLine
 10
5.595387755019432
 20
-0.0000545189504582
 30
0.0
 11
7.716137258923768
 21
2.120694984953879
 31
0.0
  0
LINE
  5
1B229
330
1B211
100
AcDbEntity
  8
0
  6
CONTINUOUS
100
AcDbLine
 10
6.268938306610172
 20
-0.000023176439905
 30
0.0
 11
7.170485805526503
 21
0.9015243224764267
 31
0.0
  0
LINE
  5
1B22A
330
1B211
100
AcDbEntity
  8
0
  6
CONTINUOUS
100
AcDbLine
 10
7.963842273967511
 20
2.368399999997621
 30
0.0
 11
9.266442273966188
 21
3.670999999996297
 31
0.0
  0
LINE
  5
1B22B
330
1B211
100
AcDbEntity
  8
0
  6
CONTINUOUS
100
AcDbLine
 10
8.637361483047696
 20
2.368399999997621
 30
0.0
 11
9.939961483046375
 21
3.670999999996297
 31
0.0
  0
LINE
  5
1B22C
330
1B211
100
AcDbEntity
  8
0
  6
CONTINUOUS
100
AcDbLine
 10
9.817529300306965
 20
4.222087026337075
 30
0.0
 11
10.89312513395388
 21
5.297682859983993
 31
0.0
  0
LINE
  5
1B22D
330
1B211
100
AcDbEntity
  8
0
  6
CONTINUOUS
100
AcDbLine
 10
10.02566815382863
 20
3.756706670778549
 30
0.0
 11
11.10129251732229
 21
4.832331034272211
 31
0.0
  0
LINE
  5
1B22E
330
1B211
100
AcDbEntity
  8
0
  6
CONTINUOUS
100
AcDbLine
 10
9.310880692127883
 20
2.368399999997621
 30
0.0
 11
11.30945990069069
 21
4.366979208560428
 31
0.0
  0
LINE
  5
1B22F
330
1B211
100
AcDbEntity
  8
0
  6
CONTINUOUS
100
AcDbLine
 10
9.98439990120807
 20
2.36839999999762
 30
0.0
 11
11.5176272840591
 21
3.901627382848645
 31
0.0
  0
LINE
  5
1B230
330
1B211
100
AcDbEntity
  8
0
  6
CONTINUOUS
100
AcDbLine
 10
10.65037369446246
 20
2.36085458417182
 30
0.0
 11
11.7257946674275
 21
3.436275557136862
 31
0.0
  0
LINE
  5
1B231
330
1B211
100
AcDbEntity
  8
0
  6
CONTINUOUS
100
AcDbLine
 10
10.85847197087848
 20
1.895433651507656
 30
0.0
 11
11.9339620507959
 21
2.97092373142508
 31
0.0
  0
LINE
  5
1B232
330
1B211
100
AcDbEntity
  8
0
  6
CONTINUOUS
100
AcDbLine
 10
11.0665702472945
 20
1.430012718843491
 30
0.0
 11
12.14212943416431
 21
2.505571905713296
 31
0.0
  0
LINE
  5
1B233
330
1B211
100
AcDbEntity
  8
0
  6
CONTINUOUS
100
AcDbLine
 10
11.27466852371052
 20
0.9645917861793256
 30
0.0
 11
12.35029681753271
 21
2.040220080001513
 31
0.0
  0
LINE
  5
1B234
330
1B211
100
AcDbEntity
  8
0
  6
CONTINUOUS
100
AcDbLine
 10
11.48276680012654
 20
0.4991708535151611
 30
0.0
 11
12.55846420090111
 21
1.57486825428973
 31
0.0
  0
LINE
  5
1B235
330
1B211
100
AcDbEntity
  8
0
  6
CONTINUOUS
100
AcDbLine
 10
11.69086507654257
 20
0.0337499208509957
 30
0.0
 11
12.76663158426952
 21
1.109516428577947
 31
0.0
  0
LINE
  5
1B236
330
1B211
100
AcDbEntity
  8
0
  6
CONTINUOUS
100
AcDbLine
 10
12.33057447873954
 20
-0.0000598860322123
 30
0.0
 11
12.97479896763792
 21
0.6441646028661663
 31
0.0
  0
LINE
  5
1B237
330
1B211
100
AcDbEntity
  8
0
  6
CONTINUOUS
100
AcDbLine
 10
13.00413694809395
 20
-0.0000166257579952
 30
0.0
 11
13.18296635100632
 21
0.1788127771543824
 31
0.0
  0
LINE
  5
1B238
330
1B211
100
AcDbEntity
  8
0
  6
CONTINUOUS
100
AcDbLine
 10
4.772852165289667
 20
-0.000092794222212
 30
0.0
 11
4.296495091028902
 21
0.4762642800385528
 31
0.0
  0
LINE
  5
1B239
330
1B211
100
AcDbEntity
  8
0
  6
CONTINUOUS
100
AcDbLine
 10
5.446340034776103
 20
-0.0000614546284616
 30
0.0
 11
2.898195908335625
 21
2.548082671812017
 31
0.0
  0
LINE
  5
1B23A
330
1B211
100
AcDbEntity
  8
0
  6
CONTINUOUS
100
AcDbLine
 10
6.119827904262539
 20
-0.0000301150347113
 30
0.0
 11
1.499896725642348
 21
4.61990106358548
 31
0.0
  0
LINE
  5
1B23B
330
1B211
100
AcDbEntity
  8
0
  6
CONTINUOUS
100
AcDbLine
 10
6.775136745476159
 20
0.0181802528318542
 30
0.0
 11
5.699826040202669
 21
1.093490958105344
 31
0.0
  0
LINE
  5
1B23C
330
1B211
100
AcDbEntity
  8
0
  6
CONTINUOUS
100
AcDbLine
 10
6.983376846288489
 20
0.4834593610997118
 30
0.0
 11
5.908008617934405
 21
1.558827589453796
 31
0.0
  0
LINE
  5
1B23D
330
1B211
100
AcDbEntity
  8
0
  6
CONTINUOUS
100
AcDbLine
 10
5.377063484962296
 20
1.416253513345719
 30
0.0
 11
1.702276957014131
 21
5.091040041293883
 31
0.0
  0
LINE
  5
1B23E
330
1B211
100
AcDbEntity
  8
0
  6
CONTINUOUS
100
AcDbLine
 10
3.978745891735324
 20
3.488090315652877
 30
0.0
 11
2.000373521109399
 21
5.466462686278803
 31
0.0
  0
LINE
  5
1B23F
330
1B211
100
AcDbEntity
  8
0
  6
CONTINUOUS
100
AcDbLine
 10
7.191616947100819
 20
0.948738469367568
 30
0.0
 11
6.11619119566614
 21
2.024164220802247
 31
0.0
  0
LINE
  5
1B240
330
1B211
100
AcDbEntity
  8
0
  6
CONTINUOUS
100
AcDbLine
 10
7.399857047913149
 20
1.414017577635424
 30
0.0
 11
6.324373773397875
 21
2.489500852150698
 31
0.0
  0
LINE
  5
1B241
330
1B211
100
AcDbEntity
  8
0
  6
CONTINUOUS
100
AcDbLine
 10
7.608097148725479
 20
1.879296685903281
 30
0.0
 11
6.53255635112961
 21
2.95483748349915
 31
0.0
  0
LINE
  5
1B242
330
1B211
100
AcDbEntity
  8
0
  6
CONTINUOUS
100
AcDbLine
 10
7.816337249537808
 20
2.344575794171138
 30
0.0
 11
6.740738928861345
 21
3.420174114847601
 31
0.0
  0
LINE
  5
1B243
330
1B211
100
AcDbEntity
  8
0
  6
CONTINUOUS
100
AcDbLine
 10
3.310241080789734
 20
4.830114335678653
 30
0.0
 11
2.298470085204666
 21
5.84188533126372
 31
0.0
  0
LINE
  5
1B244
330
1B211
100
AcDbEntity
  8
0
  6
CONTINUOUS
100
AcDbLine
 10
3.60832983563551
 20
5.205544789913063
 30
0.0
 11
2.596566649299935
 21
6.217307976248638
 31
0.0
  0
LINE
  5
1B245
330
1B211
100
AcDbEntity
  8
0
  6
CONTINUOUS
100
AcDbLine
 10
3.906418590481286
 20
5.580975244147473
 30
0.0
 11
2.894663213395203
 21
6.592730621233557
 31
0.0
  0
LINE
  5
1B246
330
1B211
100
AcDbEntity
  8
0
  6
CONTINUOUS
100
AcDbLine
 10
4.204507345327062
 20
5.956405698381884
 30
0.0
 11
3.192759777490472
 21
6.968153266218474
 31
0.0
  0
LINE
  5
1B247
330
1B211
100
AcDbEntity
  8
0
  6
CONTINUOUS
100
AcDbLine
 10
8.466032252791512
 20
2.368399999997621
 30
0.0
 11
6.948921506593081
 21
3.885510746196053
 31
0.0
  0
LINE
  5
1B248
330
1B211
100
AcDbEntity
  8
0
  6
CONTINUOUS
100
AcDbLine
 10
9.139551461871699
 20
2.36839999999762
 30
0.0
 11
7.157104084324816
 21
4.350847377544504
 31
0.0
  0
LINE
  5
1B249
330
1B211
100
AcDbEntity
  8
0
  6
CONTINUOUS
100
AcDbLine
 10
4.502596100172839
 20
6.331836152616295
 30
0.0
 11
3.49085634158574
 21
7.343575911203393
 31
0.0
  0
LINE
  5
1B24A
330
1B211
100
AcDbEntity
  8
0
  6
CONTINUOUS
100
AcDbLine
 10
4.800684855018615
 20
6.707266606850705
 30
0.0
 11
3.788952905681008
 21
7.718998556188312
 31
0.0
  0
LINE
  5
1B24B
330
1B211
100
AcDbEntity
  8
0
  6
CONTINUOUS
100
AcDbLine
 10
12.18154012887317
 20
-0.0000694579236642
 30
0.0
 11
11.32140332908496
 21
0.8600673418645499
 31
0.0
  0
LINE
  5
1B24C
330
1B211
100
AcDbEntity
  8
0
  6
CONTINUOUS
100
AcDbLine
 10
12.85501608323566
 20
-0.0000262032059659
 30
0.0
 11
10.77672456435345
 21
2.078265315676246
 31
0.0
  0
LINE
  5
1B24D
330
1B211
100
AcDbEntity
  8
0
  6
CONTINUOUS
100
AcDbLine
 10
9.813070670951886
 20
2.36839999999762
 30
0.0
 11
8.51047067095321
 21
3.670999999996297
 31
0.0
  0
LINE
  5
1B24E
330
1B211
100
AcDbEntity
  8
0
  6
CONTINUOUS
100
AcDbLine
 10
10.48658988003207
 20
2.36839999999762
 30
0.0
 11
9.183989880033396
 21
3.670999999996297
 31
0.0
  0
LINE
  5
1B24F
330
1B211
100
AcDbEntity
  8
0
  6
CONTINUOUS
100
AcDbLine
 10
8.441048632286794
 20
3.740422038662712
 30
0.0
 11
7.365286662056551
 21
4.816184008892956
 31
0.0
  0
LINE
  5
1B250
330
1B211
100
AcDbEntity
  8
0
  6
CONTINUOUS
100
AcDbLine
 10
8.649187485808454
 20
4.205802394221237
 30
0.0
 11
7.573469239788285
 21
5.281520640241407
 31
0.0
  0
LINE
  5
1B251
330
1B211
100
AcDbEntity
  8
0
  6
CONTINUOUS
100
AcDbLine
 10
5.098773609864391
 20
7.082697061085115
 30
0.0
 11
4.087049469776277
 21
8.09442120117323
 31
0.0
  0
LINE
  5
1B252
330
1B211
100
AcDbEntity
  8
0
  6
CONTINUOUS
100
AcDbLine
 10
5.396862364710167
 20
7.458127515319526
 30
0.0
 11
4.385146033871544
 21
8.469843846158149
 31
0.0
  0
LINE
  5
1B253
330
1B211
100
AcDbEntity
  8
0
  6
CONTINUOUS
100
AcDbLine
 10
13.04801363231285
 20
0.4804954567970334
 30
0.0
 11
9.85750908911358
 21
3.670999999996297
 31
0.0
  0
LINE
  5
1B254
330
1B211
100
AcDbEntity
  8
0
  6
CONTINUOUS
100
AcDbLine
 10
8.857326339330116
 20
4.671182749779763
 30
0.0
 11
7.781651817520021
 21
5.746857271589858
 31
0.0
  0
LINE
  5
1B255
330
1B211
100
AcDbEntity
  8
0
  6
CONTINUOUS
100
AcDbLine
 10
5.694951119555943
 20
7.833557969553937
 30
0.0
 11
4.765409089118624
 21
8.763099999991255
 31
0.0
  0
LINE
  5
1B256
330
1B211
100
AcDbEntity
  8
0
  6
CONTINUOUS
100
AcDbLine
 10
12.50286117236978
 20
1.699167125820288
 30
0.0
 11
9.68611877250287
 21
4.515909525687196
 31
0.0
  0
LINE
  5
1B257
330
1B211
100
AcDbEntity
  8
0
  6
CONTINUOUS
100
AcDbLine
 10
9.065465192851777
 20
5.136563105338288
 30
0.0
 11
7.989834395251757
 21
6.21219390293831
 31
0.0
  0
LINE
  5
1B258
330
1B211
100
AcDbEntity
  8
0
  6
CONTINUOUS
100
AcDbLine
 10
5.993039874401719
 20
8.208988423788346
 30
0.0
 11
5.43892829819881
 21
8.763099999991255
 31
0.0
  0
LINE
  5
1B259
330
1B211
100
AcDbEntity
  8
0
  6
CONTINUOUS
100
AcDbLine
 10
11.95770871242671
 20
2.917838794843543
 30
0.0
 11
8.19801697298349
 21
6.677530534286761
 31
0.0
  0
LINE
  5
1B25A
330
1B211
100
AcDbEntity
  8
0
  6
CONTINUOUS
100
AcDbLine
 10
6.291128629247495
 20
8.584418878022756
 30
0.0
 11
6.112447507278997
 21
8.763099999991255
 31
0.0
  0
LINE
  5
1B25B
330
1B211
100
AcDbEntity
  8
0
  6
CONTINUOUS
100
AcDbLine
 10
11.41255625248364
 20
4.136510463866797
 30
0.0
 11
8.406199550715227
 21
7.142867165635211
 31
0.0
  0
LINE
  5
1B25C
330
1B211
100
AcDbEntity
  8
0
  6
CONTINUOUS
100
AcDbLine
 10
10.86740379254057
 20
5.355182132890051
 30
0.0
 11
8.614382128446962
 21
7.608203796983664
 31
0.0
  0
LINE
  5
1B25D
330
1B211
100
AcDbEntity
  8
0
  6
CONTINUOUS
100
AcDbLine
 10
10.3222513325975
 20
6.573853801913305
 30
0.0
 11
8.822564706178696
 21
8.073540428332114
 31
0.0
  0
LINE
  5
1B25E
330
1B211
100
AcDbEntity
  8
0
  6
CONTINUOUS
100
AcDbLine
 10
9.777098872654436
 20
7.792525470936562
 30
0.0
 11
9.030747283910433
 21
8.538877059680566
 31
0.0
  0
ENDBLK
  5
1B3A0
330
1B211
100
AcDbEntity
  8
0
100
AcDbBlockEnd
  0
BLOCK
  5
1B3A1
330
1B25F
100
AcDbEntity
  8
0
100
AcDbBlockBegin
  2
*X43
 70
     1
 10
0.0
 20
0.0
 30
0.0
  3
*X43
  1

  0
LINE
  5
1B260
330
1B25F
100
AcDbEntity
  8
0
  6
CONTINUOUS
100
AcDbLine
 10
10.67292308101235
 20
8.445076852443387
 30
0.0
 11
10.99094622856022
 21
8.763099999991255
 31
0.0
  0
LINE
  5
1B261
330
1B25F
100
AcDbEntity
  8
0
  6
CONTINUOUS
100
AcDbLine
 10
10.87250383178748
 20
7.971138394138331
 30
0.0
 11
11.6644654376404
 21
8.763099999991255
 31
0.0
  0
LINE
  5
1B262
330
1B25F
100
AcDbEntity
  8
0
  6
CONTINUOUS
100
AcDbLine
 10
11.07208458256261
 20
7.497199935833273
 30
0.0
 11
12.12126590876355
 21
8.546381262034211
 31
0.0
  0
LINE
  5
1B263
330
1B25F
100
AcDbEntity
  8
0
  6
CONTINUOUS
100
AcDbLine
 10
11.27166533333774
 20
7.023261477528216
 30
0.0
 11
12.32085164573666
 21
8.072447789927136
 31
0.0
  0
LINE
  5
1B264
330
1B25F
100
AcDbEntity
  8
0
  6
CONTINUOUS
100
AcDbLine
 10
11.47124608411287
 20
6.549323019223158
 30
0.0
 11
12.52043738270977
 21
7.59851431782006
 31
0.0
  0
LINE
  5
1B265
330
1B25F
100
AcDbEntity
  8
0
  6
CONTINUOUS
100
AcDbLine
 10
11.670826834888
 20
6.075384560918101
 30
0.0
 11
12.72002311968288
 21
7.124580845712984
 31
0.0
  0
LINE
  5
1B266
330
1B25F
100
AcDbEntity
  8
0
  6
CONTINUOUS
100
AcDbLine
 10
11.87040758566313
 20
5.601446102613043
 30
0.0
 11
12.91960885665599
 21
6.650647373605907
 31
0.0
  0
LINE
  5
1B267
330
1B25F
100
AcDbEntity
  8
0
  6
CONTINUOUS
100
AcDbLine
 10
12.06998833643825
 20
5.127507644307986
 30
0.0
 11
13.1191945936291
 21
6.176713901498832
 31
0.0
  0
LINE
  5
1B268
330
1B25F
100
AcDbEntity
  8
0
  6
CONTINUOUS
100
AcDbLine
 10
12.26956908721338
 20
4.65356918600293
 30
0.0
 11
13.31878033060221
 21
5.702780429391757
 31
0.0
  0
LINE
  5
1B269
330
1B25F
100
AcDbEntity
  8
0
  6
CONTINUOUS
100
AcDbLine
 10
12.46914983798851
 20
4.179630727697873
 30
0.0
 11
13.51836606757532
 21
5.228846957284683
 31
0.0
  0
LINE
  5
1B26A
330
1B25F
100
AcDbEntity
  8
0
  6
CONTINUOUS
100
AcDbLine
 10
12.66873058876364
 20
3.705692269392816
 30
0.0
 11
13.71795180454843
 21
4.754913485177607
 31
0.0
  0
LINE
  5
1B26B
330
1B25F
100
AcDbEntity
  8
0
  6
CONTINUOUS
100
AcDbLine
 10
12.86831133953877
 20
3.231753811087759
 30
0.0
 11
13.91753754152154
 21
4.280980013070531
 31
0.0
  0
LINE
  5
1B26C
330
1B25F
100
AcDbEntity
  8
0
  6
CONTINUOUS
100
AcDbLine
 10
13.0678920903139
 20
2.757815352782702
 30
0.0
 11
14.11712327849465
 21
3.807046540963456
 31
0.0
  0
LINE
  5
1B26D
330
1B25F
100
AcDbEntity
  8
0
  6
CONTINUOUS
100
AcDbLine
 10
13.26747284108903
 20
2.283876894477644
 30
0.0
 11
14.31670901546777
 21
3.333113068856379
 31
0.0
  0
LINE
  5
1B26E
330
1B25F
100
AcDbEntity
  8
0
  6
CONTINUOUS
100
AcDbLine
 10
16.36767838827179
 20
8.751678487061342
 30
0.0
 11
16.50332410898388
 21
8.887324207773432
 31
0.0
  0
LINE
  5
1B26F
330
1B25F
100
AcDbEntity
  8
0
  6
CONTINUOUS
100
AcDbLine
 10
15.96190732182191
 20
7.67238821153127
 30
0.0
 11
16.68735328004734
 21
8.397834169756699
 31
0.0
  0
LINE
  5
1B270
330
1B25F
100
AcDbEntity
  8
0
  6
CONTINUOUS
100
AcDbLine
 10
15.55613625537202
 20
6.593097936001196
 30
0.0
 11
16.87138245111079
 21
7.908344131739965
 31
0.0
  0
LINE
  5
1B271
330
1B25F
100
AcDbEntity
  8
0
  6
CONTINUOUS
100
AcDbLine
 10
15.15036518892213
 20
5.513807660471122
 30
0.0
 11
17.05541162217424
 21
7.418854093723231
 31
0.0
  0
LINE
  5
1B272
330
1B25F
100
AcDbEntity
  8
0
  6
CONTINUOUS
100
AcDbLine
 10
14.74459412247225
 20
4.434517384941048
 30
0.0
 11
17.2394407932377
 21
6.929364055706499
 31
0.0
  0
LINE
  5
1B273
330
1B25F
100
AcDbEntity
  8
0
  6
CONTINUOUS
100
AcDbLine
 10
14.33882305602236
 20
3.355227109410975
 30
0.0
 11
17.42346996430115
 21
6.439874017689766
 31
0.0
  0
LINE
  5
1B274
330
1B25F
100
AcDbEntity
  8
0
  6
CONTINUOUS
100
AcDbLine
 10
13.46705359186416
 20
1.809938436172586
 30
0.0
 11
16.0819338255367
 21
4.424818669845129
 31
0.0
  0
LINE
  5
1B275
330
1B25F
100
AcDbEntity
  8
0
  6
CONTINUOUS
100
AcDbLine
 10
16.63283254238972
 20
4.975717386698149
 30
0.0
 11
17.60749913536461
 21
5.950383979673033
 31
0.0
  0
LINE
  5
1B276
330
1B25F
100
AcDbEntity
  8
0
  6
CONTINUOUS
100
AcDbLine
 10
13.66663434263929
 20
1.335999977867529
 30
0.0
 11
15.67604797733754
 21
3.345413612565779
 31
0.0
  0
LINE
  5
1B277
330
1B25F
100
AcDbEntity
  8
0
  6
CONTINUOUS
100
AcDbLine
 10
13.86621509341442
 20
0.8620615195624723
 30
0.0
 11
15.27016212913838
 21
2.26600855528643
 31
0.0
  0
LINE
  5
1B278
330
1B25F
100
AcDbEntity
  8
0
  6
CONTINUOUS
100
AcDbLine
 10
16.81682257348267
 20
4.486188208710908
 30
0.0
 11
17.79152830642806
 21
5.460893941656299
 31
0.0
  0
LINE
  5
1B279
330
1B25F
100
AcDbEntity
  8
0
  6
CONTINUOUS
100
AcDbLine
 10
17.00081260457561
 20
3.996659030723667
 30
0.0
 11
17.97555747749151
 21
4.971403903639565
 31
0.0
  0
LINE
  5
1B27A
330
1B25F
100
AcDbEntity
  8
0
  6
CONTINUOUS
100
AcDbLine
 10
20.74362343514722
 20
8.412989070375462
 30
0.0
 11
21.09373436476302
 21
8.763099999991256
 31
0.0
  0
LINE
  5
1B27B
330
1B25F
100
AcDbEntity
  8
0
  6
CONTINUOUS
100
AcDbLine
 10
20.25401257174777
 20
7.249858997895826
 30
0.0
 11
21.7672535738432
 21
8.763099999991255
 31
0.0
  0
LINE
  5
1B27C
330
1B25F
100
AcDbEntity
  8
0
  6
CONTINUOUS
100
AcDbLine
 10
14.06579584418955
 20
0.3881230612574149
 30
0.0
 11
14.86427628093921
 21
1.186603498007082
 31
0.0
  0
LINE
  5
1B27D
330
1B25F
100
AcDbEntity
  8
0
  6
CONTINUOUS
100
AcDbLine
 10
14.26537659496467
 20
-0.0858153970476412
 30
0.0
 11
14.45839043274005
 21
0.1071984407277329
 31
0.0
  0
LINE
  5
1B27E
330
1B25F
100
AcDbEntity
  8
0
  6
CONTINUOUS
100
AcDbLine
 10
17.18480263566856
 20
3.507129852736426
 30
0.0
 11
18.15958664855496
 21
4.481913865622833
 31
0.0
  0
LINE
  5
1B27F
330
1B25F
100
AcDbEntity
  8
0
  6
CONTINUOUS
100
AcDbLine
 10
17.3687926667615
 20
3.017600674749186
 30
0.0
 11
18.34361581961842
 21
3.9924238276061
 31
0.0
  0
LINE
  5
1B280
330
1B25F
100
AcDbEntity
  8
0
  6
CONTINUOUS
100
AcDbLine
 10
19.76440170834832
 20
6.086728925416191
 30
0.0
 11
22.33924590259489
 21
8.661573119662755
 31
0.0
  0
LINE
  5
1B281
330
1B25F
100
AcDbEntity
  8
0
  6
CONTINUOUS
100
AcDbLine
 10
19.27479084494887
 20
4.923598852936555
 30
0.0
 11
21.84929622842713
 21
7.498104236414807
 31
0.0
  0
LINE
  5
1B282
330
1B25F
100
AcDbEntity
  8
0
  6
CONTINUOUS
100
AcDbLine
 10
17.55278269785445
 20
2.528071496761945
 30
0.0
 11
18.52764499068187
 21
3.502933789589366
 31
0.0
  0
LINE
  5
1B283
330
1B25F
100
AcDbEntity
  8
0
  6
CONTINUOUS
100
AcDbLine
 10
18.78517998154942
 20
3.760468780456919
 30
0.0
 11
21.35934655425936
 21
6.33463535316686
 31
0.0
  0
LINE
  5
1B284
330
1B25F
100
AcDbEntity
  8
0
  6
CONTINUOUS
100
AcDbLine
 10
17.73677272894739
 20
2.038542318774704
 30
0.0
 11
20.8693968800916
 21
5.171166469918914
 31
0.0
  0
LINE
  5
1B285
330
1B25F
100
AcDbEntity
  8
0
  6
CONTINUOUS
100
AcDbLine
 10
17.92076276004034
 20
1.549013140787464
 30
0.0
 11
20.37944720592384
 21
4.007697586670968
 31
0.0
  0
LINE
  5
1B286
330
1B25F
100
AcDbEntity
  8
0
  6
CONTINUOUS
100
AcDbLine
 10
18.10475279113329
 20
1.059483962800223
 30
0.0
 11
19.88949753175608
 21
2.84422870342302
 31
0.0
  0
LINE
  5
1B287
330
1B25F
100
AcDbEntity
  8
0
  6
CONTINUOUS
100
AcDbLine
 10
18.28874282222623
 20
0.5699547848129822
 30
0.0
 11
19.39954785758832
 21
1.680759820175074
 31
0.0
  0
LINE
  5
1B288
330
1B25F
100
AcDbEntity
  8
0
  6
CONTINUOUS
100
AcDbLine
 10
18.47273285331918
 20
0.0804256068257416
 30
0.0
 11
18.90959818342056
 21
0.517290936927127
 31
0.0
  0
LINE
  5
1B289
330
1B25F
100
AcDbEntity
  8
0
  6
CONTINUOUS
100
AcDbLine
 10
14.3590401358224
 20
-0.1570118376323384
 30
0.0
 11
14.24903296539946
 21
-0.0470046672093929
 31
0.0
  0
LINE
  5
1B28A
330
1B25F
100
AcDbEntity
  8
0
  6
CONTINUOUS
100
AcDbLine
 10
14.54309291258661
 20
0.332454594683643
 30
0.0
 11
13.75908329123172
 21
1.116464216038529
 31
0.0
  0
LINE
  5
1B28B
330
1B25F
100
AcDbEntity
  8
0
  6
CONTINUOUS
100
AcDbLine
 10
14.72714568935081
 20
0.8219210269996244
 30
0.0
 11
13.26913361706399
 21
2.27993309928645
 31
0.0
  0
LINE
  5
1B28C
330
1B25F
100
AcDbEntity
  8
0
  6
CONTINUOUS
100
AcDbLine
 10
14.91119846611502
 20
1.311387459315606
 30
0.0
 11
12.77918394289625
 21
3.443401982534371
 31
0.0
  0
LINE
  5
1B28D
330
1B25F
100
AcDbEntity
  8
0
  6
CONTINUOUS
100
AcDbLine
 10
15.09525124287922
 20
1.800853891631587
 30
0.0
 11
12.28923426872852
 21
4.606870865782293
 31
0.0
  0
LINE
  5
1B28E
330
1B25F
100
AcDbEntity
  8
0
  6
CONTINUOUS
100
AcDbLine
 10
15.27930401964343
 20
2.290320323947569
 30
0.0
 11
11.79928459456078
 21
5.770339749030213
 31
0.0
  0
LINE
  5
1B28F
330
1B25F
100
AcDbEntity
  8
0
  6
CONTINUOUS
100
AcDbLine
 10
15.46335679640763
 20
2.77978675626355
 30
0.0
 11
14.48885470994921
 21
3.754288842721972
 31
0.0
  0
LINE
  5
1B290
330
1B25F
100
AcDbEntity
  8
0
  6
CONTINUOUS
100
AcDbLine
 10
13.88507249233704
 20
4.358071060334137
 30
0.0
 11
11.30933492039305
 21
6.933808632278135
 31
0.0
  0
LINE
  5
1B291
330
1B25F
100
AcDbEntity
  8
0
  6
CONTINUOUS
100
AcDbLine
 10
18.75840522805855
 20
0.1582575336928151
 30
0.0
 11
18.25383727664818
 21
0.6628254851031863
 31
0.0
  0
LINE
  5
1B292
330
1B25F
100
AcDbEntity
  8
0
  6
CONTINUOUS
100
AcDbLine
 10
15.64740957317184
 20
3.269253188579531
 30
0.0
 11
14.67288388101266
 21
4.243778880738705
 31
0.0
  0
LINE
  5
1B293
330
1B25F
100
AcDbEntity
  8
0
  6
CONTINUOUS
100
AcDbLine
 10
13.39509276772158
 20
5.521569994029786
 30
0.0
 11
10.81938524622531
 21
8.097277515526056
 31
0.0
  0
LINE
  5
1B294
330
1B25F
100
AcDbEntity
  8
0
  6
CONTINUOUS
100
AcDbLine
 10
18.95798597883369
 20
0.6321959919978686
 30
0.0
 11
17.84825644852853
 21
1.741925522303024
 31
0.0
  0
LINE
  5
1B295
330
1B25F
100
AcDbEntity
  8
0
  6
CONTINUOUS
100
AcDbLine
 10
19.15756672960882
 20
1.106134450302922
 30
0.0
 11
17.44267562040888
 21
2.821025559502861
 31
0.0
  0
LINE
  5
1B296
330
1B25F
100
AcDbEntity
  8
0
  6
CONTINUOUS
100
AcDbLine
 10
15.83146234993604
 20
3.758719620895513
 30
0.0
 11
14.85691305207612
 21
4.733268918755439
 31
0.0
  0
LINE
  5
1B297
330
1B25F
100
AcDbEntity
  8
0
  6
CONTINUOUS
100
AcDbLine
 10
16.01551512670025
 20
4.248186053211494
 30
0.0
 11
15.04094222313957
 21
5.222758956772172
 31
0.0
  0
LINE
  5
1B298
330
1B25F
100
AcDbEntity
  8
0
  6
CONTINUOUS
100
AcDbLine
 10
12.90511304310612
 20
6.685068927725435
 30
0.0
 11
10.8270819708403
 21
8.763099999991255
 31
0.0
  0
LINE
  5
1B299
330
1B25F
100
AcDbEntity
  8
0
  6
CONTINUOUS
100
AcDbLine
 10
12.41513331849066
 20
7.848567861421083
 30
0.0
 11
11.50060117992049
 21
8.763099999991255
 31
0.0
  0
LINE
  5
1B29A
330
1B25F
100
AcDbEntity
  8
0
  6
CONTINUOUS
100
AcDbLine
 10
19.35714748038395
 20
1.580072908607975
 30
0.0
 11
17.03709479228923
 21
3.900125596702697
 31
0.0
  0
LINE
  5
1B29B
330
1B25F
100
AcDbEntity
  8
0
  6
CONTINUOUS
100
AcDbLine
 10
19.55672823115909
 20
2.054011366913028
 30
0.0
 11
16.63151396416958
 21
4.979225633902534
 31
0.0
  0
LINE
  5
1B29C
330
1B25F
100
AcDbEntity
  8
0
  6
CONTINUOUS
100
AcDbLine
 10
16.19956790346445
 20
4.737652485527476
 30
0.0
 11
15.22497139420302
 21
5.712248994788904
 31
0.0
  0
LINE
  5
1B29D
330
1B25F
100
AcDbEntity
  8
0
  6
CONTINUOUS
100
AcDbLine
 10
16.38362068022866
 20
5.227118917843457
 30
0.0
 11
15.40900056526648
 21
6.201739032805637
 31
0.0
  0
LINE
  5
1B29E
330
1B25F
100
AcDbEntity
  8
0
  6
CONTINUOUS
100
AcDbLine
 10
19.75630898193422
 20
2.527949825218081
 30
0.0
 11
18.70774536448286
 21
3.576513442669441
 31
0.0
  0
LINE
  5
1B29F
330
1B25F
100
AcDbEntity
  8
0
  6
CONTINUOUS
100
AcDbLine
 10
19.95588973270936
 20
3.001888283523134
 30
0.0
 11
18.90726987211446
 21
4.050508144118028
 31
0.0
  0
LINE
  5
1B2A0
330
1B25F
100
AcDbEntity
  8
0
  6
CONTINUOUS
100
AcDbLine
 10
20.15547048348449
 20
3.475826741828186
 30
0.0
 11
19.10679437974606
 21
4.524502845566614
 31
0.0
  0
LINE
  5
1B2A1
330
1B25F
100
AcDbEntity
  8
0
  6
CONTINUOUS
100
AcDbLine
 10
20.35505123425962
 20
3.94976520013324
 30
0.0
 11
19.30631888737766
 21
4.998497547015201
 31
0.0
  0
LINE
  5
1B2A2
330
1B25F
100
AcDbEntity
  8
0
  6
CONTINUOUS
100
AcDbLine
 10
20.55463198503475
 20
4.423703658438292
 30
0.0
 11
19.50584339500926
 21
5.472492248463787
 31
0.0
  0
LINE
  5
1B2A3
330
1B25F
100
AcDbEntity
  8
0
  6
CONTINUOUS
100
AcDbLine
 10
18.37481191085755
 20
3.909446896294752
 30
0.0
 11
15.59302973632993
 21
6.691229070822371
 31
0.0
  0
LINE
  5
1B2A4
330
1B25F
100
AcDbEntity
  8
0
  6
CONTINUOUS
100
AcDbLine
 10
17.96904084440766
 20
4.988737171824825
 30
0.0
 11
15.77705890739338
 21
7.180719108839104
 31
0.0
  0
LINE
  5
1B2A5
330
1B25F
100
AcDbEntity
  8
0
  6
CONTINUOUS
100
AcDbLine
 10
17.56326977795777
 20
6.068027447354899
 30
0.0
 11
15.96108807845684
 21
7.670209146855838
 31
0.0
  0
LINE
  5
1B2A6
330
1B25F
100
AcDbEntity
  8
0
  6
CONTINUOUS
100
AcDbLine
 10
17.15749871150789
 20
7.147317722884972
 30
0.0
 11
16.14511724952029
 21
8.15969918487257
 31
0.0
  0
LINE
  5
1B2A7
330
1B25F
100
AcDbEntity
  8
0
  6
CONTINUOUS
100
AcDbLine
 10
16.751727645058
 20
8.226607998415046
 30
0.0
 11
16.32914642058374
 21
8.649189222889303
 31
0.0
  0
LINE
  5
1B2A8
330
1B25F
100
AcDbEntity
  8
0
  6
CONTINUOUS
100
AcDbLine
 10
20.75421273580989
 20
4.897642116743345
 30
0.0
 11
19.70536790264086
 21
5.946486949912374
 31
0.0
  0
LINE
  5
1B2A9
330
1B25F
100
AcDbEntity
  8
0
  6
CONTINUOUS
100
AcDbLine
 10
20.95379348658502
 20
5.371580575048398
 30
0.0
 11
19.90489241027246
 21
6.42048165136096
 31
0.0
  0
LINE
  5
1B2AA
330
1B25F
100
AcDbEntity
  8
0
  6
CONTINUOUS
100
AcDbLine
 10
21.15337423736015
 20
5.845519033353452
 30
0.0
 11
20.10441691790406
 21
6.894476352809547
 31
0.0
  0
LINE
  5
1B2AB
330
1B25F
100
AcDbEntity
  8
0
  6
CONTINUOUS
100
AcDbLine
 10
21.35295498813529
 20
6.319457491658505
 30
0.0
 11
20.30394142553566
 21
7.368471054258134
 31
0.0
  0
LINE
  5
1B2AC
330
1B25F
100
AcDbEntity
  8
0
  6
CONTINUOUS
100
AcDbLine
 10
21.55253573891042
 20
6.793395949963558
 30
0.0
 11
20.50346593316726
 21
7.842465755706721
 31
0.0
  0
LINE
  5
1B2AD
330
1B25F
100
AcDbEntity
  8
0
  6
CONTINUOUS
100
AcDbLine
 10
21.75211648968556
 20
7.267334408268612
 30
0.0
 11
20.70299044079886
 21
8.316460457155308
 31
0.0
  0
LINE
  5
1B2AE
330
1B25F
100
AcDbEntity
  8
0
  6
CONTINUOUS
100
AcDbLine
 10
21.95169724046069
 20
7.741272866573663
 30
0.0
 11
20.9298701070431
 21
8.763099999991256
 31
0.0
  0
LINE
  5
1B2AF
330
1B25F
100
AcDbEntity
  8
0
  6
CONTINUOUS
100
AcDbLine
 10
22.15127799123582
 20
8.215211324878716
 30
0.0
 11
21.60338931612328
 21
8.763099999991256
 31
0.0
  0
LINE
  5
1B2B0
330
1B25F
100
AcDbEntity
  8
0
  6
CONTINUOUS
100
AcDbLine
 10
22.35085874201096
 20
8.689149783183769
 30
0.0
 11
22.27690852520347
 21
8.763099999991255
 31
0.0
  0
ENDBLK
  5
1B3A2
330
1B25F
100
AcDbEntity
  8
0
100
AcDbBlockEnd
  0
BLOCK
  5
1B3A3
330
1B2B1
100
AcDbEntity
  8
0
100
AcDbBlockBegin
  2
*X44
 70
     1
 10
0.0
 20
0.0
 30
0.0
  3
*X44
  1

  0
LINE
  5
1B2B2
330
1B2B1
100
AcDbEntity
  8
0
  6
CONTINUOUS
100
AcDbLine
 10
23.19462913593892
 20
8.169917934846424
 30
0.0
 11
23.70775465517246
 21
8.683043454079957
 31
0.0
  0
LINE
  5
1B2B3
330
1B2B1
100
AcDbEntity
  8
0
  6
CONTINUOUS
100
AcDbLine
 10
22.64923161835078
 20
6.951001208178088
 30
0.0
 11
23.9159364069932
 21
8.217705996820516
 31
0.0
  0
LINE
  5
1B2B4
330
1B2B1
100
AcDbEntity
  8
0
  6
CONTINUOUS
100
AcDbLine
 10
22.10383410076263
 20
5.732084481509751
 30
0.0
 11
24.12411815881395
 21
7.752368539561078
 31
0.0
  0
LINE
  5
1B2B5
330
1B2B1
100
AcDbEntity
  8
0
  6
CONTINUOUS
100
AcDbLine
 10
21.55843658317447
 20
4.513167754841414
 30
0.0
 11
24.3322999106347
 21
7.287031082301639
 31
0.0
  0
LINE
  5
1B2B6
330
1B2B1
100
AcDbEntity
  8
0
  6
CONTINUOUS
100
AcDbLine
 10
21.01303906558632
 20
3.294251028173077
 30
0.0
 11
24.54048166245544
 21
6.821693625042199
 31
0.0
  0
LINE
  5
1B2B7
330
1B2B1
100
AcDbEntity
  8
0
  6
CONTINUOUS
100
AcDbLine
 10
20.46764154799817
 20
2.075334301504738
 30
0.0
 11
23.28571549467848
 21
4.89340824818505
 31
0.0
  0
LINE
  5
1B2B8
330
1B2B1
100
AcDbEntity
  8
0
  6
CONTINUOUS
100
AcDbLine
 10
19.92224403041002
 20
0.8564175748364002
 30
0.0
 11
22.74075865492779
 21
3.674932199354171
 31
0.0
  0
LINE
  5
1B2B9
330
1B2B1
100
AcDbEntity
  8
0
  6
CONTINUOUS
100
AcDbLine
 10
23.67305085490148
 20
5.280743608408048
 30
0.0
 11
24.74866341427619
 21
6.356356167782759
 31
0.0
  0
LINE
  5
1B2BA
330
1B2B1
100
AcDbEntity
  8
0
  6
CONTINUOUS
100
AcDbLine
 10
23.88118970842314
 20
4.815363252849522
 30
0.0
 11
24.95684516609694
 21
5.89101871052332
 31
0.0
  0
LINE
  5
1B2BB
330
1B2B1
100
AcDbEntity
  8
0
  6
CONTINUOUS
100
AcDbLine
 10
19.73925852647308
 20
-0.0000871381807288
 30
0.0
 11
23.4103456646501
 21
3.670999999996297
 31
0.0
  0
LINE
  5
1B2BC
330
1B2B1
100
AcDbEntity
  8
0
  6
CONTINUOUS
100
AcDbLine
 10
24.0893285619448
 20
4.349982897290997
 30
0.0
 11
25.16502691791769
 21
5.42568125326388
 31
0.0
  0
LINE
  5
1B2BD
330
1B2B1
100
AcDbEntity
  8
0
  6
CONTINUOUS
100
AcDbLine
 10
20.41282099582748
 20
-0.0000438779065108
 30
0.0
 11
21.64944178675636
 21
1.236576913022366
 31
0.0
  0
LINE
  5
1B2BE
330
1B2B1
100
AcDbEntity
  8
0
  6
CONTINUOUS
100
AcDbLine
 10
22.78126487373161
 20
2.36839999999762
 30
0.0
 11
24.08386487373029
 21
3.670999999996297
 31
0.0
  0
LINE
  5
1B2BF
330
1B2B1
100
AcDbEntity
  8
0
  6
CONTINUOUS
100
AcDbLine
 10
24.29746741546646
 20
3.884602541732471
 30
0.0
 11
25.37320866973843
 21
4.960343796004441
 31
0.0
  0
LINE
  5
1B2C0
330
1B2B1
100
AcDbEntity
  8
0
  6
CONTINUOUS
100
AcDbLine
 10
21.08638346518189
 20
-0.0000006176322938
 30
0.0
 11
21.10379033335899
 21
0.0174062505448083
 31
0.0
  0
LINE
  5
1B2C1
330
1B2B1
100
AcDbEntity
  8
0
  6
CONTINUOUS
100
AcDbLine
 10
23.4547840828118
 20
2.36839999999762
 30
0.0
 11
25.58139042155918
 21
4.495006338745002
 31
0.0
  0
LINE
  5
1B2C2
330
1B2B1
100
AcDbEntity
  8
0
  6
CONTINUOUS
100
AcDbLine
 10
29.30199999996933
 20
8.215615917155148
 30
0.0
 11
29.84948408280543
 21
8.763099999991255
 31
0.0
  0
LINE
  5
1B2C3
330
1B2B1
100
AcDbEntity
  8
0
  6
CONTINUOUS
100
AcDbLine
 10
24.12830329189199
 20
2.36839999999762
 30
0.0
 11
25.78957217337993
 21
4.029668881485562
 31
0.0
  0
LINE
  5
1B2C4
330
1B2B1
100
AcDbEntity
  8
0
  6
CONTINUOUS
100
AcDbLine
 10
29.30199999996933
 20
7.54209670807496
 30
0.0
 11
30.52300329188562
 21
8.763099999991255
 31
0.0
  0
LINE
  5
1B2C5
330
1B2B1
100
AcDbEntity
  8
0
  6
CONTINUOUS
100
AcDbLine
 10
24.80182250097217
 20
2.36839999999762
 30
0.0
 11
25.99775392520067
 21
3.564331424226122
 31
0.0
  0
LINE
  5
1B2C6
330
1B2B1
100
AcDbEntity
  8
0
  6
CONTINUOUS
100
AcDbLine
 10
29.30199999996933
 20
6.868577498994774
 30
0.0
 11
30.74199999996926
 21
8.308577498994712
 31
0.0
  0
LINE
  5
1B2C7
330
1B2B1
100
AcDbEntity
  8
0
  6
CONTINUOUS
100
AcDbLine
 10
25.13028238392013
 20
2.023340673865392
 30
0.0
 11
26.20593567702142
 21
3.098993966966683
 31
0.0
  0
LINE
  5
1B2C8
330
1B2B1
100
AcDbEntity
  8
0
  6
CONTINUOUS
100
AcDbLine
 10
25.33838066033617
 20
1.557919741201244
 30
0.0
 11
26.41411742884217
 21
2.633656509707244
 31
0.0
  0
LINE
  5
1B2C9
330
1B2B1
100
AcDbEntity
  8
0
  6
CONTINUOUS
100
AcDbLine
 10
25.54647893675221
 20
1.092498808537098
 30
0.0
 11
26.62229918066291
 21
2.168319052447804
 31
0.0
  0
LINE
  5
1B2CA
330
1B2B1
100
AcDbEntity
  8
0
  6
CONTINUOUS
100
AcDbLine
 10
25.75457721316825
 20
0.62707787587295
 30
0.0
 11
26.83048093248366
 21
1.702981595188365
 31
0.0
  0
LINE
  5
1B2CB
330
1B2B1
100
AcDbEntity
  8
0
  6
CONTINUOUS
100
AcDbLine
 10
29.30199999996933
 20
6.195058289914587
 30
0.0
 11
30.74199999996926
 21
7.635058289914522
 31
0.0
  0
LINE
  5
1B2CC
330
1B2B1
100
AcDbEntity
  8
0
  6
CONTINUOUS
100
AcDbLine
 10
29.30199999996933
 20
5.521539080834401
 30
0.0
 11
30.74199999996926
 21
6.961539080834331
 31
0.0
  0
LINE
  5
1B2CD
330
1B2B1
100
AcDbEntity
  8
0
  6
CONTINUOUS
100
AcDbLine
 10
29.30199999996933
 20
4.848019871754214
 30
0.0
 11
30.74199999996925
 21
6.288019871754143
 31
0.0
  0
LINE
  5
1B2CE
330
1B2B1
100
AcDbEntity
  8
0
  6
CONTINUOUS
100
AcDbLine
 10
29.30199999996933
 20
4.174500662674028
 30
0.0
 11
30.74199999996925
 21
5.614500662673953
 31
0.0
  0
LINE
  5
1B2CF
330
1B2B1
100
AcDbEntity
  8
0
  6
CONTINUOUS
100
AcDbLine
 10
25.96267548958429
 20
0.1616569432088024
 30
0.0
 11
27.18411854636669
 21
1.383099999991207
 31
0.0
  0
LINE
  5
1B2D0
330
1B2B1
100
AcDbEntity
  8
0
  6
CONTINUOUS
100
AcDbLine
 10
29.30199999996933
 20
3.500981453593841
 30
0.0
 11
30.74199999996925
 21
4.940981453593762
 31
0.0
  0
LINE
  5
1B2D1
330
1B2B1
100
AcDbEntity
  8
0
  6
CONTINUOUS
100
AcDbLine
 10
26.50763775544691
 20
0.0330999999912356
 30
0.0
 11
27.85763775544689
 21
1.383099999991223
 31
0.0
  0
LINE
  5
1B2D2
330
1B2B1
100
AcDbEntity
  8
0
  6
CONTINUOUS
100
AcDbLine
 10
29.30199999996933
 20
2.827462244513656
 30
0.0
 11
30.74199999996925
 21
4.267462244513574
 31
0.0
  0
LINE
  5
1B2D3
330
1B2B1
100
AcDbEntity
  8
0
  6
CONTINUOUS
100
AcDbLine
 10
27.18115696452709
 20
0.0330999999912356
 30
0.0
 11
28.55073879889363
 21
1.402681834357775
 31
0.0
  0
LINE
  5
1B2D4
330
1B2B1
100
AcDbEntity
  8
0
  6
CONTINUOUS
100
AcDbLine
 10
29.28241816560272
 20
2.134361201066866
 30
0.0
 11
30.74199999996924
 21
3.593943035433383
 31
0.0
  0
LINE
  5
1B2D5
330
1B2B1
100
AcDbEntity
  8
0
  6
CONTINUOUS
100
AcDbLine
 10
27.85467617360728
 20
0.0330999999912356
 30
0.0
 11
30.74199999996924
 21
2.920423826353195
 31
0.0
  0
LINE
  5
1B2D6
330
1B2B1
100
AcDbEntity
  8
0
  6
CONTINUOUS
100
AcDbLine
 10
28.53897559587887
 20
0.0438802131826428
 30
0.0
 11
30.73121978677781
 21
2.236124404081585
 31
0.0
  0
LINE
  5
1B2D7
330
1B2B1
100
AcDbEntity
  8
0
  6
CONTINUOUS
100
AcDbLine
 10
29.45140055588722
 20
0.2827859641107988
 30
0.0
 11
30.49231403584965
 21
1.323699444073236
 31
0.0
  0
LINE
  5
1B2D8
330
1B2B1
100
AcDbEntity
  8
0
  6
CONTINUOUS
100
AcDbLine
 10
19.59027867740337
 20
-0.0000967065718083
 30
0.0
 11
19.55485265190471
 21
0.035329318926844
 31
0.0
  0
LINE
  5
1B2D9
330
1B2B1
100
AcDbEntity
  8
0
  6
CONTINUOUS
100
AcDbLine
 10
20.26375463176586
 20
-0.0000534518541091
 30
0.0
 11
19.76305575737534
 21
0.5006454225364014
 31
0.0
  0
LINE
  5
1B2DA
330
1B2B1
100
AcDbEntity
  8
0
  6
CONTINUOUS
100
AcDbLine
 10
20.93723058612834
 20
-0.0000101971364099
 30
0.0
 11
19.97125886284597
 21
0.965961526145958
 31
0.0
  0
LINE
  5
1B2DB
330
1B2B1
100
AcDbEntity
  8
0
  6
CONTINUOUS
100
AcDbLine
 10
21.25514828313686
 20
0.355591314935257
 30
0.0
 11
20.1794619683166
 21
1.431277629755512
 31
0.0
  0
LINE
  5
1B2DC
330
1B2B1
100
AcDbEntity
  8
0
  6
CONTINUOUS
100
AcDbLine
 10
21.46338838394921
 20
0.8208704232030986
 30
0.0
 11
20.38766507378723
 21
1.896593733365069
 31
0.0
  0
LINE
  5
1B2DD
330
1B2B1
100
AcDbEntity
  8
0
  6
CONTINUOUS
100
AcDbLine
 10
21.67162848476155
 20
1.28614953147094
 30
0.0
 11
20.59586817925786
 21
2.361909836974626
 31
0.0
  0
LINE
  5
1B2DE
330
1B2B1
100
AcDbEntity
  8
0
  6
CONTINUOUS
100
AcDbLine
 10
21.8798685855739
 20
1.751428639738782
 30
0.0
 11
20.80407128472849
 21
2.827225940584183
 31
0.0
  0
LINE
  5
1B2DF
330
1B2B1
100
AcDbEntity
  8
0
  6
CONTINUOUS
100
AcDbLine
 10
22.08810868638624
 20
2.216707748006623
 30
0.0
 11
21.01227439019912
 21
3.292542044193739
 31
0.0
  0
LINE
  5
1B2E0
330
1B2B1
100
AcDbEntity
  8
0
  6
CONTINUOUS
100
AcDbLine
 10
22.60993564347543
 20
2.36839999999762
 30
0.0
 11
21.22047749566975
 21
3.757858147803296
 31
0.0
  0
LINE
  5
1B2E1
330
1B2B1
100
AcDbEntity
  8
0
  6
CONTINUOUS
100
AcDbLine
 10
23.28345485255561
 20
2.36839999999762
 30
0.0
 11
21.42868060114038
 21
4.223174251412853
 31
0.0
  0
LINE
  5
1B2E2
330
1B2B1
100
AcDbEntity
  8
0
  6
CONTINUOUS
100
AcDbLine
 10
26.29227406164219
 20
0.0330999999912356
 30
0.0
 11
25.80009199592872
 21
0.5252820657046957
 31
0.0
  0
LINE
  5
1B2E3
330
1B2B1
100
AcDbEntity
  8
0
  6
CONTINUOUS
100
AcDbLine
 10
23.9569740616358
 20
2.36839999999762
 30
0.0
 11
21.63688370661101
 21
4.688490355022409
 31
0.0
  0
LINE
  5
1B2E4
330
1B2B1
100
AcDbEntity
  8
0
  6
CONTINUOUS
100
AcDbLine
 10
26.96579327072237
 20
0.0330999999912356
 30
0.0
 11
25.2554132311971
 21
1.743480039516508
 31
0.0
  0
LINE
  5
1B2E5
330
1B2B1
100
AcDbEntity
  8
0
  6
CONTINUOUS
100
AcDbLine
 10
24.63049327071599
 20
2.36839999999762
 30
0.0
 11
23.32789327071731
 21
3.670999999996297
 31
0.0
  0
LINE
  5
1B2E6
330
1B2B1
100
AcDbEntity
  8
0
  6
CONTINUOUS
100
AcDbLine
 10
22.92098674744635
 20
4.077906523267254
 30
0.0
 11
21.84508681208164
 21
5.153806458631966
 31
0.0
  0
LINE
  5
1B2E7
330
1B2B1
100
AcDbEntity
  8
0
  6
CONTINUOUS
100
AcDbLine
 10
27.63931247980256
 20
0.0330999999912356
 30
0.0
 11
24.0014124797975
 21
3.670999999996297
 31
0.0
  0
LINE
  5
1B2E8
330
1B2B1
100
AcDbEntity
  8
0
  6
CONTINUOUS
100
AcDbLine
 10
23.129125600968
 20
4.5432868788258
 30
0.0
 11
22.05328991755227
 21
5.619122562241522
 31
0.0
  0
LINE
  5
1B2E9
330
1B2B1
100
AcDbEntity
  8
0
  6
CONTINUOUS
100
AcDbLine
 10
28.31283168888275
 20
0.0330999999912356
 30
0.0
 11
24.16488385994816
 21
4.181047828925828
 31
0.0
  0
LINE
  5
1B2EA
330
1B2B1
100
AcDbEntity
  8
0
  6
CONTINUOUS
100
AcDbLine
 10
23.33726445448964
 20
5.008667234384345
 30
0.0
 11
22.2614930230229
 21
6.084438665851079
 31
0.0
  0
LINE
  5
1B2EB
330
1B2B1
100
AcDbEntity
  8
0
  6
CONTINUOUS
100
AcDbLine
 10
28.92085740005492
 20
0.0985934978992438
 30
0.0
 11
27.63635089796295
 21
1.383099999991217
 31
0.0
  0
LINE
  5
1B2EC
330
1B2B1
100
AcDbEntity
  8
0
  6
CONTINUOUS
100
AcDbLine
 10
26.43704649509776
 20
2.582404402856405
 30
0.0
 11
23.61992702019732
 21
5.399523877756844
 31
0.0
  0
LINE
  5
1B2ED
330
1B2B1
100
AcDbEntity
  8
0
  6
CONTINUOUS
100
AcDbLine
 10
23.54540330801128
 20
5.47404758994289
 30
0.0
 11
22.46969612849353
 21
6.549754769460635
 31
0.0
  0
LINE
  5
1B2EE
330
1B2B1
100
AcDbEntity
  8
0
  6
CONTINUOUS
100
AcDbLine
 10
29.42225615078443
 20
0.2707139562499279
 30
0.0
 11
28.30987010704312
 21
1.383099999991234
 31
0.0
  0
LINE
  5
1B2EF
330
1B2B1
100
AcDbEntity
  8
0
  6
CONTINUOUS
100
AcDbLine
 10
25.89179548232307
 20
3.801174624711282
 30
0.0
 11
22.67789923396416
 21
7.015070873070191
 31
0.0
  0
LINE
  5
1B2F0
330
1B2B1
100
AcDbEntity
  8
0
  6
CONTINUOUS
100
AcDbLine
 10
29.83624534690007
 20
0.5302439692144705
 30
0.0
 11
28.85811781497101
 21
1.508371501143527
 31
0.0
  0
LINE
  5
1B2F1
330
1B2B1
100
AcDbEntity
  8
0
  6
CONTINUOUS
100
AcDbLine
 10
25.34654446954838
 20
5.01994484656616
 30
0.0
 11
22.88610233943479
 21
7.480386976679748
 31
0.0
  0
LINE
  5
1B2F2
330
1B2B1
100
AcDbEntity
  8
0
  6
CONTINUOUS
100
AcDbLine
 10
30.17865975401872
 20
0.8613487711760022
 30
0.0
 11
29.18888744090175
 21
1.851121084292977
 31
0.0
  0
LINE
  5
1B2F3
330
1B2B1
100
AcDbEntity
  8
0
  6
CONTINUOUS
100
AcDbLine
 10
24.80129345677369
 20
6.238715068421037
 30
0.0
 11
23.09430544490542
 21
7.945703080289305
 31
0.0
  0
LINE
  5
1B2F4
330
1B2B1
100
AcDbEntity
  8
0
  6
CONTINUOUS
100
AcDbLine
 10
30.45496647202376
 20
1.258561262251155
 30
0.0
 11
29.30199999996933
 21
2.411527734305588
 31
0.0
  0
LINE
  5
1B2F5
330
1B2B1
100
AcDbEntity
  8
0
  6
CONTINUOUS
100
AcDbLine
 10
24.256042443999
 20
7.457485290275915
 30
0.0
 11
23.30250855037605
 21
8.411019183898862
 31
0.0
  0
LINE
  5
1B2F6
330
1B2B1
100
AcDbEntity
  8
0
  6
CONTINUOUS
100
AcDbLine
 10
30.64868582078271
 20
1.738361122572387
 30
0.0
 11
29.30199999996933
 21
3.085046943385775
 31
0.0
  0
LINE
  5
1B2F7
330
1B2B1
100
AcDbEntity
  8
0
  6
CONTINUOUS
100
AcDbLine
 10
23.71079143122431
 20
8.676255512130794
 30
0.0
 11
23.51071165584668
 21
8.876335287508416
 31
0.0
  0
LINE
  5
1B2F8
330
1B2B1
100
AcDbEntity
  8
0
  6
CONTINUOUS
100
AcDbLine
 10
30.73802122914428
 20
2.322544923291007
 30
0.0
 11
29.30199999996933
 21
3.758566152465961
 31
0.0
  0
LINE
  5
1B2F9
330
1B2B1
100
AcDbEntity
  8
0
  6
CONTINUOUS
100
AcDbLine
 10
30.74199999996924
 20
2.992085361546236
 30
0.0
 11
29.30199999996933
 21
4.432085361546148
 31
0.0
  0
LINE
  5
1B2FA
330
1B2B1
100
AcDbEntity
  8
0
  6
CONTINUOUS
100
AcDbLine
 10
30.74199999996924
 20
3.665604570626419
 30
0.0
 11
29.30199999996933
 21
5.105604570626333
 31
0.0
  0
LINE
  5
1B2FB
330
1B2B1
100
AcDbEntity
  8
0
  6
CONTINUOUS
100
AcDbLine
 10
30.74199999996925
 20
4.339123779706602
 30
0.0
 11
29.30199999996933
 21
5.77912377970652
 31
0.0
  0
LINE
  5
1B2FC
330
1B2B1
100
AcDbEntity
  8
0
  6
CONTINUOUS
100
AcDbLine
 10
30.74199999996925
 20
5.012642988786785
 30
0.0
 11
29.30199999996933
 21
6.452642988786707
 31
0.0
  0
LINE
  5
1B2FD
330
1B2B1
100
AcDbEntity
  8
0
  6
CONTINUOUS
100
AcDbLine
 10
30.74199999996925
 20
5.68616219786697
 30
0.0
 11
29.30199999996933
 21
7.126162197866894
 31
0.0
  0
LINE
  5
1B2FE
330
1B2B1
100
AcDbEntity
  8
0
  6
CONTINUOUS
100
AcDbLine
 10
30.74199999996925
 20
6.359681406947153
 30
0.0
 11
29.30199999996933
 21
7.799681406947081
 31
0.0
  0
LINE
  5
1B2FF
330
1B2B1
100
AcDbEntity
  8
0
  6
CONTINUOUS
100
AcDbLine
 10
30.74199999996926
 20
7.033200616027337
 30
0.0
 11
29.30199999996933
 21
8.473200616027269
 31
0.0
  0
LINE
  5
1B300
330
1B2B1
100
AcDbEntity
  8
0
  6
CONTINUOUS
100
AcDbLine
 10
30.74199999996926
 20
7.706719825107518
 30
0.0
 11
29.68561982508552
 21
8.763099999991255
 31
0.0
  0
LINE
  5
1B301
330
1B2B1
100
AcDbEntity
  8
0
  6
CONTINUOUS
100
AcDbLine
 10
30.74199999996926
 20
8.380239034187703
 30
0.0
 11
30.35913903416571
 21
8.763099999991255
 31
0.0
  0
ENDBLK
  5
1B3A4
330
1B2B1
100
AcDbEntity
  8
0
100
AcDbBlockEnd
  0
BLOCK
  5
1B3A5
330
1B302
100
AcDbEntity
  8
0
100
AcDbBlockBegin
  2
*X45
 70
     1
 10
0.0
 20
0.0
 30
0.0
  3
*X45
  1

  0
LINE
  5
1B303
330
1B302
100
AcDbEntity
  8
0
  6
CONTINUOUS
100
AcDbLine
 10
31.64199999996833
 20
8.535058289913598
 30
0.0
 11
31.87004171004599
 21
8.763099999991255
 31
0.0
  0
LINE
  5
1B304
330
1B302
100
AcDbEntity
  8
0
  6
CONTINUOUS
100
AcDbLine
 10
31.64199999996833
 20
7.861539080833412
 30
0.0
 11
32.54356091912618
 21
8.763099999991255
 31
0.0
  0
LINE
  5
1B305
330
1B302
100
AcDbEntity
  8
0
  6
CONTINUOUS
100
AcDbLine
 10
31.64199999996833
 20
7.188019871753226
 30
0.0
 11
33.08199999996839
 21
8.628019871753281
 31
0.0
  0
LINE
  5
1B306
330
1B302
100
AcDbEntity
  8
0
  6
CONTINUOUS
100
AcDbLine
 10
31.64199999996833
 20
6.51450066267304
 30
0.0
 11
33.08199999996839
 21
7.954500662673095
 31
0.0
  0
LINE
  5
1B307
330
1B302
100
AcDbEntity
  8
0
  6
CONTINUOUS
100
AcDbLine
 10
31.64199999996833
 20
5.840981453592853
 30
0.0
 11
33.08199999996839
 21
7.280981453592908
 31
0.0
  0
LINE
  5
1B308
330
1B302
100
AcDbEntity
  8
0
  6
CONTINUOUS
100
AcDbLine
 10
31.64199999996833
 20
5.167462244512667
 30
0.0
 11
33.08199999996839
 21
6.607462244512721
 31
0.0
  0
LINE
  5
1B309
330
1B302
100
AcDbEntity
  8
0
  6
CONTINUOUS
100
AcDbLine
 10
31.64199999996833
 20
4.493943035432481
 30
0.0
 11
33.08199999996839
 21
5.933943035432535
 31
0.0
  0
LINE
  5
1B30A
330
1B302
100
AcDbEntity
  8
0
  6
CONTINUOUS
100
AcDbLine
 10
31.64199999996833
 20
3.820423826352293
 30
0.0
 11
33.08199999996839
 21
5.260423826352348
 31
0.0
  0
LINE
  5
1B30B
330
1B302
100
AcDbEntity
  8
0
  6
CONTINUOUS
100
AcDbLine
 10
31.64199999996833
 20
3.146904617272106
 30
0.0
 11
33.08199999996839
 21
4.586904617272161
 31
0.0
  0
LINE
  5
1B30C
330
1B302
100
AcDbEntity
  8
0
  6
CONTINUOUS
100
AcDbLine
 10
36.23199999996837
 20
8.410423826352325
 30
0.0
 11
36.5846761736073
 21
8.763099999991255
 31
0.0
  0
LINE
  5
1B30D
330
1B302
100
AcDbEntity
  8
0
  6
CONTINUOUS
100
AcDbLine
 10
36.23199999996837
 20
7.73690461727214
 30
0.0
 11
37.25819538268748
 21
8.763099999991255
 31
0.0
  0
LINE
  5
1B30E
330
1B302
100
AcDbEntity
  8
0
  6
CONTINUOUS
100
AcDbLine
 10
31.64257403601376
 20
2.473959444237348
 30
0.0
 11
33.08199999996839
 21
3.913385408191974
 31
0.0
  0
LINE
  5
1B30F
330
1B302
100
AcDbEntity
  8
0
  6
CONTINUOUS
100
AcDbLine
 10
36.23199999996837
 20
7.063385408191953
 30
0.0
 11
37.67199999996831
 21
8.503385408191894
 31
0.0
  0
LINE
  5
1B310
330
1B302
100
AcDbEntity
  8
0
  6
CONTINUOUS
100
AcDbLine
 10
31.72013636841932
 20
1.87800256756272
 30
0.0
 11
33.08199999996839
 21
3.239866199111788
 31
0.0
  0
LINE
  5
1B311
330
1B302
100
AcDbEntity
  8
0
  6
CONTINUOUS
100
AcDbLine
 10
36.23199999996837
 20
6.389866199111767
 30
0.0
 11
37.67199999996831
 21
7.829866199111708
 31
0.0
  0
LINE
  5
1B312
330
1B302
100
AcDbEntity
  8
0
  6
CONTINUOUS
100
AcDbLine
 10
31.89042734314753
 20
1.374774333210744
 30
0.0
 11
33.08199999996839
 21
2.566346990031601
 31
0.0
  0
LINE
  5
1B313
330
1B302
100
AcDbEntity
  8
0
  6
CONTINUOUS
100
AcDbLine
 10
36.23199999996837
 20
5.71634699003158
 30
0.0
 11
37.67199999996831
 21
7.156346990031521
 31
0.0
  0
LINE
  5
1B314
330
1B302
100
AcDbEntity
  8
0
  6
CONTINUOUS
100
AcDbLine
 10
32.14210568064475
 20
0.952933461627778
 30
0.0
 11
33.18745552475986
 21
1.998283305742888
 31
0.0
  0
LINE
  5
1B315
330
1B302
100
AcDbEntity
  8
0
  6
CONTINUOUS
100
AcDbLine
 10
36.23199999996837
 20
5.042827780951393
 30
0.0
 11
37.67199999996831
 21
6.482827780951334
 31
0.0
  0
LINE
  5
1B316
330
1B302
100
AcDbEntity
  8
0
  6
CONTINUOUS
100
AcDbLine
 10
32.45820639400955
 20
0.5955149659123915
 30
0.0
 11
33.47242681921943
 21
1.60973539112227
 31
0.0
  0
LINE
  5
1B317
330
1B302
100
AcDbEntity
  8
0
  6
CONTINUOUS
100
AcDbLine
 10
36.23199999996837
 20
4.369308571871207
 30
0.0
 11
37.67199999996831
 21
5.809308571871147
 31
0.0
  0
LINE
  5
1B318
330
1B302
100
AcDbEntity
  8
0
  6
CONTINUOUS
100
AcDbLine
 10
32.83432456621412
 20
0.2981139290367771
 30
0.0
 11
33.89722476612215
 21
1.361014128944803
 31
0.0
  0
LINE
  5
1B319
330
1B302
100
AcDbEntity
  8
0
  6
CONTINUOUS
100
AcDbLine
 10
36.23199999996837
 20
3.69578936279102
 30
0.0
 11
37.67199999996831
 21
5.135789362790962
 31
0.0
  0
LINE
  5
1B31A
330
1B302
100
AcDbEntity
  8
0
  6
CONTINUOUS
100
AcDbLine
 10
33.2711633111245
 20
0.0614334648669672
 30
0.0
 11
34.43247338014423
 21
1.222743533886696
 31
0.0
  0
LINE
  5
1B31B
330
1B302
100
AcDbEntity
  8
0
  6
CONTINUOUS
100
AcDbLine
 10
36.23199999996837
 20
3.022270153710834
 30
0.0
 11
37.67199999996831
 21
4.462270153710775
 31
0.0
  0
LINE
  5
1B31C
330
1B302
100
AcDbEntity
  8
0
  6
CONTINUOUS
100
AcDbLine
 10
33.76515245874577
 20
-0.1180965965919523
 30
0.0
 11
35.1587445516215
 21
1.27549549628378
 31
0.0
  0
LINE
  5
1B31D
330
1B302
100
AcDbEntity
  8
0
  6
CONTINUOUS
100
AcDbLine
 10
36.21639478609585
 20
2.333145730758136
 30
0.0
 11
37.67199999996831
 21
3.788750944630588
 31
0.0
  0
LINE
  5
1B31E
330
1B302
100
AcDbEntity
  8
0
  6
CONTINUOUS
100
AcDbLine
 10
34.34060583368432
 20
-0.2161624307335863
 30
0.0
 11
37.67199999996831
 21
3.115231735550401
 31
0.0
  0
LINE
  5
1B31F
330
1B302
100
AcDbEntity
  8
0
  6
CONTINUOUS
100
AcDbLine
 10
35.01698193613905
 20
-0.2133055373590427
 30
0.0
 11
37.66876712070525
 21
2.438479647207154
 31
0.0
  0
LINE
  5
1B320
330
1B302
100
AcDbEntity
  8
0
  6
CONTINUOUS
100
AcDbLine
 10
35.90743367693304
 20
0.0036269943547609
 30
0.0
 11
37.51723902192366
 21
1.613432339345381
 31
0.0
  0
LINE
  5
1B321
330
1B302
100
AcDbEntity
  8
0
  6
CONTINUOUS
100
AcDbLine
 10
32.55309425579761
 20
0.5074718966376706
 30
0.0
 11
32.27784730925847
 21
0.7827188431768102
 31
0.0
  0
LINE
  5
1B322
330
1B302
100
AcDbEntity
  8
0
  6
CONTINUOUS
100
AcDbLine
 10
33.87496468909684
 20
-0.1408793275813673
 30
0.0
 11
31.67993083278052
 21
2.054154528734943
 31
0.0
  0
LINE
  5
1B323
330
1B302
100
AcDbEntity
  8
0
  6
CONTINUOUS
100
AcDbLine
 10
34.64362813207632
 20
-0.2360235614806649
 30
0.0
 11
31.64199999996833
 21
2.765604570627322
 31
0.0
  0
LINE
  5
1B324
330
1B302
100
AcDbEntity
  8
0
  6
CONTINUOUS
100
AcDbLine
 10
35.25801106796118
 20
-0.1768872882853429
 30
0.0
 11
31.64199999996833
 21
3.439123779707508
 31
0.0
  0
LINE
  5
1B325
330
1B302
100
AcDbEntity
  8
0
  6
CONTINUOUS
100
AcDbLine
 10
35.79065650332146
 20
-0.0360135145654361
 30
0.0
 11
34.54143210838231
 21
1.213210880373721
 31
0.0
  0
LINE
  5
1B326
330
1B302
100
AcDbEntity
  8
0
  6
CONTINUOUS
100
AcDbLine
 10
33.08199999996839
 20
2.67264298878764
 30
0.0
 11
31.64199999996833
 21
4.112642988787695
 31
0.0
  0
LINE
  5
1B327
330
1B302
100
AcDbEntity
  8
0
  6
CONTINUOUS
100
AcDbLine
 10
36.25975597779143
 20
0.1684062200447833
 30
0.0
 11
35.15395110240023
 21
1.274211095435983
 31
0.0
  0
LINE
  5
1B328
330
1B302
100
AcDbEntity
  8
0
  6
CONTINUOUS
100
AcDbLine
 10
33.08199999996839
 20
3.346162197867826
 30
0.0
 11
31.64199999996833
 21
4.786162197867881
 31
0.0
  0
LINE
  5
1B329
330
1B302
100
AcDbEntity
  8
0
  6
CONTINUOUS
100
AcDbLine
 10
36.67226329638774
 20
0.4294181105286579
 30
0.0
 11
35.63766478748767
 21
1.464016619428737
 31
0.0
  0
LINE
  5
1B32A
330
1B302
100
AcDbEntity
  8
0
  6
CONTINUOUS
100
AcDbLine
 10
33.08199999996839
 20
4.019681406948012
 30
0.0
 11
31.64199999996833
 21
5.459681406948068
 31
0.0
  0
LINE
  5
1B32B
330
1B302
100
AcDbEntity
  8
0
  6
CONTINUOUS
100
AcDbLine
 10
37.01677749710036
 20
0.7584231188962329
 30
0.0
 11
35.99563422741351
 21
1.779566388583076
 31
0.0
  0
LINE
  5
1B32C
330
1B302
100
AcDbEntity
  8
0
  6
CONTINUOUS
100
AcDbLine
 10
33.08199999996839
 20
4.693200616028199
 30
0.0
 11
31.64199999996833
 21
6.133200616028255
 31
0.0
  0
LINE
  5
1B32D
330
1B302
100
AcDbEntity
  8
0
  6
CONTINUOUS
100
AcDbLine
 10
37.29859977568887
 20
1.1501200493879
 30
0.0
 11
36.20680593341555
 21
2.241913891661226
 31
0.0
  0
LINE
  5
1B32E
330
1B302
100
AcDbEntity
  8
0
  6
CONTINUOUS
100
AcDbLine
 10
33.08199999996839
 20
5.366719825108386
 30
0.0
 11
31.64199999996833
 21
6.80671982510844
 31
0.0
  0
LINE
  5
1B32F
330
1B302
100
AcDbEntity
  8
0
  6
CONTINUOUS
100
AcDbLine
 10
37.5148623517228
 20
1.607376682434161
 30
0.0
 11
36.23199999996837
 21
2.890239034188594
 31
0.0
  0
LINE
  5
1B330
330
1B302
100
AcDbEntity
  8
0
  6
CONTINUOUS
100
AcDbLine
 10
33.08199999996839
 20
6.040239034188573
 30
0.0
 11
31.64199999996833
 21
7.480239034188627
 31
0.0
  0
LINE
  5
1B331
330
1B302
100
AcDbEntity
  8
0
  6
CONTINUOUS
100
AcDbLine
 10
37.64705163358367
 20
2.148706609653477
 30
0.0
 11
36.23199999996837
 21
3.56375824326878
 31
0.0
  0
LINE
  5
1B332
330
1B302
100
AcDbEntity
  8
0
  6
CONTINUOUS
100
AcDbLine
 10
33.08199999996839
 20
6.713758243268758
 30
0.0
 11
31.64199999996833
 21
8.153758243268815
 31
0.0
  0
LINE
  5
1B333
330
1B302
100
AcDbEntity
  8
0
  6
CONTINUOUS
100
AcDbLine
 10
37.67199999996831
 20
2.797277452349026
 30
0.0
 11
36.23199999996837
 21
4.237277452348967
 31
0.0
  0
LINE
  5
1B334
330
1B302
100
AcDbEntity
  8
0
  6
CONTINUOUS
100
AcDbLine
 10
37.67199999996831
 20
3.470796661429213
 30
0.0
 11
36.23199999996837
 21
4.910796661429154
 31
0.0
  0
LINE
  5
1B335
330
1B302
100
AcDbEntity
  8
0
  6
CONTINUOUS
100
AcDbLine
 10
37.67199999996831
 20
4.144315870509399
 30
0.0
 11
36.23199999996837
 21
5.58431587050934
 31
0.0
  0
LINE
  5
1B336
330
1B302
100
AcDbEntity
  8
0
  6
CONTINUOUS
100
AcDbLine
 10
33.08199999996839
 20
7.387277452348945
 30
0.0
 11
31.70617745232608
 21
8.763099999991255
 31
0.0
  0
LINE
  5
1B337
330
1B302
100
AcDbEntity
  8
0
  6
CONTINUOUS
100
AcDbLine
 10
33.08199999996839
 20
8.060796661429132
 30
0.0
 11
32.37969666140626
 21
8.763099999991255
 31
0.0
  0
LINE
  5
1B338
330
1B302
100
AcDbEntity
  8
0
  6
CONTINUOUS
100
AcDbLine
 10
33.08199999996839
 20
8.734315870509318
 30
0.0
 11
33.05321587048645
 21
8.763099999991255
 31
0.0
  0
LINE
  5
1B339
330
1B302
100
AcDbEntity
  8
0
  6
CONTINUOUS
100
AcDbLine
 10
37.67199999996831
 20
4.817835079589585
 30
0.0
 11
36.23199999996837
 21
6.257835079589526
 31
0.0
  0
LINE
  5
1B33A
330
1B302
100
AcDbEntity
  8
0
  6
CONTINUOUS
100
AcDbLine
 10
37.67199999996831
 20
5.491354288669771
 30
0.0
 11
36.23199999996837
 21
6.931354288669713
 31
0.0
  0
LINE
  5
1B33B
330
1B302
100
AcDbEntity
  8
0
  6
CONTINUOUS
100
AcDbLine
 10
37.67199999996831
 20
6.164873497749958
 30
0.0
 11
36.23199999996837
 21
7.6048734977499
 31
0.0
  0
LINE
  5
1B33C
330
1B302
100
AcDbEntity
  8
0
  6
CONTINUOUS
100
AcDbLine
 10
37.67199999996831
 20
6.838392706830144
 30
0.0
 11
36.23199999996837
 21
8.278392706830086
 31
0.0
  0
LINE
  5
1B33D
330
1B302
100
AcDbEntity
  8
0
  6
CONTINUOUS
100
AcDbLine
 10
37.67199999996831
 20
7.511911915910332
 30
0.0
 11
36.42081191588738
 21
8.763099999991255
 31
0.0
  0
LINE
  5
1B33E
330
1B302
100
AcDbEntity
  8
0
  6
CONTINUOUS
100
AcDbLine
 10
37.67199999996831
 20
8.185431124990519
 30
0.0
 11
37.09433112496757
 21
8.763099999991255
 31
0.0
  0
ENDBLK
  5
1B3A6
330
1B302
100
AcDbEntity
  8
0
100
AcDbBlockEnd
  0
BLOCK
  5
1B3A7
330
1B33F
100
AcDbEntity
  8
0
100
AcDbBlockBegin
  2
*X46
 70
     1
 10
0.0
 20
0.0
 30
0.0
  3
*X46
  1

  0
LINE
  5
1B340
330
1B33F
100
AcDbEntity
  8
0
  6
CONTINUOUS
100
AcDbLine
 10
38.60499999996136
 20
8.762866199104765
 30
0.0
 11
38.71672554182345
 21
8.874591740966855
 31
0.0
  0
LINE
  5
1B341
330
1B33F
100
AcDbEntity
  8
0
  6
CONTINUOUS
100
AcDbLine
 10
38.60499999996136
 20
8.089346990024577
 30
0.0
 11
39.03418785440363
 21
8.518534844466847
 31
0.0
  0
LINE
  5
1B342
330
1B33F
100
AcDbEntity
  8
0
  6
CONTINUOUS
100
AcDbLine
 10
38.60499999996136
 20
7.41582778094439
 30
0.0
 11
39.35165016698382
 21
8.16247794796684
 31
0.0
  0
LINE
  5
1B343
330
1B33F
100
AcDbEntity
  8
0
  6
CONTINUOUS
100
AcDbLine
 10
38.60499999996136
 20
6.742308571864204
 30
0.0
 11
39.66911247956399
 21
7.806421051466834
 31
0.0
  0
LINE
  5
1B344
330
1B33F
100
AcDbEntity
  8
0
  6
CONTINUOUS
100
AcDbLine
 10
38.60499999996136
 20
6.068789362784018
 30
0.0
 11
39.98657479214418
 21
7.450364154966827
 31
0.0
  0
LINE
  5
1B345
330
1B33F
100
AcDbEntity
  8
0
  6
CONTINUOUS
100
AcDbLine
 10
38.60499999996136
 20
5.395270153703832
 30
0.0
 11
40.30403710472435
 21
7.09430725846682
 31
0.0
  0
LINE
  5
1B346
330
1B33F
100
AcDbEntity
  8
0
  6
CONTINUOUS
100
AcDbLine
 10
38.60499999996136
 20
4.721750944623645
 30
0.0
 11
40.62149941730453
 21
6.738250361966813
 31
0.0
  0
LINE
  5
1B347
330
1B33F
100
AcDbEntity
  8
0
  6
CONTINUOUS
100
AcDbLine
 10
38.60499999996136
 20
4.048231735543458
 30
0.0
 11
40.93896172988471
 21
6.382193465466806
 31
0.0
  0
LINE
  5
1B348
330
1B33F
100
AcDbEntity
  8
0
  6
CONTINUOUS
100
AcDbLine
 10
38.60499999996136
 20
3.374712526463272
 30
0.0
 11
40.02599999995994
 21
4.795712526461843
 31
0.0
  0
LINE
  5
1B349
330
1B33F
100
AcDbEntity
  8
0
  6
CONTINUOUS
100
AcDbLine
 10
38.60499999996136
 20
2.701193317383085
 30
0.0
 11
40.02599999995994
 21
4.122193317381657
 31
0.0
  0
LINE
  5
1B34A
330
1B33F
100
AcDbEntity
  8
0
  6
CONTINUOUS
100
AcDbLine
 10
40.28339754687704
 20
5.053110073378947
 30
0.0
 11
41.25642404246489
 21
6.026136568966799
 31
0.0
  0
LINE
  5
1B34B
330
1B33F
100
AcDbEntity
  8
0
  6
CONTINUOUS
100
AcDbLine
 10
40.60085985945722
 20
4.697053176878939
 30
0.0
 11
41.57388635504507
 21
5.670079672466793
 31
0.0
  0
LINE
  5
1B34C
330
1B33F
100
AcDbEntity
  8
0
  6
CONTINUOUS
100
AcDbLine
 10
43.57899999995641
 20
8.348712526458318
 30
0.0
 11
43.99338747348935
 21
8.763099999991255
 31
0.0
  0
LINE
  5
1B34D
330
1B33F
100
AcDbEntity
  8
0
  6
CONTINUOUS
100
AcDbLine
 10
43.57899999995641
 20
7.675193317378131
 30
0.0
 11
44.66690668256953
 21
8.763099999991255
 31
0.0
  0
LINE
  5
1B34E
330
1B33F
100
AcDbEntity
  8
0
  6
CONTINUOUS
100
AcDbLine
 10
38.60499999996136
 20
2.027674108302898
 30
0.0
 11
40.02599999995994
 21
3.44867410830147
 31
0.0
  0
LINE
  5
1B34F
330
1B33F
100
AcDbEntity
  8
0
  6
CONTINUOUS
100
AcDbLine
 10
38.60499999996136
 20
1.354154899222712
 30
0.0
 11
40.02599999995994
 21
2.775154899221284
 31
0.0
  0
LINE
  5
1B350
330
1B33F
100
AcDbEntity
  8
0
  6
CONTINUOUS
100
AcDbLine
 10
38.60499999996136
 20
0.6806356901425255
 30
0.0
 11
40.02599999995994
 21
2.101635690141098
 31
0.0
  0
LINE
  5
1B351
330
1B33F
100
AcDbEntity
  8
0
  6
CONTINUOUS
100
AcDbLine
 10
38.60499999996136
 20
0.0071164810623383
 30
0.0
 11
40.02599999995994
 21
1.428116481060911
 31
0.0
  0
LINE
  5
1B352
330
1B33F
100
AcDbEntity
  8
0
  6
CONTINUOUS
100
AcDbLine
 10
40.9183221720374
 20
4.340996280378933
 30
0.0
 11
41.89134866762525
 21
5.314022775966786
 31
0.0
  0
LINE
  5
1B353
330
1B33F
100
AcDbEntity
  8
0
  6
CONTINUOUS
100
AcDbLine
 10
41.23578448461758
 20
3.984939383878926
 30
0.0
 11
42.20881098020543
 21
4.957965879466778
 31
0.0
  0
LINE
  5
1B354
330
1B33F
100
AcDbEntity
  8
0
  6
CONTINUOUS
100
AcDbLine
 10
41.55324679719776
 20
3.628882487378919
 30
0.0
 11
42.52627329278561
 21
4.601908982966772
 31
0.0
  0
LINE
  5
1B355
330
1B33F
100
AcDbEntity
  8
0
  6
CONTINUOUS
100
AcDbLine
 10
41.87070910977793
 20
3.272825590878912
 30
0.0
 11
42.84373560536579
 21
4.245852086466765
 31
0.0
  0
LINE
  5
1B356
330
1B33F
100
AcDbEntity
  8
0
  6
CONTINUOUS
100
AcDbLine
 10
43.57899999995641
 20
7.001674108297943
 30
0.0
 11
44.99999999995498
 21
8.422674108296516
 31
0.0
  0
LINE
  5
1B357
330
1B33F
100
AcDbEntity
  8
0
  6
CONTINUOUS
100
AcDbLine
 10
43.57899999995641
 20
6.328154899217758
 30
0.0
 11
44.99999999995498
 21
7.749154899216329
 31
0.0
  0
LINE
  5
1B358
330
1B33F
100
AcDbEntity
  8
0
  6
CONTINUOUS
100
AcDbLine
 10
43.57899999995641
 20
5.654635690137571
 30
0.0
 11
44.99999999995498
 21
7.075635690136142
 31
0.0
  0
LINE
  5
1B359
330
1B33F
100
AcDbEntity
  8
0
  6
CONTINUOUS
100
AcDbLine
 10
43.57899999995641
 20
4.981116481057384
 30
0.0
 11
44.99999999995498
 21
6.402116481055955
 31
0.0
  0
LINE
  5
1B35A
330
1B33F
100
AcDbEntity
  8
0
  6
CONTINUOUS
100
AcDbLine
 10
39.27140272797921
 20
-0.0000000000000009
 30
0.0
 11
40.02599999995994
 21
0.7545972719807246
 31
0.0
  0
LINE
  5
1B35B
330
1B33F
100
AcDbEntity
  8
0
  6
CONTINUOUS
100
AcDbLine
 10
39.9449219370594
 20
-0.0000000000000009
 30
0.0
 11
40.02599999995994
 21
0.0810780629005379
 31
0.0
  0
LINE
  5
1B35C
330
1B33F
100
AcDbEntity
  8
0
  6
CONTINUOUS
100
AcDbLine
 10
42.18817142235812
 20
2.916768694378905
 30
0.0
 11
43.16119791794597
 21
3.889795189966758
 31
0.0
  0
LINE
  5
1B35D
330
1B33F
100
AcDbEntity
  8
0
  6
CONTINUOUS
100
AcDbLine
 10
42.50563373493829
 20
2.560711797878898
 30
0.0
 11
43.47866023052615
 21
3.533738293466751
 31
0.0
  0
LINE
  5
1B35E
330
1B33F
100
AcDbEntity
  8
0
  6
CONTINUOUS
100
AcDbLine
 10
43.57899999995641
 20
4.307597271977198
 30
0.0
 11
44.99999999995498
 21
5.728597271975769
 31
0.0
  0
LINE
  5
1B35F
330
1B33F
100
AcDbEntity
  8
0
  6
CONTINUOUS
100
AcDbLine
 10
43.57899999995641
 20
3.634078062897011
 30
0.0
 11
44.99999999995498
 21
5.055078062895582
 31
0.0
  0
LINE
  5
1B360
330
1B33F
100
AcDbEntity
  8
0
  6
CONTINUOUS
100
AcDbLine
 10
42.82309604751848
 20
2.204654901378891
 30
0.0
 11
44.99999999995498
 21
4.381558853815395
 31
0.0
  0
LINE
  5
1B361
330
1B33F
100
AcDbEntity
  8
0
  6
CONTINUOUS
100
AcDbLine
 10
43.14055836009865
 20
1.848598004878885
 30
0.0
 11
44.99999999995498
 21
3.70803964473521
 31
0.0
  0
LINE
  5
1B362
330
1B33F
100
AcDbEntity
  8
0
  6
CONTINUOUS
100
AcDbLine
 10
43.45802067267883
 20
1.492541108378878
 30
0.0
 11
44.99999999995498
 21
3.034520435655023
 31
0.0
  0
LINE
  5
1B363
330
1B33F
100
AcDbEntity
  8
0
  6
CONTINUOUS
100
AcDbLine
 10
43.77548298525902
 20
1.136484211878871
 30
0.0
 11
44.99999999995498
 21
2.361001226574837
 31
0.0
  0
LINE
  5
1B364
330
1B33F
100
AcDbEntity
  8
0
  6
CONTINUOUS
100
AcDbLine
 10
44.09294529783919
 20
0.7804273153788639
 30
0.0
 11
44.99999999995498
 21
1.687482017494649
 31
0.0
  0
LINE
  5
1B365
330
1B33F
100
AcDbEntity
  8
0
  6
CONTINUOUS
100
AcDbLine
 10
44.41040761041938
 20
0.4243704188788566
 30
0.0
 11
44.99999999995498
 21
1.013962808414463
 31
0.0
  0
LINE
  5
1B366
330
1B33F
100
AcDbEntity
  8
0
  6
CONTINUOUS
100
AcDbLine
 10
44.72786992299955
 20
0.0683135223788494
 30
0.0
 11
44.99999999995498
 21
0.340443599334276
 31
0.0
  0
LINE
  5
1B367
330
1B33F
100
AcDbEntity
  8
0
  6
CONTINUOUS
100
AcDbLine
 10
39.12223903415696
 20
-0.0000000000000009
 30
0.0
 11
38.60499999996136
 21
0.5172390341955961
 31
0.0
  0
LINE
  5
1B368
330
1B33F
100
AcDbEntity
  8
0
  6
CONTINUOUS
100
AcDbLine
 10
39.79575824323715
 20
-0.0000000000000009
 30
0.0
 11
38.60499999996136
 21
1.190758243275783
 31
0.0
  0
LINE
  5
1B369
330
1B33F
100
AcDbEntity
  8
0
  6
CONTINUOUS
100
AcDbLine
 10
40.02599999995994
 20
0.443277452357397
 30
0.0
 11
38.60499999996136
 21
1.864277452355969
 31
0.0
  0
LINE
  5
1B36A
330
1B33F
100
AcDbEntity
  8
0
  6
CONTINUOUS
100
AcDbLine
 10
40.02599999995994
 20
1.116796661437583
 30
0.0
 11
38.60499999996136
 21
2.537796661436155
 31
0.0
  0
LINE
  5
1B36B
330
1B33F
100
AcDbEntity
  8
0
  6
CONTINUOUS
100
AcDbLine
 10
40.02599999995994
 20
1.79031587051777
 30
0.0
 11
38.60499999996136
 21
3.211315870516341
 31
0.0
  0
LINE
  5
1B36C
330
1B33F
100
AcDbEntity
  8
0
  6
CONTINUOUS
100
AcDbLine
 10
40.02599999995994
 20
2.463835079597956
 30
0.0
 11
38.60499999996136
 21
3.884835079596527
 31
0.0
  0
LINE
  5
1B36D
330
1B33F
100
AcDbEntity
  8
0
  6
CONTINUOUS
100
AcDbLine
 10
40.02599999995994
 20
3.137354288678143
 30
0.0
 11
38.60499999996136
 21
4.558354288676714
 31
0.0
  0
LINE
  5
1B36E
330
1B33F
100
AcDbEntity
  8
0
  6
CONTINUOUS
100
AcDbLine
 10
40.02599999995994
 20
3.810873497758329
 30
0.0
 11
38.60499999996136
 21
5.2318734977569
 31
0.0
  0
LINE
  5
1B36F
330
1B33F
100
AcDbEntity
  8
0
  6
CONTINUOUS
100
AcDbLine
 10
40.02599999995994
 20
4.484392706838515
 30
0.0
 11
38.60499999996136
 21
5.905392706837086
 31
0.0
  0
LINE
  5
1B370
330
1B33F
100
AcDbEntity
  8
0
  6
CONTINUOUS
100
AcDbLine
 10
44.99999999995498
 20
0.183911915923658
 30
0.0
 11
41.53858364506288
 21
3.64532827081576
 31
0.0
  0
LINE
  5
1B371
330
1B33F
100
AcDbEntity
  8
0
  6
CONTINUOUS
100
AcDbLine
 10
40.02599999995994
 20
5.157911915918703
 30
0.0
 11
38.60499999996136
 21
6.578911915917274
 31
0.0
  0
LINE
  5
1B372
330
1B33F
100
AcDbEntity
  8
0
  6
CONTINUOUS
100
AcDbLine
 10
44.99999999995498
 20
0.8574311250038447
 30
0.0
 11
38.60499999996136
 21
7.25243112499746
 31
0.0
  0
LINE
  5
1B373
330
1B33F
100
AcDbEntity
  8
0
  6
CONTINUOUS
100
AcDbLine
 10
44.99999999995498
 20
1.530950334084031
 30
0.0
 11
38.60499999996136
 21
7.925950334077647
 31
0.0
  0
LINE
  5
1B374
330
1B33F
100
AcDbEntity
  8
0
  6
CONTINUOUS
100
AcDbLine
 10
44.99999999995498
 20
2.204469543164218
 30
0.0
 11
43.57899999995641
 21
3.625469543162789
 31
0.0
  0
LINE
  5
1B375
330
1B33F
100
AcDbEntity
  8
0
  6
CONTINUOUS
100
AcDbLine
 10
41.89876730984767
 20
5.305702233271528
 30
0.0
 11
38.60499999996136
 21
8.599469543157834
 31
0.0
  0
LINE
  5
1B376
330
1B33F
100
AcDbEntity
  8
0
  6
CONTINUOUS
100
AcDbLine
 10
44.99999999995498
 20
2.877988752244405
 30
0.0
 11
43.57899999995641
 21
4.298988752242975
 31
0.0
  0
LINE
  5
1B377
330
1B33F
100
AcDbEntity
  8
0
  6
CONTINUOUS
100
AcDbLine
 10
44.99999999995498
 20
3.551507961324591
 30
0.0
 11
43.57899999995641
 21
4.972507961323163
 31
0.0
  0
LINE
  5
1B378
330
1B33F
100
AcDbEntity
  8
0
  6
CONTINUOUS
100
AcDbLine
 10
44.99999999995498
 20
4.225027170404777
 30
0.0
 11
43.57899999995641
 21
5.646027170403348
 31
0.0
  0
LINE
  5
1B379
330
1B33F
100
AcDbEntity
  8
0
  6
CONTINUOUS
100
AcDbLine
 10
44.99999999995498
 20
4.898546379484964
 30
0.0
 11
43.57899999995641
 21
6.319546379483535
 31
0.0
  0
LINE
  5
1B37A
330
1B33F
100
AcDbEntity
  8
0
  6
CONTINUOUS
100
AcDbLine
 10
44.99999999995498
 20
5.572065588565151
 30
0.0
 11
43.57899999995641
 21
6.993065588563722
 31
0.0
  0
LINE
  5
1B37B
330
1B33F
100
AcDbEntity
  8
0
  6
CONTINUOUS
100
AcDbLine
 10
44.99999999995498
 20
6.245584797645336
 30
0.0
 11
43.57899999995641
 21
7.666584797643908
 31
0.0
  0
LINE
  5
1B37C
330
1B33F
100
AcDbEntity
  8
0
  6
CONTINUOUS
100
AcDbLine
 10
44.99999999995498
 20
6.919104006725522
 30
0.0
 11
43.57899999995641
 21
8.340104006724093
 31
0.0
  0
LINE
  5
1B37D
330
1B33F
100
AcDbEntity
  8
0
  6
CONTINUOUS
100
AcDbLine
 10
44.99999999995498
 20
7.592623215805709
 30
0.0
 11
43.82952321576943
 21
8.763099999991255
 31
0.0
  0
LINE
  5
1B37E
330
1B33F
100
AcDbEntity
  8
0
  6
CONTINUOUS
100
AcDbLine
 10
44.99999999995498
 20
8.266142424885896
 30
0.0
 11
44.50304242484962
 21
8.763099999991255
 31
0.0
  0
ENDBLK
  5
1B3A8
330
1B33F
100
AcDbEntity
  8
0
100
AcDbBlockEnd
  0
BLOCK
  5
1B3A9
330
1B37F
100
AcDbEntity
  8
0
100
AcDbBlockBegin
  2
*X47
 70
     1
 10
0.0
 20
0.0
 30
0.0
  3
*X47
  1

  0
LINE
  5
1B380
330
1B37F
100
AcDbEntity
  8
0
  6
CONTINUOUS
100
AcDbLine
 10
0.0
 20
8.548461116714023
 30
0.0
 11
0.2146388832772324
 21
8.763099999991255
 31
0.0
  0
LINE
  5
1B381
330
1B37F
100
AcDbEntity
  8
0
  6
CONTINUOUS
100
AcDbLine
 10
-0.0000000000000002
 20
7.874941907633837
 30
0.0
 11
0.8881580923574184
 21
8.763099999991255
 31
0.0
  0
LINE
  5
1B382
330
1B37F
100
AcDbEntity
  8
0
  6
CONTINUOUS
100
AcDbLine
 10
0.0
 20
7.20142269855365
 30
0.0
 11
1.420999999998572
 21
8.622422698552223
 31
0.0
  0
LINE
  5
1B383
330
1B37F
100
AcDbEntity
  8
0
  6
CONTINUOUS
100
AcDbLine
 10
-0.0000000000000001
 20
6.527903489473465
 30
0.0
 11
1.420999999998571
 21
7.948903489472036
 31
0.0
  0
LINE
  5
1B384
330
1B37F
100
AcDbEntity
  8
0
  6
CONTINUOUS
100
AcDbLine
 10
-0.0000000000000002
 20
5.854384280393278
 30
0.0
 11
1.420999999998571
 21
7.275384280391849
 31
0.0
  0
LINE
  5
1B385
330
1B37F
100
AcDbEntity
  8
0
  6
CONTINUOUS
100
AcDbLine
 10
-0.0000000000000002
 20
5.180865071313091
 30
0.0
 11
1.420999999998571
 21
6.601865071311663
 31
0.0
  0
LINE
  5
1B386
330
1B37F
100
AcDbEntity
  8
0
  6
CONTINUOUS
100
AcDbLine
 10
0.0
 20
4.507345862232905
 30
0.0
 11
1.420999999998571
 21
5.928345862231477
 31
0.0
  0
LINE
  5
1B387
330
1B37F
100
AcDbEntity
  8
0
  6
CONTINUOUS
100
AcDbLine
 10
-0.0000000000000003
 20
3.833826653152718
 30
0.0
 11
1.420999999998571
 21
5.25482665315129
 31
0.0
  0
LINE
  5
1B388
330
1B37F
100
AcDbEntity
  8
0
  6
CONTINUOUS
100
AcDbLine
 10
-0.0000000000000002
 20
3.160307444072532
 30
0.0
 11
1.420999999998571
 21
4.581307444071103
 31
0.0
  0
LINE
  5
1B389
330
1B37F
100
AcDbEntity
  8
0
  6
CONTINUOUS
100
AcDbLine
 10
-0.0000000000000001
 20
2.486788234992345
 30
0.0
 11
1.420999999998571
 21
3.907788234990917
 31
0.0
  0
LINE
  5
1B38A
330
1B37F
100
AcDbEntity
  8
0
  6
CONTINUOUS
100
AcDbLine
 10
-0.0000000000000006
 20
1.813269025912159
 30
0.0
 11
1.420999999998571
 21
3.234269025910731
 31
0.0
  0
LINE
  5
1B38B
330
1B37F
100
AcDbEntity
  8
0
  6
CONTINUOUS
100
AcDbLine
 10
0.0
 20
1.139749816831973
 30
0.0
 11
1.420999999998571
 21
2.560749816830544
 31
0.0
  0
LINE
  5
1B38C
330
1B37F
100
AcDbEntity
  8
0
  6
CONTINUOUS
100
AcDbLine
 10
0.0000000000000002
 20
0.466230607751787
 30
0.0
 11
1.420999999998571
 21
1.887230607750358
 31
0.0
  0
LINE
  5
1B38D
330
1B37F
100
AcDbEntity
  8
0
  6
CONTINUOUS
100
AcDbLine
 10
0.2072886013284003
 20
-0.0000000000000009
 30
0.0
 11
1.420999999998571
 21
1.213711398670171
 31
0.0
  0
LINE
  5
1B38E
330
1B37F
100
AcDbEntity
  8
0
  6
CONTINUOUS
100
AcDbLine
 10
0.8808078104085864
 20
-0.0000000000000009
 30
0.0
 11
1.420999999998571
 21
0.5401921895899839
 31
0.0
  0
LINE
  5
1B38F
330
1B37F
100
AcDbEntity
  8
0
  6
CONTINUOUS
100
AcDbLine
 10
0.0581249075061505
 20
-0.0000000000000009
 30
0.0
 11
-0.0000000000000002
 21
0.0581249075061496
 31
0.0
  0
LINE
  5
1B390
330
1B37F
100
AcDbEntity
  8
0
  6
CONTINUOUS
100
AcDbLine
 10
0.7316441165863372
 20
-0.0000000000000009
 30
0.0
 11
-0.0000000000000002
 21
0.7316441165863363
 31
0.0
  0
LINE
  5
1B391
330
1B37F
100
AcDbEntity
  8
0
  6
CONTINUOUS
100
AcDbLine
 10
1.405163325666523
 20
-0.0000000000000009
 30
0.0
 11
-0.0000000000000002
 21
1.405163325666523
 31
0.0
  0
LINE
  5
1B392
330
1B37F
100
AcDbEntity
  8
0
  6
CONTINUOUS
100
AcDbLine
 10
1.420999999998572
 20
0.6576825347481381
 30
0.0
 11
-0.0000000000000001
 21
2.07868253474671
 31
0.0
  0
LINE
  5
1B393
330
1B37F
100
AcDbEntity
  8
0
  6
CONTINUOUS
100
AcDbLine
 10
1.420999999998571
 20
1.331201743828324
 30
0.0
 11
-0.0000000000000001
 21
2.752201743826896
 31
0.0
  0
LINE
  5
1B394
330
1B37F
100
AcDbEntity
  8
0
  6
CONTINUOUS
100
AcDbLine
 10
1.420999999998571
 20
2.004720952908511
 30
0.0
 11
-0.0000000000000002
 21
3.425720952907082
 31
0.0
  0
LINE
  5
1B395
330
1B37F
100
AcDbEntity
  8
0
  6
CONTINUOUS
100
AcDbLine
 10
1.420999999998571
 20
2.678240161988697
 30
0.0
 11
-0.0000000000000001
 21
4.099240161987269
 31
0.0
  0
LINE
  5
1B396
330
1B37F
100
AcDbEntity
  8
0
  6
CONTINUOUS
100
AcDbLine
 10
1.420999999998572
 20
3.351759371068884
 30
0.0
 11
0.0
 21
4.772759371067455
 31
0.0
  0
LINE
  5
1B397
330
1B37F
100
AcDbEntity
  8
0
  6
CONTINUOUS
100
AcDbLine
 10
1.420999999998571
 20
4.02527858014907
 30
0.0
 11
-0.0000000000000003
 21
5.446278580147642
 31
0.0
  0
LINE
  5
1B398
330
1B37F
100
AcDbEntity
  8
0
  6
CONTINUOUS
100
AcDbLine
 10
1.420999999998571
 20
4.698797789229257
 30
0.0
 11
0.0
 21
6.119797789227828
 31
0.0
  0
LINE
  5
1B399
330
1B37F
100
AcDbEntity
  8
0
  6
CONTINUOUS
100
AcDbLine
 10
1.420999999998571
 20
5.372316998309444
 30
0.0
 11
-0.0000000000000001
 21
6.793316998308015
 31
0.0
  0
LINE
  5
1B39A
330
1B37F
100
AcDbEntity
  8
0
  6
CONTINUOUS
100
AcDbLine
 10
1.420999999998572
 20
6.045836207389629
 30
0.0
 11
-0.0000000000000004
 21
7.466836207388202
 31
0.0
  0
LINE
  5
1B39B
330
1B37F
100
AcDbEntity
  8
0
  6
CONTINUOUS
100
AcDbLine
 10
1.420999999998571
 20
6.719355416469816
 30
0.0
 11
0.0
 21
8.140355416468388
 31
0.0
  0
LINE
  5
1B39C
330
1B37F
100
AcDbEntity
  8
0
  6
CONTINUOUS
100
AcDbLine
 10
1.420999999998571
 20
7.392874625550003
 30
0.0
 11
0.0507746255573185
 21
8.763099999991255
 31
0.0
  0
LINE
  5
1B39D
330
1B37F
100
AcDbEntity
  8
0
  6
CONTINUOUS
100
AcDbLine
 10
1.420999999998571
 20
8.06639383463019
 30
0.0
 11
0.7242938346375052
 21
8.763099999991255
 31
0.0
  0
LINE
  5
1B39E
330
1B37F
100
AcDbEntity
  8
0
  6
CONTINUOUS
100
AcDbLine
 10
1.420999999998571
 20
8.739913043710375
 30
0.0
 11
1.397813043717691
 21
8.763099999991255
 31
0.0
  0
ENDBLK
  5
1B3AA
330
1B37F
100
AcDbEntity
  8
0
100
AcDbBlockEnd
  0
ENDSEC
  0
SECTION
  2
ENTITIES
  0
TEXT
  5
1ABE5
330
18
100
AcDbEntity
  8
1TEXT
100
AcDbText
 10
2310.382801848656
 20
-393.5176174050845
 30
0.0
 40
20.0
  1
1-GZT-X-LJ-8
100
AcDbText
  0
LINE
  5
1ABF4
330
18
100
AcDbEntity
  8
01
100
AcDbLine
 10
2617.383553690971
 20
-385.0176174061131
 30
0.0
 11
2771.137933846006
 21
-385.0176174061131
 31
0.0
  0
LINE
  5
1ABF7
330
18
100
AcDbEntity
  8
01
100
AcDbLine
 10
2617.383553690971
 20
-385.0176174061131
 30
0.0
 11
2617.383553690971
 21
-425.0176174061131
 31
0.0
  0
LINE
  5
1ABF9
330
18
100
AcDbEntity
  8
01
100
AcDbLine
 10
2668.382669508911
 20
-390.0176174071418
 30
0.0
 11
2668.382669508911
 21
-363.5176174071418
 31
0.0
  0
LINE
  5
1ABFA
330
18
100
AcDbEntity
  8
01
100
AcDbLine
 10
2641.882669508915
 20
-385.0176174061131
 30
0.0
 11
2694.882669508911
 21
-385.0176174061131
 31
0.0
  0
LINE
  5
1ABFB
330
18
100
AcDbEntity
  8
01
100
AcDbLine
 10
2642.382669508915
 20
-376.5176174061131
 30
0.0
 11
2694.382669508911
 21
-376.5176174061131
 31
0.0
  0
LINE
  5
1ABFC
330
18
100
AcDbEntity
  8
01
100
AcDbLine
 10
2694.882669508911
 20
-385.0176174061131
 30
0.0
 11
2694.882669508911
 21
-377.0176174061131
 31
0.0
  0
LINE
  5
1ABFD
330
18
100
AcDbEntity
  8
01
100
AcDbLine
 10
2641.882669508915
 20
-385.0176174061131
 30
0.0
 11
2641.882669508915
 21
-377.0176174061131
 31
0.0
  0
ARC
  5
1ABFE
330
18
100
AcDbEntity
  8
01
100
AcDbCircle
 10
2642.382669508915
 20
-377.0176174061131
 30
0.0
 40
0.5
100
AcDbArc
 50
90.0
 51
180.0
  0
ARC
  5
1ABFF
330
18
100
AcDbEntity
  8
01
100
AcDbCircle
 10
2694.382669508911
 20
-377.0176174061131
 30
0.0
 40
0.5
100
AcDbArc
 50
0.0
 51
90.0
  0
ARC
  5
1AC00
330
18
100
AcDbEntity
  8
01
100
AcDbCircle
 10
2620.483553690971
 20
-401.4563668631132
 30
0.0
 40
1.6
100
AcDbArc
 50
115.944479772022
 51
180.0
  0
ARC
  5
1AC01
330
18
100
AcDbEntity
  8
01
100
AcDbCircle
 10
2620.483553690971
 20
-408.5788679491133
 30
0.0
 40
1.6
100
AcDbArc
 50
180.0
 51
244.055520227978
  0
ARC
  5
1AC02
330
18
100
AcDbEntity
  8
01
100
AcDbCircle
 10
2619.783553690971
 20
-409.8563668631133
 30
0.0
 40
1.6
100
AcDbArc
 50
0.0
 51
64.05552022797804
  0
ARC
  5
1AC03
330
18
100
AcDbEntity
  8
01
100
AcDbCircle
 10
2619.783553690971
 20
-400.1788679491134
 30
0.0
 40
1.6
100
AcDbArc
 50
295.944479772022
 51
0.0
  0
LINE
  5
1AC04
330
18
100
AcDbEntity
  8
01
100
AcDbLine
 10
2621.383553690971
 20
-400.1788679491134
 30
0.0
 11
2621.383553690971
 21
-392.8176174061133
 31
0.0
  0
LINE
  5
1AC05
330
18
100
AcDbEntity
  8
01
100
AcDbLine
 10
2620.483553690971
 20
-408.4176174061132
 30
0.0
 11
2620.483553690971
 21
-401.6176174061133
 31
0.0
  0
LINE
  5
1AC06
330
18
100
AcDbEntity
  8
01
100
AcDbLine
 10
2621.383553690971
 20
-417.0176174061133
 30
0.0
 11
2621.383553690971
 21
-409.8563668631133
 31
0.0
  0
LINE
  5
1AC07
330
18
100
AcDbEntity
  8
01
100
AcDbLine
 10
2619.783553690971
 20
-400.0176174061133
 30
0.0
 11
2619.783553690971
 21
-392.8176174061133
 31
0.0
  0
LINE
  5
1AC08
330
18
100
AcDbEntity
  8
01
100
AcDbLine
 10
2619.783553690971
 20
-410.0176174061133
 30
0.0
 11
2619.783553690971
 21
-417.1176174061133
 31
0.0
  0
ARC
  5
1AC09
330
18
100
AcDbEntity
  8
01
100
AcDbCircle
 10
2684.783553690971
 20
-397.1176174061133
 30
0.0
 40
1.6
100
AcDbArc
 50
0.0
 51
90.0
  0
LINE
  5
1AC0A
330
18
100
AcDbEntity
  8
01
100
AcDbLine
 10
2618.883553690971
 20
-392.6176174061133
 30
0.0
 11
2618.883553690971
 21
-417.4176174061132
 31
0.0
  0
LINE
  5
1AC0B
330
18
100
AcDbEntity
  8
01
100
AcDbLine
 10
2684.783553690971
 20
-395.5176174061131
 30
0.0
 11
2621.383553690971
 21
-395.5176174061131
 31
0.0
  0
LINE
  5
1AC0C
330
18
100
AcDbEntity
  8
01
100
AcDbLine
 10
2684.783553690971
 20
-412.7176174061134
 30
0.0
 11
2684.783553690971
 21
-395.5176174061131
 31
0.0
  0
LINE
  5
1AC0D
330
18
100
AcDbEntity
  8
01
100
AcDbLine
 10
2686.383553690971
 20
-414.3176174061133
 30
0.0
 11
2686.383553690971
 21
-397.1176174061133
 31
0.0
  0
LINE
  5
1AC0E
330
18
100
AcDbEntity
  8
01
100
AcDbLine
 10
2618.883553690971
 20
-392.8176174061133
 30
0.0
 11
2621.383553690971
 21
-392.8176174061133
 31
0.0
  0
LINE
  5
1AC0F
330
18
100
AcDbEntity
  8
01
100
AcDbLine
 10
2621.383553690971
 20
-417.0176174061133
 30
0.0
 11
2619.783553690971
 21
-417.0176174061133
 31
0.0
  0
LINE
  5
1AC10
330
18
100
AcDbEntity
  8
01
100
AcDbLine
 10
2619.783553690971
 20
-417.117617406113
 30
0.0
 11
2618.883553690971
 21
-417.117617406113
 31
0.0
  0
ARC
  5
1AC11
330
18
100
AcDbEntity
  8
01
100
AcDbCircle
 10
2616.08414861837
 20
-399.3176174061138
 30
0.0
 40
0.3000000000000051
100
AcDbArc
 50
90.0
 51
127.1321941270246
  0
LINE
  5
1AC12
330
18
100
AcDbEntity
  8
01
100
AcDbLine
 10
2616.883553690971
 20
-399.0176174061136
 30
0.0
 11
2616.08414861837
 21
-399.0176174061136
 31
0.0
  0
LINE
  5
1AC13
330
18
100
AcDbEntity
  8
01
100
AcDbLine
 10
2606.483553690971
 20
-408.690606272318
 30
0.0
 11
2606.483553690971
 21
-408.5199842167686
 31
0.0
  0
ARC
  5
1AC14
330
18
100
AcDbEntity
  8
01
100
AcDbCircle
 10
2606.783553690971
 20
-408.5199842167686
 30
0.0
 40
0.3
100
AcDbArc
 50
142.2594704370021
 51
180.0
  0
ARC
  5
1AC15
330
18
100
AcDbEntity
  8
01
100
AcDbCircle
 10
2646.085854290254
 20
-438.9406871607094
 30
0.0
 40
50.00000000000002
100
AcDbArc
 50
127.1321941270246
 51
142.2594704370021
  0
LINE
  5
1AC16
330
18
100
AcDbEntity
  8
01
100
AcDbLine
 10
2606.283553690971
 20
-409.8176174061133
 30
0.0
 11
2606.283553690971
 21
-410.5176174061131
 31
0.0
  0
ARC
  5
1AC17
330
18
100
AcDbEntity
  8
01
100
AcDbCircle
 10
2606.783553690971
 20
-410.5176174061131
 30
0.0
 40
0.5000000000000142
100
AcDbArc
 50
180.0
 51
270.0
  0
LINE
  5
1AC18
330
18
100
AcDbEntity
  8
01
100
AcDbLine
 10
2616.883553690971
 20
-411.0176174061131
 30
0.0
 11
2606.783553690971
 21
-411.0176174061131
 31
0.0
  0
LINE
  5
1AC19
330
18
100
AcDbEntity
  8
01
100
AcDbLine
 10
2606.283553690971
 20
-409.4389377496728
 30
0.0
 11
2606.283553690971
 21
-409.8176174061133
 31
0.0
  0
SPLINE
  5
1AC1A
330
18
100
AcDbEntity
  8
01
100
AcDbSpline
210
0.0
220
0.0
230
1.0
 70
     8
 71
     3
 72
     8
 73
     4
 74
     0
 42
0.0000000001
 43
0.0000000001
 40
0.0
 40
0.0
 40
0.0
 40
0.0
 40
1.0
 40
1.0
 40
1.0
 40
1.0
 10
2606.309286232235
 20
-409.1622873202238
 30
0.0
 10
2606.291818346123
 20
-409.2553735161042
 30
0.0
 10
2606.283553690971
 20
-409.3486395269957
 30
0.0
 10
2606.283553690971
 20
-409.4389377496733
 30
0.0
  0
ARC
  5
1AC1B
330
18
100
AcDbEntity
  8
01
100
AcDbCircle
 10
2607.783553690971
 20
-409.4389377496728
 30
0.0
 40
1.499999999999998
100
AcDbArc
 50
135.0000000000092
 51
169.3718870123951
  0
LINE
  5
1AC1C
330
18
100
AcDbEntity
  8
01
100
AcDbLine
 10
2617.383553690971
 20
-398.1676174061132
 30
0.0
 11
2616.883553690971
 21
-398.1676174061132
 31
0.0
  0
LINE
  5
1AC1D
330
18
100
AcDbEntity
  8
01
100
AcDbLine
 10
2616.883553690971
 20
-411.867617406113
 30
0.0
 11
2617.383553690971
 21
-411.867617406113
 31
0.0
  0
LINE
  5
1AC1E
330
18
100
AcDbEntity
  8
01
100
AcDbLine
 10
2616.883553690971
 20
-411.867617406113
 30
0.0
 11
2616.883553690971
 21
-398.1676174061132
 31
0.0
  0
LINE
  5
1AC1F
330
18
100
AcDbEntity
  8
01
100
AcDbLine
 10
2617.383553690971
 20
-392.6176174061133
 30
0.0
 11
2618.883553690971
 21
-392.6176174061133
 31
0.0
  0
LINE
  5
1AC20
330
18
100
AcDbEntity
  8
01
100
AcDbLine
 10
2617.383553690971
 20
-417.4176174061132
 30
0.0
 11
2618.883553690971
 21
-417.4176174061132
 31
0.0
  0
LINE
  5
1AC21
330
18
100
AcDbEntity
  8
01
100
AcDbLine
 10
2617.383553690971
 20
-417.4176174061132
 30
0.0
 11
2617.383553690971
 21
-392.6176174061133
 31
0.0
  0
LINE
  5
1AC22
330
18
100
AcDbEntity
  8
01
100
AcDbLine
 10
2686.383553690971
 20
-412.7176174061134
 30
0.0
 11
2621.383553690971
 21
-412.7176174061134
 31
0.0
  0
LINE
  5
1AC23
330
18
100
AcDbEntity
  8
01
100
AcDbLine
 10
2686.383553690971
 20
-414.3176174061133
 30
0.0
 11
2635.983553690971
 21
-414.3176174061133
 31
0.0
  0
LINE
  5
1AC24
330
18
100
AcDbEntity
  8
01
100
AcDbLine
 10
2638.820811991173
 20
-414.3176174061133
 30
0.0
 11
2621.383553690971
 21
-414.3176174061133
 31
0.0
  0
LINE
  5
1AC25
330
18
100
AcDbEntity
  8
01
100
AcDbLine
 10
2615.937107081564
 20
-399.1640640155198
 30
0.0
 11
2606.72289351919
 21
-408.3782775778928
 31
0.0
  0
ARC
  5
1AC26
330
18
100
AcDbEntity
  8
01
100
AcDbCircle
 10
2616.290660472158
 20
-399.5176174061131
 30
0.0
 40
0.5
100
AcDbArc
 50
90.0
 51
135.0000000000092
  0
LINE
  5
1AC27
330
18
100
AcDbEntity
  8
01
100
AcDbLine
 10
2616.883553690971
 20
-399.0176174061131
 30
0.0
 11
2616.290660472158
 21
-399.0176174061131
 31
0.0
  0
LINE
  5
1AC2C
330
18
100
AcDbEntity
  8
01
100
AcDbLine
 10
2641.882669508911
 20
-691.0176174050849
 30
0.0
 11
2686.382669508911
 21
-691.0176174050845
 31
0.0
  0
LINE
  5
1AC2D
330
18
100
AcDbEntity
  8
01
100
AcDbLine
 10
2612.382669508911
 20
-711.0176174050845
 30
0.0
 11
2626.382669508911
 21
-711.0176174050845
 31
0.0
  0
LINE
  5
1AC2E
330
18
100
AcDbEntity
  8
01
100
AcDbLine
 10
2612.382669508911
 20
-597.0176174050845
 30
0.0
 11
2626.382669508911
 21
-597.0176174050845
 31
0.0
  0
LINE
  5
1AC2F
330
18
100
AcDbEntity
  8
01
100
AcDbLine
 10
2504.882785848657
 20
-597.0176174050845
 30
0.0
 11
2491.882785848657
 21
-597.0176174050845
 31
0.0
  0
LINE
  5
1AC30
330
18
100
AcDbEntity
  8
01
100
AcDbLine
 10
2498.382785848657
 20
-590.5176174050845
 30
0.0
 11
2498.382785848657
 21
-603.5176174050845
 31
0.0
  0
LINE
  5
1AC31
330
18
100
AcDbEntity
  8
01
100
AcDbLine
 10
2504.882785848657
 20
-711.0176174050845
 30
0.0
 11
2491.882785848657
 21
-711.0176174050845
 31
0.0
  0
LINE
  5
1AC32
330
18
100
AcDbEntity
  8
01
100
AcDbLine
 10
2498.382785848657
 20
-704.5176174050845
 30
0.0
 11
2498.382785848657
 21
-717.5176174050845
 31
0.0
  0
LINE
  5
1AC33
330
18
100
AcDbEntity
  8
01
100
AcDbLine
 10
2358.382789848655
 20
-675.0176174050845
 30
0.0
 11
2298.382789848655
 21
-675.0176174050845
 31
0.0
  0
LINE
  5
1AC34
330
18
100
AcDbEntity
  8
01
100
AcDbLine
 10
2328.382789848655
 20
-645.0176174050845
 30
0.0
 11
2328.382789848655
 21
-705.0176174050845
 31
0.0
  0
LINE
  5
1AC38
330
18
100
AcDbEntity
  8
01
100
AcDbLine
 10
2679.694557776164
 20
-625.0176174053737
 30
0.0
 11
2657.070781241081
 21
-625.0176174053737
 31
0.0
  0
LINE
  5
1AC39
330
18
100
AcDbEntity
  8
01
100
AcDbLine
 10
2668.382669508624
 20
-613.705729137832
 30
0.0
 11
2668.382669508624
 21
-636.3295056729154
 31
0.0
  0
LINE
  5
1AC3A
330
18
100
AcDbEntity
  8
01
100
AcDbLine
 10
2478.3829021884
 20
-555.0176174050845
 30
0.0
 11
2478.3829021884
 21
-745.0176174050845
 31
0.0
  0
LINE
  5
1AC3B
330
18
100
AcDbEntity
  8
01
100
AcDbLine
 10
2480.511187570833
 20
-675.0176174050845
 30
0.0
 11
2457.8829021884
 21
-675.0176174050845
 31
0.0
  0
POINT
  5
1AC3C
330
18
100
AcDbEntity
  8
01
100
AcDbPoint
 10
2463.882785848657
 20
-675.0176174050845
 30
0.0
 50
180.0
  0
CIRCLE
  5
1AC3D
330
18
100
AcDbEntity
  8
01
100
AcDbCircle
 10
2463.882785848657
 20
-675.0176174050845
 30
0.0
 40
2.5
  0
CIRCLE
  5
1AC3E
330
18
100
AcDbEntity
  8
01
100
AcDbCircle
 10
2463.882785848657
 20
-675.0176174050845
 30
0.0
 40
3.0
  0
LINE
  5
1AC40
330
18
100
AcDbEntity
  8
1CENTER
100
AcDbLine
 10
2463.882785848657
 20
-681.0176174050845
 30
0.0
 11
2463.882785848657
 21
-669.0176174050845
 31
0.0
  0
LINE
  5
1AC41
330
18
100
AcDbEntity
  8
01
100
AcDbLine
 10
2478.3829021884
 20
-701.5176174050836
 30
0.0
 11
2478.3829021884
 21
-648.5176174050863
 31
0.0
  0
LINE
  5
1AC42
330
18
100
AcDbEntity
  8
01
100
AcDbLine
 10
2469.8829021884
 20
-701.0176174050836
 30
0.0
 11
2469.8829021884
 21
-649.0176174050863
 31
0.0
  0
LINE
  5
1AC43
330
18
100
AcDbEntity
  8
01
100
AcDbLine
 10
2478.3829021884
 20
-648.5176174050863
 30
0.0
 11
2470.3829021884
 21
-648.5176174050863
 31
0.0
  0
LINE
  5
1AC44
330
18
100
AcDbEntity
  8
01
100
AcDbLine
 10
2478.3829021884
 20
-701.5176174050836
 30
0.0
 11
2470.3829021884
 21
-701.5176174050836
 31
0.0
  0
ARC
  5
1AC45
330
18
100
AcDbEntity
  8
01
100
AcDbCircle
 10
2470.3829021884
 20
-701.0176174050836
 30
0.0
 40
0.5
100
AcDbArc
 50
180.0
 51
270.0
  0
ARC
  5
1AC46
330
18
100
AcDbEntity
  8
01
100
AcDbCircle
 10
2470.3829021884
 20
-649.0176174050863
 30
0.0
 40
0.5
100
AcDbArc
 50
90.0
 51
180.0
  0
LINE
  5
1AC47
330
18
100
AcDbEntity
  8
01
100
AcDbLine
 10
2618.882669508911
 20
-589.1176174050844
 30
0.0
 11
2618.882669508911
 21
-718.9176174050843
 31
0.0
  0
LINE
  5
1AC48
330
18
100
AcDbEntity
  8
01
100
AcDbLine
 10
2618.882669508911
 20
-718.0176174050843
 30
0.0
 11
2621.382669508911
 21
-718.0176174050843
 31
0.0
  0
LINE
  5
1AC49
330
18
100
AcDbEntity
  8
01
100
AcDbLine
 10
2686.382669508913
 20
-639.5176174053732
 30
0.0
 11
2686.382669508911
 21
-648.5176174050863
 31
0.0
  0
LINE
  5
1AC4A
330
18
100
AcDbEntity
  8
01
100
AcDbLine
 10
2620.08266950891
 20
-617.0176174050843
 30
0.0
 11
2648.382677186454
 21
-617.017617405084
 31
0.0
  0
LINE
  5
1AC4B
330
18
100
AcDbEntity
  8
01
100
AcDbLine
 10
2648.382677186454
 20
-617.017617405084
 30
0.0
 11
2685.382669508911
 21
-617.0176174050843
 31
0.0
  0
LINE
  5
1AC4C
330
18
100
AcDbEntity
  8
01
100
AcDbLine
 10
2621.382669508911
 20
-718.0176174050843
 30
0.0
 11
2621.382669508911
 21
-701.5146736799319
 31
0.0
  0
LINE
  5
1AC4D
330
18
100
AcDbEntity
  8
01
100
AcDbLine
 10
2617.382669508911
 20
-589.1176174050842
 30
0.0
 11
2617.382669508911
 21
-718.9176174050843
 31
0.0
  0
LINE
  5
1AC4E
330
18
100
AcDbEntity
  8
01
100
AcDbLine
 10
2617.382669508911
 20
-718.9176174050843
 30
0.0
 11
2618.882669508911
 21
-718.9176174050843
 31
0.0
  0
LINE
  5
1AC4F
330
18
100
AcDbEntity
  8
01
100
AcDbLine
 10
2618.882669508911
 20
-590.0176174050843
 30
0.0
 11
2621.382669508911
 21
-590.0176174050843
 31
0.0
  0
LINE
  5
1AC50
330
18
100
AcDbEntity
  8
01
100
AcDbLine
 10
2617.382669508911
 20
-589.1176174050842
 30
0.0
 11
2618.882669508911
 21
-589.1176174050842
 31
0.0
  0
LINE
  5
1AC51
330
18
100
AcDbEntity
  8
01
100
AcDbLine
 10
2491.982785848658
 20
-589.1176174050844
 30
0.0
 11
2504.782785848657
 21
-589.1176174050844
 31
0.0
  0
LINE
  5
1AC52
330
18
100
AcDbEntity
  8
01
100
AcDbLine
 10
2491.982785848658
 20
-718.9176174050843
 30
0.0
 11
2504.782785848657
 21
-718.9176174050843
 31
0.0
  0
LINE
  5
1AC53
330
18
100
AcDbEntity
  8
01
100
AcDbLine
 10
2485.982785848658
 20
-595.1176174050844
 30
0.0
 11
2485.982785848658
 21
-712.9176174050843
 31
0.0
  0
LINE
  5
1AC54
330
18
100
AcDbEntity
  8
01
100
AcDbLine
 10
2510.782785848657
 20
-595.1176174050844
 30
0.0
 11
2510.782785848657
 21
-712.9176174050843
 31
0.0
  0
ARC
  5
1AC55
330
18
100
AcDbEntity
  8
01
100
AcDbCircle
 10
2491.982785848658
 20
-712.9176174050843
 30
0.0
 40
6.0
100
AcDbArc
 50
180.0
 51
270.0
  0
ARC
  5
1AC56
330
18
100
AcDbEntity
  8
01
100
AcDbCircle
 10
2504.782785848657
 20
-712.9176174050843
 30
0.0
 40
6.0
100
AcDbArc
 50
270.0
 51
0.0
  0
ARC
  5
1AC57
330
18
100
AcDbEntity
  8
01
100
AcDbCircle
 10
2491.982785848658
 20
-595.1176174050844
 30
0.0
 40
6.0
100
AcDbArc
 50
90.0
 51
180.0
  0
ARC
  5
1AC58
330
18
100
AcDbEntity
  8
01
100
AcDbCircle
 10
2504.782785848657
 20
-595.1176174050844
 30
0.0
 40
6.0
100
AcDbArc
 50
0.0
 51
90.0
  0
CIRCLE
  5
1AC59
330
18
100
AcDbEntity
  8
01
100
AcDbCircle
 10
2498.382785848657
 20
-711.0176174050843
 30
0.0
 40
2.75
  0
CIRCLE
  5
1AC5A
330
18
100
AcDbEntity
  8
01
100
AcDbCircle
 10
2498.382785848657
 20
-711.0176174050843
 30
0.0
 40
4.25
  0
CIRCLE
  5
1AC5B
330
18
100
AcDbEntity
  8
01
100
AcDbCircle
 10
2498.382785848657
 20
-597.0176174050845
 30
0.0
 40
2.75
  0
CIRCLE
  5
1AC5C
330
18
100
AcDbEntity
  8
01
100
AcDbCircle
 10
2498.382785848657
 20
-597.0176174050845
 30
0.0
 40
4.25
  0
ARC
  5
1AC5D
330
18
100
AcDbEntity
  8
01
100
AcDbCircle
 10
2685.382669508911
 20
-618.0176174050845
 30
0.0
 40
1.0
100
AcDbArc
 50
0.0
 51
90.0
  0
LINE
  5
1AC5E
330
18
100
AcDbEntity
  8
01
100
AcDbLine
 10
2620.08266950891
 20
-608.3176174050842
 30
0.0
 11
2620.08266950891
 21
-699.7176174050843
 31
0.0
  0
LINE
  5
1AC5F
330
18
100
AcDbEntity
  8
01
100
AcDbLine
 10
2620.182669508912
 20
-718.0176174050843
 30
0.0
 11
2620.182669508912
 21
-701.4176174050843
 31
0.0
  0
LINE
  5
1AC60
330
18
100
AcDbEntity
  8
01
100
AcDbLine
 10
2620.182669508912
 20
-701.4176174050843
 30
0.0
 11
2619.234141371487
 21
-700.4690892676603
 31
0.0
  0
LINE
  5
1AC61
330
18
100
AcDbEntity
  8
01
100
AcDbLine
 10
2621.031197646335
 20
-700.6661455425082
 30
0.0
 11
2620.08266950891
 21
-699.7176174050843
 31
0.0
  0
ARC
  5
1AC62
330
18
100
AcDbEntity
  8
01
100
AcDbCircle
 10
2620.182669508912
 20
-701.5146736799319
 30
0.0
 40
1.2
100
AcDbArc
 50
0.0
 51
44.99999999999078
  0
ARC
  5
1AC63
330
18
100
AcDbEntity
  8
01
100
AcDbCircle
 10
2620.08266950891
 20
-699.6205611302365
 30
0.0
 40
1.2
100
AcDbArc
 50
180.0
 51
224.9999999999908
  0
LINE
  5
1AC64
330
18
100
AcDbEntity
  8
01
100
AcDbLine
 10
2621.382669508911
 20
-590.0176174050843
 30
0.0
 11
2621.382669508911
 21
-606.5205611302366
 31
0.0
  0
LINE
  5
1AC65
330
18
100
AcDbEntity
  8
01
100
AcDbLine
 10
2620.182669508912
 20
-590.0176174050843
 30
0.0
 11
2620.182669508912
 21
-606.6176174050844
 31
0.0
  0
LINE
  5
1AC66
330
18
100
AcDbEntity
  8
01
100
AcDbLine
 10
2620.182669508912
 20
-606.6176174050844
 30
0.0
 11
2619.234141371487
 21
-607.5661455425083
 31
0.0
  0
LINE
  5
1AC67
330
18
100
AcDbEntity
  8
01
100
AcDbLine
 10
2621.031197646335
 20
-607.3690892676606
 30
0.0
 11
2620.08266950891
 21
-608.3176174050844
 31
0.0
  0
ARC
  5
1AC68
330
18
100
AcDbEntity
  8
01
100
AcDbCircle
 10
2620.182669508912
 20
-606.5205611302366
 30
0.0
 40
1.2
100
AcDbArc
 50
315.0000000000092
 51
0.0
  0
ARC
  5
1AC69
330
18
100
AcDbEntity
  8
01
100
AcDbCircle
 10
2620.08266950891
 20
-608.414673679932
 30
0.0
 40
1.2
100
AcDbArc
 50
135.0000000000092
 51
180.0
  0
LINE
  5
1AC6A
330
18
100
AcDbEntity
  8
01
100
AcDbLine
 10
2620.08266950891
 20
-691.0176174050847
 30
0.0
 11
2641.882669508915
 21
-691.0176174050847
 31
0.0
  0
CIRCLE
  5
1AC6B
330
18
100
AcDbEntity
  8
01
100
AcDbCircle
 10
2668.382669508913
 20
-625.0176174050843
 30
0.0
 40
5.0
  0
LINE
  5
1AC6C
330
18
100
AcDbEntity
  8
01
100
AcDbLine
 10
2664.776424924858
 20
-625.0176174050843
 30
0.0
 11
2668.382669508911
 21
-621.4113728210331
 31
0.0
  0
LINE
  5
1AC6D
330
18
100
AcDbEntity
  8
01
100
AcDbLine
 10
2671.988914092964
 20
-625.0176174050843
 30
0.0
 11
2668.382669508911
 21
-621.4113728210331
 31
0.0
  0
LINE
  5
1AC6E
330
18
100
AcDbEntity
  8
01
100
AcDbLine
 10
2664.776424924858
 20
-625.0176174050843
 30
0.0
 11
2668.382669508911
 21
-628.6238619891357
 31
0.0
  0
LINE
  5
1AC6F
330
18
100
AcDbEntity
  8
01
100
AcDbLine
 10
2671.988914092964
 20
-625.0176174050843
 30
0.0
 11
2668.382669508911
 21
-628.6238619891357
 31
0.0
  0
LINE
  5
1AC70
330
18
100
AcDbEntity
  8
01
100
AcDbLine
 10
2606.382669508911
 20
-643.9859471380681
 30
0.0
 11
2606.382669508911
 21
-662.0492876720742
 31
0.0
  0
LINE
  5
1AC71
330
18
100
AcDbEntity
  8
01
100
AcDbLine
 10
2610.675562727724
 20
-643.0176174050711
 30
0.0
 11
2617.382669508911
 21
-643.0176174050711
 31
0.0
  0
LINE
  5
1AC72
330
18
100
AcDbEntity
  8
01
100
AcDbLine
 10
2610.675562727724
 20
-663.0176174050711
 30
0.0
 11
2617.382669508911
 21
-663.0176174050713
 31
0.0
  0
LINE
  5
1AC73
330
18
100
AcDbEntity
  8
01
100
AcDbLine
 10
2616.175562727724
 20
-647.7676174050713
 30
0.0
 11
2616.175562727724
 21
-658.2676174050711
 31
0.0
  0
ARC
  5
1AC74
330
18
100
AcDbEntity
  8
01
100
AcDbCircle
 10
2610.675562727724
 20
-653.0176174050713
 30
0.0
 40
10.00000000000009
100
AcDbArc
 50
90.0
 51
115.4224671781103
  0
ARC
  5
1AC75
330
18
100
AcDbEntity
  8
01
100
AcDbCircle
 10
2610.675562727724
 20
-653.0176174050711
 30
0.0
 40
10.00000000000009
100
AcDbArc
 50
244.5775328218897
 51
270.0
  0
LINE
  5
1AC76
330
18
100
AcDbEntity
  8
01
100
AcDbLine
 10
2606.382669508911
 20
-647.7676174050711
 30
0.0
 11
2616.175562727724
 21
-647.7676174050711
 31
0.0
  0
LINE
  5
1AC77
330
18
100
AcDbEntity
  8
01
100
AcDbLine
 10
2606.382669508911
 20
-658.2676174050711
 30
0.0
 11
2616.175562727724
 21
-658.2676174050711
 31
0.0
  0
LINE
  5
1AC78
330
18
100
AcDbEntity
  8
01
100
AcDbLine
 10
2491.382785848657
 20
-644.859032969044
 30
0.0
 11
2491.382785848657
 21
-661.1762018411247
 31
0.0
  0
LINE
  5
1AC79
330
18
100
AcDbEntity
  8
01
100
AcDbLine
 10
2505.382785848657
 20
-644.859032969044
 30
0.0
 11
2505.382785848657
 21
-661.1762018411247
 31
0.0
  0
ARC
  5
1AC7A
330
18
100
AcDbEntity
  8
01
100
AcDbCircle
 10
2498.382785848657
 20
-653.0176174050843
 30
0.0
 40
10.75
100
AcDbArc
 50
49.37067121664803
 51
130.629328783352
  0
ARC
  5
1AC7B
330
18
100
AcDbEntity
  8
01
100
AcDbCircle
 10
2498.382785848657
 20
-653.0176174050843
 30
0.0
 40
10.75
100
AcDbArc
 50
229.370671216648
 51
310.629328783352
  0
ARC
  5
1AC7C
330
18
100
AcDbEntity
  8
01
100
AcDbCircle
 10
2498.382785848657
 20
-653.0176174050843
 30
0.0
 40
10.0
100
AcDbArc
 50
56.25101140414051
 51
123.7489885958595
  0
LINE
  5
1AC7D
330
18
100
AcDbEntity
  8
01
100
AcDbLine
 10
2492.382785848657
 20
-645.5343026315364
 30
0.0
 11
2492.382785848657
 21
-660.5009321786323
 31
0.0
  0
LINE
  5
1AC7E
330
18
100
AcDbEntity
  8
01
100
AcDbLine
 10
2504.382785848657
 20
-645.5343026315364
 30
0.0
 11
2504.382785848657
 21
-660.5009321786323
 31
0.0
  0
ARC
  5
1AC7F
330
18
100
AcDbEntity
  8
01
100
AcDbCircle
 10
2498.382785848657
 20
-653.0176174050843
 30
0.0
 40
10.0
100
AcDbArc
 50
236.2510114041405
 51
303.7489885958595
  0
ARC
  5
1AC80
330
18
100
AcDbEntity
  8
01
100
AcDbCircle
 10
2493.382785848657
 20
-645.5343026315367
 30
0.0
 40
1.0
100
AcDbArc
 50
123.7489885958595
 51
180.0
  0
ARC
  5
1AC81
330
18
100
AcDbEntity
  8
01
100
AcDbCircle
 10
2503.382785848657
 20
-645.5343026315364
 30
0.0
 40
1.0
100
AcDbArc
 50
0.0
 51
56.25101140414051
  0
ARC
  5
1AC82
330
18
100
AcDbEntity
  8
01
100
AcDbCircle
 10
2493.382785848657
 20
-660.5009321786323
 30
0.0
 40
1.0
100
AcDbArc
 50
180.0
 51
236.2510114041405
  0
ARC
  5
1AC83
330
18
100
AcDbEntity
  8
01
100
AcDbCircle
 10
2503.382785848657
 20
-660.5009321786323
 30
0.0
 40
1.0
100
AcDbArc
 50
303.7489885958595
 51
0.0
  0
LINE
  5
1AC84
330
18
100
AcDbEntity
  8
01
100
AcDbLine
 10
2503.882785848657
 20
-647.7676174050843
 30
0.0
 11
2503.882785848657
 21
-658.2676174050843
 31
0.0
  0
LINE
  5
1AC85
330
18
100
AcDbEntity
  8
01
100
AcDbLine
 10
2492.882785848657
 20
-647.7676174050845
 30
0.0
 11
2492.882785848657
 21
-658.2676174050843
 31
0.0
  0
LINE
  5
1AC86
330
18
100
AcDbEntity
  8
01
100
AcDbLine
 10
2492.882785848657
 20
-647.7676174050843
 30
0.0
 11
2503.882785848657
 21
-647.7676174050843
 31
0.0
  0
LINE
  5
1AC87
330
18
100
AcDbEntity
  8
01
100
AcDbLine
 10
2492.882785848657
 20
-658.2676174050843
 30
0.0
 11
2503.882785848657
 21
-658.2676174050843
 31
0.0
  0
LINE
  5
1AC88
330
18
100
AcDbEntity
  8
1HIDDEN
100
AcDbLine
 10
2686.382669508913
 20
-648.5176174050863
 30
0.0
 11
2686.382669508913
 21
-691.0176174050845
 31
0.0
  0
LINE
  5
1AC89
330
18
100
AcDbEntity
  8
01
100
AcDbLine
 10
2384.382902188404
 20
-711.0176174050845
 30
0.0
 11
2370.382902188404
 21
-711.0176174050845
 31
0.0
  0
LINE
  5
1AC8A
330
18
100
AcDbEntity
  8
01
100
AcDbLine
 10
2384.382902188404
 20
-597.0176174050845
 30
0.0
 11
2370.382902188404
 21
-597.0176174050845
 31
0.0
  0
LINE
  5
1AC8B
330
18
100
AcDbEntity
  8
01
100
AcDbLine
 10
2317.071013921151
 20
-625.0176174053737
 30
0.0
 11
2339.694790456234
 21
-625.0176174053737
 31
0.0
  0
LINE
  5
1AC8C
330
18
100
AcDbEntity
  8
01
100
AcDbLine
 10
2328.382902188691
 20
-613.705729137832
 30
0.0
 11
2328.382902188691
 21
-636.3295056729154
 31
0.0
  0
LINE
  5
1AC8D
330
18
100
AcDbEntity
  8
01
100
AcDbLine
 10
2377.882902188404
 20
-589.1176174050844
 30
0.0
 11
2377.882902188404
 21
-718.9176174050843
 31
0.0
  0
LINE
  5
1AC8E
330
18
100
AcDbEntity
  8
01
100
AcDbLine
 10
2377.882902188404
 20
-718.0176174050843
 30
0.0
 11
2375.382902188404
 21
-718.0176174050843
 31
0.0
  0
LINE
  5
1AC8F
330
18
100
AcDbEntity
  8
01
100
AcDbLine
 10
2310.382902188404
 20
-639.5176174053732
 30
0.0
 11
2310.382902188404
 21
-648.5176174050863
 31
0.0
  0
LINE
  5
1AC90
330
18
100
AcDbEntity
  8
01
100
AcDbLine
 10
2376.682902188405
 20
-617.0176174050843
 30
0.0
 11
2348.382789526197
 21
-617.0176174050843
 31
0.0
  0
LINE
  5
1AC91
330
18
100
AcDbEntity
  8
01
100
AcDbLine
 10
2348.382789526197
 20
-617.0176174050843
 30
0.0
 11
2311.382902188404
 21
-617.0176174050843
 31
0.0
  0
LINE
  5
1AC92
330
18
100
AcDbEntity
  8
01
100
AcDbLine
 10
2375.382902188404
 20
-718.0176174050843
 30
0.0
 11
2375.382902188404
 21
-701.5146736799319
 31
0.0
  0
LINE
  5
1AC93
330
18
100
AcDbEntity
  8
01
100
AcDbLine
 10
2379.382902188404
 20
-589.1176174050842
 30
0.0
 11
2379.382902188404
 21
-718.9176174050843
 31
0.0
  0
LINE
  5
1AC94
330
18
100
AcDbEntity
  8
01
100
AcDbLine
 10
2379.382902188404
 20
-718.9176174050843
 30
0.0
 11
2377.882902188404
 21
-718.9176174050843
 31
0.0
  0
LINE
  5
1AC95
330
18
100
AcDbEntity
  8
01
100
AcDbLine
 10
2377.882902188404
 20
-590.0176174050843
 30
0.0
 11
2375.382902188404
 21
-590.0176174050843
 31
0.0
  0
LINE
  5
1AC96
330
18
100
AcDbEntity
  8
01
100
AcDbLine
 10
2379.382902188404
 20
-589.1176174050842
 30
0.0
 11
2377.882902188404
 21
-589.1176174050842
 31
0.0
  0
ARC
  5
1AC97
330
18
100
AcDbEntity
  8
01
100
AcDbCircle
 10
2311.382902188404
 20
-618.0176174050845
 30
0.0
 40
1.0
100
AcDbArc
 50
90.0
 51
180.0
  0
LINE
  5
1AC98
330
18
100
AcDbEntity
  8
01
100
AcDbLine
 10
2376.682902188405
 20
-608.3176174050842
 30
0.0
 11
2376.682902188405
 21
-699.7176174050843
 31
0.0
  0
LINE
  5
1AC99
330
18
100
AcDbEntity
  8
01
100
AcDbLine
 10
2376.582902188403
 20
-718.0176174050843
 30
0.0
 11
2376.582902188403
 21
-701.4176174050843
 31
0.0
  0
LINE
  5
1AC9A
330
18
100
AcDbEntity
  8
01
100
AcDbLine
 10
2376.582902188403
 20
-701.4176174050843
 30
0.0
 11
2377.531430325828
 21
-700.4690892676603
 31
0.0
  0
LINE
  5
1AC9B
330
18
100
AcDbEntity
  8
01
100
AcDbLine
 10
2375.73437405098
 20
-700.6661455425082
 30
0.0
 11
2376.682902188405
 21
-699.7176174050843
 31
0.0
  0
ARC
  5
1AC9C
330
18
100
AcDbEntity
  8
01
100
AcDbCircle
 10
2376.582902188403
 20
-701.5146736799319
 30
0.0
 40
1.2
100
AcDbArc
 50
135.0000000000092
 51
180.0
  0
ARC
  5
1AC9D
330
18
100
AcDbEntity
  8
01
100
AcDbCircle
 10
2376.682902188405
 20
-699.6205611302365
 30
0.0
 40
1.2
100
AcDbArc
 50
315.0000000000092
 51
0.0
  0
LINE
  5
1AC9E
330
18
100
AcDbEntity
  8
01
100
AcDbLine
 10
2375.382902188404
 20
-590.0176174050843
 30
0.0
 11
2375.382902188404
 21
-606.5205611302366
 31
0.0
  0
LINE
  5
1AC9F
330
18
100
AcDbEntity
  8
01
100
AcDbLine
 10
2376.582902188403
 20
-590.0176174050843
 30
0.0
 11
2376.582902188403
 21
-606.6176174050844
 31
0.0
  0
LINE
  5
1ACA0
330
18
100
AcDbEntity
  8
01
100
AcDbLine
 10
2376.582902188403
 20
-606.6176174050844
 30
0.0
 11
2377.531430325828
 21
-607.5661455425083
 31
0.0
  0
LINE
  5
1ACA1
330
18
100
AcDbEntity
  8
01
100
AcDbLine
 10
2375.73437405098
 20
-607.3690892676606
 30
0.0
 11
2376.682902188405
 21
-608.3176174050844
 31
0.0
  0
ARC
  5
1ACA2
330
18
100
AcDbEntity
  8
01
100
AcDbCircle
 10
2376.582902188403
 20
-606.5205611302366
 30
0.0
 40
1.2
100
AcDbArc
 50
180.0
 51
224.9999999999908
  0
ARC
  5
1ACA3
330
18
100
AcDbEntity
  8
01
100
AcDbCircle
 10
2376.682902188405
 20
-608.414673679932
 30
0.0
 40
1.2
100
AcDbArc
 50
0.0
 51
44.99999999999078
  0
LINE
  5
1ACA4
330
18
100
AcDbEntity
  8
01
100
AcDbLine
 10
2310.382902188402
 20
-639.5176174053732
 30
0.0
 11
2310.382902188402
 21
-648.5176174050863
 31
0.0
  0
LINE
  5
1ACA5
330
18
100
AcDbEntity
  8
01
100
AcDbLine
 10
2376.682902188405
 20
-691.0176174050847
 30
0.0
 11
2354.8829021884
 21
-691.0176174050847
 31
0.0
  0
CIRCLE
  5
1ACA6
330
18
100
AcDbEntity
  8
01
100
AcDbCircle
 10
2328.382902188402
 20
-625.0176174050843
 30
0.0
 40
5.0
  0
LINE
  5
1ACA7
330
18
100
AcDbEntity
  8
01
100
AcDbLine
 10
2331.989146772456
 20
-625.0176174050843
 30
0.0
 11
2328.382902188404
 21
-621.4113728210331
 31
0.0
  0
LINE
  5
1ACA8
330
18
100
AcDbEntity
  8
01
100
AcDbLine
 10
2324.776657604351
 20
-625.0176174050843
 30
0.0
 11
2328.382902188404
 21
-621.4113728210331
 31
0.0
  0
LINE
  5
1ACA9
330
18
100
AcDbEntity
  8
01
100
AcDbLine
 10
2331.989146772456
 20
-625.0176174050843
 30
0.0
 11
2328.382902188404
 21
-628.6238619891357
 31
0.0
  0
LINE
  5
1ACAA
330
18
100
AcDbEntity
  8
01
100
AcDbLine
 10
2324.776657604351
 20
-625.0176174050843
 30
0.0
 11
2328.382902188404
 21
-628.6238619891357
 31
0.0
  0
LINE
  5
1ACAB
330
18
100
AcDbEntity
  8
01
100
AcDbLine
 10
2390.382902188404
 20
-643.9859471380681
 30
0.0
 11
2390.382902188404
 21
-662.0492876720742
 31
0.0
  0
LINE
  5
1ACAC
330
18
100
AcDbEntity
  8
01
100
AcDbLine
 10
2386.090008969591
 20
-643.0176174050711
 30
0.0
 11
2379.382902188404
 21
-643.0176174050711
 31
0.0
  0
LINE
  5
1ACAD
330
18
100
AcDbEntity
  8
01
100
AcDbLine
 10
2386.090008969591
 20
-663.0176174050711
 30
0.0
 11
2379.382902188404
 21
-663.0176174050713
 31
0.0
  0
LINE
  5
1ACAE
330
18
100
AcDbEntity
  8
01
100
AcDbLine
 10
2380.590008969591
 20
-647.7676174050713
 30
0.0
 11
2380.590008969591
 21
-658.2676174050711
 31
0.0
  0
ARC
  5
1ACAF
330
18
100
AcDbEntity
  8
01
100
AcDbCircle
 10
2386.090008969591
 20
-653.0176174050713
 30
0.0
 40
10.00000000000009
100
AcDbArc
 50
64.57753282188968
 51
126.8698976458701
  0
ARC
  5
1ACB0
330
18
100
AcDbEntity
  8
01
100
AcDbCircle
 10
2386.090008969591
 20
-653.0176174050711
 30
0.0
 40
10.00000000000009
100
AcDbArc
 50
233.1301023541299
 51
295.4224671781103
  0
LINE
  5
1ACB1
330
18
100
AcDbEntity
  8
01
100
AcDbLine
 10
2380.090008969591
 20
-645.0176174050711
 30
0.0
 11
2380.090008969591
 21
-661.0176174050711
 31
0.0
  0
LINE
  5
1ACB2
330
18
100
AcDbEntity
  8
01
100
AcDbLine
 10
2390.382902188404
 20
-647.7676174050711
 30
0.0
 11
2380.590008969591
 21
-647.7676174050711
 31
0.0
  0
LINE
  5
1ACB3
330
18
100
AcDbEntity
  8
01
100
AcDbLine
 10
2390.382902188404
 20
-658.2676174050711
 30
0.0
 11
2380.590008969591
 21
-658.2676174050711
 31
0.0
  0
LINE
  5
1ACB4
330
18
100
AcDbEntity
  8
01
100
AcDbLine
 10
2310.382902188404
 20
-618.0176174050845
 30
0.0
 11
2310.382902188404
 21
-639.5176174053732
 31
0.0
  0
LINE
  5
1ACB5
330
18
100
AcDbEntity
  8
01
100
AcDbLine
 10
2686.382669508911
 20
-618.0176174050845
 30
0.0
 11
2686.382669508913
 21
-639.5176174053732
 31
0.0
  0
POINT
  5
1ACB6
330
18
100
AcDbEntity
  8
01
100
AcDbPoint
 10
2532.882669508911
 20
-675.0162990919813
 30
0.0
  0
LINE
  5
1ACB7
330
18
100
AcDbEntity
  8
01
100
AcDbLine
 10
2532.482669498912
 20
-676.7662990919813
 30
0.0
 11
2532.482669498912
 21
-675.9162990719811
 31
0.0
  0
LINE
  5
1ACB8
330
18
100
AcDbEntity
  8
01
100
AcDbLine
 10
2533.282669518913
 20
-676.7662990919813
 30
0.0
 11
2533.282669518913
 21
-675.9162990719811
 31
0.0
  0
LINE
  5
1ACB9
330
18
100
AcDbEntity
  8
01
100
AcDbLine
 10
2531.982669528911
 20
-675.4162991019817
 30
0.0
 11
2531.132669508911
 21
-675.4162991019817
 31
0.0
  0
LINE
  5
1ACBA
330
18
100
AcDbEntity
  8
01
100
AcDbLine
 10
2531.982669528911
 20
-674.6162990819818
 30
0.0
 11
2531.132669508911
 21
-674.6162990819818
 31
0.0
  0
LINE
  5
1ACBB
330
18
100
AcDbEntity
  8
01
100
AcDbLine
 10
2531.132669508911
 20
-675.4162991019817
 30
0.0
 11
2531.132669508911
 21
-674.6162990819818
 31
0.0
  0
LINE
  5
1ACBC
330
18
100
AcDbEntity
  8
01
100
AcDbLine
 10
2533.282669518913
 20
-676.7662990919813
 30
0.0
 11
2532.482669498912
 21
-676.7662990919813
 31
0.0
  0
LINE
  5
1ACBD
330
18
100
AcDbEntity
  8
01
100
AcDbLine
 10
2533.282669518913
 20
-673.2662990919813
 30
0.0
 11
2533.282669518913
 21
-674.1162991119814
 31
0.0
  0
LINE
  5
1ACBE
330
18
100
AcDbEntity
  8
01
100
AcDbLine
 10
2532.482669498912
 20
-673.2662990919813
 30
0.0
 11
2532.482669498912
 21
-674.1162991119814
 31
0.0
  0
LINE
  5
1ACBF
330
18
100
AcDbEntity
  8
01
100
AcDbLine
 10
2533.782669488911
 20
-674.6162990819818
 30
0.0
 11
2534.632669508911
 21
-674.6162990819818
 31
0.0
  0
LINE
  5
1ACC0
330
18
100
AcDbEntity
  8
01
100
AcDbLine
 10
2533.782669488911
 20
-675.4162991019817
 30
0.0
 11
2534.632669508911
 21
-675.4162991019817
 31
0.0
  0
LINE
  5
1ACC1
330
18
100
AcDbEntity
  8
01
100
AcDbLine
 10
2534.632669508911
 20
-674.6162990819818
 30
0.0
 11
2534.632669508911
 21
-675.4162991019817
 31
0.0
  0
LINE
  5
1ACC2
330
18
100
AcDbEntity
  8
01
100
AcDbLine
 10
2532.482669498912
 20
-673.2662990919813
 30
0.0
 11
2533.282669518913
 21
-673.2662990919813
 31
0.0
  0
CIRCLE
  5
1ACC3
330
18
100
AcDbEntity
  8
01
100
AcDbCircle
 10
2532.882669508911
 20
-675.0162990919813
 30
0.0
 40
2.5
  0
ARC
  5
1ACC4
330
18
100
AcDbEntity
  8
01
100
AcDbCircle
 10
2533.782669488911
 20
-674.1162991119814
 30
0.0
 40
0.5
100
AcDbArc
 50
179.999989999999
 51
270.0
  0
ARC
  5
1ACC5
330
18
100
AcDbEntity
  8
01
100
AcDbCircle
 10
2533.782669488911
 20
-675.9162990719811
 30
0.0
 40
0.5
100
AcDbArc
 50
90.00000299998466
 51
180.000010000001
  0
ARC
  5
1ACC6
330
18
100
AcDbEntity
  8
01
100
AcDbCircle
 10
2531.982669528911
 20
-675.9162990719811
 30
0.0
 40
0.5
100
AcDbArc
 50
0.0
 51
90.00000299998466
  0
ARC
  5
1ACC7
330
18
100
AcDbEntity
  8
01
100
AcDbCircle
 10
2531.982669528911
 20
-674.1162991119814
 30
0.0
 40
0.5
100
AcDbArc
 50
270.0
 51
0.0
  0
LINE
  5
1ACC9
330
18
100
AcDbEntity
  8
1CENTER
100
AcDbLine
 10
2532.882669508911
 20
-681.0162990919813
 30
0.0
 11
2532.882669508911
 21
-669.0162990919813
 31
0.0
  0
LINE
  5
1ACCA
330
18
100
AcDbEntity
  8
01
100
AcDbLine
 10
2516.254384126481
 20
-675.0162990919813
 30
0.0
 11
2538.882669508911
 21
-675.0162990919813
 31
0.0
  0
LINE
  5
1ACCB
330
18
100
AcDbEntity
  8
01
  6
BYBLOCK
100
AcDbLine
 10
2617.383553690971
 20
-425.0176174061131
 30
0.0
 11
2771.137933846002
 21
-425.0176174061131
 31
0.0
  0
LINE
  5
1ACCC
330
18
100
AcDbEntity
  8
1CENTER
100
AcDbLine
 10
2652.299111084713
 20
-439.5176093728602
 30
0.0
 11
2660.432783446561
 21
-439.5176174061104
 31
0.0
  0
LINE
  5
1ACCD
330
18
100
AcDbEntity
  8
01
100
AcDbLine
 10
2668.382785848654
 20
-420.0176174061131
 30
0.0
 11
2668.382785848654
 21
-446.5176174061131
 31
0.0
  0
LINE
  5
1ACD3
330
18
100
AcDbEntity
  8
01
100
AcDbLine
 10
2518.382669508911
 20
-555.0162990919813
 30
0.0
 11
2518.382669508911
 21
-745.0162990919813
 31
0.0
  0
LINE
  5
1ACD4
330
18
100
AcDbEntity
  8
01
100
AcDbLine
 10
2638.382669508911
 20
-675.0162990919813
 30
0.0
 11
2698.382669508911
 21
-675.0162990919813
 31
0.0
  0
LINE
  5
1ACD5
330
18
100
AcDbEntity
  8
01
100
AcDbLine
 10
2668.382669508911
 20
-645.0162990919813
 30
0.0
 11
2668.382669508911
 21
-705.0162990919813
 31
0.0
  0
LINE
  5
1ACD7
330
18
100
AcDbEntity
  8
01
100
AcDbLine
 10
2694.382669508911
 20
-648.5162990919831
 30
0.0
 11
2642.382669508915
 21
-648.5162990919831
 31
0.0
  0
LINE
  5
1ACD8
330
18
100
AcDbEntity
  8
01
100
AcDbLine
 10
2642.382669508915
 20
-701.5162990919831
 30
0.0
 11
2694.382669508911
 21
-701.5162990919831
 31
0.0
  0
LINE
  5
1ACD9
330
18
100
AcDbEntity
  8
01
100
AcDbLine
 10
2641.882669508915
 20
-649.0162990919831
 30
0.0
 11
2641.882669508915
 21
-701.0162990919831
 31
0.0
  0
ARC
  5
1ACDA
330
18
100
AcDbEntity
  8
01
100
AcDbCircle
 10
2642.382669508915
 20
-701.0162990919831
 30
0.0
 40
0.5
100
AcDbArc
 50
180.0
 51
270.0
  0
ARC
  5
1ACDB
330
18
100
AcDbEntity
  8
01
100
AcDbCircle
 10
2642.382669508915
 20
-649.0162990919831
 30
0.0
 40
0.5
100
AcDbArc
 50
90.0
 51
180.0
  0
LINE
  5
1ACDC
330
18
100
AcDbEntity
  8
01
100
AcDbLine
 10
2694.882669508911
 20
-649.0162990919831
 30
0.0
 11
2694.882669508911
 21
-665.2967055381074
 31
0.0
  0
LINE
  5
1ACDD
330
18
100
AcDbEntity
  8
01
100
AcDbLine
 10
2694.882669508911
 20
-684.7348627460734
 30
0.0
 11
2694.882669508911
 21
-701.0162990919831
 31
0.0
  0
ARC
  5
1ACDE
330
18
100
AcDbEntity
  8
01
100
AcDbCircle
 10
2694.382669508911
 20
-701.0162990919831
 30
0.0
 40
0.5
100
AcDbArc
 50
270.0
 51
0.0
  0
ARC
  5
1ACDF
330
18
100
AcDbEntity
  8
01
100
AcDbCircle
 10
2694.382669508911
 20
-649.0162990919831
 30
0.0
 40
0.5
100
AcDbArc
 50
0.0
 51
90.0
  0
LINE
  5
1ACE0
330
18
100
AcDbEntity
  8
01
100
AcDbLine
 10
2641.882785848657
 20
-425.0176174061131
 30
0.0
 11
2694.882785848654
 21
-425.0176174061131
 31
0.0
  0
LINE
  5
1ACE1
330
18
100
AcDbEntity
  8
01
100
AcDbLine
 10
2642.382785848657
 20
-433.5176174061131
 30
0.0
 11
2694.382785848654
 21
-433.5176174061131
 31
0.0
  0
LINE
  5
1ACE2
330
18
100
AcDbEntity
  8
01
100
AcDbLine
 10
2694.882785848654
 20
-425.0176174061131
 30
0.0
 11
2694.882785848654
 21
-433.0176174061131
 31
0.0
  0
LINE
  5
1ACE3
330
18
100
AcDbEntity
  8
01
100
AcDbLine
 10
2641.882785848657
 20
-425.0176174061131
 30
0.0
 11
2641.882785848657
 21
-433.0176174061131
 31
0.0
  0
ARC
  5
1ACE4
330
18
100
AcDbEntity
  8
01
100
AcDbCircle
 10
2642.382785848657
 20
-433.0176174061131
 30
0.0
 40
0.5
100
AcDbArc
 50
180.0
 51
270.0
  0
ARC
  5
1ACE5
330
18
100
AcDbEntity
  8
01
100
AcDbCircle
 10
2694.382785848654
 20
-433.0176174061131
 30
0.0
 40
0.5
100
AcDbArc
 50
270.0
 51
0.0
  0
LINE
  5
1ACE6
330
18
100
AcDbEntity
  8
01
100
AcDbLine
 10
2518.382669508911
 20
-701.5162990919804
 30
0.0
 11
2518.382669508911
 21
-648.5162990919831
 31
0.0
  0
LINE
  5
1ACE7
330
18
100
AcDbEntity
  8
01
100
AcDbLine
 10
2526.882669508911
 20
-701.0162990919804
 30
0.0
 11
2526.882669508911
 21
-649.0162990919831
 31
0.0
  0
LINE
  5
1ACE8
330
18
100
AcDbEntity
  8
01
100
AcDbLine
 10
2518.382669508911
 20
-648.5162990919831
 30
0.0
 11
2526.382669508911
 21
-648.5162990919831
 31
0.0
  0
LINE
  5
1ACE9
330
18
100
AcDbEntity
  8
01
100
AcDbLine
 10
2518.382669508911
 20
-701.5162990919804
 30
0.0
 11
2526.382669508911
 21
-701.5162990919804
 31
0.0
  0
ARC
  5
1ACEA
330
18
100
AcDbEntity
  8
01
100
AcDbCircle
 10
2526.382669508911
 20
-701.0162990919804
 30
0.0
 40
0.5
100
AcDbArc
 50
270.0
 51
0.0
  0
ARC
  5
1ACEB
330
18
100
AcDbEntity
  8
01
100
AcDbCircle
 10
2526.382669508911
 20
-649.0162990919831
 30
0.0
 40
0.5
100
AcDbArc
 50
0.0
 51
90.0
  0
SPLINE
  5
1ACEC
330
18
100
AcDbEntity
  8
01
100
AcDbSpline
210
0.0
220
0.0
230
1.0
 70
     8
 71
     3
 72
    18
 73
    14
 74
     0
 42
0.0000000001
 43
0.0000000001
 40
0.0000649757542841
 40
0.0000649757542841
 40
0.0000649757542841
 40
0.0000649757542841
 40
0.0860520609830585
 40
0.2305629888503389
 40
0.3725690207133783
 40
0.5129959002680089
 40
0.6565061431096817
 40
0.7501835193149282
 40
0.8477363410374643
 40
0.8940869277261254
 40
0.9350128367551847
 40
0.9703342150502404
 40
1.0
 40
1.0
 40
1.0
 40
1.0
 10
2679.382755918262
 20
-457.0176495423285
 30
0.0
 10
2679.382750548538
 20
-456.3497434979896
 30
0.0
 10
2679.382736156113
 20
-454.5593464659784
 30
0.0
 10
2679.382722775344
 20
-451.665512960568
 30
0.0
 10
2679.382821202854
 20
-448.3493262162239
 30
0.0
 10
2679.382533335906
 20
-445.0434215802389
 30
0.0
 10
2679.382503893331
 20
-442.1095649823839
 30
0.0
 10
2679.38279394276
 20
-439.5090302696996
 30
0.0
 10
2679.382738529958
 20
-437.6740526861682
 30
0.0
 10
2679.382696495458
 20
-436.2375449620587
 30
0.0
 10
2679.3828077714
 20
-435.286074765013
 30
0.0
 10
2679.382677060218
 20
-434.4974790593293
 30
0.0
 10
2679.382765017194
 20
-434.168013915944
 30
0.0
 10
2679.382805168397
 20
-434.0176174129411
 30
0.0
  0
LINE
  5
1ACED
330
18
100
AcDbEntity
  8
01
100
AcDbLine
 10
2786.882766528915
 20
-461.017617405778
 30
0.0
 11
2683.38275591724
 21
-461.01761738377
 31
0.0
  0
ARC
  5
1ACEE
330
18
100
AcDbEntity
  8
01
100
AcDbCircle
 10
2786.882766528915
 20
-462.517617405778
 30
0.0
 40
1.5
100
AcDbArc
 50
0.0
 51
89.99999998718089
  0
LINE
  5
1ACEF
330
18
100
AcDbEntity
  8
01
100
AcDbLine
 10
2658.382766528911
 20
-433.8187853041383
 30
0.0
 11
2658.382766528911
 21
-434.0176174061131
 31
0.0
  0
LINE
  5
1ACF0
330
18
100
AcDbEntity
  8
01
100
AcDbLine
 10
2678.382766528911
 20
-434.0176174061131
 30
0.0
 11
2678.382766528911
 21
-433.8187853041383
 31
0.0
  0
LINE
  5
1ACF1
330
18
100
AcDbEntity
  8
01
100
AcDbLine
 10
2660.432801106014
 20
-433.5176174061131
 30
0.0
 11
2660.432801106014
 21
-433.8187853041383
 31
0.0
  0
LINE
  5
1ACF2
330
18
100
AcDbEntity
  8
01
100
AcDbLine
 10
2676.332801106016
 20
-433.8187853041383
 30
0.0
 11
2676.332801106016
 21
-433.5176174061131
 31
0.0
  0
SPLINE
  5
1ACF3
330
18
100
AcDbEntity
  8
01
100
AcDbSpline
210
0.0
220
0.0
230
1.0
 70
     8
 71
     3
 72
    15
 73
    11
 74
     0
 42
0.0000000001
 43
0.0000000001
 40
0.0
 40
0.0
 40
0.0
 40
0.0
 40
0.0621384659276811
 40
0.1194624660158409
 40
0.2375262378245288
 40
0.485056379678497
 40
0.6028685908047778
 40
0.741824810946498
 40
0.8709376368659568
 40
1.0
 40
1.0
 40
1.0
 40
1.0
 10
2677.907212044826
 20
-463.2832166265013
 30
0.0
 10
2677.944765892055
 20
-463.2975272837235
 30
0.0
 10
2678.016963928029
 20
-463.3250398136289
 30
0.0
 10
2678.163409699563
 20
-463.3721011802041
 30
0.0
 10
2678.428803410024
 20
-463.4417192966581
 30
0.0
 10
2678.740568802966
 20
-463.4894887769843
 30
0.0
 10
2679.069561241359
 20
-463.5135948919566
 30
0.0
 10
2679.322900783726
 20
-463.5184447101848
 30
0.0
 10
2679.584481933299
 20
-463.5109681421269
 30
0.0
 10
2679.754423268408
 20
-463.4957026365779
 30
0.0
 10
2679.839377327641
 20
-463.4880713756971
 30
0.0
  0
SPLINE
  5
1ACF4
330
18
100
AcDbEntity
  8
01
100
AcDbSpline
210
0.0
220
0.0
230
1.0
 70
     8
 71
     3
 72
    11
 73
     7
 74
     0
 42
0.0000000001
 43
0.0000000001
 40
0.0
 40
0.0
 40
0.0
 40
0.0
 40
0.246667354855828
 40
0.4951061132192802
 40
0.7459932421170662
 40
0.9999999999999999
 40
0.9999999999999999
 40
0.9999999999999999
 40
0.9999999999999999
 10
2677.576210592398
 20
-463.1055465957153
 30
0.0
 10
2677.602068818741
 20
-463.1230851547331
 30
0.0
 10
2677.653970968288
 20
-463.1582882232216
 30
0.0
 10
2677.735608116499
 20
-463.2047709139507
 30
0.0
 10
2677.819964961135
 20
-463.2471399256461
 30
0.0
 10
2677.878010134117
 20
-463.2711416257963
 30
0.0
 10
2677.907212044826
 20
-463.2832166265013
 30
0.0
  0
SPLINE
  5
1ACF5
330
18
100
AcDbEntity
  8
01
100
AcDbSpline
210
0.0
220
0.0
230
1.0
 70
     8
 71
     3
 72
    19
 73
    15
 74
     0
 42
0.0000000001
 43
0.0000000001
 40
0.0
 40
0.0
 40
0.0
 40
0.0
 40
0.0974617489138209
 40
0.1847107255476317
 40
0.261814459899569
 40
0.3288460592983783
 40
0.385864790067484
 40
0.4277977639963271
 40
0.5108213901195143
 40
0.5928931626424222
 40
0.6749542339723672
 40
0.7852446773393177
 40
0.8934743715277373
 40
1.0
 40
1.0
 40
1.0
 40
1.0
 10
2676.944586764145
 20
-461.3051353357024
 30
0.0
 10
2676.945058392547
 20
-461.3684583806727
 30
0.0
 10
2676.94595222859
 20
-461.4884690075152
 30
0.0
 10
2676.957056711291
 20
-461.6583311347678
 30
0.0
 10
2676.974942980713
 20
-461.8080153002448
 30
0.0
 10
2676.996237960367
 20
-461.9373509037219
 30
0.0
 10
2677.017907267943
 20
-462.043349605494
 30
0.0
 10
2677.046643073068
 20
-462.1585738658479
 30
0.0
 10
2677.085414849877
 20
-462.2881489969701
 30
0.0
 10
2677.142065873229
 20
-462.4394961672793
 30
0.0
 10
2677.216399070386
 20
-462.6029512383653
 30
0.0
 10
2677.313007442627
 20
-462.7744925679846
 30
0.0
 10
2677.434596403579
 20
-462.9497495938241
 30
0.0
 10
2677.529256235434
 20
-463.0538897094849
 30
0.0
 10
2677.576210592398
 20
-463.1055465957153
 30
0.0
  0
SPLINE
  5
1ACF6
330
18
100
AcDbEntity
  8
01
100
AcDbSpline
210
0.0
220
0.0
230
1.0
 70
     8
 71
     3
 72
    11
 73
     7
 74
     0
 42
0.0000000001
 43
0.0000000001
 40
0.0
 40
0.0
 40
0.0
 40
0.0
 40
0.2788341038430541
 40
0.5384644005889189
 40
0.7788535199034351
 40
0.9999999999999999
 40
0.9999999999999999
 40
0.9999999999999999
 40
0.9999999999999999
 10
2676.998516707198
 20
-460.6501854695217
 30
0.0
 10
2676.98984889931
 20
-460.7106675782398
 30
0.0
 10
2676.973110251082
 20
-460.8274662838786
 30
0.0
 10
2676.95702160587
 20
-460.997489659491
 30
0.0
 10
2676.947056445523
 20
-461.1553547061059
 30
0.0
 10
2676.945386787113
 20
-461.2566157392222
 30
0.0
 10
2676.944586764145
 20
-461.3051353357024
 30
0.0
  0
SPLINE
  5
1ACF7
330
18
100
AcDbEntity
  8
01
100
AcDbSpline
210
0.0
220
0.0
230
1.0
 70
     8
 71
     3
 72
     9
 73
     5
 74
     0
 42
0.0000000001
 43
0.0000000001
 40
0.0
 40
0.0
 40
0.0
 40
0.0
 40
0.477460274534142
 40
1.0
 40
1.0
 40
1.0
 40
1.0
 10
2677.524605729893
 20
-464.2237234471464
 30
0.0
 10
2674.31507033182
 20
-467.404140744347
 30
0.0
 10
2667.592970988152
 20
-474.0652546983903
 30
0.0
 10
2660.876992356661
 20
-480.7303054725563
 30
0.0
 10
2657.367626726326
 20
-484.2130592743048
 30
0.0
  0
LINE
  5
1ACF8
330
18
100
AcDbEntity
  8
01
100
AcDbLine
 10
2679.382805168397
 20
-434.0176174061131
 30
0.0
 11
2657.382766528911
 21
-434.0176174061131
 31
0.0
  0
SPLINE
  5
1ACF9
330
18
100
AcDbEntity
  8
01
100
AcDbSpline
210
0.0
220
0.0
230
1.0
 70
     8
 71
     3
 72
    12
 73
     8
 74
     0
 42
0.0000000001
 43
0.0000000001
 40
0.0
 40
0.0
 40
0.0
 40
0.0
 40
0.157441155016458
 40
0.3235627903252723
 40
0.4984485582856485
 40
0.7268212218397349
 40
0.9831250544958003
 40
0.9831250544958003
 40
0.9831250544958003
 40
0.9831250544958003
 10
2679.382766528911
 20
-434.0176174061131
 30
0.0
 10
2679.26382262521
 20
-435.415868522378
 30
0.0
 10
2679.019376874229
 20
-438.289462994591
 30
0.0
 10
2678.635295084408
 20
-442.7155396202844
 30
0.0
 10
2678.188359098794
 20
-447.7707235329827
 30
0.0
 10
2677.65903934102
 20
-453.6255302986802
 30
0.0
 10
2677.254824844164
 20
-457.926537823436
 30
0.0
 10
2676.998516707198
 20
-460.6501854695217
 30
0.0
  0
LINE
  5
1ACFA
330
18
100
AcDbEntity
  8
01
100
AcDbLine
 10
2658.16095818448
 20
-435.4338274811977
 30
0.0
 11
2675.761436217389
 21
-463.2240559542134
 31
0.0
  0
LINE
  5
1ACFB
330
18
100
AcDbEntity
  8
01
100
AcDbLine
 10
2657.333019920808
 20
-435.2861559126897
 30
0.0
 11
2657.382766528911
 21
-434.0176174061131
 31
0.0
  0
LINE
  5
1ACFC
330
18
100
AcDbEntity
  8
01
100
AcDbLine
 10
2655.468188071008
 20
-482.8393680826003
 30
0.0
 11
2657.333019920808
 21
-435.2861559126897
 31
0.0
  0
LINE
  5
1ACFD
330
18
100
AcDbEntity
  8
01
100
AcDbLine
 10
2678.382766528911
 20
-433.8187853041383
 30
0.0
 11
2658.382766528911
 21
-433.8187853041383
 31
0.0
  0
LINE
  5
1ACFE
330
18
100
AcDbEntity
  8
01
100
AcDbLine
 10
2786.858923587507
 20
-461.0429046445862
 30
0.0
 11
2786.858923872463
 21
-461.0429043742525
 31
0.0
  0
ARC
  5
1ACFF
330
18
100
AcDbEntity
  8
01
100
AcDbCircle
 10
2786.8827665289
 20
-477.5862828611472
 30
0.0
 40
1.5
100
AcDbArc
 50
272.6837751591837
 51
0.0000000000130276
  0
LINE
  5
1AD00
330
18
100
AcDbEntity
  8
01
100
AcDbLine
 10
2788.382766528915
 20
-477.5862828611454
 30
0.0
 11
2788.382766528915
 21
-462.517617405778
 31
0.0
  0
LINE
  5
1AD01
330
18
100
AcDbEntity
  8
01
100
AcDbLine
 10
2657.56029914507
 20
-484.9155455647307
 30
0.0
 11
2786.95300190834
 21
-479.084637622702
 31
0.0
  0
ARC
  5
1AD02
330
18
100
AcDbEntity
  8
01
100
AcDbCircle
 10
2657.466651972471
 20
-482.917739215991
 30
0.0
 40
2.0
100
AcDbArc
 50
177.7542574341064
 51
272.6837751593922
  0
ARC
  5
1AD03
330
18
100
AcDbEntity
  8
01
100
AcDbCircle
 10
2683.382755918133
 20
-457.01761738377
 30
0.0
 40
4.0
100
AcDbArc
 50
180.0004606374193
 51
269.9999999871809
  0
LINE
  5
1AD04
330
18
100
AcDbEntity
  8
01
100
AcDbLine
 10
2679.839379399989
 20
-463.4880697524942
 30
0.0
 11
2786.858923302488
 21
-461.0429049149808
 31
0.0
  0
LINE
  5
1AD05
330
18
100
AcDbEntity
  8
01
100
AcDbLine
 10
2578.282791318789
 20
-679.2480968914184
 30
0.0
 11
2578.282791318789
 21
-670.7870747045578
 31
0.0
  0
ARC
  5
1AD06
330
18
100
AcDbEntity
  8
01
100
AcDbCircle
 10
2577.282791318789
 20
-679.2480968914184
 30
0.0
 40
1.0
100
AcDbArc
 50
285.8640017184883
 51
0.0
  0
LINE
  5
1AD07
330
18
100
AcDbEntity
  8
01
100
AcDbLine
 10
2527.183837406937
 20
-685.0162990919813
 30
0.0
 11
2527.382669508911
 21
-685.0162990919813
 31
0.0
  0
LINE
  5
1AD08
330
18
100
AcDbEntity
  8
01
100
AcDbLine
 10
2527.382669508911
 20
-665.0162990919813
 30
0.0
 11
2527.183837406937
 21
-665.0162990919813
 31
0.0
  0
SPLINE
  5
1AD09
330
18
100
AcDbEntity
  8
01
100
AcDbSpline
210
0.0
220
0.0
230
1.0
 70
     8
 71
     3
 72
     9
 73
     5
 74
     0
 42
0.0000000001
 43
0.0000000001
 40
0.0
 40
0.0
 40
0.0
 40
0.0
 40
0.4105674575655068
 40
0.9999999999999999
 40
0.9999999999999999
 40
0.9999999999999999
 40
0.9999999999999999
 10
2577.461213418158
 20
-669.7912166067478
 30
0.0
 10
2577.449161373213
 20
-669.7867300734503
 30
0.0
 10
2577.419806769668
 20
-669.7758024336305
 30
0.0
 10
2577.352742029919
 20
-669.7642856755161
 30
0.0
 10
2577.313211889862
 20
-669.7574973235002
 30
0.0
  0
SPLINE
  5
1AD0A
330
18
100
AcDbEntity
  8
01
100
AcDbSpline
210
0.0
220
0.0
230
1.0
 70
     8
 71
     3
 72
     8
 73
     4
 74
     0
 42
0.0000000001
 43
0.0000000001
 40
0.0
 40
0.0
 40
0.0
 40
0.0
 40
1.0
 40
1.0
 40
1.0
 40
1.0
 10
2576.362974186651
 20
-680.4009961964654
 30
0.0
 10
2576.3215673067
 20
-680.4056865888984
 30
0.0
 10
2576.28013449405
 20
-680.4101460892158
 30
0.0
 10
2576.238679633688
 20
-680.4143750756062
 30
0.0
  0
LINE
  5
1AD0B
330
18
100
AcDbEntity
  8
01
100
AcDbLine
 10
2578.276559647697
 20
-679.2455234794048
 30
0.0
 11
2578.280597667529
 21
-679.2432192268731
 31
0.0
  0
SPLINE
  5
1AD0C
330
18
100
AcDbEntity
  8
01
100
AcDbSpline
210
0.0
220
0.0
230
1.0
 70
     8
 71
     3
 72
     8
 73
     4
 74
     0
 42
0.0000000001
 43
0.0000000001
 40
0.0
 40
0.0
 40
0.0
 40
0.0
 40
1.0
 40
1.0
 40
1.0
 40
1.0
 10
2576.2386796335
 20
-669.6182231083673
 30
0.0
 10
2576.280134493937
 20
-669.6224520947577
 30
0.0
 10
2576.321567306651
 20
-669.6269115950723
 30
0.0
 10
2576.362974186651
 20
-669.6316019875027
 30
0.0
  0
LINE
  5
1AD0D
330
18
100
AcDbEntity
  8
01
100
AcDbLine
 10
2527.382669508911
 20
-686.0162990919813
 30
0.0
 11
2527.382669508911
 21
-664.0162990919813
 31
0.0
  0
LINE
  5
1AD0E
330
18
100
AcDbEntity
  8
01
100
AcDbLine
 10
2576.238679551981
 20
-680.4143750705003
 30
0.0
 11
2528.798879583984
 21
-685.9955280029941
 31
0.0
  0
LINE
  5
1AD0F
330
18
100
AcDbEntity
  8
01
100
AcDbLine
 10
2576.238679524752
 20
-669.6182231151639
 30
0.0
 11
2528.798879583996
 21
-664.0370701809585
 31
0.0
  0
ARC
  5
1AD10
330
18
100
AcDbEntity
  8
01
100
AcDbCircle
 10
2528.689277856823
 20
-685.7167786407605
 30
0.0
 40
0.2995225292744162
100
AcDbArc
 50
270.2134280259119
 51
291.4643031510248
  0
LINE
  5
1AD11
330
18
100
AcDbEntity
  8
01
100
AcDbLine
 10
2528.690393582184
 20
-686.0162990919813
 30
0.0
 11
2527.382669508911
 21
-686.0162990919813
 31
0.0
  0
LINE
  5
1AD12
330
18
100
AcDbEntity
  8
01
100
AcDbLine
 10
2527.382669508911
 20
-664.0162990919813
 30
0.0
 11
2528.690393582184
 21
-664.0162990919813
 31
0.0
  0
ARC
  5
1AD13
330
18
100
AcDbEntity
  8
01
100
AcDbCircle
 10
2528.689277856877
 20
-664.3158195431093
 30
0.0
 40
0.2995225291803009
100
AcDbArc
 50
68.53569685099045
 51
89.7865719848229
  0
LINE
  5
1AD14
330
18
100
AcDbEntity
  8
01
100
AcDbLine
 10
2528.690393582184
 20
-686.0162990919813
 30
0.0
 11
2556.984966749559
 21
-686.0162990919813
 31
0.0
  0
LINE
  5
1AD15
330
18
100
AcDbEntity
  8
01
100
AcDbLine
 10
2527.183837406937
 20
-665.0162990919813
 30
0.0
 11
2527.183837406937
 21
-685.0162990919813
 31
0.0
  0
SPLINE
  5
1AD16
330
18
100
AcDbEntity
  8
01
100
AcDbSpline
210
0.0
220
0.0
230
1.0
 70
     8
 71
     3
 72
    10
 73
     6
 74
     0
 42
0.0000000001
 43
0.0000000001
 40
0.0
 40
0.0
 40
0.0
 40
0.0
 40
0.2453247720985068
 40
0.6314965854619112
 40
1.0
 40
1.0
 40
1.0
 40
1.0
 10
2577.313231033969
 20
-680.2751026867605
 30
0.0
 10
2577.257409240739
 20
-680.2866449250174
 30
0.0
 10
2577.11371697714
 20
-680.3163560870231
 30
0.0
 10
2576.780889862585
 20
-680.3559126074848
 30
0.0
 10
2576.500088041544
 20
-680.3862047311846
 30
0.0
 10
2576.362974186422
 20
-680.40099619459
 30
0.0
  0
SPLINE
  5
1AD17
330
18
100
AcDbEntity
  8
01
100
AcDbSpline
210
0.0
220
0.0
230
1.0
 70
     8
 71
     3
 72
    10
 73
     6
 74
     0
 42
0.0000000001
 43
0.0000000001
 40
0.0
 40
0.0
 40
0.0
 40
0.0
 40
0.2451891194566391
 40
0.6313454626814465
 40
1.0
 40
1.0
 40
1.0
 40
1.0
 10
2577.313211889862
 20
-669.7574973235002
 30
0.0
 10
2577.257435697745
 20
-669.7459609111789
 30
0.0
 10
2577.113815761032
 20
-669.7162554267321
 30
0.0
 10
2576.780995337737
 20
-669.6766968066755
 30
0.0
 10
2576.500143868446
 20
-669.6463994266102
 30
0.0
 10
2576.362974186429
 20
-669.6316019893744
 30
0.0
  0
LINE
  5
1AD18
330
18
100
AcDbEntity
  8
01
100
AcDbLine
 10
2578.26505543439
 20
-679.2520882348432
 30
0.0
 11
2578.276559647697
 21
-679.2455234794048
 31
0.0
  0
LINE
  5
1AD19
330
18
100
AcDbEntity
  8
01
100
AcDbLine
 10
2526.882669508911
 20
-682.9662992855971
 30
0.0
 11
2527.183837406937
 21
-682.9662992855971
 31
0.0
  0
LINE
  5
1AD1A
330
18
100
AcDbEntity
  8
01
100
AcDbLine
 10
2527.183837406937
 20
-667.0662992855974
 30
0.0
 11
2526.882669508911
 21
-667.0662992855972
 31
0.0
  0
ARC
  5
1AD1B
330
18
100
AcDbEntity
  8
01
100
AcDbCircle
 10
2556.984966749439
 20
-685.0162990920013
 30
0.0
 40
1.0
100
AcDbArc
 50
270.0000000068786
 51
285.8538633042972
  0
LINE
  5
1AD1C
330
18
100
AcDbEntity
  8
01
100
AcDbLine
 10
2557.258151449473
 20
-685.978260691894
 30
0.0
 11
2577.556146232409
 21
-680.210010136571
 31
0.0
  0
ARC
  5
1AD1D
330
18
100
AcDbEntity
  8
01
100
AcDbCircle
 10
2577.282791318789
 20
-670.784202114112
 30
0.0
 40
1.0
100
AcDbArc
 50
0.0
 51
74.13599828151175
  0
LINE
  5
1AD1E
330
18
100
AcDbEntity
  8
01
100
AcDbLine
 10
2528.690393582184
 20
-664.0159999135491
 30
0.0
 11
2556.984966749559
 21
-664.0159999135491
 31
0.0
  0
ARC
  5
1AD1F
330
18
100
AcDbEntity
  8
01
100
AcDbCircle
 10
2556.984966749439
 20
-665.0159999135291
 30
0.0
 40
1.0
100
AcDbArc
 50
74.14613669570276
 51
89.99999999301724
  0
LINE
  5
1AD20
330
18
100
AcDbEntity
  8
01
100
AcDbLine
 10
2557.258151449473
 20
-664.0540383136364
 30
0.0
 11
2577.556146232409
 21
-669.8222888689594
 31
0.0
  0
LINE
  5
1AD21
330
18
100
AcDbEntity
  8
01
100
AcDbLine
 10
2655.466520181752
 20
-670.6130987891896
 30
0.0
 11
2655.466520181752
 21
-679.419499394773
 31
0.0
  0
ARC
  5
1AD22
330
18
100
AcDbEntity
  8
01
100
AcDbCircle
 10
2656.466520181752
 20
-670.6130987891896
 30
0.0
 40
1.0
100
AcDbArc
 50
161.5650511770924
 51
180.0
  0
LINE
  5
1AD23
330
18
100
AcDbEntity
  8
01
100
AcDbLine
 10
2655.517836883701
 20
-679.7357271607897
 30
0.0
 11
2657.38343678277
 21
-685.3325268579969
 31
0.0
  0
ARC
  5
1AD24
330
18
100
AcDbEntity
  8
01
100
AcDbCircle
 10
2656.466520181752
 20
-679.419499394773
 30
0.0
 40
1.0
100
AcDbArc
 50
180.0
 51
198.4349488229199
  0
LINE
  5
1AD25
330
18
100
AcDbEntity
  8
01
100
AcDbLine
 10
2657.38343678277
 20
-664.7000713259632
 30
0.0
 11
2655.517836883701
 21
-670.2968710231729
 31
0.0
  0
SPLINE
  5
1AD26
330
18
100
AcDbEntity
  8
01
100
AcDbSpline
210
0.0
220
0.0
230
1.0
 70
     8
 71
     3
 72
     9
 73
     5
 74
     0
 42
0.0000000001
 43
0.0000000001
 40
0.0
 40
0.0
 40
0.0
 40
0.0
 40
0.4971336847320229
 40
0.9999999999999999
 40
0.9999999999999999
 40
0.9999999999999999
 40
0.9999999999999999
 10
2677.685612142811
 20
-685.8956523747034
 30
0.0
 10
2678.038006557982
 20
-685.8233050700245
 30
0.0
 10
2678.74685897735
 20
-685.6777761974075
 30
0.0
 10
2679.519577530423
 20
-685.6196455251076
 30
0.0
 10
2679.908151661945
 20
-685.5904135681238
 30
0.0
  0
SPLINE
  5
1AD27
330
18
100
AcDbEntity
  8
01
100
AcDbSpline
210
0.0
220
0.0
230
1.0
 70
     8
 71
     3
 72
     9
 73
     5
 74
     0
 42
0.0000000001
 43
0.0000000001
 40
0.0
 40
0.0
 40
0.0
 40
0.0
 40
0.5060576294160237
 40
0.9999999999999999
 40
0.9999999999999999
 40
0.9999999999999999
 40
0.9999999999999999
 10
2679.891824585867
 20
-664.4412162922077
 30
0.0
 10
2679.503531752581
 20
-664.4116280611873
 30
0.0
 10
2678.736241999958
 20
-664.3531599553816
 30
0.0
 10
2678.032610921205
 20
-664.2083724850282
 30
0.0
 10
2677.685057718148
 20
-664.1368558186911
 30
0.0
  0
LINE
  5
1AD28
330
18
100
AcDbEntity
  8
01
100
AcDbLine
 10
2677.685209711545
 20
-664.1368864808074
 30
0.0
 11
2677.23029761043
 21
-664.0352202999233
 31
0.0
  0
LINE
  5
1AD29
330
18
100
AcDbEntity
  8
01
100
AcDbLine
 10
2677.230374992957
 20
-685.9973785183576
 30
0.0
 11
2677.685246373488
 21
-685.8957267251288
 31
0.0
  0
ARC
  5
1AD2A
330
18
100
AcDbEntity
  8
01
100
AcDbCircle
 10
2677.03708436569
 20
-665.0162990919802
 30
0.0
 40
1.000000000000058
100
AcDbArc
 50
78.43054995700243
 51
90.00000000010422
  0
ARC
  5
1AD2B
330
18
100
AcDbEntity
  8
01
100
AcDbCircle
 10
2677.037164881852
 20
-685.0162990919799
 30
0.0
 40
1.0
100
AcDbArc
 50
270.0
 51
281.8628305241976
  0
ARC
  5
1AD2C
330
18
100
AcDbEntity
  8
01
100
AcDbCircle
 10
2658.332120080821
 20
-665.0162990919799
 30
0.0
 40
1.0
100
AcDbArc
 50
90.0
 51
161.5650511770801
  0
ARC
  5
1AD2D
330
18
100
AcDbEntity
  8
01
100
AcDbCircle
 10
2658.332120080821
 20
-685.0162990919799
 30
0.0
 40
1.0
100
AcDbArc
 50
198.4349488229199
 51
270.0
  0
SPLINE
  5
1AD2E
330
18
100
AcDbEntity
  8
01
100
AcDbSpline
210
0.0
220
0.0
230
1.0
 70
     8
 71
     3
 72
    10
 73
     6
 74
     0
 42
0.0000000001
 43
0.0000000001
 40
0.0
 40
0.0
 40
0.0
 40
0.0
 40
0.3343415713576167
 40
0.6676648310217684
 40
0.9999999999999999
 40
0.9999999999999999
 40
0.9999999999999999
 40
0.9999999999999999
 10
2657.200759055923
 20
-679.2520882348418
 30
0.0
 10
2657.240628939965
 20
-679.2506426197239
 30
0.0
 10
2657.320247275443
 20
-679.2477557924307
 30
0.0
 10
2657.440346215114
 20
-679.2447960665751
 30
0.0
 10
2657.520266518663
 20
-679.2437443197085
 30
0.0
 10
2657.560167354349
 20
-679.2432192268717
 30
0.0
  0
SPLINE
  5
1AD2F
330
18
100
AcDbEntity
  8
01
100
AcDbSpline
210
0.0
220
0.0
230
1.0
 70
     8
 71
     3
 72
    10
 73
     6
 74
     0
 42
0.0000000001
 43
0.0000000001
 40
0.0
 40
0.0
 40
0.0
 40
0.0
 40
0.3323351691751165
 40
0.6656584288392461
 40
1.0
 40
1.0
 40
1.0
 40
1.0
 10
2657.560167354349
 20
-670.7893789570884
 30
0.0
 10
2657.520266518642
 20
-670.7888538642513
 30
0.0
 10
2657.44034621507
 20
-670.7878021173848
 30
0.0
 10
2657.320247275405
 20
-670.7848423915301
 30
0.0
 10
2657.240628939956
 20
-670.7819555642367
 30
0.0
 10
2657.200759055938
 20
-670.7805099491189
 30
0.0
  0
SPLINE
  5
1AD30
330
18
100
AcDbEntity
  8
01
100
AcDbSpline
210
0.0
220
0.0
230
1.0
 70
     8
 71
     3
 72
    19
 73
    15
 74
     0
 42
0.0000000001
 43
0.0000000001
 40
0.0
 40
0.0
 40
0.0
 40
0.0
 40
0.0424084333662313
 40
0.0886689639415328
 40
0.1387821038209021
 40
0.1927481509182004
 40
0.2505672382792412
 40
0.3218805652856683
 40
0.5002505393646266
 40
0.6128084937673238
 40
0.7500691770242507
 40
0.8537312650327051
 40
0.9370474150957282
 40
1.0
 40
1.0
 40
1.0
 40
1.0
 10
2657.200759148608
 20
-670.78050874587
 30
0.0
 10
2657.160578027314
 20
-670.7788608708373
 30
0.0
 10
2657.076566001587
 20
-670.7754154388737
 30
0.0
 10
2656.947027771495
 20
-670.7691969023125
 30
0.0
 10
2656.809204877935
 20
-670.7619587685239
 30
0.0
 10
2656.664625637638
 20
-670.7536104560526
 30
0.0
 10
2656.506727342542
 20
-670.7437068929884
 30
0.0
 10
2656.254636710107
 20
-670.7259292345387
 30
0.0
 10
2655.991484033938
 20
-670.7050329852146
 30
0.0
 10
2655.746847945441
 20
-670.6806460987697
 30
0.0
 10
2655.596002140072
 20
-670.6609765148572
 30
0.0
 10
2655.509120459848
 20
-670.6428990781898
 30
0.0
 10
2655.471859758462
 20
-670.628742976079
 30
0.0
 10
2655.468126806528
 20
-670.6200934276634
 30
0.0
 10
2655.466520181752
 20
-670.6163707494633
 30
0.0
  0
SPLINE
  5
1AD31
330
18
100
AcDbEntity
  8
01
100
AcDbSpline
210
0.0
220
0.0
230
1.0
 70
     8
 71
     3
 72
     8
 73
     4
 74
     0
 42
0.0000000001
 43
0.0000000001
 40
0.0
 40
0.0
 40
0.0
 40
0.0
 40
1.0
 40
1.0
 40
1.0
 40
1.0
 10
2656.300442190269
 20
-680.4143750756047
 30
0.0
 10
2662.791493631838
 20
-682.275018178458
 30
0.0
 10
2669.279050915397
 20
-684.135441081857
 30
0.0
 10
2675.761304577308
 20
-685.9955280125492
 30
0.0
  0
SPLINE
  5
1AD32
330
18
100
AcDbEntity
  8
01
100
AcDbSpline
210
0.0
220
0.0
230
1.0
 70
     8
 71
     3
 72
     8
 73
     4
 74
     0
 42
0.0000000001
 43
0.0000000001
 40
0.0
 40
0.0
 40
0.0
 40
0.0
 40
1.0
 40
1.0
 40
1.0
 40
1.0
 10
2656.306806518155
 20
-680.4009961964636
 30
0.0
 10
2656.304643939359
 20
-680.4056865888973
 30
0.0
 10
2656.302521229635
 20
-680.4101460892144
 30
0.0
 10
2656.300442190269
 20
-680.4143750756047
 30
0.0
  0
SPLINE
  5
1AD33
330
18
100
AcDbEntity
  8
01
100
AcDbSpline
210
0.0
220
0.0
230
1.0
 70
     8
 71
     3
 72
     8
 73
     4
 74
     0
 42
0.0000000001
 43
0.0000000001
 40
0.0
 40
0.0
 40
0.0
 40
0.0
 40
1.0
 40
1.0
 40
1.0
 40
1.0
 10
2656.300442190089
 20
-669.6182231083661
 30
0.0
 10
2656.302521229502
 20
-669.6224520947563
 30
0.0
 10
2656.30464393929
 20
-669.6269115950712
 30
0.0
 10
2656.306806518153
 20
-669.6316019875009
 30
0.0
  0
SPLINE
  5
1AD34
330
18
100
AcDbEntity
  8
01
100
AcDbSpline
210
0.0
220
0.0
230
1.0
 70
     8
 71
     3
 72
     8
 73
     4
 74
     0
 42
0.0000000001
 43
0.0000000001
 40
0.0
 40
0.0
 40
0.0
 40
0.0
 40
1.0
 40
1.0
 40
1.0
 40
1.0
 10
2675.76130457726
 20
-664.0370701714138
 30
0.0
 10
2669.279050914677
 20
-665.897157102149
 30
0.0
 10
2662.791493628888
 20
-667.7575800056926
 30
0.0
 10
2656.300442190089
 20
-669.6182231083661
 30
0.0
  0
SPLINE
  5
1AD35
330
18
100
AcDbEntity
  8
01
100
AcDbSpline
210
0.0
220
0.0
230
1.0
 70
     8
 71
     3
 72
    10
 73
     6
 74
     0
 42
0.0000000001
 43
0.0000000001
 40
0.0
 40
0.0
 40
0.0
 40
0.0
 40
0.5
 40
0.5
 40
1.0
 40
1.0
 40
1.0
 40
1.0
 10
2787.44197091029
 20
-679.3861128681802
 30
0.0
 10
2787.442299201925
 20
-679.4011334097712
 30
0.0
 10
2787.387221478287
 20
-679.4192826753653
 30
0.0
 10
2787.20031065575
 20
-679.4515528439789
 30
0.0
 10
2787.0678435412
 20
-679.4657230257363
 30
0.0
 10
2786.935328254242
 20
-679.473534747853
 30
0.0
  0
SPLINE
  5
1AD36
330
18
100
AcDbEntity
  8
01
100
AcDbSpline
210
0.0
220
0.0
230
1.0
 70
     8
 71
     3
 72
    16
 73
    12
 74
     0
 42
0.0000000001
 43
0.0000000001
 40
0.0
 40
0.0
 40
0.0
 40
0.0
 40
0.0786888963696355
 40
0.1564566302556064
 40
0.2345339740335824
 40
0.3141309596038094
 40
0.4548534519938955
 40
0.5585179707417066
 40
0.6632215900757792
 40
0.8323892133719423
 40
1.0
 40
1.0
 40
1.0
 40
1.0
 10
2787.441970908817
 20
-670.6373376339653
 30
0.0
 10
2787.44129845714
 20
-670.6349459102584
 30
0.0
 10
2787.439961425766
 20
-670.630190461282
 30
0.0
 10
2787.428199687808
 20
-670.6225861262159
 30
0.0
 10
2787.409227405868
 20
-670.614741538673
 30
0.0
 10
2787.376051054572
 20
-670.6046485348915
 30
0.0
 10
2787.327310613114
 20
-670.5936582605212
 30
0.0
 10
2787.260913470797
 20
-670.5823269348244
 30
0.0
 10
2787.178297852683
 20
-670.570959238694
 30
0.0
 10
2787.06928563061
 20
-670.5589633745127
 30
0.0
 10
2786.979842761951
 20
-670.5529223078528
 30
0.0
 10
2786.93532806287
 20
-670.5499157376418
 30
0.0
  0
SPLINE
  5
1AD37
330
18
100
AcDbEntity
  8
01
100
AcDbSpline
210
0.0
220
0.0
230
1.0
 70
     8
 71
     3
 72
    21
 73
    17
 74
     0
 42
0.0000000001
 43
0.0000000001
 40
0.0
 40
0.0
 40
0.0
 40
0.0
 40
0.0543026746903798
 40
0.1089515020728126
 40
0.1639470580616293
 40
0.2192899076506203
 40
0.2749806051673976
 40
0.3310196945209795
 40
0.3874077094427233
 40
0.4441451737208603
 40
0.501232601428756
 40
0.5866890531856455
 40
0.6792957212739271
 40
0.7790511301746228
 40
0.8859533378763902
 40
0.9999999999999999
 40
0.9999999999999999
 40
0.9999999999999999
 40
0.9999999999999999
 10
2786.952868025605
 20
-676.6476978451725
 30
0.0
 10
2786.994149406038
 20
-676.6474463013407
 30
0.0
 10
2787.076975315288
 20
-676.6469416102094
 30
0.0
 10
2787.200141746654
 20
-676.6467028876999
 30
0.0
 10
2787.321905278816
 20
-676.6468392096593
 30
0.0
 10
2787.441316963618
 20
-676.6473886928569
 30
0.0
 10
2787.557473188096
 20
-676.648340986501
 30
0.0
 10
2787.669451832565
 20
-676.6496990425493
 30
0.0
 10
2787.776338411853
 20
-676.6514614896297
 30
0.0
 10
2787.877231083238
 20
-676.6536308573264
 30
0.0
 10
2787.986621542469
 20
-676.6566183690219
 30
0.0
 10
2788.101615202589
 20
-676.6608490982745
 30
0.0
 10
2788.214374446829
 20
-676.6666940035251
 30
0.0
 10
2788.305566486092
 20
-676.673771942346
 30
0.0
 10
2788.36985039473
 20
-676.6820411908178
 30
0.0
 10
2788.378281026596
 20
-676.6882729039352
 30
0.0
 10
2788.382632646158
 20
-676.6914895127412
 30
0.0
  0
SPLINE
  5
1AD38
330
18
100
AcDbEntity
  8
01
100
AcDbSpline
210
0.0
220
0.0
230
1.0
 70
     8
 71
     3
 72
    23
 73
    19
 74
     0
 42
0.0000000001
 43
0.0000000001
 40
0.0
 40
0.0
 40
0.0
 40
0.0
 40
0.0528182523272466
 40
0.1041556312968589
 40
0.154012137786094
 40
0.2023877805948915
 40
0.2492825772105166
 40
0.2946965546967934
 40
0.3386297507331105
 40
0.3810822148345328
 40
0.4220540097921852
 40
0.4615452133835036
 40
0.4995559204152067
 40
0.6018854951636194
 40
0.7030916251542205
 40
0.8031773224853901
 40
0.9021457048440085
 40
0.9999999999999999
 40
0.9999999999999999
 40
0.9999999999999999
 40
0.9999999999999999
 10
2788.382632646158
 20
-673.3319609220299
 30
0.0
 10
2788.381700417133
 20
-673.3334627995051
 30
0.0
 10
2788.379862096136
 20
-673.3364244460889
 30
0.0
 10
2788.365339789057
 20
-673.3406425904506
 30
0.0
 10
2788.343214853457
 20
-673.3446146676644
 30
0.0
 10
2788.313536541796
 20
-673.3483300618274
 30
0.0
 10
2788.277399266547
 20
-673.3517915062704
 30
0.0
 10
2788.235614449947
 20
-673.3549983266781
 30
0.0
 10
2788.18903816645
 20
-673.3579506842649
 30
0.0
 10
2788.138476082911
 20
-673.3606486667253
 30
0.0
 10
2788.084701854325
 20
-673.363091897278
 30
0.0
 10
2788.028436978005
 20
-673.3652818410557
 30
0.0
 10
2787.936884399304
 20
-673.3683280017093
 30
0.0
 10
2787.799423404679
 20
-673.3717341954074
 30
0.0
 10
2787.604827210817
 20
-673.3747674700388
 30
0.0
 10
2787.395458017895
 20
-673.3764619290167
 30
0.0
 10
2787.176838232267
 20
-673.3769450376527
 30
0.0
 10
2787.027242505938
 20
-673.376148569518
 30
0.0
 10
2786.952868025605
 20
-673.3757525895986
 30
0.0
  0
LINE
  5
1AD39
330
18
100
AcDbEntity
  8
01
100
AcDbLine
 10
2788.382632646158
 20
-671.6321551808056
 30
0.0
 11
2788.382632646158
 21
-678.3942399885206
 31
0.0
  0
ARC
  5
1AD3A
330
18
100
AcDbEntity
  8
01
100
AcDbCircle
 10
2787.3862607783
 20
-678.3912953214348
 30
0.0
 40
0.9963762191656275
100
AcDbArc
 50
273.2052359898751
 51
359.8306691403985
  0
ARC
  5
1AD3B
330
18
100
AcDbEntity
  8
01
100
AcDbCircle
 10
2787.386260778288
 20
-671.6321551808056
 30
0.0
 40
0.9963762191788412
100
AcDbArc
 50
0.1693308598880618
 51
86.79476409415366
  0
SPLINE
  5
1AD3D
330
18
100
AcDbEntity
  8
01
100
AcDbSpline
210
0.0
220
0.0
230
1.0
 70
    24
 71
     3
 72
    18
 73
    14
 74
     0
 42
0.0000000001
 43
0.0000000001
 40
0.0
 40
0.0
 40
0.0
 40
0.0
 40
0.0839597436665112
 40
0.1667230443678697
 40
0.2492037561948338
 40
0.3323250542961265
 40
0.4169891616065288
 40
0.5040503494536523
 40
0.5942948411753061
 40
0.6884291316167205
 40
0.7870761765890856
 40
0.8907776366593899
 40
0.9999999999999999
 40
0.9999999999999999
 40
0.9999999999999999
 40
0.9999999999999999
 10
2675.932598113733
 20
-664.0162990919799
 30
0.0
 10
2675.9525798353
 20
-664.0162990919799
 30
0.0
 10
2675.992258534942
 20
-664.0162990919799
 30
0.0
 10
2676.062647213651
 20
-664.0162990919799
 30
0.0
 10
2676.140215566907
 20
-664.0162990919799
 30
0.0
 10
2676.225733982647
 20
-664.0162990919799
 30
0.0
 10
2676.318950717447
 20
-664.0162990919799
 30
0.0
 10
2676.419888919122
 20
-664.0162990919799
 30
0.0
 10
2676.528505141542
 20
-664.0162990919799
 30
0.0
 10
2676.644786084752
 20
-664.0162990919799
 30
0.0
 10
2676.768725832569
 20
-664.0162990919799
 30
0.0
 10
2676.900312846524
 20
-664.0162990919799
 30
0.0
 10
2676.99071253459
 20
-664.0162990919799
 30
0.0
 10
2677.037084365688
 20
-664.0162990919799
 30
0.0
  0
SPLINE
  5
1AD3E
330
18
100
AcDbEntity
  8
01
100
AcDbSpline
210
0.0
220
0.0
230
1.0
 70
    24
 71
     3
 72
    17
 73
    13
 74
     0
 42
0.0000000001
 43
0.0000000001
 40
0.0
 40
0.0
 40
0.0
 40
0.0
 40
0.119840269243393
 40
0.2330526218349997
 40
0.3402725498500652
 40
0.4422476384012315
 40
0.5398460704773309
 40
0.6340571034811102
 40
0.7259794243438825
 40
0.8167948247074236
 40
0.9077282638308446
 40
1.0
 40
1.0
 40
1.0
 40
1.0
 10
2677.037164881852
 20
-686.0162990919799
 30
0.0
 10
2676.986284775895
 20
-686.0162990919799
 30
0.0
 10
2676.887338552163
 20
-686.0162990919799
 30
0.0
 10
2676.743769523543
 20
-686.0162990919799
 30
0.0
 10
2676.609438828208
 20
-686.0162990919799
 30
0.0
 10
2676.484364452602
 20
-686.0162990919799
 30
0.0
 10
2676.368554595602
 20
-686.0162990919799
 30
0.0
 10
2676.262065276585
 20
-686.0162990919799
 30
0.0
 10
2676.164876663509
 20
-686.0162990919799
 30
0.0
 10
2676.077309946461
 20
-686.0162990919799
 30
0.0
 10
2675.998448361347
 20
-686.0162990919799
 30
0.0
 10
2675.954654832179
 20
-686.0162990919799
 30
0.0
 10
2675.932598113731
 20
-686.0162990919799
 30
0.0
  0
LINE
  5
1AD3F
330
18
100
AcDbEntity
  8
01
100
AcDbLine
 10
2658.332120080821
 20
-686.0162990919799
 30
0.0
 11
2675.932598113731
 21
-686.0162990919799
 31
0.0
  0
ARC
  5
1AD40
330
18
100
AcDbEntity
  8
01
100
AcDbCircle
 10
2658.332403516376
 20
-664.7353289618239
 30
0.0
 40
0.7190299257078011
100
AcDbArc
 50
90.02258551549211
 51
103.8052866215116
  0
LINE
  5
1AD41
330
18
100
AcDbEntity
  8
01
100
AcDbLine
 10
2658.332120080821
 20
-664.0162990919799
 30
0.0
 11
2675.932598113733
 21
-664.0162990919799
 31
0.0
  0
SPLINE
  5
1AD42
330
18
100
AcDbEntity
  8
01
100
AcDbSpline
210
0.0
220
0.0
230
1.0
 70
     8
 71
     3
 72
    10
 73
     6
 74
     0
 42
0.0000000001
 43
0.0000000001
 40
0.0
 40
0.0
 40
0.0
 40
0.0
 40
0.3467292126223085
 40
0.7381714902233174
 40
1.0
 40
1.0
 40
1.0
 40
1.0
 10
2679.136224825842
 20
-685.6641409729338
 30
0.0
 10
2679.066044180495
 20
-685.7354097363246
 30
0.0
 10
2678.916632623369
 20
-685.8871378496859
 30
0.0
 10
2678.640941532946
 20
-685.9981329008996
 30
0.0
 10
2678.453984302757
 20
-686.011101375455
 30
0.0
 10
2678.379052537985
 20
-686.0162990919799
 30
0.0
  0
LINE
  5
1AD43
330
18
100
AcDbEntity
  8
01
100
AcDbLine
 10
2677.134383075269
 20
-686.0162990919799
 30
0.0
 11
2678.379052537985
 21
-686.0162990919799
 31
0.0
  0
SPLINE
  5
1AD44
330
18
100
AcDbEntity
  8
01
100
AcDbSpline
210
0.0
220
0.0
230
1.0
 70
     8
 71
     3
 72
    10
 73
     6
 74
     0
 42
0.0000000001
 43
0.0000000001
 40
0.0
 40
0.0
 40
0.0
 40
0.0
 40
0.3465002606936584
 40
0.7380791582456137
 40
1.0
 40
1.0
 40
1.0
 40
1.0
 10
2679.136000659656
 20
-664.3682575540982
 30
0.0
 10
2679.065888835071
 20
-664.2970631878633
 30
0.0
 10
2678.916543849388
 20
-664.1454122834822
 30
0.0
 10
2678.640940200135
 20
-664.0344669515363
 30
0.0
 10
2678.453983471069
 20
-664.0214972939501
 30
0.0
 10
2678.379051744393
 20
-664.0162990919799
 30
0.0
  0
LINE
  5
1AD45
330
18
100
AcDbEntity
  8
01
100
AcDbLine
 10
2677.134302559106
 20
-664.0162990919799
 30
0.0
 11
2678.379051744393
 21
-664.0162990919799
 31
0.0
  0
SPLINE
  5
1AD46
330
18
100
AcDbEntity
  8
01
100
AcDbSpline
210
0.0
220
0.0
230
1.0
 70
     8
 71
     3
 72
    25
 73
    21
 74
     0
 42
0.0000000001
 43
0.0000000001
 40
0.0
 40
0.0
 40
0.0
 40
0.0
 40
0.1275162504934405
 40
0.2820472593569216
 40
0.282166234814581
 40
0.28226285145005
 40
0.2824422449791314
 40
0.2827844777606477
 40
0.2834654010868402
 40
0.2849038909289052
 40
0.2881823005716541
 40
0.2962995820095712
 40
0.3180103346272334
 40
0.3797758007695785
 40
0.5630581963624083
 40
0.6230334448296416
 40
0.6899303875311185
 40
0.763747743545052
 40
0.8444840918070824
 40
1.0
 40
1.0
 40
1.0
 40
1.0
 10
2657.200759055923
 20
-679.2520882348418
 30
0.0
 10
2657.093813168028
 20
-679.2567768658874
 30
0.0
 10
2656.857264536281
 20
-679.2671474306695
 30
0.0
 10
2656.634449225693
 20
-679.280684586971
 30
0.0
 10
2656.518585444673
 20
-679.2883144619915
 30
0.0
 10
2656.518289729459
 20
-679.2883339678875
 30
0.0
 10
2656.517826913435
 20
-679.288364539589
 30
0.0
 10
2656.516926854406
 20
-679.2884241434577
 30
0.0
 10
2656.515085083437
 20
-679.2885465780263
 30
0.0
 10
2656.511049518828
 20
-679.2888163245301
 30
0.0
 10
2656.501470151289
 20
-679.2894612577419
 30
0.0
 10
2656.476858562489
 20
-679.2911339333908
 30
0.0
 10
2656.409489245686
 20
-679.2957829930059
 30
0.0
 10
2656.219523545148
 20
-679.3093565030248
 30
0.0
 10
2656.024966436865
 20
-679.3250336471632
 30
0.0
 10
2655.859156668471
 20
-679.3407840160077
 30
0.0
 10
2655.762704539696
 20
-679.3508482484364
 30
0.0
 10
2655.67120939192
 20
-679.3618802930567
 30
0.0
 10
2655.563373858659
 20
-679.3771439267654
 30
0.0
 10
2655.522064340043
 20
-679.3889799808604
 30
0.0
 10
2655.494871849268
 20
-679.3967712067714
 30
0.0
  0
LINE
  5
1AD47
330
18
100
AcDbEntity
  8
1CENTER
100
AcDbLine
 10
2668.382669508911
 20
-688.1109467744726
 30
0.0
 11
2668.382669508911
 21
-661.92165140949
 31
0.0
  0
LINE
  5
1AD48
330
18
100
AcDbEntity
  8
01
100
AcDbLine
 10
2679.891824585867
 20
-664.4412162922077
 30
0.0
 11
2786.93532806287
 21
-670.5499157376418
 31
0.0
  0
LINE
  5
1AD49
330
18
100
AcDbEntity
  8
01
100
AcDbLine
 10
2786.931970136119
 20
-679.475738170204
 30
0.0
 11
2679.908151661945
 21
-685.5904135681238
 31
0.0
  0
LINE
  5
1AD4A
330
18
100
AcDbEntity
  8
01
100
AcDbLine
 10
2786.952868025605
 20
-673.3757525895986
 30
0.0
 11
2657.560167354349
 21
-670.7893789570884
 31
0.0
  0
LINE
  5
1AD4B
330
18
100
AcDbEntity
  8
01
100
AcDbLine
 10
2657.560167354347
 20
-679.2432192268717
 30
0.0
 11
2786.952868025605
 21
-676.6476978451725
 31
0.0
  0
LINE
  5
1AD4C
330
18
100
AcDbEntity
  8
1CENTER
100
AcDbLine
 10
2652.299111084713
 20
-370.517625439366
 30
0.0
 11
2660.432783446561
 21
-370.5176174061158
 31
0.0
  0
SPLINE
  5
1AD4D
330
18
100
AcDbEntity
  8
01
100
AcDbSpline
210
0.0
220
0.0
230
1.0
 70
     8
 71
     3
 72
    18
 73
    14
 74
     0
 42
0.0000000001
 43
0.0000000001
 40
0.0000649757542841
 40
0.0000649757542841
 40
0.0000649757542841
 40
0.0000649757542841
 40
0.0860520609830585
 40
0.2305629888503389
 40
0.3725690207133783
 40
0.5129959002680089
 40
0.6565061431096817
 40
0.7501835193149282
 40
0.8477363410374643
 40
0.8940869277261254
 40
0.9350128367551847
 40
0.9703342150502404
 40
1.0
 40
1.0
 40
1.0
 40
1.0
 10
2679.382755918262
 20
-353.0175852698977
 30
0.0
 10
2679.382750548538
 20
-353.6854913142366
 30
0.0
 10
2679.382736156113
 20
-355.4758883462479
 30
0.0
 10
2679.382722775344
 20
-358.3697218516583
 30
0.0
 10
2679.382821202854
 20
-361.6859085960024
 30
0.0
 10
2679.382533335906
 20
-364.9918132319873
 30
0.0
 10
2679.382503893331
 20
-367.9256698298424
 30
0.0
 10
2679.38279394276
 20
-370.5262045425267
 30
0.0
 10
2679.382738529958
 20
-372.361182126058
 30
0.0
 10
2679.382696495458
 20
-373.7976898501676
 30
0.0
 10
2679.3828077714
 20
-374.7491600472132
 30
0.0
 10
2679.382677060218
 20
-375.5377557528969
 30
0.0
 10
2679.382765017194
 20
-375.8672208962822
 30
0.0
 10
2679.382805168397
 20
-376.0176173992851
 30
0.0
  0
LINE
  5
1AD4E
330
18
100
AcDbEntity
  8
01
100
AcDbLine
 10
2786.882766528915
 20
-349.0176174064483
 30
0.0
 11
2683.38275591724
 21
-349.0176174284562
 31
0.0
  0
ARC
  5
1AD4F
330
18
100
AcDbEntity
  8
01
100
AcDbCircle
 10
2786.882766528915
 20
-347.5176174064483
 30
0.0
 40
1.5
100
AcDbArc
 50
270.0000000128191
 51
0.0
  0
LINE
  5
1AD50
330
18
100
AcDbEntity
  8
01
100
AcDbLine
 10
2658.382766528911
 20
-376.216449508088
 30
0.0
 11
2658.382766528911
 21
-376.0176174061131
 31
0.0
  0
LINE
  5
1AD51
330
18
100
AcDbEntity
  8
01
100
AcDbLine
 10
2678.382766528911
 20
-376.0176174061131
 30
0.0
 11
2678.382766528911
 21
-376.216449508088
 31
0.0
  0
LINE
  5
1AD52
330
18
100
AcDbEntity
  8
01
100
AcDbLine
 10
2660.432801106014
 20
-376.5176174061131
 30
0.0
 11
2660.432801106014
 21
-376.216449508088
 31
0.0
  0
LINE
  5
1AD53
330
18
100
AcDbEntity
  8
01
100
AcDbLine
 10
2676.332801106016
 20
-376.216449508088
 30
0.0
 11
2676.332801106016
 21
-376.5176174061131
 31
0.0
  0
SPLINE
  5
1AD54
330
18
100
AcDbEntity
  8
01
100
AcDbSpline
210
0.0
220
0.0
230
1.0
 70
     8
 71
     3
 72
    15
 73
    11
 74
     0
 42
0.0000000001
 43
0.0000000001
 40
0.0
 40
0.0
 40
0.0
 40
0.0
 40
0.0621384659276811
 40
0.1194624660158409
 40
0.2375262378245288
 40
0.485056379678497
 40
0.6028685908047778
 40
0.741824810946498
 40
0.8709376368659568
 40
1.0
 40
1.0
 40
1.0
 40
1.0
 10
2677.907212044826
 20
-346.752018185725
 30
0.0
 10
2677.944765892055
 20
-346.7377075285027
 30
0.0
 10
2678.016963928029
 20
-346.7101949985973
 30
0.0
 10
2678.163409699563
 20
-346.6631336320221
 30
0.0
 10
2678.428803410024
 20
-346.5935155155681
 30
0.0
 10
2678.740568802966
 20
-346.5457460352419
 30
0.0
 10
2679.069561241359
 20
-346.5216399202696
 30
0.0
 10
2679.322900783726
 20
-346.5167901020415
 30
0.0
 10
2679.584481933299
 20
-346.5242666700993
 30
0.0
 10
2679.754423268408
 20
-346.5395321756483
 30
0.0
 10
2679.839377327641
 20
-346.5471634365291
 30
0.0
  0
SPLINE
  5
1AD55
330
18
100
AcDbEntity
  8
01
100
AcDbSpline
210
0.0
220
0.0
230
1.0
 70
     8
 71
     3
 72
    11
 73
     7
 74
     0
 42
0.0000000001
 43
0.0000000001
 40
0.0
 40
0.0
 40
0.0
 40
0.0
 40
0.246667354855828
 40
0.4951061132192802
 40
0.7459932421170662
 40
0.9999999999999999
 40
0.9999999999999999
 40
0.9999999999999999
 40
0.9999999999999999
 10
2677.576210592398
 20
-346.929688216511
 30
0.0
 10
2677.602068818741
 20
-346.9121496574932
 30
0.0
 10
2677.653970968288
 20
-346.8769465890047
 30
0.0
 10
2677.735608116499
 20
-346.8304638982755
 30
0.0
 10
2677.819964961135
 20
-346.7880948865801
 30
0.0
 10
2677.878010134117
 20
-346.7640931864299
 30
0.0
 10
2677.907212044826
 20
-346.752018185725
 30
0.0
  0
SPLINE
  5
1AD56
330
18
100
AcDbEntity
  8
01
100
AcDbSpline
210
0.0
220
0.0
230
1.0
 70
     8
 71
     3
 72
    19
 73
    15
 74
     0
 42
0.0000000001
 43
0.0000000001
 40
0.0
 40
0.0
 40
0.0
 40
0.0
 40
0.0974617489138209
 40
0.1847107255476317
 40
0.261814459899569
 40
0.3288460592983783
 40
0.385864790067484
 40
0.4277977639963271
 40
0.5108213901195143
 40
0.5928931626424222
 40
0.6749542339723672
 40
0.7852446773393177
 40
0.8934743715277373
 40
1.0
 40
1.0
 40
1.0
 40
1.0
 10
2676.944586764145
 20
-348.7300994765238
 30
0.0
 10
2676.945058392547
 20
-348.6667764315536
 30
0.0
 10
2676.94595222859
 20
-348.5467658047111
 30
0.0
 10
2676.957056711291
 20
-348.3769036774585
 30
0.0
 10
2676.974942980713
 20
-348.2272195119814
 30
0.0
 10
2676.996237960367
 20
-348.0978839085043
 30
0.0
 10
2677.017907267943
 20
-347.9918852067323
 30
0.0
 10
2677.046643073068
 20
-347.8766609463784
 30
0.0
 10
2677.085414849877
 20
-347.7470858152561
 30
0.0
 10
2677.142065873229
 20
-347.5957386449469
 30
0.0
 10
2677.216399070386
 20
-347.4322835738609
 30
0.0
 10
2677.313007442627
 20
-347.2607422442417
 30
0.0
 10
2677.434596403579
 20
-347.0854852184021
 30
0.0
 10
2677.529256235434
 20
-346.9813451027413
 30
0.0
 10
2677.576210592398
 20
-346.929688216511
 30
0.0
  0
SPLINE
  5
1AD57
330
18
100
AcDbEntity
  8
01
100
AcDbSpline
210
0.0
220
0.0
230
1.0
 70
     8
 71
     3
 72
    11
 73
     7
 74
     0
 42
0.0000000001
 43
0.0000000001
 40
0.0
 40
0.0
 40
0.0
 40
0.0
 40
0.2788341038430541
 40
0.5384644005889189
 40
0.7788535199034351
 40
0.9999999999999999
 40
0.9999999999999999
 40
0.9999999999999999
 40
0.9999999999999999
 10
2676.998516707198
 20
-349.3850493427045
 30
0.0
 10
2676.98984889931
 20
-349.3245672339864
 30
0.0
 10
2676.973110251082
 20
-349.2077685283476
 30
0.0
 10
2676.95702160587
 20
-349.0377451527353
 30
0.0
 10
2676.947056445523
 20
-348.8798801061204
 30
0.0
 10
2676.945386787113
 20
-348.7786190730041
 30
0.0
 10
2676.944586764145
 20
-348.7300994765238
 30
0.0
  0
SPLINE
  5
1AD58
330
18
100
AcDbEntity
  8
01
100
AcDbSpline
210
0.0
220
0.0
230
1.0
 70
     8
 71
     3
 72
     9
 73
     5
 74
     0
 42
0.0000000001
 43
0.0000000001
 40
0.0
 40
0.0
 40
0.0
 40
0.0
 40
0.477460274534142
 40
1.0
 40
1.0
 40
1.0
 40
1.0
 10
2677.524605729893
 20
-345.8115113650798
 30
0.0
 10
2674.31507033182
 20
-342.6310940678792
 30
0.0
 10
2667.592970988152
 20
-335.969980113836
 30
0.0
 10
2660.876992356661
 20
-329.3049293396699
 30
0.0
 10
2657.367626726326
 20
-325.8221755379215
 30
0.0
  0
LINE
  5
1AD59
330
18
100
AcDbEntity
  8
01
100
AcDbLine
 10
2679.382805168397
 20
-376.0176174061131
 30
0.0
 11
2657.382766528911
 21
-376.0176174061131
 31
0.0
  0
SPLINE
  5
1AD5A
330
18
100
AcDbEntity
  8
01
100
AcDbSpline
210
0.0
220
0.0
230
1.0
 70
     8
 71
     3
 72
    12
 73
     8
 74
     0
 42
0.0000000001
 43
0.0000000001
 40
0.0
 40
0.0
 40
0.0
 40
0.0
 40
0.157441155016458
 40
0.3235627903252723
 40
0.4984485582856485
 40
0.7268212218397349
 40
0.9831250544958003
 40
0.9831250544958003
 40
0.9831250544958003
 40
0.9831250544958003
 10
2679.382766528911
 20
-376.0176174061131
 30
0.0
 10
2679.26382262521
 20
-374.6193662898482
 30
0.0
 10
2679.019376874229
 20
-371.7457718176353
 30
0.0
 10
2678.635295084408
 20
-367.3196951919418
 30
0.0
 10
2678.188359098794
 20
-362.2645112792435
 30
0.0
 10
2677.65903934102
 20
-356.409704513546
 30
0.0
 10
2677.254824844164
 20
-352.1086969887903
 30
0.0
 10
2676.998516707198
 20
-349.3850493427045
 30
0.0
  0
LINE
  5
1AD5B
330
18
100
AcDbEntity
  8
01
100
AcDbLine
 10
2658.16095818448
 20
-374.6014073310286
 30
0.0
 11
2675.761436217389
 21
-346.8111788580128
 31
0.0
  0
LINE
  5
1AD5C
330
18
100
AcDbEntity
  8
01
100
AcDbLine
 10
2657.333019920808
 20
-374.7490788995366
 30
0.0
 11
2657.382766528911
 21
-376.0176174061131
 31
0.0
  0
LINE
  5
1AD5D
330
18
100
AcDbEntity
  8
01
100
AcDbLine
 10
2655.468188071008
 20
-327.1958667296259
 30
0.0
 11
2657.333019920808
 21
-374.7490788995366
 31
0.0
  0
LINE
  5
1AD5E
330
18
100
AcDbEntity
  8
01
100
AcDbLine
 10
2678.382766528911
 20
-376.216449508088
 30
0.0
 11
2658.382766528911
 21
-376.216449508088
 31
0.0
  0
LINE
  5
1AD5F
330
18
100
AcDbEntity
  8
01
100
AcDbLine
 10
2786.858923587507
 20
-348.99233016764
 30
0.0
 11
2786.858923872463
 21
-348.9923304379737
 31
0.0
  0
ARC
  5
1AD60
330
18
100
AcDbEntity
  8
01
100
AcDbCircle
 10
2786.8827665289
 20
-332.448951951079
 30
0.0
 40
1.5
100
AcDbArc
 50
0.0
 51
87.31622484081629
  0
LINE
  5
1AD61
330
18
100
AcDbEntity
  8
01
100
AcDbLine
 10
2788.382766528915
 20
-332.4489519510809
 30
0.0
 11
2788.382766528915
 21
-347.5176174064483
 31
0.0
  0
LINE
  5
1AD62
330
18
100
AcDbEntity
  8
01
100
AcDbLine
 10
2657.56029914507
 20
-325.1196892474956
 30
0.0
 11
2786.95300190834
 21
-330.9505971895243
 31
0.0
  0
ARC
  5
1AD63
330
18
100
AcDbEntity
  8
01
100
AcDbCircle
 10
2657.466651972471
 20
-327.1174955962352
 30
0.0
 40
2.0
100
AcDbArc
 50
87.31622484060777
 51
182.2457425658935
  0
ARC
  5
1AD64
330
18
100
AcDbEntity
  8
01
100
AcDbCircle
 10
2683.382755918133
 20
-353.0176174284562
 30
0.0
 40
4.0
100
AcDbArc
 50
90.0000000128191
 51
179.9995393625938
  0
LINE
  5
1AD65
330
18
100
AcDbEntity
  8
01
100
AcDbLine
 10
2679.839379399989
 20
-346.547165059732
 30
0.0
 11
2786.858923302488
 21
-348.9923298972454
 31
0.0
  0
LINE
  5
1AD68
330
18
100
AcDbEntity
  8
01
100
AcDbLine
 10
2302.382902188404
 20
-648.5162990919831
 30
0.0
 11
2354.3829021884
 21
-648.5162990919831
 31
0.0
  0
LINE
  5
1AD69
330
18
100
AcDbEntity
  8
01
100
AcDbLine
 10
2354.3829021884
 20
-701.5162990919831
 30
0.0
 11
2302.382902188404
 21
-701.5162990919831
 31
0.0
  0
LINE
  5
1AD6A
330
18
100
AcDbEntity
  8
01
100
AcDbLine
 10
2354.8829021884
 20
-649.0162990919831
 30
0.0
 11
2354.8829021884
 21
-701.0162990919831
 31
0.0
  0
ARC
  5
1AD6B
330
18
100
AcDbEntity
  8
01
100
AcDbCircle
 10
2354.3829021884
 20
-701.0162990919831
 30
0.0
 40
0.5
100
AcDbArc
 50
270.0
 51
0.0
  0
ARC
  5
1AD6C
330
18
100
AcDbEntity
  8
01
100
AcDbCircle
 10
2354.3829021884
 20
-649.0162990919831
 30
0.0
 40
0.5
100
AcDbArc
 50
0.0
 51
90.0
  0
LINE
  5
1AD6D
330
18
100
AcDbEntity
  8
01
100
AcDbLine
 10
2301.882902188404
 20
-649.0162990919831
 30
0.0
 11
2301.882902188404
 21
-665.2967055381074
 31
0.0
  0
LINE
  5
1AD6E
330
18
100
AcDbEntity
  8
01
100
AcDbLine
 10
2301.882902188404
 20
-684.7348627460734
 30
0.0
 11
2301.882902188404
 21
-701.0162990919831
 31
0.0
  0
ARC
  5
1AD6F
330
18
100
AcDbEntity
  8
01
100
AcDbCircle
 10
2302.382902188404
 20
-701.0162990919831
 30
0.0
 40
0.5
100
AcDbArc
 50
180.0
 51
270.0
  0
ARC
  5
1AD70
330
18
100
AcDbEntity
  8
01
100
AcDbCircle
 10
2302.382902188404
 20
-649.0162990919831
 30
0.0
 40
0.5
100
AcDbArc
 50
90.0
 51
180.0
  0
LINE
  5
1AD71
330
18
100
AcDbEntity
  8
01
100
AcDbLine
 10
2418.482780378526
 20
-679.2480968914184
 30
0.0
 11
2418.482780378526
 21
-670.7870747045578
 31
0.0
  0
ARC
  5
1AD72
330
18
100
AcDbEntity
  8
01
100
AcDbCircle
 10
2419.482780378526
 20
-679.2480968914184
 30
0.0
 40
1.0
100
AcDbArc
 50
180.0
 51
254.1359982815117
  0
LINE
  5
1AD73
330
18
100
AcDbEntity
  8
01
100
AcDbLine
 10
2469.581734290378
 20
-685.0162990919813
 30
0.0
 11
2469.382902188404
 21
-685.0162990919813
 31
0.0
  0
LINE
  5
1AD74
330
18
100
AcDbEntity
  8
01
100
AcDbLine
 10
2469.382902188404
 20
-665.0162990919813
 30
0.0
 11
2469.581734290378
 21
-665.0162990919813
 31
0.0
  0
SPLINE
  5
1AD75
330
18
100
AcDbEntity
  8
01
100
AcDbSpline
210
0.0
220
0.0
230
1.0
 70
     8
 71
     3
 72
     9
 73
     5
 74
     0
 42
0.0000000001
 43
0.0000000001
 40
0.0
 40
0.0
 40
0.0
 40
0.0
 40
0.4105674575655068
 40
0.9999999999999999
 40
0.9999999999999999
 40
0.9999999999999999
 40
0.9999999999999999
 10
2419.304358279157
 20
-669.7912166067478
 30
0.0
 10
2419.316410324102
 20
-669.7867300734503
 30
0.0
 10
2419.345764927647
 20
-669.7758024336305
 30
0.0
 10
2419.412829667396
 20
-669.7642856755161
 30
0.0
 10
2419.452359807453
 20
-669.7574973235002
 30
0.0
  0
SPLINE
  5
1AD76
330
18
100
AcDbEntity
  8
01
100
AcDbSpline
210
0.0
220
0.0
230
1.0
 70
     8
 71
     3
 72
     8
 73
     4
 74
     0
 42
0.0000000001
 43
0.0000000001
 40
0.0
 40
0.0
 40
0.0
 40
0.0
 40
1.0
 40
1.0
 40
1.0
 40
1.0
 10
2420.402597510664
 20
-680.4009961964654
 30
0.0
 10
2420.444004390615
 20
-680.4056865888984
 30
0.0
 10
2420.485437203265
 20
-680.4101460892158
 30
0.0
 10
2420.526892063627
 20
-680.4143750756062
 30
0.0
  0
LINE
  5
1AD77
330
18
100
AcDbEntity
  8
01
100
AcDbLine
 10
2418.489012049617
 20
-679.2455234794048
 30
0.0
 11
2418.484974029786
 21
-679.2432192268731
 31
0.0
  0
SPLINE
  5
1AD78
330
18
100
AcDbEntity
  8
01
100
AcDbSpline
210
0.0
220
0.0
230
1.0
 70
     8
 71
     3
 72
     8
 73
     4
 74
     0
 42
0.0000000001
 43
0.0000000001
 40
0.0
 40
0.0
 40
0.0
 40
0.0
 40
1.0
 40
1.0
 40
1.0
 40
1.0
 10
2420.526892063815
 20
-669.6182231083673
 30
0.0
 10
2420.485437203378
 20
-669.6224520947577
 30
0.0
 10
2420.444004390664
 20
-669.6269115950723
 30
0.0
 10
2420.402597510664
 20
-669.6316019875027
 30
0.0
  0
LINE
  5
1AD79
330
18
100
AcDbEntity
  8
01
100
AcDbLine
 10
2469.382902188404
 20
-686.0162990919813
 30
0.0
 11
2469.382902188404
 21
-664.0162990919813
 31
0.0
  0
LINE
  5
1AD7A
330
18
100
AcDbEntity
  8
01
100
AcDbLine
 10
2420.526892145334
 20
-680.4143750705003
 30
0.0
 11
2467.966692113331
 21
-685.9955280029941
 31
0.0
  0
LINE
  5
1AD7B
330
18
100
AcDbEntity
  8
01
100
AcDbLine
 10
2420.526892172563
 20
-669.6182231151639
 30
0.0
 11
2467.966692113318
 21
-664.0370701809585
 31
0.0
  0
ARC
  5
1AD7C
330
18
100
AcDbEntity
  8
01
100
AcDbCircle
 10
2468.076293840492
 20
-685.7167786407605
 30
0.0
 40
0.2995225292744162
100
AcDbArc
 50
248.5356968489752
 51
269.7865719740881
  0
LINE
  5
1AD7D
330
18
100
AcDbEntity
  8
01
100
AcDbLine
 10
2468.075178115131
 20
-686.0162990919813
 30
0.0
 11
2469.382902188404
 21
-686.0162990919813
 31
0.0
  0
LINE
  5
1AD7E
330
18
100
AcDbEntity
  8
01
100
AcDbLine
 10
2469.382902188404
 20
-664.0162990919813
 30
0.0
 11
2468.075178115131
 21
-664.0162990919813
 31
0.0
  0
ARC
  5
1AD7F
330
18
100
AcDbEntity
  8
01
100
AcDbCircle
 10
2468.076293840438
 20
-664.3158195431093
 30
0.0
 40
0.2995225291803009
100
AcDbArc
 50
90.21342801528131
 51
111.4643031490095
  0
LINE
  5
1AD80
330
18
100
AcDbEntity
  8
01
100
AcDbLine
 10
2468.075178115131
 20
-686.0162990919813
 30
0.0
 11
2439.780604947756
 21
-686.0162990919813
 31
0.0
  0
LINE
  5
1AD81
330
18
100
AcDbEntity
  8
01
100
AcDbLine
 10
2469.581734290378
 20
-665.0162990919813
 30
0.0
 11
2469.581734290378
 21
-685.0162990919813
 31
0.0
  0
SPLINE
  5
1AD82
330
18
100
AcDbEntity
  8
01
100
AcDbSpline
210
0.0
220
0.0
230
1.0
 70
     8
 71
     3
 72
    10
 73
     6
 74
     0
 42
0.0000000001
 43
0.0000000001
 40
0.0
 40
0.0
 40
0.0
 40
0.0
 40
0.2453247720985068
 40
0.6314965854619112
 40
1.0
 40
1.0
 40
1.0
 40
1.0
 10
2419.452340663346
 20
-680.2751026867605
 30
0.0
 10
2419.508162456576
 20
-680.2866449250174
 30
0.0
 10
2419.651854720175
 20
-680.3163560870231
 30
0.0
 10
2419.98468183473
 20
-680.3559126074848
 30
0.0
 10
2420.265483655771
 20
-680.3862047311846
 30
0.0
 10
2420.402597510893
 20
-680.40099619459
 30
0.0
  0
SPLINE
  5
1AD83
330
18
100
AcDbEntity
  8
01
100
AcDbSpline
210
0.0
220
0.0
230
1.0
 70
     8
 71
     3
 72
    10
 73
     6
 74
     0
 42
0.0000000001
 43
0.0000000001
 40
0.0
 40
0.0
 40
0.0
 40
0.0
 40
0.2451891194566391
 40
0.6313454626814465
 40
1.0
 40
1.0
 40
1.0
 40
1.0
 10
2419.452359807453
 20
-669.7574973235002
 30
0.0
 10
2419.50813599957
 20
-669.7459609111789
 30
0.0
 10
2419.651755936283
 20
-669.7162554267321
 30
0.0
 10
2419.984576359578
 20
-669.6766968066755
 30
0.0
 10
2420.265427828869
 20
-669.6463994266102
 30
0.0
 10
2420.402597510886
 20
-669.6316019893744
 30
0.0
  0
LINE
  5
1AD84
330
18
100
AcDbEntity
  8
01
100
AcDbLine
 10
2418.500516262925
 20
-679.2520882348432
 30
0.0
 11
2418.489012049617
 21
-679.2455234794048
 31
0.0
  0
LINE
  5
1AD85
330
18
100
AcDbEntity
  8
01
100
AcDbLine
 10
2469.882902188404
 20
-682.9662992855971
 30
0.0
 11
2469.581734290378
 21
-682.9662992855971
 31
0.0
  0
LINE
  5
1AD86
330
18
100
AcDbEntity
  8
01
100
AcDbLine
 10
2469.581734290378
 20
-667.0662992855974
 30
0.0
 11
2469.882902188404
 21
-667.0662992855972
 31
0.0
  0
ARC
  5
1AD87
330
18
100
AcDbEntity
  8
01
100
AcDbCircle
 10
2439.780604947876
 20
-685.0162990920013
 30
0.0
 40
1.0
100
AcDbArc
 50
254.1461366957028
 51
269.9999999931214
  0
LINE
  5
1AD88
330
18
100
AcDbEntity
  8
01
100
AcDbLine
 10
2439.507420247842
 20
-685.978260691894
 30
0.0
 11
2419.209425464906
 21
-680.210010136571
 31
0.0
  0
ARC
  5
1AD89
330
18
100
AcDbEntity
  8
01
100
AcDbCircle
 10
2419.482780378526
 20
-670.784202114112
 30
0.0
 40
1.0
100
AcDbArc
 50
105.8640017184883
 51
180.0
  0
LINE
  5
1AD8A
330
18
100
AcDbEntity
  8
01
100
AcDbLine
 10
2468.075178115131
 20
-664.0159999135491
 30
0.0
 11
2439.780604947756
 21
-664.0159999135491
 31
0.0
  0
ARC
  5
1AD8B
330
18
100
AcDbEntity
  8
01
100
AcDbCircle
 10
2439.780604947876
 20
-665.0159999135291
 30
0.0
 40
1.0
100
AcDbArc
 50
90.00000000698277
 51
105.8538633042972
  0
LINE
  5
1AD8C
330
18
100
AcDbEntity
  8
01
100
AcDbLine
 10
2439.507420247842
 20
-664.0540383136364
 30
0.0
 11
2419.209425464906
 21
-669.8222888689594
 31
0.0
  0
LINE
  5
1AD8D
330
18
100
AcDbEntity
  8
01
100
AcDbLine
 10
2341.299051515562
 20
-670.6130987891896
 30
0.0
 11
2341.299051515562
 21
-679.419499394773
 31
0.0
  0
ARC
  5
1AD8E
330
18
100
AcDbEntity
  8
01
100
AcDbCircle
 10
2340.299051515562
 20
-670.6130987891896
 30
0.0
 40
1.0
100
AcDbArc
 50
0.0
 51
18.43494882290759
  0
LINE
  5
1AD8F
330
18
100
AcDbEntity
  8
01
100
AcDbLine
 10
2341.247734813614
 20
-679.7357271607897
 30
0.0
 11
2339.382134914545
 21
-685.3325268579969
 31
0.0
  0
ARC
  5
1AD90
330
18
100
AcDbEntity
  8
01
100
AcDbCircle
 10
2340.299051515562
 20
-679.419499394773
 30
0.0
 40
1.0
100
AcDbArc
 50
341.56505117708
 51
0.0
  0
LINE
  5
1AD91
330
18
100
AcDbEntity
  8
01
100
AcDbLine
 10
2339.382134914545
 20
-664.7000713259632
 30
0.0
 11
2341.247734813614
 21
-670.2968710231729
 31
0.0
  0
SPLINE
  5
1AD92
330
18
100
AcDbEntity
  8
01
100
AcDbSpline
210
0.0
220
0.0
230
1.0
 70
     8
 71
     3
 72
     9
 73
     5
 74
     0
 42
0.0000000001
 43
0.0000000001
 40
0.0
 40
0.0
 40
0.0
 40
0.0
 40
0.4971336847320229
 40
0.9999999999999999
 40
0.9999999999999999
 40
0.9999999999999999
 40
0.9999999999999999
 10
2319.079959554504
 20
-685.8956523747034
 30
0.0
 10
2318.727565139333
 20
-685.8233050700245
 30
0.0
 10
2318.018712719965
 20
-685.6777761974075
 30
0.0
 10
2317.245994166892
 20
-685.6196455251076
 30
0.0
 10
2316.85742003537
 20
-685.5904135681238
 30
0.0
  0
SPLINE
  5
1AD93
330
18
100
AcDbEntity
  8
01
100
AcDbSpline
210
0.0
220
0.0
230
1.0
 70
     8
 71
     3
 72
     9
 73
     5
 74
     0
 42
0.0000000001
 43
0.0000000001
 40
0.0
 40
0.0
 40
0.0
 40
0.0
 40
0.5060576294160237
 40
0.9999999999999999
 40
0.9999999999999999
 40
0.9999999999999999
 40
0.9999999999999999
 10
2316.873747111448
 20
-664.4412162922077
 30
0.0
 10
2317.262039944734
 20
-664.4116280611873
 30
0.0
 10
2318.029329697357
 20
-664.3531599553816
 30
0.0
 10
2318.73296077611
 20
-664.2083724850282
 30
0.0
 10
2319.080513979167
 20
-664.1368558186911
 30
0.0
  0
LINE
  5
1AD94
330
18
100
AcDbEntity
  8
01
100
AcDbLine
 10
2319.08036198577
 20
-664.1368864808074
 30
0.0
 11
2319.535274086885
 21
-664.0352202999233
 31
0.0
  0
LINE
  5
1AD95
330
18
100
AcDbEntity
  8
01
100
AcDbLine
 10
2319.535196704358
 20
-685.9973785183576
 30
0.0
 11
2319.080325323827
 21
-685.8957267251288
 31
0.0
  0
ARC
  5
1AD96
330
18
100
AcDbEntity
  8
01
100
AcDbCircle
 10
2319.728487331625
 20
-665.0162990919802
 30
0.0
 40
1.000000000000058
100
AcDbArc
 50
89.99999999989578
 51
101.5694500429976
  0
ARC
  5
1AD97
330
18
100
AcDbEntity
  8
01
100
AcDbCircle
 10
2319.728406815463
 20
-685.0162990919799
 30
0.0
 40
1.0
100
AcDbArc
 50
258.1371694758024
 51
270.0
  0
ARC
  5
1AD98
330
18
100
AcDbEntity
  8
01
100
AcDbCircle
 10
2338.433451616494
 20
-665.0162990919799
 30
0.0
 40
1.0
100
AcDbArc
 50
18.43494882291995
 51
90.0
  0
ARC
  5
1AD99
330
18
100
AcDbEntity
  8
01
100
AcDbCircle
 10
2338.433451616494
 20
-685.0162990919799
 30
0.0
 40
1.0
100
AcDbArc
 50
270.0
 51
341.56505117708
  0
SPLINE
  5
1AD9A
330
18
100
AcDbEntity
  8
01
100
AcDbSpline
210
0.0
220
0.0
230
1.0
 70
     8
 71
     3
 72
    10
 73
     6
 74
     0
 42
0.0000000001
 43
0.0000000001
 40
0.0
 40
0.0
 40
0.0
 40
0.0
 40
0.3343415713576167
 40
0.6676648310217684
 40
0.9999999999999999
 40
0.9999999999999999
 40
0.9999999999999999
 40
0.9999999999999999
 10
2339.564812641392
 20
-679.2520882348418
 30
0.0
 10
2339.52494275735
 20
-679.2506426197239
 30
0.0
 10
2339.445324421872
 20
-679.2477557924307
 30
0.0
 10
2339.325225482201
 20
-679.2447960665751
 30
0.0
 10
2339.245305178652
 20
-679.2437443197085
 30
0.0
 10
2339.205404342966
 20
-679.2432192268717
 30
0.0
  0
SPLINE
  5
1AD9B
330
18
100
AcDbEntity
  8
01
100
AcDbSpline
210
0.0
220
0.0
230
1.0
 70
     8
 71
     3
 72
    10
 73
     6
 74
     0
 42
0.0000000001
 43
0.0000000001
 40
0.0
 40
0.0
 40
0.0
 40
0.0
 40
0.3323351691751165
 40
0.6656584288392461
 40
1.0
 40
1.0
 40
1.0
 40
1.0
 10
2339.205404342966
 20
-670.7893789570884
 30
0.0
 10
2339.245305178673
 20
-670.7888538642513
 30
0.0
 10
2339.325225482245
 20
-670.7878021173848
 30
0.0
 10
2339.44532442191
 20
-670.7848423915301
 30
0.0
 10
2339.524942757359
 20
-670.7819555642367
 30
0.0
 10
2339.564812641377
 20
-670.7805099491189
 30
0.0
  0
SPLINE
  5
1AD9C
330
18
100
AcDbEntity
  8
01
100
AcDbSpline
210
0.0
220
0.0
230
1.0
 70
     8
 71
     3
 72
    19
 73
    15
 74
     0
 42
0.0000000001
 43
0.0000000001
 40
0.0
 40
0.0
 40
0.0
 40
0.0
 40
0.0424084333662313
 40
0.0886689639415328
 40
0.1387821038209021
 40
0.1927481509182004
 40
0.2505672382792412
 40
0.3218805652856683
 40
0.5002505393646266
 40
0.6128084937673238
 40
0.7500691770242507
 40
0.8537312650327051
 40
0.9370474150957282
 40
1.0
 40
1.0
 40
1.0
 40
1.0
 10
2339.564812548707
 20
-670.78050874587
 30
0.0
 10
2339.604993670001
 20
-670.7788608708373
 30
0.0
 10
2339.689005695728
 20
-670.7754154388737
 30
0.0
 10
2339.81854392582
 20
-670.7691969023125
 30
0.0
 10
2339.95636681938
 20
-670.7619587685239
 30
0.0
 10
2340.100946059677
 20
-670.7536104560526
 30
0.0
 10
2340.258844354773
 20
-670.7437068929884
 30
0.0
 10
2340.510934987208
 20
-670.7259292345387
 30
0.0
 10
2340.774087663377
 20
-670.7050329852146
 30
0.0
 10
2341.018723751874
 20
-670.6806460987697
 30
0.0
 10
2341.169569557243
 20
-670.6609765148572
 30
0.0
 10
2341.256451237467
 20
-670.6428990781898
 30
0.0
 10
2341.293711938853
 20
-670.628742976079
 30
0.0
 10
2341.297444890787
 20
-670.6200934276634
 30
0.0
 10
2341.299051515562
 20
-670.6163707494633
 30
0.0
  0
SPLINE
  5
1AD9D
330
18
100
AcDbEntity
  8
01
100
AcDbSpline
210
0.0
220
0.0
230
1.0
 70
     8
 71
     3
 72
     8
 73
     4
 74
     0
 42
0.0000000001
 43
0.0000000001
 40
0.0
 40
0.0
 40
0.0
 40
0.0
 40
1.0
 40
1.0
 40
1.0
 40
1.0
 10
2340.465129507046
 20
-680.4143750756047
 30
0.0
 10
2333.974078065477
 20
-682.275018178458
 30
0.0
 10
2327.486520781918
 20
-684.135441081857
 30
0.0
 10
2321.004267120007
 20
-685.9955280125492
 30
0.0
  0
SPLINE
  5
1AD9E
330
18
100
AcDbEntity
  8
01
100
AcDbSpline
210
0.0
220
0.0
230
1.0
 70
     8
 71
     3
 72
     8
 73
     4
 74
     0
 42
0.0000000001
 43
0.0000000001
 40
0.0
 40
0.0
 40
0.0
 40
0.0
 40
1.0
 40
1.0
 40
1.0
 40
1.0
 10
2340.45876517916
 20
-680.4009961964636
 30
0.0
 10
2340.460927757956
 20
-680.4056865888973
 30
0.0
 10
2340.46305046768
 20
-680.4101460892144
 30
0.0
 10
2340.465129507046
 20
-680.4143750756047
 30
0.0
  0
SPLINE
  5
1AD9F
330
18
100
AcDbEntity
  8
01
100
AcDbSpline
210
0.0
220
0.0
230
1.0
 70
     8
 71
     3
 72
     8
 73
     4
 74
     0
 42
0.0000000001
 43
0.0000000001
 40
0.0
 40
0.0
 40
0.0
 40
0.0
 40
1.0
 40
1.0
 40
1.0
 40
1.0
 10
2340.465129507226
 20
-669.6182231083661
 30
0.0
 10
2340.463050467813
 20
-669.6224520947563
 30
0.0
 10
2340.460927758025
 20
-669.6269115950712
 30
0.0
 10
2340.458765179162
 20
-669.6316019875009
 30
0.0
  0
SPLINE
  5
1ADA0
330
18
100
AcDbEntity
  8
01
100
AcDbSpline
210
0.0
220
0.0
230
1.0
 70
     8
 71
     3
 72
     8
 73
     4
 74
     0
 42
0.0000000001
 43
0.0000000001
 40
0.0
 40
0.0
 40
0.0
 40
0.0
 40
1.0
 40
1.0
 40
1.0
 40
1.0
 10
2321.004267120054
 20
-664.0370701714138
 30
0.0
 10
2327.486520782638
 20
-665.897157102149
 30
0.0
 10
2333.974078068427
 20
-667.7575800056926
 30
0.0
 10
2340.465129507226
 20
-669.6182231083661
 30
0.0
  0
SPLINE
  5
1ADA1
330
18
100
AcDbEntity
  8
01
100
AcDbSpline
210
0.0
220
0.0
230
1.0
 70
     8
 71
     3
 72
    10
 73
     6
 74
     0
 42
0.0000000001
 43
0.0000000001
 40
0.0
 40
0.0
 40
0.0
 40
0.0
 40
0.5
 40
0.5
 40
1.0
 40
1.0
 40
1.0
 40
1.0
 10
2209.323600787025
 20
-679.3861128681802
 30
0.0
 10
2209.32327249539
 20
-679.4011334097712
 30
0.0
 10
2209.378350219028
 20
-679.4192826753653
 30
0.0
 10
2209.565261041565
 20
-679.4515528439789
 30
0.0
 10
2209.697728156115
 20
-679.4657230257363
 30
0.0
 10
2209.830243443073
 20
-679.473534747853
 30
0.0
  0
SPLINE
  5
1ADA2
330
18
100
AcDbEntity
  8
01
100
AcDbSpline
210
0.0
220
0.0
230
1.0
 70
     8
 71
     3
 72
    16
 73
    12
 74
     0
 42
0.0000000001
 43
0.0000000001
 40
0.0
 40
0.0
 40
0.0
 40
0.0
 40
0.0786888963696355
 40
0.1564566302556064
 40
0.2345339740335824
 40
0.3141309596038094
 40
0.4548534519938955
 40
0.5585179707417066
 40
0.6632215900757792
 40
0.8323892133719423
 40
1.0
 40
1.0
 40
1.0
 40
1.0
 10
2209.323600788498
 20
-670.6373376339653
 30
0.0
 10
2209.324273240175
 20
-670.6349459102584
 30
0.0
 10
2209.325610271549
 20
-670.630190461282
 30
0.0
 10
2209.337372009507
 20
-670.6225861262159
 30
0.0
 10
2209.356344291446
 20
-670.614741538673
 30
0.0
 10
2209.389520642743
 20
-670.6046485348915
 30
0.0
 10
2209.438261084201
 20
-670.5936582605212
 30
0.0
 10
2209.504658226518
 20
-670.5823269348244
 30
0.0
 10
2209.587273844631
 20
-670.570959238694
 30
0.0
 10
2209.696286066705
 20
-670.5589633745127
 30
0.0
 10
2209.785728935364
 20
-670.5529223078528
 30
0.0
 10
2209.830243634445
 20
-670.5499157376418
 30
0.0
  0
SPLINE
  5
1ADA3
330
18
100
AcDbEntity
  8
01
100
AcDbSpline
210
0.0
220
0.0
230
1.0
 70
     8
 71
     3
 72
    21
 73
    17
 74
     0
 42
0.0000000001
 43
0.0000000001
 40
0.0
 40
0.0
 40
0.0
 40
0.0
 40
0.0543026746903798
 40
0.1089515020728126
 40
0.1639470580616293
 40
0.2192899076506203
 40
0.2749806051673976
 40
0.3310196945209795
 40
0.3874077094427233
 40
0.4441451737208603
 40
0.501232601428756
 40
0.5866890531856455
 40
0.6792957212739271
 40
0.7790511301746228
 40
0.8859533378763902
 40
0.9999999999999999
 40
0.9999999999999999
 40
0.9999999999999999
 40
0.9999999999999999
 10
2209.81270367171
 20
-676.6476978451725
 30
0.0
 10
2209.771422291277
 20
-676.6474463013407
 30
0.0
 10
2209.688596382027
 20
-676.6469416102094
 30
0.0
 10
2209.565429950661
 20
-676.6467028876999
 30
0.0
 10
2209.443666418499
 20
-676.6468392096593
 30
0.0
 10
2209.324254733697
 20
-676.6473886928569
 30
0.0
 10
2209.208098509219
 20
-676.648340986501
 30
0.0
 10
2209.09611986475
 20
-676.6496990425493
 30
0.0
 10
2208.989233285462
 20
-676.6514614896297
 30
0.0
 10
2208.888340614077
 20
-676.6536308573264
 30
0.0
 10
2208.778950154846
 20
-676.6566183690219
 30
0.0
 10
2208.663956494726
 20
-676.6608490982745
 30
0.0
 10
2208.551197250486
 20
-676.6666940035251
 30
0.0
 10
2208.460005211223
 20
-676.673771942346
 30
0.0
 10
2208.395721302585
 20
-676.6820411908178
 30
0.0
 10
2208.387290670719
 20
-676.6882729039352
 30
0.0
 10
2208.382939051157
 20
-676.6914895127412
 30
0.0
  0
SPLINE
  5
1ADA4
330
18
100
AcDbEntity
  8
01
100
AcDbSpline
210
0.0
220
0.0
230
1.0
 70
     8
 71
     3
 72
    23
 73
    19
 74
     0
 42
0.0000000001
 43
0.0000000001
 40
0.0
 40
0.0
 40
0.0
 40
0.0
 40
0.0528182523272466
 40
0.1041556312968589
 40
0.154012137786094
 40
0.2023877805948915
 40
0.2492825772105166
 40
0.2946965546967934
 40
0.3386297507331105
 40
0.3810822148345328
 40
0.4220540097921852
 40
0.4615452133835036
 40
0.4995559204152067
 40
0.6018854951636194
 40
0.7030916251542205
 40
0.8031773224853901
 40
0.9021457048440085
 40
0.9999999999999999
 40
0.9999999999999999
 40
0.9999999999999999
 40
0.9999999999999999
 10
2208.382939051157
 20
-673.3319609220299
 30
0.0
 10
2208.383871280182
 20
-673.3334627995051
 30
0.0
 10
2208.385709601179
 20
-673.3364244460889
 30
0.0
 10
2208.400231908258
 20
-673.3406425904506
 30
0.0
 10
2208.422356843858
 20
-673.3446146676644
 30
0.0
 10
2208.452035155519
 20
-673.3483300618274
 30
0.0
 10
2208.488172430768
 20
-673.3517915062704
 30
0.0
 10
2208.529957247368
 20
-673.3549983266781
 30
0.0
 10
2208.576533530865
 20
-673.3579506842649
 30
0.0
 10
2208.627095614404
 20
-673.3606486667253
 30
0.0
 10
2208.68086984299
 20
-673.363091897278
 30
0.0
 10
2208.73713471931
 20
-673.3652818410557
 30
0.0
 10
2208.828687298011
 20
-673.3683280017093
 30
0.0
 10
2208.966148292636
 20
-673.3717341954074
 30
0.0
 10
2209.160744486498
 20
-673.3747674700388
 30
0.0
 10
2209.37011367942
 20
-673.3764619290167
 30
0.0
 10
2209.588733465048
 20
-673.3769450376527
 30
0.0
 10
2209.738329191377
 20
-673.376148569518
 30
0.0
 10
2209.81270367171
 20
-673.3757525895986
 30
0.0
  0
LINE
  5
1ADA5
330
18
100
AcDbEntity
  8
01
100
AcDbLine
 10
2208.382939051157
 20
-671.6321551808056
 30
0.0
 11
2208.382939051157
 21
-678.3942399885206
 31
0.0
  0
ARC
  5
1ADA6
330
18
100
AcDbEntity
  8
01
100
AcDbCircle
 10
2209.379310919015
 20
-678.3912953214348
 30
0.0
 40
0.9963762191656275
100
AcDbArc
 50
180.1693308596015
 51
266.7947640101249
  0
ARC
  5
1ADA7
330
18
100
AcDbEntity
  8
01
100
AcDbCircle
 10
2209.379310919027
 20
-671.6321551808056
 30
0.0
 40
0.9963762191788412
100
AcDbArc
 50
93.20523590574192
 51
179.830669140112
  0
SPLINE
  5
1ADA9
330
18
100
AcDbEntity
  8
01
100
AcDbSpline
210
0.0
220
0.0
230
1.0
 70
    24
 71
     3
 72
    18
 73
    14
 74
     0
 42
0.0000000001
 43
0.0000000001
 40
0.0
 40
0.0
 40
0.0
 40
0.0
 40
0.0839597436665112
 40
0.1667230443678697
 40
0.2492037561948338
 40
0.3323250542961265
 40
0.4169891616065288
 40
0.5040503494536523
 40
0.5942948411753061
 40
0.6884291316167205
 40
0.7870761765890856
 40
0.8907776366593899
 40
0.9999999999999999
 40
0.9999999999999999
 40
0.9999999999999999
 40
0.9999999999999999
 10
2320.832973583582
 20
-664.0162990919799
 30
0.0
 10
2320.812991862015
 20
-664.0162990919799
 30
0.0
 10
2320.773313162373
 20
-664.0162990919799
 30
0.0
 10
2320.702924483664
 20
-664.0162990919799
 30
0.0
 10
2320.625356130408
 20
-664.0162990919799
 30
0.0
 10
2320.539837714668
 20
-664.0162990919799
 30
0.0
 10
2320.446620979867
 20
-664.0162990919799
 30
0.0
 10
2320.345682778193
 20
-664.0162990919799
 30
0.0
 10
2320.237066555773
 20
-664.0162990919799
 30
0.0
 10
2320.120785612563
 20
-664.0162990919799
 30
0.0
 10
2319.996845864746
 20
-664.0162990919799
 30
0.0
 10
2319.865258850791
 20
-664.0162990919799
 30
0.0
 10
2319.774859162725
 20
-664.0162990919799
 30
0.0
 10
2319.728487331627
 20
-664.0162990919799
 30
0.0
  0
SPLINE
  5
1ADAA
330
18
100
AcDbEntity
  8
01
100
AcDbSpline
210
0.0
220
0.0
230
1.0
 70
    24
 71
     3
 72
    17
 73
    13
 74
     0
 42
0.0000000001
 43
0.0000000001
 40
0.0
 40
0.0
 40
0.0
 40
0.0
 40
0.119840269243393
 40
0.2330526218349997
 40
0.3402725498500652
 40
0.4422476384012315
 40
0.5398460704773309
 40
0.6340571034811102
 40
0.7259794243438825
 40
0.8167948247074236
 40
0.9077282638308446
 40
1.0
 40
1.0
 40
1.0
 40
1.0
 10
2319.728406815463
 20
-686.0162990919799
 30
0.0
 10
2319.77928692142
 20
-686.0162990919799
 30
0.0
 10
2319.878233145152
 20
-686.0162990919799
 30
0.0
 10
2320.021802173772
 20
-686.0162990919799
 30
0.0
 10
2320.156132869107
 20
-686.0162990919799
 30
0.0
 10
2320.281207244713
 20
-686.0162990919799
 30
0.0
 10
2320.397017101713
 20
-686.0162990919799
 30
0.0
 10
2320.50350642073
 20
-686.0162990919799
 30
0.0
 10
2320.600695033806
 20
-686.0162990919799
 30
0.0
 10
2320.688261750854
 20
-686.0162990919799
 30
0.0
 10
2320.767123335968
 20
-686.0162990919799
 30
0.0
 10
2320.810916865136
 20
-686.0162990919799
 30
0.0
 10
2320.832973583584
 20
-686.0162990919799
 30
0.0
  0
LINE
  5
1ADAB
330
18
100
AcDbEntity
  8
01
100
AcDbLine
 10
2338.433451616494
 20
-686.0162990919799
 30
0.0
 11
2320.832973583584
 21
-686.0162990919799
 31
0.0
  0
ARC
  5
1ADAC
330
18
100
AcDbEntity
  8
01
100
AcDbCircle
 10
2338.433168180939
 20
-664.7353289618239
 30
0.0
 40
0.7190299257078011
100
AcDbArc
 50
76.19471337848836
 51
89.97741448450789
  0
LINE
  5
1ADAD
330
18
100
AcDbEntity
  8
01
100
AcDbLine
 10
2338.433451616494
 20
-664.0162990919799
 30
0.0
 11
2320.832973583582
 21
-664.0162990919799
 31
0.0
  0
SPLINE
  5
1ADAE
330
18
100
AcDbEntity
  8
01
100
AcDbSpline
210
0.0
220
0.0
230
1.0
 70
     8
 71
     3
 72
    10
 73
     6
 74
     0
 42
0.0000000001
 43
0.0000000001
 40
0.0
 40
0.0
 40
0.0
 40
0.0
 40
0.3467292126223085
 40
0.7381714902233174
 40
1.0
 40
1.0
 40
1.0
 40
1.0
 10
2317.629346871473
 20
-685.6641409729338
 30
0.0
 10
2317.69952751682
 20
-685.7354097363246
 30
0.0
 10
2317.848939073946
 20
-685.8871378496859
 30
0.0
 10
2318.124630164369
 20
-685.9981329008996
 30
0.0
 10
2318.311587394558
 20
-686.011101375455
 30
0.0
 10
2318.38651915933
 20
-686.0162990919799
 30
0.0
  0
LINE
  5
1ADAF
330
18
100
AcDbEntity
  8
01
100
AcDbLine
 10
2319.631188622046
 20
-686.0162990919799
 30
0.0
 11
2318.38651915933
 21
-686.0162990919799
 31
0.0
  0
SPLINE
  5
1ADB0
330
18
100
AcDbEntity
  8
01
100
AcDbSpline
210
0.0
220
0.0
230
1.0
 70
     8
 71
     3
 72
    10
 73
     6
 74
     0
 42
0.0000000001
 43
0.0000000001
 40
0.0
 40
0.0
 40
0.0
 40
0.0
 40
0.3465002606936584
 40
0.7380791582456137
 40
1.0
 40
1.0
 40
1.0
 40
1.0
 10
2317.629571037659
 20
-664.3682575540982
 30
0.0
 10
2317.699682862244
 20
-664.2970631878633
 30
0.0
 10
2317.849027847927
 20
-664.1454122834822
 30
0.0
 10
2318.12463149718
 20
-664.0344669515363
 30
0.0
 10
2318.311588226245
 20
-664.0214972939501
 30
0.0
 10
2318.386519952922
 20
-664.0162990919799
 30
0.0
  0
LINE
  5
1ADB1
330
18
100
AcDbEntity
  8
01
100
AcDbLine
 10
2319.631269138209
 20
-664.0162990919799
 30
0.0
 11
2318.386519952922
 21
-664.0162990919799
 31
0.0
  0
SPLINE
  5
1ADB2
330
18
100
AcDbEntity
  8
01
100
AcDbSpline
210
0.0
220
0.0
230
1.0
 70
     8
 71
     3
 72
    25
 73
    21
 74
     0
 42
0.0000000001
 43
0.0000000001
 40
0.0
 40
0.0
 40
0.0
 40
0.0
 40
0.1275162504934405
 40
0.2820472593569216
 40
0.282166234814581
 40
0.28226285145005
 40
0.2824422449791314
 40
0.2827844777606477
 40
0.2834654010868402
 40
0.2849038909289052
 40
0.2881823005716541
 40
0.2962995820095712
 40
0.3180103346272334
 40
0.3797758007695785
 40
0.5630581963624083
 40
0.6230334448296416
 40
0.6899303875311185
 40
0.763747743545052
 40
0.8444840918070824
 40
1.0
 40
1.0
 40
1.0
 40
1.0
 10
2339.564812641392
 20
-679.2520882348418
 30
0.0
 10
2339.671758529287
 20
-679.2567768658874
 30
0.0
 10
2339.908307161034
 20
-679.2671474306695
 30
0.0
 10
2340.131122471622
 20
-679.280684586971
 30
0.0
 10
2340.246986252642
 20
-679.2883144619915
 30
0.0
 10
2340.247281967856
 20
-679.2883339678875
 30
0.0
 10
2340.24774478388
 20
-679.288364539589
 30
0.0
 10
2340.248644842909
 20
-679.2884241434577
 30
0.0
 10
2340.250486613878
 20
-679.2885465780263
 30
0.0
 10
2340.254522178487
 20
-679.2888163245301
 30
0.0
 10
2340.264101546026
 20
-679.2894612577419
 30
0.0
 10
2340.288713134826
 20
-679.2911339333908
 30
0.0
 10
2340.356082451629
 20
-679.2957829930059
 30
0.0
 10
2340.546048152167
 20
-679.3093565030248
 30
0.0
 10
2340.74060526045
 20
-679.3250336471632
 30
0.0
 10
2340.906415028844
 20
-679.3407840160077
 30
0.0
 10
2341.002867157619
 20
-679.3508482484364
 30
0.0
 10
2341.094362305394
 20
-679.3618802930567
 30
0.0
 10
2341.202197838656
 20
-679.3771439267654
 30
0.0
 10
2341.243507357271
 20
-679.3889799808604
 30
0.0
 10
2341.270699848047
 20
-679.3967712067714
 30
0.0
  0
LINE
  5
1ADB3
330
18
100
AcDbEntity
  8
1CENTER
100
AcDbLine
 10
2328.382902188404
 20
-688.1109467744726
 30
0.0
 11
2328.382902188404
 21
-661.92165140949
 31
0.0
  0
LINE
  5
1ADB4
330
18
100
AcDbEntity
  8
01
100
AcDbLine
 10
2316.873747111448
 20
-664.4412162922077
 30
0.0
 11
2209.830243634445
 21
-670.5499157376418
 31
0.0
  0
LINE
  5
1ADB5
330
18
100
AcDbEntity
  8
01
100
AcDbLine
 10
2209.833601561196
 20
-679.475738170204
 30
0.0
 11
2316.85742003537
 21
-685.5904135681238
 31
0.0
  0
LINE
  5
1ADB6
330
18
100
AcDbEntity
  8
01
100
AcDbLine
 10
2209.81270367171
 20
-673.3757525895986
 30
0.0
 11
2339.205404342966
 21
-670.7893789570884
 31
0.0
  0
LINE
  5
1ADB7
330
18
100
AcDbEntity
  8
01
100
AcDbLine
 10
2339.205404342968
 20
-679.2432192268717
 30
0.0
 11
2209.81270367171
 21
-676.6476978451725
 31
0.0
  0
TEXT
  5
1AFB7
330
18
100
AcDbEntity
  8
1TEXT
100
AcDbText
 10
2328.189320239101
 20
-445.5884288432789
 30
0.0
 40
6.0
  1
表面処理
 72
     1
 11
2342.089320239101
 21
-445.5884288432789
 31
0.0
100
AcDbText
  0
TEXT
  5
1AFB8
330
18
100
AcDbEntity
  8
1TEXT
100
AcDbText
 10
2322.569320239101
 20
-455.8413618325657
 30
0.0
 40
6.0
  1
マットブラック
 41
0.8000000000000002
 72
     1
 11
2342.089320239101
 21
-455.8413618325657
 31
0.0
100
AcDbText
  0
LINE
  5
1AFB9
330
18
100
AcDbEntity
  8
1DIM
100
AcDbLine
 10
2315.989320239099
 20
-437.3384288432789
 30
0.0
 11
2420.989320239099
 21
-437.3384288432789
 31
0.0
  0
LINE
  5
1AFBA
330
18
100
AcDbEntity
  8
1DIM
100
AcDbLine
 10
2315.989320239099
 20
-447.8384288432789
 30
0.0
 11
2420.989320239099
 21
-447.8384288432789
 31
0.0
  0
LINE
  5
1AFBB
330
18
100
AcDbEntity
  8
1DIM
100
AcDbLine
 10
2315.989320239099
 20
-458.3384288432789
 30
0.0
 11
2420.989320239099
 21
-458.3384288432789
 31
0.0
  0
LINE
  5
1AFBC
330
18
100
AcDbEntity
  8
1DIM
100
AcDbLine
 10
2315.989320239099
 20
-458.3384288432789
 30
0.0
 11
2420.989320239099
 21
-458.3384288432789
 31
0.0
  0
LINE
  5
1AFBD
330
18
100
AcDbEntity
  8
1DIM
100
AcDbLine
 10
2368.489320239099
 20
-437.3384288432789
 30
0.0
 11
2368.489320239099
 21
-458.3384288432789
 31
0.0
  0
TEXT
  5
1AFBE
330
18
100
AcDbEntity
  8
1TEXT
100
AcDbText
 10
2371.176820239101
 20
-456.4099643187528
 30
0.0
 40
6.0
  1
1-GZT-003-LJ-8
 41
0.6
 72
     1
 11
2394.589320239101
 21
-456.4099643187528
 31
0.0
100
AcDbText
  0
TEXT
  5
1AFBF
330
18
100
AcDbEntity
  8
1TEXT
100
AcDbText
 10
2384.289320239101
 20
-445.5884288432789
 30
0.0
 40
6.0
  1
コード
 72
     1
 11
2394.589320239101
 21
-445.5884288432789
 31
0.0
100
AcDbText
  0
LINE
  5
1AFC0
330
18
100
AcDbEntity
  8
1DIM
100
AcDbLine
 10
2315.989320239099
 20
-458.3384288432789
 30
0.0
 11
2315.989320239099
 21
-437.3384288432789
 31
0.0
  0
LINE
  5
1AFC1
330
18
100
AcDbEntity
  8
1DIM
100
AcDbLine
 10
2420.989320239099
 20
-458.3384288432789
 30
0.0
 11
2420.989320239099
 21
-437.3384288432789
 31
0.0
  0
TEXT
  5
1AFC2
330
18
100
AcDbEntity
  8
1TEXT
100
AcDbText
 10
2325.449320239101
 20
-466.3413618325657
 30
0.0
 40
6.0
  1
マットグレー
 41
0.8000000000000002
 72
     1
 11
2342.089320239101
 21
-466.3413618325657
 31
0.0
100
AcDbText
  0
LINE
  5
1AFC3
330
18
100
AcDbEntity
  8
1DIM
100
AcDbLine
 10
2315.989320239099
 20
-458.3384288432789
 30
0.0
 11
2420.989320239099
 21
-458.3384288432789
 31
0.0
  0
LINE
  5
1AFC4
330
18
100
AcDbEntity
  8
1DIM
100
AcDbLine
 10
2315.989320239099
 20
-468.8384288432789
 30
0.0
 11
2420.989320239099
 21
-468.8384288432789
 31
0.0
  0
LINE
  5
1AFC5
330
18
100
AcDbEntity
  8
1DIM
100
AcDbLine
 10
2315.989320239099
 20
-468.8384288432789
 30
0.0
 11
2420.989320239099
 21
-468.8384288432789
 31
0.0
  0
LINE
  5
1AFC6
330
18
100
AcDbEntity
  8
1DIM
100
AcDbLine
 10
2368.489320239099
 20
-458.3384288432789
 30
0.0
 11
2368.489320239099
 21
-468.8384288432789
 31
0.0
  0
TEXT
  5
1AFC7
330
18
100
AcDbEntity
  8
1TEXT
100
AcDbText
 10
2370.851820239101
 20
-466.9099643187528
 30
0.0
 40
6.0
  1
1-GZT-065-LJ-8
 41
0.6
 72
     1
 11
2394.589320239101
 21
-466.9099643187528
 31
0.0
100
AcDbText
  0
LINE
  5
1AFC8
330
18
100
AcDbEntity
  8
1DIM
100
AcDbLine
 10
2315.989320239099
 20
-468.8384288432789
 30
0.0
 11
2315.989320239099
 21
-458.3384288432789
 31
0.0
  0
LINE
  5
1AFC9
330
18
100
AcDbEntity
  8
1DIM
100
AcDbLine
 10
2420.989320239099
 20
-468.8384288432789
 30
0.0
 11
2420.989320239099
 21
-458.3384288432789
 31
0.0
  0
TEXT
  5
1B148
330
18
100
AcDbEntity
  8
01
  6
CONTINUOUS
100
AcDbText
 10
2606.837497268596
 20
-462.4342840727798
 30
0.0
 40
4.55
  1
材質：アルミ
100
AcDbText
  0
TEXT
  5
1B149
330
18
100
AcDbEntity
  8
01
  6
CONTINUOUS
100
AcDbText
 10
2589.395830601929
 20
-470.0176174061131
 30
0.0
 40
4.55
  1
仕上げ：各種仕上げ
100
AcDbText
  0
LINE
  5
1B14A
330
18
100
AcDbEntity
  8
01
100
AcDbLine
 10
2684.783553690971
 20
-395.5176174061131
 30
0.0
 11
2709.543944450685
 21
-395.5176174061132
 31
0.0
1001
ACAD
1000
DSTYLE
1002
{
1070
    40
1040
1.3
1070
    45
1040
0.5
1070
    79
1070
     2
1070
   179
1070
     2
1070
   272
1070
     2
1070
   341
1005
0
1002
}
  0
LINE
  5
1B14B
330
18
100
AcDbEntity
  8
01
100
AcDbLine
 10
2686.383553690971
 20
-414.3176174061133
 30
0.0
 11
2709.543944450685
 21
-414.3176174061134
 31
0.0
1001
ACAD
1000
DSTYLE
1002
{
1070
    40
1040
1.3
1070
    45
1040
0.5
1070
    79
1070
     2
1070
   179
1070
     2
1070
   272
1070
     2
1070
   341
1005
0
1002
}
  0
LINE
  5
1B14C
330
18
100
AcDbEntity
  8
01
100
AcDbLine
 10
2708.243944450684
 20
-398.1176174061132
 30
0.0
 11
2708.243944450684
 21
-411.7176174061133
 31
0.0
1001
ACAD
1000
DSTYLE
1002
{
1070
    40
1040
1.3
1070
    45
1040
0.5
1070
    79
1070
     2
1070
   179
1070
     2
1070
   272
1070
     2
1070
   341
1005
0
1002
}
  0
LINE
  5
1B150
330
18
100
AcDbEntity
  8
01
100
AcDbLine
 10
2504.882785848657
 20
-597.0176174050845
 30
0.0
 11
2554.186376885213
 21
-597.0176174050845
 31
0.0
1001
ACAD
1000
DSTYLE
1002
{
1070
    40
1040
1.3
1070
    45
1040
0.5
1002
}
  0
LINE
  5
1B151
330
18
100
AcDbEntity
  8
01
100
AcDbLine
 10
2504.882785848657
 20
-711.0176174050845
 30
0.0
 11
2554.186376885213
 21
-711.0176174050845
 31
0.0
1001
ACAD
1000
DSTYLE
1002
{
1070
    40
1040
1.3
1070
    45
1040
0.5
1002
}
  0
LINE
  5
1B152
330
18
100
AcDbEntity
  8
01
100
AcDbLine
 10
2552.886376885212
 20
-599.6176174050845
 30
0.0
 11
2552.886376885212
 21
-708.4176174050845
 31
0.0
1001
ACAD
1000
DSTYLE
1002
{
1070
    40
1040
1.3
1070
    45
1040
0.5
1002
}
  0
LINE
  5
1B156
330
18
100
AcDbEntity
  8
01
100
AcDbLine
 10
2504.882785848657
 20
-589.0176174050845
 30
0.0
 11
2569.682785848658
 21
-589.0176174050845
 31
0.0
1001
ACAD
1000
DSTYLE
1002
{
1070
    40
1040
1.3
1070
    45
1040
0.5
1002
}
  0
LINE
  5
1B157
330
18
100
AcDbEntity
  8
01
100
AcDbLine
 10
2504.882785848657
 20
-719.0176174050845
 30
0.0
 11
2569.682785848658
 21
-719.0176174050845
 31
0.0
1001
ACAD
1000
DSTYLE
1002
{
1070
    40
1040
1.3
1070
    45
1040
0.5
1002
}
  0
LINE
  5
1B158
330
18
100
AcDbEntity
  8
01
100
AcDbLine
 10
2568.382785848657
 20
-591.6176174050845
 30
0.0
 11
2568.382785848657
 21
-716.4176174050845
 31
0.0
1001
ACAD
1000
DSTYLE
1002
{
1070
    40
1040
1.3
1070
    45
1040
0.5
1002
}
  0
LINE
  5
1B15C
330
18
100
AcDbEntity
  8
01
100
AcDbLine
 10
2485.882785848657
 20
-595.0176174050845
 30
0.0
 11
2485.882785848657
 21
-544.2961253203965
 31
0.0
1001
ACAD
1000
DSTYLE
1002
{
1070
    40
1040
1.3
1070
    45
1040
0.5
1002
}
  0
LINE
  5
1B15D
330
18
100
AcDbEntity
  8
01
100
AcDbLine
 10
2510.882785848657
 20
-595.0176174050845
 30
0.0
 11
2510.882785848657
 21
-544.2961253203965
 31
0.0
1001
ACAD
1000
DSTYLE
1002
{
1070
    40
1040
1.3
1070
    45
1040
0.5
1002
}
  0
LINE
  5
1B15E
330
18
100
AcDbEntity
  8
01
100
AcDbLine
 10
2488.482785848657
 20
-545.5961253203965
 30
0.0
 11
2508.282785848658
 21
-545.5961253203965
 31
0.0
1001
ACAD
1000
DSTYLE
1002
{
1070
    40
1040
1.3
1070
    45
1040
0.5
1002
}
  0
LINE
  5
1B162
330
18
100
AcDbEntity
  8
01
100
AcDbLine
 10
2606.382669508911
 20
-647.0176181032153
 30
0.0
 11
2606.382669508911
 21
-544.2961253203965
 31
0.0
1001
ACAD
1000
DSTYLE
1002
{
1070
    40
1040
1.3
1070
    45
1040
0.5
1002
}
  0
LINE
  5
1B163
330
18
100
AcDbEntity
  8
01
100
AcDbLine
 10
2617.382669508911
 20
-589.0176174050845
 30
0.0
 11
2617.382669508911
 21
-544.2961253203965
 31
0.0
1001
ACAD
1000
DSTYLE
1002
{
1070
    40
1040
1.3
1070
    45
1040
0.5
1002
}
  0
LINE
  5
1B164
330
18
100
AcDbEntity
  8
01
100
AcDbLine
 10
2608.982669508911
 20
-545.5961253203965
 30
0.0
 11
2614.782669508911
 21
-545.5961253203965
 31
0.0
1001
ACAD
1000
DSTYLE
1002
{
1070
    40
1040
1.3
1070
    45
1040
0.5
1002
}
  0
LINE
  5
1B168
330
18
100
AcDbEntity
  8
01
100
AcDbLine
 10
2686.382669508911
 20
-616.5176174050845
 30
0.0
 11
2714.682669508911
 21
-616.5176174050845
 31
0.0
1001
ACAD
1000
DSTYLE
1002
{
1070
    40
1040
1.3
1070
    45
1040
0.5
1002
}
  0
LINE
  5
1B169
330
18
100
AcDbEntity
  8
01
100
AcDbLine
 10
2686.382669508911
 20
-691.0176174050845
 30
0.0
 11
2714.682669508911
 21
-691.0176174050845
 31
0.0
1001
ACAD
1000
DSTYLE
1002
{
1070
    40
1040
1.3
1070
    45
1040
0.5
1002
}
  0
LINE
  5
1B16A
330
18
100
AcDbEntity
  8
01
100
AcDbLine
 10
2713.382669508911
 20
-619.1176174050845
 30
0.0
 11
2713.382669508911
 21
-688.4176174050845
 31
0.0
1001
ACAD
1000
DSTYLE
1002
{
1070
    40
1040
1.3
1070
    45
1040
0.5
1002
}
  0
LINE
  5
1B16E
330
18
100
AcDbEntity
  8
01
100
AcDbLine
 10
2686.382669508911
 20
-616.5176174050845
 30
0.0
 11
2686.382669508911
 21
-534.2162578523483
 31
0.0
1001
ACAD
1000
DSTYLE
1002
{
1070
    40
1040
1.3
1070
    45
1040
0.5
1002
}
  0
LINE
  5
1B16F
330
18
100
AcDbEntity
  8
01
100
AcDbLine
 10
2617.382669508911
 20
-589.0176174050845
 30
0.0
 11
2617.382669508911
 21
-534.2162578523483
 31
0.0
1001
ACAD
1000
DSTYLE
1002
{
1070
    40
1040
1.3
1070
    45
1040
0.5
1002
}
  0
LINE
  5
1B170
330
18
100
AcDbEntity
  8
01
100
AcDbLine
 10
2683.782669508911
 20
-535.5162578523483
 30
0.0
 11
2619.982669508911
 21
-535.5162578523483
 31
0.0
1001
ACAD
1000
DSTYLE
1002
{
1070
    40
1040
1.3
1070
    45
1040
0.5
1002
}
  0
LINE
  5
1B174
330
18
100
AcDbEntity
  8
01
100
AcDbLine
 10
2617.382669508911
 20
-589.0176174050845
 30
0.0
 11
2617.382669508911
 21
-544.2961253203965
 31
0.0
1001
ACAD
1000
DSTYLE
1002
{
1070
    40
1040
1.3
1070
    45
1040
0.5
1002
}
  0
LINE
  5
1B175
330
18
100
AcDbEntity
  8
01
100
AcDbLine
 10
2668.382669508911
 20
-645.0176174050849
 30
0.0
 11
2668.382669508911
 21
-544.2961253203965
 31
0.0
1001
ACAD
1000
DSTYLE
1002
{
1070
    40
1040
1.3
1070
    45
1040
0.5
1002
}
  0
LINE
  5
1B176
330
18
100
AcDbEntity
  8
01
100
AcDbLine
 10
2619.982669508911
 20
-545.5961253203965
 30
0.0
 11
2665.782669508911
 21
-545.5961253203965
 31
0.0
1001
ACAD
1000
DSTYLE
1002
{
1070
    40
1040
1.3
1070
    45
1040
0.5
1002
}
  0
LINE
  5
1B17A
330
18
100
AcDbEntity
  8
01
100
AcDbLine
 10
2465.181823954335
 20
-674.2676174050845
 30
0.0
 11
2463.882785848657
 21
-673.5176174050845
 31
0.0
  0
LINE
  5
1B17B
330
18
100
AcDbEntity
  8
01
100
AcDbLine
 10
2463.882785848657
 20
-673.5176174050845
 30
0.0
 11
2462.58374774298
 21
-674.2676174050845
 31
0.0
  0
LINE
  5
1B17C
330
18
100
AcDbEntity
  8
01
100
AcDbLine
 10
2462.58374774298
 20
-674.2676174050845
 30
0.0
 11
2462.58374774298
 21
-675.7676174050845
 31
0.0
  0
LINE
  5
1B17D
330
18
100
AcDbEntity
  8
01
100
AcDbLine
 10
2462.58374774298
 20
-675.7676174050845
 30
0.0
 11
2463.882785848657
 21
-676.5176174050845
 31
0.0
  0
LINE
  5
1B17E
330
18
100
AcDbEntity
  8
01
100
AcDbLine
 10
2463.882785848657
 20
-676.5176174050845
 30
0.0
 11
2465.181823954335
 21
-675.7676174050845
 31
0.0
  0
LINE
  5
1B17F
330
18
100
AcDbEntity
  8
01
100
AcDbLine
 10
2465.181823954335
 20
-675.7676174050845
 30
0.0
 11
2465.181823954335
 21
-674.2676174050845
 31
0.0
  0
CIRCLE
  5
1B180
330
18
100
AcDbEntity
  8
01
100
AcDbCircle
 10
2532.882669508911
 20
-675.0162990919813
 30
0.0
 40
3.0
  0
LINE
  5
1B181
330
18
100
AcDbEntity
  8
01
100
AcDbLine
 10
2642.382669508915
 20
-648.5162990919831
 30
0.0
 11
2632.082669508911
 21
-648.5162990919831
 31
0.0
1001
ACAD
1000
DSTYLE
1002
{
1070
     3
1000
□<>
1070
    40
1040
1.3
1070
    45
1040
0.5
1002
}
  0
LINE
  5
1B182
330
18
100
AcDbEntity
  8
01
100
AcDbLine
 10
2642.382669508915
 20
-701.5162990919831
 30
0.0
 11
2632.082669508911
 21
-701.5162990919831
 31
0.0
1001
ACAD
1000
DSTYLE
1002
{
1070
     3
1000
□<>
1070
    40
1040
1.3
1070
    45
1040
0.5
1002
}
  0
LINE
  5
1B183
330
18
100
AcDbEntity
  8
01
100
AcDbLine
 10
2633.382669508911
 20
-651.1162990919831
 30
0.0
 11
2633.382669508911
 21
-698.9162990919831
 31
0.0
1001
ACAD
1000
DSTYLE
1002
{
1070
     3
1000
□<>
1070
    40
1040
1.3
1070
    45
1040
0.5
1002
}
  0
LINE
  5
1B187
330
18
100
AcDbEntity
  8
01
100
AcDbLine
 10
2786.935328254242
 20
-679.473534747853
 30
0.0
 11
2786.931970136119
 21
-679.475738170204
 31
0.0
  0
LINE
  5
1B188
330
18
100
AcDbEntity
  8
01
100
AcDbLine
 10
2786.931970136119
 20
-679.475738170204
 30
0.0
 11
2786.931205126418
 21
-679.4721004353911
 31
0.0
  0
LINE
  5
1B189
330
18
100
AcDbEntity
  8
01
100
AcDbLine
 10
2209.830243443073
 20
-679.473534747853
 30
0.0
 11
2209.833601561196
 21
-679.475738170204
 31
0.0
  0
LINE
  5
1B18A
330
18
100
AcDbEntity
  8
01
100
AcDbLine
 10
2209.833601561196
 20
-679.475738170204
 30
0.0
 11
2209.834366570897
 21
-679.4721004353911
 31
0.0
  0
LINE
  5
1B18B
330
18
100
AcDbEntity
  8
01
  6
BYBLOCK
100
AcDbLine
 10
2707.547276556685
 20
-398.1176174061132
 30
0.0
 11
2708.243944450684
 21
-395.5176174061132
 31
0.0
  0
LINE
  5
1B18C
330
18
100
AcDbEntity
  8
01
  6
BYBLOCK
100
AcDbLine
 10
2708.243944450684
 20
-395.5176174061132
 30
0.0
 11
2708.940612344684
 21
-398.1176174061132
 31
0.0
  0
LINE
  5
1B18D
330
18
100
AcDbEntity
  8
01
  6
BYBLOCK
100
AcDbLine
 10
2708.243944450684
 20
-395.5176174061132
 30
0.0
 11
2708.243944450684
 21
-398.1176174061132
 31
0.0
  0
LINE
  5
1B18E
330
18
100
AcDbEntity
  8
01
  6
BYBLOCK
100
AcDbLine
 10
2708.940612344684
 20
-411.7176174061133
 30
0.0
 11
2708.243944450684
 21
-414.3176174061134
 31
0.0
  0
LINE
  5
1B18F
330
18
100
AcDbEntity
  8
01
  6
BYBLOCK
100
AcDbLine
 10
2708.243944450684
 20
-414.3176174061134
 30
0.0
 11
2707.547276556685
 21
-411.7176174061133
 31
0.0
  0
LINE
  5
1B190
330
18
100
AcDbEntity
  8
01
  6
BYBLOCK
100
AcDbLine
 10
2708.243944450684
 20
-414.3176174061134
 30
0.0
 11
2708.243944450684
 21
-411.7176174061133
 31
0.0
  0
TEXT
  5
1B191
330
18
100
AcDbEntity
  8
01
  6
CONTINUOUS
100
AcDbText
 10
2707.333944450685
 20
-407.9520039801869
 30
0.0
 40
4.55
  1
19
 50
90.0
100
AcDbText
1001
ACAD
1000
DSTYLE
1002
{
1070
    40
1040
1.3
1070
    45
1040
0.5
1070
    79
1070
     2
1070
   179
1070
     2
1070
   272
1070
     2
1070
   341
1005
0
1002
}
  0
LINE
  5
1B192
330
18
100
AcDbEntity
  8
01
  6
BYBLOCK
100
AcDbLine
 10
2552.189708991213
 20
-599.6176174050845
 30
0.0
 11
2552.886376885212
 21
-597.0176174050845
 31
0.0
  0
LINE
  5
1B193
330
18
100
AcDbEntity
  8
01
  6
BYBLOCK
100
AcDbLine
 10
2552.886376885212
 20
-597.0176174050845
 30
0.0
 11
2553.583044779212
 21
-599.6176174050845
 31
0.0
  0
LINE
  5
1B194
330
18
100
AcDbEntity
  8
01
  6
BYBLOCK
100
AcDbLine
 10
2552.886376885212
 20
-597.0176174050845
 30
0.0
 11
2552.886376885212
 21
-599.6176174050845
 31
0.0
  0
LINE
  5
1B195
330
18
100
AcDbEntity
  8
01
  6
BYBLOCK
100
AcDbLine
 10
2553.583044779212
 20
-708.4176174050845
 30
0.0
 11
2552.886376885212
 21
-711.0176174050845
 31
0.0
  0
LINE
  5
1B196
330
18
100
AcDbEntity
  8
01
  6
BYBLOCK
100
AcDbLine
 10
2552.886376885212
 20
-711.0176174050845
 30
0.0
 11
2552.189708991213
 21
-708.4176174050845
 31
0.0
  0
LINE
  5
1B197
330
18
100
AcDbEntity
  8
01
  6
BYBLOCK
100
AcDbLine
 10
2552.886376885212
 20
-711.0176174050845
 30
0.0
 11
2552.886376885212
 21
-708.4176174050845
 31
0.0
  0
TEXT
  5
1B198
330
18
100
AcDbEntity
  8
01
  6
CONTINUOUS
100
AcDbText
 10
2551.976376885213
 20
-629.4345950571633
 30
0.0
 40
4.55
  1
114
 50
90.0
100
AcDbText
1001
ACAD
1000
DSTYLE
1002
{
1070
    40
1040
1.3
1070
    45
1040
0.5
1002
}
  0
LINE
  5
1B199
330
18
100
AcDbEntity
  8
01
  6
BYBLOCK
100
AcDbLine
 10
2567.686117954658
 20
-591.6176174050845
 30
0.0
 11
2568.382785848657
 21
-589.0176174050845
 31
0.0
  0
LINE
  5
1B19A
330
18
100
AcDbEntity
  8
01
  6
BYBLOCK
100
AcDbLine
 10
2568.382785848657
 20
-589.0176174050845
 30
0.0
 11
2569.079453742657
 21
-591.6176174050845
 31
0.0
  0
LINE
  5
1B19B
330
18
100
AcDbEntity
  8
01
  6
BYBLOCK
100
AcDbLine
 10
2568.382785848657
 20
-589.0176174050845
 30
0.0
 11
2568.382785848657
 21
-591.6176174050845
 31
0.0
  0
LINE
  5
1B19C
330
18
100
AcDbEntity
  8
01
  6
BYBLOCK
100
AcDbLine
 10
2569.079453742657
 20
-716.4176174050845
 30
0.0
 11
2568.382785848657
 21
-719.0176174050845
 31
0.0
  0
LINE
  5
1B19D
330
18
100
AcDbEntity
  8
01
  6
BYBLOCK
100
AcDbLine
 10
2568.382785848657
 20
-719.0176174050845
 30
0.0
 11
2567.686117954658
 21
-716.4176174050845
 31
0.0
  0
LINE
  5
1B19E
330
18
100
AcDbEntity
  8
01
  6
BYBLOCK
100
AcDbLine
 10
2568.382785848657
 20
-719.0176174050845
 30
0.0
 11
2568.382785848657
 21
-716.4176174050845
 31
0.0
  0
TEXT
  5
1B19F
330
18
100
AcDbEntity
  8
01
  6
CONTINUOUS
100
AcDbText
 10
2567.472785848658
 20
-630.2191590599709
 30
0.0
 40
4.55
  1
130
 50
90.0
100
AcDbText
1001
ACAD
1000
DSTYLE
1002
{
1070
    40
1040
1.3
1070
    45
1040
0.5
1002
}
  0
LINE
  5
1B1A0
330
18
100
AcDbEntity
  8
01
  6
BYBLOCK
100
AcDbLine
 10
2488.482785848657
 20
-546.2927932143965
 30
0.0
 11
2485.882785848657
 21
-545.5961253203965
 31
0.0
  0
LINE
  5
1B1A1
330
18
100
AcDbEntity
  8
01
  6
BYBLOCK
100
AcDbLine
 10
2485.882785848657
 20
-545.5961253203965
 30
0.0
 11
2488.482785848657
 21
-544.8994574263965
 31
0.0
  0
LINE
  5
1B1A2
330
18
100
AcDbEntity
  8
01
  6
BYBLOCK
100
AcDbLine
 10
2485.882785848657
 20
-545.5961253203965
 30
0.0
 11
2488.482785848657
 21
-545.5961253203965
 31
0.0
  0
LINE
  5
1B1A3
330
18
100
AcDbEntity
  8
01
  6
BYBLOCK
100
AcDbLine
 10
2508.282785848658
 20
-544.8994574263965
 30
0.0
 11
2510.882785848657
 21
-545.5961253203965
 31
0.0
  0
LINE
  5
1B1A4
330
18
100
AcDbEntity
  8
01
  6
BYBLOCK
100
AcDbLine
 10
2510.882785848657
 20
-545.5961253203965
 30
0.0
 11
2508.282785848658
 21
-546.2927932143965
 31
0.0
  0
LINE
  5
1B1A5
330
18
100
AcDbEntity
  8
01
  6
BYBLOCK
100
AcDbLine
 10
2510.882785848657
 20
-545.5961253203965
 30
0.0
 11
2508.282785848658
 21
-545.5961253203965
 31
0.0
  0
TEXT
  5
1B1A6
330
18
100
AcDbEntity
  8
01
  6
CONTINUOUS
100
AcDbText
 10
2494.591119181991
 20
-544.6861253203965
 30
0.0
 40
4.55
  1
25
100
AcDbText
1001
ACAD
1000
DSTYLE
1002
{
1070
    40
1040
1.3
1070
    45
1040
0.5
1002
}
  0
LINE
  5
1B1A7
330
18
100
AcDbEntity
  8
01
  6
BYBLOCK
100
AcDbLine
 10
2608.982669508911
 20
-546.2927932143965
 30
0.0
 11
2606.382669508911
 21
-545.5961253203965
 31
0.0
  0
LINE
  5
1B1A8
330
18
100
AcDbEntity
  8
01
  6
BYBLOCK
100
AcDbLine
 10
2606.382669508911
 20
-545.5961253203965
 30
0.0
 11
2608.982669508911
 21
-544.8994574263965
 31
0.0
  0
LINE
  5
1B1A9
330
18
100
AcDbEntity
  8
01
  6
BYBLOCK
100
AcDbLine
 10
2606.382669508911
 20
-545.5961253203965
 30
0.0
 11
2608.982669508911
 21
-545.5961253203965
 31
0.0
  0
LINE
  5
1B1AA
330
18
100
AcDbEntity
  8
01
  6
BYBLOCK
100
AcDbLine
 10
2614.782669508911
 20
-544.8994574263965
 30
0.0
 11
2617.382669508911
 21
-545.5961253203965
 31
0.0
  0
LINE
  5
1B1AB
330
18
100
AcDbEntity
  8
01
  6
BYBLOCK
100
AcDbLine
 10
2617.382669508911
 20
-545.5961253203965
 30
0.0
 11
2614.782669508911
 21
-546.2927932143965
 31
0.0
  0
LINE
  5
1B1AC
330
18
100
AcDbEntity
  8
01
  6
BYBLOCK
100
AcDbLine
 10
2617.382669508911
 20
-545.5961253203965
 30
0.0
 11
2614.782669508911
 21
-545.5961253203965
 31
0.0
  0
TEXT
  5
1B1AD
330
18
100
AcDbEntity
  8
01
  6
CONTINUOUS
100
AcDbText
 10
2609.607669508911
 20
-544.6861253203965
 30
0.0
 40
4.55
  1
11
100
AcDbText
1001
ACAD
1000
DSTYLE
1002
{
1070
    40
1040
1.3
1070
    45
1040
0.5
1002
}
  0
LINE
  5
1B1AE
330
18
100
AcDbEntity
  8
01
  6
BYBLOCK
100
AcDbLine
 10
2712.686001614911
 20
-619.1176174050845
 30
0.0
 11
2713.382669508911
 21
-616.5176174050845
 31
0.0
  0
LINE
  5
1B1AF
330
18
100
AcDbEntity
  8
01
  6
BYBLOCK
100
AcDbLine
 10
2713.382669508911
 20
-616.5176174050845
 30
0.0
 11
2714.079337402911
 21
-619.1176174050845
 31
0.0
  0
LINE
  5
1B1B0
330
18
100
AcDbEntity
  8
01
  6
BYBLOCK
100
AcDbLine
 10
2713.382669508911
 20
-616.5176174050845
 30
0.0
 11
2713.382669508911
 21
-619.1176174050845
 31
0.0
  0
LINE
  5
1B1B1
330
18
100
AcDbEntity
  8
01
  6
BYBLOCK
100
AcDbLine
 10
2714.079337402911
 20
-688.4176174050845
 30
0.0
 11
2713.382669508911
 21
-691.0176174050845
 31
0.0
  0
LINE
  5
1B1B2
330
18
100
AcDbEntity
  8
01
  6
BYBLOCK
100
AcDbLine
 10
2713.382669508911
 20
-691.0176174050845
 30
0.0
 11
2712.686001614911
 21
-688.4176174050845
 31
0.0
  0
LINE
  5
1B1B3
330
18
100
AcDbEntity
  8
01
  6
BYBLOCK
100
AcDbLine
 10
2713.382669508911
 20
-691.0176174050845
 30
0.0
 11
2713.382669508911
 21
-688.4176174050845
 31
0.0
  0
TEXT
  5
1B1B4
330
18
100
AcDbEntity
  8
01
  6
CONTINUOUS
100
AcDbText
 10
2712.472669508911
 20
-639.0796066523985
 30
0.0
 40
4.55
  1
74.5
 50
90.0
100
AcDbText
1001
ACAD
1000
DSTYLE
1002
{
1070
    40
1040
1.3
1070
    45
1040
0.5
1002
}
  0
LINE
  5
1B1B5
330
18
100
AcDbEntity
  8
01
  6
BYBLOCK
100
AcDbLine
 10
2683.782669508911
 20
-534.8195899583483
 30
0.0
 11
2686.382669508911
 21
-535.5162578523483
 31
0.0
  0
LINE
  5
1B1B6
330
18
100
AcDbEntity
  8
01
  6
BYBLOCK
100
AcDbLine
 10
2686.382669508911
 20
-535.5162578523483
 30
0.0
 11
2683.782669508911
 21
-536.2129257463483
 31
0.0
  0
LINE
  5
1B1B7
330
18
100
AcDbEntity
  8
01
  6
BYBLOCK
100
AcDbLine
 10
2686.382669508911
 20
-535.5162578523483
 30
0.0
 11
2683.782669508911
 21
-535.5162578523483
 31
0.0
  0
LINE
  5
1B1B8
330
18
100
AcDbEntity
  8
01
  6
BYBLOCK
100
AcDbLine
 10
2619.982669508911
 20
-536.2129257463483
 30
0.0
 11
2617.382669508911
 21
-535.5162578523483
 31
0.0
  0
LINE
  5
1B1B9
330
18
100
AcDbEntity
  8
01
  6
BYBLOCK
100
AcDbLine
 10
2617.382669508911
 20
-535.5162578523483
 30
0.0
 11
2619.982669508911
 21
-534.8195899583483
 31
0.0
  0
LINE
  5
1B1BA
330
18
100
AcDbEntity
  8
01
  6
BYBLOCK
100
AcDbLine
 10
2617.382669508911
 20
-535.5162578523483
 30
0.0
 11
2619.982669508911
 21
-535.5162578523483
 31
0.0
  0
TEXT
  5
1B1BB
330
18
100
AcDbEntity
  8
01
  6
CONTINUOUS
100
AcDbText
 10
2648.074150990392
 20
-534.6062578523483
 30
0.0
 40
4.55
  1
69
100
AcDbText
1001
ACAD
1000
DSTYLE
1002
{
1070
    40
1040
1.3
1070
    45
1040
0.5
1002
}
  0
LINE
  5
1B1BC
330
18
100
AcDbEntity
  8
01
  6
BYBLOCK
100
AcDbLine
 10
2619.982669508911
 20
-546.2927932143965
 30
0.0
 11
2617.382669508911
 21
-545.5961253203965
 31
0.0
  0
LINE
  5
1B1BD
330
18
100
AcDbEntity
  8
01
  6
BYBLOCK
100
AcDbLine
 10
2617.382669508911
 20
-545.5961253203965
 30
0.0
 11
2619.982669508911
 21
-544.8994574263965
 31
0.0
  0
LINE
  5
1B1BE
330
18
100
AcDbEntity
  8
01
  6
BYBLOCK
100
AcDbLine
 10
2617.382669508911
 20
-545.5961253203965
 30
0.0
 11
2619.982669508911
 21
-545.5961253203965
 31
0.0
  0
LINE
  5
1B1BF
330
18
100
AcDbEntity
  8
01
  6
BYBLOCK
100
AcDbLine
 10
2665.782669508911
 20
-544.8994574263965
 30
0.0
 11
2668.382669508911
 21
-545.5961253203965
 31
0.0
  0
LINE
  5
1B1C0
330
18
100
AcDbEntity
  8
01
  6
BYBLOCK
100
AcDbLine
 10
2668.382669508911
 20
-545.5961253203965
 30
0.0
 11
2665.782669508911
 21
-546.2927932143965
 31
0.0
  0
LINE
  5
1B1C1
330
18
100
AcDbEntity
  8
01
  6
BYBLOCK
100
AcDbLine
 10
2668.382669508911
 20
-545.5961253203965
 30
0.0
 11
2665.782669508911
 21
-545.5961253203965
 31
0.0
  0
TEXT
  5
1B1C2
330
18
100
AcDbEntity
  8
01
  6
CONTINUOUS
100
AcDbText
 10
2639.833537564466
 20
-544.6861253203965
 30
0.0
 40
4.55
  1
51
100
AcDbText
1001
ACAD
1000
DSTYLE
1002
{
1070
    40
1040
1.3
1070
    45
1040
0.5
1002
}
  0
LINE
  5
1B1C3
330
18
100
AcDbEntity
  8
01
  6
BYBLOCK
100
AcDbLine
 10
2632.686001614911
 20
-651.1162990919831
 30
0.0
 11
2633.382669508911
 21
-648.5162990919831
 31
0.0
  0
LINE
  5
1B1C4
330
18
100
AcDbEntity
  8
01
  6
BYBLOCK
100
AcDbLine
 10
2633.382669508911
 20
-648.5162990919831
 30
0.0
 11
2634.079337402911
 21
-651.1162990919831
 31
0.0
  0
LINE
  5
1B1C5
330
18
100
AcDbEntity
  8
01
  6
BYBLOCK
100
AcDbLine
 10
2633.382669508911
 20
-648.5162990919831
 30
0.0
 11
2633.382669508911
 21
-651.1162990919831
 31
0.0
  0
LINE
  5
1B1C6
330
18
100
AcDbEntity
  8
01
  6
BYBLOCK
100
AcDbLine
 10
2634.079337402911
 20
-698.9162990919831
 30
0.0
 11
2633.382669508911
 21
-701.5162990919831
 31
0.0
  0
LINE
  5
1B1C7
330
18
100
AcDbEntity
  8
01
  6
BYBLOCK
100
AcDbLine
 10
2633.382669508911
 20
-701.5162990919831
 30
0.0
 11
2632.686001614911
 21
-698.9162990919831
 31
0.0
  0
LINE
  5
1B1C8
330
18
100
AcDbEntity
  8
01
  6
BYBLOCK
100
AcDbLine
 10
2633.382669508911
 20
-701.5162990919831
 30
0.0
 11
2633.382669508911
 21
-698.9162990919831
 31
0.0
  0
TEXT
  5
1B1C9
330
18
100
AcDbEntity
  8
01
  6
CONTINUOUS
100
AcDbText
 10
2632.472669508911
 20
-683.0451769985802
 30
0.0
 40
4.55
  1
□53
 50
90.0
100
AcDbText
1001
ACAD
1000
DSTYLE
1002
{
1070
     3
1000
□<>
1070
    40
1040
1.3
1070
    45
1040
0.5
1002
}
  0
SOLID
  5
1B1CA
330
18
100
AcDbEntity
  8
1DIM
100
AcDbTrace
 10
2665.752518863657
 20
-451.0683744600283
 30
0.0
 11
2668.123270748972
 21
-449.916283631988
 31
0.0
 12
2666.254318693579
 22
-451.7749917834795
 32
0.0
 13
2666.254318693579
 23
-451.7749917834795
 33
0.0
1001
ACAD
1000
DSTYLE
1002
{
1070
    40
1040
1.3
1070
    45
1040
0.5
1002
}
  0
LINE
  5
1B1CB
330
18
100
AcDbEntity
  8
1DIM
100
AcDbLine
 10
2666.003418778618
 20
-451.4216831217539
 30
0.0
 11
2638.535830601929
 21
-470.9276174061131
 31
0.0
1001
ACAD
1000
DSTYLE
1002
{
1070
    40
1040
1.3
1070
    45
1040
0.5
1002
}
  0
LINE
  5
1B1CC
330
18
100
AcDbEntity
  8
1DIM
100
AcDbLine
 10
2668.382785848654
 20
-446.5176174061131
 30
0.0
 11
2668.382785848654
 21
-511.3176174061131
 31
0.0
1001
ACAD
1000
DSTYLE
1002
{
1070
    40
1040
1.3
1070
    45
1040
0.5
1002
}
  0
LINE
  5
1B1CD
330
18
100
AcDbEntity
  8
1DIM
100
AcDbLine
 10
2788.382766528915
 20
-477.5862828611454
 30
0.0
 11
2788.382766528915
 21
-511.3176174061131
 31
0.0
1001
ACAD
1000
DSTYLE
1002
{
1070
    40
1040
1.3
1070
    45
1040
0.5
1002
}
  0
LINE
  5
1B1CE
330
18
100
AcDbEntity
  8
1DIM
100
AcDbLine
 10
2670.982785848654
 20
-510.0176174061131
 30
0.0
 11
2785.782766528915
 21
-510.0176174061131
 31
0.0
1001
ACAD
1000
DSTYLE
1002
{
1070
    40
1040
1.3
1070
    45
1040
0.5
1002
}
  0
LINE
  5
1B1D2
330
18
100
AcDbEntity
  8
1DIM
100
AcDbLine
 10
2655.466651972471
 20
-482.917739215991
 30
0.0
 11
2655.466651972471
 21
-521.3176174061131
 31
0.0
1001
ACAD
1000
DSTYLE
1002
{
1070
    40
1040
1.3
1070
    45
1040
0.5
1002
}
  0
LINE
  5
1B1D3
330
18
100
AcDbEntity
  8
1DIM
100
AcDbLine
 10
2788.382766528915
 20
-477.5862828611454
 30
0.0
 11
2788.382766528915
 21
-521.3176174061131
 31
0.0
1001
ACAD
1000
DSTYLE
1002
{
1070
    40
1040
1.3
1070
    45
1040
0.5
1002
}
  0
LINE
  5
1B1D4
330
18
100
AcDbEntity
  8
1DIM
100
AcDbLine
 10
2658.066651972471
 20
-520.0176174061131
 30
0.0
 11
2785.782766528915
 21
-520.0176174061131
 31
0.0
1001
ACAD
1000
DSTYLE
1002
{
1070
    40
1040
1.3
1070
    45
1040
0.5
1002
}
  0
LINE
  5
1B1D8
330
18
100
AcDbEntity
  8
1DIM
100
AcDbLine
 10
2786.882766528915
 20
-461.017617405778
 30
0.0
 11
2824.682785848654
 21
-461.017617405778
 31
0.0
1001
ACAD
1000
DSTYLE
1002
{
1070
    40
1040
1.3
1070
    45
1040
0.5
1002
}
  0
LINE
  5
1B1D9
330
18
100
AcDbEntity
  8
1DIM
100
AcDbLine
 10
2771.137933846002
 20
-425.0176174061131
 30
0.0
 11
2824.682785848654
 21
-425.0176174061131
 31
0.0
1001
ACAD
1000
DSTYLE
1002
{
1070
    40
1040
1.3
1070
    45
1040
0.5
1002
}
  0
LINE
  5
1B1DA
330
18
100
AcDbEntity
  8
1DIM
100
AcDbLine
 10
2823.382785848654
 20
-458.4176174057779
 30
0.0
 11
2823.382785848654
 21
-427.6176174061131
 31
0.0
1001
ACAD
1000
DSTYLE
1002
{
1070
    40
1040
1.3
1070
    45
1040
0.5
1002
}
  0
LINE
  5
1B1DE
330
18
100
AcDbEntity
  8
1DIM
100
AcDbLine
 10
2657.466651972471
 20
-484.917739215991
 30
0.0
 11
2834.682785848654
 21
-484.917739215991
 31
0.0
1001
ACAD
1000
DSTYLE
1002
{
1070
    40
1040
1.3
1070
    45
1040
0.5
1002
}
  0
LINE
  5
1B1DF
330
18
100
AcDbEntity
  8
1DIM
100
AcDbLine
 10
2771.137933846002
 20
-425.0176174061131
 30
0.0
 11
2834.682785848654
 21
-425.0176174061131
 31
0.0
1001
ACAD
1000
DSTYLE
1002
{
1070
    40
1040
1.3
1070
    45
1040
0.5
1002
}
  0
LINE
  5
1B1E0
330
18
100
AcDbEntity
  8
1DIM
100
AcDbLine
 10
2833.382785848654
 20
-482.317739215991
 30
0.0
 11
2833.382785848654
 21
-427.6176174061131
 31
0.0
1001
ACAD
1000
DSTYLE
1002
{
1070
    40
1040
1.3
1070
    45
1040
0.5
1002
}
  0
LINE
  5
1B1E4
330
18
100
AcDbEntity
  8
1DIM
100
AcDbLine
 10
2787.194471438209
 20
-679.4500171402345
 30
0.0
 11
2824.682669508911
 21
-679.4500171402346
 31
0.0
1001
ACAD
1000
DSTYLE
1002
{
1070
    40
1040
1.3
1070
    45
1040
0.5
1002
}
  0
LINE
  5
1B1E5
330
18
100
AcDbEntity
  8
1DIM
100
AcDbLine
 10
2786.935328062861
 20
-670.5499157376413
 30
0.0
 11
2824.682669508911
 21
-670.5499157376414
 31
0.0
1001
ACAD
1000
DSTYLE
1002
{
1070
    40
1040
1.3
1070
    45
1040
0.5
1002
}
  0
LINE
  5
1B1E6
330
18
100
AcDbEntity
  8
1DIM
100
AcDbLine
 10
2823.382669508911
 20
-676.8500171402346
 30
0.0
 11
2823.382669508911
 21
-673.1499157376414
 31
0.0
1001
ACAD
1000
DSTYLE
1002
{
1070
    40
1040
1.3
1070
    45
1040
0.5
1002
}
  0
LINE
  5
1B1EA
330
18
100
AcDbEntity
  8
0
  6
BYBLOCK
100
AcDbLine
 10
2670.982785848654
 20
-510.7142853001131
 30
0.0
 11
2668.382785848654
 21
-510.0176174061131
 31
0.0
  0
LINE
  5
1B1EB
330
18
100
AcDbEntity
  8
0
  6
BYBLOCK
100
AcDbLine
 10
2668.382785848654
 20
-510.0176174061131
 30
0.0
 11
2670.982785848654
 21
-509.3209495121131
 31
0.0
  0
LINE
  5
1B1EC
330
18
100
AcDbEntity
  8
0
  6
BYBLOCK
100
AcDbLine
 10
2668.382785848654
 20
-510.0176174061131
 30
0.0
 11
2670.982785848654
 21
-510.0176174061131
 31
0.0
  0
LINE
  5
1B1ED
330
18
100
AcDbEntity
  8
0
  6
BYBLOCK
100
AcDbLine
 10
2785.782766528915
 20
-509.3209495121131
 30
0.0
 11
2788.382766528915
 21
-510.0176174061131
 31
0.0
  0
LINE
  5
1B1EE
330
18
100
AcDbEntity
  8
0
  6
BYBLOCK
100
AcDbLine
 10
2788.382766528915
 20
-510.0176174061131
 30
0.0
 11
2785.782766528915
 21
-510.7142853001131
 31
0.0
  0
LINE
  5
1B1EF
330
18
100
AcDbEntity
  8
0
  6
BYBLOCK
100
AcDbLine
 10
2788.382766528915
 20
-510.0176174061131
 30
0.0
 11
2785.782766528915
 21
-510.0176174061131
 31
0.0
  0
TEXT
  5
1B1F0
330
18
100
AcDbEntity
  8
1DIM
  6
CONTINUOUS
100
AcDbText
 10
2723.358817855451
 20
-509.1076174061131
 30
0.0
 40
4.55
  1
120
100
AcDbText
1001
ACAD
1000
DSTYLE
1002
{
1070
    40
1040
1.3
1070
    45
1040
0.5
1002
}
  0
LINE
  5
1B1F1
330
18
100
AcDbEntity
  8
0
  6
BYBLOCK
100
AcDbLine
 10
2658.066651972471
 20
-520.7142853001131
 30
0.0
 11
2655.466651972471
 21
-520.0176174061131
 31
0.0
  0
LINE
  5
1B1F2
330
18
100
AcDbEntity
  8
0
  6
BYBLOCK
100
AcDbLine
 10
2655.466651972471
 20
-520.0176174061131
 30
0.0
 11
2658.066651972471
 21
-519.3209495121131
 31
0.0
  0
LINE
  5
1B1F3
330
18
100
AcDbEntity
  8
0
  6
BYBLOCK
100
AcDbLine
 10
2655.466651972471
 20
-520.0176174061131
 30
0.0
 11
2658.066651972471
 21
-520.0176174061131
 31
0.0
  0
LINE
  5
1B1F4
330
18
100
AcDbEntity
  8
0
  6
BYBLOCK
100
AcDbLine
 10
2785.782766528915
 20
-519.3209495121131
 30
0.0
 11
2788.382766528915
 21
-520.0176174061131
 31
0.0
  0
LINE
  5
1B1F5
330
18
100
AcDbEntity
  8
0
  6
BYBLOCK
100
AcDbLine
 10
2788.382766528915
 20
-520.0176174061131
 30
0.0
 11
2785.782766528915
 21
-520.7142853001131
 31
0.0
  0
LINE
  5
1B1F6
330
18
100
AcDbEntity
  8
0
  6
BYBLOCK
100
AcDbLine
 10
2788.382766528915
 20
-520.0176174061131
 30
0.0
 11
2785.782766528915
 21
-520.0176174061131
 31
0.0
  0
TEXT
  5
1B1F7
330
18
100
AcDbEntity
  8
1DIM
  6
CONTINUOUS
100
AcDbText
 10
2716.61637591736
 20
-519.1076174061131
 30
0.0
 40
4.55
  1
133
100
AcDbText
1001
ACAD
1000
DSTYLE
1002
{
1070
    40
1040
1.3
1070
    45
1040
0.5
1002
}
  0
LINE
  5
1B1F8
330
18
100
AcDbEntity
  8
0
  6
BYBLOCK
100
AcDbLine
 10
2824.079453742654
 20
-458.4176174057779
 30
0.0
 11
2823.382785848654
 21
-461.017617405778
 31
0.0
  0
LINE
  5
1B1F9
330
18
100
AcDbEntity
  8
0
  6
BYBLOCK
100
AcDbLine
 10
2823.382785848654
 20
-461.017617405778
 30
0.0
 11
2822.686117954654
 21
-458.4176174057779
 31
0.0
  0
LINE
  5
1B1FA
330
18
100
AcDbEntity
  8
0
  6
BYBLOCK
100
AcDbLine
 10
2823.382785848654
 20
-461.017617405778
 30
0.0
 11
2823.382785848654
 21
-458.4176174057779
 31
0.0
  0
LINE
  5
1B1FB
330
18
100
AcDbEntity
  8
0
  6
BYBLOCK
100
AcDbLine
 10
2822.686117954654
 20
-427.6176174061131
 30
0.0
 11
2823.382785848654
 21
-425.0176174061131
 31
0.0
  0
LINE
  5
1B1FC
330
18
100
AcDbEntity
  8
0
  6
BYBLOCK
100
AcDbLine
 10
2823.382785848654
 20
-425.0176174061131
 30
0.0
 11
2824.079453742654
 21
-427.6176174061131
 31
0.0
  0
LINE
  5
1B1FD
330
18
100
AcDbEntity
  8
0
  6
BYBLOCK
100
AcDbLine
 10
2823.382785848654
 20
-425.0176174061131
 30
0.0
 11
2823.382785848654
 21
-427.6176174061131
 31
0.0
  0
TEXT
  5
1B1FE
330
18
100
AcDbEntity
  8
1DIM
  6
CONTINUOUS
100
AcDbText
 10
2822.472785848654
 20
-446.8092840726117
 30
0.0
 40
4.55
  1
36
 50
90.0
100
AcDbText
1001
ACAD
1000
DSTYLE
1002
{
1070
    40
1040
1.3
1070
    45
1040
0.5
1002
}
  0
LINE
  5
1B1FF
330
18
100
AcDbEntity
  8
0
  6
BYBLOCK
100
AcDbLine
 10
2834.079453742654
 20
-482.317739215991
 30
0.0
 11
2833.382785848654
 21
-484.917739215991
 31
0.0
  0
LINE
  5
1B200
330
18
100
AcDbEntity
  8
0
  6
BYBLOCK
100
AcDbLine
 10
2833.382785848654
 20
-484.917739215991
 30
0.0
 11
2832.686117954654
 21
-482.317739215991
 31
0.0
  0
LINE
  5
1B201
330
18
100
AcDbEntity
  8
0
  6
BYBLOCK
100
AcDbLine
 10
2833.382785848654
 20
-484.917739215991
 30
0.0
 11
2833.382785848654
 21
-482.317739215991
 31
0.0
  0
LINE
  5
1B202
330
18
100
AcDbEntity
  8
0
  6
BYBLOCK
100
AcDbLine
 10
2832.686117954654
 20
-427.6176174061131
 30
0.0
 11
2833.382785848654
 21
-425.0176174061131
 31
0.0
  0
LINE
  5
1B203
330
18
100
AcDbEntity
  8
0
  6
BYBLOCK
100
AcDbLine
 10
2833.382785848654
 20
-425.0176174061131
 30
0.0
 11
2834.079453742654
 21
-427.6176174061131
 31
0.0
  0
LINE
  5
1B204
330
18
100
AcDbEntity
  8
0
  6
BYBLOCK
100
AcDbLine
 10
2833.382785848654
 20
-425.0176174061131
 30
0.0
 11
2833.382785848654
 21
-427.6176174061131
 31
0.0
  0
TEXT
  5
1B205
330
18
100
AcDbEntity
  8
1DIM
  6
CONTINUOUS
100
AcDbText
 10
2832.472785848654
 20
-458.4907685888293
 30
0.0
 40
4.55
  1
60
 50
90.0
100
AcDbText
1001
ACAD
1000
DSTYLE
1002
{
1070
    40
1040
1.3
1070
    45
1040
0.5
1002
}
  0
LINE
  5
1B206
330
18
100
AcDbEntity
  8
0
  6
BYBLOCK
100
AcDbLine
 10
2824.079337402911
 20
-676.8500171402346
 30
0.0
 11
2823.382669508911
 21
-679.4500171402346
 31
0.0
  0
LINE
  5
1B207
330
18
100
AcDbEntity
  8
0
  6
BYBLOCK
100
AcDbLine
 10
2823.382669508911
 20
-679.4500171402346
 30
0.0
 11
2822.686001614911
 21
-676.8500171402346
 31
0.0
  0
LINE
  5
1B208
330
18
100
AcDbEntity
  8
0
  6
BYBLOCK
100
AcDbLine
 10
2823.382669508911
 20
-679.4500171402346
 30
0.0
 11
2823.382669508911
 21
-676.8500171402346
 31
0.0
  0
LINE
  5
1B209
330
18
100
AcDbEntity
  8
0
  6
BYBLOCK
100
AcDbLine
 10
2822.686001614911
 20
-673.1499157376414
 30
0.0
 11
2823.382669508911
 21
-670.5499157376414
 31
0.0
  0
LINE
  5
1B20A
330
18
100
AcDbEntity
  8
0
  6
BYBLOCK
100
AcDbLine
 10
2823.382669508911
 20
-670.5499157376414
 30
0.0
 11
2824.079337402911
 21
-673.1499157376414
 31
0.0
  0
LINE
  5
1B20B
330
18
100
AcDbEntity
  8
0
  6
BYBLOCK
100
AcDbLine
 10
2823.382669508911
 20
-670.5499157376414
 30
0.0
 11
2823.382669508911
 21
-673.1499157376414
 31
0.0
  0
TEXT
  5
1B20C
330
18
100
AcDbEntity
  8
1DIM
  6
CONTINUOUS
100
AcDbText
 10
2822.472669508911
 20
-676.5187395870857
 30
0.0
 40
4.55
  1
9
 50
90.0
100
AcDbText
1001
ACAD
1000
DSTYLE
1002
{
1070
    40
1040
1.3
1070
    45
1040
0.5
1002
}
  0
VIEWPORT
  5
57
330
15
100
AcDbEntity
 67
     1
  8
0
100
AcDbViewport
 68
     1
 10
0.0
 20
0.0
 30
0.0
 40
535.5106132075472
 41
297.0
 68
     1
 69
     1
1001
ACAD
1000
MVIEW
1002
{
1070
    16
1010
0.0
1020
0.0
1030
0.0
1010
0.0
1020
0.0
1030
1.0
1040
0.0
1040
297.0
1040
-4.171999999925333
1040
12.83903210976956
1040
50.0
1040
0.0
1040
0.0
1070
    16
1070
   100
1070
     0
1070
     1
1070
     0
1070
     0
1070
     0
1070
     0
1040
0.0
1040
0.0
1040
0.0
1040
10.0
1040
10.0
1040
10.0
1040
10.0
1070
     0
1002
{
1002
}
1002
}
  0
ENDSEC
  0
SECTION
  2
OBJECTS
  0
DICTIONARY
  5
C
330
0
100
AcDbDictionary
  3
ACAD_COLOR
350
18D
  3
ACAD_GROUP
350
D
  3
ACAD_LAYOUT
350
18E
  3
ACAD_MATERIAL
350
18C
  3
ACAD_MLEADERSTYLE
350
D9E7
  3
ACAD_MLINESTYLE
350
1B
  3
ACAD_PLOTSETTINGS
350
18F
  3
ACAD_SCALELIST
350
D9C5
  3
ACAD_VISUALSTYLE
350
D9B4
  3
ACDBHEADERROUNDTRIPXREC
350
1B20D
  3
ACDBVARIABLEDICTIONARY
350
37
  3
AEC_PROPERTY_SET_DEFS
350
1ABE1
  3
CONTENTDICTIONARY
350
D8
  3
DRAWINGVARIABLESDICT
350
20
  3
DWGPROPS
350
1B210
1001
ACAD
1000
TREAT_AS_HARD
1070
     0
  0
DICTIONARY
  5
E6A6
330
2
100
AcDbDictionary
  3
ACAD_LAYERSTATES
360
E6A7
1001
ACAD
1000
TREAT_AS_HARD
1070
     1
  0
DICTIONARY
  5
DA05
330
E
100
AcDbDictionary
  3
ADSK_XREC_LAYER_RECONCILED
360
DA06
1001
ACAD
1000
TREAT_AS_HARD
1070
     1
  0
DICTIONARY
  5
DA07
330
29
100
AcDbDictionary
  3
ADSK_XREC_LAYER_RECONCILED
360
DA08
1001
ACAD
1000
TREAT_AS_HARD
1070
     1
  0
DICTIONARY
  5
DA09
330
31
100
AcDbDictionary
  3
ADSK_XREC_LAYER_RECONCILED
360
DA0A
1001
ACAD
1000
TREAT_AS_HARD
1070
     1
  0
DICTIONARY
  5
DA0F
330
243
100
AcDbDictionary
  3
ADSK_XREC_LAYER_RECONCILED
360
DA10
1001
ACAD
1000
TREAT_AS_HARD
1070
     1
  0
DICTIONARY
  5
DA15
330
24E
100
AcDbDictionary
  3
ADSK_XREC_LAYER_RECONCILED
360
DA16
1001
ACAD
1000
TREAT_AS_HARD
1070
     1
  0
DICTIONARY
  5
DA23
330
2C05
100
AcDbDictionary
  3
ADSK_XREC_LAYER_RECONCILED
360
DA24
1001
ACAD
1000
TREAT_AS_HARD
1070
     1
  0
DICTIONARY
  5
88F
330
18
100
AcDbDictionary
  3
ACAD_SORTENTS
360
890
1001
ACAD
1000
TREAT_AS_HARD
1070
     1
  0
DICTIONARY
  5
18D
102
{ACAD_REACTORS
330
C
102
}
330
C
100
AcDbDictionary
1001
ACAD
1000
TREAT_AS_HARD
1070
     0
  0
DICTIONARY
  5
D
102
{ACAD_REACTORS
330
C
102
}
330
C
100
AcDbDictionary
1001
ACAD
1000
TREAT_AS_HARD
1070
     0
  0
DICTIONARY
  5
18E
102
{ACAD_REACTORS
330
C
102
}
330
C
100
AcDbDictionary
1001
ACAD
1000
TREAT_AS_HARD
1070
     0
  0
DICTIONARY
  5
18C
102
{ACAD_REACTORS
330
C
102
}
330
C
100
AcDbDictionary
  3
BYBLOCK
350
D9A4
  3
BYLAYER
350
D99C
  3
GLOBAL
350
D9AC
1001
ACAD
1000
TREAT_AS_HARD
1070
     0
  0
DICTIONARY
  5
D9E7
102
{ACAD_REACTORS
330
C
102
}
330
C
100
AcDbDictionary
  3
STANDARD
350
D9E8
1001
ACAD
1000
TREAT_AS_HARD
1070
     0
  0
DICTIONARY
  5
1B
102
{ACAD_REACTORS
330
C
102
}
330
C
100
AcDbDictionary
  3
STANDARD
350
1C
1001
ACAD
1000
TREAT_AS_HARD
1070
     0
  0
DICTIONARY
  5
18F
102
{ACAD_REACTORS
330
C
102
}
330
C
100
AcDbDictionary
1001
ACAD
1000
TREAT_AS_HARD
1070
     0
  0
DICTIONARY
  5
D9C5
102
{ACAD_REACTORS
330
C
102
}
330
C
100
AcDbDictionary
  3
A0
350
D9C6
  3
A1
350
D9C7
  3
A2
350
D9C8
  3
A3
350
D9C9
  3
A4
350
D9CA
  3
A5
350
D9CB
  3
A6
350
D9CC
  3
A7
350
D9CD
  3
A8
350
D9CE
  3
A9
350
D9CF
  3
B0
350
D9D0
  3
B1
350
D9D1
  3
B2
350
D9D2
  3
B3
350
D9D3
  3
B4
350
D9D4
  3
B5
350
D9D5
  3
B6
350
D9D6
  3
B7
350
D9D7
  3
B8
350
D9D8
  3
B9
350
D9D9
  3
C0
350
D9DA
  3
C1
350
D9DB
  3
C2
350
D9DC
  3
C3
350
D9DD
  3
C4
350
D9DE
  3
C5
350
D9DF
  3
C6
350
D9E0
  3
C7
350
D9E1
  3
C8
350
D9E2
  3
C9
350
D9E3
  3
D0
350
D9E4
  3
D1
350
D9E5
  3
D2
350
D9E6
1001
ACAD
1000
TREAT_AS_HARD
1070
     0
  0
DICTIONARY
  5
D9B4
102
{ACAD_REACTORS
330
C
102
}
330
C
100
AcDbDictionary
  3
2DWIREFRAME
350
D9BA
  3
3D_HIDDEN
350
D9BC
  3
3DWIREFRAME
350
D9BB
  3
BASIC
350
D9B9
  3
BRIGHTEN
350
D9C0
  3
COLORCHANGE
350
D9C4
  3
CONCEPTUAL
350
D9BD
  3
DIM
350
D9BF
  3
EDGECOLOROFF
350
19C2F
  3
FACEPATTERN
350
D9C3
  3
FLAT
350
D9B5
  3
FLATWITHEDGES
350
D9B6
  3
GOURAUD
350
D9B7
  3
GOURAUDWITHEDGES
350
D9B8
  3
HIDDEN
350
19C7E
  3
JITTEROFF
350
19C2D
  3
LINEPATTERN
350
D9C2
  3
MODELING
350
19C84
  3
OVERHANGOFF
350
19C2E
  3
REALISTIC
350
D9BE
  3
SHADED
350
19C83
  3
SHADED_WITH_EDGES
350
19C82
  3
SHADES_OF_GRAY
350
19C7F
  3
SKETCHY
350
19C80
  3
THICKEN
350
D9C1
  3
WIREFRAME
350
19C7D
  3
X-RAY
350
19C81
1001
ACAD
1000
TREAT_AS_HARD
1070
     0
  0
DICTIONARY
  5
1B20D
102
{ACAD_REACTORS
330
C
102
}
330
C
100
AcDbDictionary
  3
COLORDICT
350
1B20E
  3
MATERIALDICT
350
1B20F
1001
ACAD
1000
TREAT_AS_HARD
1070
     0
  0
DICTIONARY
  5
37
102
{ACAD_REACTORS
330
C
102
}
330
C
100
AcDbDictionary
  3
CANNOSCALE
350
1AF1A
  3
CMLEADERSTYLE
350
DA6A
  3
CTABLESTYLE
350
29E
  3
DIMADEC
350
38
  3
DIMASSOC
350
1CE
  3
HIDETEXT
350
704E
  3
INDEXCTL
350
DA6D
  3
INTERSECTIONCOLOR
350
7052
  3
INTERSECTIONDISPLAY
350
7051
  3
MSLTSCALE
350
1A6DD
  3
OBSCOLOR
350
704F
  3
OBSLTYPE
350
7050
  3
PROJECTNAME
350
1CF
  3
SORTENTS
350
DA6C
  3
XCLIPFRAME
350
1AEF7
1001
ACAD
1000
TREAT_AS_HARD
1070
     0
  0
DICTIONARY
  5
1ABE1
102
{ACAD_REACTORS
330
C
102
}
330
C
100
AcDbDictionary
1001
ACAD
1000
TREAT_AS_HARD
1070
     0
  0
DICTIONARY
  5
D8
102
{ACAD_REACTORS
330
C
102
}
330
C
100
AcDbDictionary
1001
ACAD
1000
TREAT_AS_HARD
1070
     0
  0
DICTIONARY
  5
20
102
{ACAD_REACTORS
330
C
102
}
330
C
100
AcDbDictionary
1001
DRAWINGVARIABLESXDATA
1000
POLARANG
1000
0.261799387799149410000000
1000
POLARMODE
1000
1
1000
POLARSTYLE
1000
1
1001
ACAD
1000
TREAT_AS_HARD
1070
     0
  0
XRECORD
  5
1B210
102
{ACAD_REACTORS
330
C
102
}
330
C
100
AcDbXrecord
  1
DWGPROPS COOKIE
  2

  3

  4

  6

  7

  8
3684
  9

300
=
301
=
302
=
303
=
304
=
305
=
306
=
307
=
308
=
309
=
 40
0.0
 41
2451318.246352917
 42
2458449.002463484
  1

 90
        0
  0
DICTIONARY
  5
E6A7
102
{ACAD_REACTORS
330
E6A6
102
}
330
E6A6
100
AcDbDictionary
1001
ACAD
1000
TREAT_AS_HARD
1070
     0
  0
ACAD_PROXY_OBJECT
  5
DA06
102
{ACAD_REACTORS
330
DA05
102
}
330
DA05
100
AcDbZombieObject
 90
      499
 91
      516
 93
       34
310
40C8804040
  0
ACAD_PROXY_OBJECT
  5
DA08
102
{ACAD_REACTORS
330
DA07
102
}
330
DA07
100
AcDbZombieObject
 90
      499
 91
      516
 93
       34
310
40C8804040
  0
ACAD_PROXY_OBJECT
  5
DA0A
102
{ACAD_REACTORS
330
DA09
102
}
330
DA09
100
AcDbZombieObject
 90
      499
 91
      516
 93
       34
310
40C8804040
  0
ACAD_PROXY_OBJECT
  5
DA10
102
{ACAD_REACTORS
330
DA0F
102
}
330
DA0F
100
AcDbZombieObject
 90
      499
 91
      516
 93
       34
310
40C8804040
  0
ACAD_PROXY_OBJECT
  5
DA16
102
{ACAD_REACTORS
330
DA15
102
}
330
DA15
100
AcDbZombieObject
 90
      499
 91
      516
 93
       34
310
40C8804040
  0
ACAD_PROXY_OBJECT
  5
DA24
102
{ACAD_REACTORS
330
DA23
102
}
330
DA23
100
AcDbZombieObject
 90
      499
 91
      516
 93
       34
310
40C8804040
  0
SORTENTSTABLE
  5
890
102
{ACAD_REACTORS
330
88F
102
}
330
88F
100
AcDbSortentsTable
330
18
331
0
  5
5BFF
331
1ABF7
  5
1ABFC
331
1ABF9
  5
1AC0A
331
1ABFA
  5
1AC0B
331
1ABFB
  5
1AC0C
331
1ABFC
  5
1AC0D
331
1ABFD
  5
1AC0E
331
1ABFE
  5
1AC0F
331
1ABFF
  5
1AC10
331
1AC00
  5
1AC11
331
1AC01
  5
1AC12
331
1AC02
  5
1AC13
331
1AC03
  5
1AC14
331
1AC04
  5
1AC15
331
1AC05
  5
1AC16
331
1AC06
  5
1AC17
331
1AC07
  5
1AC18
331
1AC08
  5
1AC19
331
1AC09
  5
1AC1A
331
1AC0A
  5
1AC1B
331
1AC0B
  5
1AC1C
331
1AC0C
  5
1AC1D
331
1AC0D
  5
1AC1E
331
1AC0E
  5
1AC1F
331
1AC0F
  5
1AC20
331
1AC10
  5
1AC21
331
1AC11
  5
1AC22
331
1AC12
  5
1AC23
331
1AC13
  5
1AC24
331
1AC14
  5
1AC25
331
1AC15
  5
1AC26
331
1AC16
  5
1AC27
331
1AC17
  5
1AC2C
331
1AC18
  5
1AC2D
331
1AC19
  5
1AC2E
331
1AC1A
  5
1AC2F
331
1AC1B
  5
1AC30
331
1AC1C
  5
1AC31
331
1AC1D
  5
1AC32
331
1AC1E
  5
1AC33
331
1AC1F
  5
1AC34
331
1AC20
  5
1AC38
331
1AC21
  5
1AC39
331
1AC22
  5
1AC3D
331
1AC23
  5
1AC3E
331
1AC24
  5
1AC40
331
1AC25
  5
1AC44
331
1AC26
  5
1AC45
331
1AC27
  5
1AC46
331
1AC2C
  5
1AC7E
331
1AC2D
  5
1AC7F
331
1AC2E
  5
1AC80
331
1AC2F
  5
1AC81
331
1AC30
  5
1AC82
331
1AC31
  5
1AC83
331
1AC32
  5
1AC84
331
1AC33
  5
1AC85
331
1AC34
  5
1AC86
331
1AC38
  5
1ACA5
331
1AC39
  5
1ACA6
331
1AC3A
  5
1ACA7
331
1AC3B
  5
1ACA8
331
1AC3C
  5
1ACA9
331
1AC3D
  5
1ACAA
331
1AC3E
  5
1ACAB
331
1AC40
  5
1ACB2
331
1AC41
  5
1ACB3
331
1AC42
  5
1ACB4
331
1AC43
  5
1ACB5
331
1AC44
  5
1ACB6
331
1AC45
  5
1ACB7
331
1AC46
  5
1ACB8
331
1AC47
  5
1ACB9
331
1AC48
  5
1ACBA
331
1AC49
  5
1ACBB
331
1AC4A
  5
1ACBC
331
1AC4B
  5
1ACBD
331
1AC4C
  5
1ACBE
331
1AC4D
  5
1ACBF
331
1AC4E
  5
1ACC0
331
1AC4F
  5
1ACC1
331
1AC50
  5
1ACC2
331
1AC51
  5
1ACC3
331
1AC52
  5
1ACC4
331
1AC53
  5
1ACC5
331
1AC54
  5
1ACC6
331
1AC55
  5
1ACC7
331
1AC56
  5
1ACC9
331
1AC57
  5
1ACCA
331
1AC58
  5
1ACCB
331
1AC59
  5
1ACCC
331
1AC5A
  5
1ACCD
331
1AC5B
  5
1ACCE
331
1AC5C
  5
1ACCF
331
1AC5D
  5
1ACD0
331
1AC5E
  5
1ACD1
331
1AC5F
  5
1ACD2
331
1AC60
  5
1ACD3
331
1AC61
  5
1ACD4
331
1AC62
  5
1ACD5
331
1AC63
  5
1ACD7
331
1AC64
  5
1ACD8
331
1AC65
  5
1ACD9
331
1AC66
  5
1ACDA
331
1AC67
  5
1ACDB
331
1AC68
  5
1ACDC
331
1AC69
  5
1ACDD
331
1AC6A
  5
1ACDE
331
1AC6B
  5
1ACDF
331
1AC6C
  5
1ACE0
331
1AC6D
  5
1ACE1
331
1AC6E
  5
1ACE2
331
1AC6F
  5
1ACE3
331
1AC70
  5
1ACE4
331
1AC71
  5
1ACE5
331
1AC72
  5
1ACE6
331
1AC73
  5
1ACE7
331
1AC74
  5
1ACE8
331
1AC75
  5
1ACE9
331
1AC76
  5
1ACEA
331
1AC77
  5
1ACEB
331
1AC78
  5
1ACEC
331
1AC79
  5
1ACED
331
1AC7A
  5
1ACEE
331
1AC7B
  5
1ACEF
331
1AC7C
  5
1ACF0
331
1AC7D
  5
1ACF1
331
1AC7E
  5
1ACF2
331
1AC7F
  5
1ACF3
331
1AC80
  5
1ACF4
331
1AC81
  5
1ACF5
331
1AC82
  5
1ACF6
331
1AC83
  5
1ACF7
331
1AC84
  5
1ACF8
331
1AC85
  5
1ACF9
331
1AC86
  5
1ACFA
331
1AC87
  5
1ACFB
331
1AC88
  5
1ACFC
331
1AC89
  5
1ACFD
331
1AC8A
  5
1ACFE
331
1AC8B
  5
1ACFF
331
1AC8C
  5
1AD00
331
1AC8D
  5
1AD01
331
1AC8E
  5
1AD02
331
1AC8F
  5
1AD03
331
1AC90
  5
1AD04
331
1AC91
  5
1AD05
331
1AC92
  5
1AD06
331
1AC93
  5
1AD07
331
1AC94
  5
1AD08
331
1AC95
  5
1AD09
331
1AC96
  5
1AD0A
331
1AC97
  5
1AD0B
331
1AC98
  5
1AD0C
331
1AC99
  5
1AD0D
331
1AC9A
  5
1AD0E
331
1AC9B
  5
1AD0F
331
1AC9C
  5
1AD10
331
1AC9D
  5
1AD11
331
1AC9E
  5
1AD12
331
1AC9F
  5
1AD16
331
1ACA0
  5
1AD17
331
1ACA1
  5
1AD18
331
1ACA2
  5
1AD19
331
1ACA3
  5
1AD1A
331
1ACA4
  5
1AD1B
331
1ACA5
  5
1AD1C
331
1ACA6
  5
1AD1D
331
1ACA7
  5
1AD1E
331
1ACA8
  5
1AD1F
331
1ACA9
  5
1AD20
331
1ACAA
  5
1AD21
331
1ACAB
  5
1AD22
331
1ACAC
  5
1AD23
331
1ACAD
  5
1AD24
331
1ACAE
  5
1AD25
331
1ACAF
  5
1AD26
331
1ACB0
  5
1AD27
331
1ACB1
  5
1AD28
331
1ACB2
  5
1AD29
331
1ACB3
  5
1AD2A
331
1ACB4
  5
1AD2B
331
1ACB5
  5
1AD2C
331
1ACB6
  5
1AD2D
331
1ACB7
  5
1AD2E
331
1ACB8
  5
1AD2F
331
1ACB9
  5
1AD30
331
1ACBA
  5
1AD31
331
1ACBB
  5
1AD32
331
1ACBC
  5
1AD33
331
1ACBD
  5
1AD34
331
1ACBE
  5
1AD35
331
1ACBF
  5
1AD36
331
1ACC0
  5
1AD37
331
1ACC1
  5
1AD38
331
1ACC2
  5
1AD39
331
1ACC3
  5
1AD3A
331
1ACC4
  5
1AD3B
331
1ACC5
  5
1AD3D
331
1ACC6
  5
1AD3E
331
1ACC7
  5
1AD3F
331
1ACC9
  5
1AD41
331
1ACCA
  5
1AD42
331
1ACCB
  5
1AD43
331
1ACCC
  5
1AD49
331
1ACCD
  5
1AD4A
331
0
  5
1AD44
331
0
  5
1AD45
331
0
  5
1AD46
331
0
  5
1AD47
331
0
  5
1AD48
331
1ACD3
  5
1AD8E
331
1ACD4
  5
1AD8F
331
1ACD5
  5
1AD90
331
1ACD7
  5
1AD9B
331
1ACD8
  5
1AD9C
331
1ACD9
  5
1AD9D
331
1ACDA
  5
1AD9E
331
1ACDB
  5
1AD9F
331
1ACDC
  5
1ADA0
331
1ACDD
  5
1ADA1
331
1ACDE
  5
1ADA2
331
1ACDF
  5
1ADA3
331
1ACE0
  5
1ADA4
331
1ACE1
  5
1ADA5
331
1ACE2
  5
1ADA6
331
1ACE3
  5
1ADA7
331
1ACE4
  5
1ADA9
331
1ACE5
  5
1ADAA
331
1ACE6
  5
1ADAB
331
1ACE7
  5
1ADAC
331
1ACE8
  5
1ADAD
331
1ACE9
  5
1ADAE
331
1ACEA
  5
1ADAF
331
1ACEB
  5
1ADB0
331
1ACEC
  5
1ADB1
331
1ACED
  5
1ADB2
331
1ACEE
  5
1ADB3
331
1ACEF
  5
1ADB4
331
1ACF0
  5
1ADB5
331
1ACF1
  5
1ADB6
331
1ACF2
  5
1ADB7
331
1ACF3
  5
1AFB7
331
1ACF4
  5
1AFB8
331
1ACF5
  5
1AFB9
331
1ACF6
  5
1AFBA
331
1ACF7
  5
1AFBB
331
1ACF8
  5
1AFBC
331
1ACF9
  5
1AFBD
331
1ACFA
  5
1AFBE
331
1ACFB
  5
1AFBF
331
1ACFC
  5
1AFC0
331
1ACFD
  5
1AFC1
331
1ACFE
  5
1AFC2
331
1ACFF
  5
1AFC3
331
1AD00
  5
1AFC4
331
1AD01
  5
1AFC5
331
1AD02
  5
1AFC6
331
1AD03
  5
1AFC7
331
1AD04
  5
1AFC8
331
1AD05
  5
1AFC9
331
1AD06
  5
1B148
331
1AD07
  5
1B149
331
1AD08
  5
1B14A
331
1AD09
  5
1B14B
331
1AD0A
  5
1B14C
331
1AD0B
  5
1B14D
331
1AD0C
  5
1B14E
331
1AD0D
  5
1B14F
331
1AD0E
  5
1B150
331
1AD0F
  5
1B151
331
1AD10
  5
1B152
331
1AD11
  5
1B153
331
1AD12
  5
1B154
331
1AD13
  5
1B155
331
1AD14
  5
1B156
331
1AD15
  5
1B157
331
1AD16
  5
1B158
331
1AD17
  5
1B159
331
1AD18
  5
1B15A
331
1AD19
  5
1B15B
331
1AD1A
  5
1B15C
331
1AD1B
  5
1B15D
331
1AD1C
  5
1B15E
331
1AD1D
  5
1B15F
331
1AD1E
  5
1B160
331
1AD1F
  5
1B161
331
1AD20
  5
1B162
331
1AD21
  5
1B163
331
1AD22
  5
1B164
331
1AD23
  5
1B165
331
1AD24
  5
1B166
331
1AD25
  5
1B167
331
1AD26
  5
1B168
331
1AD27
  5
1B169
331
1AD28
  5
1B16A
331
1AD29
  5
1B16B
331
1AD2A
  5
1B16C
331
1AD2B
  5
1B16D
331
1AD2C
  5
1B16E
331
1AD2D
  5
1B16F
331
1AD2E
  5
1B170
331
1AD2F
  5
1B171
331
1AD30
  5
1B172
331
1AD31
  5
1B173
331
1AD32
  5
1B174
331
1AD33
  5
1B175
331
1AD34
  5
1B176
331
1AD35
  5
1B177
331
1AD36
  5
1B178
331
1AD37
  5
1B179
331
1AD38
  5
1B17A
331
1AD39
  5
1B17B
331
1AD3A
  5
1B17C
331
1AD3B
  5
1B17D
331
1AD3D
  5
1B180
331
1AD3E
  5
1B181
331
1AD3F
  5
1B182
331
1AD40
  5
1B183
331
1AD41
  5
1B184
331
1AD42
  5
1B185
331
1AD43
  5
1B186
331
1AD44
  5
1B187
331
1AD45
  5
1B188
331
1AD46
  5
1B189
331
1AD47
  5
1B18A
331
1AD48
  5
1B18B
331
1AD49
  5
1B18C
331
1AD4A
  5
1B18D
331
1AD4B
  5
1B18E
331
1AD4C
  5
1B18F
331
1AD4D
  5
1B190
331
1AD4E
  5
1B191
331
1AD4F
  5
1B192
331
1AD50
  5
1B193
331
1AD51
  5
1B194
331
1AD52
  5
1B195
331
1AD53
  5
1B196
331
1AD54
  5
1B197
331
1AD55
  5
1B198
331
1AD56
  5
1B199
331
1AD57
  5
1B19A
331
1AD58
  5
1B19B
331
1AD59
  5
1B19C
331
1AD5A
  5
1B19D
331
1AD5B
  5
1B19E
331
1AD5C
  5
1B19F
331
1AD5D
  5
1B1A0
331
1AD5E
  5
1B1A1
331
1AD5F
  5
1B1A2
331
1AD60
  5
1B1A3
331
1AD61
  5
1B1A4
331
1AD62
  5
1B1A5
331
1AD63
  5
1B1A6
331
1AD64
  5
1B1A7
331
1AD65
  5
1B1A8
331
1AD68
  5
1B1A9
331
1AD69
  5
1B1AA
331
1AD6A
  5
1B1AB
331
1AD6B
  5
1B1AC
331
1AD6C
  5
1B1AD
331
1AD6D
  5
1B1AE
331
1AD6E
  5
1B1AF
331
1AD6F
  5
1B1B0
331
1AD70
  5
1B1B1
331
1AD71
  5
1B1B2
331
1AD72
  5
1B1B3
331
1AD73
  5
1B1B4
331
1AD74
  5
1B1B5
331
1AD75
  5
1B1B6
331
1AD76
  5
1B1B7
331
1AD77
  5
1B1B8
331
1AD78
  5
1B1B9
331
1AD79
  5
1B1BA
331
1AD7A
  5
1B1BB
331
1AD7B
  5
1B1BC
331
1AD7C
  5
1B1BD
331
1AD7D
  5
1B1BE
331
1AD7E
  5
1B1BF
331
1AD7F
  5
1B1C0
331
1AD80
  5
1B1C1
331
1AD81
  5
1B1C2
331
1AD82
  5
1B1C3
331
1AD83
  5
1B1C4
331
1AD84
  5
1B1C5
331
1AD85
  5
1B1C6
331
1AD86
  5
1B1C7
331
1AD87
  5
1B1C8
331
1AD88
  5
1B1C9
331
1AD89
  5
1B1CA
331
1AD8A
  5
1B1CB
331
1AD8B
  5
1B1CC
331
1AD8C
  5
1B1CD
331
1AD8D
  5
1B1CE
331
1AD8E
  5
1B1CF
331
1AD8F
  5
1B1D0
331
1AD90
  5
1B1D1
331
1AD91
  5
1B1D2
331
1AD92
  5
1B1D3
331
1AD93
  5
1B1D4
331
1AD94
  5
1B1D5
331
1AD95
  5
1B1D6
331
1AD96
  5
1B1D7
331
1AD97
  5
1B1D8
331
1AD98
  5
1B1D9
331
1AD99
  5
1B1DA
331
1AD9A
  5
1B1DB
331
1AD9B
  5
1B1DC
331
1AD9C
  5
1B1DD
331
1AD9D
  5
1B1DE
331
1AD9E
  5
1B1DF
331
1AD9F
  5
1B1E0
331
1ADA0
  5
1B1E1
331
1ADA1
  5
1B1E2
331
1ADA2
  5
1B1E3
331
1ADA3
  5
1B1E4
331
1ADA4
  5
1B1E5
331
1ADA5
  5
1B1E6
331
1ADA6
  5
1B1E7
331
1ADA7
  5
1B1E8
331
1ADA9
  5
1B1EB
331
1ADAA
  5
1B1EC
331
1ADAB
  5
1B1ED
331
1ADAC
  5
1B1EE
331
1ADAD
  5
1B1EF
331
1ADAE
  5
1B1F0
331
1ADAF
  5
1B1F1
331
1ADB0
  5
1B1F2
331
1ADB1
  5
1B1F3
331
1ADB2
  5
1B1F4
331
1ADB3
  5
1B1F5
331
1ADB4
  5
1B1F6
331
1ADB5
  5
1B1F7
331
1ADB6
  5
1B1F8
331
1ADB7
  5
1B1F9
331
1AFB7
  5
1B1FA
331
1AFB8
  5
1B1FB
331
1AFB9
  5
1B1FC
331
1AFBA
  5
1B1FD
331
1AFBB
  5
1B1FE
331
1AFBC
  5
1B1FF
331
1AFBD
  5
1B200
331
1AFBE
  5
1B201
331
1AFBF
  5
1B202
331
1AFC0
  5
1B203
331
1AFC1
  5
1B204
331
1AFC2
  5
1B205
331
1AFC3
  5
1B206
331
1AFC4
  5
1B207
331
1AFC5
  5
1B208
331
1AFC6
  5
1B209
331
1AFC7
  5
1B20A
331
1AFC8
  5
1B20B
331
1AFC9
  5
1B20C
331
1B148
  5
1ABFA
331
1B149
  5
1ABFB
331
1B14A
  5
1ABFD
331
1B14B
  5
1AC01
331
1B14C
  5
1AC02
331
0
  5
1ABFE
331
0
  5
1ABFF
331
0
  5
1AC00
331
1B150
  5
1AC4A
331
1B151
  5
1AC4B
331
1B152
  5
1AC4C
331
0
  5
1AC3A
331
0
  5
1AC3B
331
0
  5
1AC3C
331
1B156
  5
1AC57
331
1B157
  5
1AC58
331
1B158
  5
1AC59
331
0
  5
1AC41
331
0
  5
1AC42
331
0
  5
1AC43
331
1B15C
  5
1AC67
331
1B15D
  5
1AC6B
331
1B15E
  5
1AC6C
331
0
  5
1AC47
331
0
  5
1AC48
331
0
  5
1AC49
331
1B162
  5
1AC74
331
1B163
  5
1AC75
331
1B164
  5
1AC76
331
0
  5
1AC4D
331
0
  5
1AC4E
331
0
  5
1AC4F
331
1B168
  5
1AC87
331
1B169
  5
1AC88
331
1B16A
  5
1AC89
331
0
  5
1AC5C
331
0
  5
1AC5D
331
0
  5
1AC5E
331
1B16E
  5
1AC91
331
1B16F
  5
1AC92
331
1B170
  5
1AC93
331
0
  5
1AC62
331
0
  5
1AC63
331
0
  5
1AC64
331
1B174
  5
1AC9B
331
1B175
  5
1AC9C
331
1B176
  5
1AC9D
331
0
  5
1AC68
331
0
  5
1AC69
331
0
  5
1AC6A
331
1B17A
  5
1ACAC
331
1B17B
  5
1ACAD
331
1B17C
  5
1ACAE
331
1B17D
  5
1ACAF
331
1B17E
  5
1ACB0
331
1B17F
  5
1ACB1
331
1B180
  5
1AD40
331
1B181
  5
1AD91
331
1B182
  5
1AD92
331
1B183
  5
1AD93
331
0
  5
1AD13
331
0
  5
1AD14
331
0
  5
1AD15
331
1B187
  5
1B17E
331
1B188
  5
1B17F
331
1B189
  5
1B1E9
331
1B18A
  5
1B1EA
331
1B18B
  5
1AC03
331
1B18C
  5
1AC04
331
1B18D
  5
1AC05
331
1B18E
  5
1AC06
331
1B18F
  5
1AC07
331
1B190
  5
1AC08
331
1B191
  5
1AC09
331
1B192
  5
1AC50
331
1B193
  5
1AC51
331
1B194
  5
1AC52
331
1B195
  5
1AC53
331
1B196
  5
1AC54
331
1B197
  5
1AC55
331
1B198
  5
1AC56
331
1B199
  5
1AC5A
331
1B19A
  5
1AC5B
331
1B19B
  5
1AC5F
331
1B19C
  5
1AC60
331
1B19D
  5
1AC61
331
1B19E
  5
1AC65
331
1B19F
  5
1AC66
331
1B1A0
  5
1AC6D
331
1B1A1
  5
1AC6E
331
1B1A2
  5
1AC6F
331
1B1A3
  5
1AC70
331
1B1A4
  5
1AC71
331
1B1A5
  5
1AC72
331
1B1A6
  5
1AC73
331
1B1A7
  5
1AC77
331
1B1A8
  5
1AC78
331
1B1A9
  5
1AC79
331
1B1AA
  5
1AC7A
331
1B1AB
  5
1AC7B
331
1B1AC
  5
1AC7C
331
1B1AD
  5
1AC7D
331
1B1AE
  5
1AC8A
331
1B1AF
  5
1AC8B
331
1B1B0
  5
1AC8C
331
1B1B1
  5
1AC8D
331
1B1B2
  5
1AC8E
331
1B1B3
  5
1AC8F
331
1B1B4
  5
1AC90
331
1B1B5
  5
1AC94
331
1B1B6
  5
1AC95
331
1B1B7
  5
1AC96
331
1B1B8
  5
1AC97
331
1B1B9
  5
1AC98
331
1B1BA
  5
1AC99
331
1B1BB
  5
1AC9A
331
1B1BC
  5
1AC9E
331
1B1BD
  5
1AC9F
331
1B1BE
  5
1ACA0
331
1B1BF
  5
1ACA1
331
1B1C0
  5
1ACA2
331
1B1C1
  5
1ACA3
331
1B1C2
  5
1ACA4
331
1B1C3
  5
1AD94
331
1B1C4
  5
1AD95
331
1B1C5
  5
1AD96
331
1B1C6
  5
1AD97
331
1B1C7
  5
1AD98
331
1B1C8
  5
1AD99
331
1B1C9
  5
1AD9A
331
1B1CA
  5
1ABF7
331
1B1CB
  5
1ABF9
331
1B1CC
  5
1AD4B
331
1B1CD
  5
1AD4C
331
1B1CE
  5
1AD4D
331
0
  5
1AD4E
331
0
  5
1AD4F
331
0
  5
1AD50
331
1B1D2
  5
1AD5E
331
1B1D3
  5
1AD5F
331
1B1D4
  5
1AD63
331
0
  5
1AD54
331
0
  5
1AD55
331
0
  5
1AD56
331
1B1D8
  5
1AD70
331
1B1D9
  5
1AD71
331
1B1DA
  5
1AD72
331
0
  5
1AD5A
331
0
  5
1AD5B
331
0
  5
1AD5C
331
1B1DE
  5
1AD7A
331
1B1DF
  5
1AD7B
331
1B1E0
  5
1AD7C
331
0
  5
1AD60
331
0
  5
1AD61
331
0
  5
1AD62
331
1B1E4
  5
1AD84
331
1B1E5
  5
1AD85
331
1B1E6
  5
1AD86
331
0
  5
1AD68
331
0
  5
1AD69
331
0
  5
1AD6A
331
1B1EA
  5
1AD51
331
1B1EB
  5
1AD52
331
1B1EC
  5
1AD53
331
1B1ED
  5
1AD57
331
1B1EE
  5
1AD58
331
1B1EF
  5
1AD59
331
1B1F0
  5
1AD5D
331
1B1F1
  5
1AD64
331
1B1F2
  5
1AD65
331
1B1F3
  5
1AD6B
331
1B1F4
  5
1AD6C
331
1B1F5
  5
1AD6D
331
1B1F6
  5
1AD6E
331
1B1F7
  5
1AD6F
331
1B1F8
  5
1AD73
331
1B1F9
  5
1AD74
331
1B1FA
  5
1AD75
331
1B1FB
  5
1AD76
331
1B1FC
  5
1AD77
331
1B1FD
  5
1AD78
331
1B1FE
  5
1AD79
331
1B1FF
  5
1AD7D
331
1B200
  5
1AD7E
331
1B201
  5
1AD7F
331
1B202
  5
1AD80
331
1B203
  5
1AD81
331
1B204
  5
1AD82
331
1B205
  5
1AD83
331
1B206
  5
1AD87
331
1B207
  5
1AD88
331
1B208
  5
1AD89
331
1B209
  5
1AD8A
331
1B20A
  5
1AD8B
331
1B20B
  5
1AD8C
331
1B20C
  5
1AD8D
  0
MATERIAL
  5
D9A4
102
{ACAD_REACTORS
330
18C
102
}
102
{ACAD_XDICTIONARY
360
1B3AB
102
}
330
18C
100
AcDbMaterial
  1
BYBLOCK
 72
     0
 73
     2
 43
0.0208333333333333
 43
0.0
 43
0.0
 43
0.0
 43
0.0
 43
0.0208333333333333
 43
0.0
 43
0.0
 43
0.0
 43
0.0
 43
1.0
 43
0.0
 43
0.0
 43
0.0
 43
0.0
 43
1.0
 77
     0
 78
     2
 47
0.0208333333333333
 47
0.0
 47
0.0
 47
0.0
 47
0.0
 47
0.0208333333333333
 47
0.0
 47
0.0
 47
0.0
 47
0.0
 47
1.0
 47
0.0
 47
0.0
 47
0.0
 47
0.0
 47
1.0
171
     0
172
     2
 49
0.0208333333333333
 49
0.0
 49
0.0
 49
0.0
 49
0.0
 49
0.0208333333333333
 49
0.0
 49
0.0
 49
0.0
 49
0.0
 49
1.0
 49
0.0
 49
0.0
 49
0.0
 49
0.0
 49
1.0
175
     0
176
     2
142
0.0208333333333333
142
0.0
142
0.0
142
0.0
142
0.0
142
0.0208333333333333
142
0.0
142
0.0
142
0.0
142
0.0
142
1.0
142
0.0
142
0.0
142
0.0
142
0.0
142
1.0
179
     0
270
     2
144
0.0208333333333333
144
0.0
144
0.0
144
0.0
144
0.0
144
0.0208333333333333
144
0.0
144
0.0
144
0.0
144
0.0
144
1.0
144
0.0
144
0.0
144
0.0
144
0.0
144
1.0
274
     2
147
0.0208333333333333
147
0.0
147
0.0
147
0.0
147
0.0
147
0.0208333333333333
147
0.0
147
0.0
147
0.0
147
0.0
147
1.0
147
0.0
147
0.0
147
0.0
147
0.0
147
1.0
  0
MATERIAL
  5
D99C
102
{ACAD_REACTORS
330
18C
102
}
102
{ACAD_XDICTIONARY
360
1B3AD
102
}
330
18C
100
AcDbMaterial
  1
BYLAYER
 72
     0
 73
     2
 43
0.0208333333333333
 43
0.0
 43
0.0
 43
0.0
 43
0.0
 43
0.0208333333333333
 43
0.0
 43
0.0
 43
0.0
 43
0.0
 43
1.0
 43
0.0
 43
0.0
 43
0.0
 43
0.0
 43
1.0
 77
     0
 78
     2
 47
0.0208333333333333
 47
0.0
 47
0.0
 47
0.0
 47
0.0
 47
0.0208333333333333
 47
0.0
 47
0.0
 47
0.0
 47
0.0
 47
1.0
 47
0.0
 47
0.0
 47
0.0
 47
0.0
 47
1.0
171
     0
172
     2
 49
0.0208333333333333
 49
0.0
 49
0.0
 49
0.0
 49
0.0
 49
0.0208333333333333
 49
0.0
 49
0.0
 49
0.0
 49
0.0
 49
1.0
 49
0.0
 49
0.0
 49
0.0
 49
0.0
 49
1.0
175
     0
176
     2
142
0.0208333333333333
142
0.0
142
0.0
142
0.0
142
0.0
142
0.0208333333333333
142
0.0
142
0.0
142
0.0
142
0.0
142
1.0
142
0.0
142
0.0
142
0.0
142
0.0
142
1.0
179
     0
270
     2
144
0.0208333333333333
144
0.0
144
0.0
144
0.0
144
0.0
144
0.0208333333333333
144
0.0
144
0.0
144
0.0
144
0.0
144
1.0
144
0.0
144
0.0
144
0.0
144
0.0
144
1.0
274
     2
147
0.0208333333333333
147
0.0
147
0.0
147
0.0
147
0.0
147
0.0208333333333333
147
0.0
147
0.0
147
0.0
147
0.0
147
1.0
147
0.0
147
0.0
147
0.0
147
0.0
147
1.0
  0
MATERIAL
  5
D9AC
102
{ACAD_REACTORS
330
18C
102
}
102
{ACAD_XDICTIONARY
360
1B3AF
102
}
330
18C
100
AcDbMaterial
  1
GLOBAL
 72
     0
 73
     2
 43
0.0208333333333333
 43
0.0
 43
0.0
 43
0.0
 43
0.0
 43
0.0208333333333333
 43
0.0
 43
0.0
 43
0.0
 43
0.0
 43
1.0
 43
0.0
 43
0.0
 43
0.0
 43
0.0
 43
1.0
 77
     0
 78
     2
 47
0.0208333333333333
 47
0.0
 47
0.0
 47
0.0
 47
0.0
 47
0.0208333333333333
 47
0.0
 47
0.0
 47
0.0
 47
0.0
 47
1.0
 47
0.0
 47
0.0
 47
0.0
 47
0.0
 47
1.0
171
     0
172
     2
 49
0.0208333333333333
 49
0.0
 49
0.0
 49
0.0
 49
0.0
 49
0.0208333333333333
 49
0.0
 49
0.0
 49
0.0
 49
0.0
 49
1.0
 49
0.0
 49
0.0
 49
0.0
 49
0.0
 49
1.0
175
     0
176
     2
142
0.0208333333333333
142
0.0
142
0.0
142
0.0
142
0.0
142
0.0208333333333333
142
0.0
142
0.0
142
0.0
142
0.0
142
1.0
142
0.0
142
0.0
142
0.0
142
0.0
142
1.0
179
     0
270
     2
144
0.0208333333333333
144
0.0
144
0.0
144
0.0
144
0.0
144
0.0208333333333333
144
0.0
144
0.0
144
0.0
144
0.0
144
1.0
144
0.0
144
0.0
144
0.0
144
0.0
144
1.0
274
     2
147
0.0208333333333333
147
0.0
147
0.0
147
0.0
147
0.0
147
0.0208333333333333
147
0.0
147
0.0
147
0.0
147
0.0
147
1.0
147
0.0
147
0.0
147
0.0
147
0.0
147
1.0
  0
ACAD_PROXY_OBJECT
  5
D9E8
102
{ACAD_REACTORS
330
D9E7
102
}
330
D9E7
100
AcDbZombieObject
 90
      499
 91
      511
 93
      610
310
40901902A4063FBFFFFFE000000000000002040AD7A3703D0AD73F4214DD185B99185C990000000000000104090141901A00000000000004100000000000000041025764000000000000300FC0
340
12
340
0
340
F
340
0
 94
        0
1001
ACAD_MLEADERVER
1070
     2
  0
MLINESTYLE
  5
1C
102
{ACAD_REACTORS
330
1B
102
}
330
1B
100
AcDbMlineStyle
  2
STANDARD
 70
     0
  3

 62
   256
 51
90.0
 52
90.0
 71
     2
 49
0.5
 62
   256
  6
BYLAYER
 49
-0.5
 62
   256
  6
BYLAYER
  0
ACAD_PROXY_OBJECT
  5
D9C6
102
{ACAD_REACTORS
330
D9C5
102
}
330
D9C5
100
AcDbZombieObject
 90
      499
 91
      510
 93
       41
310
903313A31580
  0
ACAD_PROXY_OBJECT
  5
D9C7
102
{ACAD_REACTORS
330
D9C5
102
}
330
D9C5
100
AcDbZombieObject
 90
      499
 91
      510
 93
      105
310
903313A324000000000000004000
  0
ACAD_PROXY_OBJECT
  5
D9C8
102
{ACAD_REACTORS
330
D9C5
102
}
330
D9C5
100
AcDbZombieObject
 90
      499
 91
      510
 93
      105
310
903313A344000000000000104000
  0
ACAD_PROXY_OBJECT
  5
D9C9
102
{ACAD_REACTORS
330
D9C5
102
}
330
D9C5
100
AcDbZombieObject
 90
      499
 91
      510
 93
      105
310
903313A354000000000000144000
  0
ACAD_PROXY_OBJECT
  5
D9CA
102
{ACAD_REACTORS
330
D9C5
102
}
330
D9C5
100
AcDbZombieObject
 90
      499
 91
      510
 93
      105
310
903313A384000000000000204000
  0
ACAD_PROXY_OBJECT
  5
D9CB
102
{ACAD_REACTORS
330
D9C5
102
}
330
D9C5
100
AcDbZombieObject
 90
      499
 91
      510
 93
      113
310
904313A31304000000000000244000
  0
ACAD_PROXY_OBJECT
  5
D9CC
102
{ACAD_REACTORS
330
D9C5
102
}
330
D9C5
100
AcDbZombieObject
 90
      499
 91
      510
 93
      113
310
904313A31364000000000000304000
  0
ACAD_PROXY_OBJECT
  5
D9CD
102
{ACAD_REACTORS
330
D9C5
102
}
330
D9C5
100
AcDbZombieObject
 90
      499
 91
      510
 93
      113
310
904313A32304000000000000344000
  0
ACAD_PROXY_OBJECT
  5
D9CE
102
{ACAD_REACTORS
330
D9C5
102
}
330
D9C5
100
AcDbZombieObject
 90
      499
 91
      510
 93
      113
310
904313A333040000000000003E4000
  0
ACAD_PROXY_OBJECT
  5
D9CF
102
{ACAD_REACTORS
330
D9C5
102
}
330
D9C5
100
AcDbZombieObject
 90
      499
 91
      510
 93
      113
310
904313A34304000000000000444000
  0
ACAD_PROXY_OBJECT
  5
D9D0
102
{ACAD_REACTORS
330
D9C5
102
}
330
D9C5
100
AcDbZombieObject
 90
      499
 91
      510
 93
      113
310
904313A35304000000000000494000
  0
ACAD_PROXY_OBJECT
  5
D9D1
102
{ACAD_REACTORS
330
D9C5
102
}
330
D9C5
100
AcDbZombieObject
 90
      499
 91
      510
 93
      121
310
905313A3130304000000000000594000
  0
ACAD_PROXY_OBJECT
  5
D9D2
102
{ACAD_REACTORS
330
D9C5
102
}
330
D9C5
100
AcDbZombieObject
 90
      499
 91
      510
 93
      105
310
903323A310000000000000010100
  0
ACAD_PROXY_OBJECT
  5
D9D3
102
{ACAD_REACTORS
330
D9C5
102
}
330
D9C5
100
AcDbZombieObject
 90
      499
 91
      510
 93
      105
310
903343A310000000000000410100
  0
ACAD_PROXY_OBJECT
  5
D9D4
102
{ACAD_REACTORS
330
D9C5
102
}
330
D9C5
100
AcDbZombieObject
 90
      499
 91
      510
 93
      105
310
903383A310000000000000810100
  0
ACAD_PROXY_OBJECT
  5
D9D5
102
{ACAD_REACTORS
330
D9C5
102
}
330
D9C5
100
AcDbZombieObject
 90
      499
 91
      510
 93
      113
310
90431303A310000000000000910100
  0
ACAD_PROXY_OBJECT
  5
D9D6
102
{ACAD_REACTORS
330
D9C5
102
}
330
D9C5
100
AcDbZombieObject
 90
      499
 91
      510
 93
      121
310
9053130303A310000000000001650100
  0
ACAD_PROXY_OBJECT
  5
D9D7
102
{ACAD_REACTORS
330
D9C5
102
}
330
D9C5
100
AcDbZombieObject
 90
      499
 91
      510
 93
      257
310
90E312F31323822203D2031272D3022000000000000200FC000000000000284000
  0
ACAD_PROXY_OBJECT
  5
D9D8
102
{ACAD_REACTORS
330
D9C5
102
}
330
D9C5
100
AcDbZombieObject
 90
      499
 91
      510
 93
      249
310
90D312F363422203D2031272D3022000000000000240FC000000000000284000
  0
ACAD_PROXY_OBJECT
  5
D9D9
102
{ACAD_REACTORS
330
D9C5
102
}
330
D9C5
100
AcDbZombieObject
 90
      499
 91
      510
 93
      249
310
90D312F333222203D2031272D3022000000000000280FC000000000000284000
  0
ACAD_PROXY_OBJECT
  5
D9DA
102
{ACAD_REACTORS
330
D9C5
102
}
330
D9C5
100
AcDbZombieObject
 90
      499
 91
      510
 93
      249
310
90D312F313622203D2031272D30220000000000002C0FC000000000000284000
  0
ACAD_PROXY_OBJECT
  5
D9DB
102
{ACAD_REACTORS
330
D9C5
102
}
330
D9C5
100
AcDbZombieObject
 90
      499
 91
      510
 93
      249
310
90D332F333222203D2031272D30220000000000002E0FC000000000000284000
  0
ACAD_PROXY_OBJECT
  5
D9DC
102
{ACAD_REACTORS
330
D9C5
102
}
330
D9C5
100
AcDbZombieObject
 90
      499
 91
      510
 93
      241
310
90C312F3822203D2031272D3022000000000000300FC000000000000284000
  0
ACAD_PROXY_OBJECT
  5
D9DD
102
{ACAD_REACTORS
330
D9C5
102
}
330
D9C5
100
AcDbZombieObject
 90
      499
 91
      510
 93
      249
310
90D332F313622203D2031272D3022000000000000320FC000000000000284000
  0
ACAD_PROXY_OBJECT
  5
D9DE
102
{ACAD_REACTORS
330
D9C5
102
}
330
D9C5
100
AcDbZombieObject
 90
      499
 91
      510
 93
      241
310
90C312F3422203D2031272D3022000000000000340FC000000000000284000
  0
ACAD_PROXY_OBJECT
  5
D9DF
102
{ACAD_REACTORS
330
D9C5
102
}
330
D9C5
100
AcDbZombieObject
 90
      499
 91
      510
 93
      241
310
90C332F3822203D2031272D3022000000000000360FC000000000000284000
  0
ACAD_PROXY_OBJECT
  5
D9E0
102
{ACAD_REACTORS
330
D9C5
102
}
330
D9C5
100
AcDbZombieObject
 90
      499
 91
      510
 93
      241
310
90C312F3222203D2031272D3022000000000000380FC000000000000284000
  0
ACAD_PROXY_OBJECT
  5
D9E1
102
{ACAD_REACTORS
330
D9C5
102
}
330
D9C5
100
AcDbZombieObject
 90
      499
 91
      510
 93
      241
310
90C332F3422203D2031272D30220000000000003A0FC000000000000284000
  0
ACAD_PROXY_OBJECT
  5
D9E2
102
{ACAD_REACTORS
330
D9C5
102
}
330
D9C5
100
AcDbZombieObject
 90
      499
 91
      510
 93
      161
310
90A3122203D2031272D30224000000000000284000
  0
ACAD_PROXY_OBJECT
  5
D9E3
102
{ACAD_REACTORS
330
D9C5
102
}
330
D9C5
100
AcDbZombieObject
 90
      499
 91
      510
 93
      257
310
90E312D312F3222203D2031272D30220000000000003E0FC000000000000284000
  0
ACAD_PROXY_OBJECT
  5
D9E4
102
{ACAD_REACTORS
330
D9C5
102
}
330
D9C5
100
AcDbZombieObject
 90
      499
 91
      510
 93
      225
310
90A3322203D2031272D302200000000000002100000000000000284000
  0
ACAD_PROXY_OBJECT
  5
D9E5
102
{ACAD_REACTORS
330
D9C5
102
}
330
D9C5
100
AcDbZombieObject
 90
      499
 91
      510
 93
      225
310
90A3622203D2031272D302200000000000006100000000000000284000
  0
ACAD_PROXY_OBJECT
  5
D9E6
102
{ACAD_REACTORS
330
D9C5
102
}
330
D9C5
100
AcDbZombieObject
 90
      499
 91
      510
 93
      249
310
90D31272D3022203D2031272D30220000000000000A100000000000000284000
  0
ACAD_PROXY_OBJECT
  5
D9BA
102
{ACAD_REACTORS
330
D9B4
102
}
330
D9B4
100
AcDbZombieObject
 90
      499
 91
      509
 93
      436
310
42CC9915DA5C99599C985B595049028333333333333E3BF0000000000000FB0107901411070040501600405405064090741402480A0340
1001
ACAD
1000
AcDbSavedByObjectVersion
1070
     0
  0
ACAD_PROXY_OBJECT
  5
D9BC
102
{ACAD_REACTORS
330
D9B4
102
}
330
D9B4
100
AcDbZombieObject
 90
      499
 91
      509
 93
      500
310
424CD108121A5919195B90640502408333333333333E3BF0000000000000FB01079024090700405020000000000001110200405405064090740C02480A0340
1001
ACAD
1000
AcDbSavedByObjectVersion
1070
     0
  0
ACAD_PROXY_OBJECT
  5
D9BB
102
{ACAD_REACTORS
330
D9B4
102
}
330
D9B4
100
AcDbZombieObject
 90
      499
 91
      509
 93
      436
310
42CCD915DA5C99599C985B595059028333333333333E3BF0000000000000FB0107901411070040501600405405064090741402480A0340
1001
ACAD
1000
AcDbSavedByObjectVersion
1070
     0
  0
ACAD_PROXY_OBJECT
  5
D9B9
102
{ACAD_REACTORS
330
D9B4
102
}
330
D9B4
100
AcDbZombieObject
 90
      499
 91
      509
 93
      388
310
4150985CDA58D07406404333333333333E3BF0000000000000FB0107A41107004050150841D405064090741402480A0350
1001
ACAD
1000
AcDbSavedByObjectVersion
1070
     0
  0
ACAD_PROXY_OBJECT
  5
D9C0
102
{ACAD_REACTORS
330
D9B4
102
}
330
D9B4
100
AcDbZombieObject
 90
      499
 91
      509
 93
      428
310
42109C9A59DA1D195B90C409028333333333333E3BF0000000000000FB010790141107004050150841D405064090741402480A029950
1001
ACAD
1000
AcDbSavedByObjectVersion
1070
     0
  0
ACAD_PROXY_OBJECT
  5
D9C4
102
{ACAD_REACTORS
330
D9B4
102
}
330
D9B4
100
AcDbZombieObject
 90
      499
 91
      509
 93
      452
310
42D0DBDB1BDC90DA185B99D95104090240C333333333333E3BF0000000000000FB0108901411070040501508421405064090741402480A0350
1001
ACAD
1000
AcDbSavedByObjectVersion
1070
     0
  0
ACAD_PROXY_OBJECT
  5
D9BD
102
{ACAD_REACTORS
330
D9B4
102
}
330
D9B4
100
AcDbZombieObject
 90
      499
 91
      509
 93
      500
310
4290DBDB98D95C1D1D585B10940D028333333333333E3BF0000000000000FB0107902409070040501000000000000111010841D405064090740C02480A0340
1001
ACAD
1000
AcDbSavedByObjectVersion
1070
     0
  0
ACAD_PROXY_OBJECT
  5
D9BF
102
{ACAD_REACTORS
330
D9B4
102
}
330
D9B4
100
AcDbZombieObject
 90
      499
 91
      509
 93
      412
310
40D11A5B50B409028333333333333E3BF0000000000000FB010790141107004050150841D405064090741402480A02677FFFFFD0
1001
ACAD
1000
AcDbSavedByObjectVersion
1070
     0
  0
ACAD_PROXY_OBJECT
  5
19C2F
102
{ACAD_REACTORS
330
D9B4
102
}
330
D9B4
100
AcDbZombieObject
 90
      499
 91
      509
 93
      452
310
43115919D950DBDB1BDC93D999916409028333333333333E3BF0000000000000FB010790141107004050150841D405064090741402480A0350
1001
ACAD
1000
AcDbSavedByObjectVersion
1070
     0
  0
ACAD_PROXY_OBJECT
  5
D9C3
102
{ACAD_REACTORS
330
D9B4
102
}
330
D9B4
100
AcDbZombieObject
 90
      499
 91
      509
 93
      444
310
42D19858D95C185D1D195C9B90F409028333333333333E3BF0000000000000FB010790141107004050150841D405064090741402480A0350
1001
ACAD
1000
AcDbSavedByObjectVersion
1070
     0
  0
ACAD_PROXY_OBJECT
  5
D9B5
102
{ACAD_REACTORS
330
D9B4
102
}
330
D9B4
100
AcDbZombieObject
 90
      499
 91
      509
 93
      388
310
41119B185D240901404333333333333E3BF0000000000000F9010740A41107004050150841D405064090741402480A1B50
1001
ACAD
1000
AcDbSavedByObjectVersion
1070
     0
  0
ACAD_PROXY_OBJECT
  5
D9B6
102
{ACAD_REACTORS
330
D9B4
102
}
330
D9B4
100
AcDbZombieObject
 90
      499
 91
      509
 93
      476
310
43519B185D15DA5D1A115919D95CD0140901404333333333333E3BF0000000000000F9010740901411070040501600405405064090741402480A1B50
1001
ACAD
1000
AcDbSavedByObjectVersion
1070
     0
  0
ACAD_PROXY_OBJECT
  5
D9B7
102
{ACAD_REACTORS
330
D9B4
102
}
330
D9B4
100
AcDbZombieObject
 90
      499
 91
      509
 93
      412
310
41D1DBDD5C985D5910240902404333333333333E3BF0000000000000F9010740A411070040501641D405064090741402480A1B50
1001
ACAD
1000
AcDbSavedByObjectVersion
1070
     0
  0
ACAD_PROXY_OBJECT
  5
D9B8
102
{ACAD_REACTORS
330
D9B4
102
}
330
D9B4
100
AcDbZombieObject
 90
      499
 91
      509
 93
      500
310
4411DBDD5C985D5915DA5D1A115919D95CD0340902404333333333333E3BF0000000000000F9010740901411070040501600405405064090741402480A1B50
1001
ACAD
1000
AcDbSavedByObjectVersion
1070
     0
  0
ACAD_PROXY_OBJECT
  5
19C7E
102
{ACAD_REACTORS
330
D9B4
102
}
330
D9B4
100
AcDbZombieObject
 90
      499
 91
      509
 93
      476
310
41921A5919195B90640502408333333333333E3BF0000000000000FB01079024090700405020000000000001110200405405064090740C02480A0340
1001
ACAD
1000
AcDbSavedByObjectVersion
1070
     0
  0
ACAD_PROXY_OBJECT
  5
19C2D
102
{ACAD_REACTORS
330
D9B4
102
}
330
D9B4
100
AcDbZombieObject
 90
      499
 91
      509
 93
      428
310
42529A5D1D195C93D999914409028333333333333E3BF0000000000000FB010790141107004050150A41D405064090741402480A0350
1001
ACAD
1000
AcDbSavedByObjectVersion
1070
     0
  0
ACAD_PROXY_OBJECT
  5
D9C2
102
{ACAD_REACTORS
330
D9B4
102
}
330
D9B4
100
AcDbZombieObject
 90
      499
 91
      509
 93
      444
310
42D31A5B995C185D1D195C9B90E409028333333333333E3BF0000000000000FB010790141107004050750841D405064090741402483A0350
1001
ACAD
1000
AcDbSavedByObjectVersion
1070
     0
  0
ACAD_PROXY_OBJECT
  5
19C84
102
{ACAD_REACTORS
330
D9B4
102
}
330
D9B4
100
AcDbZombieObject
 90
      499
 91
      509
 93
      484
310
42135BD9195B1A5B99D0A409028333333333333E3BF0000000000000F901074090290700405010000000000201990108421405064090741402480A1B40
1001
ACAD
1000
AcDbSavedByObjectVersion
1070
     0
  0
ACAD_PROXY_OBJECT
  5
19C2E
102
{ACAD_REACTORS
330
D9B4
102
}
330
D9B4
100
AcDbZombieObject
 90
      499
 91
      509
 93
      444
310
42D3DD995C9A185B99D3D999915409028333333333333E3BF0000000000000FB010790141107004050150941D405064090741402480A0350
1001
ACAD
1000
AcDbSavedByObjectVersion
1070
     0
  0
ACAD_PROXY_OBJECT
  5
D9BE
102
{ACAD_REACTORS
330
D9B4
102
}
330
D9B4
100
AcDbZombieObject
 90
      499
 91
      509
 93
      420
310
425499585B1A5CDD1A58D08409028333333333333E3BF0000000000000FB01079019070040501508421405064090741402480A1B40
1001
ACAD
1000
AcDbSavedByObjectVersion
1070
     0
  0
ACAD_PROXY_OBJECT
  5
19C83
102
{ACAD_REACTORS
330
D9B4
102
}
330
D9B4
100
AcDbZombieObject
 90
      499
 91
      509
 93
      420
310
4194DA1859195911B40902404333333333333E3BF0000000000000F9010740A41107004050150800405405064090840C02480A0B40
1001
ACAD
1000
AcDbSavedByObjectVersion
1070
     0
  0
ACAD_PROXY_OBJECT
  5
19C82
102
{ACAD_REACTORS
330
D9B4
102
}
330
D9B4
100
AcDbZombieObject
 90
      499
 91
      509
 93
      516
310
4454DA18591959081DDA5D1A08195919D95CD1A40902404333333333333E3BF0000000000000F901074090142907004050250800405405064090740C02480A0B40
1001
ACAD
1000
AcDbSavedByObjectVersion
1070
     0
  0
ACAD_PROXY_OBJECT
  5
19C7F
102
{ACAD_REACTORS
330
D9B4
102
}
330
D9B4
100
AcDbZombieObject
 90
      499
 91
      509
 93
      532
310
4394DA1859195CC81BD98811DC985E5174090240C333333333333E3BF0000000000000FB01079024090741D01000000000000111010841D405064090740C02480A0340
1001
ACAD
1000
AcDbSavedByObjectVersion
1070
     0
  0
ACAD_PROXY_OBJECT
  5
19C80
102
{ACAD_REACTORS
330
D9B4
102
}
330
D9B4
100
AcDbZombieObject
 90
      499
 91
      509
 93
      476
310
41D4DAD95D18DA1E51840502408333333333333E3BF0000000000000FB01079024090741D01000000000000111010B41D405064090741802480A0340
1001
ACAD
1000
AcDbSavedByObjectVersion
1070
     0
  0
ACAD_PROXY_OBJECT
  5
D9C1
102
{ACAD_REACTORS
330
D9B4
102
}
330
D9B4
100
AcDbZombieObject
 90
      499
 91
      509
 93
      412
310
41D51A1A58DAD95B90D409028333333333333E3BF0000000000000FB010790141107004050150C41D405064090741402480A0350
1001
ACAD
1000
AcDbSavedByObjectVersion
1070
     0
  0
ACAD_PROXY_OBJECT
  5
19C7D
102
{ACAD_REACTORS
330
D9B4
102
}
330
D9B4
100
AcDbZombieObject
 90
      499
 91
      509
 93
      420
310
4255DA5C99599C985B595059028333333333333E3BF0000000000000FB0107901411070040501600405405064090740C02480A0340
1001
ACAD
1000
AcDbSavedByObjectVersion
1070
     0
  0
ACAD_PROXY_OBJECT
  5
19C81
102
{ACAD_REACTORS
330
D9B4
102
}
330
D9B4
100
AcDbZombieObject
 90
      499
 91
      509
 93
      404
310
41560B54985E51940902404000000000000E03F0000000000000FB010740501907004050150841D405064090740C02480A1B40
1001
ACAD
1000
AcDbSavedByObjectVersion
1070
     0
  0
XRECORD
  5
1B20E
102
{ACAD_REACTORS
330
1B20D
102
}
330
1B20D
100
AcDbXrecord
340
18D
  0
XRECORD
  5
1B20F
102
{ACAD_REACTORS
330
1B20D
102
}
330
1B20D
100
AcDbXrecord
340
18C
  0
DICTIONARYVAR
  5
1AF1A
102
{ACAD_REACTORS
330
37
102
}
330
37
100
DictionaryVariables
280
     0
  1
1:1
  0
DICTIONARYVAR
  5
DA6A
102
{ACAD_REACTORS
330
37
102
}
330
37
100
DictionaryVariables
280
     0
  1
Standard
  0
DICTIONARYVAR
  5
29E
102
{ACAD_REACTORS
330
37
102
}
330
37
100
DictionaryVariables
280
     0
  1
Standard
  0
DICTIONARYVAR
  5
38
102
{ACAD_REACTORS
330
37
102
}
330
37
100
DictionaryVariables
280
     0
  1
-1
  0
DICTIONARYVAR
  5
1CE
102
{ACAD_REACTORS
330
37
102
}
330
37
100
DictionaryVariables
280
     0
  1
2
  0
DICTIONARYVAR
  5
704E
102
{ACAD_REACTORS
330
37
102
}
330
37
100
DictionaryVariables
280
     0
  1
1
  0
DICTIONARYVAR
  5
DA6D
102
{ACAD_REACTORS
330
37
102
}
330
37
100
DictionaryVariables
280
     0
  1
0
  0
DICTIONARYVAR
  5
7052
102
{ACAD_REACTORS
330
37
102
}
330
37
100
DictionaryVariables
280
     0
  1
8
  0
DICTIONARYVAR
  5
7051
102
{ACAD_REACTORS
330
37
102
}
330
37
100
DictionaryVariables
280
     0
  1
1
  0
DICTIONARYVAR
  5
1A6DD
102
{ACAD_REACTORS
330
37
102
}
330
37
100
DictionaryVariables
280
     0
  1
0
  0
DICTIONARYVAR
  5
704F
102
{ACAD_REACTORS
330
37
102
}
330
37
100
DictionaryVariables
280
     0
  1
8
  0
DICTIONARYVAR
  5
7050
102
{ACAD_REACTORS
330
37
102
}
330
37
100
DictionaryVariables
280
     0
  1
2
  0
DICTIONARYVAR
  5
1CF
102
{ACAD_REACTORS
330
37
102
}
330
37
100
DictionaryVariables
280
     0
  1

  0
DICTIONARYVAR
  5
DA6C
102
{ACAD_REACTORS
330
37
102
}
330
37
100
DictionaryVariables
280
     0
  1
127
  0
DICTIONARYVAR
  5
1AEF7
102
{ACAD_REACTORS
330
37
102
}
330
37
100
DictionaryVariables
280
     0
  1
2
  0
DICTIONARY
  5
1B3AB
330
D9A4
100
AcDbDictionary
  3
ACAD_XREC_ROUNDTRIP
360
1B3AC
1001
ACAD
1000
TREAT_AS_HARD
1070
     1
  0
DICTIONARY
  5
1B3AD
330
D99C
100
AcDbDictionary
  3
ACAD_XREC_ROUNDTRIP
360
1B3AE
1001
ACAD
1000
TREAT_AS_HARD
1070
     1
  0
DICTIONARY
  5
1B3AF
330
D9AC
100
AcDbDictionary
  3
ACAD_XREC_ROUNDTRIP
360
1B3B0
1001
ACAD
1000
TREAT_AS_HARD
1070
     1
  0
XRECORD
  5
1B3AC
102
{ACAD_REACTORS
330
1B3AB
102
}
330
1B3AB
100
AcDbXrecord
102
MATERIAL
148
0.0
149
0.0
149
0.0
 93
        0
 94
      127
282
     0
 72
     0
 77
     0
171
     0
175
     0
179
     0
273
     0
  0
XRECORD
  5
1B3AE
102
{ACAD_REACTORS
330
1B3AD
102
}
330
1B3AD
100
AcDbXrecord
102
MATERIAL
148
0.0
149
0.0
149
0.0
 93
        0
 94
      127
282
     0
 72
     0
 77
     0
171
     0
175
     0
179
     0
273
     0
  0
XRECORD
  5
1B3B0
102
{ACAD_REACTORS
330
1B3AF
102
}
330
1B3AF
100
AcDbXrecord
102
MATERIAL
148
0.0
149
0.0
149
0.0
 93
        0
 94
      127
282
     0
 72
     0
 77
     0
171
     0
175
     0
179
     0
273
     0
  0
ENDSEC
  0
EOF
