  0
SECTION
  2
HEADER
  9
$ACADVER
  1
AC1012
  9
$DWGCODEPAGE
  3
ansi_932
  9
$INSBASE
 10
0.0
 20
0.0
 30
0.0
  9
$EXTMIN
 10
3156.978028116327
 20
-187.615374393823
 30
0.0
  9
$EXTMAX
 10
3791.293390166226
 20
239.385628286776
 30
0.0000000000563712
  9
$LIMMIN
 10
0.0
 20
0.0
  9
$LIMMAX
 10
420.0
 20
297.0
  9
$ORTHOMODE
 70
     0
  9
$REGENMODE
 70
     1
  9
$FILLMODE
 70
     1
  9
$QTEXTMODE
 70
     0
  9
$MIRRTEXT
 70
     0
  9
$DRAGMODE
 70
     2
  9
$LTSCALE
 40
0.5
  9
$OSMODE
 70
 14463
  9
$ATTMODE
 70
     1
  9
$TEXTSIZE
 40
4.0
  9
$TRACEWID
 40
1.0
  9
$TEXTSTYLE
  7
STANDARD
  9
$CLAYER
  8
1TEXT
  9
$CELTYPE
  6
BYLAYER
  9
$CECOLOR
 62
   256
  9
$CELTSCALE
 40
1.0
  9
$DELOBJ
 70
     1
  9
$DISPSILH
 70
     0
  9
$DIMSCALE
 40
1.0
  9
$DIMASZ
 40
2.0
  9
$DIMEXO
 40
0.0
  9
$DIMDLI
 40
7.0
  9
$DIMRND
 40
0.0
  9
$DIMDLE
 40
0.0
  9
$DIMEXE
 40
1.0
  9
$DIMTP
 40
0.0
  9
$DIMTM
 40
0.0
  9
$DIMTXT
 40
3.5
  9
$DIMCEN
 40
0.0
  9
$DIMTSZ
 40
0.0
  9
$DIMTOL
 70
     0
  9
$DIMLIM
 70
     0
  9
$DIMTIH
 70
     0
  9
$DIMTOH
 70
     0
  9
$DIMSE1
 70
     0
  9
$DIMSE2
 70
     0
  9
$DIMTAD
 70
     1
  9
$DIMZIN
 70
     8
  9
$DIMBLK
  1

  9
$DIMASO
 70
     1
  9
$DIMSHO
 70
     1
  9
$DIMPOST
  1
 
  9
$DIMAPOST
  1

  9
$DIMALT
 70
     0
  9
$DIMALTD
 70
     2
  9
$DIMALTF
 40
25.4
  9
$DIMLFAC
 40
1.0
  9
$DIMTOFL
 70
     1
  9
$DIMTVP
 40
0.0
  9
$DIMTIX
 70
     0
  9
$DIMSOXD
 70
     0
  9
$DIMSAH
 70
     1
  9
$DIMBLK1
  1
OPEN30
  9
$DIMBLK2
  1
OPEN30
  9
$DIMSTYLE
  2
NEWX10
  9
$DIMCLRD
 70
   256
  9
$DIMCLRE
 70
   256
  9
$DIMCLRT
 70
   201
  9
$DIMTFAC
 40
0.7
  9
$DIMGAP
 40
0.7
  9
$DIMJUST
 70
     0
  9
$DIMSD1
 70
     0
  9
$DIMSD2
 70
     0
  9
$DIMTOLJ
 70
     1
  9
$DIMTZIN
 70
     8
  9
$DIMALTZ
 70
     0
  9
$DIMALTTZ
 70
     0
  9
$DIMFIT
 70
     2
  9
$DIMUPT
 70
     0
  9
$DIMUNIT
 70
     2
  9
$DIMDEC
 70
     2
  9
$DIMTDEC
 70
     4
  9
$DIMALTU
 70
     2
  9
$DIMALTTD
 70
     2
  9
$DIMTXSTY
  7
STANDARD
  9
$DIMAUNIT
 70
     0
  9
$LUNITS
 70
     2
  9
$LUPREC
 70
     4
  9
$SKETCHINC
 40
1.0
  9
$FILLETRAD
 40
0.0
  9
$AUNITS
 70
     0
  9
$AUPREC
 70
     2
  9
$MENU
  1
acad
  9
$ELEVATION
 40
0.0
  9
$PELEVATION
 40
0.0
  9
$THICKNESS
 40
0.0
  9
$LIMCHECK
 70
     0
  9
$CHAMFERA
 40
10.0
  9
$CHAMFERB
 40
10.0
  9
$CHAMFERC
 40
20.0
  9
$CHAMFERD
 40
0.0
  9
$SKPOLY
 70
     0
  9
$TDCREATE
 40
2451318.621352917
  9
$TDUPDATE
 40
2458152.627888194
  9
$TDINDWG
 40
1.6423569907
  9
$TDUSRTIMER
 40
1.6423569907
  9
$USRTIMER
 70
     1
  9
$ANGBASE
 50
0.0
  9
$ANGDIR
 70
     0
  9
$PDMODE
 70
     0
  9
$PDSIZE
 40
0.0
  9
$PLINEWID
 40
0.0
  9
$COORDS
 70
     2
  9
$SPLFRAME
 70
     0
  9
$SPLINETYPE
 70
     6
  9
$SPLINESEGS
 70
     8
  9
$ATTDIA
 70
     0
  9
$ATTREQ
 70
     1
  9
$HANDLING
 70
     1
  9
$HANDSEED
  5
1B13E
  9
$SURFTAB1
 70
     6
  9
$SURFTAB2
 70
     6
  9
$SURFTYPE
 70
     6
  9
$SURFU
 70
     6
  9
$SURFV
 70
     6
  9
$UCSNAME
  2

  9
$UCSORG
 10
0.0
 20
0.0
 30
0.0
  9
$UCSXDIR
 10
1.0
 20
0.0
 30
0.0
  9
$UCSYDIR
 10
0.0
 20
1.0
 30
0.0
  9
$PUCSNAME
  2

  9
$PUCSORG
 10
0.0
 20
0.0
 30
0.0
  9
$PUCSXDIR
 10
1.0
 20
0.0
 30
0.0
  9
$PUCSYDIR
 10
0.0
 20
1.0
 30
0.0
  9
$USERI1
 70
     0
  9
$USERI2
 70
     0
  9
$USERI3
 70
     0
  9
$USERI4
 70
     0
  9
$USERI5
 70
     0
  9
$USERR1
 40
0.0
  9
$USERR2
 40
0.0
  9
$USERR3
 40
0.0
  9
$USERR4
 40
0.0
  9
$USERR5
 40
0.0
  9
$WORLDVIEW
 70
     1
  9
$SHADEDGE
 70
     3
  9
$SHADEDIF
 70
    70
  9
$TILEMODE
 70
     1
  9
$MAXACTVP
 70
    48
  9
$PINSBASE
 10
0.0
 20
0.0
 30
0.0
  9
$PLIMCHECK
 70
     0
  9
$PEXTMIN
 10
1.000000000000000E+20
 20
1.000000000000000E+20
 30
1.000000000000000E+20
  9
$PEXTMAX
 10
-1.000000000000000E+20
 20
-1.000000000000000E+20
 30
-1.000000000000000E+20
  9
$PLIMMIN
 10
0.0
 20
0.0
  9
$PLIMMAX
 10
420.0
 20
297.0
  9
$UNITMODE
 70
     0
  9
$VISRETAIN
 70
     1
  9
$PLINEGEN
 70
     0
  9
$PSLTSCALE
 70
     1
  9
$TREEDEPTH
 70
  3020
  9
$PICKSTYLE
 70
     1
  9
$CMLSTYLE
  2
STANDARD
  9
$CMLJUST
 70
     0
  9
$CMLSCALE
 40
20.0
  9
$SAVEIMAGES
 70
     1
  0
ENDSEC
  0
SECTION
  2
CLASSES
  0
CLASS
  1
DICTIONARYVAR
  2
AcDbDictionaryVar
  3
ObjectDBX Classes
 90
        0
280
     0
281
     0
  0
CLASS
  1
IDBUFFER
  2
AcDbIdBuffer
  3
ObjectDBX Classes
 90
    32768
280
     0
281
     0
  0
CLASS
  1
LWPOLYLINE
  2
AcDbPolyline
  3
ObjectDBX Classes
 90
    32768
280
     0
281
     1
  0
CLASS
  1
ACDBDICTIONARYWDFLT
  2
AcDbDictionaryWithDefault
  3
ObjectDBX Classes
 90
    32768
280
     0
281
     0
  0
CLASS
  1
ACDBPLACEHOLDER
  2
AcDbPlaceHolder
  3
ObjectDBX Classes
 90
        0
280
     0
281
     0
  0
CLASS
  1
LAYOUT
  2
AcDbLayout
  3
ObjectDBX Classes
 90
        0
280
     0
281
     0
  0
CLASS
  1
TABLESTYLE
  2
AcDbTableStyle
  3
ObjectDBX Classes
 90
     4095
280
     0
281
     0
  0
CLASS
  1
SORTENTSTABLE
  2
AcDbSortentsTable
  3
ObjectDBX Classes
 90
    32768
280
     0
281
     0
  0
CLASS
  1
MATERIAL
  2
AcDbMaterial
  3
ObjectDBX Classes
 90
     1153
280
     0
281
     0
  0
CLASS
  1
VISUALSTYLE
  2
AcDbVisualStyle
  3
ObjectDBX Classes
 90
     4095
280
     0
281
     0
  0
CLASS
  1
SCALE
  2
AcDbScale
  3
ObjectDBX Classes
 90
     1153
280
     0
281
     0
  0
CLASS
  1
MLEADERSTYLE
  2
AcDbMLeaderStyle
  3
ACDB_MLEADERSTYLE_CLASS
 90
     4095
280
     0
281
     0
  0
CLASS
  1
CELLSTYLEMAP
  2
AcDbCellStyleMap
  3
ObjectDBX Classes
 90
     1152
280
     0
281
     0
  0
CLASS
  1
SUN
  2
AcDbSun
  3
SCENEOE
 90
     1153
280
     0
281
     0
  0
CLASS
  1
AEC_REFEDIT_STATUS_TRACKER
  2
AecDbRefEditStatusTracker
  3
AecArchBase60|Product Desc: Autodesk Architectural Desktop 2007 |Company: Autodesk,Inc. |WEB Address: www.autodesk.com
 90
      129
280
     1
281
     0
  0
CLASS
  1
NPOCOLLECTION
  2
AcDbImpNonPersistentObjectsCollection
  3
ObjectDBX Classes
 90
     1153
280
     1
281
     0
  0
CLASS
  1
XRECORD
  2
AcDbXrecord
  3
ObjectDBX Classes
 90
    32768
280
     0
281
     0
  0
CLASS
  1
HATCH
  2
AcDbHatch
  3
ObjectDBX Classes
 90
    32768
280
     0
281
     1
  0
ENDSEC
  0
SECTION
  2
TABLES
  0
TABLE
  2
VPORT
  5
8
330
0
100
AcDbSymbolTable
 70
     1
  0
VPORT
  5
D991
330
8
100
AcDbSymbolTableRecord
100
AcDbViewportTableRecord
  2
*ACTIVE
 70
     0
 10
0.0
 20
0.0
 11
1.0
 21
1.0
 12
3474.135709141276
 22
25.88512694647648
 13
0.0
 23
0.0
 14
10.0
 24
10.0
 15
10.0
 25
10.0
 16
0.0
 26
0.0
 36
1.0
 17
0.0
 27
0.0
 37
0.0
 40
458.4642344570642
 41
2.233782129742962
 42
50.0
 43
0.0
 44
0.0
 50
0.0
 51
0.0
 71
    16
 72
   100
 73
     1
 74
     1
 75
     0
 76
     0
 77
     0
 78
     0
  0
ENDTAB
  0
TABLE
  2
LTYPE
  5
5
330
0
100
AcDbSymbolTable
 70
     3
  0
LTYPE
  5
12
330
5
100
AcDbSymbolTableRecord
100
AcDbLinetypeTableRecord
  2
BYBLOCK
 70
     0
  3

 72
    65
 73
     0
 40
0.0
  0
LTYPE
  5
13
330
5
100
AcDbSymbolTableRecord
100
AcDbLinetypeTableRecord
  2
BYLAYER
 70
     0
  3

 72
    65
 73
     0
 40
0.0
  0
LTYPE
  5
14
330
5
100
AcDbSymbolTableRecord
100
AcDbLinetypeTableRecord
  2
CONTINUOUS
 70
     0
  3
Solid line
 72
    65
 73
     0
 40
0.0
  0
LTYPE
  5
2C03
330
5
100
AcDbSymbolTableRecord
100
AcDbLinetypeTableRecord
  2
HIDDEN
 70
     0
  3
Hidden __ __ __ __ __ __ __ __ __ __ __ __ __ _
 72
    65
 73
     2
 40
9.524999999999999
 49
6.35
 74
     0
 49
-3.175
 74
     0
  0
LTYPE
  5
13839
330
5
100
AcDbSymbolTableRecord
100
AcDbLinetypeTableRecord
  2
CENTER2
 70
     0
  3
Center (.5x) ___ _ ___ _ ___ _ ___ _ ___ _ ___
 72
    65
 73
     4
 40
28.575
 49
19.05
 74
     0
 49
-3.175
 74
     0
 49
3.175
 74
     0
 49
-3.175
 74
     0
  0
ENDTAB
  0
TABLE
  2
LAYER
  5
2
102
{ACAD_XDICTIONARY
360
E6A6
102
}
330
0
100
AcDbSymbolTable
 70
     6
  0
LAYER
  5
E
102
{ACAD_XDICTIONARY
360
DA05
102
}
330
2
100
AcDbSymbolTableRecord
100
AcDbLayerTableRecord
  2
0
 70
     0
 62
     7
  6
CONTINUOUS
  0
LAYER
  5
29
102
{ACAD_XDICTIONARY
360
DA07
102
}
330
2
100
AcDbSymbolTableRecord
100
AcDbLayerTableRecord
  2
1CENTER
 70
     0
 62
     7
  6
CENTER2
  0
LAYER
  5
31
102
{ACAD_XDICTIONARY
360
DA09
102
}
330
2
100
AcDbSymbolTableRecord
100
AcDbLayerTableRecord
  2
1TEXT
 70
     0
 62
     7
  6
CONTINUOUS
  0
LAYER
  5
243
102
{ACAD_XDICTIONARY
360
DA0F
102
}
330
2
100
AcDbSymbolTableRecord
100
AcDbLayerTableRecord
  2
01
 70
     0
 62
     1
  6
CONTINUOUS
  0
LAYER
  5
24E
102
{ACAD_XDICTIONARY
360
DA15
102
}
330
2
100
AcDbSymbolTableRecord
100
AcDbLayerTableRecord
  2
1DIM
 70
     0
 62
     7
  6
CONTINUOUS
  0
LAYER
  5
2C05
102
{ACAD_XDICTIONARY
360
DA23
102
}
330
2
100
AcDbSymbolTableRecord
100
AcDbLayerTableRecord
  2
1HIDDEN
 70
     0
 62
     7
  6
HIDDEN
  0
ENDTAB
  0
TABLE
  2
STYLE
  5
3
330
0
100
AcDbSymbolTable
 70
     1
  0
STYLE
  5
F
330
3
100
AcDbSymbolTableRecord
100
AcDbTextStyleTableRecord
  2
STANDARD
 70
     0
 40
0.0
 41
1.0
 50
0.0
 71
     0
 42
4.0
  3
txt.shx
  4
extfont.shx
  0
ENDTAB
  0
TABLE
  2
VIEW
  5
6
330
0
100
AcDbSymbolTable
 70
     0
  0
ENDTAB
  0
TABLE
  2
UCS
  5
7
330
0
100
AcDbSymbolTable
 70
     0
  0
ENDTAB
  0
TABLE
  2
APPID
  5
9
330
0
100
AcDbSymbolTable
 70
    15
  0
APPID
  5
10
330
9
100
AcDbSymbolTableRecord
100
AcDbRegAppTableRecord
  2
ACAD
 70
     0
  0
APPID
  5
21
330
9
100
AcDbSymbolTableRecord
100
AcDbRegAppTableRecord
  2
DRAWINGVARIABLESXDATA
 70
     0
  0
APPID
  5
64
330
9
100
AcDbSymbolTableRecord
100
AcDbRegAppTableRecord
  2
CONTENTTABDATA
 70
     0
  0
APPID
  5
65
330
9
100
AcDbSymbolTableRecord
100
AcDbRegAppTableRecord
  2
CONTENTCURRENTTAB
 70
     0
  0
APPID
  5
66
330
9
100
AcDbSymbolTableRecord
100
AcDbRegAppTableRecord
  2
CONTENTBLOCKDESCRIPTION
 70
     0
  0
APPID
  5
67
330
9
100
AcDbSymbolTableRecord
100
AcDbRegAppTableRecord
  2
CONTENTBLOCKICON
 70
     0
  0
APPID
  5
68
330
9
100
AcDbSymbolTableRecord
100
AcDbRegAppTableRecord
  2
CONTENTLONGBLOCKNAME
 70
     0
  0
APPID
  5
2AE
330
9
100
AcDbSymbolTableRecord
100
AcDbRegAppTableRecord
  2
ACAD_PSEXT
 70
     0
  0
APPID
  5
D9E9
330
9
100
AcDbSymbolTableRecord
100
AcDbRegAppTableRecord
  2
ACAD_MLEADERVER
 70
     0
  0
APPID
  5
19CF0
330
9
100
AcDbSymbolTableRecord
100
AcDbRegAppTableRecord
  2
ACADANNOTATIVE
 70
     0
  0
APPID
  5
19CF1
330
9
100
AcDbSymbolTableRecord
100
AcDbRegAppTableRecord
  2
ACDBBLOCKREPETAG
 70
     0
  0
APPID
  5
19CF2
330
9
100
AcDbSymbolTableRecord
100
AcDbRegAppTableRecord
  2
ACLAYERTOOLS
 70
     0
  0
APPID
  5
19CF3
330
9
100
AcDbSymbolTableRecord
100
AcDbRegAppTableRecord
  2
ACAD_NAV_VCDISPLAY
 70
     0
  0
APPID
  5
1A86C
330
9
100
AcDbSymbolTableRecord
100
AcDbRegAppTableRecord
  2
ACAD_OBJECT_CHANGE_GUID
 70
     0
  0
APPID
  5
1AA1E
330
9
100
AcDbSymbolTableRecord
100
AcDbRegAppTableRecord
  2
ACAECLAYERSTANDARD
 70
     0
  0
ENDTAB
  0
TABLE
  2
DIMSTYLE
  5
A
330
0
100
AcDbSymbolTable
 70
     1
  0
DIMSTYLE
105
48
330
A
100
AcDbSymbolTableRecord
100
AcDbDimStyleTableRecord
  2
NEWX10
 70
     0
  3
 
  4

  5

  6
OPEN30
  7
OPEN30
 40
1.0
 41
2.0
 42
0.0
 43
7.0
 44
1.0
 45
0.0
 46
0.0
 47
0.0
 48
0.0
140
3.5
141
0.0
142
0.0
143
25.4
144
1.0
145
0.0
146
0.7
147
0.7
 71
     0
 72
     0
 73
     0
 74
     0
 75
     0
 76
     0
 77
     1
 78
     8
170
     0
171
     2
172
     1
173
     1
174
     0
175
     0
176
   256
177
   256
178
   201
179
     2
270
     2
271
     2
272
     4
273
     2
274
     2
340
F
275
     0
280
     0
281
     0
282
     0
283
     1
284
     8
285
     0
286
     0
287
     2
288
     0
  0
ENDTAB
  0
TABLE
  2
BLOCK_RECORD
  5
1
330
0
100
AcDbSymbolTable
 70
     8
  0
BLOCK_RECORD
  5
18
102
{ACAD_XDICTIONARY
360
88F
102
}
330
1
100
AcDbSymbolTableRecord
100
AcDbBlockTableRecord
  2
*MODEL_SPACE
  0
BLOCK_RECORD
  5
15
330
1
100
AcDbSymbolTableRecord
100
AcDbBlockTableRecord
  2
*PAPER_SPACE
  0
BLOCK_RECORD
  5
42
330
1
100
AcDbSymbolTableRecord
100
AcDbBlockTableRecord
  2
_OPEN30
  0
BLOCK_RECORD
  5
19D42
330
1
100
AcDbSymbolTableRecord
100
AcDbBlockTableRecord
  2
A3WAKUKAWAJUN2017_HYOUDAI_
  0
BLOCK_RECORD
  5
1AF9E
330
1
100
AcDbSymbolTableRecord
100
AcDbBlockTableRecord
  2
*X46
  0
BLOCK_RECORD
  5
1AFEC
330
1
100
AcDbSymbolTableRecord
100
AcDbBlockTableRecord
  2
*X47
  0
BLOCK_RECORD
  5
1B03E
330
1
100
AcDbSymbolTableRecord
100
AcDbBlockTableRecord
  2
*X48
  0
BLOCK_RECORD
  5
1B08F
330
1
100
AcDbSymbolTableRecord
100
AcDbBlockTableRecord
  2
*X49
  0
BLOCK_RECORD
  5
1B0CC
330
1
100
AcDbSymbolTableRecord
100
AcDbBlockTableRecord
  2
*X50
  0
BLOCK_RECORD
  5
1B10C
330
1
100
AcDbSymbolTableRecord
100
AcDbBlockTableRecord
  2
*X51
  0
ENDTAB
  0
ENDSEC
  0
SECTION
  2
BLOCKS
  0
BLOCK
  5
19
330
18
100
AcDbEntity
  8
0
100
AcDbBlockBegin
  2
*MODEL_SPACE
 70
     0
 10
0.0
 20
0.0
 30
0.0
  3
*MODEL_SPACE
  1

  0
ENDBLK
  5
1A
330
18
100
AcDbEntity
  8
0
100
AcDbBlockEnd
  0
BLOCK
  5
16
330
15
100
AcDbEntity
 67
     1
  8
0
100
AcDbBlockBegin
  2
*PAPER_SPACE
 70
     0
 10
0.0
 20
0.0
 30
0.0
  3
*PAPER_SPACE
  1

  0
ENDBLK
  5
17
330
15
100
AcDbEntity
 67
     1
  8
0
100
AcDbBlockEnd
  0
BLOCK
  5
43
330
42
100
AcDbEntity
  8
0
100
AcDbBlockBegin
  2
_OPEN30
 70
     0
 10
0.0
 20
0.0
 30
0.0
  3
_OPEN30
  1

  0
LINE
  5
44
330
42
100
AcDbEntity
  8
0
  6
BYBLOCK
 62
     0
100
AcDbLine
 10
-1.0
 20
0.26794919
 30
0.0
 11
0.0
 21
0.0
 31
0.0
  0
LINE
  5
45
330
42
100
AcDbEntity
  8
0
  6
BYBLOCK
 62
     0
100
AcDbLine
 10
0.0
 20
0.0
 30
0.0
 11
-1.0
 21
-0.26794919
 31
0.0
  0
LINE
  5
46
330
42
100
AcDbEntity
  8
0
  6
BYBLOCK
 62
     0
100
AcDbLine
 10
0.0
 20
0.0
 30
0.0
 11
-1.0
 21
0.0
 31
0.0
  0
ENDBLK
  5
47
330
42
100
AcDbEntity
  8
0
100
AcDbBlockEnd
  0
BLOCK
  5
1A550
330
19D42
100
AcDbEntity
  8
0
100
AcDbBlockBegin
  2
A3WAKUKAWAJUN2017_HYOUDAI_
 70
     0
 10
0.0
 20
0.0
 30
0.0
  3
A3WAKUKAWAJUN2017_HYOUDAI_
  1

  0
LINE
  5
19D44
330
19D42
100
AcDbEntity
  8
0
100
AcDbLine
 10
13.26299999998673
 20
-0.0001000000000317
 30
0.0
 11
9.236999999990758
 21
8.999899999990987
 31
0.0
1001
ACAD
1000
ASC_BOUNDS
1002
{
1070
    19
1005
19D85
1002
}
  0
LINE
  5
19D45
330
19D42
100
AcDbEntity
  8
0
100
AcDbLine
 10
5.657999999994331
 20
0.9999999999989768
 30
0.0
 11
9.236999999990758
 21
8.999999999991019
 31
0.0
1001
ACAD
1000
ASC_BOUNDS
1002
{
1070
    19
1005
19D85
1002
}
  0
LINE
  5
19D46
330
19D42
100
AcDbEntity
  8
0
100
AcDbLine
 10
18.59199999998134
 20
-0.2368999999997641
 30
0.0
 11
16.46099999998353
 21
5.432899999994561
 31
0.0
1001
ACAD
1000
ASC_BOUNDS
1002
{
1070
    19
1005
19D86
1002
}
  0
LINE
  5
19D47
330
19D42
100
AcDbEntity
  8
0
100
AcDbLine
 10
18.59199999998134
 20
-0.2368999999997641
 30
0.0
 11
22.38199999997767
 21
8.763099999991255
 31
0.0
1001
ACAD
1000
ASC_BOUNDS
1002
{
1070
    19
1005
19D86
1002
}
  0
LINE
  5
19D48
330
19D42
100
AcDbEntity
  8
0
100
AcDbLine
 10
14.32899999998563
 20
-0.2368999999997641
 30
0.0
 11
16.46099999998353
 21
5.432899999994561
 31
0.0
1001
ACAD
1000
ASC_BOUNDS
1002
{
1070
    19
1005
19D86
1002
}
  0
LINE
  5
19D49
330
19D42
100
AcDbEntity
  8
0
100
AcDbLine
 10
14.32899999998563
 20
-0.2368999999997641
 30
0.0
 11
10.53899999998941
 21
8.763099999991255
 31
0.0
1001
ACAD
1000
ASC_BOUNDS
1002
{
1070
    19
1005
19D86
1002
}
  0
LINE
  5
19D4A
330
19D42
100
AcDbEntity
  8
0
100
AcDbLine
 10
19.53899999998043
 20
-0.0001000000000317
 30
0.0
 11
23.56599999997638
 21
8.999899999990987
 31
0.0
1001
ACAD
1000
ASC_BOUNDS
1002
{
1070
    19
1005
19D87
1002
}
  0
LINE
  5
19D4B
330
19D42
100
AcDbEntity
  8
0
100
AcDbLine
 10
26.97358892824991
 20
1.383099999991202
 30
0.0
 11
23.56599999997638
 21
8.999899999990987
 31
0.0
1001
ACAD
1000
ASC_BOUNDS
1002
{
1070
    19
1005
19D87
1002
}
  0
LINE
  5
19D4C
330
19D42
100
AcDbEntity
  8
0
100
AcDbLine
 10
5.657999999994331
 20
0.9999999999989768
 30
0.0
 11
3.181999999996833
 21
4.668599999995308
 31
0.0
1001
ACAD
1000
ASC_BOUNDS
1002
{
1070
    19
1005
19D85
1002
}
  0
LINE
  5
19D4D
330
19D42
100
AcDbEntity
  8
0
100
AcDbLine
 10
4.617999999995391
 20
-0.0001000000000317
 30
0.0
 11
1.420999999998571
 21
4.736799999995242
 31
0.0
1001
ACAD
1000
ASC_BOUNDS
1002
{
1070
    19
1005
19D85
1002
}
  0
LINE
  5
19D4E
330
19D42
100
AcDbEntity
  8
0
100
AcDbLine
 10
1.420999999998571
 20
8.763099999991255
 30
0.0
 11
1.420999999998571
 21
0.0
 31
0.0
1001
ACAD
1000
ASC_BOUNDS
1002
{
1070
    19
1005
19D8A
1002
}
  0
LINE
  5
19D4F
330
19D42
100
AcDbEntity
  8
0
100
AcDbLine
 10
0.0
 20
8.763099999991255
 30
0.0
 11
0.0
 21
0.0
 31
0.0
1001
ACAD
1000
ASC_BOUNDS
1002
{
1070
    19
1005
19D8A
1002
}
  0
LINE
  5
19D50
330
19D42
100
AcDbEntity
  8
0
100
AcDbLine
 10
6.766999999993232
 20
-0.0001000000000317
 30
0.0
 11
7.826999999992154
 21
2.368399999997621
 31
0.0
1001
ACAD
1000
ASC_BOUNDS
1002
{
1070
    19
1005
19D85
1002
}
  0
LINE
  5
19D51
330
19D42
100
AcDbEntity
  8
0
100
AcDbLine
 10
0.0
 20
0.0
 30
0.0
 11
1.420999999998571
 21
0.0
 31
0.0
1001
ACAD
1000
ASC_BOUNDS
1002
{
1070
    19
1005
19D8A
1002
}
  0
LINE
  5
19D52
330
19D42
100
AcDbEntity
  8
0
100
AcDbLine
 10
4.617999999995391
 20
0.0
 30
0.0
 11
6.766999999993232
 21
0.0
 31
0.0
1001
ACAD
1000
ASC_BOUNDS
1002
{
1070
    19
1005
19D85
1002
}
  0
LINE
  5
19D53
330
19D42
100
AcDbEntity
  8
0
100
AcDbLine
 10
11.70599999998831
 20
-0.0001000000000317
 30
0.0
 11
10.64699999998936
 21
2.368399999997621
 31
0.0
1001
ACAD
1000
ASC_BOUNDS
1002
{
1070
    19
1005
19D85
1002
}
  0
LINE
  5
19D54
330
19D42
100
AcDbEntity
  8
0
100
AcDbLine
 10
7.826999999992154
 20
2.368399999997621
 30
0.0
 11
10.64699999998936
 21
2.368399999997621
 31
0.0
1001
ACAD
1000
ASC_BOUNDS
1002
{
1070
    19
1005
19D85
1002
}
  0
LINE
  5
19D55
330
19D42
100
AcDbEntity
  8
0
100
AcDbLine
 10
11.70599999998831
 20
0.0
 30
0.0
 11
13.26299999998673
 21
0.0
 31
0.0
1001
ACAD
1000
ASC_BOUNDS
1002
{
1070
    19
1005
19D85
1002
}
  0
LINE
  5
19D56
330
19D42
100
AcDbEntity
  8
0
100
AcDbLine
 10
22.15599999997789
 20
2.368399999997621
 30
0.0
 11
24.97599999997499
 21
2.368399999997621
 31
0.0
1001
ACAD
1000
ASC_BOUNDS
1002
{
1070
    19
1005
19D87
1002
}
  0
LINE
  5
19D57
330
19D42
100
AcDbEntity
  8
0
100
AcDbLine
 10
19.53899999998043
 20
0.0
 30
0.0
 11
21.09599999997886
 21
0.0
 31
0.0
1001
ACAD
1000
ASC_BOUNDS
1002
{
1070
    19
1005
19D87
1002
}
  0
LINE
  5
19D58
330
19D42
100
AcDbEntity
  8
0
100
AcDbLine
 10
21.09599999997886
 20
-0.0001000000000317
 30
0.0
 11
22.15599999997789
 21
2.368399999997621
 31
0.0
1001
ACAD
1000
ASC_BOUNDS
1002
{
1070
    19
1005
19D87
1002
}
  0
LINE
  5
19D59
330
19D42
100
AcDbEntity
  8
0
100
AcDbLine
 10
26.02015566812236
 20
0.0330999999912365
 30
0.0
 11
24.97599999997499
 21
2.368399999997621
 31
0.0
1001
ACAD
1000
ASC_BOUNDS
1002
{
1070
    19
1005
19D87
1002
}
  0
LINE
  5
19D5A
330
19D42
100
AcDbEntity
  8
0
100
AcDbLine
 10
14.32399999998563
 20
3.315799999996671
 30
0.0
 11
16.46099999998353
 21
8.999899999990987
 31
0.0
1001
ACAD
1000
ASC_BOUNDS
1002
{
1070
    19
1005
19D86
1002
}
  0
LINE
  5
19D5B
330
19D42
100
AcDbEntity
  8
0
100
AcDbLine
 10
6.432999999993513
 20
8.763099999991255
 30
0.0
 11
3.181999999996833
 21
4.668599999995308
 31
0.0
1001
ACAD
1000
ASC_BOUNDS
1002
{
1070
    19
1005
19D85
1002
}
  0
LINE
  5
19D5C
330
19D42
100
AcDbEntity
  8
0
100
AcDbLine
 10
4.617999999995391
 20
8.763099999991255
 30
0.0
 11
1.420999999998571
 21
4.736799999995242
 31
0.0
1001
ACAD
1000
ASC_BOUNDS
1002
{
1070
    19
1005
19D85
1002
}
  0
LINE
  5
19D5D
330
19D42
100
AcDbEntity
  8
0
100
AcDbLine
 10
0.0
 20
8.763099999991255
 30
0.0
 11
1.420999999998571
 21
8.763099999991255
 31
0.0
1001
ACAD
1000
ASC_BOUNDS
1002
{
1070
    19
1005
19D8A
1002
}
  0
LINE
  5
19D5E
330
19D42
100
AcDbEntity
  8
0
100
AcDbLine
 10
4.617999999995391
 20
8.763099999991255
 30
0.0
 11
6.432999999993513
 21
8.763099999991255
 31
0.0
1001
ACAD
1000
ASC_BOUNDS
1002
{
1070
    19
1005
19D85
1002
}
  0
LINE
  5
19D5F
330
19D42
100
AcDbEntity
  8
0
100
AcDbLine
 10
14.32399999998563
 20
3.315799999996671
 30
0.0
 11
12.02999999998792
 21
8.763099999991255
 31
0.0
1001
ACAD
1000
ASC_BOUNDS
1002
{
1070
    19
1005
19D86
1002
}
  0
LINE
  5
19D60
330
19D42
100
AcDbEntity
  8
0
100
AcDbLine
 10
10.06399999998996
 20
3.670999999996297
 30
0.0
 11
9.236999999990758
 21
5.5200999999945
 31
0.0
1001
ACAD
1000
ASC_BOUNDS
1002
{
1070
    19
1005
19D85
1002
}
  0
LINE
  5
19D61
330
19D42
100
AcDbEntity
  8
0
100
AcDbLine
 10
8.409999999991555
 20
3.670999999996297
 30
0.0
 11
9.236999999990758
 21
5.5200999999945
 31
0.0
1001
ACAD
1000
ASC_BOUNDS
1002
{
1070
    19
1005
19D85
1002
}
  0
LINE
  5
19D62
330
19D42
100
AcDbEntity
  8
0
100
AcDbLine
 10
8.409999999991555
 20
3.670999999996297
 30
0.0
 11
10.06399999998996
 21
3.670999999996297
 31
0.0
1001
ACAD
1000
ASC_BOUNDS
1002
{
1070
    19
1005
19D85
1002
}
  0
LINE
  5
19D63
330
19D42
100
AcDbEntity
  8
0
100
AcDbLine
 10
10.53899999998941
 20
8.763099999991255
 30
0.0
 11
12.02999999998792
 21
8.763099999991255
 31
0.0
1001
ACAD
1000
ASC_BOUNDS
1002
{
1070
    19
1005
19D86
1002
}
  0
LINE
  5
19D64
330
19D42
100
AcDbEntity
  8
0
100
AcDbLine
 10
22.7389999999773
 20
3.670999999996297
 30
0.0
 11
23.56599999997638
 21
5.5200999999945
 31
0.0
1001
ACAD
1000
ASC_BOUNDS
1002
{
1070
    19
1005
19D87
1002
}
  0
LINE
  5
19D65
330
19D42
100
AcDbEntity
  8
0
100
AcDbLine
 10
22.7389999999773
 20
3.670999999996297
 30
0.0
 11
24.39299999997559
 21
3.670999999996297
 31
0.0
1001
ACAD
1000
ASC_BOUNDS
1002
{
1070
    19
1005
19D87
1002
}
  0
LINE
  5
19D66
330
19D42
100
AcDbEntity
  8
0
100
AcDbLine
 10
18.59799999998143
 20
3.315799999996671
 30
0.0
 11
20.89099999997916
 21
8.763099999991255
 31
0.0
1001
ACAD
1000
ASC_BOUNDS
1002
{
1070
    19
1005
19D86
1002
}
  0
LINE
  5
19D67
330
19D42
100
AcDbEntity
  8
0
100
AcDbLine
 10
18.59799999998143
 20
3.315799999996671
 30
0.0
 11
16.46099999998353
 21
8.999899999990987
 31
0.0
1001
ACAD
1000
ASC_BOUNDS
1002
{
1070
    19
1005
19D86
1002
}
  0
LINE
  5
19D68
330
19D42
100
AcDbEntity
  8
0
100
AcDbLine
 10
20.89099999997916
 20
8.763099999991255
 30
0.0
 11
22.38199999997767
 21
8.763099999991255
 31
0.0
1001
ACAD
1000
ASC_BOUNDS
1002
{
1070
    19
1005
19D86
1002
}
  0
LINE
  5
19D69
330
19D42
100
AcDbEntity
  8
0
100
AcDbLine
 10
24.39299999997559
 20
3.670999999996297
 30
0.0
 11
23.56599999997638
 21
5.5200999999945
 31
0.0
1001
ACAD
1000
ASC_BOUNDS
1002
{
1070
    19
1005
19D87
1002
}
  0
LINE
  5
19D6A
330
19D42
100
AcDbEntity
  8
0
100
AcDbLine
 10
44.99999999995498
 20
-0.2368999999997641
 30
0.0
 11
40.02599999995994
 21
5.341799999994635
 31
0.0
1001
ACAD
1000
ASC_BOUNDS
1002
{
1070
    19
1005
19D89
1002
}
  0
LINE
  5
19D6B
330
19D42
100
AcDbEntity
  8
0
100
AcDbLine
 10
40.02599999995994
 20
5.341799999994635
 30
0.0
 11
40.02599999995994
 21
0.0
 31
0.0
1001
ACAD
1000
ASC_BOUNDS
1002
{
1070
    19
1005
19D89
1002
}
  0
LINE
  5
19D6C
330
19D42
100
AcDbEntity
  8
0
100
AcDbLine
 10
38.60499999996136
 20
8.999999999991019
 30
0.0
 11
38.60499999996136
 21
0.0
 31
0.0
1001
ACAD
1000
ASC_BOUNDS
1002
{
1070
    19
1005
19D89
1002
}
  0
LINE
  5
19D6D
330
19D42
100
AcDbEntity
  8
0
100
AcDbLine
 10
44.99999999995498
 20
8.763099999991255
 30
0.0
 11
44.99999999995498
 21
-0.2368999999997641
 31
0.0
1001
ACAD
1000
ASC_BOUNDS
1002
{
1070
    19
1005
19D89
1002
}
  0
LINE
  5
19D6E
330
19D42
100
AcDbEntity
  8
0
100
AcDbLine
 10
38.60499999996136
 20
0.0
 30
0.0
 11
40.02599999995994
 21
0.0
 31
0.0
1001
ACAD
1000
ASC_BOUNDS
1002
{
1070
    19
1005
19D89
1002
}
  0
LINE
  5
19D6F
330
19D42
100
AcDbEntity
  8
0
100
AcDbLine
 10
43.57899999995641
 20
3.421199999996588
 30
0.0
 11
38.60499999996136
 21
8.999899999990987
 31
0.0
1001
ACAD
1000
ASC_BOUNDS
1002
{
1070
    19
1005
19D89
1002
}
  0
LINE
  5
19D70
330
19D42
100
AcDbEntity
  8
0
100
AcDbLine
 10
43.57899999995641
 20
8.763099999991255
 30
0.0
 11
43.57899999995641
 21
3.421199999996588
 31
0.0
1001
ACAD
1000
ASC_BOUNDS
1002
{
1070
    19
1005
19D89
1002
}
  0
LINE
  5
19D71
330
19D42
100
AcDbEntity
  8
0
100
AcDbLine
 10
43.57899999995641
 20
8.763099999991255
 30
0.0
 11
44.99999999995498
 21
8.763099999991255
 31
0.0
1001
ACAD
1000
ASC_BOUNDS
1002
{
1070
    19
1005
19D89
1002
}
  0
LINE
  5
19D72
330
19D42
100
AcDbEntity
  8
0
100
AcDbLine
 10
37.67199999996831
 20
8.763099999991255
 30
0.0
 11
36.23199999996837
 21
8.763099999991255
 31
0.0
  0
LINE
  5
19D73
330
19D42
100
AcDbEntity
  8
0
100
AcDbLine
 10
31.64199999996833
 20
8.763099999991255
 30
0.0
 11
31.64199999996833
 21
2.481619422925121
 31
0.0
  0
LINE
  5
19D74
330
19D42
100
AcDbEntity
  8
0
100
AcDbLine
 10
37.67199999996831
 20
8.763099999991255
 30
0.0
 11
37.67199999996831
 21
2.481619422925121
 31
0.0
  0
LINE
  5
19D75
330
19D42
100
AcDbEntity
  8
0
100
AcDbLine
 10
36.23199999996837
 20
8.763099999991255
 30
0.0
 11
36.23199999996837
 21
2.481619422925064
 31
0.0
  0
LINE
  5
19D76
330
19D42
100
AcDbEntity
  8
0
100
AcDbLine
 10
33.08199999996839
 20
8.763099999991255
 30
0.0
 11
33.08199999996839
 21
2.481619422925121
 31
0.0
  0
ARC
  5
19D77
330
19D42
100
AcDbEntity
  8
0
100
AcDbCircle
 10
34.65699999996832
 20
3.183099999991214
 30
0.0
 40
3.420000000000007
100
AcDbArc
 50
240.0000000000255
 51
299.9999999999766
  0
ARC
  5
19D78
330
19D42
100
AcDbEntity
  8
0
100
AcDbCircle
 10
34.65699999996832
 20
3.183099999991214
 30
0.0
 40
1.97999999999999
100
AcDbArc
 50
240.000000000026
 51
299.9999999999703
  0
LINE
  5
19D79
330
19D42
100
AcDbEntity
  8
0
100
AcDbLine
 10
33.08199999996828
 20
8.763099999991255
 30
0.0
 11
31.64199999996833
 21
8.763099999991255
 31
0.0
  0
ARC
  5
19D7A
330
19D42
100
AcDbEntity
  8
0
100
AcDbCircle
 10
35.06199999996829
 20
2.481619422925064
 30
0.0
 40
1.17
100
AcDbArc
 50
299.9999999999699
 51
0.0
  0
ARC
  5
19D7B
330
19D42
100
AcDbEntity
  8
0
100
AcDbCircle
 10
34.25199999996835
 20
2.481619422925121
 30
0.0
 40
1.17
100
AcDbArc
 50
180.0
 51
240.0000000000238
  0
ARC
  5
19D7C
330
19D42
100
AcDbEntity
  8
0
100
AcDbCircle
 10
35.06199999996841
 20
2.481619422925121
 30
0.0
 40
2.61
100
AcDbArc
 50
299.9999999999756
 51
0.0
  0
ARC
  5
19D7D
330
19D42
100
AcDbEntity
  8
0
100
AcDbCircle
 10
34.25199999996835
 20
2.481619422925121
 30
0.0
 40
2.61
100
AcDbArc
 50
180.0
 51
240.0000000000244
  0
LINE
  5
19D7E
330
19D42
100
AcDbEntity
  8
0
100
AcDbLine
 10
29.30199999996933
 20
8.763099999991255
 30
0.0
 11
30.74199999996927
 21
8.763099999991255
 31
0.0
1001
ACAD
1000
ASC_BOUNDS
1002
{
1070
    19
1005
19D87
1002
}
  0
LINE
  5
19D7F
330
19D42
100
AcDbEntity
  8
0
100
AcDbLine
 10
30.74199999996927
 20
8.763099999991255
 30
0.0
 11
30.74199999996927
 21
2.373099999991211
 31
0.0
1001
ACAD
1000
ASC_BOUNDS
1002
{
1070
    19
1005
19D87
1002
}
  0
LINE
  5
19D80
330
19D42
100
AcDbEntity
  8
0
100
AcDbLine
 10
26.02015566812236
 20
0.0330999999912365
 30
0.0
 11
28.40199999996923
 21
0.0330999999912365
 31
0.0
1001
ACAD
1000
ASC_BOUNDS
1002
{
1070
    19
1005
19D87
1002
}
  0
LINE
  5
19D81
330
19D42
100
AcDbEntity
  8
0
100
AcDbLine
 10
29.30199999996933
 20
8.763099999991255
 30
0.0
 11
29.30199999996933
 21
2.283099999991236
 31
0.0
1001
ACAD
1000
ASC_BOUNDS
1002
{
1070
    19
1005
19D87
1002
}
  0
LINE
  5
19D82
330
19D42
100
AcDbEntity
  8
0
100
AcDbLine
 10
26.97358892824991
 20
1.383099999991202
 30
0.0
 11
28.40199999996923
 21
1.383099999991202
 31
0.0
1001
ACAD
1000
ASC_BOUNDS
1002
{
1070
    19
1005
19D87
1002
}
  0
ARC
  5
19D83
330
19D42
100
AcDbEntity
  8
0
100
AcDbCircle
 10
28.40199999996923
 20
2.283099999991236
 30
0.0
 40
0.9
100
AcDbArc
 50
270.0
 51
0.0
1001
ACAD
1000
ASC_BOUNDS
1002
{
1070
    19
1005
19D87
1002
}
  0
ARC
  5
19D84
330
19D42
100
AcDbEntity
  8
0
100
AcDbCircle
 10
28.40199999996923
 20
2.373099999991211
 30
0.0
 40
2.34
100
AcDbArc
 50
270.0
 51
0.0
1001
ACAD
1000
ASC_BOUNDS
1002
{
1070
    19
1005
19D87
1002
}
  0
INSERT
  5
19D85
330
19D42
100
AcDbEntity
  8
0
100
AcDbBlockReference
  2
*X46
 10
0.0
 20
0.0
 30
0.0
1001
ACAD
1000
HATCH
1002
{
1070
    19
1000
ANSI37
1040
0.15
1040
0.0
1000
ASC_BOUNDS
1070
     2
1070
     2
1070
    12
1005
19D44
1005
19D45
1005
19D4C
1005
19D5B
1005
19D5E
1005
19D5C
1005
19D4D
1005
19D52
1005
19D50
1005
19D54
1005
19D53
1005
19D55
1070
     2
1070
     3
1005
19D60
1005
19D62
1005
19D61
1000
ASC_SEEDPOINT
1011
3.614004224891801
1021
2.996669441146025
1031
0.0
1000
R14_HATCH_DATA
1000
19D85
1011
1.0
1021
0.0
1031
0.0
1011
0.0
1021
1.0
1031
0.0
1011
0.0
1021
0.0
1031
1.0
1040
0.0
1010
0.0
1020
0.0
1030
1.0
1000
ANSI37
1070
     0
1070
     1
1071
        2
1071
        7
1070
     0
1070
     1
1071
       17
1040
13.26299999998673
1040
-0.0001000000000317
1040
9.236999999990758
1040
8.999899999990987
1040
9.236999999990758
1040
8.999999999991019
1040
5.657999999994331
1040
0.9999999999989768
1040
3.181999999996833
1040
4.668599999995308
1040
6.432999999993513
1040
8.763099999991255
1040
4.617999999995391
1040
8.763099999991255
1040
1.420999999998571
1040
4.736799999995242
1040
4.617999999995391
1040
-0.0001000000000317
1040
4.617999999995391
1040
0.0
1040
6.766999999993232
1040
0.0
1040
6.766999999993232
1040
-0.0001000000000317
1040
7.826999999992154
1040
2.368399999997621
1040
10.64699999998936
1040
2.368399999997621
1040
11.70599999998831
1040
-0.0001000000000317
1040
11.70599999998831
1040
0.0
1040
13.26299999998673
1040
0.0
1071
       12
1005
19D44
1005
19D45
1005
19D4C
1005
19D5B
1005
19D5E
1005
19D5C
1005
19D4D
1005
19D52
1005
19D50
1005
19D54
1005
19D53
1005
19D55
1071
       22
1070
     0
1070
     1
1071
        3
1040
9.236999999990758
1040
5.5200999999945
1040
10.06399999998996
1040
3.670999999996297
1040
8.409999999991555
1040
3.670999999996297
1071
        3
1005
19D60
1005
19D62
1005
19D61
1070
     0
1070
     1
1040
0.0
1040
0.15
1070
     0
1070
     2
1040
0.7853981633974483
1040
49.29960901727088
1040
-10.17736998311392
1040
-0.3367596045400932
1040
0.3367596045400932
1070
     0
1040
2.356194490192345
1040
49.29960901727088
1040
-10.17736998311392
1040
-0.3367596045400932
1040
-0.3367596045400932
1070
     0
1040
0.0110235143455945
1071
        2
1040
3.614004224891801
1040
2.996669441146025
1040
0.0
1040
3.614004224891801
1040
2.996669441146025
1040
0.0
1002
}
  0
INSERT
  5
19D86
330
19D42
100
AcDbEntity
  8
0
100
AcDbBlockReference
  2
*X47
 10
0.0
 20
0.0
 30
0.0
1001
ACAD
1000
HATCH
1002
{
1070
    19
1000
ANSI37
1040
0.15
1040
0.0
1000
ASC_BOUNDS
1070
     1
1070
     2
1070
    10
1005
19D46
1005
19D47
1005
19D68
1005
19D66
1005
19D67
1005
19D5A
1005
19D5F
1005
19D63
1005
19D49
1005
19D48
1000
ASC_SEEDPOINT
1011
14.73245321214324
1021
2.798246178283421
1031
0.0
1000
R14_HATCH_DATA
1000
19D86
1011
1.0
1021
0.0
1031
0.0
1011
0.0
1021
1.0
1031
0.0
1011
0.0
1021
0.0
1031
1.0
1040
0.0
1010
0.0
1020
0.0
1030
1.0
1000
ANSI37
1070
     0
1070
     1
1071
        1
1071
        7
1070
     0
1070
     1
1071
       10
1040
16.46099999998353
1040
5.432899999994561
1040
18.59199999998134
1040
-0.2368999999997641
1040
22.38199999997767
1040
8.763099999991255
1040
20.89099999997916
1040
8.763099999991255
1040
18.59799999998143
1040
3.315799999996671
1040
16.46099999998353
1040
8.999899999990987
1040
14.32399999998563
1040
3.315799999996671
1040
12.02999999998792
1040
8.763099999991255
1040
10.53899999998941
1040
8.763099999991255
1040
14.32899999998563
1040
-0.2368999999997641
1071
       10
1005
19D46
1005
19D47
1005
19D68
1005
19D66
1005
19D67
1005
19D5A
1005
19D5F
1005
19D63
1005
19D49
1005
19D48
1070
     0
1070
     1
1040
0.0
1040
0.15
1070
     0
1070
     2
1040
0.7853981633974483
1040
49.29960901727088
1040
-10.17736998311392
1040
-0.3367596045400932
1040
0.3367596045400932
1070
     0
1040
2.356194490192345
1040
49.29960901727088
1040
-10.17736998311392
1040
-0.3367596045400932
1040
-0.3367596045400932
1070
     0
1040
0.0110235143455945
1071
        1
1040
14.73245321214324
1040
2.798246178283421
1040
0.0
1002
}
  0
INSERT
  5
19D87
330
19D42
100
AcDbEntity
  8
0
100
AcDbBlockReference
  2
*X48
 10
0.0
 20
0.0
 30
0.0
1001
ACAD
1000
HATCH
1002
{
1070
    19
1000
ANSI37
1040
0.15
1040
0.0
1000
ASC_BOUNDS
1070
     2
1070
     2
1070
    13
1005
19D4A
1005
19D57
1005
19D58
1005
19D56
1005
19D59
1005
19D80
1005
19D84
1005
19D7F
1005
19D7E
1005
19D81
1005
19D83
1005
19D82
1005
19D4B
1070
     2
1070
     3
1005
19D64
1005
19D69
1005
19D65
1000
ASC_SEEDPOINT
1011
21.97929957367762
1021
3.294304244259308
1031
0.0
1000
R14_HATCH_DATA
1000
19D87
1011
1.0
1021
0.0
1031
0.0
1011
0.0
1021
1.0
1031
0.0
1011
0.0
1021
0.0
1031
1.0
1040
0.0
1010
0.0
1020
0.0
1030
1.0
1000
ANSI37
1070
     0
1070
     1
1071
        2
1071
        7
1070
     1
1070
     1
1071
       15
1040
23.56599999997638
1040
8.999899999990987
1040
0.0
1040
19.53899999998043
1040
-0.0001000000000317
1040
0.0
1040
19.53899999998043
1040
0.0
1040
0.0
1040
21.09599999997886
1040
0.0
1040
0.0
1040
21.09599999997886
1040
-0.0001000000000317
1040
0.0
1040
22.15599999997789
1040
2.368399999997621
1040
0.0
1040
24.97599999997499
1040
2.368399999997621
1040
0.0
1040
26.02015566812236
1040
0.0330999999912365
1040
0.0
1040
28.40199999996923
1040
0.0330999999912365
1040
0.414213562373095
1040
30.74199999996923
1040
2.373099999991211
1040
0.0
1040
30.74199999996927
1040
8.763099999991255
1040
0.0
1040
29.30199999996933
1040
8.763099999991255
1040
0.0
1040
29.30199999996933
1040
2.283099999991236
1040
-0.414213562373095
1040
28.40199999996923
1040
1.383099999991237
1040
0.0
1040
26.97358892824991
1040
1.383099999991202
1040
0.0
1071
       13
1005
19D4A
1005
19D57
1005
19D58
1005
19D56
1005
19D59
1005
19D80
1005
19D84
1005
19D7F
1005
19D7E
1005
19D81
1005
19D83
1005
19D82
1005
19D4B
1071
       22
1070
     0
1070
     1
1071
        3
1040
22.7389999999773
1040
3.670999999996297
1040
23.56599999997638
1040
5.5200999999945
1040
24.39299999997559
1040
3.670999999996297
1071
        3
1005
19D64
1005
19D69
1005
19D65
1070
     0
1070
     1
1040
0.0
1040
0.15
1070
     0
1070
     2
1040
0.7853981633974483
1040
49.29960901727088
1040
-10.17736998311392
1040
-0.3367596045400932
1040
0.3367596045400932
1070
     0
1040
2.356194490192345
1040
49.29960901727088
1040
-10.17736998311392
1040
-0.3367596045400932
1040
-0.3367596045400932
1070
     0
1040
0.0110235143455945
1071
        2
1040
21.97929957367762
1040
3.294304244259308
1040
0.0
1040
21.97929957367762
1040
3.294304244259308
1040
0.0
1002
}
  0
INSERT
  5
19D88
330
19D42
100
AcDbEntity
  8
0
100
AcDbBlockReference
  2
*X49
 10
0.0
 20
0.0
 30
0.0
1001
ACAD
1000
HATCH
1002
{
1070
    19
1000
ANSI37
1040
0.15
1040
0.0
1000
R14_HATCH_DATA
1000
19D88
1011
1.0
1021
0.0
1031
0.0
1011
0.0
1021
1.0
1031
0.0
1011
0.0
1021
0.0
1031
1.0
1040
0.0
1010
0.0
1020
0.0
1030
1.0
1000
ANSI37
1070
     0
1070
     1
1071
        1
1071
        7
1070
     1
1070
     1
1071
       12
1040
31.64199999996833
1040
2.481619422925121
1040
0.2679491924310942
1040
32.94699999997067
1040
0.2212931190493919
1040
0.2679491924301353
1040
36.36699999995983
1040
0.2212931190459813
1040
0.2679491924321411
1040
37.67199999996831
1040
2.481619422928361
1040
0.0
1040
37.67199999996831
1040
8.763099999991255
1040
0.0
1040
36.23199999996837
1040
8.763099999991255
1040
0.0
1040
36.23199999996837
1040
2.481619422925064
1040
-0.2679491924310291
1040
35.64699999996708
1040
1.468369700498386
1040
-0.267949192430519
1040
33.66699999997093
1040
1.468369700497703
1040
-0.267949192431809
1040
33.08199999996839
1040
2.481619422926997
1040
0.0
1040
33.08199999996839
1040
8.763099999991255
1040
0.0
1040
31.64199999996833
1040
8.763099999991255
1040
0.0
1071
        0
1070
     0
1070
     1
1040
0.0
1040
0.15
1070
     0
1070
     2
1040
0.7853981633974483
1040
49.29960901727088
1040
-10.17736998311392
1040
-0.3367596045400932
1040
0.3367596045400932
1070
     0
1040
2.356194490192345
1040
49.29960901727088
1040
-10.17736998311392
1040
-0.3367596045400932
1040
-0.3367596045400932
1070
     0
1040
0.0110235143455945
1071
        1
1040
32.30357378967278
1040
3.988785755459219
1040
0.0
1002
}
  0
INSERT
  5
19D89
330
19D42
100
AcDbEntity
  8
0
100
AcDbBlockReference
  2
*X50
 10
0.0
 20
0.0
 30
0.0
1001
ACAD
1000
HATCH
1002
{
1070
    19
1000
ANSI37
1040
0.15
1040
0.0
1000
ASC_BOUNDS
1070
     1
1070
     2
1070
     8
1005
19D6A
1005
19D6D
1005
19D71
1005
19D70
1005
19D6F
1005
19D6C
1005
19D6E
1005
19D6B
1000
ASC_SEEDPOINT
1011
39.74896370716704
1021
4.484843821435049
1031
0.0
1000
R14_HATCH_DATA
1000
19D89
1011
1.0
1021
0.0
1031
0.0
1011
0.0
1021
1.0
1031
0.0
1011
0.0
1021
0.0
1031
1.0
1040
0.0
1010
0.0
1020
0.0
1030
1.0
1000
ANSI37
1070
     0
1070
     1
1071
        1
1071
        7
1070
     0
1070
     1
1071
        9
1040
40.02599999995994
1040
5.341799999994635
1040
44.99999999995498
1040
-0.2368999999997641
1040
44.99999999995498
1040
8.763099999991255
1040
43.57899999995641
1040
8.763099999991255
1040
43.57899999995641
1040
3.421199999996588
1040
38.60499999996136
1040
8.999899999990987
1040
38.60499999996136
1040
8.999999999991019
1040
38.60499999996136
1040
0.0
1040
40.02599999995994
1040
0.0
1071
        8
1005
19D6A
1005
19D6D
1005
19D71
1005
19D70
1005
19D6F
1005
19D6C
1005
19D6E
1005
19D6B
1070
     0
1070
     1
1040
0.0
1040
0.15
1070
     0
1070
     2
1040
0.7853981633974483
1040
49.29960901727088
1040
-10.17736998311392
1040
-0.3367596045400932
1040
0.3367596045400932
1070
     0
1040
2.356194490192345
1040
49.29960901727088
1040
-10.17736998311392
1040
-0.3367596045400932
1040
-0.3367596045400932
1070
     0
1040
0.0110235143455945
1071
        1
1040
39.74896370716704
1040
4.484843821435049
1040
0.0
1002
}
  0
INSERT
  5
19D8A
330
19D42
100
AcDbEntity
  8
0
100
AcDbBlockReference
  2
*X51
 10
0.0
 20
0.0
 30
0.0
1001
ACAD
1000
HATCH
1002
{
1070
    19
1000
ANSI37
1040
0.15
1040
0.0
1000
ASC_BOUNDS
1070
     1
1070
     2
1070
     4
1005
19D4E
1005
19D5D
1005
19D4F
1005
19D51
1000
ASC_SEEDPOINT
1011
1.079051535452663
1021
4.148538732891836
1031
0.0
1000
R14_HATCH_DATA
1000
19D8A
1011
1.0
1021
0.0
1031
0.0
1011
0.0
1021
1.0
1031
0.0
1011
0.0
1021
0.0
1031
1.0
1040
0.0
1010
0.0
1020
0.0
1030
1.0
1000
ANSI37
1070
     0
1070
     1
1071
        1
1071
        7
1070
     0
1070
     1
1071
        4
1040
1.420999999998571
1040
0.0
1040
1.420999999998571
1040
8.763099999991255
1040
0.0
1040
8.763099999991255
1040
0.0
1040
0.0
1071
        4
1005
19D4E
1005
19D5D
1005
19D4F
1005
19D51
1070
     0
1070
     1
1040
0.0
1040
0.15
1070
     0
1070
     2
1040
0.7853981633974483
1040
49.29960901727088
1040
-10.17736998311392
1040
-0.3367596045400932
1040
0.3367596045400932
1070
     0
1040
2.356194490192345
1040
49.29960901727088
1040
-10.17736998311392
1040
-0.3367596045400932
1040
-0.3367596045400932
1070
     0
1040
0.0053004257112761
1071
        1
1040
1.079051535452663
1040
4.148538732891836
1040
0.0
1002
}
  0
ENDBLK
  5
1A551
330
19D42
100
AcDbEntity
  8
0
100
AcDbBlockEnd
  0
BLOCK
  5
1B12C
330
1AF9E
100
AcDbEntity
  8
0
100
AcDbBlockBegin
  2
*X46
 70
     1
 10
0.0
 20
0.0
 30
0.0
  3
*X46
  1

  0
LINE
  5
1AF9F
330
1AF9E
100
AcDbEntity
  8
0
  6
CONTINUOUS
100
AcDbLine
 10
3.418023043697893
 20
7.251849696850613
 30
0.0
 11
4.929273346838536
 21
8.763099999991255
 31
0.0
  0
LINE
  5
1AFA0
330
1AF9E
100
AcDbEntity
  8
0
  6
CONTINUOUS
100
AcDbLine
 10
1.483656411257782
 20
4.643963855330318
 30
0.0
 11
5.60279255591872
 21
8.763099999991255
 31
0.0
  0
LINE
  5
1AFA1
330
1AF9E
100
AcDbEntity
  8
0
  6
CONTINUOUS
100
AcDbLine
 10
1.755053947328235
 20
4.241842182320584
 30
0.0
 11
6.276311764998907
 21
8.763099999991255
 31
0.0
  0
LINE
  5
1AFA2
330
1AF9E
100
AcDbEntity
  8
0
  6
CONTINUOUS
100
AcDbLine
 10
2.026451483398688
 20
3.839720509310849
 30
0.0
 11
4.441040904851878
 21
6.254309930764039
 31
0.0
  0
LINE
  5
1AFA3
330
1AF9E
100
AcDbEntity
  8
0
  6
CONTINUOUS
100
AcDbLine
 10
2.297849019469139
 20
3.437598836301114
 30
0.0
 11
3.321765168359338
 21
4.461514985191313
 31
0.0
  0
LINE
  5
1AFA4
330
1AF9E
100
AcDbEntity
  8
0
  6
CONTINUOUS
100
AcDbLine
 10
2.569246555539591
 20
3.03547716329138
 30
0.0
 11
3.593163397972743
 21
4.059394005724531
 31
0.0
  0
LINE
  5
1AFA5
330
1AF9E
100
AcDbEntity
  8
0
  6
CONTINUOUS
100
AcDbLine
 10
2.840644091610043
 20
2.633355490281646
 30
0.0
 11
3.864561627586149
 21
3.657273026257751
 31
0.0
  0
LINE
  5
1AFA6
330
1AF9E
100
AcDbEntity
  8
0
  6
CONTINUOUS
100
AcDbLine
 10
3.112041627680496
 20
2.231233817271911
 30
0.0
 11
4.135959857199554
 21
3.25515204679097
 31
0.0
  0
LINE
  5
1AFA7
330
1AF9E
100
AcDbEntity
  8
0
  6
CONTINUOUS
100
AcDbLine
 10
3.383439163750948
 20
1.829112144262177
 30
0.0
 11
4.40735808681296
 21
2.853031067324189
 31
0.0
  0
LINE
  5
1AFA8
330
1AF9E
100
AcDbEntity
  8
0
  6
CONTINUOUS
100
AcDbLine
 10
3.654836699821399
 20
1.426990471252442
 30
0.0
 11
4.678756316426365
 21
2.450910087857407
 31
0.0
  0
LINE
  5
1AFA9
330
1AF9E
100
AcDbEntity
  8
0
  6
CONTINUOUS
100
AcDbLine
 10
3.926234235891853
 20
1.024868798242709
 30
0.0
 11
4.95015454603977
 21
2.048789108390626
 31
0.0
  0
LINE
  5
1AFAA
330
1AF9E
100
AcDbEntity
  8
0
  6
CONTINUOUS
100
AcDbLine
 10
4.197631771962304
 20
0.6227471252329737
 30
0.0
 11
5.221552775653176
 21
1.646668128923846
 31
0.0
  0
LINE
  5
1AFAB
330
1AF9E
100
AcDbEntity
  8
0
  6
CONTINUOUS
100
AcDbLine
 10
8.715877546767851
 20
7.835069736359266
 30
0.0
 11
9.435953450375058
 21
8.555145639966472
 31
0.0
  0
LINE
  5
1AFAC
330
1AF9E
100
AcDbEntity
  8
0
  6
CONTINUOUS
100
AcDbLine
 10
8.170620868422267
 20
6.616293848933497
 30
0.0
 11
9.644120833743461
 21
8.08979381425469
 31
0.0
  0
LINE
  5
1AFAD
330
1AF9E
100
AcDbEntity
  8
0
  6
CONTINUOUS
100
AcDbLine
 10
7.625364190076684
 20
5.397517961507727
 30
0.0
 11
9.852288217111864
 21
7.624441988542907
 31
0.0
  0
LINE
  5
1AFAE
330
1AF9E
100
AcDbEntity
  8
0
  6
CONTINUOUS
100
AcDbLine
 10
7.080107511731101
 20
4.178742074081957
 30
0.0
 11
10.06045560048027
 21
7.159090162831124
 31
0.0
  0
LINE
  5
1AFAF
330
1AF9E
100
AcDbEntity
  8
0
  6
CONTINUOUS
100
AcDbLine
 10
6.534850833385518
 20
2.959966186656187
 30
0.0
 11
10.26862298384867
 21
6.693738337119342
 31
0.0
  0
LINE
  5
1AFB0
330
1AF9E
100
AcDbEntity
  8
0
  6
CONTINUOUS
100
AcDbLine
 10
4.469029308032756
 20
0.2206254522232385
 30
0.0
 11
5.492951005266582
 21
1.244547149457064
 31
0.0
  0
LINE
  5
1AFB1
330
1AF9E
100
AcDbEntity
  8
0
  6
CONTINUOUS
100
AcDbLine
 10
5.989594155039935
 20
1.741190299230417
 30
0.0
 11
8.806950407233131
 21
4.558546551423613
 31
0.0
  0
LINE
  5
1AFB2
330
1AF9E
100
AcDbEntity
  8
0
  6
CONTINUOUS
100
AcDbLine
 10
9.401251593263643
 20
5.152847737454126
 30
0.0
 11
10.47679036721708
 21
6.228386511407559
 31
0.0
  0
LINE
  5
1AFB3
330
1AF9E
100
AcDbEntity
  8
0
  6
CONTINUOUS
100
AcDbLine
 10
4.921837203428691
 20
-0.0000858614610131
 30
0.0
 11
8.592923064886001
 21
3.670999999996297
 31
0.0
  0
LINE
  5
1AFB4
330
1AF9E
100
AcDbEntity
  8
0
  6
CONTINUOUS
100
AcDbLine
 10
9.609390446785305
 20
4.6874673818956
 30
0.0
 11
10.68495775058548
 21
5.763034685695775
 31
0.0
  0
LINE
  5
1AFB5
330
1AF9E
100
AcDbEntity
  8
0
  6
CONTINUOUS
100
AcDbLine
 10
5.595387755019432
 20
-0.0000545189504582
 30
0.0
 11
7.716137258923768
 21
2.120694984953879
 31
0.0
  0
LINE
  5
1AFB6
330
1AF9E
100
AcDbEntity
  8
0
  6
CONTINUOUS
100
AcDbLine
 10
6.268938306610172
 20
-0.000023176439905
 30
0.0
 11
7.170485805526503
 21
0.9015243224764267
 31
0.0
  0
LINE
  5
1AFB7
330
1AF9E
100
AcDbEntity
  8
0
  6
CONTINUOUS
100
AcDbLine
 10
7.963842273967511
 20
2.368399999997621
 30
0.0
 11
9.266442273966188
 21
3.670999999996297
 31
0.0
  0
LINE
  5
1AFB8
330
1AF9E
100
AcDbEntity
  8
0
  6
CONTINUOUS
100
AcDbLine
 10
8.637361483047696
 20
2.368399999997621
 30
0.0
 11
9.939961483046375
 21
3.670999999996297
 31
0.0
  0
LINE
  5
1AFB9
330
1AF9E
100
AcDbEntity
  8
0
  6
CONTINUOUS
100
AcDbLine
 10
9.817529300306965
 20
4.222087026337075
 30
0.0
 11
10.89312513395388
 21
5.297682859983993
 31
0.0
  0
LINE
  5
1AFBA
330
1AF9E
100
AcDbEntity
  8
0
  6
CONTINUOUS
100
AcDbLine
 10
10.02566815382863
 20
3.756706670778549
 30
0.0
 11
11.10129251732229
 21
4.832331034272211
 31
0.0
  0
LINE
  5
1AFBB
330
1AF9E
100
AcDbEntity
  8
0
  6
CONTINUOUS
100
AcDbLine
 10
9.310880692127883
 20
2.368399999997621
 30
0.0
 11
11.30945990069069
 21
4.366979208560428
 31
0.0
  0
LINE
  5
1AFBC
330
1AF9E
100
AcDbEntity
  8
0
  6
CONTINUOUS
100
AcDbLine
 10
9.98439990120807
 20
2.36839999999762
 30
0.0
 11
11.5176272840591
 21
3.901627382848645
 31
0.0
  0
LINE
  5
1AFBD
330
1AF9E
100
AcDbEntity
  8
0
  6
CONTINUOUS
100
AcDbLine
 10
10.65037369446246
 20
2.36085458417182
 30
0.0
 11
11.7257946674275
 21
3.436275557136862
 31
0.0
  0
LINE
  5
1AFBE
330
1AF9E
100
AcDbEntity
  8
0
  6
CONTINUOUS
100
AcDbLine
 10
10.85847197087848
 20
1.895433651507656
 30
0.0
 11
11.9339620507959
 21
2.97092373142508
 31
0.0
  0
LINE
  5
1AFBF
330
1AF9E
100
AcDbEntity
  8
0
  6
CONTINUOUS
100
AcDbLine
 10
11.0665702472945
 20
1.430012718843491
 30
0.0
 11
12.14212943416431
 21
2.505571905713296
 31
0.0
  0
LINE
  5
1AFC0
330
1AF9E
100
AcDbEntity
  8
0
  6
CONTINUOUS
100
AcDbLine
 10
11.27466852371052
 20
0.9645917861793256
 30
0.0
 11
12.35029681753271
 21
2.040220080001513
 31
0.0
  0
LINE
  5
1AFC1
330
1AF9E
100
AcDbEntity
  8
0
  6
CONTINUOUS
100
AcDbLine
 10
11.48276680012654
 20
0.4991708535151611
 30
0.0
 11
12.55846420090111
 21
1.57486825428973
 31
0.0
  0
LINE
  5
1AFC2
330
1AF9E
100
AcDbEntity
  8
0
  6
CONTINUOUS
100
AcDbLine
 10
11.69086507654257
 20
0.0337499208509957
 30
0.0
 11
12.76663158426952
 21
1.109516428577947
 31
0.0
  0
LINE
  5
1AFC3
330
1AF9E
100
AcDbEntity
  8
0
  6
CONTINUOUS
100
AcDbLine
 10
12.33057447873954
 20
-0.0000598860322123
 30
0.0
 11
12.97479896763792
 21
0.6441646028661663
 31
0.0
  0
LINE
  5
1AFC4
330
1AF9E
100
AcDbEntity
  8
0
  6
CONTINUOUS
100
AcDbLine
 10
13.00413694809395
 20
-0.0000166257579952
 30
0.0
 11
13.18296635100632
 21
0.1788127771543824
 31
0.0
  0
LINE
  5
1AFC5
330
1AF9E
100
AcDbEntity
  8
0
  6
CONTINUOUS
100
AcDbLine
 10
4.772852165289667
 20
-0.000092794222212
 30
0.0
 11
4.296495091028902
 21
0.4762642800385528
 31
0.0
  0
LINE
  5
1AFC6
330
1AF9E
100
AcDbEntity
  8
0
  6
CONTINUOUS
100
AcDbLine
 10
5.446340034776103
 20
-0.0000614546284616
 30
0.0
 11
2.898195908335625
 21
2.548082671812017
 31
0.0
  0
LINE
  5
1AFC7
330
1AF9E
100
AcDbEntity
  8
0
  6
CONTINUOUS
100
AcDbLine
 10
6.119827904262539
 20
-0.0000301150347113
 30
0.0
 11
1.499896725642348
 21
4.61990106358548
 31
0.0
  0
LINE
  5
1AFC8
330
1AF9E
100
AcDbEntity
  8
0
  6
CONTINUOUS
100
AcDbLine
 10
6.775136745476159
 20
0.0181802528318542
 30
0.0
 11
5.699826040202669
 21
1.093490958105344
 31
0.0
  0
LINE
  5
1AFC9
330
1AF9E
100
AcDbEntity
  8
0
  6
CONTINUOUS
100
AcDbLine
 10
6.983376846288489
 20
0.4834593610997118
 30
0.0
 11
5.908008617934405
 21
1.558827589453796
 31
0.0
  0
LINE
  5
1AFCA
330
1AF9E
100
AcDbEntity
  8
0
  6
CONTINUOUS
100
AcDbLine
 10
5.377063484962296
 20
1.416253513345719
 30
0.0
 11
1.702276957014131
 21
5.091040041293883
 31
0.0
  0
LINE
  5
1AFCB
330
1AF9E
100
AcDbEntity
  8
0
  6
CONTINUOUS
100
AcDbLine
 10
3.978745891735324
 20
3.488090315652877
 30
0.0
 11
2.000373521109399
 21
5.466462686278803
 31
0.0
  0
LINE
  5
1AFCC
330
1AF9E
100
AcDbEntity
  8
0
  6
CONTINUOUS
100
AcDbLine
 10
7.191616947100819
 20
0.948738469367568
 30
0.0
 11
6.11619119566614
 21
2.024164220802247
 31
0.0
  0
LINE
  5
1AFCD
330
1AF9E
100
AcDbEntity
  8
0
  6
CONTINUOUS
100
AcDbLine
 10
7.399857047913149
 20
1.414017577635424
 30
0.0
 11
6.324373773397875
 21
2.489500852150698
 31
0.0
  0
LINE
  5
1AFCE
330
1AF9E
100
AcDbEntity
  8
0
  6
CONTINUOUS
100
AcDbLine
 10
7.608097148725479
 20
1.879296685903281
 30
0.0
 11
6.53255635112961
 21
2.95483748349915
 31
0.0
  0
LINE
  5
1AFCF
330
1AF9E
100
AcDbEntity
  8
0
  6
CONTINUOUS
100
AcDbLine
 10
7.816337249537808
 20
2.344575794171138
 30
0.0
 11
6.740738928861345
 21
3.420174114847601
 31
0.0
  0
LINE
  5
1AFD0
330
1AF9E
100
AcDbEntity
  8
0
  6
CONTINUOUS
100
AcDbLine
 10
3.310241080789734
 20
4.830114335678653
 30
0.0
 11
2.298470085204666
 21
5.84188533126372
 31
0.0
  0
LINE
  5
1AFD1
330
1AF9E
100
AcDbEntity
  8
0
  6
CONTINUOUS
100
AcDbLine
 10
3.60832983563551
 20
5.205544789913063
 30
0.0
 11
2.596566649299935
 21
6.217307976248638
 31
0.0
  0
LINE
  5
1AFD2
330
1AF9E
100
AcDbEntity
  8
0
  6
CONTINUOUS
100
AcDbLine
 10
3.906418590481286
 20
5.580975244147473
 30
0.0
 11
2.894663213395203
 21
6.592730621233557
 31
0.0
  0
LINE
  5
1AFD3
330
1AF9E
100
AcDbEntity
  8
0
  6
CONTINUOUS
100
AcDbLine
 10
4.204507345327062
 20
5.956405698381884
 30
0.0
 11
3.192759777490472
 21
6.968153266218474
 31
0.0
  0
LINE
  5
1AFD4
330
1AF9E
100
AcDbEntity
  8
0
  6
CONTINUOUS
100
AcDbLine
 10
8.466032252791512
 20
2.368399999997621
 30
0.0
 11
6.948921506593081
 21
3.885510746196053
 31
0.0
  0
LINE
  5
1AFD5
330
1AF9E
100
AcDbEntity
  8
0
  6
CONTINUOUS
100
AcDbLine
 10
9.139551461871699
 20
2.36839999999762
 30
0.0
 11
7.157104084324816
 21
4.350847377544504
 31
0.0
  0
LINE
  5
1AFD6
330
1AF9E
100
AcDbEntity
  8
0
  6
CONTINUOUS
100
AcDbLine
 10
4.502596100172839
 20
6.331836152616295
 30
0.0
 11
3.49085634158574
 21
7.343575911203393
 31
0.0
  0
LINE
  5
1AFD7
330
1AF9E
100
AcDbEntity
  8
0
  6
CONTINUOUS
100
AcDbLine
 10
4.800684855018615
 20
6.707266606850705
 30
0.0
 11
3.788952905681008
 21
7.718998556188312
 31
0.0
  0
LINE
  5
1AFD8
330
1AF9E
100
AcDbEntity
  8
0
  6
CONTINUOUS
100
AcDbLine
 10
12.18154012887317
 20
-0.0000694579236642
 30
0.0
 11
11.32140332908496
 21
0.8600673418645499
 31
0.0
  0
LINE
  5
1AFD9
330
1AF9E
100
AcDbEntity
  8
0
  6
CONTINUOUS
100
AcDbLine
 10
12.85501608323566
 20
-0.0000262032059659
 30
0.0
 11
10.77672456435345
 21
2.078265315676246
 31
0.0
  0
LINE
  5
1AFDA
330
1AF9E
100
AcDbEntity
  8
0
  6
CONTINUOUS
100
AcDbLine
 10
9.813070670951886
 20
2.36839999999762
 30
0.0
 11
8.51047067095321
 21
3.670999999996297
 31
0.0
  0
LINE
  5
1AFDB
330
1AF9E
100
AcDbEntity
  8
0
  6
CONTINUOUS
100
AcDbLine
 10
10.48658988003207
 20
2.36839999999762
 30
0.0
 11
9.183989880033396
 21
3.670999999996297
 31
0.0
  0
LINE
  5
1AFDC
330
1AF9E
100
AcDbEntity
  8
0
  6
CONTINUOUS
100
AcDbLine
 10
8.441048632286794
 20
3.740422038662712
 30
0.0
 11
7.365286662056551
 21
4.816184008892956
 31
0.0
  0
LINE
  5
1AFDD
330
1AF9E
100
AcDbEntity
  8
0
  6
CONTINUOUS
100
AcDbLine
 10
8.649187485808454
 20
4.205802394221237
 30
0.0
 11
7.573469239788285
 21
5.281520640241407
 31
0.0
  0
LINE
  5
1AFDE
330
1AF9E
100
AcDbEntity
  8
0
  6
CONTINUOUS
100
AcDbLine
 10
5.098773609864391
 20
7.082697061085115
 30
0.0
 11
4.087049469776277
 21
8.09442120117323
 31
0.0
  0
LINE
  5
1AFDF
330
1AF9E
100
AcDbEntity
  8
0
  6
CONTINUOUS
100
AcDbLine
 10
5.396862364710167
 20
7.458127515319526
 30
0.0
 11
4.385146033871544
 21
8.469843846158149
 31
0.0
  0
LINE
  5
1AFE0
330
1AF9E
100
AcDbEntity
  8
0
  6
CONTINUOUS
100
AcDbLine
 10
13.04801363231285
 20
0.4804954567970334
 30
0.0
 11
9.85750908911358
 21
3.670999999996297
 31
0.0
  0
LINE
  5
1AFE1
330
1AF9E
100
AcDbEntity
  8
0
  6
CONTINUOUS
100
AcDbLine
 10
8.857326339330116
 20
4.671182749779763
 30
0.0
 11
7.781651817520021
 21
5.746857271589858
 31
0.0
  0
LINE
  5
1AFE2
330
1AF9E
100
AcDbEntity
  8
0
  6
CONTINUOUS
100
AcDbLine
 10
5.694951119555943
 20
7.833557969553937
 30
0.0
 11
4.765409089118624
 21
8.763099999991255
 31
0.0
  0
LINE
  5
1AFE3
330
1AF9E
100
AcDbEntity
  8
0
  6
CONTINUOUS
100
AcDbLine
 10
12.50286117236978
 20
1.699167125820288
 30
0.0
 11
9.68611877250287
 21
4.515909525687196
 31
0.0
  0
LINE
  5
1AFE4
330
1AF9E
100
AcDbEntity
  8
0
  6
CONTINUOUS
100
AcDbLine
 10
9.065465192851777
 20
5.136563105338288
 30
0.0
 11
7.989834395251757
 21
6.21219390293831
 31
0.0
  0
LINE
  5
1AFE5
330
1AF9E
100
AcDbEntity
  8
0
  6
CONTINUOUS
100
AcDbLine
 10
5.993039874401719
 20
8.208988423788346
 30
0.0
 11
5.43892829819881
 21
8.763099999991255
 31
0.0
  0
LINE
  5
1AFE6
330
1AF9E
100
AcDbEntity
  8
0
  6
CONTINUOUS
100
AcDbLine
 10
11.95770871242671
 20
2.917838794843543
 30
0.0
 11
8.19801697298349
 21
6.677530534286761
 31
0.0
  0
LINE
  5
1AFE7
330
1AF9E
100
AcDbEntity
  8
0
  6
CONTINUOUS
100
AcDbLine
 10
6.291128629247495
 20
8.584418878022756
 30
0.0
 11
6.112447507278997
 21
8.763099999991255
 31
0.0
  0
LINE
  5
1AFE8
330
1AF9E
100
AcDbEntity
  8
0
  6
CONTINUOUS
100
AcDbLine
 10
11.41255625248364
 20
4.136510463866797
 30
0.0
 11
8.406199550715227
 21
7.142867165635211
 31
0.0
  0
LINE
  5
1AFE9
330
1AF9E
100
AcDbEntity
  8
0
  6
CONTINUOUS
100
AcDbLine
 10
10.86740379254057
 20
5.355182132890051
 30
0.0
 11
8.614382128446962
 21
7.608203796983664
 31
0.0
  0
LINE
  5
1AFEA
330
1AF9E
100
AcDbEntity
  8
0
  6
CONTINUOUS
100
AcDbLine
 10
10.3222513325975
 20
6.573853801913305
 30
0.0
 11
8.822564706178696
 21
8.073540428332114
 31
0.0
  0
LINE
  5
1AFEB
330
1AF9E
100
AcDbEntity
  8
0
  6
CONTINUOUS
100
AcDbLine
 10
9.777098872654436
 20
7.792525470936562
 30
0.0
 11
9.030747283910433
 21
8.538877059680566
 31
0.0
  0
ENDBLK
  5
1B12D
330
1AF9E
100
AcDbEntity
  8
0
100
AcDbBlockEnd
  0
BLOCK
  5
1B12E
330
1AFEC
100
AcDbEntity
  8
0
100
AcDbBlockBegin
  2
*X47
 70
     1
 10
0.0
 20
0.0
 30
0.0
  3
*X47
  1

  0
LINE
  5
1AFED
330
1AFEC
100
AcDbEntity
  8
0
  6
CONTINUOUS
100
AcDbLine
 10
10.67292308101235
 20
8.445076852443387
 30
0.0
 11
10.99094622856022
 21
8.763099999991255
 31
0.0
  0
LINE
  5
1AFEE
330
1AFEC
100
AcDbEntity
  8
0
  6
CONTINUOUS
100
AcDbLine
 10
10.87250383178748
 20
7.971138394138331
 30
0.0
 11
11.6644654376404
 21
8.763099999991255
 31
0.0
  0
LINE
  5
1AFEF
330
1AFEC
100
AcDbEntity
  8
0
  6
CONTINUOUS
100
AcDbLine
 10
11.07208458256261
 20
7.497199935833273
 30
0.0
 11
12.12126590876355
 21
8.546381262034211
 31
0.0
  0
LINE
  5
1AFF0
330
1AFEC
100
AcDbEntity
  8
0
  6
CONTINUOUS
100
AcDbLine
 10
11.27166533333774
 20
7.023261477528216
 30
0.0
 11
12.32085164573666
 21
8.072447789927136
 31
0.0
  0
LINE
  5
1AFF1
330
1AFEC
100
AcDbEntity
  8
0
  6
CONTINUOUS
100
AcDbLine
 10
11.47124608411287
 20
6.549323019223158
 30
0.0
 11
12.52043738270977
 21
7.59851431782006
 31
0.0
  0
LINE
  5
1AFF2
330
1AFEC
100
AcDbEntity
  8
0
  6
CONTINUOUS
100
AcDbLine
 10
11.670826834888
 20
6.075384560918101
 30
0.0
 11
12.72002311968288
 21
7.124580845712984
 31
0.0
  0
LINE
  5
1AFF3
330
1AFEC
100
AcDbEntity
  8
0
  6
CONTINUOUS
100
AcDbLine
 10
11.87040758566313
 20
5.601446102613043
 30
0.0
 11
12.91960885665599
 21
6.650647373605907
 31
0.0
  0
LINE
  5
1AFF4
330
1AFEC
100
AcDbEntity
  8
0
  6
CONTINUOUS
100
AcDbLine
 10
12.06998833643825
 20
5.127507644307986
 30
0.0
 11
13.1191945936291
 21
6.176713901498832
 31
0.0
  0
LINE
  5
1AFF5
330
1AFEC
100
AcDbEntity
  8
0
  6
CONTINUOUS
100
AcDbLine
 10
12.26956908721338
 20
4.65356918600293
 30
0.0
 11
13.31878033060221
 21
5.702780429391757
 31
0.0
  0
LINE
  5
1AFF6
330
1AFEC
100
AcDbEntity
  8
0
  6
CONTINUOUS
100
AcDbLine
 10
12.46914983798851
 20
4.179630727697873
 30
0.0
 11
13.51836606757532
 21
5.228846957284683
 31
0.0
  0
LINE
  5
1AFF7
330
1AFEC
100
AcDbEntity
  8
0
  6
CONTINUOUS
100
AcDbLine
 10
12.66873058876364
 20
3.705692269392816
 30
0.0
 11
13.71795180454843
 21
4.754913485177607
 31
0.0
  0
LINE
  5
1AFF8
330
1AFEC
100
AcDbEntity
  8
0
  6
CONTINUOUS
100
AcDbLine
 10
12.86831133953877
 20
3.231753811087759
 30
0.0
 11
13.91753754152154
 21
4.280980013070531
 31
0.0
  0
LINE
  5
1AFF9
330
1AFEC
100
AcDbEntity
  8
0
  6
CONTINUOUS
100
AcDbLine
 10
13.0678920903139
 20
2.757815352782702
 30
0.0
 11
14.11712327849465
 21
3.807046540963456
 31
0.0
  0
LINE
  5
1AFFA
330
1AFEC
100
AcDbEntity
  8
0
  6
CONTINUOUS
100
AcDbLine
 10
13.26747284108903
 20
2.283876894477644
 30
0.0
 11
14.31670901546777
 21
3.333113068856379
 31
0.0
  0
LINE
  5
1AFFB
330
1AFEC
100
AcDbEntity
  8
0
  6
CONTINUOUS
100
AcDbLine
 10
16.36767838827179
 20
8.751678487061342
 30
0.0
 11
16.50332410898388
 21
8.887324207773432
 31
0.0
  0
LINE
  5
1AFFC
330
1AFEC
100
AcDbEntity
  8
0
  6
CONTINUOUS
100
AcDbLine
 10
15.96190732182191
 20
7.67238821153127
 30
0.0
 11
16.68735328004734
 21
8.397834169756699
 31
0.0
  0
LINE
  5
1AFFD
330
1AFEC
100
AcDbEntity
  8
0
  6
CONTINUOUS
100
AcDbLine
 10
15.55613625537202
 20
6.593097936001196
 30
0.0
 11
16.87138245111079
 21
7.908344131739965
 31
0.0
  0
LINE
  5
1AFFE
330
1AFEC
100
AcDbEntity
  8
0
  6
CONTINUOUS
100
AcDbLine
 10
15.15036518892213
 20
5.513807660471122
 30
0.0
 11
17.05541162217424
 21
7.418854093723231
 31
0.0
  0
LINE
  5
1AFFF
330
1AFEC
100
AcDbEntity
  8
0
  6
CONTINUOUS
100
AcDbLine
 10
14.74459412247225
 20
4.434517384941048
 30
0.0
 11
17.2394407932377
 21
6.929364055706499
 31
0.0
  0
LINE
  5
1B000
330
1AFEC
100
AcDbEntity
  8
0
  6
CONTINUOUS
100
AcDbLine
 10
14.33882305602236
 20
3.355227109410975
 30
0.0
 11
17.42346996430115
 21
6.439874017689766
 31
0.0
  0
LINE
  5
1B001
330
1AFEC
100
AcDbEntity
  8
0
  6
CONTINUOUS
100
AcDbLine
 10
13.46705359186416
 20
1.809938436172586
 30
0.0
 11
16.0819338255367
 21
4.424818669845129
 31
0.0
  0
LINE
  5
1B002
330
1AFEC
100
AcDbEntity
  8
0
  6
CONTINUOUS
100
AcDbLine
 10
16.63283254238972
 20
4.975717386698149
 30
0.0
 11
17.60749913536461
 21
5.950383979673033
 31
0.0
  0
LINE
  5
1B003
330
1AFEC
100
AcDbEntity
  8
0
  6
CONTINUOUS
100
AcDbLine
 10
13.66663434263929
 20
1.335999977867529
 30
0.0
 11
15.67604797733754
 21
3.345413612565779
 31
0.0
  0
LINE
  5
1B004
330
1AFEC
100
AcDbEntity
  8
0
  6
CONTINUOUS
100
AcDbLine
 10
13.86621509341442
 20
0.8620615195624723
 30
0.0
 11
15.27016212913838
 21
2.26600855528643
 31
0.0
  0
LINE
  5
1B005
330
1AFEC
100
AcDbEntity
  8
0
  6
CONTINUOUS
100
AcDbLine
 10
16.81682257348267
 20
4.486188208710908
 30
0.0
 11
17.79152830642806
 21
5.460893941656299
 31
0.0
  0
LINE
  5
1B006
330
1AFEC
100
AcDbEntity
  8
0
  6
CONTINUOUS
100
AcDbLine
 10
17.00081260457561
 20
3.996659030723667
 30
0.0
 11
17.97555747749151
 21
4.971403903639565
 31
0.0
  0
LINE
  5
1B007
330
1AFEC
100
AcDbEntity
  8
0
  6
CONTINUOUS
100
AcDbLine
 10
20.74362343514722
 20
8.412989070375462
 30
0.0
 11
21.09373436476302
 21
8.763099999991256
 31
0.0
  0
LINE
  5
1B008
330
1AFEC
100
AcDbEntity
  8
0
  6
CONTINUOUS
100
AcDbLine
 10
20.25401257174777
 20
7.249858997895826
 30
0.0
 11
21.7672535738432
 21
8.763099999991255
 31
0.0
  0
LINE
  5
1B009
330
1AFEC
100
AcDbEntity
  8
0
  6
CONTINUOUS
100
AcDbLine
 10
14.06579584418955
 20
0.3881230612574149
 30
0.0
 11
14.86427628093921
 21
1.186603498007082
 31
0.0
  0
LINE
  5
1B00A
330
1AFEC
100
AcDbEntity
  8
0
  6
CONTINUOUS
100
AcDbLine
 10
14.26537659496467
 20
-0.0858153970476412
 30
0.0
 11
14.45839043274005
 21
0.1071984407277329
 31
0.0
  0
LINE
  5
1B00B
330
1AFEC
100
AcDbEntity
  8
0
  6
CONTINUOUS
100
AcDbLine
 10
17.18480263566856
 20
3.507129852736426
 30
0.0
 11
18.15958664855496
 21
4.481913865622833
 31
0.0
  0
LINE
  5
1B00C
330
1AFEC
100
AcDbEntity
  8
0
  6
CONTINUOUS
100
AcDbLine
 10
17.3687926667615
 20
3.017600674749186
 30
0.0
 11
18.34361581961842
 21
3.9924238276061
 31
0.0
  0
LINE
  5
1B00D
330
1AFEC
100
AcDbEntity
  8
0
  6
CONTINUOUS
100
AcDbLine
 10
19.76440170834832
 20
6.086728925416191
 30
0.0
 11
22.33924590259489
 21
8.661573119662755
 31
0.0
  0
LINE
  5
1B00E
330
1AFEC
100
AcDbEntity
  8
0
  6
CONTINUOUS
100
AcDbLine
 10
19.27479084494887
 20
4.923598852936555
 30
0.0
 11
21.84929622842713
 21
7.498104236414807
 31
0.0
  0
LINE
  5
1B00F
330
1AFEC
100
AcDbEntity
  8
0
  6
CONTINUOUS
100
AcDbLine
 10
17.55278269785445
 20
2.528071496761945
 30
0.0
 11
18.52764499068187
 21
3.502933789589366
 31
0.0
  0
LINE
  5
1B010
330
1AFEC
100
AcDbEntity
  8
0
  6
CONTINUOUS
100
AcDbLine
 10
18.78517998154942
 20
3.760468780456919
 30
0.0
 11
21.35934655425936
 21
6.33463535316686
 31
0.0
  0
LINE
  5
1B011
330
1AFEC
100
AcDbEntity
  8
0
  6
CONTINUOUS
100
AcDbLine
 10
17.73677272894739
 20
2.038542318774704
 30
0.0
 11
20.8693968800916
 21
5.171166469918914
 31
0.0
  0
LINE
  5
1B012
330
1AFEC
100
AcDbEntity
  8
0
  6
CONTINUOUS
100
AcDbLine
 10
17.92076276004034
 20
1.549013140787464
 30
0.0
 11
20.37944720592384
 21
4.007697586670968
 31
0.0
  0
LINE
  5
1B013
330
1AFEC
100
AcDbEntity
  8
0
  6
CONTINUOUS
100
AcDbLine
 10
18.10475279113329
 20
1.059483962800223
 30
0.0
 11
19.88949753175608
 21
2.84422870342302
 31
0.0
  0
LINE
  5
1B014
330
1AFEC
100
AcDbEntity
  8
0
  6
CONTINUOUS
100
AcDbLine
 10
18.28874282222623
 20
0.5699547848129822
 30
0.0
 11
19.39954785758832
 21
1.680759820175074
 31
0.0
  0
LINE
  5
1B015
330
1AFEC
100
AcDbEntity
  8
0
  6
CONTINUOUS
100
AcDbLine
 10
18.47273285331918
 20
0.0804256068257416
 30
0.0
 11
18.90959818342056
 21
0.517290936927127
 31
0.0
  0
LINE
  5
1B016
330
1AFEC
100
AcDbEntity
  8
0
  6
CONTINUOUS
100
AcDbLine
 10
14.3590401358224
 20
-0.1570118376323384
 30
0.0
 11
14.24903296539946
 21
-0.0470046672093929
 31
0.0
  0
LINE
  5
1B017
330
1AFEC
100
AcDbEntity
  8
0
  6
CONTINUOUS
100
AcDbLine
 10
14.54309291258661
 20
0.332454594683643
 30
0.0
 11
13.75908329123172
 21
1.116464216038529
 31
0.0
  0
LINE
  5
1B018
330
1AFEC
100
AcDbEntity
  8
0
  6
CONTINUOUS
100
AcDbLine
 10
14.72714568935081
 20
0.8219210269996244
 30
0.0
 11
13.26913361706399
 21
2.27993309928645
 31
0.0
  0
LINE
  5
1B019
330
1AFEC
100
AcDbEntity
  8
0
  6
CONTINUOUS
100
AcDbLine
 10
14.91119846611502
 20
1.311387459315606
 30
0.0
 11
12.77918394289625
 21
3.443401982534371
 31
0.0
  0
LINE
  5
1B01A
330
1AFEC
100
AcDbEntity
  8
0
  6
CONTINUOUS
100
AcDbLine
 10
15.09525124287922
 20
1.800853891631587
 30
0.0
 11
12.28923426872852
 21
4.606870865782293
 31
0.0
  0
LINE
  5
1B01B
330
1AFEC
100
AcDbEntity
  8
0
  6
CONTINUOUS
100
AcDbLine
 10
15.27930401964343
 20
2.290320323947569
 30
0.0
 11
11.79928459456078
 21
5.770339749030213
 31
0.0
  0
LINE
  5
1B01C
330
1AFEC
100
AcDbEntity
  8
0
  6
CONTINUOUS
100
AcDbLine
 10
15.46335679640763
 20
2.77978675626355
 30
0.0
 11
14.48885470994921
 21
3.754288842721972
 31
0.0
  0
LINE
  5
1B01D
330
1AFEC
100
AcDbEntity
  8
0
  6
CONTINUOUS
100
AcDbLine
 10
13.88507249233704
 20
4.358071060334137
 30
0.0
 11
11.30933492039305
 21
6.933808632278135
 31
0.0
  0
LINE
  5
1B01E
330
1AFEC
100
AcDbEntity
  8
0
  6
CONTINUOUS
100
AcDbLine
 10
18.75840522805855
 20
0.1582575336928151
 30
0.0
 11
18.25383727664818
 21
0.6628254851031863
 31
0.0
  0
LINE
  5
1B01F
330
1AFEC
100
AcDbEntity
  8
0
  6
CONTINUOUS
100
AcDbLine
 10
15.64740957317184
 20
3.269253188579531
 30
0.0
 11
14.67288388101266
 21
4.243778880738705
 31
0.0
  0
LINE
  5
1B020
330
1AFEC
100
AcDbEntity
  8
0
  6
CONTINUOUS
100
AcDbLine
 10
13.39509276772158
 20
5.521569994029786
 30
0.0
 11
10.81938524622531
 21
8.097277515526056
 31
0.0
  0
LINE
  5
1B021
330
1AFEC
100
AcDbEntity
  8
0
  6
CONTINUOUS
100
AcDbLine
 10
18.95798597883369
 20
0.6321959919978686
 30
0.0
 11
17.84825644852853
 21
1.741925522303024
 31
0.0
  0
LINE
  5
1B022
330
1AFEC
100
AcDbEntity
  8
0
  6
CONTINUOUS
100
AcDbLine
 10
19.15756672960882
 20
1.106134450302922
 30
0.0
 11
17.44267562040888
 21
2.821025559502861
 31
0.0
  0
LINE
  5
1B023
330
1AFEC
100
AcDbEntity
  8
0
  6
CONTINUOUS
100
AcDbLine
 10
15.83146234993604
 20
3.758719620895513
 30
0.0
 11
14.85691305207612
 21
4.733268918755439
 31
0.0
  0
LINE
  5
1B024
330
1AFEC
100
AcDbEntity
  8
0
  6
CONTINUOUS
100
AcDbLine
 10
16.01551512670025
 20
4.248186053211494
 30
0.0
 11
15.04094222313957
 21
5.222758956772172
 31
0.0
  0
LINE
  5
1B025
330
1AFEC
100
AcDbEntity
  8
0
  6
CONTINUOUS
100
AcDbLine
 10
12.90511304310612
 20
6.685068927725435
 30
0.0
 11
10.8270819708403
 21
8.763099999991255
 31
0.0
  0
LINE
  5
1B026
330
1AFEC
100
AcDbEntity
  8
0
  6
CONTINUOUS
100
AcDbLine
 10
12.41513331849066
 20
7.848567861421083
 30
0.0
 11
11.50060117992049
 21
8.763099999991255
 31
0.0
  0
LINE
  5
1B027
330
1AFEC
100
AcDbEntity
  8
0
  6
CONTINUOUS
100
AcDbLine
 10
19.35714748038395
 20
1.580072908607975
 30
0.0
 11
17.03709479228923
 21
3.900125596702697
 31
0.0
  0
LINE
  5
1B028
330
1AFEC
100
AcDbEntity
  8
0
  6
CONTINUOUS
100
AcDbLine
 10
19.55672823115909
 20
2.054011366913028
 30
0.0
 11
16.63151396416958
 21
4.979225633902534
 31
0.0
  0
LINE
  5
1B029
330
1AFEC
100
AcDbEntity
  8
0
  6
CONTINUOUS
100
AcDbLine
 10
16.19956790346445
 20
4.737652485527476
 30
0.0
 11
15.22497139420302
 21
5.712248994788904
 31
0.0
  0
LINE
  5
1B02A
330
1AFEC
100
AcDbEntity
  8
0
  6
CONTINUOUS
100
AcDbLine
 10
16.38362068022866
 20
5.227118917843457
 30
0.0
 11
15.40900056526648
 21
6.201739032805637
 31
0.0
  0
LINE
  5
1B02B
330
1AFEC
100
AcDbEntity
  8
0
  6
CONTINUOUS
100
AcDbLine
 10
19.75630898193422
 20
2.527949825218081
 30
0.0
 11
18.70774536448286
 21
3.576513442669441
 31
0.0
  0
LINE
  5
1B02C
330
1AFEC
100
AcDbEntity
  8
0
  6
CONTINUOUS
100
AcDbLine
 10
19.95588973270936
 20
3.001888283523134
 30
0.0
 11
18.90726987211446
 21
4.050508144118028
 31
0.0
  0
LINE
  5
1B02D
330
1AFEC
100
AcDbEntity
  8
0
  6
CONTINUOUS
100
AcDbLine
 10
20.15547048348449
 20
3.475826741828186
 30
0.0
 11
19.10679437974606
 21
4.524502845566614
 31
0.0
  0
LINE
  5
1B02E
330
1AFEC
100
AcDbEntity
  8
0
  6
CONTINUOUS
100
AcDbLine
 10
20.35505123425962
 20
3.94976520013324
 30
0.0
 11
19.30631888737766
 21
4.998497547015201
 31
0.0
  0
LINE
  5
1B02F
330
1AFEC
100
AcDbEntity
  8
0
  6
CONTINUOUS
100
AcDbLine
 10
20.55463198503475
 20
4.423703658438292
 30
0.0
 11
19.50584339500926
 21
5.472492248463787
 31
0.0
  0
LINE
  5
1B030
330
1AFEC
100
AcDbEntity
  8
0
  6
CONTINUOUS
100
AcDbLine
 10
18.37481191085755
 20
3.909446896294752
 30
0.0
 11
15.59302973632993
 21
6.691229070822371
 31
0.0
  0
LINE
  5
1B031
330
1AFEC
100
AcDbEntity
  8
0
  6
CONTINUOUS
100
AcDbLine
 10
17.96904084440766
 20
4.988737171824825
 30
0.0
 11
15.77705890739338
 21
7.180719108839104
 31
0.0
  0
LINE
  5
1B032
330
1AFEC
100
AcDbEntity
  8
0
  6
CONTINUOUS
100
AcDbLine
 10
17.56326977795777
 20
6.068027447354899
 30
0.0
 11
15.96108807845684
 21
7.670209146855838
 31
0.0
  0
LINE
  5
1B033
330
1AFEC
100
AcDbEntity
  8
0
  6
CONTINUOUS
100
AcDbLine
 10
17.15749871150789
 20
7.147317722884972
 30
0.0
 11
16.14511724952029
 21
8.15969918487257
 31
0.0
  0
LINE
  5
1B034
330
1AFEC
100
AcDbEntity
  8
0
  6
CONTINUOUS
100
AcDbLine
 10
16.751727645058
 20
8.226607998415046
 30
0.0
 11
16.32914642058374
 21
8.649189222889303
 31
0.0
  0
LINE
  5
1B035
330
1AFEC
100
AcDbEntity
  8
0
  6
CONTINUOUS
100
AcDbLine
 10
20.75421273580989
 20
4.897642116743345
 30
0.0
 11
19.70536790264086
 21
5.946486949912374
 31
0.0
  0
LINE
  5
1B036
330
1AFEC
100
AcDbEntity
  8
0
  6
CONTINUOUS
100
AcDbLine
 10
20.95379348658502
 20
5.371580575048398
 30
0.0
 11
19.90489241027246
 21
6.42048165136096
 31
0.0
  0
LINE
  5
1B037
330
1AFEC
100
AcDbEntity
  8
0
  6
CONTINUOUS
100
AcDbLine
 10
21.15337423736015
 20
5.845519033353452
 30
0.0
 11
20.10441691790406
 21
6.894476352809547
 31
0.0
  0
LINE
  5
1B038
330
1AFEC
100
AcDbEntity
  8
0
  6
CONTINUOUS
100
AcDbLine
 10
21.35295498813529
 20
6.319457491658505
 30
0.0
 11
20.30394142553566
 21
7.368471054258134
 31
0.0
  0
LINE
  5
1B039
330
1AFEC
100
AcDbEntity
  8
0
  6
CONTINUOUS
100
AcDbLine
 10
21.55253573891042
 20
6.793395949963558
 30
0.0
 11
20.50346593316726
 21
7.842465755706721
 31
0.0
  0
LINE
  5
1B03A
330
1AFEC
100
AcDbEntity
  8
0
  6
CONTINUOUS
100
AcDbLine
 10
21.75211648968556
 20
7.267334408268612
 30
0.0
 11
20.70299044079886
 21
8.316460457155308
 31
0.0
  0
LINE
  5
1B03B
330
1AFEC
100
AcDbEntity
  8
0
  6
CONTINUOUS
100
AcDbLine
 10
21.95169724046069
 20
7.741272866573663
 30
0.0
 11
20.9298701070431
 21
8.763099999991256
 31
0.0
  0
LINE
  5
1B03C
330
1AFEC
100
AcDbEntity
  8
0
  6
CONTINUOUS
100
AcDbLine
 10
22.15127799123582
 20
8.215211324878716
 30
0.0
 11
21.60338931612328
 21
8.763099999991256
 31
0.0
  0
LINE
  5
1B03D
330
1AFEC
100
AcDbEntity
  8
0
  6
CONTINUOUS
100
AcDbLine
 10
22.35085874201096
 20
8.689149783183769
 30
0.0
 11
22.27690852520347
 21
8.763099999991255
 31
0.0
  0
ENDBLK
  5
1B12F
330
1AFEC
100
AcDbEntity
  8
0
100
AcDbBlockEnd
  0
BLOCK
  5
1B130
330
1B03E
100
AcDbEntity
  8
0
100
AcDbBlockBegin
  2
*X48
 70
     1
 10
0.0
 20
0.0
 30
0.0
  3
*X48
  1

  0
LINE
  5
1B03F
330
1B03E
100
AcDbEntity
  8
0
  6
CONTINUOUS
100
AcDbLine
 10
23.19462913593892
 20
8.169917934846424
 30
0.0
 11
23.70775465517246
 21
8.683043454079957
 31
0.0
  0
LINE
  5
1B040
330
1B03E
100
AcDbEntity
  8
0
  6
CONTINUOUS
100
AcDbLine
 10
22.64923161835078
 20
6.951001208178088
 30
0.0
 11
23.9159364069932
 21
8.217705996820516
 31
0.0
  0
LINE
  5
1B041
330
1B03E
100
AcDbEntity
  8
0
  6
CONTINUOUS
100
AcDbLine
 10
22.10383410076263
 20
5.732084481509751
 30
0.0
 11
24.12411815881395
 21
7.752368539561078
 31
0.0
  0
LINE
  5
1B042
330
1B03E
100
AcDbEntity
  8
0
  6
CONTINUOUS
100
AcDbLine
 10
21.55843658317447
 20
4.513167754841414
 30
0.0
 11
24.3322999106347
 21
7.287031082301639
 31
0.0
  0
LINE
  5
1B043
330
1B03E
100
AcDbEntity
  8
0
  6
CONTINUOUS
100
AcDbLine
 10
21.01303906558632
 20
3.294251028173077
 30
0.0
 11
24.54048166245544
 21
6.821693625042199
 31
0.0
  0
LINE
  5
1B044
330
1B03E
100
AcDbEntity
  8
0
  6
CONTINUOUS
100
AcDbLine
 10
20.46764154799817
 20
2.075334301504738
 30
0.0
 11
23.28571549467848
 21
4.89340824818505
 31
0.0
  0
LINE
  5
1B045
330
1B03E
100
AcDbEntity
  8
0
  6
CONTINUOUS
100
AcDbLine
 10
19.92224403041002
 20
0.8564175748364002
 30
0.0
 11
22.74075865492779
 21
3.674932199354171
 31
0.0
  0
LINE
  5
1B046
330
1B03E
100
AcDbEntity
  8
0
  6
CONTINUOUS
100
AcDbLine
 10
23.67305085490148
 20
5.280743608408048
 30
0.0
 11
24.74866341427619
 21
6.356356167782759
 31
0.0
  0
LINE
  5
1B047
330
1B03E
100
AcDbEntity
  8
0
  6
CONTINUOUS
100
AcDbLine
 10
23.88118970842314
 20
4.815363252849522
 30
0.0
 11
24.95684516609694
 21
5.89101871052332
 31
0.0
  0
LINE
  5
1B048
330
1B03E
100
AcDbEntity
  8
0
  6
CONTINUOUS
100
AcDbLine
 10
19.73925852647308
 20
-0.0000871381807288
 30
0.0
 11
23.4103456646501
 21
3.670999999996297
 31
0.0
  0
LINE
  5
1B049
330
1B03E
100
AcDbEntity
  8
0
  6
CONTINUOUS
100
AcDbLine
 10
24.0893285619448
 20
4.349982897290997
 30
0.0
 11
25.16502691791769
 21
5.42568125326388
 31
0.0
  0
LINE
  5
1B04A
330
1B03E
100
AcDbEntity
  8
0
  6
CONTINUOUS
100
AcDbLine
 10
20.41282099582748
 20
-0.0000438779065108
 30
0.0
 11
21.64944178675636
 21
1.236576913022366
 31
0.0
  0
LINE
  5
1B04B
330
1B03E
100
AcDbEntity
  8
0
  6
CONTINUOUS
100
AcDbLine
 10
22.78126487373161
 20
2.36839999999762
 30
0.0
 11
24.08386487373029
 21
3.670999999996297
 31
0.0
  0
LINE
  5
1B04C
330
1B03E
100
AcDbEntity
  8
0
  6
CONTINUOUS
100
AcDbLine
 10
24.29746741546646
 20
3.884602541732471
 30
0.0
 11
25.37320866973843
 21
4.960343796004441
 31
0.0
  0
LINE
  5
1B04D
330
1B03E
100
AcDbEntity
  8
0
  6
CONTINUOUS
100
AcDbLine
 10
21.08638346518189
 20
-0.0000006176322938
 30
0.0
 11
21.10379033335899
 21
0.0174062505448083
 31
0.0
  0
LINE
  5
1B04E
330
1B03E
100
AcDbEntity
  8
0
  6
CONTINUOUS
100
AcDbLine
 10
23.4547840828118
 20
2.36839999999762
 30
0.0
 11
25.58139042155918
 21
4.495006338745002
 31
0.0
  0
LINE
  5
1B04F
330
1B03E
100
AcDbEntity
  8
0
  6
CONTINUOUS
100
AcDbLine
 10
29.30199999996933
 20
8.215615917155148
 30
0.0
 11
29.84948408280543
 21
8.763099999991255
 31
0.0
  0
LINE
  5
1B050
330
1B03E
100
AcDbEntity
  8
0
  6
CONTINUOUS
100
AcDbLine
 10
24.12830329189199
 20
2.36839999999762
 30
0.0
 11
25.78957217337993
 21
4.029668881485562
 31
0.0
  0
LINE
  5
1B051
330
1B03E
100
AcDbEntity
  8
0
  6
CONTINUOUS
100
AcDbLine
 10
29.30199999996933
 20
7.54209670807496
 30
0.0
 11
30.52300329188562
 21
8.763099999991255
 31
0.0
  0
LINE
  5
1B052
330
1B03E
100
AcDbEntity
  8
0
  6
CONTINUOUS
100
AcDbLine
 10
24.80182250097217
 20
2.36839999999762
 30
0.0
 11
25.99775392520067
 21
3.564331424226122
 31
0.0
  0
LINE
  5
1B053
330
1B03E
100
AcDbEntity
  8
0
  6
CONTINUOUS
100
AcDbLine
 10
29.30199999996933
 20
6.868577498994774
 30
0.0
 11
30.74199999996926
 21
8.308577498994712
 31
0.0
  0
LINE
  5
1B054
330
1B03E
100
AcDbEntity
  8
0
  6
CONTINUOUS
100
AcDbLine
 10
25.13028238392013
 20
2.023340673865392
 30
0.0
 11
26.20593567702142
 21
3.098993966966683
 31
0.0
  0
LINE
  5
1B055
330
1B03E
100
AcDbEntity
  8
0
  6
CONTINUOUS
100
AcDbLine
 10
25.33838066033617
 20
1.557919741201244
 30
0.0
 11
26.41411742884217
 21
2.633656509707244
 31
0.0
  0
LINE
  5
1B056
330
1B03E
100
AcDbEntity
  8
0
  6
CONTINUOUS
100
AcDbLine
 10
25.54647893675221
 20
1.092498808537098
 30
0.0
 11
26.62229918066291
 21
2.168319052447804
 31
0.0
  0
LINE
  5
1B057
330
1B03E
100
AcDbEntity
  8
0
  6
CONTINUOUS
100
AcDbLine
 10
25.75457721316825
 20
0.62707787587295
 30
0.0
 11
26.83048093248366
 21
1.702981595188365
 31
0.0
  0
LINE
  5
1B058
330
1B03E
100
AcDbEntity
  8
0
  6
CONTINUOUS
100
AcDbLine
 10
29.30199999996933
 20
6.195058289914587
 30
0.0
 11
30.74199999996926
 21
7.635058289914522
 31
0.0
  0
LINE
  5
1B059
330
1B03E
100
AcDbEntity
  8
0
  6
CONTINUOUS
100
AcDbLine
 10
29.30199999996933
 20
5.521539080834401
 30
0.0
 11
30.74199999996926
 21
6.961539080834331
 31
0.0
  0
LINE
  5
1B05A
330
1B03E
100
AcDbEntity
  8
0
  6
CONTINUOUS
100
AcDbLine
 10
29.30199999996933
 20
4.848019871754214
 30
0.0
 11
30.74199999996925
 21
6.288019871754143
 31
0.0
  0
LINE
  5
1B05B
330
1B03E
100
AcDbEntity
  8
0
  6
CONTINUOUS
100
AcDbLine
 10
29.30199999996933
 20
4.174500662674028
 30
0.0
 11
30.74199999996925
 21
5.614500662673953
 31
0.0
  0
LINE
  5
1B05C
330
1B03E
100
AcDbEntity
  8
0
  6
CONTINUOUS
100
AcDbLine
 10
25.96267548958429
 20
0.1616569432088024
 30
0.0
 11
27.18411854636669
 21
1.383099999991207
 31
0.0
  0
LINE
  5
1B05D
330
1B03E
100
AcDbEntity
  8
0
  6
CONTINUOUS
100
AcDbLine
 10
29.30199999996933
 20
3.500981453593841
 30
0.0
 11
30.74199999996925
 21
4.940981453593762
 31
0.0
  0
LINE
  5
1B05E
330
1B03E
100
AcDbEntity
  8
0
  6
CONTINUOUS
100
AcDbLine
 10
26.50763775544691
 20
0.0330999999912356
 30
0.0
 11
27.85763775544689
 21
1.383099999991223
 31
0.0
  0
LINE
  5
1B05F
330
1B03E
100
AcDbEntity
  8
0
  6
CONTINUOUS
100
AcDbLine
 10
29.30199999996933
 20
2.827462244513656
 30
0.0
 11
30.74199999996925
 21
4.267462244513574
 31
0.0
  0
LINE
  5
1B060
330
1B03E
100
AcDbEntity
  8
0
  6
CONTINUOUS
100
AcDbLine
 10
27.18115696452709
 20
0.0330999999912356
 30
0.0
 11
28.55073879889363
 21
1.402681834357775
 31
0.0
  0
LINE
  5
1B061
330
1B03E
100
AcDbEntity
  8
0
  6
CONTINUOUS
100
AcDbLine
 10
29.28241816560272
 20
2.134361201066866
 30
0.0
 11
30.74199999996924
 21
3.593943035433383
 31
0.0
  0
LINE
  5
1B062
330
1B03E
100
AcDbEntity
  8
0
  6
CONTINUOUS
100
AcDbLine
 10
27.85467617360728
 20
0.0330999999912356
 30
0.0
 11
30.74199999996924
 21
2.920423826353195
 31
0.0
  0
LINE
  5
1B063
330
1B03E
100
AcDbEntity
  8
0
  6
CONTINUOUS
100
AcDbLine
 10
28.53897559587887
 20
0.0438802131826428
 30
0.0
 11
30.73121978677781
 21
2.236124404081585
 31
0.0
  0
LINE
  5
1B064
330
1B03E
100
AcDbEntity
  8
0
  6
CONTINUOUS
100
AcDbLine
 10
29.45140055588722
 20
0.2827859641107988
 30
0.0
 11
30.49231403584965
 21
1.323699444073236
 31
0.0
  0
LINE
  5
1B065
330
1B03E
100
AcDbEntity
  8
0
  6
CONTINUOUS
100
AcDbLine
 10
19.59027867740337
 20
-0.0000967065718083
 30
0.0
 11
19.55485265190471
 21
0.035329318926844
 31
0.0
  0
LINE
  5
1B066
330
1B03E
100
AcDbEntity
  8
0
  6
CONTINUOUS
100
AcDbLine
 10
20.26375463176586
 20
-0.0000534518541091
 30
0.0
 11
19.76305575737534
 21
0.5006454225364014
 31
0.0
  0
LINE
  5
1B067
330
1B03E
100
AcDbEntity
  8
0
  6
CONTINUOUS
100
AcDbLine
 10
20.93723058612834
 20
-0.0000101971364099
 30
0.0
 11
19.97125886284597
 21
0.965961526145958
 31
0.0
  0
LINE
  5
1B068
330
1B03E
100
AcDbEntity
  8
0
  6
CONTINUOUS
100
AcDbLine
 10
21.25514828313686
 20
0.355591314935257
 30
0.0
 11
20.1794619683166
 21
1.431277629755512
 31
0.0
  0
LINE
  5
1B069
330
1B03E
100
AcDbEntity
  8
0
  6
CONTINUOUS
100
AcDbLine
 10
21.46338838394921
 20
0.8208704232030986
 30
0.0
 11
20.38766507378723
 21
1.896593733365069
 31
0.0
  0
LINE
  5
1B06A
330
1B03E
100
AcDbEntity
  8
0
  6
CONTINUOUS
100
AcDbLine
 10
21.67162848476155
 20
1.28614953147094
 30
0.0
 11
20.59586817925786
 21
2.361909836974626
 31
0.0
  0
LINE
  5
1B06B
330
1B03E
100
AcDbEntity
  8
0
  6
CONTINUOUS
100
AcDbLine
 10
21.8798685855739
 20
1.751428639738782
 30
0.0
 11
20.80407128472849
 21
2.827225940584183
 31
0.0
  0
LINE
  5
1B06C
330
1B03E
100
AcDbEntity
  8
0
  6
CONTINUOUS
100
AcDbLine
 10
22.08810868638624
 20
2.216707748006623
 30
0.0
 11
21.01227439019912
 21
3.292542044193739
 31
0.0
  0
LINE
  5
1B06D
330
1B03E
100
AcDbEntity
  8
0
  6
CONTINUOUS
100
AcDbLine
 10
22.60993564347543
 20
2.36839999999762
 30
0.0
 11
21.22047749566975
 21
3.757858147803296
 31
0.0
  0
LINE
  5
1B06E
330
1B03E
100
AcDbEntity
  8
0
  6
CONTINUOUS
100
AcDbLine
 10
23.28345485255561
 20
2.36839999999762
 30
0.0
 11
21.42868060114038
 21
4.223174251412853
 31
0.0
  0
LINE
  5
1B06F
330
1B03E
100
AcDbEntity
  8
0
  6
CONTINUOUS
100
AcDbLine
 10
26.29227406164219
 20
0.0330999999912356
 30
0.0
 11
25.80009199592872
 21
0.5252820657046957
 31
0.0
  0
LINE
  5
1B070
330
1B03E
100
AcDbEntity
  8
0
  6
CONTINUOUS
100
AcDbLine
 10
23.9569740616358
 20
2.36839999999762
 30
0.0
 11
21.63688370661101
 21
4.688490355022409
 31
0.0
  0
LINE
  5
1B071
330
1B03E
100
AcDbEntity
  8
0
  6
CONTINUOUS
100
AcDbLine
 10
26.96579327072237
 20
0.0330999999912356
 30
0.0
 11
25.2554132311971
 21
1.743480039516508
 31
0.0
  0
LINE
  5
1B072
330
1B03E
100
AcDbEntity
  8
0
  6
CONTINUOUS
100
AcDbLine
 10
24.63049327071599
 20
2.36839999999762
 30
0.0
 11
23.32789327071731
 21
3.670999999996297
 31
0.0
  0
LINE
  5
1B073
330
1B03E
100
AcDbEntity
  8
0
  6
CONTINUOUS
100
AcDbLine
 10
22.92098674744635
 20
4.077906523267254
 30
0.0
 11
21.84508681208164
 21
5.153806458631966
 31
0.0
  0
LINE
  5
1B074
330
1B03E
100
AcDbEntity
  8
0
  6
CONTINUOUS
100
AcDbLine
 10
27.63931247980256
 20
0.0330999999912356
 30
0.0
 11
24.0014124797975
 21
3.670999999996297
 31
0.0
  0
LINE
  5
1B075
330
1B03E
100
AcDbEntity
  8
0
  6
CONTINUOUS
100
AcDbLine
 10
23.129125600968
 20
4.5432868788258
 30
0.0
 11
22.05328991755227
 21
5.619122562241522
 31
0.0
  0
LINE
  5
1B076
330
1B03E
100
AcDbEntity
  8
0
  6
CONTINUOUS
100
AcDbLine
 10
28.31283168888275
 20
0.0330999999912356
 30
0.0
 11
24.16488385994816
 21
4.181047828925828
 31
0.0
  0
LINE
  5
1B077
330
1B03E
100
AcDbEntity
  8
0
  6
CONTINUOUS
100
AcDbLine
 10
23.33726445448964
 20
5.008667234384345
 30
0.0
 11
22.2614930230229
 21
6.084438665851079
 31
0.0
  0
LINE
  5
1B078
330
1B03E
100
AcDbEntity
  8
0
  6
CONTINUOUS
100
AcDbLine
 10
28.92085740005492
 20
0.0985934978992438
 30
0.0
 11
27.63635089796295
 21
1.383099999991217
 31
0.0
  0
LINE
  5
1B079
330
1B03E
100
AcDbEntity
  8
0
  6
CONTINUOUS
100
AcDbLine
 10
26.43704649509776
 20
2.582404402856405
 30
0.0
 11
23.61992702019732
 21
5.399523877756844
 31
0.0
  0
LINE
  5
1B07A
330
1B03E
100
AcDbEntity
  8
0
  6
CONTINUOUS
100
AcDbLine
 10
23.54540330801128
 20
5.47404758994289
 30
0.0
 11
22.46969612849353
 21
6.549754769460635
 31
0.0
  0
LINE
  5
1B07B
330
1B03E
100
AcDbEntity
  8
0
  6
CONTINUOUS
100
AcDbLine
 10
29.42225615078443
 20
0.2707139562499279
 30
0.0
 11
28.30987010704312
 21
1.383099999991234
 31
0.0
  0
LINE
  5
1B07C
330
1B03E
100
AcDbEntity
  8
0
  6
CONTINUOUS
100
AcDbLine
 10
25.89179548232307
 20
3.801174624711282
 30
0.0
 11
22.67789923396416
 21
7.015070873070191
 31
0.0
  0
LINE
  5
1B07D
330
1B03E
100
AcDbEntity
  8
0
  6
CONTINUOUS
100
AcDbLine
 10
29.83624534690007
 20
0.5302439692144705
 30
0.0
 11
28.85811781497101
 21
1.508371501143527
 31
0.0
  0
LINE
  5
1B07E
330
1B03E
100
AcDbEntity
  8
0
  6
CONTINUOUS
100
AcDbLine
 10
25.34654446954838
 20
5.01994484656616
 30
0.0
 11
22.88610233943479
 21
7.480386976679748
 31
0.0
  0
LINE
  5
1B07F
330
1B03E
100
AcDbEntity
  8
0
  6
CONTINUOUS
100
AcDbLine
 10
30.17865975401872
 20
0.8613487711760022
 30
0.0
 11
29.18888744090175
 21
1.851121084292977
 31
0.0
  0
LINE
  5
1B080
330
1B03E
100
AcDbEntity
  8
0
  6
CONTINUOUS
100
AcDbLine
 10
24.80129345677369
 20
6.238715068421037
 30
0.0
 11
23.09430544490542
 21
7.945703080289305
 31
0.0
  0
LINE
  5
1B081
330
1B03E
100
AcDbEntity
  8
0
  6
CONTINUOUS
100
AcDbLine
 10
30.45496647202376
 20
1.258561262251155
 30
0.0
 11
29.30199999996933
 21
2.411527734305588
 31
0.0
  0
LINE
  5
1B082
330
1B03E
100
AcDbEntity
  8
0
  6
CONTINUOUS
100
AcDbLine
 10
24.256042443999
 20
7.457485290275915
 30
0.0
 11
23.30250855037605
 21
8.411019183898862
 31
0.0
  0
LINE
  5
1B083
330
1B03E
100
AcDbEntity
  8
0
  6
CONTINUOUS
100
AcDbLine
 10
30.64868582078271
 20
1.738361122572387
 30
0.0
 11
29.30199999996933
 21
3.085046943385775
 31
0.0
  0
LINE
  5
1B084
330
1B03E
100
AcDbEntity
  8
0
  6
CONTINUOUS
100
AcDbLine
 10
23.71079143122431
 20
8.676255512130794
 30
0.0
 11
23.51071165584668
 21
8.876335287508416
 31
0.0
  0
LINE
  5
1B085
330
1B03E
100
AcDbEntity
  8
0
  6
CONTINUOUS
100
AcDbLine
 10
30.73802122914428
 20
2.322544923291007
 30
0.0
 11
29.30199999996933
 21
3.758566152465961
 31
0.0
  0
LINE
  5
1B086
330
1B03E
100
AcDbEntity
  8
0
  6
CONTINUOUS
100
AcDbLine
 10
30.74199999996924
 20
2.992085361546236
 30
0.0
 11
29.30199999996933
 21
4.432085361546148
 31
0.0
  0
LINE
  5
1B087
330
1B03E
100
AcDbEntity
  8
0
  6
CONTINUOUS
100
AcDbLine
 10
30.74199999996924
 20
3.665604570626419
 30
0.0
 11
29.30199999996933
 21
5.105604570626333
 31
0.0
  0
LINE
  5
1B088
330
1B03E
100
AcDbEntity
  8
0
  6
CONTINUOUS
100
AcDbLine
 10
30.74199999996925
 20
4.339123779706602
 30
0.0
 11
29.30199999996933
 21
5.77912377970652
 31
0.0
  0
LINE
  5
1B089
330
1B03E
100
AcDbEntity
  8
0
  6
CONTINUOUS
100
AcDbLine
 10
30.74199999996925
 20
5.012642988786785
 30
0.0
 11
29.30199999996933
 21
6.452642988786707
 31
0.0
  0
LINE
  5
1B08A
330
1B03E
100
AcDbEntity
  8
0
  6
CONTINUOUS
100
AcDbLine
 10
30.74199999996925
 20
5.68616219786697
 30
0.0
 11
29.30199999996933
 21
7.126162197866894
 31
0.0
  0
LINE
  5
1B08B
330
1B03E
100
AcDbEntity
  8
0
  6
CONTINUOUS
100
AcDbLine
 10
30.74199999996925
 20
6.359681406947153
 30
0.0
 11
29.30199999996933
 21
7.799681406947081
 31
0.0
  0
LINE
  5
1B08C
330
1B03E
100
AcDbEntity
  8
0
  6
CONTINUOUS
100
AcDbLine
 10
30.74199999996926
 20
7.033200616027337
 30
0.0
 11
29.30199999996933
 21
8.473200616027269
 31
0.0
  0
LINE
  5
1B08D
330
1B03E
100
AcDbEntity
  8
0
  6
CONTINUOUS
100
AcDbLine
 10
30.74199999996926
 20
7.706719825107518
 30
0.0
 11
29.68561982508552
 21
8.763099999991255
 31
0.0
  0
LINE
  5
1B08E
330
1B03E
100
AcDbEntity
  8
0
  6
CONTINUOUS
100
AcDbLine
 10
30.74199999996926
 20
8.380239034187703
 30
0.0
 11
30.35913903416571
 21
8.763099999991255
 31
0.0
  0
ENDBLK
  5
1B131
330
1B03E
100
AcDbEntity
  8
0
100
AcDbBlockEnd
  0
BLOCK
  5
1B132
330
1B08F
100
AcDbEntity
  8
0
100
AcDbBlockBegin
  2
*X49
 70
     1
 10
0.0
 20
0.0
 30
0.0
  3
*X49
  1

  0
LINE
  5
1B090
330
1B08F
100
AcDbEntity
  8
0
  6
CONTINUOUS
100
AcDbLine
 10
31.64199999996833
 20
8.535058289913598
 30
0.0
 11
31.87004171004599
 21
8.763099999991255
 31
0.0
  0
LINE
  5
1B091
330
1B08F
100
AcDbEntity
  8
0
  6
CONTINUOUS
100
AcDbLine
 10
31.64199999996833
 20
7.861539080833412
 30
0.0
 11
32.54356091912618
 21
8.763099999991255
 31
0.0
  0
LINE
  5
1B092
330
1B08F
100
AcDbEntity
  8
0
  6
CONTINUOUS
100
AcDbLine
 10
31.64199999996833
 20
7.188019871753226
 30
0.0
 11
33.08199999996839
 21
8.628019871753281
 31
0.0
  0
LINE
  5
1B093
330
1B08F
100
AcDbEntity
  8
0
  6
CONTINUOUS
100
AcDbLine
 10
31.64199999996833
 20
6.51450066267304
 30
0.0
 11
33.08199999996839
 21
7.954500662673095
 31
0.0
  0
LINE
  5
1B094
330
1B08F
100
AcDbEntity
  8
0
  6
CONTINUOUS
100
AcDbLine
 10
31.64199999996833
 20
5.840981453592853
 30
0.0
 11
33.08199999996839
 21
7.280981453592908
 31
0.0
  0
LINE
  5
1B095
330
1B08F
100
AcDbEntity
  8
0
  6
CONTINUOUS
100
AcDbLine
 10
31.64199999996833
 20
5.167462244512667
 30
0.0
 11
33.08199999996839
 21
6.607462244512721
 31
0.0
  0
LINE
  5
1B096
330
1B08F
100
AcDbEntity
  8
0
  6
CONTINUOUS
100
AcDbLine
 10
31.64199999996833
 20
4.493943035432481
 30
0.0
 11
33.08199999996839
 21
5.933943035432535
 31
0.0
  0
LINE
  5
1B097
330
1B08F
100
AcDbEntity
  8
0
  6
CONTINUOUS
100
AcDbLine
 10
31.64199999996833
 20
3.820423826352293
 30
0.0
 11
33.08199999996839
 21
5.260423826352348
 31
0.0
  0
LINE
  5
1B098
330
1B08F
100
AcDbEntity
  8
0
  6
CONTINUOUS
100
AcDbLine
 10
31.64199999996833
 20
3.146904617272106
 30
0.0
 11
33.08199999996839
 21
4.586904617272161
 31
0.0
  0
LINE
  5
1B099
330
1B08F
100
AcDbEntity
  8
0
  6
CONTINUOUS
100
AcDbLine
 10
36.23199999996837
 20
8.410423826352325
 30
0.0
 11
36.5846761736073
 21
8.763099999991255
 31
0.0
  0
LINE
  5
1B09A
330
1B08F
100
AcDbEntity
  8
0
  6
CONTINUOUS
100
AcDbLine
 10
36.23199999996837
 20
7.73690461727214
 30
0.0
 11
37.25819538268748
 21
8.763099999991255
 31
0.0
  0
LINE
  5
1B09B
330
1B08F
100
AcDbEntity
  8
0
  6
CONTINUOUS
100
AcDbLine
 10
31.64257403601376
 20
2.473959444237348
 30
0.0
 11
33.08199999996839
 21
3.913385408191974
 31
0.0
  0
LINE
  5
1B09C
330
1B08F
100
AcDbEntity
  8
0
  6
CONTINUOUS
100
AcDbLine
 10
36.23199999996837
 20
7.063385408191953
 30
0.0
 11
37.67199999996831
 21
8.503385408191894
 31
0.0
  0
LINE
  5
1B09D
330
1B08F
100
AcDbEntity
  8
0
  6
CONTINUOUS
100
AcDbLine
 10
31.72013636841932
 20
1.87800256756272
 30
0.0
 11
33.08199999996839
 21
3.239866199111788
 31
0.0
  0
LINE
  5
1B09E
330
1B08F
100
AcDbEntity
  8
0
  6
CONTINUOUS
100
AcDbLine
 10
36.23199999996837
 20
6.389866199111767
 30
0.0
 11
37.67199999996831
 21
7.829866199111708
 31
0.0
  0
LINE
  5
1B09F
330
1B08F
100
AcDbEntity
  8
0
  6
CONTINUOUS
100
AcDbLine
 10
31.89042734314753
 20
1.374774333210744
 30
0.0
 11
33.08199999996839
 21
2.566346990031601
 31
0.0
  0
LINE
  5
1B0A0
330
1B08F
100
AcDbEntity
  8
0
  6
CONTINUOUS
100
AcDbLine
 10
36.23199999996837
 20
5.71634699003158
 30
0.0
 11
37.67199999996831
 21
7.156346990031521
 31
0.0
  0
LINE
  5
1B0A1
330
1B08F
100
AcDbEntity
  8
0
  6
CONTINUOUS
100
AcDbLine
 10
32.14210568064475
 20
0.952933461627778
 30
0.0
 11
33.18745552475986
 21
1.998283305742888
 31
0.0
  0
LINE
  5
1B0A2
330
1B08F
100
AcDbEntity
  8
0
  6
CONTINUOUS
100
AcDbLine
 10
36.23199999996837
 20
5.042827780951393
 30
0.0
 11
37.67199999996831
 21
6.482827780951334
 31
0.0
  0
LINE
  5
1B0A3
330
1B08F
100
AcDbEntity
  8
0
  6
CONTINUOUS
100
AcDbLine
 10
32.45820639400955
 20
0.5955149659123915
 30
0.0
 11
33.47242681921943
 21
1.60973539112227
 31
0.0
  0
LINE
  5
1B0A4
330
1B08F
100
AcDbEntity
  8
0
  6
CONTINUOUS
100
AcDbLine
 10
36.23199999996837
 20
4.369308571871207
 30
0.0
 11
37.67199999996831
 21
5.809308571871147
 31
0.0
  0
LINE
  5
1B0A5
330
1B08F
100
AcDbEntity
  8
0
  6
CONTINUOUS
100
AcDbLine
 10
32.83432456621412
 20
0.2981139290367771
 30
0.0
 11
33.89722476612215
 21
1.361014128944803
 31
0.0
  0
LINE
  5
1B0A6
330
1B08F
100
AcDbEntity
  8
0
  6
CONTINUOUS
100
AcDbLine
 10
36.23199999996837
 20
3.69578936279102
 30
0.0
 11
37.67199999996831
 21
5.135789362790962
 31
0.0
  0
LINE
  5
1B0A7
330
1B08F
100
AcDbEntity
  8
0
  6
CONTINUOUS
100
AcDbLine
 10
33.2711633111245
 20
0.0614334648669672
 30
0.0
 11
34.43247338014423
 21
1.222743533886696
 31
0.0
  0
LINE
  5
1B0A8
330
1B08F
100
AcDbEntity
  8
0
  6
CONTINUOUS
100
AcDbLine
 10
36.23199999996837
 20
3.022270153710834
 30
0.0
 11
37.67199999996831
 21
4.462270153710775
 31
0.0
  0
LINE
  5
1B0A9
330
1B08F
100
AcDbEntity
  8
0
  6
CONTINUOUS
100
AcDbLine
 10
33.76515245874577
 20
-0.1180965965919523
 30
0.0
 11
35.1587445516215
 21
1.27549549628378
 31
0.0
  0
LINE
  5
1B0AA
330
1B08F
100
AcDbEntity
  8
0
  6
CONTINUOUS
100
AcDbLine
 10
36.21639478609585
 20
2.333145730758136
 30
0.0
 11
37.67199999996831
 21
3.788750944630588
 31
0.0
  0
LINE
  5
1B0AB
330
1B08F
100
AcDbEntity
  8
0
  6
CONTINUOUS
100
AcDbLine
 10
34.34060583368432
 20
-0.2161624307335863
 30
0.0
 11
37.67199999996831
 21
3.115231735550401
 31
0.0
  0
LINE
  5
1B0AC
330
1B08F
100
AcDbEntity
  8
0
  6
CONTINUOUS
100
AcDbLine
 10
35.01698193613905
 20
-0.2133055373590427
 30
0.0
 11
37.66876712070525
 21
2.438479647207154
 31
0.0
  0
LINE
  5
1B0AD
330
1B08F
100
AcDbEntity
  8
0
  6
CONTINUOUS
100
AcDbLine
 10
35.90743367693304
 20
0.0036269943547609
 30
0.0
 11
37.51723902192366
 21
1.613432339345381
 31
0.0
  0
LINE
  5
1B0AE
330
1B08F
100
AcDbEntity
  8
0
  6
CONTINUOUS
100
AcDbLine
 10
32.55309425579761
 20
0.5074718966376706
 30
0.0
 11
32.27784730925847
 21
0.7827188431768102
 31
0.0
  0
LINE
  5
1B0AF
330
1B08F
100
AcDbEntity
  8
0
  6
CONTINUOUS
100
AcDbLine
 10
33.87496468909684
 20
-0.1408793275813673
 30
0.0
 11
31.67993083278052
 21
2.054154528734943
 31
0.0
  0
LINE
  5
1B0B0
330
1B08F
100
AcDbEntity
  8
0
  6
CONTINUOUS
100
AcDbLine
 10
34.64362813207632
 20
-0.2360235614806649
 30
0.0
 11
31.64199999996833
 21
2.765604570627322
 31
0.0
  0
LINE
  5
1B0B1
330
1B08F
100
AcDbEntity
  8
0
  6
CONTINUOUS
100
AcDbLine
 10
35.25801106796118
 20
-0.1768872882853429
 30
0.0
 11
31.64199999996833
 21
3.439123779707508
 31
0.0
  0
LINE
  5
1B0B2
330
1B08F
100
AcDbEntity
  8
0
  6
CONTINUOUS
100
AcDbLine
 10
35.79065650332146
 20
-0.0360135145654361
 30
0.0
 11
34.54143210838231
 21
1.213210880373721
 31
0.0
  0
LINE
  5
1B0B3
330
1B08F
100
AcDbEntity
  8
0
  6
CONTINUOUS
100
AcDbLine
 10
33.08199999996839
 20
2.67264298878764
 30
0.0
 11
31.64199999996833
 21
4.112642988787695
 31
0.0
  0
LINE
  5
1B0B4
330
1B08F
100
AcDbEntity
  8
0
  6
CONTINUOUS
100
AcDbLine
 10
36.25975597779143
 20
0.1684062200447833
 30
0.0
 11
35.15395110240023
 21
1.274211095435983
 31
0.0
  0
LINE
  5
1B0B5
330
1B08F
100
AcDbEntity
  8
0
  6
CONTINUOUS
100
AcDbLine
 10
33.08199999996839
 20
3.346162197867826
 30
0.0
 11
31.64199999996833
 21
4.786162197867881
 31
0.0
  0
LINE
  5
1B0B6
330
1B08F
100
AcDbEntity
  8
0
  6
CONTINUOUS
100
AcDbLine
 10
36.67226329638774
 20
0.4294181105286579
 30
0.0
 11
35.63766478748767
 21
1.464016619428737
 31
0.0
  0
LINE
  5
1B0B7
330
1B08F
100
AcDbEntity
  8
0
  6
CONTINUOUS
100
AcDbLine
 10
33.08199999996839
 20
4.019681406948012
 30
0.0
 11
31.64199999996833
 21
5.459681406948068
 31
0.0
  0
LINE
  5
1B0B8
330
1B08F
100
AcDbEntity
  8
0
  6
CONTINUOUS
100
AcDbLine
 10
37.01677749710036
 20
0.7584231188962329
 30
0.0
 11
35.99563422741351
 21
1.779566388583076
 31
0.0
  0
LINE
  5
1B0B9
330
1B08F
100
AcDbEntity
  8
0
  6
CONTINUOUS
100
AcDbLine
 10
33.08199999996839
 20
4.693200616028199
 30
0.0
 11
31.64199999996833
 21
6.133200616028255
 31
0.0
  0
LINE
  5
1B0BA
330
1B08F
100
AcDbEntity
  8
0
  6
CONTINUOUS
100
AcDbLine
 10
37.29859977568887
 20
1.1501200493879
 30
0.0
 11
36.20680593341555
 21
2.241913891661226
 31
0.0
  0
LINE
  5
1B0BB
330
1B08F
100
AcDbEntity
  8
0
  6
CONTINUOUS
100
AcDbLine
 10
33.08199999996839
 20
5.366719825108386
 30
0.0
 11
31.64199999996833
 21
6.80671982510844
 31
0.0
  0
LINE
  5
1B0BC
330
1B08F
100
AcDbEntity
  8
0
  6
CONTINUOUS
100
AcDbLine
 10
37.5148623517228
 20
1.607376682434161
 30
0.0
 11
36.23199999996837
 21
2.890239034188594
 31
0.0
  0
LINE
  5
1B0BD
330
1B08F
100
AcDbEntity
  8
0
  6
CONTINUOUS
100
AcDbLine
 10
33.08199999996839
 20
6.040239034188573
 30
0.0
 11
31.64199999996833
 21
7.480239034188627
 31
0.0
  0
LINE
  5
1B0BE
330
1B08F
100
AcDbEntity
  8
0
  6
CONTINUOUS
100
AcDbLine
 10
37.64705163358367
 20
2.148706609653477
 30
0.0
 11
36.23199999996837
 21
3.56375824326878
 31
0.0
  0
LINE
  5
1B0BF
330
1B08F
100
AcDbEntity
  8
0
  6
CONTINUOUS
100
AcDbLine
 10
33.08199999996839
 20
6.713758243268758
 30
0.0
 11
31.64199999996833
 21
8.153758243268815
 31
0.0
  0
LINE
  5
1B0C0
330
1B08F
100
AcDbEntity
  8
0
  6
CONTINUOUS
100
AcDbLine
 10
37.67199999996831
 20
2.797277452349026
 30
0.0
 11
36.23199999996837
 21
4.237277452348967
 31
0.0
  0
LINE
  5
1B0C1
330
1B08F
100
AcDbEntity
  8
0
  6
CONTINUOUS
100
AcDbLine
 10
37.67199999996831
 20
3.470796661429213
 30
0.0
 11
36.23199999996837
 21
4.910796661429154
 31
0.0
  0
LINE
  5
1B0C2
330
1B08F
100
AcDbEntity
  8
0
  6
CONTINUOUS
100
AcDbLine
 10
37.67199999996831
 20
4.144315870509399
 30
0.0
 11
36.23199999996837
 21
5.58431587050934
 31
0.0
  0
LINE
  5
1B0C3
330
1B08F
100
AcDbEntity
  8
0
  6
CONTINUOUS
100
AcDbLine
 10
33.08199999996839
 20
7.387277452348945
 30
0.0
 11
31.70617745232608
 21
8.763099999991255
 31
0.0
  0
LINE
  5
1B0C4
330
1B08F
100
AcDbEntity
  8
0
  6
CONTINUOUS
100
AcDbLine
 10
33.08199999996839
 20
8.060796661429132
 30
0.0
 11
32.37969666140626
 21
8.763099999991255
 31
0.0
  0
LINE
  5
1B0C5
330
1B08F
100
AcDbEntity
  8
0
  6
CONTINUOUS
100
AcDbLine
 10
33.08199999996839
 20
8.734315870509318
 30
0.0
 11
33.05321587048645
 21
8.763099999991255
 31
0.0
  0
LINE
  5
1B0C6
330
1B08F
100
AcDbEntity
  8
0
  6
CONTINUOUS
100
AcDbLine
 10
37.67199999996831
 20
4.817835079589585
 30
0.0
 11
36.23199999996837
 21
6.257835079589526
 31
0.0
  0
LINE
  5
1B0C7
330
1B08F
100
AcDbEntity
  8
0
  6
CONTINUOUS
100
AcDbLine
 10
37.67199999996831
 20
5.491354288669771
 30
0.0
 11
36.23199999996837
 21
6.931354288669713
 31
0.0
  0
LINE
  5
1B0C8
330
1B08F
100
AcDbEntity
  8
0
  6
CONTINUOUS
100
AcDbLine
 10
37.67199999996831
 20
6.164873497749958
 30
0.0
 11
36.23199999996837
 21
7.6048734977499
 31
0.0
  0
LINE
  5
1B0C9
330
1B08F
100
AcDbEntity
  8
0
  6
CONTINUOUS
100
AcDbLine
 10
37.67199999996831
 20
6.838392706830144
 30
0.0
 11
36.23199999996837
 21
8.278392706830086
 31
0.0
  0
LINE
  5
1B0CA
330
1B08F
100
AcDbEntity
  8
0
  6
CONTINUOUS
100
AcDbLine
 10
37.67199999996831
 20
7.511911915910332
 30
0.0
 11
36.42081191588738
 21
8.763099999991255
 31
0.0
  0
LINE
  5
1B0CB
330
1B08F
100
AcDbEntity
  8
0
  6
CONTINUOUS
100
AcDbLine
 10
37.67199999996831
 20
8.185431124990519
 30
0.0
 11
37.09433112496757
 21
8.763099999991255
 31
0.0
  0
ENDBLK
  5
1B133
330
1B08F
100
AcDbEntity
  8
0
100
AcDbBlockEnd
  0
BLOCK
  5
1B134
330
1B0CC
100
AcDbEntity
  8
0
100
AcDbBlockBegin
  2
*X50
 70
     1
 10
0.0
 20
0.0
 30
0.0
  3
*X50
  1

  0
LINE
  5
1B0CD
330
1B0CC
100
AcDbEntity
  8
0
  6
CONTINUOUS
100
AcDbLine
 10
38.60499999996136
 20
8.762866199104765
 30
0.0
 11
38.71672554182345
 21
8.874591740966855
 31
0.0
  0
LINE
  5
1B0CE
330
1B0CC
100
AcDbEntity
  8
0
  6
CONTINUOUS
100
AcDbLine
 10
38.60499999996136
 20
8.089346990024577
 30
0.0
 11
39.03418785440363
 21
8.518534844466847
 31
0.0
  0
LINE
  5
1B0CF
330
1B0CC
100
AcDbEntity
  8
0
  6
CONTINUOUS
100
AcDbLine
 10
38.60499999996136
 20
7.41582778094439
 30
0.0
 11
39.35165016698382
 21
8.16247794796684
 31
0.0
  0
LINE
  5
1B0D0
330
1B0CC
100
AcDbEntity
  8
0
  6
CONTINUOUS
100
AcDbLine
 10
38.60499999996136
 20
6.742308571864204
 30
0.0
 11
39.66911247956399
 21
7.806421051466834
 31
0.0
  0
LINE
  5
1B0D1
330
1B0CC
100
AcDbEntity
  8
0
  6
CONTINUOUS
100
AcDbLine
 10
38.60499999996136
 20
6.068789362784018
 30
0.0
 11
39.98657479214418
 21
7.450364154966827
 31
0.0
  0
LINE
  5
1B0D2
330
1B0CC
100
AcDbEntity
  8
0
  6
CONTINUOUS
100
AcDbLine
 10
38.60499999996136
 20
5.395270153703832
 30
0.0
 11
40.30403710472435
 21
7.09430725846682
 31
0.0
  0
LINE
  5
1B0D3
330
1B0CC
100
AcDbEntity
  8
0
  6
CONTINUOUS
100
AcDbLine
 10
38.60499999996136
 20
4.721750944623645
 30
0.0
 11
40.62149941730453
 21
6.738250361966813
 31
0.0
  0
LINE
  5
1B0D4
330
1B0CC
100
AcDbEntity
  8
0
  6
CONTINUOUS
100
AcDbLine
 10
38.60499999996136
 20
4.048231735543458
 30
0.0
 11
40.93896172988471
 21
6.382193465466806
 31
0.0
  0
LINE
  5
1B0D5
330
1B0CC
100
AcDbEntity
  8
0
  6
CONTINUOUS
100
AcDbLine
 10
38.60499999996136
 20
3.374712526463272
 30
0.0
 11
40.02599999995994
 21
4.795712526461843
 31
0.0
  0
LINE
  5
1B0D6
330
1B0CC
100
AcDbEntity
  8
0
  6
CONTINUOUS
100
AcDbLine
 10
38.60499999996136
 20
2.701193317383085
 30
0.0
 11
40.02599999995994
 21
4.122193317381657
 31
0.0
  0
LINE
  5
1B0D7
330
1B0CC
100
AcDbEntity
  8
0
  6
CONTINUOUS
100
AcDbLine
 10
40.28339754687704
 20
5.053110073378947
 30
0.0
 11
41.25642404246489
 21
6.026136568966799
 31
0.0
  0
LINE
  5
1B0D8
330
1B0CC
100
AcDbEntity
  8
0
  6
CONTINUOUS
100
AcDbLine
 10
40.60085985945722
 20
4.697053176878939
 30
0.0
 11
41.57388635504507
 21
5.670079672466793
 31
0.0
  0
LINE
  5
1B0D9
330
1B0CC
100
AcDbEntity
  8
0
  6
CONTINUOUS
100
AcDbLine
 10
43.57899999995641
 20
8.348712526458318
 30
0.0
 11
43.99338747348935
 21
8.763099999991255
 31
0.0
  0
LINE
  5
1B0DA
330
1B0CC
100
AcDbEntity
  8
0
  6
CONTINUOUS
100
AcDbLine
 10
43.57899999995641
 20
7.675193317378131
 30
0.0
 11
44.66690668256953
 21
8.763099999991255
 31
0.0
  0
LINE
  5
1B0DB
330
1B0CC
100
AcDbEntity
  8
0
  6
CONTINUOUS
100
AcDbLine
 10
38.60499999996136
 20
2.027674108302898
 30
0.0
 11
40.02599999995994
 21
3.44867410830147
 31
0.0
  0
LINE
  5
1B0DC
330
1B0CC
100
AcDbEntity
  8
0
  6
CONTINUOUS
100
AcDbLine
 10
38.60499999996136
 20
1.354154899222712
 30
0.0
 11
40.02599999995994
 21
2.775154899221284
 31
0.0
  0
LINE
  5
1B0DD
330
1B0CC
100
AcDbEntity
  8
0
  6
CONTINUOUS
100
AcDbLine
 10
38.60499999996136
 20
0.6806356901425255
 30
0.0
 11
40.02599999995994
 21
2.101635690141098
 31
0.0
  0
LINE
  5
1B0DE
330
1B0CC
100
AcDbEntity
  8
0
  6
CONTINUOUS
100
AcDbLine
 10
38.60499999996136
 20
0.0071164810623383
 30
0.0
 11
40.02599999995994
 21
1.428116481060911
 31
0.0
  0
LINE
  5
1B0DF
330
1B0CC
100
AcDbEntity
  8
0
  6
CONTINUOUS
100
AcDbLine
 10
40.9183221720374
 20
4.340996280378933
 30
0.0
 11
41.89134866762525
 21
5.314022775966786
 31
0.0
  0
LINE
  5
1B0E0
330
1B0CC
100
AcDbEntity
  8
0
  6
CONTINUOUS
100
AcDbLine
 10
41.23578448461758
 20
3.984939383878926
 30
0.0
 11
42.20881098020543
 21
4.957965879466778
 31
0.0
  0
LINE
  5
1B0E1
330
1B0CC
100
AcDbEntity
  8
0
  6
CONTINUOUS
100
AcDbLine
 10
41.55324679719776
 20
3.628882487378919
 30
0.0
 11
42.52627329278561
 21
4.601908982966772
 31
0.0
  0
LINE
  5
1B0E2
330
1B0CC
100
AcDbEntity
  8
0
  6
CONTINUOUS
100
AcDbLine
 10
41.87070910977793
 20
3.272825590878912
 30
0.0
 11
42.84373560536579
 21
4.245852086466765
 31
0.0
  0
LINE
  5
1B0E3
330
1B0CC
100
AcDbEntity
  8
0
  6
CONTINUOUS
100
AcDbLine
 10
43.57899999995641
 20
7.001674108297943
 30
0.0
 11
44.99999999995498
 21
8.422674108296516
 31
0.0
  0
LINE
  5
1B0E4
330
1B0CC
100
AcDbEntity
  8
0
  6
CONTINUOUS
100
AcDbLine
 10
43.57899999995641
 20
6.328154899217758
 30
0.0
 11
44.99999999995498
 21
7.749154899216329
 31
0.0
  0
LINE
  5
1B0E5
330
1B0CC
100
AcDbEntity
  8
0
  6
CONTINUOUS
100
AcDbLine
 10
43.57899999995641
 20
5.654635690137571
 30
0.0
 11
44.99999999995498
 21
7.075635690136142
 31
0.0
  0
LINE
  5
1B0E6
330
1B0CC
100
AcDbEntity
  8
0
  6
CONTINUOUS
100
AcDbLine
 10
43.57899999995641
 20
4.981116481057384
 30
0.0
 11
44.99999999995498
 21
6.402116481055955
 31
0.0
  0
LINE
  5
1B0E7
330
1B0CC
100
AcDbEntity
  8
0
  6
CONTINUOUS
100
AcDbLine
 10
39.27140272797921
 20
-0.0000000000000009
 30
0.0
 11
40.02599999995994
 21
0.7545972719807246
 31
0.0
  0
LINE
  5
1B0E8
330
1B0CC
100
AcDbEntity
  8
0
  6
CONTINUOUS
100
AcDbLine
 10
39.9449219370594
 20
-0.0000000000000009
 30
0.0
 11
40.02599999995994
 21
0.0810780629005379
 31
0.0
  0
LINE
  5
1B0E9
330
1B0CC
100
AcDbEntity
  8
0
  6
CONTINUOUS
100
AcDbLine
 10
42.18817142235812
 20
2.916768694378905
 30
0.0
 11
43.16119791794597
 21
3.889795189966758
 31
0.0
  0
LINE
  5
1B0EA
330
1B0CC
100
AcDbEntity
  8
0
  6
CONTINUOUS
100
AcDbLine
 10
42.50563373493829
 20
2.560711797878898
 30
0.0
 11
43.47866023052615
 21
3.533738293466751
 31
0.0
  0
LINE
  5
1B0EB
330
1B0CC
100
AcDbEntity
  8
0
  6
CONTINUOUS
100
AcDbLine
 10
43.57899999995641
 20
4.307597271977198
 30
0.0
 11
44.99999999995498
 21
5.728597271975769
 31
0.0
  0
LINE
  5
1B0EC
330
1B0CC
100
AcDbEntity
  8
0
  6
CONTINUOUS
100
AcDbLine
 10
43.57899999995641
 20
3.634078062897011
 30
0.0
 11
44.99999999995498
 21
5.055078062895582
 31
0.0
  0
LINE
  5
1B0ED
330
1B0CC
100
AcDbEntity
  8
0
  6
CONTINUOUS
100
AcDbLine
 10
42.82309604751848
 20
2.204654901378891
 30
0.0
 11
44.99999999995498
 21
4.381558853815395
 31
0.0
  0
LINE
  5
1B0EE
330
1B0CC
100
AcDbEntity
  8
0
  6
CONTINUOUS
100
AcDbLine
 10
43.14055836009865
 20
1.848598004878885
 30
0.0
 11
44.99999999995498
 21
3.70803964473521
 31
0.0
  0
LINE
  5
1B0EF
330
1B0CC
100
AcDbEntity
  8
0
  6
CONTINUOUS
100
AcDbLine
 10
43.45802067267883
 20
1.492541108378878
 30
0.0
 11
44.99999999995498
 21
3.034520435655023
 31
0.0
  0
LINE
  5
1B0F0
330
1B0CC
100
AcDbEntity
  8
0
  6
CONTINUOUS
100
AcDbLine
 10
43.77548298525902
 20
1.136484211878871
 30
0.0
 11
44.99999999995498
 21
2.361001226574837
 31
0.0
  0
LINE
  5
1B0F1
330
1B0CC
100
AcDbEntity
  8
0
  6
CONTINUOUS
100
AcDbLine
 10
44.09294529783919
 20
0.7804273153788639
 30
0.0
 11
44.99999999995498
 21
1.687482017494649
 31
0.0
  0
LINE
  5
1B0F2
330
1B0CC
100
AcDbEntity
  8
0
  6
CONTINUOUS
100
AcDbLine
 10
44.41040761041938
 20
0.4243704188788566
 30
0.0
 11
44.99999999995498
 21
1.013962808414463
 31
0.0
  0
LINE
  5
1B0F3
330
1B0CC
100
AcDbEntity
  8
0
  6
CONTINUOUS
100
AcDbLine
 10
44.72786992299955
 20
0.0683135223788494
 30
0.0
 11
44.99999999995498
 21
0.340443599334276
 31
0.0
  0
LINE
  5
1B0F4
330
1B0CC
100
AcDbEntity
  8
0
  6
CONTINUOUS
100
AcDbLine
 10
39.12223903415696
 20
-0.0000000000000009
 30
0.0
 11
38.60499999996136
 21
0.5172390341955961
 31
0.0
  0
LINE
  5
1B0F5
330
1B0CC
100
AcDbEntity
  8
0
  6
CONTINUOUS
100
AcDbLine
 10
39.79575824323715
 20
-0.0000000000000009
 30
0.0
 11
38.60499999996136
 21
1.190758243275783
 31
0.0
  0
LINE
  5
1B0F6
330
1B0CC
100
AcDbEntity
  8
0
  6
CONTINUOUS
100
AcDbLine
 10
40.02599999995994
 20
0.443277452357397
 30
0.0
 11
38.60499999996136
 21
1.864277452355969
 31
0.0
  0
LINE
  5
1B0F7
330
1B0CC
100
AcDbEntity
  8
0
  6
CONTINUOUS
100
AcDbLine
 10
40.02599999995994
 20
1.116796661437583
 30
0.0
 11
38.60499999996136
 21
2.537796661436155
 31
0.0
  0
LINE
  5
1B0F8
330
1B0CC
100
AcDbEntity
  8
0
  6
CONTINUOUS
100
AcDbLine
 10
40.02599999995994
 20
1.79031587051777
 30
0.0
 11
38.60499999996136
 21
3.211315870516341
 31
0.0
  0
LINE
  5
1B0F9
330
1B0CC
100
AcDbEntity
  8
0
  6
CONTINUOUS
100
AcDbLine
 10
40.02599999995994
 20
2.463835079597956
 30
0.0
 11
38.60499999996136
 21
3.884835079596527
 31
0.0
  0
LINE
  5
1B0FA
330
1B0CC
100
AcDbEntity
  8
0
  6
CONTINUOUS
100
AcDbLine
 10
40.02599999995994
 20
3.137354288678143
 30
0.0
 11
38.60499999996136
 21
4.558354288676714
 31
0.0
  0
LINE
  5
1B0FB
330
1B0CC
100
AcDbEntity
  8
0
  6
CONTINUOUS
100
AcDbLine
 10
40.02599999995994
 20
3.810873497758329
 30
0.0
 11
38.60499999996136
 21
5.2318734977569
 31
0.0
  0
LINE
  5
1B0FC
330
1B0CC
100
AcDbEntity
  8
0
  6
CONTINUOUS
100
AcDbLine
 10
40.02599999995994
 20
4.484392706838515
 30
0.0
 11
38.60499999996136
 21
5.905392706837086
 31
0.0
  0
LINE
  5
1B0FD
330
1B0CC
100
AcDbEntity
  8
0
  6
CONTINUOUS
100
AcDbLine
 10
44.99999999995498
 20
0.183911915923658
 30
0.0
 11
41.53858364506288
 21
3.64532827081576
 31
0.0
  0
LINE
  5
1B0FE
330
1B0CC
100
AcDbEntity
  8
0
  6
CONTINUOUS
100
AcDbLine
 10
40.02599999995994
 20
5.157911915918703
 30
0.0
 11
38.60499999996136
 21
6.578911915917274
 31
0.0
  0
LINE
  5
1B0FF
330
1B0CC
100
AcDbEntity
  8
0
  6
CONTINUOUS
100
AcDbLine
 10
44.99999999995498
 20
0.8574311250038447
 30
0.0
 11
38.60499999996136
 21
7.25243112499746
 31
0.0
  0
LINE
  5
1B100
330
1B0CC
100
AcDbEntity
  8
0
  6
CONTINUOUS
100
AcDbLine
 10
44.99999999995498
 20
1.530950334084031
 30
0.0
 11
38.60499999996136
 21
7.925950334077647
 31
0.0
  0
LINE
  5
1B101
330
1B0CC
100
AcDbEntity
  8
0
  6
CONTINUOUS
100
AcDbLine
 10
44.99999999995498
 20
2.204469543164218
 30
0.0
 11
43.57899999995641
 21
3.625469543162789
 31
0.0
  0
LINE
  5
1B102
330
1B0CC
100
AcDbEntity
  8
0
  6
CONTINUOUS
100
AcDbLine
 10
41.89876730984767
 20
5.305702233271528
 30
0.0
 11
38.60499999996136
 21
8.599469543157834
 31
0.0
  0
LINE
  5
1B103
330
1B0CC
100
AcDbEntity
  8
0
  6
CONTINUOUS
100
AcDbLine
 10
44.99999999995498
 20
2.877988752244405
 30
0.0
 11
43.57899999995641
 21
4.298988752242975
 31
0.0
  0
LINE
  5
1B104
330
1B0CC
100
AcDbEntity
  8
0
  6
CONTINUOUS
100
AcDbLine
 10
44.99999999995498
 20
3.551507961324591
 30
0.0
 11
43.57899999995641
 21
4.972507961323163
 31
0.0
  0
LINE
  5
1B105
330
1B0CC
100
AcDbEntity
  8
0
  6
CONTINUOUS
100
AcDbLine
 10
44.99999999995498
 20
4.225027170404777
 30
0.0
 11
43.57899999995641
 21
5.646027170403348
 31
0.0
  0
LINE
  5
1B106
330
1B0CC
100
AcDbEntity
  8
0
  6
CONTINUOUS
100
AcDbLine
 10
44.99999999995498
 20
4.898546379484964
 30
0.0
 11
43.57899999995641
 21
6.319546379483535
 31
0.0
  0
LINE
  5
1B107
330
1B0CC
100
AcDbEntity
  8
0
  6
CONTINUOUS
100
AcDbLine
 10
44.99999999995498
 20
5.572065588565151
 30
0.0
 11
43.57899999995641
 21
6.993065588563722
 31
0.0
  0
LINE
  5
1B108
330
1B0CC
100
AcDbEntity
  8
0
  6
CONTINUOUS
100
AcDbLine
 10
44.99999999995498
 20
6.245584797645336
 30
0.0
 11
43.57899999995641
 21
7.666584797643908
 31
0.0
  0
LINE
  5
1B109
330
1B0CC
100
AcDbEntity
  8
0
  6
CONTINUOUS
100
AcDbLine
 10
44.99999999995498
 20
6.919104006725522
 30
0.0
 11
43.57899999995641
 21
8.340104006724093
 31
0.0
  0
LINE
  5
1B10A
330
1B0CC
100
AcDbEntity
  8
0
  6
CONTINUOUS
100
AcDbLine
 10
44.99999999995498
 20
7.592623215805709
 30
0.0
 11
43.82952321576943
 21
8.763099999991255
 31
0.0
  0
LINE
  5
1B10B
330
1B0CC
100
AcDbEntity
  8
0
  6
CONTINUOUS
100
AcDbLine
 10
44.99999999995498
 20
8.266142424885896
 30
0.0
 11
44.50304242484962
 21
8.763099999991255
 31
0.0
  0
ENDBLK
  5
1B135
330
1B0CC
100
AcDbEntity
  8
0
100
AcDbBlockEnd
  0
BLOCK
  5
1B136
330
1B10C
100
AcDbEntity
  8
0
100
AcDbBlockBegin
  2
*X51
 70
     1
 10
0.0
 20
0.0
 30
0.0
  3
*X51
  1

  0
LINE
  5
1B10D
330
1B10C
100
AcDbEntity
  8
0
  6
CONTINUOUS
100
AcDbLine
 10
0.0
 20
8.548461116714023
 30
0.0
 11
0.2146388832772324
 21
8.763099999991255
 31
0.0
  0
LINE
  5
1B10E
330
1B10C
100
AcDbEntity
  8
0
  6
CONTINUOUS
100
AcDbLine
 10
-0.0000000000000002
 20
7.874941907633837
 30
0.0
 11
0.8881580923574184
 21
8.763099999991255
 31
0.0
  0
LINE
  5
1B10F
330
1B10C
100
AcDbEntity
  8
0
  6
CONTINUOUS
100
AcDbLine
 10
0.0
 20
7.20142269855365
 30
0.0
 11
1.420999999998572
 21
8.622422698552223
 31
0.0
  0
LINE
  5
1B110
330
1B10C
100
AcDbEntity
  8
0
  6
CONTINUOUS
100
AcDbLine
 10
-0.0000000000000001
 20
6.527903489473465
 30
0.0
 11
1.420999999998571
 21
7.948903489472036
 31
0.0
  0
LINE
  5
1B111
330
1B10C
100
AcDbEntity
  8
0
  6
CONTINUOUS
100
AcDbLine
 10
-0.0000000000000002
 20
5.854384280393278
 30
0.0
 11
1.420999999998571
 21
7.275384280391849
 31
0.0
  0
LINE
  5
1B112
330
1B10C
100
AcDbEntity
  8
0
  6
CONTINUOUS
100
AcDbLine
 10
-0.0000000000000002
 20
5.180865071313091
 30
0.0
 11
1.420999999998571
 21
6.601865071311663
 31
0.0
  0
LINE
  5
1B113
330
1B10C
100
AcDbEntity
  8
0
  6
CONTINUOUS
100
AcDbLine
 10
0.0
 20
4.507345862232905
 30
0.0
 11
1.420999999998571
 21
5.928345862231477
 31
0.0
  0
LINE
  5
1B114
330
1B10C
100
AcDbEntity
  8
0
  6
CONTINUOUS
100
AcDbLine
 10
-0.0000000000000003
 20
3.833826653152718
 30
0.0
 11
1.420999999998571
 21
5.25482665315129
 31
0.0
  0
LINE
  5
1B115
330
1B10C
100
AcDbEntity
  8
0
  6
CONTINUOUS
100
AcDbLine
 10
-0.0000000000000002
 20
3.160307444072532
 30
0.0
 11
1.420999999998571
 21
4.581307444071103
 31
0.0
  0
LINE
  5
1B116
330
1B10C
100
AcDbEntity
  8
0
  6
CONTINUOUS
100
AcDbLine
 10
-0.0000000000000001
 20
2.486788234992345
 30
0.0
 11
1.420999999998571
 21
3.907788234990917
 31
0.0
  0
LINE
  5
1B117
330
1B10C
100
AcDbEntity
  8
0
  6
CONTINUOUS
100
AcDbLine
 10
-0.0000000000000006
 20
1.813269025912159
 30
0.0
 11
1.420999999998571
 21
3.234269025910731
 31
0.0
  0
LINE
  5
1B118
330
1B10C
100
AcDbEntity
  8
0
  6
CONTINUOUS
100
AcDbLine
 10
0.0
 20
1.139749816831973
 30
0.0
 11
1.420999999998571
 21
2.560749816830544
 31
0.0
  0
LINE
  5
1B119
330
1B10C
100
AcDbEntity
  8
0
  6
CONTINUOUS
100
AcDbLine
 10
0.0000000000000002
 20
0.466230607751787
 30
0.0
 11
1.420999999998571
 21
1.887230607750358
 31
0.0
  0
LINE
  5
1B11A
330
1B10C
100
AcDbEntity
  8
0
  6
CONTINUOUS
100
AcDbLine
 10
0.2072886013284003
 20
-0.0000000000000009
 30
0.0
 11
1.420999999998571
 21
1.213711398670171
 31
0.0
  0
LINE
  5
1B11B
330
1B10C
100
AcDbEntity
  8
0
  6
CONTINUOUS
100
AcDbLine
 10
0.8808078104085864
 20
-0.0000000000000009
 30
0.0
 11
1.420999999998571
 21
0.5401921895899839
 31
0.0
  0
LINE
  5
1B11C
330
1B10C
100
AcDbEntity
  8
0
  6
CONTINUOUS
100
AcDbLine
 10
0.0581249075061505
 20
-0.0000000000000009
 30
0.0
 11
-0.0000000000000002
 21
0.0581249075061496
 31
0.0
  0
LINE
  5
1B11D
330
1B10C
100
AcDbEntity
  8
0
  6
CONTINUOUS
100
AcDbLine
 10
0.7316441165863372
 20
-0.0000000000000009
 30
0.0
 11
-0.0000000000000002
 21
0.7316441165863363
 31
0.0
  0
LINE
  5
1B11E
330
1B10C
100
AcDbEntity
  8
0
  6
CONTINUOUS
100
AcDbLine
 10
1.405163325666523
 20
-0.0000000000000009
 30
0.0
 11
-0.0000000000000002
 21
1.405163325666523
 31
0.0
  0
LINE
  5
1B11F
330
1B10C
100
AcDbEntity
  8
0
  6
CONTINUOUS
100
AcDbLine
 10
1.420999999998572
 20
0.6576825347481381
 30
0.0
 11
-0.0000000000000001
 21
2.07868253474671
 31
0.0
  0
LINE
  5
1B120
330
1B10C
100
AcDbEntity
  8
0
  6
CONTINUOUS
100
AcDbLine
 10
1.420999999998571
 20
1.331201743828324
 30
0.0
 11
-0.0000000000000001
 21
2.752201743826896
 31
0.0
  0
LINE
  5
1B121
330
1B10C
100
AcDbEntity
  8
0
  6
CONTINUOUS
100
AcDbLine
 10
1.420999999998571
 20
2.004720952908511
 30
0.0
 11
-0.0000000000000002
 21
3.425720952907082
 31
0.0
  0
LINE
  5
1B122
330
1B10C
100
AcDbEntity
  8
0
  6
CONTINUOUS
100
AcDbLine
 10
1.420999999998571
 20
2.678240161988697
 30
0.0
 11
-0.0000000000000001
 21
4.099240161987269
 31
0.0
  0
LINE
  5
1B123
330
1B10C
100
AcDbEntity
  8
0
  6
CONTINUOUS
100
AcDbLine
 10
1.420999999998572
 20
3.351759371068884
 30
0.0
 11
0.0
 21
4.772759371067455
 31
0.0
  0
LINE
  5
1B124
330
1B10C
100
AcDbEntity
  8
0
  6
CONTINUOUS
100
AcDbLine
 10
1.420999999998571
 20
4.02527858014907
 30
0.0
 11
-0.0000000000000003
 21
5.446278580147642
 31
0.0
  0
LINE
  5
1B125
330
1B10C
100
AcDbEntity
  8
0
  6
CONTINUOUS
100
AcDbLine
 10
1.420999999998571
 20
4.698797789229257
 30
0.0
 11
0.0
 21
6.119797789227828
 31
0.0
  0
LINE
  5
1B126
330
1B10C
100
AcDbEntity
  8
0
  6
CONTINUOUS
100
AcDbLine
 10
1.420999999998571
 20
5.372316998309444
 30
0.0
 11
-0.0000000000000001
 21
6.793316998308015
 31
0.0
  0
LINE
  5
1B127
330
1B10C
100
AcDbEntity
  8
0
  6
CONTINUOUS
100
AcDbLine
 10
1.420999999998572
 20
6.045836207389629
 30
0.0
 11
-0.0000000000000004
 21
7.466836207388202
 31
0.0
  0
LINE
  5
1B128
330
1B10C
100
AcDbEntity
  8
0
  6
CONTINUOUS
100
AcDbLine
 10
1.420999999998571
 20
6.719355416469816
 30
0.0
 11
0.0
 21
8.140355416468388
 31
0.0
  0
LINE
  5
1B129
330
1B10C
100
AcDbEntity
  8
0
  6
CONTINUOUS
100
AcDbLine
 10
1.420999999998571
 20
7.392874625550003
 30
0.0
 11
0.0507746255573185
 21
8.763099999991255
 31
0.0
  0
LINE
  5
1B12A
330
1B10C
100
AcDbEntity
  8
0
  6
CONTINUOUS
100
AcDbLine
 10
1.420999999998571
 20
8.06639383463019
 30
0.0
 11
0.7242938346375052
 21
8.763099999991255
 31
0.0
  0
LINE
  5
1B12B
330
1B10C
100
AcDbEntity
  8
0
  6
CONTINUOUS
100
AcDbLine
 10
1.420999999998571
 20
8.739913043710375
 30
0.0
 11
1.397813043717691
 21
8.763099999991255
 31
0.0
  0
ENDBLK
  5
1B137
330
1B10C
100
AcDbEntity
  8
0
100
AcDbBlockEnd
  0
ENDSEC
  0
SECTION
  2
ENTITIES
  0
LINE
  5
1AB74
330
18
100
AcDbEntity
  8
01
100
AcDbLine
 10
3568.993273826479
 20
-39.61537439382255
 30
0.0
 11
3582.993273826479
 21
-39.61537439382255
 31
0.0
  0
LINE
  5
1AB75
330
18
100
AcDbEntity
  8
01
100
AcDbLine
 10
3314.993394166223
 20
-117.615374393823
 30
0.0
 11
3254.993394166223
 21
-117.615374393823
 31
0.0
  0
LINE
  5
1AB76
330
18
100
AcDbEntity
  8
01
100
AcDbLine
 10
3284.993394166223
 20
-87.615374393823
 30
0.0
 11
3284.993394166223
 21
-147.615374393823
 31
0.0
  0
LINE
  5
1AB77
330
18
100
AcDbEntity
  8
01
100
AcDbLine
 10
3573.994158008539
 20
172.3846256051488
 30
0.0
 11
3727.748538163572
 21
172.3846256051488
 31
0.0
  0
LINE
  5
1AB7A
330
18
100
AcDbEntity
  8
01
  6
BYBLOCK
100
AcDbLine
 10
3573.994158008539
 20
172.3846256051488
 30
0.0
 11
3573.994158008539
 21
132.3846256051488
 31
0.0
  0
LINE
  5
1AB80
330
18
100
AcDbEntity
  8
01
100
AcDbLine
 10
3624.993273826477
 20
167.3846256041202
 30
0.0
 11
3624.993273826477
 21
198.3027057933691
 31
0.0
  0
LINE
  5
1AB81
330
18
100
AcDbEntity
  8
01
100
AcDbLine
 10
3599.993273826479
 20
172.3846256051497
 30
0.0
 11
3649.993273826479
 21
172.3846256051474
 31
0.0
  0
LINE
  5
1AB82
330
18
100
AcDbEntity
  8
01
100
AcDbLine
 10
3600.493273826476
 20
180.8846256051497
 30
0.0
 11
3649.493273826479
 21
180.8846256051461
 31
0.0
  0
LINE
  5
1AB83
330
18
100
AcDbEntity
  8
01
100
AcDbLine
 10
3649.993273826479
 20
172.3846256051474
 30
0.0
 11
3649.993273826479
 21
180.3846256051461
 31
0.0
  0
ARC
  5
1AB84
330
18
100
AcDbEntity
  8
01
100
AcDbCircle
 10
3649.493273826479
 20
180.3846256051461
 30
0.0
 40
0.5
100
AcDbArc
 50
0.0
 51
90.0
  0
LINE
  5
1AB85
330
18
100
AcDbEntity
  8
01
100
AcDbLine
 10
3599.993273826479
 20
172.3846256051497
 30
0.0
 11
3599.993273826476
 21
180.3846256051493
 31
0.0
  0
ARC
  5
1AB86
330
18
100
AcDbEntity
  8
01
100
AcDbCircle
 10
3600.493273826476
 20
180.3846256051497
 30
0.0
 40
0.5
100
AcDbArc
 50
90.0
 51
180.0
  0
LINE
  5
1AB87
330
18
100
AcDbEntity
  8
01
  6
BYBLOCK
100
AcDbLine
 10
3575.493273826479
 20
-31.71537439382246
 30
0.0
 11
3575.493273826479
 21
-161.5153743938224
 31
0.0
  0
LINE
  5
1AB88
330
18
100
AcDbEntity
  8
01
  6
BYBLOCK
100
AcDbLine
 10
3575.493273826479
 20
-160.6153743938225
 30
0.0
 11
3577.993273826479
 21
-160.6153743938225
 31
0.0
  0
LINE
  5
1AB89
330
18
100
AcDbEntity
  8
01
  6
BYBLOCK
100
AcDbLine
 10
3576.69327382648
 20
-59.61537439382255
 30
0.0
 11
3599.99327382648
 21
-59.61537439382255
 31
0.0
  0
LINE
  5
1AB8A
330
18
100
AcDbEntity
  8
01
  6
BYBLOCK
100
AcDbLine
 10
3577.993273826479
 20
-160.6153743938225
 30
0.0
 11
3577.993273826479
 21
-144.1124306686702
 31
0.0
  0
LINE
  5
1AB8B
330
18
100
AcDbEntity
  8
01
  6
BYBLOCK
100
AcDbLine
 10
3573.993273826479
 20
-31.71537439382246
 30
0.0
 11
3573.993273826479
 21
-161.5153743938224
 31
0.0
  0
LINE
  5
1AB8C
330
18
100
AcDbEntity
  8
01
  6
BYBLOCK
100
AcDbLine
 10
3573.993273826479
 20
-161.5153743938224
 30
0.0
 11
3575.493273826479
 21
-161.5153743938224
 31
0.0
  0
LINE
  5
1AB8D
330
18
100
AcDbEntity
  8
01
  6
BYBLOCK
100
AcDbLine
 10
3575.493273826479
 20
-32.61537439382255
 30
0.0
 11
3577.993273826479
 21
-32.61537439382255
 31
0.0
  0
LINE
  5
1AB8E
330
18
100
AcDbEntity
  8
01
  6
BYBLOCK
100
AcDbLine
 10
3573.993273826479
 20
-31.71537439382246
 30
0.0
 11
3575.493273826479
 21
-31.71537439382246
 31
0.0
  0
LINE
  5
1AB8F
330
18
100
AcDbEntity
  8
01
  6
BYBLOCK
100
AcDbLine
 10
3575.493273826479
 20
-56.61537439382255
 30
0.0
 11
3576.69327382648
 21
-56.61537439382255
 31
0.0
  0
LINE
  5
1AB90
330
18
100
AcDbEntity
  8
01
  6
BYBLOCK
100
AcDbLine
 10
3591.893273826479
 20
-59.61537439382255
 30
0.0
 11
3599.99327382648
 21
-59.61537439382255
 31
0.0
  0
LINE
  5
1AB91
330
18
100
AcDbEntity
  8
01
  6
BYBLOCK
100
AcDbLine
 10
3576.69327382648
 20
-50.91537439382228
 30
0.0
 11
3576.693273826479
 21
-142.3153743938224
 31
0.0
  0
LINE
  5
1AB92
330
18
100
AcDbEntity
  8
01
  6
BYBLOCK
100
AcDbLine
 10
3576.793273826479
 20
-160.6153743938225
 30
0.0
 11
3576.793273826479
 21
-144.0153743938224
 31
0.0
  0
LINE
  5
1AB93
330
18
100
AcDbEntity
  8
01
  6
BYBLOCK
100
AcDbLine
 10
3576.793273826479
 20
-144.0153743938224
 30
0.0
 11
3575.844745689055
 21
-143.0668462563985
 31
0.0
  0
LINE
  5
1AB94
330
18
100
AcDbEntity
  8
01
  6
BYBLOCK
100
AcDbLine
 10
3577.641801963903
 20
-143.2639025312462
 30
0.0
 11
3576.69327382648
 21
-142.3153743938224
 31
0.0
  0
ARC
  5
1AB95
330
18
100
AcDbEntity
  8
01
  6
BYBLOCK
100
AcDbCircle
 10
3576.793273826479
 20
-144.1124306686702
 30
0.0
 40
1.2
100
AcDbArc
 50
0.0
 51
44.99999999998619
  0
ARC
  5
1AB96
330
18
100
AcDbEntity
  8
01
  6
BYBLOCK
100
AcDbCircle
 10
3576.69327382648
 20
-142.2183181189746
 30
0.0
 40
1.2
100
AcDbArc
 50
180.0
 51
224.9999999999862
  0
LINE
  5
1AB97
330
18
100
AcDbEntity
  8
01
  6
BYBLOCK
100
AcDbLine
 10
3577.993273826479
 20
-32.61537439382255
 30
0.0
 11
3577.993273826479
 21
-49.11831811897468
 31
0.0
  0
LINE
  5
1AB98
330
18
100
AcDbEntity
  8
01
  6
BYBLOCK
100
AcDbLine
 10
3576.793273826479
 20
-32.61537439382255
 30
0.0
 11
3576.793273826479
 21
-49.21537439382246
 31
0.0
  0
LINE
  5
1AB99
330
18
100
AcDbEntity
  8
01
  6
BYBLOCK
100
AcDbLine
 10
3576.793273826479
 20
-49.21537439382246
 30
0.0
 11
3575.844745689055
 21
-50.16390253124632
 31
0.0
  0
LINE
  5
1AB9A
330
18
100
AcDbEntity
  8
01
  6
BYBLOCK
100
AcDbLine
 10
3577.641801963903
 20
-49.96684625639864
 30
0.0
 11
3576.69327382648
 21
-50.9153743938225
 31
0.0
  0
ARC
  5
1AB9B
330
18
100
AcDbEntity
  8
01
  6
BYBLOCK
100
AcDbCircle
 10
3576.793273826479
 20
-49.11831811897468
 30
0.0
 40
1.2
100
AcDbArc
 50
315.0000000000138
 51
0.0
  0
ARC
  5
1AB9C
330
18
100
AcDbEntity
  8
01
  6
BYBLOCK
100
AcDbCircle
 10
3576.69327382648
 20
-51.01243066867028
 30
0.0
 40
1.2
100
AcDbArc
 50
135.0000000000138
 51
180.0
  0
LINE
  5
1AB9D
330
18
100
AcDbEntity
  8
01
  6
BYBLOCK
100
AcDbLine
 10
3576.69327382648
 20
-133.6153743938228
 30
0.0
 11
3599.99327382648
 21
-133.6153743938225
 31
0.0
  0
ARC
  5
1AB9E
330
18
100
AcDbEntity
  8
01
  6
BYBLOCK
100
AcDbCircle
 10
3577.094158008539
 20
155.9458761481487
 30
0.0
 40
1.6
100
AcDbArc
 50
115.9444797719929
 51
180.0
  0
ARC
  5
1AB9F
330
18
100
AcDbEntity
  8
01
  6
BYBLOCK
100
AcDbCircle
 10
3577.094158008539
 20
148.8233750621489
 30
0.0
 40
1.6
100
AcDbArc
 50
180.0
 51
244.0555202280072
  0
ARC
  5
1ABA0
330
18
100
AcDbEntity
  8
01
  6
BYBLOCK
100
AcDbCircle
 10
3576.394158008539
 20
147.5458761481489
 30
0.0
 40
1.6
100
AcDbArc
 50
0.0
 51
64.05552022800715
  0
ARC
  5
1ABA1
330
18
100
AcDbEntity
  8
01
  6
BYBLOCK
100
AcDbCircle
 10
3576.394158008539
 20
157.2233750621488
 30
0.0
 40
1.6
100
AcDbArc
 50
295.9444797719929
 51
0.0
  0
LINE
  5
1ABA2
330
18
100
AcDbEntity
  8
01
  6
BYBLOCK
100
AcDbLine
 10
3577.994158008539
 20
157.2233750621488
 30
0.0
 11
3577.99415800854
 21
164.5846256051489
 31
0.0
  0
LINE
  5
1ABA3
330
18
100
AcDbEntity
  8
01
  6
BYBLOCK
100
AcDbLine
 10
3577.094158008539
 20
148.9846256051487
 30
0.0
 11
3577.094158008539
 21
155.7846256051489
 31
0.0
  0
LINE
  5
1ABA4
330
18
100
AcDbEntity
  8
01
  6
BYBLOCK
100
AcDbLine
 10
3577.994158008539
 20
140.3846256051488
 30
0.0
 11
3577.994158008539
 21
147.5458761481489
 31
0.0
  0
LINE
  5
1ABA5
330
18
100
AcDbEntity
  8
01
  6
BYBLOCK
100
AcDbLine
 10
3576.394158008539
 20
157.3846256051488
 30
0.0
 11
3576.394158008539
 21
164.5846256051489
 31
0.0
  0
LINE
  5
1ABA6
330
18
100
AcDbEntity
  8
01
  6
BYBLOCK
100
AcDbLine
 10
3576.394158008539
 20
147.3846256051488
 30
0.0
 11
3576.394158008539
 21
140.2846256051489
 31
0.0
  0
ARC
  5
1ABA7
330
18
100
AcDbEntity
  8
01
  6
BYBLOCK
100
AcDbCircle
 10
3641.394158008539
 20
160.2846256051489
 30
0.0
 40
1.6
100
AcDbArc
 50
0.0
 51
90.0
  0
LINE
  5
1ABA8
330
18
100
AcDbEntity
  8
01
  6
BYBLOCK
100
AcDbLine
 10
3575.49415800854
 20
164.7846256051489
 30
0.0
 11
3575.494158008539
 21
139.9846256051489
 31
0.0
  0
LINE
  5
1ABA9
330
18
100
AcDbEntity
  8
01
  6
BYBLOCK
100
AcDbLine
 10
3641.394158008539
 20
161.8846256051488
 30
0.0
 11
3577.994158008539
 21
161.8846256051488
 31
0.0
  0
LINE
  5
1ABAA
330
18
100
AcDbEntity
  8
01
  6
BYBLOCK
100
AcDbLine
 10
3641.394158008539
 20
144.6846256051488
 30
0.0
 11
3641.394158008539
 21
161.8846256051488
 31
0.0
  0
LINE
  5
1ABAB
330
18
100
AcDbEntity
  8
01
  6
BYBLOCK
100
AcDbLine
 10
3642.994158008539
 20
143.0846256051489
 30
0.0
 11
3642.994158008539
 21
160.2846256051489
 31
0.0
  0
LINE
  5
1ABAC
330
18
100
AcDbEntity
  8
01
  6
BYBLOCK
100
AcDbLine
 10
3575.49415800854
 20
164.5846256051489
 30
0.0
 11
3577.99415800854
 21
164.5846256051489
 31
0.0
  0
LINE
  5
1ABAD
330
18
100
AcDbEntity
  8
01
  6
BYBLOCK
100
AcDbLine
 10
3577.994158008539
 20
140.3846256051488
 30
0.0
 11
3576.394158008539
 21
140.3846256051488
 31
0.0
  0
LINE
  5
1ABAE
330
18
100
AcDbEntity
  8
01
  6
BYBLOCK
100
AcDbLine
 10
3576.394158008539
 20
140.2846256051489
 30
0.0
 11
3575.494158008539
 21
140.2846256051489
 31
0.0
  0
ARC
  5
1ABAF
330
18
100
AcDbEntity
  8
01
  6
BYBLOCK
100
AcDbCircle
 10
3572.694752935938
 20
146.6846256051494
 30
0.0
 40
0.3000000000000051
100
AcDbArc
 50
232.8678058730366
 51
270.0
  0
LINE
  5
1ABB0
330
18
100
AcDbEntity
  8
01
  6
BYBLOCK
100
AcDbLine
 10
3573.49415800854
 20
146.3846256051495
 30
0.0
 11
3572.694752935938
 21
146.3846256051495
 31
0.0
  0
LINE
  5
1ABB1
330
18
100
AcDbEntity
  8
01
  6
BYBLOCK
100
AcDbLine
 10
3563.094158008539
 20
156.0576144713536
 30
0.0
 11
3563.094158008539
 21
155.8869924158046
 31
0.0
  0
ARC
  5
1ABB2
330
18
100
AcDbEntity
  8
01
  6
BYBLOCK
100
AcDbCircle
 10
3563.394158008539
 20
155.8869924158046
 30
0.0
 40
0.3
100
AcDbArc
 50
180.0
 51
217.7405295629614
  0
ARC
  5
1ABB3
330
18
100
AcDbEntity
  8
01
  6
BYBLOCK
100
AcDbCircle
 10
3602.696458607823
 20
186.3076953597454
 30
0.0
 40
50.00000000000002
100
AcDbArc
 50
217.7405295629927
 51
232.8678058729714
  0
LINE
  5
1ABB4
330
18
100
AcDbEntity
  8
01
  6
BYBLOCK
100
AcDbLine
 10
3562.894158008539
 20
157.184625605149
 30
0.0
 11
3562.894158008539
 21
157.8846256051488
 31
0.0
  0
ARC
  5
1ABB5
330
18
100
AcDbEntity
  8
01
  6
BYBLOCK
100
AcDbCircle
 10
3563.394158008539
 20
157.8846256051488
 30
0.0
 40
0.5000000000000142
100
AcDbArc
 50
90.0
 51
180.0
  0
LINE
  5
1ABB6
330
18
100
AcDbEntity
  8
01
  6
BYBLOCK
100
AcDbLine
 10
3573.49415800854
 20
158.3846256051488
 30
0.0
 11
3563.394158008539
 21
158.3846256051488
 31
0.0
  0
LINE
  5
1ABB7
330
18
100
AcDbEntity
  8
01
  6
BYBLOCK
100
AcDbLine
 10
3562.894158008539
 20
156.8059459487085
 30
0.0
 11
3562.894158008539
 21
157.184625605149
 31
0.0
  0
SPLINE
  5
1ABB8
330
18
100
AcDbEntity
  8
01
  6
BYBLOCK
100
AcDbSpline
210
0.0
220
0.0
230
1.0
 70
     8
 71
     3
 72
     8
 73
     4
 74
     0
 42
0.0000000001
 43
0.0000000001
 40
0.0
 40
0.0
 40
0.0
 40
0.0
 40
1.0
 40
1.0
 40
1.0
 40
1.0
 10
3562.919890549804
 20
156.5292955192594
 30
0.0
 10
3562.902422663693
 20
156.6223817151399
 30
0.0
 10
3562.894158008539
 20
156.7156477260314
 30
0.0
 10
3562.894158008539
 20
156.805945948709
 30
0.0
  0
ARC
  5
1ABB9
330
18
100
AcDbEntity
  8
01
  6
BYBLOCK
100
AcDbCircle
 10
3564.394158008539
 20
156.8059459487085
 30
0.0
 40
1.499999999999998
100
AcDbArc
 50
190.628112987605
 51
224.9999999999908
  0
LINE
  5
1ABBA
330
18
100
AcDbEntity
  8
01
  6
BYBLOCK
100
AcDbLine
 10
3573.994158008539
 20
159.2346256051489
 30
0.0
 11
3573.49415800854
 21
159.2346256051489
 31
0.0
  0
LINE
  5
1ABBB
330
18
100
AcDbEntity
  8
01
  6
BYBLOCK
100
AcDbLine
 10
3573.49415800854
 20
145.5346256051489
 30
0.0
 11
3573.994158008539
 21
145.5346256051489
 31
0.0
  0
LINE
  5
1ABBC
330
18
100
AcDbEntity
  8
01
  6
BYBLOCK
100
AcDbLine
 10
3573.49415800854
 20
145.5346256051489
 30
0.0
 11
3573.49415800854
 21
159.2346256051489
 31
0.0
  0
LINE
  5
1ABBD
330
18
100
AcDbEntity
  8
01
  6
BYBLOCK
100
AcDbLine
 10
3573.994158008539
 20
164.7846256051489
 30
0.0
 11
3575.49415800854
 21
164.7846256051489
 31
0.0
  0
LINE
  5
1ABBE
330
18
100
AcDbEntity
  8
01
  6
BYBLOCK
100
AcDbLine
 10
3573.994158008539
 20
139.9846256051489
 30
0.0
 11
3575.494158008539
 21
139.9846256051489
 31
0.0
  0
LINE
  5
1ABBF
330
18
100
AcDbEntity
  8
01
  6
BYBLOCK
100
AcDbLine
 10
3573.994158008539
 20
139.9846256051489
 30
0.0
 11
3573.994158008539
 21
164.7846256051489
 31
0.0
  0
LINE
  5
1ABC0
330
18
100
AcDbEntity
  8
01
  6
BYBLOCK
100
AcDbLine
 10
3642.994158008539
 20
144.6846256051488
 30
0.0
 11
3577.994158008539
 21
144.6846256051488
 31
0.0
  0
LINE
  5
1ABC1
330
18
100
AcDbEntity
  8
01
  6
BYBLOCK
100
AcDbLine
 10
3642.994158008539
 20
143.0846256051489
 30
0.0
 11
3592.594158008539
 21
143.0846256051489
 31
0.0
  0
LINE
  5
1ABC2
330
18
100
AcDbEntity
  8
01
  6
BYBLOCK
100
AcDbLine
 10
3595.431416308742
 20
143.0846256051489
 30
0.0
 11
3577.994158008539
 21
143.0846256051489
 31
0.0
  0
LINE
  5
1ABC3
330
18
100
AcDbEntity
  8
01
  6
BYBLOCK
100
AcDbLine
 10
3572.547711399132
 20
146.5310722145555
 30
0.0
 11
3563.333497836759
 21
155.7452857769285
 31
0.0
  0
ARC
  5
1ABC4
330
18
100
AcDbEntity
  8
01
  6
BYBLOCK
100
AcDbCircle
 10
3572.901264789725
 20
146.8846256051488
 30
0.0
 40
0.5
100
AcDbArc
 50
224.9999999999908
 51
270.0
  0
LINE
  5
1ABC5
330
18
100
AcDbEntity
  8
01
  6
BYBLOCK
100
AcDbLine
 10
3573.49415800854
 20
146.3846256051488
 30
0.0
 11
3572.901264789725
 21
146.3846256051488
 31
0.0
  0
LINE
  5
1ABC7
330
18
100
AcDbEntity
  8
01
  6
BYBLOCK
100
AcDbLine
 10
3562.99327382648
 20
-86.58370412680642
 30
0.0
 11
3562.99327382648
 21
-104.6470446608123
 31
0.0
  0
LINE
  5
1ABC8
330
18
100
AcDbEntity
  8
01
  6
BYBLOCK
100
AcDbLine
 10
3567.286167045293
 20
-85.61537439380936
 30
0.0
 11
3573.99327382648
 21
-85.61537439380936
 31
0.0
  0
LINE
  5
1ABC9
330
18
100
AcDbEntity
  8
01
  6
BYBLOCK
100
AcDbLine
 10
3567.286167045293
 20
-105.6153743938094
 30
0.0
 11
3573.99327382648
 21
-105.6153743938094
 31
0.0
  0
LINE
  5
1ABCA
330
18
100
AcDbEntity
  8
01
  6
BYBLOCK
100
AcDbLine
 10
3572.786167045293
 20
-90.36537439380936
 30
0.0
 11
3572.786167045293
 21
-100.8653743938094
 31
0.0
  0
ARC
  5
1ABCB
330
18
100
AcDbEntity
  8
01
  6
BYBLOCK
100
AcDbCircle
 10
3567.286167045293
 20
-95.61537439380936
 30
0.0
 40
10.00000000000009
100
AcDbArc
 50
53.1301023541625
 51
115.4224671781131
  0
ARC
  5
1ABCC
330
18
100
AcDbEntity
  8
01
  6
BYBLOCK
100
AcDbCircle
 10
3567.286167045293
 20
-95.61537439380913
 30
0.0
 40
10.00000000000009
100
AcDbArc
 50
244.5775328218868
 51
306.8698976458375
  0
LINE
  5
1ABCD
330
18
100
AcDbEntity
  8
01
  6
BYBLOCK
100
AcDbLine
 10
3573.286167045293
 20
-87.61537439380936
 30
0.0
 11
3573.286167045293
 21
-103.6153743938094
 31
0.0
  0
LINE
  5
1ABCE
330
18
100
AcDbEntity
  8
01
  6
BYBLOCK
100
AcDbLine
 10
3562.99327382648
 20
-90.36537439380936
 30
0.0
 11
3572.786167045293
 21
-90.36537439380936
 31
0.0
  0
LINE
  5
1ABCF
330
18
100
AcDbEntity
  8
01
  6
BYBLOCK
100
AcDbLine
 10
3562.99327382648
 20
-100.8653743938094
 30
0.0
 11
3572.786167045293
 21
-100.8653743938094
 31
0.0
  0
LINE
  5
1ABD0
330
18
100
AcDbEntity
  8
01
  6
BYBLOCK
100
AcDbLine
 10
3448.593390166224
 20
-31.71537439382314
 30
0.0
 11
3461.393390166224
 21
-31.71537439382314
 31
0.0
  0
LINE
  5
1ABD1
330
18
100
AcDbEntity
  8
01
  6
BYBLOCK
100
AcDbLine
 10
3448.593390166224
 20
-161.5153743938231
 30
0.0
 11
3461.393390166224
 21
-161.5153743938231
 31
0.0
  0
LINE
  5
1ABD2
330
18
100
AcDbEntity
  8
01
  6
BYBLOCK
100
AcDbLine
 10
3442.593390166224
 20
-37.71537439382314
 30
0.0
 11
3442.593390166224
 21
-155.5153743938231
 31
0.0
  0
LINE
  5
1ABD3
330
18
100
AcDbEntity
  8
01
  6
BYBLOCK
100
AcDbLine
 10
3467.393390166224
 20
-37.71537439382314
 30
0.0
 11
3467.393390166224
 21
-155.5153743938231
 31
0.0
  0
ARC
  5
1ABD4
330
18
100
AcDbEntity
  8
01
  6
BYBLOCK
100
AcDbCircle
 10
3448.593390166224
 20
-155.5153743938231
 30
0.0
 40
6.0
100
AcDbArc
 50
180.0
 51
270.0
  0
ARC
  5
1ABD5
330
18
100
AcDbEntity
  8
01
  6
BYBLOCK
100
AcDbCircle
 10
3461.393390166224
 20
-155.5153743938231
 30
0.0
 40
6.0
100
AcDbArc
 50
270.0
 51
0.0
  0
ARC
  5
1ABD6
330
18
100
AcDbEntity
  8
01
  6
BYBLOCK
100
AcDbCircle
 10
3448.593390166224
 20
-37.71537439382314
 30
0.0
 40
6.0
100
AcDbArc
 50
90.0
 51
180.0
  0
ARC
  5
1ABD7
330
18
100
AcDbEntity
  8
01
  6
BYBLOCK
100
AcDbCircle
 10
3461.393390166224
 20
-37.71537439382314
 30
0.0
 40
6.0
100
AcDbArc
 50
0.0
 51
90.0
  0
CIRCLE
  5
1ABD8
330
18
100
AcDbEntity
  8
01
  6
BYBLOCK
100
AcDbCircle
 10
3454.993390166224
 20
-153.615374393823
 30
0.0
 40
2.75
  0
CIRCLE
  5
1ABD9
330
18
100
AcDbEntity
  8
01
  6
BYBLOCK
100
AcDbCircle
 10
3454.993390166224
 20
-153.615374393823
 30
0.0
 40
4.25
  0
CIRCLE
  5
1ABDA
330
18
100
AcDbEntity
  8
01
  6
BYBLOCK
100
AcDbCircle
 10
3454.993390166224
 20
-39.61537439382323
 30
0.0
 40
2.75
  0
CIRCLE
  5
1ABDB
330
18
100
AcDbEntity
  8
01
  6
BYBLOCK
100
AcDbCircle
 10
3454.993390166224
 20
-39.61537439382323
 30
0.0
 40
4.25
  0
LINE
  5
1ABDC
330
18
100
AcDbEntity
  8
1CENTER
100
AcDbLine
 10
3460.86841557413
 20
-153.6153743938232
 30
0.0
 11
3449.118364758318
 21
-153.6153743938232
 31
0.0
  0
LINE
  5
1ABDD
330
18
100
AcDbEntity
  8
1CENTER
100
AcDbLine
 10
3454.993390166224
 20
-147.7403489859169
 30
0.0
 11
3454.993390166224
 21
-159.4903998017294
 31
0.0
  0
LINE
  5
1ABDE
330
18
100
AcDbEntity
  8
1CENTER
100
AcDbLine
 10
3460.86841557413
 20
-39.61537439382323
 30
0.0
 11
3449.118364758318
 21
-39.61537439382323
 31
0.0
  0
LINE
  5
1ABDF
330
18
100
AcDbEntity
  8
1CENTER
100
AcDbLine
 10
3454.993390166224
 20
-33.74034898591685
 30
0.0
 11
3454.993390166224
 21
-45.49039980172938
 31
0.0
  0
ARC
  5
1ABE0
330
18
100
AcDbEntity
  8
01
  6
BYBLOCK
100
AcDbCircle
 10
3454.993390166224
 20
-95.615374393823
 30
0.0
 40
10.15
100
AcDbArc
 50
231.9925780701392
 51
308.0074219298607
  0
LINE
  5
1ABE1
330
18
100
AcDbEntity
  8
01
  6
BYBLOCK
100
AcDbLine
 10
3448.743390166224
 20
-87.61787478457018
 30
0.0
 11
3448.743390166224
 21
-103.6128740030758
 31
0.0
  0
LINE
  5
1ABE2
330
18
100
AcDbEntity
  8
01
  6
BYBLOCK
100
AcDbLine
 10
3461.243390166224
 20
-87.61787478457018
 30
0.0
 11
3461.243390166224
 21
-103.6128740030758
 31
0.0
  0
ARC
  5
1ABE3
330
18
100
AcDbEntity
  8
01
  6
BYBLOCK
100
AcDbCircle
 10
3454.993390166224
 20
-95.615374393823
 30
0.0
 40
10.15
100
AcDbArc
 50
51.99257807013929
 51
128.0074219298607
  0
LINE
  5
1ABE4
330
18
100
AcDbEntity
  8
01
  6
BYBLOCK
100
AcDbLine
 10
3450.493390166224
 20
-90.365374393823
 30
0.0
 11
3450.493390166224
 21
-100.865374393823
 31
0.0
  0
LINE
  5
1ABE5
330
18
100
AcDbEntity
  8
01
  6
BYBLOCK
100
AcDbLine
 10
3460.493390166224
 20
-90.365374393823
 30
0.0
 11
3460.493390166224
 21
-100.865374393823
 31
0.0
  0
LINE
  5
1ABE6
330
18
100
AcDbEntity
  8
01
  6
BYBLOCK
100
AcDbLine
 10
3450.993390166224
 20
-86.28678929210469
 30
0.0
 11
3450.993390166224
 21
-90.36537439382323
 31
0.0
  0
LINE
  5
1ABE7
330
18
100
AcDbEntity
  8
01
  6
BYBLOCK
100
AcDbLine
 10
3449.493390166224
 20
-90.36537439382323
 30
0.0
 11
3449.493390166224
 21
-100.865374393823
 31
0.0
  0
LINE
  5
1ABE8
330
18
100
AcDbEntity
  8
01
  6
BYBLOCK
100
AcDbLine
 10
3450.993390166224
 20
-100.865374393823
 30
0.0
 11
3450.993390166224
 21
-104.9439594955413
 31
0.0
  0
LINE
  5
1ABE9
330
18
100
AcDbEntity
  8
01
  6
BYBLOCK
100
AcDbLine
 10
3449.493390166224
 20
-90.365374393823
 30
0.0
 11
3460.493390166224
 21
-90.365374393823
 31
0.0
  0
LINE
  5
1ABEA
330
18
100
AcDbEntity
  8
01
  6
BYBLOCK
100
AcDbLine
 10
3449.493390166224
 20
-100.865374393823
 30
0.0
 11
3460.493390166224
 21
-100.865374393823
 31
0.0
  0
LINE
  5
1ABEC
330
18
100
AcDbEntity
  8
01
100
AcDbLine
 10
3434.993506505967
 20
2.384625606177224
 30
0.0
 11
3434.993506505967
 21
-187.615374393823
 31
0.0
  0
LINE
  5
1ABED
330
18
100
AcDbEntity
  8
01
100
AcDbLine
 10
3568.993273826767
 20
-153.6153743935338
 30
0.0
 11
3582.993273826767
 21
-153.6153743935338
 31
0.0
  0
LINE
  5
1ABEE
330
18
100
AcDbEntity
  8
01
100
AcDbLine
 10
3340.993506505969
 20
-39.61537439382255
 30
0.0
 11
3326.993506505969
 21
-39.61537439382255
 31
0.0
  0
LINE
  5
1ABEF
330
18
100
AcDbEntity
  8
01
  6
BYBLOCK
100
AcDbLine
 10
3334.493506505969
 20
-31.71537439382246
 30
0.0
 11
3334.493506505969
 21
-161.5153743938224
 31
0.0
  0
LINE
  5
1ABF0
330
18
100
AcDbEntity
  8
01
  6
BYBLOCK
100
AcDbLine
 10
3334.493506505969
 20
-160.6153743938225
 30
0.0
 11
3331.993506505969
 21
-160.6153743938225
 31
0.0
  0
LINE
  5
1ABF1
330
18
100
AcDbEntity
  8
01
  6
BYBLOCK
100
AcDbLine
 10
3333.293506505968
 20
-59.61537439382255
 30
0.0
 11
3309.993506505969
 21
-59.61537439382255
 31
0.0
  0
LINE
  5
1ABF2
330
18
100
AcDbEntity
  8
01
  6
BYBLOCK
100
AcDbLine
 10
3331.993506505969
 20
-160.6153743938225
 30
0.0
 11
3331.993506505969
 21
-144.1124306686702
 31
0.0
  0
LINE
  5
1ABF3
330
18
100
AcDbEntity
  8
01
  6
BYBLOCK
100
AcDbLine
 10
3335.993506505969
 20
-31.71537439382246
 30
0.0
 11
3335.993506505969
 21
-161.5153743938224
 31
0.0
  0
LINE
  5
1ABF4
330
18
100
AcDbEntity
  8
01
  6
BYBLOCK
100
AcDbLine
 10
3335.993506505969
 20
-161.5153743938224
 30
0.0
 11
3334.493506505969
 21
-161.5153743938224
 31
0.0
  0
LINE
  5
1ABF5
330
18
100
AcDbEntity
  8
01
  6
BYBLOCK
100
AcDbLine
 10
3334.493506505969
 20
-32.61537439382255
 30
0.0
 11
3331.993506505969
 21
-32.61537439382255
 31
0.0
  0
LINE
  5
1ABF6
330
18
100
AcDbEntity
  8
01
  6
BYBLOCK
100
AcDbLine
 10
3335.993506505969
 20
-31.71537439382246
 30
0.0
 11
3334.493506505969
 21
-31.71537439382246
 31
0.0
  0
LINE
  5
1ABF7
330
18
100
AcDbEntity
  8
01
  6
BYBLOCK
100
AcDbLine
 10
3334.493506505969
 20
-56.61537439382255
 30
0.0
 11
3333.293506505968
 21
-56.61537439382255
 31
0.0
  0
LINE
  5
1ABF8
330
18
100
AcDbEntity
  8
01
  6
BYBLOCK
100
AcDbLine
 10
3318.093506505968
 20
-59.61537439382255
 30
0.0
 11
3309.993506505969
 21
-59.61537439382255
 31
0.0
  0
LINE
  5
1ABF9
330
18
100
AcDbEntity
  8
01
  6
BYBLOCK
100
AcDbLine
 10
3333.293506505968
 20
-50.91537439382228
 30
0.0
 11
3333.293506505969
 21
-142.3153743938224
 31
0.0
  0
LINE
  5
1ABFA
330
18
100
AcDbEntity
  8
01
  6
BYBLOCK
100
AcDbLine
 10
3333.193506505969
 20
-160.6153743938225
 30
0.0
 11
3333.193506505969
 21
-144.0153743938224
 31
0.0
  0
LINE
  5
1ABFB
330
18
100
AcDbEntity
  8
01
  6
BYBLOCK
100
AcDbLine
 10
3333.193506505969
 20
-144.0153743938224
 30
0.0
 11
3334.142034643392
 21
-143.0668462563985
 31
0.0
  0
LINE
  5
1ABFC
330
18
100
AcDbEntity
  8
01
  6
BYBLOCK
100
AcDbLine
 10
3332.344978368545
 20
-143.2639025312462
 30
0.0
 11
3333.293506505968
 21
-142.3153743938224
 31
0.0
  0
ARC
  5
1ABFD
330
18
100
AcDbEntity
  8
01
  6
BYBLOCK
100
AcDbCircle
 10
3333.193506505969
 20
-144.1124306686702
 30
0.0
 40
1.2
100
AcDbArc
 50
135.0000000000138
 51
180.0
  0
ARC
  5
1ABFE
330
18
100
AcDbEntity
  8
01
  6
BYBLOCK
100
AcDbCircle
 10
3333.293506505968
 20
-142.2183181189746
 30
0.0
 40
1.2
100
AcDbArc
 50
315.0000000000138
 51
0.0
  0
LINE
  5
1ABFF
330
18
100
AcDbEntity
  8
01
  6
BYBLOCK
100
AcDbLine
 10
3331.993506505969
 20
-32.61537439382255
 30
0.0
 11
3331.993506505969
 21
-49.11831811897468
 31
0.0
  0
LINE
  5
1AC00
330
18
100
AcDbEntity
  8
01
  6
BYBLOCK
100
AcDbLine
 10
3333.193506505969
 20
-32.61537439382255
 30
0.0
 11
3333.193506505969
 21
-49.21537439382246
 31
0.0
  0
LINE
  5
1AC01
330
18
100
AcDbEntity
  8
01
  6
BYBLOCK
100
AcDbLine
 10
3333.193506505969
 20
-49.21537439382246
 30
0.0
 11
3334.142034643392
 21
-50.16390253124632
 31
0.0
  0
LINE
  5
1AC02
330
18
100
AcDbEntity
  8
01
  6
BYBLOCK
100
AcDbLine
 10
3332.344978368545
 20
-49.96684625639864
 30
0.0
 11
3333.293506505968
 21
-50.9153743938225
 31
0.0
  0
ARC
  5
1AC03
330
18
100
AcDbEntity
  8
01
  6
BYBLOCK
100
AcDbCircle
 10
3333.193506505969
 20
-49.11831811897468
 30
0.0
 40
1.2
100
AcDbArc
 50
180.0
 51
224.9999999999862
  0
ARC
  5
1AC04
330
18
100
AcDbEntity
  8
01
  6
BYBLOCK
100
AcDbCircle
 10
3333.293506505968
 20
-51.01243066867028
 30
0.0
 40
1.2
100
AcDbArc
 50
0.0
 51
44.99999999998619
  0
LINE
  5
1AC05
330
18
100
AcDbEntity
  8
01
  6
BYBLOCK
100
AcDbLine
 10
3333.293506505968
 20
-133.6153743938228
 30
0.0
 11
3309.993506505969
 21
-133.6153743938225
 31
0.0
  0
LINE
  5
1AC06
330
18
100
AcDbEntity
  8
01
  6
BYBLOCK
100
AcDbLine
 10
3346.993506505968
 20
-86.58370412680642
 30
0.0
 11
3346.993506505968
 21
-104.6470446608123
 31
0.0
  0
LINE
  5
1AC07
330
18
100
AcDbEntity
  8
01
  6
BYBLOCK
100
AcDbLine
 10
3342.700613287155
 20
-85.61537439380936
 30
0.0
 11
3335.993506505968
 21
-85.61537439380936
 31
0.0
  0
LINE
  5
1AC08
330
18
100
AcDbEntity
  8
01
  6
BYBLOCK
100
AcDbLine
 10
3342.700613287155
 20
-105.6153743938094
 30
0.0
 11
3335.993506505968
 21
-105.6153743938094
 31
0.0
  0
ARC
  5
1AC09
330
18
100
AcDbEntity
  8
01
  6
BYBLOCK
100
AcDbCircle
 10
3342.700613287155
 20
-95.61537439380936
 30
0.0
 40
10.00000000000009
100
AcDbArc
 50
64.57753282188686
 51
90.0
  0
LINE
  5
1AC0A
330
18
100
AcDbEntity
  8
01
100
AcDbLine
 10
3340.993506505681
 20
-153.6153743935338
 30
0.0
 11
3326.993506505681
 21
-153.6153743935338
 31
0.0
  0
LINE
  5
1AC0B
330
18
100
AcDbEntity
  8
01
  6
CONTINUOUS
100
AcDbLine
 10
3346.493506505968
 20
-103.9301685866401
 30
0.0
 11
3335.993506505969
 21
-103.9301685866401
 31
0.0
  0
ARC
  5
1AC0C
330
18
100
AcDbEntity
  8
01
  6
CONTINUOUS
100
AcDbCircle
 10
3346.532086752882
 20
-103.4680293558333
 30
0.0
 40
0.4637468103423796
100
AcDbArc
 50
265.2279066161988
 51
354.2577450626268
  0
LINE
  5
1AC0D
330
18
100
AcDbEntity
  8
01
  6
CONTINUOUS
100
AcDbLine
 10
3346.993506505968
 20
-88.13205962026132
 30
0.0
 11
3346.993506505968
 21
-103.0986891673572
 31
0.0
  0
ARC
  5
1AC0E
330
18
100
AcDbEntity
  8
01
  6
CONTINUOUS
100
AcDbCircle
 10
3346.532086752882
 20
-87.76271943178494
 30
0.0
 40
0.4637468103423387
100
AcDbArc
 50
5.742254937373203
 51
94.77209338380122
  0
ARC
  5
1AC0F
330
18
100
AcDbEntity
  8
01
  6
BYBLOCK
100
AcDbCircle
 10
3342.700613287155
 20
-95.61537439380913
 30
0.0
 40
10.00000000000009
100
AcDbArc
 50
270.0
 51
295.4224671781132
  0
LINE
  5
1AC10
330
18
100
AcDbEntity
  8
01
  6
CONTINUOUS
100
AcDbLine
 10
3335.993506505969
 20
-87.30058020097817
 30
0.0
 11
3346.493506505968
 21
-87.30058020097817
 31
0.0
  0
LINE
  5
1AC11
330
18
100
AcDbEntity
  8
1HIDDEN
100
AcDbLine
 10
3642.99327382648
 20
-60.61537439382255
 30
0.0
 11
3642.99327382648
 21
-132.6153743938225
 31
0.0
  0
LINE
  5
1AC12
330
18
100
AcDbEntity
  8
1HIDDEN
100
AcDbLine
 10
3599.99327382648
 20
-59.61537439382255
 30
0.0
 11
3641.99327382648
 21
-59.61537439382255
 31
0.0
  0
ARC
  5
1AC13
330
18
100
AcDbEntity
  8
1HIDDEN
100
AcDbCircle
 10
3641.99327382648
 20
-60.61537439382255
 30
0.0
 40
1.0
100
AcDbArc
 50
0.0
 51
90.0
  0
ARC
  5
1AC14
330
18
100
AcDbEntity
  8
1HIDDEN
100
AcDbCircle
 10
3641.99327382648
 20
-132.6153743938225
 30
0.0
 40
1.0
100
AcDbArc
 50
270.0
 51
0.0
  0
CIRCLE
  5
1AC15
330
18
100
AcDbEntity
  8
1HIDDEN
100
AcDbCircle
 10
3624.99327382648
 20
-67.61537439382255
 30
0.0
 40
4.75
  0
LINE
  5
1AC16
330
18
100
AcDbEntity
  8
1HIDDEN
100
AcDbLine
 10
3599.99327382648
 20
-133.6153743938225
 30
0.0
 11
3641.99327382648
 21
-133.6153743938221
 31
0.0
  0
LINE
  5
1AC17
330
18
100
AcDbEntity
  8
1HIDDEN
100
AcDbLine
 10
3624.993273826482
 20
-59.61537439382255
 30
0.0
 11
3641.99327382648
 21
-59.61537439382255
 31
0.0
  0
LINE
  5
1AC18
330
18
100
AcDbEntity
  8
1HIDDEN
100
AcDbLine
 10
3621.387029242428
 20
-67.61537439382255
 30
0.0
 11
3624.99327382648
 21
-64.00912980977137
 31
0.0
  0
LINE
  5
1AC19
330
18
100
AcDbEntity
  8
1HIDDEN
100
AcDbLine
 10
3628.599518410531
 20
-67.61537439382255
 30
0.0
 11
3624.99327382648
 21
-64.00912980977137
 31
0.0
  0
LINE
  5
1AC1A
330
18
100
AcDbEntity
  8
1HIDDEN
100
AcDbLine
 10
3621.387029242428
 20
-67.61537439382255
 30
0.0
 11
3624.99327382648
 21
-71.22161897787373
 31
0.0
  0
LINE
  5
1AC1B
330
18
100
AcDbEntity
  8
1HIDDEN
100
AcDbLine
 10
3628.599518410531
 20
-67.61537439382255
 30
0.0
 11
3624.99327382648
 21
-71.22161897787373
 31
0.0
  0
LINE
  5
1AC1C
330
18
100
AcDbEntity
  8
01
100
AcDbLine
 10
3636.30516209402
 20
-67.61537439382255
 30
0.0
 11
3613.681385558937
 21
-67.61537439382255
 31
0.0
  0
LINE
  5
1AC1D
330
18
100
AcDbEntity
  8
01
100
AcDbLine
 10
3624.99327382648
 20
-56.30348612628086
 30
0.0
 11
3624.99327382648
 21
-78.92726266136424
 31
0.0
  0
LINE
  5
1AC1E
330
18
100
AcDbEntity
  8
01
100
AcDbLine
 10
3437.121791888397
 20
-117.615374393823
 30
0.0
 11
3414.493506505967
 21
-117.615374393823
 31
0.0
  0
LINE
  5
1AC1F
330
18
100
AcDbEntity
  8
01
100
AcDbLine
 10
3426.493506505967
 20
-4.115374393822776
 30
0.0
 11
3426.493506505967
 21
-181.115374393823
 31
0.0
  0
ARC
  5
1AC20
330
18
100
AcDbEntity
  8
01
100
AcDbCircle
 10
3426.993506505967
 20
-181.115374393823
 30
0.0
 40
0.5
100
AcDbArc
 50
180.0
 51
270.0
  0
LINE
  5
1AC21
330
18
100
AcDbEntity
  8
01
100
AcDbLine
 10
3434.993506505967
 20
-3.615374393822776
 30
0.0
 11
3434.993506505967
 21
-181.615374393823
 31
0.0
  0
LINE
  5
1AC22
330
18
100
AcDbEntity
  8
01
100
AcDbLine
 10
3426.993506505967
 20
-3.615374393822776
 30
0.0
 11
3434.993506505967
 21
-3.615374393822776
 31
0.0
  0
ARC
  5
1AC23
330
18
100
AcDbEntity
  8
01
100
AcDbCircle
 10
3426.993506505967
 20
-4.115374393822776
 30
0.0
 40
0.5
100
AcDbArc
 50
90.0
 51
180.0
  0
LINE
  5
1AC24
330
18
100
AcDbEntity
  8
01
100
AcDbLine
 10
3426.993506505967
 20
-181.615374393823
 30
0.0
 11
3434.993506505967
 21
-181.615374393823
 31
0.0
  0
TEXT
  5
1AC27
330
18
100
AcDbEntity
  8
1TEXT
100
AcDbText
 10
3266.993406166224
 20
163.8846256061779
 30
0.0
 40
20.0
  1
1-HSK-X-LJ
100
AcDbText
  0
LINE
  5
1AC29
330
18
100
AcDbEntity
  8
1DIM
100
AcDbLine
 10
3266.993406166224
 20
102.3846256061779
 30
0.0
 11
3424.493406166224
 21
102.3846256061779
 31
0.0
  0
TEXT
  5
1AC2A
330
18
100
AcDbEntity
  8
1TEXT
100
AcDbText
 10
3321.393406166224
 20
104.9182551888216
 30
0.0
 40
6.0
  1
パールブラック
 72
     1
 11
3345.593406166224
 21
104.9182551888216
 31
0.0
100
AcDbText
  0
TEXT
  5
1AC2B
330
18
100
AcDbEntity
  8
1TEXT
100
AcDbText
 10
3321.693406166224
 20
125.6346256061779
 30
0.0
 40
6.0
  1
表面処理：握り
 72
     1
 11
3345.593406166224
 21
125.6346256061779
 31
0.0
100
AcDbText
  0
TEXT
  5
1AC2C
330
18
100
AcDbEntity
  8
1TEXT
100
AcDbText
 10
3320.793406166224
 20
115.3816926168911
 30
0.0
 40
6.0
  1
サテンニッケル
 72
     1
 11
3345.593406166224
 21
115.3816926168911
 31
0.0
100
AcDbText
  0
LINE
  5
1AC2D
330
18
100
AcDbEntity
  8
1DIM
100
AcDbLine
 10
3266.993406166224
 20
133.8846256061779
 30
0.0
 11
3424.493406166224
 21
133.8846256061779
 31
0.0
  0
LINE
  5
1AC2E
330
18
100
AcDbEntity
  8
1DIM
100
AcDbLine
 10
3266.993406166224
 20
123.3846256061779
 30
0.0
 11
3424.493406166224
 21
123.3846256061779
 31
0.0
  0
LINE
  5
1AC2F
330
18
100
AcDbEntity
  8
1DIM
100
AcDbLine
 10
3266.993406166224
 20
112.8846256061779
 30
0.0
 11
3424.493406166224
 21
112.8846256061779
 31
0.0
  0
LINE
  5
1AC30
330
18
100
AcDbEntity
  8
1DIM
100
AcDbLine
 10
3266.993406166224
 20
112.8846256061779
 30
0.0
 11
3424.493406166224
 21
112.8846256061779
 31
0.0
  0
LINE
  5
1AC31
330
18
100
AcDbEntity
  8
1DIM
100
AcDbLine
 10
3371.993406166224
 20
133.8846256061779
 30
0.0
 11
3371.993406166224
 21
102.3846256061779
 31
0.0
  0
TEXT
  5
1AC32
330
18
100
AcDbEntity
  8
1TEXT
100
AcDbText
 10
3376.393406166224
 20
114.813090130704
 30
0.0
 40
6.0
  1
1-HSK-CN-LJ
 41
0.7
 72
     1
 11
3398.093406166224
 21
114.813090130704
 31
0.0
100
AcDbText
  0
TEXT
  5
1AC33
330
18
100
AcDbEntity
  8
1TEXT
100
AcDbText
 10
3387.793406166224
 20
125.6346256061779
 30
0.0
 40
6.0
  1
コード
 72
     1
 11
3398.093406166224
 21
125.6346256061779
 31
0.0
100
AcDbText
  0
LINE
  5
1AC34
330
18
100
AcDbEntity
  8
1DIM
100
AcDbLine
 10
3319.493406166224
 20
102.3846256061779
 30
0.0
 11
3319.493406166224
 21
133.8846256061779
 31
0.0
  0
LINE
  5
1AC35
330
18
100
AcDbEntity
  8
1DIM
100
AcDbLine
 10
3424.493406166224
 20
102.3846256061779
 30
0.0
 11
3424.493406166224
 21
133.8846256061779
 31
0.0
  0
TEXT
  5
1AC36
330
18
100
AcDbEntity
  8
1TEXT
100
AcDbText
 10
3375.979864499558
 20
104.313090130704
 30
0.0
 40
6.0
  1
1-HSK-CGQ-LJ
 41
0.65
 72
     1
 11
3398.093406166224
 21
104.313090130704
 31
0.0
100
AcDbText
  0
TEXT
  5
1AC37
330
18
100
AcDbEntity
  8
1TEXT
100
AcDbText
 10
3278.893406166224
 20
104.9182551888216
 30
0.0
 40
6.0
  1
クローム
 72
     1
 11
3293.093406166224
 21
104.9182551888216
 31
0.0
100
AcDbText
  0
TEXT
  5
1AC38
330
18
100
AcDbEntity
  8
1TEXT
100
AcDbText
 10
3268.393406166224
 20
125.6346256061779
 30
0.0
 40
6.0
  1
表面処理：脚部
 72
     1
 11
3293.093406166224
 21
125.6346256061779
 31
0.0
100
AcDbText
  0
TEXT
  5
1AC39
330
18
100
AcDbEntity
  8
1TEXT
100
AcDbText
 10
3278.893406166224
 20
115.3816926168911
 30
0.0
 40
6.0
  1
クローム
 72
     1
 11
3293.093406166224
 21
115.3816926168911
 31
0.0
100
AcDbText
  0
LINE
  5
1AC3A
330
18
100
AcDbEntity
  8
1DIM
100
AcDbLine
 10
3266.993406166224
 20
102.3846256061779
 30
0.0
 11
3266.993406166224
 21
133.8846256061779
 31
0.0
  0
LINE
  5
1AC3B
330
18
100
AcDbEntity
  8
01
100
AcDbLine
 10
3472.864988444049
 20
-117.6140560807198
 30
0.0
 11
3495.493273826479
 21
-117.6140560807198
 31
0.0
  0
LINE
  5
1AC3F
330
18
100
AcDbEntity
  8
01
100
AcDbLine
 10
3474.993273826479
 20
2.38594391928018
 30
0.0
 11
3474.993273826479
 21
-187.6140560807198
 31
0.0
  0
LINE
  5
1AC40
330
18
100
AcDbEntity
  8
1CENTER
100
AcDbLine
 10
3489.493273826479
 20
-132.6140560807198
 30
0.0
 11
3489.493273826479
 21
-124.6140560807198
 31
0.0
  0
LINE
  5
1AC41
330
18
100
AcDbEntity
  8
01
100
AcDbLine
 10
3594.993273826479
 20
-117.6140560807198
 30
0.0
 11
3654.993273826479
 21
-117.6140560807198
 31
0.0
  0
LINE
  5
1AC42
330
18
100
AcDbEntity
  8
01
100
AcDbLine
 10
3624.993273826479
 20
-87.61405608071982
 30
0.0
 11
3624.993273826479
 21
-147.6140560807198
 31
0.0
  0
LINE
  5
1AC43
330
18
100
AcDbEntity
  8
01
100
AcDbLine
 10
3599.993273826479
 20
-4.11405608071982
 30
0.0
 11
3599.993273826479
 21
-181.1140560807198
 31
0.0
  0
ARC
  5
1AC44
330
18
100
AcDbEntity
  8
01
100
AcDbCircle
 10
3600.493273826479
 20
-181.1140560807198
 30
0.0
 40
0.5
100
AcDbArc
 50
180.0
 51
270.0
  0
LINE
  5
1AC45
330
18
100
AcDbEntity
  8
01
100
AcDbLine
 10
3649.993273826479
 20
-4.11405608071982
 30
0.0
 11
3649.993273826479
 21
-109.0886436825351
 31
0.0
  0
LINE
  5
1AC46
330
18
100
AcDbEntity
  8
01
100
AcDbLine
 10
3649.993273826479
 20
-126.141432891834
 30
0.0
 11
3649.993273826479
 21
-181.1140560807198
 31
0.0
  0
ARC
  5
1AC47
330
18
100
AcDbEntity
  8
01
100
AcDbCircle
 10
3649.493273826479
 20
-4.11405608071982
 30
0.0
 40
0.5
100
AcDbArc
 50
0.0
 51
90.0
  0
LINE
  5
1AC48
330
18
100
AcDbEntity
  8
01
100
AcDbLine
 10
3649.493273826479
 20
-181.6140560807198
 30
0.0
 11
3600.493273826479
 21
-181.6140560807198
 31
0.0
  0
ARC
  5
1AC49
330
18
100
AcDbEntity
  8
01
100
AcDbCircle
 10
3649.493273826479
 20
-181.1140560807198
 30
0.0
 40
0.5
100
AcDbArc
 50
270.0
 51
0.0
  0
LINE
  5
1AC4A
330
18
100
AcDbEntity
  8
01
100
AcDbLine
 10
3600.493273826479
 20
-3.61405608071982
 30
0.0
 11
3649.493273826479
 21
-3.61405608071982
 31
0.0
  0
ARC
  5
1AC4B
330
18
100
AcDbEntity
  8
01
100
AcDbCircle
 10
3600.493273826479
 20
-4.11405608071982
 30
0.0
 40
0.5
100
AcDbArc
 50
90.0
 51
180.0
  0
LINE
  5
1AC4C
330
18
100
AcDbEntity
  8
01
100
AcDbLine
 10
3483.493273826479
 20
-4.11405608071982
 30
0.0
 11
3483.493273826479
 21
-181.1140560807198
 31
0.0
  0
ARC
  5
1AC4D
330
18
100
AcDbEntity
  8
01
100
AcDbCircle
 10
3482.993273826479
 20
-181.1140560807198
 30
0.0
 40
0.5
100
AcDbArc
 50
270.0
 51
0.0
  0
LINE
  5
1AC4E
330
18
100
AcDbEntity
  8
01
100
AcDbLine
 10
3474.993273826479
 20
-3.61405608071982
 30
0.0
 11
3474.993273826479
 21
-181.6140560807198
 31
0.0
  0
LINE
  5
1AC4F
330
18
100
AcDbEntity
  8
01
100
AcDbLine
 10
3482.993273826479
 20
-3.61405608071982
 30
0.0
 11
3474.993273826479
 21
-3.61405608071982
 31
0.0
  0
ARC
  5
1AC50
330
18
100
AcDbEntity
  8
01
100
AcDbCircle
 10
3482.993273826479
 20
-4.11405608071982
 30
0.0
 40
0.5
100
AcDbArc
 50
0.0
 51
90.0
  0
LINE
  5
1AC51
330
18
100
AcDbEntity
  8
01
100
AcDbLine
 10
3482.993273826479
 20
-181.6140560807198
 30
0.0
 11
3474.993273826479
 21
-181.6140560807198
 31
0.0
  0
LINE
  5
1AC54
330
18
100
AcDbEntity
  8
01
100
AcDbLine
 10
3573.994158008539
 20
132.3846256051488
 30
0.0
 11
3727.748538163572
 21
132.3846256051488
 31
0.0
  0
LINE
  5
1AC55
330
18
100
AcDbEntity
  8
01
100
AcDbLine
 10
3599.993273826479
 20
132.3846256051479
 30
0.0
 11
3649.993273826479
 21
132.3846256051502
 31
0.0
  0
LINE
  5
1AC56
330
18
100
AcDbEntity
  8
01
100
AcDbLine
 10
3600.493273826476
 20
123.8846256051479
 30
0.0
 11
3649.493273826479
 21
123.8846256051515
 31
0.0
  0
LINE
  5
1AC57
330
18
100
AcDbEntity
  8
01
100
AcDbLine
 10
3649.993273826479
 20
132.3846256051502
 30
0.0
 11
3649.993273826479
 21
124.3846256051515
 31
0.0
  0
ARC
  5
1AC58
330
18
100
AcDbEntity
  8
01
100
AcDbCircle
 10
3649.493273826479
 20
124.3846256051515
 30
0.0
 40
0.5
100
AcDbArc
 50
270.0
 51
0.0
  0
LINE
  5
1AC59
330
18
100
AcDbEntity
  8
01
100
AcDbLine
 10
3599.993273826479
 20
132.3846256051479
 30
0.0
 11
3599.993273826476
 21
124.3846256051484
 31
0.0
  0
ARC
  5
1AC5A
330
18
100
AcDbEntity
  8
01
100
AcDbCircle
 10
3600.493273826476
 20
124.3846256051479
 30
0.0
 40
0.5
100
AcDbArc
 50
180.0
 51
270.0
  0
LINE
  5
1AC5B
330
18
100
AcDbEntity
  8
01
100
AcDbLine
 10
3624.993273826479
 20
110.8846256051497
 30
0.0
 11
3624.993273826479
 21
137.4504565252978
 31
0.0
  0
LINE
  5
1AC5E
330
18
100
AcDbEntity
  8
01
100
AcDbLine
 10
3483.993273826479
 20
-128.6140942990864
 30
0.0
 11
3486.099976529953
 21
-128.558659984817
 31
0.0
  0
SPLINE
  5
1AC5F
330
18
100
AcDbEntity
  8
01
100
AcDbSpline
210
0.0
220
0.0
230
1.0
 70
     8
 71
     3
 72
   138
 73
   134
 74
     0
 42
0.0000000001
 43
0.0000000001
 40
0.0
 40
0.0
 40
0.0
 40
0.0
 40
0.1668157130194292
 40
0.3346876553454588
 40
0.5240669493630439
 40
0.7147095099200806
 40
0.8985953965508194
 40
1.083107924707542
 40
1.290805810141262
 40
1.499182253444173
 40
1.701679046967988
 40
1.904500923923147
 40
2.107508332753089
 40
2.310627511543653
 40
2.481455866649648
 40
2.6521672245704
 40
2.730720249536133
 40
2.809206602893594
 40
3.024464093987093
 40
3.239426774508367
 40
3.417629971705596
 40
3.595080099381215
 40
3.665965004232471
 40
3.736621908582423
 40
3.88058279821407
 40
4.023441446393039
 40
4.168623700254177
 40
4.312700030266428
 40
4.455773429886731
 40
4.597946448969819
 40
4.734770866870796
 40
4.871067763021014
 40
5.006134682710677
 40
5.140723777495796
 40
5.408323944773493
 40
5.673767610389495
 40
5.809212267887493
 40
5.94422000793654
 40
6.079065042884841
 40
6.213593550615947
 40
6.348626553422866
 40
6.483273594736706
 40
6.618271226934831
 40
6.752756281565293
 40
7.02047152595319
 40
7.421616657639844
 40
7.692290584559225
 40
7.827919423113985
 40
8.07845510877842
 40
8.327871015826632
 40
8.576841194451651
 40
9.323570508807586
 40
9.575017729387518
 40
10.03707551382911
 40
10.24521813234471
 40
10.87119144050196
 40
11.50512337434287
 40
12.56666713690732
 40
12.78018384205361
 40
13.21089593904656
 40
13.86369562851506
 40
14.51947296165382
 40
14.84710488477319
 40
15.33703996929068
 40
15.66039604316792
 40
15.95641160121191
 40
16.22533809107201
 40
16.35806910952146
 40
16.48946025091275
 40
16.55512360860931
 40
16.62137360057212
 40
16.67216095566956
 40
16.72509011289515
 40
16.75927672523065
 40
16.79348964335928
 40
16.82501671458787
 40
16.85655277983729
 40
16.90650187766521
 40
16.95704041767811
 40
17.00878642968656
 40
17.06051158171665
 40
18.05232509175194
 40
19.05412842030143
 40
19.59748009973429
 40
20.14662486715726
 40
20.6960570326199
 40
21.24549961502616
 40
21.79838629269784
 40
22.35447510513524
 40
22.63281640714843
 40
22.91007054045417
 40
23.18629582463462
 40
23.4615601908881
 40
24.56983334669013
 40
25.68195104993805
 40
25.88208105101144
 40
26.22966387996111
 40
26.52349607570023
 40
26.82000405908244
 40
27.10872157924958
 40
27.39227484299192
 40
27.53218939748468
 40
27.80764894116495
 40
28.06877431243479
 40
28.19319811623436
 40
28.43835210689766
 40
28.79969009877493
 40
29.39673438016384
 40
29.87957113092499
 40
30.36613776974632
 40
30.85438344271968
 40
31.34245740531411
 40
32.17723335082021
 40
33.21783413460746
 40
34.25987937571865
 40
36.00862584052744
 40
37.05883755635396
 40
37.86561754231909
 40
38.78056165034153
 40
39.69506462414768
 40
41.05495505395752
 40
42.8539749115778
 40
44.63434476152022
 40
46.71905378355459
 40
48.78012043535887
 40
50.8350599240697
 40
52.87257028749691
 40
55.92425539466682
 40
58.94112843645743
 40
59.94188621989754
 40
60.94236754650147
 40
61.50419583016652
 40
62.06303412180577
 40
62.06303412180577
 40
62.06303412180577
 40
62.06303412180577
 10
3542.018927653602
 20
-117.6140542719936
 30
0.0
 10
3542.018916685898
 20
-117.669456543224
 30
0.0
 10
3542.017278863862
 20
-117.7710264901002
 30
0.0
 10
3542.008896188419
 20
-117.9433438812453
 30
0.0
 10
3541.997230854771
 20
-118.0877918863639
 30
0.0
 10
3541.980623359149
 20
-118.2415109062508
 30
0.0
 10
3541.958923334366
 20
-118.3978937684319
 30
0.0
 10
3541.930866049215
 20
-118.5616366897098
 30
0.0
 10
3541.90333493917
 20
-118.6984772856126
 30
0.0
 10
3541.869688983739
 20
-118.8461175790621
 30
0.0
 10
3541.833802070026
 20
-118.9857809826804
 30
0.0
 10
3541.795368310631
 20
-119.1218338050189
 30
0.0
 10
3541.752830247345
 20
-119.2588364497947
 30
0.0
 10
3541.71463776309
 20
-119.3736141464774
 30
0.0
 10
3541.661428146353
 20
-119.521645337762
 30
0.0
 10
3541.622602456225
 20
-119.6220346256791
 30
0.0
 10
3541.587086406218
 20
-119.710139380732
 30
0.0
 10
3541.540089142292
 20
-119.8222345567178
 30
0.0
 10
3541.538872276876
 20
-119.8236648415918
 30
0.0
 10
3541.514672439576
 20
-119.8800136150471
 30
0.0
 10
3541.47319866741
 20
-119.9708895101571
 30
0.0
 10
3541.466248819031
 20
-119.9867569643598
 30
0.0
 10
3541.415099142899
 20
-120.0939398229862
 30
0.0
 10
3541.374095524202
 20
-120.177093396494
 30
0.0
 10
3541.320950395007
 20
-120.2812036964983
 30
0.0
 10
3541.253593265375
 20
-120.4067456764465
 30
0.0
 10
3541.186101869265
 20
-120.526948272905
 30
0.0
 10
3541.115538186131
 20
-120.6472778058646
 30
0.0
 10
3541.043014388813
 20
-120.7657626143514
 30
0.0
 10
3540.970247677983
 20
-120.8799855057646
 30
0.0
 10
3540.893407241766
 20
-120.9959942264445
 30
0.0
 10
3540.816768357959
 20
-121.107433597605
 30
0.0
 10
3540.738131423899
 20
-121.2178148632606
 30
0.0
 10
3540.631873337764
 20
-121.3619454073419
 30
0.0
 10
3540.495920091912
 20
-121.5375618374842
 30
0.0
 10
3540.354768326664
 20
-121.7091385450562
 30
0.0
 10
3540.238502921509
 20
-121.8442605440191
 30
0.0
 10
3540.148996008038
 20
-121.9452116666612
 30
0.0
 10
3540.058835920435
 20
-122.0439595627254
 30
0.0
 10
3539.966816128855
 20
-122.1418674594456
 30
0.0
 10
3539.875145588825
 20
-122.2367229536053
 30
0.0
 10
3539.781481494135
 20
-122.3310558799717
 30
0.0
 10
3539.688176921523
 20
-122.4225801745074
 30
0.0
 10
3539.562269914944
 20
-122.5429849691259
 30
0.0
 10
3539.371414888306
 20
-122.7187535846647
 30
0.0
 10
3539.141700388001
 20
-122.9172991786895
 30
0.0
 10
3538.944145404982
 20
-123.0780179470235
 30
0.0
 10
3538.781606345413
 20
-123.2057545914918
 30
0.0
 10
3538.623695952024
 20
-123.3258517582458
 30
0.0
 10
3538.434800622913
 20
-123.4636438657694
 30
0.0
 10
3538.118452089327
 20
-123.6850196599603
 30
0.0
 10
3537.794339347548
 20
-123.893670100389
 30
0.0
 10
3537.413421114817
 20
-124.1197520276605
 30
0.0
 10
3537.173244220619
 20
-124.2544429563545
 30
0.0
 10
3536.829855951569
 20
-124.4372672893519
 30
0.0
 10
3536.438191293225
 20
-124.6319107525846
 30
0.0
 10
3535.817621302871
 20
-124.9099541014625
 30
0.0
 10
3535.300952562371
 20
-125.1113973724409
 30
0.0
 10
3534.83449590501
 20
-125.2741447963122
 30
0.0
 10
3534.481480368316
 20
-125.3904488447702
 30
0.0
 10
3534.00126804855
 20
-125.5336105574829
 30
0.0
 10
3533.546208659323
 20
-125.6528140944952
 30
0.0
 10
3533.129250624775
 20
-125.7513013550465
 30
0.0
 10
3532.803702300403
 20
-125.8213458973219
 30
0.0
 10
3532.480280024907
 20
-125.8844960111796
 30
0.0
 10
3532.214313122693
 20
-125.932376814128
 30
0.0
 10
3531.998676158224
 20
-125.9681746403999
 30
0.0
 10
3531.829738631455
 20
-125.9945386827226
 30
0.0
 10
3531.722324101128
 20
-126.0106022574787
 30
0.0
 10
3531.635665216965
 20
-126.0231395214719
 30
0.0
 10
3531.575028589662
 20
-126.0317142684721
 30
0.0
 10
3531.519990411476
 20
-126.0393453129741
 30
0.0
 10
3531.474681795141
 20
-126.0455121171594
 30
0.0
 10
3531.44113644416
 20
-126.0500182678629
 30
0.0
 10
3531.410205659618
 20
-126.054128330607
 30
0.0
 10
3531.388297559977
 20
-126.0570127208034
 30
0.0
 10
3531.358506473656
 20
-126.0609045978149
 30
0.0
 10
3531.335338560498
 20
-126.0638987727966
 30
0.0
 10
3531.312072540115
 20
-126.066884611108
 30
0.0
 10
3531.295853324089
 20
-126.0689529400584
 30
0.0
 10
3531.164791706261
 20
-126.0855817589313
 30
0.0
 10
3530.964130774194
 20
-126.1097442341111
 30
0.0
 10
3530.663133935808
 20
-126.1430739640414
 30
0.0
 10
3530.473866933914
 20
-126.1630322684637
 30
0.0
 10
3530.318938453845
 20
-126.1791023822466
 30
0.0
 10
3530.148656370645
 20
-126.1963932977192
 30
0.0
 10
3529.962521833194
 20
-126.2149033855462
 30
0.0
 10
3529.774576091089
 20
-126.2332537973621
 30
0.0
 10
3529.614071436679
 20
-126.2487172024571
 30
0.0
 10
3529.48096434747
 20
-126.261437143196
 30
0.0
 10
3529.374895964076
 20
-126.2715132665794
 30
0.0
 10
3529.263693813762
 20
-126.281999352595
 30
0.0
 10
3529.030261742091
 20
-126.3038779605954
 30
0.0
 10
3528.624401145181
 20
-126.3407206588931
 30
0.0
 10
3528.42311214571
 20
-126.3597162109886
 30
0.0
 10
3527.995103927019
 20
-126.3979136259381
 30
0.0
 10
3527.750424651021
 20
-126.4189453804524
 30
0.0
 10
3527.460120208457
 20
-126.4426969503816
 30
0.0
 10
3527.189202976604
 20
-126.4638325599331
 30
0.0
 10
3526.938662477457
 20
-126.4827257014399
 30
0.0
 10
3526.741158098488
 20
-126.4972933853765
 30
0.0
 10
3526.552796826214
 20
-126.5110421370132
 30
0.0
 10
3526.374845493051
 20
-126.5239298915526
 30
0.0
 10
3526.209799951329
 20
-126.5358489274145
 30
0.0
 10
3526.04802159947
 20
-126.547539963653
 30
0.0
 10
3525.855404732938
 20
-126.5614519485066
 30
0.0
 10
3525.525075456285
 20
-126.5852540521259
 30
0.0
 10
3525.107470765608
 20
-126.6151224058954
 30
0.0
 10
3524.63599864747
 20
-126.6483305010756
 30
0.0
 10
3524.196120802618
 20
-126.6789414500313
 30
0.0
 10
3523.751626139683
 20
-126.7096297969451
 30
0.0
 10
3523.200213466414
 20
-126.7475082891137
 30
0.0
 10
3522.471471181035
 20
-126.7973379345599
 30
0.0
 10
3521.554976244993
 20
-126.8593276390852
 30
0.0
 10
3520.334081857259
 20
-126.9407275875506
 30
0.0
 10
3519.093328766906
 20
-127.0220799747253
 30
0.0
 10
3517.916633595068
 20
-127.0980131035371
 30
0.0
 10
3517.003938448348
 20
-127.1560319978803
 30
0.0
 10
3516.130375055561
 20
-127.2106322775567
 30
0.0
 10
3515.069202118826
 20
-127.2755708784057
 30
0.0
 10
3513.714118002937
 20
-127.3562620580446
 30
0.0
 10
3512.07267608836
 20
-127.4526973404859
 30
0.0
 10
3510.190206980476
 20
-127.5631904524239
 30
0.0
 10
3508.220813420814
 20
-127.674782031248
 30
0.0
 10
3506.159486221618
 20
-127.7867639730653
 30
0.0
 10
3504.113161005598
 20
-127.892759690561
 30
0.0
 10
3501.737088882489
 20
-128.0098087656474
 30
0.0
 10
3499.040732885639
 20
-128.1323907489536
 30
0.0
 10
3496.68771872774
 20
-128.2254967327531
 30
0.0
 10
3495.016887969359
 20
-128.2860533694316
 30
0.0
 10
3494.163399007042
 20
-128.3161387918594
 30
0.0
 10
3493.456946550702
 20
-128.3392748079164
 30
0.0
 10
3493.083802047442
 20
-128.3532312908678
 30
0.0
 10
3492.897613513772
 20
-128.3582344254751
 30
0.0
  0
SPLINE
  5
1AC60
330
18
100
AcDbEntity
  8
01
100
AcDbSpline
210
0.0
220
0.0
230
1.0
 70
     8
 71
     3
 72
    21
 73
    17
 74
     0
 42
0.0000000001
 43
0.0000000001
 40
0.0
 40
0.0
 40
0.0
 40
0.0
 40
0.0851307068292339
 40
0.2153854175050789
 40
0.3139243314719375
 40
0.412233476593946
 40
0.5601151404401017
 40
0.9297231521164819
 40
1.151451454783988
 40
1.502743620640995
 40
1.736845939152541
 40
2.345000851588668
 40
2.730716427843832
 40
3.243685533877488
 40
4.637678957492575
 40
5.333893055117052
 40
5.333893055117052
 40
5.333893055117052
 40
5.333893055117052
 10
3486.101906666299
 20
-128.5584937734698
 30
0.0
 10
3486.117692024092
 20
-128.5580717807784
 30
0.0
 10
3486.135179650964
 20
-128.5558674862355
 30
0.0
 10
3486.149446124243
 20
-128.5539710160124
 30
0.0
 10
3486.165377469149
 20
-128.5512962433145
 30
0.0
 10
3486.184016312687
 20
-128.5479292976456
 30
0.0
 10
3486.218727538618
 20
-128.5412562946653
 30
0.0
 10
3486.27301403175
 20
-128.5309466132135
 30
0.0
 10
3486.372681723076
 20
-128.5131370649237
 30
0.0
 10
3486.479125821573
 20
-128.4942648178117
 30
0.0
 10
3486.6660438829
 20
-128.4620476559326
 30
0.0
 10
3486.901584957866
 20
-128.4232494856637
 30
0.0
 10
3487.245865691087
 20
-128.3719283718387
 30
0.0
 10
3487.838731922462
 20
-128.2927094168385
 30
0.0
 10
3488.652735643661
 20
-128.2136887585152
 30
0.0
 10
3489.351695876777
 20
-128.1850023275306
 30
0.0
 10
3489.583207994224
 20
-128.1796906552931
 30
0.0
  0
SPLINE
  5
1AC61
330
18
100
AcDbEntity
  8
01
100
AcDbSpline
210
0.0
220
0.0
230
1.0
 70
     8
 71
     3
 72
   161
 73
   157
 74
     0
 42
0.0000000001
 43
0.0000000001
 40
0.0
 40
0.0
 40
0.0
 40
0.0
 40
0.1753276591652896
 40
0.3519044495348527
 40
0.5296347732845289
 40
0.7084108616293461
 40
0.8823101758413803
 40
1.056860246306637
 40
1.267321473500869
 40
1.478598981410851
 40
1.698593606378595
 40
1.918963458870645
 40
2.107408618756955
 40
2.295733498234714
 40
2.461477313870521
 40
2.626961935464299
 40
2.777432642032876
 40
2.927548665257361
 40
3.00177237759288
 40
3.075878649229417
 40
3.147270802325481
 40
3.218465040601231
 40
3.364074812929046
 40
3.508723249385344
 40
3.653062580038595
 40
3.796485657768224
 40
3.939029070108194
 40
4.080726961651802
 40
4.218782162113135
 40
4.356174503276981
 40
4.492907066476416
 40
4.628986828465611
 40
4.899121683385133
 40
5.167026625407447
 40
5.300346847982976
 40
5.433238411412505
 40
5.566025713674333
 40
5.698460172232819
 40
5.831178089348829
 40
5.963607037547601
 40
6.096221802301735
 40
6.228595463666009
 40
6.436235965323256
 40
6.644073933893274
 40
6.852209702767026
 40
7.059925032818242
 40
7.268292062311387
 40
7.476250453930771
 40
7.893245666987257
 40
8.065712624877925
 40
8.238063048380367
 40
8.410811372925146
 40
8.92802287965372
 40
9.272880491136824
 40
9.619724739924168
 40
10.31752282469657
 40
10.66822216000941
 40
11.18964540534406
 40
11.45043819379522
 40
11.71289900943138
 40
11.97682335269064
 40
12.77116854795565
 40
13.03663544928481
 40
13.5697948965027
 40
14.36792165891221
 40
14.89885001030253
 40
15.2583126502101
 40
15.61079239575969
 40
15.69746829704618
 40
15.86886630374273
 40
15.95368425838593
 40
15.99600465780758
 40
16.03838648454619
 40
16.08121972553973
 40
16.12412443397156
 40
16.17033844542302
 40
16.21662766030539
 40
16.2466414232401
 40
16.27667526547951
 40
16.30484128941486
 40
16.3330147018479
 40
16.37600967978959
 40
16.41931394642792
 40
16.46371986904074
 40
16.50811001488443
 40
16.59786998379897
 40
16.68756487456678
 40
16.86851690829732
 40
17.04920229559118
 40
17.41150458881523
 40
18.03324322374408
 40
18.29683723786884
 40
18.83245571631319
 40
19.3772955531871
 40
19.65058637522725
 40
20.3122615440759
 40
20.70090138143717
 40
21.09144292122238
 40
21.48373808860526
 40
21.87748136894416
 40
22.27076176857144
 40
22.46635164106641
 40
22.66183471333888
 40
23.05083358640117
 40
23.38186736816081
 40
23.88485779616349
 40
24.05474264920091
 40
24.22585082071532
 40
24.39805743121401
 40
24.57228945751721
 40
24.74621167943534
 40
24.83046135932649
 40
24.99399742050408
 40
25.15406868498914
 40
25.39566743937679
 40
25.64621839534745
 40
25.90849182443579
 40
26.08929283538605
 40
26.26794001169155
 40
26.44333160660758
 40
26.61658700906262
 40
26.78799732060817
 40
26.95762164491552
 40
27.12529634459997
 40
27.45367866512593
 40
27.77196099452028
 40
27.92808537341424
 40
28.08271757058687
 40
28.59269882506748
 40
29.0012738236437
 40
29.20741171837419
 40
30.03812295407611
 40
30.45512700784406
 40
30.87173364194304
 40
31.28855683089697
 40
32.16709571260193
 40
32.62846021532462
 40
33.08985867115978
 40
34.94500812755368
 40
35.87622159166673
 40
37.50856175317855
 40
38.67996595723793
 40
39.50585720406737
 40
39.86286985642367
 40
41.28651074497824
 40
41.99439928761057
 40
43.39591297843097
 40
44.80370702859335
 40
46.88496279090998
 40
50.99680386293853
 40
53.0314855883046
 40
54.05069632410141
 40
57.08366503897778
 40
59.08867417229233
 40
65.06755382581002
 40
70.4615077558024
 40
70.4615077558024
 40
70.4615077558024
 40
70.4615077558024
 10
3542.018927653602
 20
-117.6140542719936
 30
0.0
 10
3542.018939180945
 20
-117.5558250419604
 30
0.0
 10
3542.017231594834
 20
-117.4571828599815
 30
0.0
 10
3542.009735736774
 20
-117.2965044934977
 30
0.0
 10
3541.997385270316
 20
-117.1402599639418
 30
0.0
 10
3541.980737258221
 20
-116.9875391664468
 30
0.0
 10
3541.95929387352
 20
-116.8323481548609
 30
0.0
 10
3541.929791414868
 20
-116.6607606180191
 30
0.0
 10
3541.903806065582
 20
-116.5320869630573
 30
0.0
 10
3541.86820842997
 20
-116.3757248387551
 30
0.0
 10
3541.83377486231
 20
-116.2426518018569
 30
0.0
 10
3541.800058457309
 20
-116.121846246057
 30
0.0
 10
3541.753719503731
 20
-115.9713792045682
 30
0.0
 10
3541.714710234557
 20
-115.8543092640407
 30
0.0
 10
3541.663216219461
 20
-115.710907709235
 30
0.0
 10
3541.6182011211
 20
-115.5939025830071
 30
0.0
 10
3541.562440131479
 20
-115.4577003352401
 30
0.0
 10
3541.519422557539
 20
-115.3587205482404
 30
0.0
 10
3541.479402226319
 20
-115.2702862127876
 30
0.0
 10
3541.450521736527
 20
-115.2082214382804
 30
0.0
 10
3541.418931399746
 20
-115.1420871800724
 30
0.0
 10
3541.376583688941
 20
-115.0558237253531
 30
0.0
 10
3541.323491178582
 20
-114.951706246336
 30
0.0
 10
3541.256142776877
 20
-114.8259026115134
 30
0.0
 10
3541.187174355785
 20
-114.702993766236
 30
0.0
 10
3541.115913511863
 20
-114.5815217726672
 30
0.0
 10
3541.042607423178
 20
-114.4618189891612
 30
0.0
 10
3540.968410565512
 20
-114.345462437454
 30
0.0
 10
3540.89124958453
 20
-114.2290698940965
 30
0.0
 10
3540.81349328195
 20
-114.1160739967031
 30
0.0
 10
3540.734114703063
 20
-114.0047127719913
 30
0.0
 10
3540.626701547031
 20
-113.8590652975377
 30
0.0
 10
3540.489103444288
 20
-113.6814901878492
 30
0.0
 10
3540.346438515336
 20
-113.5086656435519
 30
0.0
 10
3540.230632396351
 20
-113.3745651031591
 30
0.0
 10
3540.142500367703
 20
-113.2754593255945
 30
0.0
 10
3540.053873376631
 20
-113.178603809803
 30
0.0
 10
3539.9635983085
 20
-113.0826682488018
 30
0.0
 10
3539.873292612852
 20
-112.9892795043584
 30
0.0
 10
3539.781345662402
 20
-112.896681682962
 30
0.0
 10
3539.689204029353
 20
-112.8062782122302
 30
0.0
 10
3539.578014486856
 20
-112.6999465764643
 30
0.0
 10
3539.448198625914
 20
-112.5797758501544
 30
0.0
 10
3539.298487215897
 20
-112.4464342630895
 30
0.0
 10
3539.147682973667
 20
-112.317077201034
 30
0.0
 10
3538.994064288415
 20
-112.1901217887703
 30
0.0
 10
3538.840393802709
 20
-112.0676922074304
 30
0.0
 10
3538.6320493132
 20
-111.9075804140061
 30
0.0
 10
3538.431079850735
 20
-111.7612663389332
 30
0.0
 10
3538.237577472136
 20
-111.6270336458051
 30
0.0
 10
3538.104859240984
 20
-111.5375322276636
 30
0.0
 10
3537.883704434565
 20
-111.3925213173102
 30
0.0
 10
3537.614933752503
 20
-111.2259046198319
 30
0.0
 10
3537.297863921454
 20
-111.0426008982936
 30
0.0
 10
3536.931975451962
 20
-110.8424946319697
 30
0.0
 10
3536.560266957547
 20
-110.6556836034028
 30
0.0
 10
3536.140397396504
 20
-110.4618216680415
 30
0.0
 10
3535.836956702854
 20
-110.3312861346753
 30
0.0
 10
3535.553870009358
 20
-110.2171952711674
 30
0.0
 10
3535.340700713766
 20
-110.1350473323423
 30
0.0
 10
3534.982345027094
 20
-110.0030336820014
 30
0.0
 10
3534.621013277941
 20
-109.8818057583171
 30
0.0
 10
3534.182402487031
 20
-109.7482623270957
 30
0.0
 10
3533.741373575107
 20
-109.6238853064792
 30
0.0
 10
3533.218242711691
 20
-109.4950477534317
 30
0.0
 10
3532.734887452224
 20
-109.3924709797343
 30
0.0
 10
3532.369440191379
 20
-109.3229239839216
 30
0.0
 10
3532.127356124403
 20
-109.2810813226147
 30
0.0
 10
3531.936892695433
 20
-109.2502352946071
 30
0.0
 10
3531.827820974944
 20
-109.233257803678
 30
0.0
 10
3531.730920042309
 20
-109.2187889062247
 30
0.0
 10
3531.675031247936
 20
-109.2106204686274
 30
0.0
 10
3531.633047493545
 20
-109.2045731111025
 30
0.0
 10
3531.591018115819
 20
-109.1986055969614
 30
0.0
 10
3531.546645826403
 20
-109.1924024210261
 30
0.0
 10
3531.50545831288
 20
-109.1867282037824
 30
0.0
 10
3531.464650228552
 20
-109.1811964583999
 30
0.0
 10
3531.436171448016
 20
-109.1773818624192
 30
0.0
 10
3531.409595133091
 20
-109.1738542660592
 30
0.0
 10
3531.390174185175
 20
-109.1712974151974
 30
0.0
 10
3531.364199986701
 20
-109.1679018174041
 30
0.0
 10
3531.344144771259
 20
-109.1653039613807
 30
0.0
 10
3531.322221954889
 20
-109.1624830547285
 30
0.0
 10
3531.308332590802
 20
-109.1607066857318
 30
0.0
 10
3531.285675390083
 20
-109.1578211646797
 30
0.0
 10
3531.263124566114
 20
-109.1549707032386
 30
0.0
 10
3531.221545038697
 20
-109.1497592412557
 30
0.0
 10
3531.177261116572
 20
-109.1442812656046
 30
0.0
 10
3531.097314201502
 20
-109.1345455020651
 30
0.0
 10
3530.974913881287
 20
-109.1199828364865
 30
0.0
 10
3530.822351797041
 20
-109.1026284754248
 30
0.0
 10
3530.672801408691
 20
-109.0862271839665
 30
0.0
 10
3530.541885572658
 20
-109.072220980453
 30
0.0
 10
3530.419471282299
 20
-109.0594226375465
 30
0.0
 10
3530.275086670668
 20
-109.0445451628043
 30
0.0
 10
3530.136167473065
 20
-109.0304760771564
 30
0.0
 10
3529.973212471735
 20
-109.0143008215578
 30
0.0
 10
3529.840767962648
 20
-109.0013236102691
 30
0.0
 10
3529.705393128415
 20
-108.9881970791944
 30
0.0
 10
3529.568016309653
 20
-108.9749942695821
 30
0.0
 10
3529.448855892133
 20
-108.9636265883541
 30
0.0
 10
3529.345115898857
 20
-108.9538008519307
 30
0.0
 10
3529.241147952996
 20
-108.9440035081802
 30
0.0
 10
3529.109729128273
 20
-108.9317140526587
 30
0.0
 10
3528.923495034059
 20
-108.9145073063805
 30
0.0
 10
3528.780410113322
 20
-108.9014408343569
 30
0.0
 10
3528.667814793976
 20
-108.891179332652
 30
0.0
 10
3528.602288504958
 20
-108.885209422951
 30
0.0
 10
3528.537656448765
 20
-108.8793162348024
 30
0.0
 10
3528.477886200715
 20
-108.8738572947082
 30
0.0
 10
3528.431215817809
 20
-108.8695811399416
 30
0.0
 10
3528.371678656589
 20
-108.8641234411475
 30
0.0
 10
3528.301430274661
 20
-108.8576969168257
 30
0.0
 10
3528.180496554186
 20
-108.8467311482941
 30
0.0
 10
3528.012617981492
 20
-108.8317788149729
 30
0.0
 10
3527.794867457283
 20
-108.8130043590759
 30
0.0
 10
3527.584092801838
 20
-108.7955175935808
 30
0.0
 10
3527.389324853187
 20
-108.7799197920081
 30
0.0
 10
3527.226333622291
 20
-108.7672193032417
 30
0.0
 10
3527.071225383346
 20
-108.7553873801176
 30
0.0
 10
3526.922236450927
 20
-108.7442141939287
 30
0.0
 10
3526.77883302022
 20
-108.7336019968111
 30
0.0
 10
3526.640279596607
 20
-108.7234513375902
 30
0.0
 10
3526.462669885791
 20
-108.7105330991976
 30
0.0
 10
3526.254879316447
 20
-108.6955237040188
 30
0.0
 10
3526.051690219643
 20
-108.6808367557774
 30
0.0
 10
3525.884633638712
 20
-108.6687739815857
 30
0.0
 10
3525.662581950809
 20
-108.6527600921622
 30
0.0
 10
3525.359709848404
 20
-108.6309992455067
 30
0.0
 10
3525.028544806233
 20
-108.6074454248715
 30
0.0
 10
3524.59460192251
 20
-108.5768571651283
 30
0.0
 10
3524.155518332636
 20
-108.5463299672961
 30
0.0
 10
3523.649204137613
 20
-108.5114330749589
 30
0.0
 10
3523.268148773129
 20
-108.4852686284416
 30
0.0
 10
3522.741987566534
 20
-108.4492487161619
 30
0.0
 10
3522.194987999895
 20
-108.4120335562488
 30
0.0
 10
3521.627429514079
 20
-108.3737610625208
 30
0.0
 10
3520.746552930593
 20
-108.314732258345
 30
0.0
 10
3519.70253643656
 20
-108.2457975786751
 30
0.0
 10
3518.26745219778
 20
-108.1525132491438
 30
0.0
 10
3517.04049369204
 20
-108.0740592105226
 30
0.0
 10
3515.835528535106
 20
-107.9991785070692
 30
0.0
 10
3515.051966451801
 20
-107.9516749987638
 30
0.0
 10
3514.184793553095
 20
-107.8997487833972
 30
0.0
 10
3513.357473904028
 20
-107.850885292803
 30
0.0
 10
3512.183236580793
 20
-107.7818782364516
 30
0.0
 10
3511.014018559568
 20
-107.7130622856525
 30
0.0
 10
3509.389016463703
 20
-107.6191816500682
 30
0.0
 10
3506.862509593958
 20
-107.4778423704088
 30
0.0
 10
3504.126688394848
 20
-107.3349142784677
 30
0.0
 10
3501.7433923273
 20
-107.219609314247
 30
0.0
 10
3499.718792500078
 20
-107.1266024741494
 30
0.0
 10
3497.703327350363
 20
-107.0417198821619
 30
0.0
 10
3494.035635141526
 20
-106.9037424148705
 30
0.0
 10
3489.57953839965
 20
-106.7626871547304
 30
0.0
 10
3485.790456920005
 20
-106.6603542623975
 30
0.0
 10
3483.993273826479
 20
-106.6140178623532
 30
0.0
  0
SPLINE
  5
1AC62
330
18
100
AcDbEntity
  8
01
100
AcDbSpline
210
0.0
220
0.0
230
1.0
 70
     8
 71
     3
 72
    18
 73
    14
 74
     0
 42
0.0000000001
 43
0.0000000001
 40
0.0
 40
0.0
 40
0.0
 40
0.0
 40
0.6968103897542867
 40
1.801970234880123
 40
2.17321326497219
 40
2.423509114463025
 40
3.439835155986084
 40
3.957522063926517
 40
4.346495939257521
 40
4.56152175118824
 40
4.77720781402824
 40
4.905127338730156
 40
5.034878036177931
 40
5.034878036177931
 40
5.034878036177931
 40
5.034878036177931
 10
3489.583207994224
 20
-128.1796906552931
 30
0.0
 10
3489.814922218602
 20
-128.1743743460379
 30
0.0
 10
3490.414807632239
 20
-128.1715936807018
 30
0.0
 10
3491.089586916712
 20
-128.2001347456312
 30
0.0
 10
3491.556897380187
 20
-128.2331709880941
 30
0.0
 10
3491.968823269617
 20
-128.2666375881595
 30
0.0
 10
3492.340937903782
 20
-128.3050455152384
 30
0.0
 10
3492.62014532354
 20
-128.3353850360077
 30
0.0
 10
3492.737871400893
 20
-128.3475457745758
 30
0.0
 10
3492.802471280791
 20
-128.3537735064151
 30
0.0
 10
3492.838295590381
 20
-128.3567401374498
 30
0.0
 10
3492.866322217605
 20
-128.3582221403353
 30
0.0
 10
3492.883692990761
 20
-128.3586919711893
 30
0.0
 10
3492.897013651008
 20
-128.3582554579784
 30
0.0
  0
LINE
  5
1AC63
330
18
100
AcDbEntity
  8
01
100
AcDbLine
 10
3483.993273826479
 20
-106.6140178623532
 30
0.0
 11
3483.993273826479
 21
-128.6140942990864
 31
0.0
  0
ARC
  5
1AC64
330
18
100
AcDbEntity
  8
01
  6
CONTINUOUS
100
AcDbCircle
 10
3653.493319261584
 20
-109.6223677215175
 30
0.0
 40
0.5000152713007943
100
AcDbArc
 50
89.04565565614848
 51
179.9982666570861
  0
ARC
  5
1AC65
330
18
100
AcDbEntity
  8
01
  6
CONTINUOUS
100
AcDbCircle
 10
3750.955557178482
 20
-121.7531013697417
 30
0.0
 40
1.525357082928538
100
AcDbArc
 50
274.6043743568678
 51
346.0053948696606
  0
SPLINE
  5
1AC66
330
18
100
AcDbEntity
  8
01
  6
CONTINUOUS
100
AcDbSpline
210
0.0
220
0.0
230
1.0
 70
     8
 71
     3
 72
    19
 73
    15
 74
     0
 42
0.0000000001
 43
0.0000000001
 40
0.0
 40
0.0
 40
0.0
 40
0.0
 40
9.460161730091599
 40
15.98254808382674
 40
21.19129945756545
 40
25.09589110006226
 40
31.07976597410934
 40
37.07051130115414
 40
49.03234155557556
 40
60.99958883125357
 40
72.94987208489064
 40
78.94125269660621
 40
87.91845955628929
 40
97.64525170031928
 40
97.64525170031928
 40
97.64525170031928
 40
97.64525170031928
 10
3751.081768617537
 20
-111.9675512517961
 30
0.0
 10
3747.940511676513
 20
-111.7236315698519
 30
0.0
 10
3742.62723342655
 20
-111.367597088446
 30
0.0
 10
3735.573575297912
 20
-111.0260043790659
 30
0.0
 10
3730.365876283747
 20
-110.8372580231844
 30
0.0
 10
3725.33603824655
 20
-110.693680279237
 30
0.0
 10
3720.044637637693
 20
-110.5759721730319
 30
0.0
 10
3712.06786039988
 20
-110.4185573716677
 30
0.0
 10
3702.09768693875
 20
-110.1980043791591
 30
0.0
 10
3690.142099633867
 20
-109.9164474011545
 30
0.0
 10
3680.176031155695
 20
-109.678865919298
 30
0.0
 10
3671.205989912305
 20
-109.4749882895485
 30
0.0
 10
3662.976621641457
 20
-109.2971330498754
 30
0.0
 10
3656.74337749809
 20
-109.176501299934
 30
0.0
 10
3653.501647780749
 20
-109.1223963819257
 30
0.0
  0
SPLINE
  5
1AC67
330
18
100
AcDbEntity
  8
01
  6
CONTINUOUS
100
AcDbSpline
210
0.0
220
0.0
230
1.0
 70
     8
 71
     3
 72
     8
 73
     4
 74
     0
 42
0.0000000001
 43
0.0000000001
 40
0.0
 40
0.0
 40
0.0
 40
0.0
 40
0.2577938006557611
 40
0.2577938006557611
 40
0.2577938006557611
 40
0.2577938006557611
 10
3652.99330372649
 20
-125.6065775590123
 30
0.0
 10
3652.993306711779
 20
-125.608480329015
 30
0.0
 10
3652.993306263069
 20
-125.6075326235173
 30
0.0
 10
3652.993305406793
 20
-125.6058115860014
 30
0.0
  0
ARC
  5
1AC68
330
18
100
AcDbEntity
  8
01
  6
CONTINUOUS
100
AcDbCircle
 10
3653.493318610339
 20
-125.6058137062701
 30
0.0
 40
0.5000153888062217
100
AcDbArc
 50
180.0017142246948
 51
270.947088851936
  0
ARC
  5
1AC69
330
18
100
AcDbEntity
  8
01
  6
CONTINUOUS
100
AcDbCircle
 10
3750.959744387528
 20
-113.4869772335578
 30
0.0
 40
1.524291238605641
100
AcDbArc
 50
14.00382236259211
 51
85.41177810106211
  0
ARC
  5
1AC6A
330
18
100
AcDbEntity
  8
01
  6
CONTINUOUS
100
AcDbCircle
 10
3734.993243103246
 20
-117.6140560699532
 30
0.0
 40
18.01550911287495
100
AcDbArc
 50
345.5085506272797
 51
14.45129326876823
  0
SPLINE
  5
1AC6B
330
18
100
AcDbEntity
  8
01
  6
CONTINUOUS
100
AcDbSpline
210
0.0
220
0.0
230
1.0
 70
     8
 71
     3
 72
    18
 73
    14
 74
     0
 42
0.0000000001
 43
0.0000000001
 40
0.0084261242649831
 40
0.0084261242649831
 40
0.0084261242649831
 40
0.0084261242649831
 40
7.712846085700495
 40
14.65425159473615
 40
25.07157586312692
 40
31.0434317342125
 40
43.00917413402433
 40
60.95019085191205
 40
72.92347365185603
 40
75.9095362856851
 40
81.88455093582228
 40
87.86541887519844
 40
97.65001262520049
 40
97.65001262520049
 40
97.65001262520049
 40
97.65001262520049
 10
3653.501583631221
 20
-126.1057748829271
 30
0.0
 10
3656.069301962921
 20
-126.0632430793021
 30
0.0
 10
3660.950196760391
 20
-125.9718978899655
 30
0.0
 10
3669.302273588862
 20
-125.7979144086144
 30
0.0
 10
3677.076657676878
 20
-125.6237193062866
 30
0.0
 10
3686.525008614962
 20
-125.4028467432458
 30
0.0
 10
3698.480275850217
 20
-125.1191598115802
 30
0.0
 10
3712.435677883771
 20
-124.8031988055754
 30
0.0
 10
3723.40004836455
 20
-124.5979903368993
 30
0.0
 10
3730.374644106963
 20
-124.400309643037
 30
0.0
 10
3735.351409302893
 20
-124.222561356497
 30
0.0
 10
3742.587957613875
 20
-123.8737376361878
 30
0.0
 10
3747.829426332298
 20
-123.5254795172264
 30
0.0
 10
3751.078610828515
 20
-123.2734583010738
 30
0.0
  0
LINE
  5
1AC6C
330
18
100
AcDbEntity
  8
01
100
AcDbLine
 10
3652.993303990513
 20
-109.6223525947853
 30
0.0
 11
3652.993306025788
 21
-125.6072428612947
 31
0.0
  0
LINE
  5
1AC6D
330
18
100
AcDbEntity
  8
01
100
AcDbLine
 10
3652.993237019054
 20
-109.4125630345939
 30
0.0
 11
3652.993237019054
 21
-117.6140560807198
 31
0.0
  0
LINE
  5
1AC6E
330
18
100
AcDbEntity
  8
01
100
AcDbLine
 10
3652.993237019054
 20
-117.6140560807198
 30
0.0
 11
3652.993237019054
 21
-125.8174553061972
 31
0.0
  0
ARC
  5
1AC6F
330
18
100
AcDbEntity
  8
01
100
AcDbCircle
 10
3652.693177707877
 20
-125.8174002754786
 30
0.0
 40
0.3000593162567604
100
AcDbArc
 50
270.473277023687
 51
359.9894579441742
  0
SPLINE
  5
1AC70
330
18
100
AcDbEntity
  8
01
100
AcDbSpline
210
0.0
220
0.0
230
1.0
 70
     8
 71
     3
 72
    50
 73
    46
 74
     0
 42
0.0000000001
 43
0.0000000001
 40
40.24605889528515
 40
40.24605889528515
 40
40.24605889528515
 40
40.24605889528515
 40
40.41330824550255
 40
41.05947960633106
 40
42.10215968566057
 40
42.51026830244423
 40
43.11266884409871
 40
43.50922291673435
 40
43.98418136823029
 40
44.53538836255579
 40
45.08142471240612
 40
45.62181933743891
 40
45.88937875052035
 40
46.06066524137628
 40
46.57258251084908
 40
47.08382222064991
 40
47.42685914774938
 40
47.94939217292845
 40
48.30296108340335
 40
48.65809398927975
 40
48.91534449632767
 40
49.42903302199714
 40
49.94097800742659
 40
50.70656261856672
 40
51.21581259154242
 40
51.97875699634007
 40
52.74150980806883
 40
53.13326652189864
 40
54.3118397937692
 40
54.70465026371415
 40
55.09791575571316
 40
55.49173697177937
 40
55.88448045148156
 40
56.16708261071171
 40
56.73196250872059
 40
57.01766912717855
 40
57.30623476903798
 40
57.89114633580776
 40
58.77871620482893
 40
59.37384912472834
 40
59.96449161567381
 40
60.55313685403777
 40
64.62558942126732
 40
68.70884455955124
 40
70.4428402906394
 40
70.4428402906394
 40
70.4428402906394
 40
70.4428402906394
 10
3628.884097117648
 20
-126.7821709323189
 30
0.0
 10
3628.884097124189
 20
-126.7821709724412
 30
0.0
 10
3628.886479133852
 20
-126.7817954230995
 30
0.0
 10
3628.917182575211
 20
-126.777121823784
 30
0.0
 10
3629.012268593169
 20
-126.7641435727764
 30
0.0
 10
3629.159549276389
 20
-126.7462075818949
 30
0.0
 10
3629.294225198942
 20
-126.7307880023309
 30
0.0
 10
3629.465615866649
 20
-126.7123715233583
 30
0.0
 10
3629.653145810776
 20
-126.6932137625299
 30
0.0
 10
3629.892196263665
 20
-126.6701660619437
 30
0.0
 10
3630.169410924185
 20
-126.6449462442379
 30
0.0
 10
3630.413057385347
 20
-126.6239579293215
 30
0.0
 10
3630.60482299712
 20
-126.6080385373316
 30
0.0
 10
3630.797551843195
 20
-126.5923044064448
 30
0.0
 10
3631.050241185976
 20
-126.5721542287747
 30
0.0
 10
3631.357260585184
 20
-126.5481908722322
 30
0.0
 10
3631.638655018634
 20
-126.5266324282165
 30
0.0
 10
3631.870264411716
 20
-126.5094726845437
 30
0.0
 10
3632.098221509788
 20
-126.4933696249946
 30
0.0
 10
3632.283061386404
 20
-126.4808494786607
 30
0.0
 10
3632.505803689404
 20
-126.4663270371875
 30
0.0
 10
3632.770402380969
 20
-126.4499023820035
 30
0.0
 10
3633.166599516065
 20
-126.4269472766819
 30
0.0
 10
3633.590564664478
 20
-126.4044618012149
 30
0.0
 10
3634.104864544591
 20
-126.3796504658812
 30
0.0
 10
3634.646802268902
 20
-126.3559312699203
 30
0.0
 10
3635.180780143817
 20
-126.3354309321921
 30
0.0
 10
3635.852534747873
 20
-126.3125520527992
 30
0.0
 10
3636.447082596076
 20
-126.2954738486533
 30
0.0
 10
3637.057414949662
 20
-126.2806236555853
 30
0.0
 10
3637.428515780819
 20
-126.2723560234863
 30
0.0
 10
3637.803545509161
 20
-126.2646943371101
 30
0.0
 10
3638.143995702614
 20
-126.2584489291594
 30
0.0
 10
3638.540535771011
 20
-126.2520453731963
 30
0.0
 10
3638.90415654448
 20
-126.2473914220318
 30
0.0
 10
3639.277143166033
 20
-126.2437350028895
 30
0.0
 10
3639.659647697166
 20
-126.2404807577113
 30
0.0
 10
3640.24577328728
 20
-126.236164769065
 30
0.0
 10
3640.935220320045
 20
-126.2310309362638
 30
0.0
 10
3641.626116310324
 20
-126.2246066121243
 30
0.0
 10
3642.217621079094
 20
-126.2184635451817
 30
0.0
 10
3643.967819483927
 20
-126.2007854500935
 30
0.0
 10
3646.882578617851
 20
-126.171868472059
 30
0.0
 10
3650.17876084143
 20
-126.1390976891053
 30
0.0
 10
3652.117676424384
 20
-126.1220675833333
 30
0.0
 10
3652.695651040816
 20
-126.1174065776086
 30
0.0
  0
ARC
  5
1AC71
330
18
100
AcDbEntity
  8
01
100
AcDbCircle
 10
3652.693178799729
 20
-109.4126191988794
 30
0.0
 40
0.3000582325053063
100
AcDbArc
 50
0.0188015802829465
 51
89.52696146566508
  0
SPLINE
  5
1AC72
330
18
100
AcDbEntity
  8
01
100
AcDbSpline
210
0.0
220
0.0
230
1.0
 70
     8
 71
     3
 72
    49
 73
    45
 74
     0
 42
0.0000000001
 43
0.0000000001
 40
0.0
 40
0.0
 40
0.0
 40
0.0
 40
1.052004170098063
 40
2.114068328488348
 40
3.660643967315682
 40
5.205578484377293
 40
7.525733899751696
 40
9.841997416968454
 40
10.27670456311666
 40
10.71152584647312
 40
11.1483341883486
 40
12.02648531740571
 40
12.46242376388447
 40
13.11089356461147
 40
13.74676018385373
 40
14.16379049950606
 40
14.5810272807612
 40
14.99964071911551
 40
15.20950456042481
 40
16.04740468546638
 40
17.38165325542484
 40
18.08548826931737
 40
18.78860246884783
 40
19.25762548782302
 40
19.96217344386303
 40
21.18312281753642
 40
21.55961155680222
 40
22.31244472762127
 40
22.86998640791152
 40
23.23535997595707
 40
23.41662357783994
 40
23.64996011135596
 40
23.88319097472134
 40
24.35041982729464
 40
24.82049050931876
 40
25.05741057465696
 40
25.53505097306694
 40
26.25891944630026
 40
27.23920427015888
 40
27.98862206669473
 40
28.49788448903195
 40
29.27759755601144
 40
30.08357020682969
 40
30.14760390115131
 40
30.14760390115131
 40
30.14760390115131
 40
30.14760390115131
 10
3652.695650822544
 20
-109.1126203570871
 30
0.0
 10
3652.344995077115
 20
-109.1097925781905
 30
0.0
 10
3651.640333968838
 20
-109.1037868203016
 30
0.0
 10
3650.420262310943
 20
-109.0927276008661
 30
0.0
 10
3649.035843651629
 20
-109.079603310006
 30
0.0
 10
3647.232133503037
 20
-109.0617583573912
 30
0.0
 10
3645.171899431466
 20
-109.0408382408732
 30
0.0
 10
3643.4815652134
 20
-109.0242667987031
 30
0.0
 10
3642.419841556122
 20
-109.0136302231203
 30
0.0
 10
3641.984443293551
 20
-109.009118774391
 30
0.0
 10
3641.401189617794
 20
-109.0031925393428
 30
0.0
 10
3640.817703105207
 20
-108.9981467430771
 30
0.0
 10
3640.163514533613
 20
-108.9932438248447
 30
0.0
 10
3639.59073989528
 20
-108.9890698175932
 30
0.0
 10
3639.030257658831
 20
-108.9841209261567
 30
0.0
 10
3638.557601662692
 20
-108.9782115302446
 30
0.0
 10
3638.156842769829
 20
-108.9718490561881
 30
0.0
 10
3637.823918783991
 20
-108.9656701503172
 30
0.0
 10
3637.357610731267
 20
-108.956248666289
 30
0.0
 10
3636.609789458356
 20
-108.9392808016191
 30
0.0
 10
3635.73793823322
 20
-108.9143029526685
 30
0.0
 10
3634.95977363191
 20
-108.8864687260016
 30
0.0
 10
3634.447590681804
 20
-108.8655095030886
 30
0.0
 10
3633.955415304979
 20
-108.8433814159989
 30
0.0
 10
3633.358798356595
 20
-108.8140227078475
 30
0.0
 10
3632.838470291333
 20
-108.7845330009368
 30
0.0
 10
3632.359225285226
 20
-108.7543939285811
 30
0.0
 10
3632.037098161345
 20
-108.7326267264129
 30
0.0
 10
3631.726329711522
 20
-108.7099660219546
 30
0.0
 10
3631.505298778103
 20
-108.6931907267608
 30
0.0
 10
3631.341405115152
 20
-108.680544684184
 30
0.0
 10
3631.197796540604
 20
-108.6693646435624
 30
0.0
 10
3630.992963373473
 20
-108.6532942617259
 30
0.0
 10
3630.744507246336
 20
-108.6334819465965
 30
0.0
 10
3630.509881029804
 20
-108.6141695003857
 30
0.0
 10
3630.290015360455
 20
-108.5955071412263
 30
0.0
 10
3630.036513873174
 20
-108.5732172285634
 30
0.0
 10
3629.681962434109
 20
-108.5400587997428
 30
0.0
 10
3629.361433697384
 20
-108.5069792621416
 30
0.0
 10
3629.143464708613
 20
-108.4820317862104
 30
0.0
 10
3629.004251611226
 20
-108.4648078813893
 30
0.0
 10
3628.91002162947
 20
-108.4520302139126
 30
0.0
 10
3628.883240996279
 20
-108.4479028567866
 30
0.0
 10
3628.882263220315
 20
-108.4477456875211
 30
0.0
 10
3628.882263266556
 20
-108.4477453885465
 30
0.0
  0
ELLIPSE
  5
1AC73
330
18
100
AcDbEntity
  8
01
100
AcDbEllipse
 10
3624.993273826479
 20
-117.6140560807198
 30
0.0
 11
-15.0
 21
4.454769886308439E-14
 31
0.0
210
0.0
220
0.0
230
1.0
 40
0.7333333333333331
 41
4.063812080098634
 42
8.50224305139331
  0
SPLINE
  5
1AC74
330
18
100
AcDbEntity
  8
01
  6
CONTINUOUS
100
AcDbSpline
210
0.0
220
0.0
230
1.0
 70
     8
 71
     3
 72
    22
 73
    18
 74
     0
 42
0.0000000001
 43
0.0000000001
 40
0.4991520728132199
 40
0.4991520728132199
 40
0.4991520728132199
 40
0.4991520728132199
 40
6.6691039202251
 40
13.3382078404502
 40
20.0073117606753
 40
26.6764156809004
 40
33.3455196011255
 40
40.0146235213506
 40
46.6837274415757
 40
53.3528313618008
 40
60.0219352820259
 40
66.691039202251
 40
73.3601431224762
 40
80.0292470427013
 40
86.6983509629264
 40
93.3674548831515
 40
94.9836652134268
 40
94.9836652134268
 40
94.9836652134268
 40
94.9836652134268
 10
3653.49270114034
 20
92.38487921528031
 30
0.0
 10
3655.550537317801
 20
92.38730422274921
 30
0.0
 10
3659.835634582556
 20
92.38833075785988
 30
0.0
 10
3666.322600276876
 20
92.37633179932482
 30
0.0
 10
3672.992748610245
 20
92.34839320047331
 30
0.0
 10
3679.693050128044
 20
92.30309375741581
 30
0.0
 10
3686.325380901757
 20
92.23978326560882
 30
0.0
 10
3693.012703111092
 20
92.15550298316748
 30
0.0
 10
3699.674643712857
 20
92.04890627980285
 30
0.0
 10
3706.360544500285
 20
91.91670090577327
 30
0.0
 10
3713.032420502016
 20
91.75636947132398
 30
0.0
 10
3719.680092575582
 20
91.56472017440683
 30
0.0
 10
3726.342537693529
 20
91.33604944438957
 30
0.0
 10
3733.022009179948
 20
91.06379154743217
 30
0.0
 10
3739.668574734975
 20
90.74254029356916
 30
0.0
 10
3744.664156204425
 20
90.4552222405182
 30
0.0
 10
3747.420459654757
 20
90.27721502140139
 30
0.0
 10
3747.95782953993
 20
90.24171636847814
 30
0.0
  0
ARC
  5
1AC75
330
18
100
AcDbEntity
  8
01
  6
CONTINUOUS
100
AcDbCircle
 10
3631.585927865512
 20
7202.621955388673
 30
0.0
 40
7137.270364721012
100
AcDbArc
 50
270.1758777753184
 51
270.9548782576449
  0
ARC
  5
1AC76
330
18
100
AcDbEntity
  8
01
  6
CONTINUOUS
100
AcDbCircle
 10
3750.504046398949
 20
67.84329802028833
 30
0.0
 40
1.499603363099995
100
AcDbArc
 50
270.9381582033129
 51
345.3587315262051
  0
ARC
  5
1AC77
330
18
100
AcDbEntity
  8
01
  6
CONTINUOUS
100
AcDbCircle
 10
3747.858955259595
 20
88.74497896855428
 30
0.0
 40
1.499999655880775
100
AcDbArc
 50
53.45425968259462
 51
86.22053952126305
  0
ARC
  5
1AC78
330
18
100
AcDbEntity
  8
01
  6
CONTINUOUS
100
AcDbCircle
 10
3653.493290330528
 20
91.88487958472751
 30
0.0
 40
0.499999977697594
100
AcDbArc
 50
90.06751624088714
 51
179.999831839343
  0
ARC
  5
1AC79
330
18
100
AcDbEntity
  8
01
  6
CONTINUOUS
100
AcDbCircle
 10
3653.493214971876
 20
65.88521521121902
 30
0.0
 40
0.4999997940691604
100
AcDbArc
 50
179.9998246816932
 51
270.1759041237186
  0
LINE
  5
1AC7A
330
18
100
AcDbEntity
  8
01
  6
CONTINUOUS
100
AcDbLine
 10
3652.993215914179
 20
65.88326858667642
 30
0.0
 11
3652.993215034453
 21
65.88576583468512
 31
0.0
  0
ARC
  5
1AC7B
330
18
100
AcDbEntity
  8
01
  6
CONTINUOUS
100
AcDbCircle
 10
3750.503503298615
 20
67.84255120921898
 30
0.0
 40
1.499990088713092
100
AcDbArc
 50
270.954401062321
 51
345.3694977651999
  0
SPLINE
  5
1AC7C
330
18
100
AcDbEntity
  8
01
  6
CONTINUOUS
100
AcDbSpline
210
0.0
220
0.0
230
1.0
 70
     8
 71
     3
 72
    25
 73
    21
 74
     0
 42
0.0000000001
 43
0.0000000001
 40
0.0
 40
0.0
 40
0.0
 40
0.0
 40
1.330115194272647
 40
4.576620566491306
 40
7.684101941912565
 40
9.567915124321164
 40
10.70729894620776
 40
12.61567813784874
 40
14.52128244825964
 40
16.78952030782246
 40
18.28969619871088
 40
19.22510649745568
 40
20.71628671232397
 40
21.58886866030355
 40
22.37644809635422
 40
22.82765181115517
 40
23.11832309822512
 40
23.40038767435584
 40
23.53810277539185
 40
23.6735801868277
 40
23.6735801868277
 40
23.6735801868277
 40
23.6735801868277
 10
3751.955146862418
 20
67.46479131159003
 30
0.0
 10
3752.067106838648
 20
67.8937579800313
 30
0.0
 10
3752.418361532184
 20
69.37884177578417
 30
0.0
 10
3752.817984478834
 20
71.91207580388527
 30
0.0
 10
3753.000172974846
 20
74.65417326153101
 30
0.0
 10
3753.015492816098
 20
76.69808236387416
 30
0.0
 10
3752.977510025123
 20
78.34159323159292
 30
0.0
 10
3752.885383584641
 20
79.99066510080138
 30
0.0
 10
3752.650526021819
 20
82.00560554898675
 30
0.0
 10
3752.266810256297
 20
83.86067471624847
 30
0.0
 10
3751.786683067658
 20
85.35523859015666
 30
0.0
 10
3751.285833868295
 20
86.56531157311156
 30
0.0
 10
3750.777189945068
 20
87.54239158437349
 30
0.0
 10
3750.202924888963
 20
88.42297642586664
 30
0.0
 10
3749.770243539928
 20
88.97893654519567
 30
0.0
 10
3749.426222104592
 20
89.35560315113207
 30
0.0
 10
3749.181830743299
 20
89.59394871253562
 30
0.0
 10
3749.004781533861
 20
89.75148352048018
 30
0.0
 10
3748.860262186971
 20
89.86700493043327
 30
0.0
 10
3748.789647954704
 20
89.92478437707678
 30
0.0
 10
3748.752196495253
 20
89.9500180025143
 30
0.0
  0
LINE
  5
1AC7D
330
18
100
AcDbEntity
  8
01
100
AcDbLine
 10
3652.993290352832
 20
91.88488105220631
 30
0.0
 11
3652.993215034453
 21
65.88576583468512
 31
0.0
  0
LINE
  5
1AC7E
330
18
100
AcDbEntity
  8
01
100
AcDbLine
 10
3652.993217305002
 20
65.68362412103352
 30
0.0
 11
3652.993217305002
 21
92.08487899793863
 31
0.0
  0
ARC
  5
1AC7F
330
18
100
AcDbEntity
  8
01
100
AcDbCircle
 10
3652.693217305947
 20
92.08487899699458
 30
0.0
 40
0.2999999990551187
100
AcDbArc
 50
0.0000001803273744
 51
89.95150405611312
  0
ARC
  5
1AC80
330
18
100
AcDbEntity
  8
01
100
AcDbCircle
 10
3652.693216507642
 20
65.68362342047658
 30
0.0
 40
0.3000007973596788
100
AcDbArc
 50
270.0810830080073
 51
0.0001337961896191
  0
LINE
  5
1AC81
330
18
100
AcDbEntity
  8
01
100
AcDbLine
 10
3652.993217302005
 20
92.08492141412626
 30
0.0
 11
3652.99291013889
 21
92.09845123215746
 31
0.0
  0
LINE
  5
1AC82
330
18
100
AcDbEntity
  8
01
100
AcDbLine
 10
3609.99325402904
 20
123.3846256051497
 30
0.0
 11
3639.993293623919
 21
123.3846256051497
 31
0.0
  0
LINE
  5
1AC83
330
18
100
AcDbEntity
  8
01
100
AcDbLine
 10
3609.99325402904
 20
123.3846256051497
 30
0.0
 11
3609.99325402904
 21
69.38362693398312
 31
0.0
  0
ARC
  5
1AC84
330
18
100
AcDbEntity
  8
01
100
AcDbCircle
 10
3613.99325402904
 20
69.38362693398312
 30
0.0
 40
4.0
100
AcDbArc
 50
180.0
 51
270.0
  0
LINE
  5
1AC85
330
18
100
AcDbEntity
  8
01
100
AcDbLine
 10
3652.693989950793
 20
65.38362693398312
 30
0.0
 11
3613.99325402904
 21
65.38362693398312
 31
0.0
  0
LINE
  5
1AC86
330
18
100
AcDbEntity
  8
01
100
AcDbLine
 10
3652.693471230083
 20
92.38487888858708
 30
0.0
 11
3649.993293623919
 21
92.38487888858708
 31
0.0
  0
LINE
  5
1AC87
330
18
100
AcDbEntity
  8
01
100
AcDbLine
 10
3639.993293623919
 20
123.3846256051497
 30
0.0
 11
3639.993293623919
 21
102.3848788885871
 31
0.0
  0
ARC
  5
1AC88
330
18
100
AcDbEntity
  8
01
100
AcDbCircle
 10
3649.993293623919
 20
102.3848788885871
 30
0.0
 40
10.0
100
AcDbArc
 50
180.0
 51
270.0
  0
SPLINE
  5
1AC89
330
18
100
AcDbEntity
  8
01
  6
CONTINUOUS
100
AcDbSpline
210
0.0
220
0.0
230
1.0
 70
     8
 71
     3
 72
    22
 73
    18
 74
     0
 42
0.0000000001
 43
0.0000000001
 40
0.4991520728132199
 40
0.4991520728132199
 40
0.4991520728132199
 40
0.4991520728132199
 40
6.6691039202251
 40
13.3382078404502
 40
20.0073117606753
 40
26.6764156809004
 40
33.3455196011255
 40
40.0146235213506
 40
46.6837274415757
 40
53.3528313618008
 40
60.0219352820259
 40
66.691039202251
 40
73.3601431224762
 40
80.0292470427013
 40
86.6983509629264
 40
93.3674548831515
 40
94.9836652134268
 40
94.9836652134268
 40
94.9836652134268
 40
94.9836652134268
 10
3653.49270114034
 20
212.3843719950173
 30
0.0
 10
3655.550537317801
 20
212.3819469875484
 30
0.0
 10
3659.835634582556
 20
212.3809204524377
 30
0.0
 10
3666.322600276876
 20
212.3929194109728
 30
0.0
 10
3672.992748610245
 20
212.4208580098243
 30
0.0
 10
3679.693050128044
 20
212.4661574528818
 30
0.0
 10
3686.325380901757
 20
212.5294679446888
 30
0.0
 10
3693.012703111092
 20
212.6137482271301
 30
0.0
 10
3699.674643712857
 20
212.7203449304948
 30
0.0
 10
3706.360544500285
 20
212.8525503045244
 30
0.0
 10
3713.032420502016
 20
213.0128817389736
 30
0.0
 10
3719.680092575582
 20
213.2045310358908
 30
0.0
 10
3726.342537693529
 20
213.4332017659081
 30
0.0
 10
3733.022009179948
 20
213.7054596628655
 30
0.0
 10
3739.668574734975
 20
214.0267109167285
 30
0.0
 10
3744.664156204425
 20
214.3140289697794
 30
0.0
 10
3747.420459654757
 20
214.4920361888962
 30
0.0
 10
3747.95782953993
 20
214.5275348418195
 30
0.0
  0
ARC
  5
1AC8A
330
18
100
AcDbEntity
  8
01
  6
CONTINUOUS
100
AcDbCircle
 10
3631.585927865512
 20
-6897.852704178375
 30
0.0
 40
7137.270364721012
100
AcDbArc
 50
89.04512174235512
 51
89.82412222468156
  0
ARC
  5
1AC8B
330
18
100
AcDbEntity
  8
01
  6
CONTINUOUS
100
AcDbCircle
 10
3750.504046398949
 20
236.9259531900093
 30
0.0
 40
1.499603363099995
100
AcDbArc
 50
14.64126847379496
 51
89.06184179668708
  0
ARC
  5
1AC8C
330
18
100
AcDbEntity
  8
01
  6
CONTINUOUS
100
AcDbCircle
 10
3747.858955259595
 20
216.0242722417433
 30
0.0
 40
1.499999655880775
100
AcDbArc
 50
273.779460478737
 51
306.5457403174054
  0
ARC
  5
1AC8D
330
18
100
AcDbEntity
  8
01
  6
CONTINUOUS
100
AcDbCircle
 10
3653.493290330528
 20
212.8843716255701
 30
0.0
 40
0.499999977697594
100
AcDbArc
 50
180.000168160657
 51
269.9324837591129
  0
ARC
  5
1AC8E
330
18
100
AcDbEntity
  8
01
  6
CONTINUOUS
100
AcDbCircle
 10
3653.493214971876
 20
238.8840359990786
 30
0.0
 40
0.4999997940691604
100
AcDbArc
 50
89.82409587628142
 51
180.0001753183068
  0
LINE
  5
1AC8F
330
18
100
AcDbEntity
  8
01
  6
CONTINUOUS
100
AcDbLine
 10
3652.993215914179
 20
238.8859826236212
 30
0.0
 11
3652.993215034453
 21
238.8834853756125
 31
0.0
  0
ARC
  5
1AC90
330
18
100
AcDbEntity
  8
01
  6
CONTINUOUS
100
AcDbCircle
 10
3750.503503298615
 20
236.9267000010786
 30
0.0
 40
1.499990088713092
100
AcDbArc
 50
14.63050223480012
 51
89.04559893767902
  0
SPLINE
  5
1AC91
330
18
100
AcDbEntity
  8
01
  6
CONTINUOUS
100
AcDbSpline
210
0.0
220
0.0
230
1.0
 70
     8
 71
     3
 72
    25
 73
    21
 74
     0
 42
0.0000000001
 43
0.0000000001
 40
0.0
 40
0.0
 40
0.0
 40
0.0
 40
1.330115194272647
 40
4.576620566491306
 40
7.684101941912565
 40
9.567915124321164
 40
10.70729894620776
 40
12.61567813784874
 40
14.52128244825964
 40
16.78952030782246
 40
18.28969619871088
 40
19.22510649745568
 40
20.71628671232397
 40
21.58886866030355
 40
22.37644809635422
 40
22.82765181115517
 40
23.11832309822512
 40
23.40038767435584
 40
23.53810277539185
 40
23.6735801868277
 40
23.6735801868277
 40
23.6735801868277
 40
23.6735801868277
 10
3751.955146862418
 20
237.3044598987076
 30
0.0
 10
3752.067106838648
 20
236.8754932302663
 30
0.0
 10
3752.418361532184
 20
235.3904094345135
 30
0.0
 10
3752.817984478834
 20
232.8571754064124
 30
0.0
 10
3753.000172974846
 20
230.1150779487666
 30
0.0
 10
3753.015492816098
 20
228.0711688464235
 30
0.0
 10
3752.977510025123
 20
226.4276579787047
 30
0.0
 10
3752.885383584641
 20
224.7785861094962
 30
0.0
 10
3752.650526021819
 20
222.7636456613109
 30
0.0
 10
3752.266810256297
 20
220.9085764940492
 30
0.0
 10
3751.786683067658
 20
219.414012620141
 30
0.0
 10
3751.285833868295
 20
218.2039396371861
 30
0.0
 10
3750.777189945068
 20
217.2268596259241
 30
0.0
 10
3750.202924888963
 20
216.346274784431
 30
0.0
 10
3749.770243539928
 20
215.790314665102
 30
0.0
 10
3749.426222104592
 20
215.4136480591656
 30
0.0
 10
3749.181830743299
 20
215.175302497762
 30
0.0
 10
3749.004781533861
 20
215.0177676898174
 30
0.0
 10
3748.860262186971
 20
214.9022462798644
 30
0.0
 10
3748.789647954704
 20
214.8444668332208
 30
0.0
 10
3748.752196495253
 20
214.8192332077833
 30
0.0
  0
LINE
  5
1AC92
330
18
100
AcDbEntity
  8
01
100
AcDbLine
 10
3652.993290352832
 20
212.8843701580913
 30
0.0
 11
3652.993215034453
 21
238.8834853756125
 31
0.0
  0
LINE
  5
1AC93
330
18
100
AcDbEntity
  8
01
100
AcDbLine
 10
3652.993217305002
 20
239.0856270892641
 30
0.0
 11
3652.993217305002
 21
212.684372212359
 31
0.0
  0
ARC
  5
1AC94
330
18
100
AcDbEntity
  8
01
100
AcDbCircle
 10
3652.693217305947
 20
212.684372213303
 30
0.0
 40
0.2999999990551187
100
AcDbArc
 50
270.0484959438868
 51
359.9999998196726
  0
ARC
  5
1AC95
330
18
100
AcDbEntity
  8
01
100
AcDbCircle
 10
3652.693216507642
 20
239.085627789821
 30
0.0
 40
0.3000007973596788
100
AcDbArc
 50
359.9998662038104
 51
89.91891699199267
  0
LINE
  5
1AC96
330
18
100
AcDbEntity
  8
01
100
AcDbLine
 10
3652.993217302005
 20
212.6843297961714
 30
0.0
 11
3652.99291013889
 21
212.6707999781402
 31
0.0
  0
LINE
  5
1AC97
330
18
100
AcDbEntity
  8
01
100
AcDbLine
 10
3609.99325402904
 20
181.3846256051479
 30
0.0
 11
3639.993293623919
 21
181.3846256051479
 31
0.0
  0
LINE
  5
1AC98
330
18
100
AcDbEntity
  8
01
100
AcDbLine
 10
3609.99325402904
 20
181.3846256051479
 30
0.0
 11
3609.99325402904
 21
235.3856242763145
 31
0.0
  0
ARC
  5
1AC99
330
18
100
AcDbEntity
  8
01
100
AcDbCircle
 10
3613.99325402904
 20
235.3856242763145
 30
0.0
 40
4.0
100
AcDbArc
 50
90.0
 51
180.0
  0
LINE
  5
1AC9A
330
18
100
AcDbEntity
  8
01
100
AcDbLine
 10
3652.693989950793
 20
239.3856242763145
 30
0.0
 11
3613.99325402904
 21
239.3856242763145
 31
0.0
  0
LINE
  5
1AC9B
330
18
100
AcDbEntity
  8
01
100
AcDbLine
 10
3652.693471230083
 20
212.3843723217105
 30
0.0
 11
3649.993293623919
 21
212.3843723217105
 31
0.0
  0
LINE
  5
1AC9C
330
18
100
AcDbEntity
  8
01
100
AcDbLine
 10
3639.993293623919
 20
181.3846256051479
 30
0.0
 11
3639.993293623919
 21
202.3843723217105
 31
0.0
  0
ARC
  5
1AC9D
330
18
100
AcDbEntity
  8
01
100
AcDbCircle
 10
3649.993293623919
 20
202.3843723217105
 30
0.0
 40
10.0
100
AcDbArc
 50
90.0
 51
180.0
  0
LINE
  5
1AC9E
330
18
100
AcDbEntity
  8
1CENTER
100
AcDbLine
 10
3420.493506505969
 20
-132.6140560807198
 30
0.0
 11
3420.493506505969
 21
-124.6140560807198
 31
0.0
  0
LINE
  5
1AC9F
330
18
100
AcDbEntity
  8
01
100
AcDbLine
 10
3425.993506505969
 20
-128.6140942990864
 30
0.0
 11
3423.886803802495
 21
-128.558659984817
 31
0.0
  0
SPLINE
  5
1ACA0
330
18
100
AcDbEntity
  8
01
100
AcDbSpline
210
0.0
220
0.0
230
1.0
 70
     8
 71
     3
 72
   138
 73
   134
 74
     0
 42
0.0000000001
 43
0.0000000001
 40
0.0
 40
0.0
 40
0.0
 40
0.0
 40
0.1668157130194292
 40
0.3346876553454588
 40
0.5240669493630439
 40
0.7147095099200806
 40
0.8985953965508194
 40
1.083107924707542
 40
1.290805810141262
 40
1.499182253444173
 40
1.701679046967988
 40
1.904500923923147
 40
2.107508332753089
 40
2.310627511543653
 40
2.481455866649648
 40
2.6521672245704
 40
2.730720249536133
 40
2.809206602893594
 40
3.024464093987093
 40
3.239426774508367
 40
3.417629971705596
 40
3.595080099381215
 40
3.665965004232471
 40
3.736621908582423
 40
3.88058279821407
 40
4.023441446393039
 40
4.168623700254177
 40
4.312700030266428
 40
4.455773429886731
 40
4.597946448969819
 40
4.734770866870796
 40
4.871067763021014
 40
5.006134682710677
 40
5.140723777495796
 40
5.408323944773493
 40
5.673767610389495
 40
5.809212267887493
 40
5.94422000793654
 40
6.079065042884841
 40
6.213593550615947
 40
6.348626553422866
 40
6.483273594736706
 40
6.618271226934831
 40
6.752756281565293
 40
7.02047152595319
 40
7.421616657639844
 40
7.692290584559225
 40
7.827919423113985
 40
8.07845510877842
 40
8.327871015826632
 40
8.576841194451651
 40
9.323570508807586
 40
9.575017729387518
 40
10.03707551382911
 40
10.24521813234471
 40
10.87119144050196
 40
11.50512337434287
 40
12.56666713690732
 40
12.78018384205361
 40
13.21089593904656
 40
13.86369562851506
 40
14.51947296165382
 40
14.84710488477319
 40
15.33703996929068
 40
15.66039604316792
 40
15.95641160121191
 40
16.22533809107201
 40
16.35806910952146
 40
16.48946025091275
 40
16.55512360860931
 40
16.62137360057212
 40
16.67216095566956
 40
16.72509011289515
 40
16.75927672523065
 40
16.79348964335928
 40
16.82501671458787
 40
16.85655277983729
 40
16.90650187766521
 40
16.95704041767811
 40
17.00878642968656
 40
17.06051158171665
 40
18.05232509175194
 40
19.05412842030143
 40
19.59748009973429
 40
20.14662486715726
 40
20.6960570326199
 40
21.24549961502616
 40
21.79838629269784
 40
22.35447510513524
 40
22.63281640714843
 40
22.91007054045417
 40
23.18629582463462
 40
23.4615601908881
 40
24.56983334669013
 40
25.68195104993805
 40
25.88208105101144
 40
26.22966387996111
 40
26.52349607570023
 40
26.82000405908244
 40
27.10872157924958
 40
27.39227484299192
 40
27.53218939748468
 40
27.80764894116495
 40
28.06877431243479
 40
28.19319811623436
 40
28.43835210689766
 40
28.79969009877493
 40
29.39673438016384
 40
29.87957113092499
 40
30.36613776974632
 40
30.85438344271968
 40
31.34245740531411
 40
32.17723335082021
 40
33.21783413460746
 40
34.25987937571865
 40
36.00862584052744
 40
37.05883755635396
 40
37.86561754231909
 40
38.78056165034153
 40
39.69506462414768
 40
41.05495505395752
 40
42.8539749115778
 40
44.63434476152022
 40
46.71905378355459
 40
48.78012043535887
 40
50.8350599240697
 40
52.87257028749691
 40
55.92425539466682
 40
58.94112843645743
 40
59.94188621989754
 40
60.94236754650147
 40
61.50419583016652
 40
62.06303412180577
 40
62.06303412180577
 40
62.06303412180577
 40
62.06303412180577
 10
3367.967852678846
 20
-117.6140542719936
 30
0.0
 10
3367.96786364655
 20
-117.669456543224
 30
0.0
 10
3367.969501468585
 20
-117.7710264901002
 30
0.0
 10
3367.977884144029
 20
-117.9433438812453
 30
0.0
 10
3367.989549477677
 20
-118.0877918863639
 30
0.0
 10
3368.006156973298
 20
-118.2415109062508
 30
0.0
 10
3368.027856998081
 20
-118.3978937684319
 30
0.0
 10
3368.055914283233
 20
-118.5616366897098
 30
0.0
 10
3368.083445393278
 20
-118.6984772856126
 30
0.0
 10
3368.117091348709
 20
-118.8461175790621
 30
0.0
 10
3368.152978262422
 20
-118.9857809826804
 30
0.0
 10
3368.191412021817
 20
-119.1218338050189
 30
0.0
 10
3368.233950085103
 20
-119.2588364497947
 30
0.0
 10
3368.272142569358
 20
-119.3736141464774
 30
0.0
 10
3368.325352186095
 20
-119.521645337762
 30
0.0
 10
3368.364177876223
 20
-119.6220346256791
 30
0.0
 10
3368.39969392623
 20
-119.710139380732
 30
0.0
 10
3368.446691190156
 20
-119.8222345567178
 30
0.0
 10
3368.447908055572
 20
-119.8236648415918
 30
0.0
 10
3368.472107892872
 20
-119.8800136150471
 30
0.0
 10
3368.513581665038
 20
-119.9708895101571
 30
0.0
 10
3368.520531513417
 20
-119.9867569643598
 30
0.0
 10
3368.571681189549
 20
-120.0939398229862
 30
0.0
 10
3368.612684808245
 20
-120.177093396494
 30
0.0
 10
3368.665829937441
 20
-120.2812036964983
 30
0.0
 10
3368.733187067073
 20
-120.4067456764465
 30
0.0
 10
3368.800678463183
 20
-120.526948272905
 30
0.0
 10
3368.871242146316
 20
-120.6472778058646
 30
0.0
 10
3368.943765943635
 20
-120.7657626143514
 30
0.0
 10
3369.016532654464
 20
-120.8799855057646
 30
0.0
 10
3369.093373090681
 20
-120.9959942264445
 30
0.0
 10
3369.170011974489
 20
-121.107433597605
 30
0.0
 10
3369.248648908549
 20
-121.2178148632606
 30
0.0
 10
3369.354906994683
 20
-121.3619454073419
 30
0.0
 10
3369.490860240535
 20
-121.5375618374842
 30
0.0
 10
3369.632012005784
 20
-121.7091385450562
 30
0.0
 10
3369.748277410939
 20
-121.8442605440191
 30
0.0
 10
3369.83778432441
 20
-121.9452116666612
 30
0.0
 10
3369.927944412012
 20
-122.0439595627254
 30
0.0
 10
3370.019964203593
 20
-122.1418674594456
 30
0.0
 10
3370.111634743623
 20
-122.2367229536053
 30
0.0
 10
3370.205298838313
 20
-122.3310558799717
 30
0.0
 10
3370.298603410925
 20
-122.4225801745074
 30
0.0
 10
3370.424510417504
 20
-122.5429849691259
 30
0.0
 10
3370.615365444142
 20
-122.7187535846647
 30
0.0
 10
3370.845079944447
 20
-122.9172991786895
 30
0.0
 10
3371.042634927465
 20
-123.0780179470235
 30
0.0
 10
3371.205173987034
 20
-123.2057545914918
 30
0.0
 10
3371.363084380424
 20
-123.3258517582458
 30
0.0
 10
3371.551979709534
 20
-123.4636438657694
 30
0.0
 10
3371.868328243121
 20
-123.6850196599603
 30
0.0
 10
3372.192440984899
 20
-123.893670100389
 30
0.0
 10
3372.573359217631
 20
-124.1197520276605
 30
0.0
 10
3372.813536111829
 20
-124.2544429563545
 30
0.0
 10
3373.156924380879
 20
-124.4372672893519
 30
0.0
 10
3373.548589039222
 20
-124.6319107525846
 30
0.0
 10
3374.169159029577
 20
-124.9099541014625
 30
0.0
 10
3374.685827770077
 20
-125.1113973724409
 30
0.0
 10
3375.152284427438
 20
-125.2741447963122
 30
0.0
 10
3375.505299964132
 20
-125.3904488447702
 30
0.0
 10
3375.985512283898
 20
-125.5336105574829
 30
0.0
 10
3376.440571673125
 20
-125.6528140944952
 30
0.0
 10
3376.857529707673
 20
-125.7513013550465
 30
0.0
 10
3377.183078032045
 20
-125.8213458973219
 30
0.0
 10
3377.506500307541
 20
-125.8844960111796
 30
0.0
 10
3377.772467209755
 20
-125.932376814128
 30
0.0
 10
3377.988104174224
 20
-125.9681746403999
 30
0.0
 10
3378.157041700993
 20
-125.9945386827226
 30
0.0
 10
3378.264456231319
 20
-126.0106022574787
 30
0.0
 10
3378.351115115483
 20
-126.0231395214719
 30
0.0
 10
3378.411751742785
 20
-126.0317142684721
 30
0.0
 10
3378.466789920972
 20
-126.0393453129741
 30
0.0
 10
3378.512098537306
 20
-126.0455121171594
 30
0.0
 10
3378.545643888288
 20
-126.0500182678629
 30
0.0
 10
3378.57657467283
 20
-126.054128330607
 30
0.0
 10
3378.598482772471
 20
-126.0570127208034
 30
0.0
 10
3378.628273858792
 20
-126.0609045978149
 30
0.0
 10
3378.65144177195
 20
-126.0638987727966
 30
0.0
 10
3378.674707792333
 20
-126.066884611108
 30
0.0
 10
3378.690927008359
 20
-126.0689529400584
 30
0.0
 10
3378.821988626186
 20
-126.0855817589313
 30
0.0
 10
3379.022649558253
 20
-126.1097442341111
 30
0.0
 10
3379.32364639664
 20
-126.1430739640414
 30
0.0
 10
3379.512913398533
 20
-126.1630322684637
 30
0.0
 10
3379.667841878603
 20
-126.1791023822466
 30
0.0
 10
3379.838123961802
 20
-126.1963932977192
 30
0.0
 10
3380.024258499253
 20
-126.2149033855462
 30
0.0
 10
3380.212204241359
 20
-126.2332537973621
 30
0.0
 10
3380.372708895769
 20
-126.2487172024571
 30
0.0
 10
3380.505815984977
 20
-126.261437143196
 30
0.0
 10
3380.611884368372
 20
-126.2715132665794
 30
0.0
 10
3380.723086518686
 20
-126.281999352595
 30
0.0
 10
3380.956518590357
 20
-126.3038779605954
 30
0.0
 10
3381.362379187266
 20
-126.3407206588931
 30
0.0
 10
3381.563668186738
 20
-126.3597162109886
 30
0.0
 10
3381.991676405428
 20
-126.3979136259381
 30
0.0
 10
3382.236355681427
 20
-126.4189453804524
 30
0.0
 10
3382.52666012399
 20
-126.4426969503816
 30
0.0
 10
3382.797577355844
 20
-126.4638325599331
 30
0.0
 10
3383.04811785499
 20
-126.4827257014399
 30
0.0
 10
3383.24562223396
 20
-126.4972933853765
 30
0.0
 10
3383.433983506234
 20
-126.5110421370132
 30
0.0
 10
3383.611934839396
 20
-126.5239298915526
 30
0.0
 10
3383.776980381118
 20
-126.5358489274145
 30
0.0
 10
3383.938758732978
 20
-126.547539963653
 30
0.0
 10
3384.13137559951
 20
-126.5614519485066
 30
0.0
 10
3384.461704876162
 20
-126.5852540521259
 30
0.0
 10
3384.87930956684
 20
-126.6151224058954
 30
0.0
 10
3385.350781684977
 20
-126.6483305010756
 30
0.0
 10
3385.79065952983
 20
-126.6789414500313
 30
0.0
 10
3386.235154192765
 20
-126.7096297969451
 30
0.0
 10
3386.786566866034
 20
-126.7475082891137
 30
0.0
 10
3387.515309151413
 20
-126.7973379345599
 30
0.0
 10
3388.431804087455
 20
-126.8593276390852
 30
0.0
 10
3389.652698475189
 20
-126.9407275875506
 30
0.0
 10
3390.893451565541
 20
-127.0220799747253
 30
0.0
 10
3392.07014673738
 20
-127.0980131035371
 30
0.0
 10
3392.9828418841
 20
-127.1560319978803
 30
0.0
 10
3393.856405276887
 20
-127.2106322775567
 30
0.0
 10
3394.917578213622
 20
-127.2755708784057
 30
0.0
 10
3396.272662329511
 20
-127.3562620580446
 30
0.0
 10
3397.914104244087
 20
-127.4526973404859
 30
0.0
 10
3399.796573351972
 20
-127.5631904524239
 30
0.0
 10
3401.765966911634
 20
-127.674782031248
 30
0.0
 10
3403.827294110829
 20
-127.7867639730653
 30
0.0
 10
3405.87361932685
 20
-127.892759690561
 30
0.0
 10
3408.249691449958
 20
-128.0098087656474
 30
0.0
 10
3410.946047446808
 20
-128.1323907489536
 30
0.0
 10
3413.299061604708
 20
-128.2254967327531
 30
0.0
 10
3414.969892363089
 20
-128.2860533694316
 30
0.0
 10
3415.823381325406
 20
-128.3161387918594
 30
0.0
 10
3416.529833781745
 20
-128.3392748079164
 30
0.0
 10
3416.902978285006
 20
-128.3532312908678
 30
0.0
 10
3417.089166818675
 20
-128.3582344254751
 30
0.0
  0
SPLINE
  5
1ACA1
330
18
100
AcDbEntity
  8
01
100
AcDbSpline
210
0.0
220
0.0
230
1.0
 70
     8
 71
     3
 72
    21
 73
    17
 74
     0
 42
0.0000000001
 43
0.0000000001
 40
0.0
 40
0.0
 40
0.0
 40
0.0
 40
0.0851307068292339
 40
0.2153854175050789
 40
0.3139243314719375
 40
0.412233476593946
 40
0.5601151404401017
 40
0.9297231521164819
 40
1.151451454783988
 40
1.502743620640995
 40
1.736845939152541
 40
2.345000851588668
 40
2.730716427843832
 40
3.243685533877488
 40
4.637678957492575
 40
5.333893055117052
 40
5.333893055117052
 40
5.333893055117052
 40
5.333893055117052
 10
3423.884873666149
 20
-128.5584937734698
 30
0.0
 10
3423.869088308356
 20
-128.5580717807784
 30
0.0
 10
3423.851600681484
 20
-128.5558674862355
 30
0.0
 10
3423.837334208205
 20
-128.5539710160124
 30
0.0
 10
3423.821402863299
 20
-128.5512962433145
 30
0.0
 10
3423.802764019761
 20
-128.5479292976456
 30
0.0
 10
3423.76805279383
 20
-128.5412562946653
 30
0.0
 10
3423.713766300697
 20
-128.5309466132135
 30
0.0
 10
3423.614098609372
 20
-128.5131370649237
 30
0.0
 10
3423.507654510875
 20
-128.4942648178117
 30
0.0
 10
3423.320736449548
 20
-128.4620476559326
 30
0.0
 10
3423.085195374582
 20
-128.4232494856637
 30
0.0
 10
3422.740914641361
 20
-128.3719283718387
 30
0.0
 10
3422.148048409986
 20
-128.2927094168385
 30
0.0
 10
3421.334044688786
 20
-128.2136887585152
 30
0.0
 10
3420.63508445567
 20
-128.1850023275306
 30
0.0
 10
3420.403572338224
 20
-128.1796906552931
 30
0.0
  0
SPLINE
  5
1ACA2
330
18
100
AcDbEntity
  8
01
100
AcDbSpline
210
0.0
220
0.0
230
1.0
 70
     8
 71
     3
 72
   161
 73
   157
 74
     0
 42
0.0000000001
 43
0.0000000001
 40
0.0
 40
0.0
 40
0.0
 40
0.0
 40
0.1753276591652896
 40
0.3519044495348527
 40
0.5296347732845289
 40
0.7084108616293461
 40
0.8823101758413803
 40
1.056860246306637
 40
1.267321473500869
 40
1.478598981410851
 40
1.698593606378595
 40
1.918963458870645
 40
2.107408618756955
 40
2.295733498234714
 40
2.461477313870521
 40
2.626961935464299
 40
2.777432642032876
 40
2.927548665257361
 40
3.00177237759288
 40
3.075878649229417
 40
3.147270802325481
 40
3.218465040601231
 40
3.364074812929046
 40
3.508723249385344
 40
3.653062580038595
 40
3.796485657768224
 40
3.939029070108194
 40
4.080726961651802
 40
4.218782162113135
 40
4.356174503276981
 40
4.492907066476416
 40
4.628986828465611
 40
4.899121683385133
 40
5.167026625407447
 40
5.300346847982976
 40
5.433238411412505
 40
5.566025713674333
 40
5.698460172232819
 40
5.831178089348829
 40
5.963607037547601
 40
6.096221802301735
 40
6.228595463666009
 40
6.436235965323256
 40
6.644073933893274
 40
6.852209702767026
 40
7.059925032818242
 40
7.268292062311387
 40
7.476250453930771
 40
7.893245666987257
 40
8.065712624877925
 40
8.238063048380367
 40
8.410811372925146
 40
8.92802287965372
 40
9.272880491136824
 40
9.619724739924168
 40
10.31752282469657
 40
10.66822216000941
 40
11.18964540534406
 40
11.45043819379522
 40
11.71289900943138
 40
11.97682335269064
 40
12.77116854795565
 40
13.03663544928481
 40
13.5697948965027
 40
14.36792165891221
 40
14.89885001030253
 40
15.2583126502101
 40
15.61079239575969
 40
15.69746829704618
 40
15.86886630374273
 40
15.95368425838593
 40
15.99600465780758
 40
16.03838648454619
 40
16.08121972553973
 40
16.12412443397156
 40
16.17033844542302
 40
16.21662766030539
 40
16.2466414232401
 40
16.27667526547951
 40
16.30484128941486
 40
16.3330147018479
 40
16.37600967978959
 40
16.41931394642792
 40
16.46371986904074
 40
16.50811001488443
 40
16.59786998379897
 40
16.68756487456678
 40
16.86851690829732
 40
17.04920229559118
 40
17.41150458881523
 40
18.03324322374408
 40
18.29683723786884
 40
18.83245571631319
 40
19.3772955531871
 40
19.65058637522725
 40
20.3122615440759
 40
20.70090138143717
 40
21.09144292122238
 40
21.48373808860526
 40
21.87748136894416
 40
22.27076176857144
 40
22.46635164106641
 40
22.66183471333888
 40
23.05083358640117
 40
23.38186736816081
 40
23.88485779616349
 40
24.05474264920091
 40
24.22585082071532
 40
24.39805743121401
 40
24.57228945751721
 40
24.74621167943534
 40
24.83046135932649
 40
24.99399742050408
 40
25.15406868498914
 40
25.39566743937679
 40
25.64621839534745
 40
25.90849182443579
 40
26.08929283538605
 40
26.26794001169155
 40
26.44333160660758
 40
26.61658700906262
 40
26.78799732060817
 40
26.95762164491552
 40
27.12529634459997
 40
27.45367866512593
 40
27.77196099452028
 40
27.92808537341424
 40
28.08271757058687
 40
28.59269882506748
 40
29.0012738236437
 40
29.20741171837419
 40
30.03812295407611
 40
30.45512700784406
 40
30.87173364194304
 40
31.28855683089697
 40
32.16709571260193
 40
32.62846021532462
 40
33.08985867115978
 40
34.94500812755368
 40
35.87622159166673
 40
37.50856175317855
 40
38.67996595723793
 40
39.50585720406737
 40
39.86286985642367
 40
41.28651074497824
 40
41.99439928761057
 40
43.39591297843097
 40
44.80370702859335
 40
46.88496279090998
 40
50.99680386293853
 40
53.0314855883046
 40
54.05069632410141
 40
57.08366503897778
 40
59.08867417229233
 40
65.06755382581002
 40
70.4615077558024
 40
70.4615077558024
 40
70.4615077558024
 40
70.4615077558024
 10
3367.967852678846
 20
-117.6140542719936
 30
0.0
 10
3367.967841151503
 20
-117.5558250419604
 30
0.0
 10
3367.969548737613
 20
-117.4571828599815
 30
0.0
 10
3367.977044595674
 20
-117.2965044934977
 30
0.0
 10
3367.989395062131
 20
-117.1402599639418
 30
0.0
 10
3368.006043074226
 20
-116.9875391664468
 30
0.0
 10
3368.027486458928
 20
-116.8323481548609
 30
0.0
 10
3368.05698891758
 20
-116.6607606180191
 30
0.0
 10
3368.082974266866
 20
-116.5320869630573
 30
0.0
 10
3368.118571902477
 20
-116.3757248387551
 30
0.0
 10
3368.153005470137
 20
-116.2426518018569
 30
0.0
 10
3368.186721875139
 20
-116.121846246057
 30
0.0
 10
3368.233060828717
 20
-115.9713792045682
 30
0.0
 10
3368.272070097891
 20
-115.8543092640407
 30
0.0
 10
3368.323564112986
 20
-115.710907709235
 30
0.0
 10
3368.368579211348
 20
-115.5939025830071
 30
0.0
 10
3368.424340200968
 20
-115.4577003352401
 30
0.0
 10
3368.467357774909
 20
-115.3587205482404
 30
0.0
 10
3368.507378106129
 20
-115.2702862127876
 30
0.0
 10
3368.536258595921
 20
-115.2082214382804
 30
0.0
 10
3368.567848932702
 20
-115.1420871800724
 30
0.0
 10
3368.610196643507
 20
-115.0558237253531
 30
0.0
 10
3368.663289153866
 20
-114.951706246336
 30
0.0
 10
3368.73063755557
 20
-114.8259026115134
 30
0.0
 10
3368.799605976662
 20
-114.702993766236
 30
0.0
 10
3368.870866820585
 20
-114.5815217726672
 30
0.0
 10
3368.94417290927
 20
-114.4618189891612
 30
0.0
 10
3369.018369766936
 20
-114.345462437454
 30
0.0
 10
3369.095530747918
 20
-114.2290698940965
 30
0.0
 10
3369.173287050498
 20
-114.1160739967031
 30
0.0
 10
3369.252665629384
 20
-114.0047127719913
 30
0.0
 10
3369.360078785417
 20
-113.8590652975377
 30
0.0
 10
3369.49767688816
 20
-113.6814901878492
 30
0.0
 10
3369.640341817112
 20
-113.5086656435519
 30
0.0
 10
3369.756147936097
 20
-113.3745651031591
 30
0.0
 10
3369.844279964745
 20
-113.2754593255945
 30
0.0
 10
3369.932906955817
 20
-113.178603809803
 30
0.0
 10
3370.023182023947
 20
-113.0826682488018
 30
0.0
 10
3370.113487719596
 20
-112.9892795043584
 30
0.0
 10
3370.205434670046
 20
-112.896681682962
 30
0.0
 10
3370.297576303095
 20
-112.8062782122302
 30
0.0
 10
3370.408765845591
 20
-112.6999465764643
 30
0.0
 10
3370.538581706534
 20
-112.5797758501544
 30
0.0
 10
3370.688293116551
 20
-112.4464342630895
 30
0.0
 10
3370.839097358781
 20
-112.317077201034
 30
0.0
 10
3370.992716044032
 20
-112.1901217887703
 30
0.0
 10
3371.146386529739
 20
-112.0676922074304
 30
0.0
 10
3371.354731019248
 20
-111.9075804140061
 30
0.0
 10
3371.555700481712
 20
-111.7612663389332
 30
0.0
 10
3371.749202860311
 20
-111.6270336458051
 30
0.0
 10
3371.881921091464
 20
-111.5375322276636
 30
0.0
 10
3372.103075897883
 20
-111.3925213173102
 30
0.0
 10
3372.371846579944
 20
-111.2259046198319
 30
0.0
 10
3372.688916410994
 20
-111.0426008982936
 30
0.0
 10
3373.054804880486
 20
-110.8424946319697
 30
0.0
 10
3373.426513374901
 20
-110.6556836034028
 30
0.0
 10
3373.846382935944
 20
-110.4618216680415
 30
0.0
 10
3374.149823629593
 20
-110.3312861346753
 30
0.0
 10
3374.43291032309
 20
-110.2171952711674
 30
0.0
 10
3374.646079618682
 20
-110.1350473323423
 30
0.0
 10
3375.004435305354
 20
-110.0030336820014
 30
0.0
 10
3375.365767054507
 20
-109.8818057583171
 30
0.0
 10
3375.804377845417
 20
-109.7482623270957
 30
0.0
 10
3376.245406757341
 20
-109.6238853064792
 30
0.0
 10
3376.768537620757
 20
-109.4950477534317
 30
0.0
 10
3377.251892880223
 20
-109.3924709797343
 30
0.0
 10
3377.617340141068
 20
-109.3229239839216
 30
0.0
 10
3377.859424208045
 20
-109.2810813226147
 30
0.0
 10
3378.049887637014
 20
-109.2502352946071
 30
0.0
 10
3378.158959357504
 20
-109.233257803678
 30
0.0
 10
3378.255860290139
 20
-109.2187889062247
 30
0.0
 10
3378.311749084512
 20
-109.2106204686274
 30
0.0
 10
3378.353732838902
 20
-109.2045731111025
 30
0.0
 10
3378.395762216629
 20
-109.1986055969614
 30
0.0
 10
3378.440134506045
 20
-109.1924024210261
 30
0.0
 10
3378.481322019568
 20
-109.1867282037824
 30
0.0
 10
3378.522130103896
 20
-109.1811964583999
 30
0.0
 10
3378.550608884432
 20
-109.1773818624192
 30
0.0
 10
3378.577185199357
 20
-109.1738542660592
 30
0.0
 10
3378.596606147273
 20
-109.1712974151974
 30
0.0
 10
3378.622580345747
 20
-109.1679018174041
 30
0.0
 10
3378.642635561189
 20
-109.1653039613807
 30
0.0
 10
3378.664558377558
 20
-109.1624830547285
 30
0.0
 10
3378.678447741645
 20
-109.1607066857318
 30
0.0
 10
3378.701104942365
 20
-109.1578211646797
 30
0.0
 10
3378.723655766334
 20
-109.1549707032386
 30
0.0
 10
3378.765235293751
 20
-109.1497592412557
 30
0.0
 10
3378.809519215876
 20
-109.1442812656046
 30
0.0
 10
3378.889466130945
 20
-109.1345455020651
 30
0.0
 10
3379.011866451161
 20
-109.1199828364865
 30
0.0
 10
3379.164428535406
 20
-109.1026284754248
 30
0.0
 10
3379.313978923757
 20
-109.0862271839665
 30
0.0
 10
3379.44489475979
 20
-109.072220980453
 30
0.0
 10
3379.567309050149
 20
-109.0594226375465
 30
0.0
 10
3379.71169366178
 20
-109.0445451628043
 30
0.0
 10
3379.850612859383
 20
-109.0304760771564
 30
0.0
 10
3380.013567860713
 20
-109.0143008215578
 30
0.0
 10
3380.146012369799
 20
-109.0013236102691
 30
0.0
 10
3380.281387204033
 20
-108.9881970791944
 30
0.0
 10
3380.418764022795
 20
-108.9749942695821
 30
0.0
 10
3380.537924440315
 20
-108.9636265883541
 30
0.0
 10
3380.641664433591
 20
-108.9538008519307
 30
0.0
 10
3380.745632379452
 20
-108.9440035081802
 30
0.0
 10
3380.877051204175
 20
-108.9317140526587
 30
0.0
 10
3381.063285298389
 20
-108.9145073063805
 30
0.0
 10
3381.206370219126
 20
-108.9014408343569
 30
0.0
 10
3381.318965538472
 20
-108.891179332652
 30
0.0
 10
3381.384491827489
 20
-108.885209422951
 30
0.0
 10
3381.449123883683
 20
-108.8793162348024
 30
0.0
 10
3381.508894131733
 20
-108.8738572947082
 30
0.0
 10
3381.555564514639
 20
-108.8695811399416
 30
0.0
 10
3381.615101675859
 20
-108.8641234411475
 30
0.0
 10
3381.685350057787
 20
-108.8576969168257
 30
0.0
 10
3381.806283778261
 20
-108.8467311482941
 30
0.0
 10
3381.974162350956
 20
-108.8317788149729
 30
0.0
 10
3382.191912875165
 20
-108.8130043590759
 30
0.0
 10
3382.402687530609
 20
-108.7955175935808
 30
0.0
 10
3382.597455479261
 20
-108.7799197920081
 30
0.0
 10
3382.760446710157
 20
-108.7672193032417
 30
0.0
 10
3382.915554949102
 20
-108.7553873801176
 30
0.0
 10
3383.06454388152
 20
-108.7442141939287
 30
0.0
 10
3383.207947312228
 20
-108.7336019968111
 30
0.0
 10
3383.34650073584
 20
-108.7234513375902
 30
0.0
 10
3383.524110446656
 20
-108.7105330991976
 30
0.0
 10
3383.731901016
 20
-108.6955237040188
 30
0.0
 10
3383.935090112805
 20
-108.6808367557774
 30
0.0
 10
3384.102146693736
 20
-108.6687739815857
 30
0.0
 10
3384.324198381638
 20
-108.6527600921622
 30
0.0
 10
3384.627070484044
 20
-108.6309992455067
 30
0.0
 10
3384.958235526215
 20
-108.6074454248715
 30
0.0
 10
3385.392178409938
 20
-108.5768571651283
 30
0.0
 10
3385.831261999812
 20
-108.5463299672961
 30
0.0
 10
3386.337576194835
 20
-108.5114330749589
 30
0.0
 10
3386.718631559319
 20
-108.4852686284416
 30
0.0
 10
3387.244792765914
 20
-108.4492487161619
 30
0.0
 10
3387.791792332553
 20
-108.4120335562488
 30
0.0
 10
3388.359350818369
 20
-108.3737610625208
 30
0.0
 10
3389.240227401855
 20
-108.314732258345
 30
0.0
 10
3390.284243895888
 20
-108.2457975786751
 30
0.0
 10
3391.719328134668
 20
-108.1525132491438
 30
0.0
 10
3392.946286640408
 20
-108.0740592105226
 30
0.0
 10
3394.151251797342
 20
-107.9991785070692
 30
0.0
 10
3394.934813880647
 20
-107.9516749987638
 30
0.0
 10
3395.801986779353
 20
-107.8997487833972
 30
0.0
 10
3396.62930642842
 20
-107.850885292803
 30
0.0
 10
3397.803543751655
 20
-107.7818782364516
 30
0.0
 10
3398.97276177288
 20
-107.7130622856525
 30
0.0
 10
3400.597763868745
 20
-107.6191816500682
 30
0.0
 10
3403.124270738489
 20
-107.4778423704088
 30
0.0
 10
3405.8600919376
 20
-107.3349142784677
 30
0.0
 10
3408.243388005148
 20
-107.219609314247
 30
0.0
 10
3410.26798783237
 20
-107.1266024741494
 30
0.0
 10
3412.283452982084
 20
-107.0417198821619
 30
0.0
 10
3415.951145190922
 20
-106.9037424148705
 30
0.0
 10
3420.407241932798
 20
-106.7626871547304
 30
0.0
 10
3424.196323412443
 20
-106.6603542623975
 30
0.0
 10
3425.993506505969
 20
-106.6140178623532
 30
0.0
  0
SPLINE
  5
1ACA3
330
18
100
AcDbEntity
  8
01
100
AcDbSpline
210
0.0
220
0.0
230
1.0
 70
     8
 71
     3
 72
    18
 73
    14
 74
     0
 42
0.0000000001
 43
0.0000000001
 40
0.0
 40
0.0
 40
0.0
 40
0.0
 40
0.6968103897542867
 40
1.801970234880123
 40
2.17321326497219
 40
2.423509114463025
 40
3.439835155986084
 40
3.957522063926517
 40
4.346495939257521
 40
4.56152175118824
 40
4.77720781402824
 40
4.905127338730156
 40
5.034878036177931
 40
5.034878036177931
 40
5.034878036177931
 40
5.034878036177931
 10
3420.403572338224
 20
-128.1796906552931
 30
0.0
 10
3420.171858113846
 20
-128.1743743460379
 30
0.0
 10
3419.571972700208
 20
-128.1715936807018
 30
0.0
 10
3418.897193415736
 20
-128.2001347456312
 30
0.0
 10
3418.429882952261
 20
-128.2331709880941
 30
0.0
 10
3418.017957062831
 20
-128.2666375881595
 30
0.0
 10
3417.645842428666
 20
-128.3050455152384
 30
0.0
 10
3417.366635008907
 20
-128.3353850360077
 30
0.0
 10
3417.248908931555
 20
-128.3475457745758
 30
0.0
 10
3417.184309051657
 20
-128.3537735064151
 30
0.0
 10
3417.148484742067
 20
-128.3567401374498
 30
0.0
 10
3417.120458114843
 20
-128.3582221403353
 30
0.0
 10
3417.103087341687
 20
-128.3586919711893
 30
0.0
 10
3417.089766681439
 20
-128.3582554579784
 30
0.0
  0
LINE
  5
1ACA4
330
18
100
AcDbEntity
  8
01
100
AcDbLine
 10
3425.993506505969
 20
-106.6140178623532
 30
0.0
 11
3425.993506505969
 21
-128.6140942990864
 31
0.0
  0
ARC
  5
1ACA5
330
18
100
AcDbEntity
  8
01
  6
CONTINUOUS
100
AcDbCircle
 10
3256.493461070864
 20
-109.6223677215175
 30
0.0
 40
0.5000152713007943
100
AcDbArc
 50
0.0017333429139377
 51
90.9543443438515
  0
ARC
  5
1ACA6
330
18
100
AcDbEntity
  8
01
  6
CONTINUOUS
100
AcDbCircle
 10
3159.031223153966
 20
-121.7531013697417
 30
0.0
 40
1.525357082928538
100
AcDbArc
 50
193.9946051303457
 51
265.3956256431323
  0
SPLINE
  5
1ACA7
330
18
100
AcDbEntity
  8
01
  6
CONTINUOUS
100
AcDbSpline
210
0.0
220
0.0
230
1.0
 70
     8
 71
     3
 72
    19
 73
    15
 74
     0
 42
0.0000000001
 43
0.0000000001
 40
0.0
 40
0.0
 40
0.0
 40
0.0
 40
9.460161730091599
 40
15.98254808382674
 40
21.19129945756545
 40
25.09589110006226
 40
31.07976597410934
 40
37.07051130115414
 40
49.03234155557556
 40
60.99958883125357
 40
72.94987208489064
 40
78.94125269660621
 40
87.91845955628929
 40
97.64525170031928
 40
97.64525170031928
 40
97.64525170031928
 40
97.64525170031928
 10
3158.90501171491
 20
-111.9675512517961
 30
0.0
 10
3162.046268655934
 20
-111.7236315698519
 30
0.0
 10
3167.359546905898
 20
-111.367597088446
 30
0.0
 10
3174.413205034536
 20
-111.0260043790659
 30
0.0
 10
3179.620904048701
 20
-110.8372580231844
 30
0.0
 10
3184.650742085897
 20
-110.693680279237
 30
0.0
 10
3189.942142694755
 20
-110.5759721730319
 30
0.0
 10
3197.918919932568
 20
-110.4185573716677
 30
0.0
 10
3207.889093393698
 20
-110.1980043791591
 30
0.0
 10
3219.844680698581
 20
-109.9164474011545
 30
0.0
 10
3229.810749176753
 20
-109.678865919298
 30
0.0
 10
3238.780790420143
 20
-109.4749882895485
 30
0.0
 10
3247.010158690991
 20
-109.2971330498754
 30
0.0
 10
3253.243402834357
 20
-109.176501299934
 30
0.0
 10
3256.485132551699
 20
-109.1223963819257
 30
0.0
  0
SPLINE
  5
1ACA8
330
18
100
AcDbEntity
  8
01
  6
CONTINUOUS
100
AcDbSpline
210
0.0
220
0.0
230
1.0
 70
     8
 71
     3
 72
     8
 73
     4
 74
     0
 42
0.0000000001
 43
0.0000000001
 40
0.0
 40
0.0
 40
0.0
 40
0.0
 40
0.2577938006557611
 40
0.2577938006557611
 40
0.2577938006557611
 40
0.2577938006557611
 10
3256.993476605957
 20
-125.6065775590123
 30
0.0
 10
3256.993473620668
 20
-125.608480329015
 30
0.0
 10
3256.993474069378
 20
-125.6075326235173
 30
0.0
 10
3256.993474925655
 20
-125.6058115860014
 30
0.0
  0
ARC
  5
1ACA9
330
18
100
AcDbEntity
  8
01
  6
CONTINUOUS
100
AcDbCircle
 10
3256.493461722109
 20
-125.6058137062701
 30
0.0
 40
0.5000153888062217
100
AcDbArc
 50
269.052911148064
 51
359.9982857753052
  0
ARC
  5
1ACAA
330
18
100
AcDbEntity
  8
01
  6
CONTINUOUS
100
AcDbCircle
 10
3159.02703594492
 20
-113.4869772335578
 30
0.0
 40
1.524291238605641
100
AcDbArc
 50
94.5882218989379
 51
165.9961776374142
  0
ARC
  5
1ACAB
330
18
100
AcDbEntity
  8
01
  6
CONTINUOUS
100
AcDbCircle
 10
3174.993537229202
 20
-117.6140560699532
 30
0.0
 40
18.01550911287495
100
AcDbArc
 50
165.5487067312381
 51
194.4914493727266
  0
SPLINE
  5
1ACAC
330
18
100
AcDbEntity
  8
01
  6
CONTINUOUS
100
AcDbSpline
210
0.0
220
0.0
230
1.0
 70
     8
 71
     3
 72
    18
 73
    14
 74
     0
 42
0.0000000001
 43
0.0000000001
 40
0.0084261242649831
 40
0.0084261242649831
 40
0.0084261242649831
 40
0.0084261242649831
 40
7.712846085700495
 40
14.65425159473615
 40
25.07157586312692
 40
31.0434317342125
 40
43.00917413402433
 40
60.95019085191205
 40
72.92347365185603
 40
75.9095362856851
 40
81.88455093582228
 40
87.86541887519844
 40
97.65001262520049
 40
97.65001262520049
 40
97.65001262520049
 40
97.65001262520049
 10
3256.485196701227
 20
-126.1057748829271
 30
0.0
 10
3253.917478369527
 20
-126.0632430793021
 30
0.0
 10
3249.036583572056
 20
-125.9718978899655
 30
0.0
 10
3240.684506743586
 20
-125.7979144086144
 30
0.0
 10
3232.91012265557
 20
-125.6237193062866
 30
0.0
 10
3223.461771717486
 20
-125.4028467432458
 30
0.0
 10
3211.506504482231
 20
-125.1191598115802
 30
0.0
 10
3197.551102448676
 20
-124.8031988055754
 30
0.0
 10
3186.586731967898
 20
-124.5979903368993
 30
0.0
 10
3179.612136225485
 20
-124.400309643037
 30
0.0
 10
3174.635371029555
 20
-124.222561356497
 30
0.0
 10
3167.398822718572
 20
-123.8737376361878
 30
0.0
 10
3162.15735400015
 20
-123.5254795172264
 30
0.0
 10
3158.908169503933
 20
-123.2734583010738
 30
0.0
  0
LINE
  5
1ACAD
330
18
100
AcDbEntity
  8
01
100
AcDbLine
 10
3256.993476341935
 20
-109.6223525947853
 30
0.0
 11
3256.99347430666
 21
-125.6072428612947
 31
0.0
  0
LINE
  5
1ACAE
330
18
100
AcDbEntity
  8
01
100
AcDbLine
 10
3256.993543313394
 20
-109.4125630345939
 30
0.0
 11
3256.993543313394
 21
-117.6140560807198
 31
0.0
  0
LINE
  5
1ACAF
330
18
100
AcDbEntity
  8
01
100
AcDbLine
 10
3256.993543313394
 20
-117.6140560807198
 30
0.0
 11
3256.993543313394
 21
-125.8174553061972
 31
0.0
  0
ARC
  5
1ACB0
330
18
100
AcDbEntity
  8
01
100
AcDbCircle
 10
3257.293602624571
 20
-125.8174002754786
 30
0.0
 40
0.3000593162567604
100
AcDbArc
 50
180.0105420558258
 51
269.526722976313
  0
SPLINE
  5
1ACB1
330
18
100
AcDbEntity
  8
01
100
AcDbSpline
210
0.0
220
0.0
230
1.0
 70
     8
 71
     3
 72
    50
 73
    46
 74
     0
 42
0.0000000001
 43
0.0000000001
 40
40.24605889528515
 40
40.24605889528515
 40
40.24605889528515
 40
40.24605889528515
 40
40.41330824550255
 40
41.05947960633106
 40
42.10215968566057
 40
42.51026830244423
 40
43.11266884409871
 40
43.50922291673435
 40
43.98418136823029
 40
44.53538836255579
 40
45.08142471240612
 40
45.62181933743891
 40
45.88937875052035
 40
46.06066524137628
 40
46.57258251084908
 40
47.08382222064991
 40
47.42685914774938
 40
47.94939217292845
 40
48.30296108340335
 40
48.65809398927975
 40
48.91534449632767
 40
49.42903302199714
 40
49.94097800742659
 40
50.70656261856672
 40
51.21581259154242
 40
51.97875699634007
 40
52.74150980806883
 40
53.13326652189864
 40
54.3118397937692
 40
54.70465026371415
 40
55.09791575571316
 40
55.49173697177937
 40
55.88448045148156
 40
56.16708261071171
 40
56.73196250872059
 40
57.01766912717855
 40
57.30623476903798
 40
57.89114633580776
 40
58.77871620482893
 40
59.37384912472834
 40
59.96449161567381
 40
60.55313685403777
 40
64.62558942126732
 40
68.70884455955124
 40
70.4428402906394
 40
70.4428402906394
 40
70.4428402906394
 40
70.4428402906394
 10
3281.1026832148
 20
-126.7821709323189
 30
0.0
 10
3281.102683208258
 20
-126.7821709724412
 30
0.0
 10
3281.100301198595
 20
-126.7817954230995
 30
0.0
 10
3281.069597757237
 20
-126.777121823784
 30
0.0
 10
3280.974511739279
 20
-126.7641435727764
 30
0.0
 10
3280.827231056058
 20
-126.7462075818949
 30
0.0
 10
3280.692555133506
 20
-126.7307880023309
 30
0.0
 10
3280.521164465799
 20
-126.7123715233583
 30
0.0
 10
3280.333634521672
 20
-126.6932137625299
 30
0.0
 10
3280.094584068783
 20
-126.6701660619437
 30
0.0
 10
3279.817369408263
 20
-126.6449462442379
 30
0.0
 10
3279.573722947101
 20
-126.6239579293215
 30
0.0
 10
3279.381957335328
 20
-126.6080385373316
 30
0.0
 10
3279.189228489252
 20
-126.5923044064448
 30
0.0
 10
3278.936539146472
 20
-126.5721542287747
 30
0.0
 10
3278.629519747264
 20
-126.5481908722322
 30
0.0
 10
3278.348125313814
 20
-126.5266324282165
 30
0.0
 10
3278.116515920732
 20
-126.5094726845437
 30
0.0
 10
3277.88855882266
 20
-126.4933696249946
 30
0.0
 10
3277.703718946044
 20
-126.4808494786607
 30
0.0
 10
3277.480976643044
 20
-126.4663270371875
 30
0.0
 10
3277.216377951479
 20
-126.4499023820035
 30
0.0
 10
3276.820180816383
 20
-126.4269472766819
 30
0.0
 10
3276.396215667969
 20
-126.4044618012149
 30
0.0
 10
3275.881915787857
 20
-126.3796504658812
 30
0.0
 10
3275.339978063546
 20
-126.3559312699203
 30
0.0
 10
3274.806000188631
 20
-126.3354309321921
 30
0.0
 10
3274.134245584575
 20
-126.3125520527992
 30
0.0
 10
3273.539697736372
 20
-126.2954738486533
 30
0.0
 10
3272.929365382786
 20
-126.2806236555853
 30
0.0
 10
3272.558264551629
 20
-126.2723560234863
 30
0.0
 10
3272.183234823287
 20
-126.2646943371101
 30
0.0
 10
3271.842784629834
 20
-126.2584489291594
 30
0.0
 10
3271.446244561437
 20
-126.2520453731963
 30
0.0
 10
3271.082623787968
 20
-126.2473914220318
 30
0.0
 10
3270.709637166415
 20
-126.2437350028895
 30
0.0
 10
3270.327132635282
 20
-126.2404807577113
 30
0.0
 10
3269.741007045167
 20
-126.236164769065
 30
0.0
 10
3269.051560012403
 20
-126.2310309362638
 30
0.0
 10
3268.360664022124
 20
-126.2246066121243
 30
0.0
 10
3267.769159253353
 20
-126.2184635451817
 30
0.0
 10
3266.018960848521
 20
-126.2007854500935
 30
0.0
 10
3263.104201714597
 20
-126.171868472059
 30
0.0
 10
3259.808019491018
 20
-126.1390976891053
 30
0.0
 10
3257.869103908064
 20
-126.1220675833333
 30
0.0
 10
3257.291129291632
 20
-126.1174065776086
 30
0.0
  0
ARC
  5
1ACB2
330
18
100
AcDbEntity
  8
01
100
AcDbCircle
 10
3257.293601532719
 20
-109.4126191988794
 30
0.0
 40
0.3000582325053063
100
AcDbArc
 50
90.47303853433492
 51
179.9811984197171
  0
SPLINE
  5
1ACB3
330
18
100
AcDbEntity
  8
01
100
AcDbSpline
210
0.0
220
0.0
230
1.0
 70
     8
 71
     3
 72
    49
 73
    45
 74
     0
 42
0.0000000001
 43
0.0000000001
 40
0.0
 40
0.0
 40
0.0
 40
0.0
 40
1.052004170098063
 40
2.114068328488348
 40
3.660643967315682
 40
5.205578484377293
 40
7.525733899751696
 40
9.841997416968454
 40
10.27670456311666
 40
10.71152584647312
 40
11.1483341883486
 40
12.02648531740571
 40
12.46242376388447
 40
13.11089356461147
 40
13.74676018385373
 40
14.16379049950606
 40
14.5810272807612
 40
14.99964071911551
 40
15.20950456042481
 40
16.04740468546638
 40
17.38165325542484
 40
18.08548826931737
 40
18.78860246884783
 40
19.25762548782302
 40
19.96217344386303
 40
21.18312281753642
 40
21.55961155680222
 40
22.31244472762127
 40
22.86998640791152
 40
23.23535997595707
 40
23.41662357783994
 40
23.64996011135596
 40
23.88319097472134
 40
24.35041982729464
 40
24.82049050931876
 40
25.05741057465696
 40
25.53505097306694
 40
26.25891944630026
 40
27.23920427015888
 40
27.98862206669473
 40
28.49788448903195
 40
29.27759755601144
 40
30.08357020682969
 40
30.14760390115131
 40
30.14760390115131
 40
30.14760390115131
 40
30.14760390115131
 10
3257.291129509903
 20
-109.1126203570871
 30
0.0
 10
3257.641785255333
 20
-109.1097925781905
 30
0.0
 10
3258.34644636361
 20
-109.1037868203016
 30
0.0
 10
3259.566518021505
 20
-109.0927276008661
 30
0.0
 10
3260.950936680819
 20
-109.079603310006
 30
0.0
 10
3262.754646829411
 20
-109.0617583573912
 30
0.0
 10
3264.814880900981
 20
-109.0408382408732
 30
0.0
 10
3266.505215119048
 20
-109.0242667987031
 30
0.0
 10
3267.566938776326
 20
-109.0136302231203
 30
0.0
 10
3268.002337038897
 20
-109.009118774391
 30
0.0
 10
3268.585590714654
 20
-109.0031925393428
 30
0.0
 10
3269.169077227241
 20
-108.9981467430771
 30
0.0
 10
3269.823265798835
 20
-108.9932438248447
 30
0.0
 10
3270.396040437168
 20
-108.9890698175932
 30
0.0
 10
3270.956522673617
 20
-108.9841209261567
 30
0.0
 10
3271.429178669755
 20
-108.9782115302446
 30
0.0
 10
3271.829937562619
 20
-108.9718490561881
 30
0.0
 10
3272.162861548456
 20
-108.9656701503172
 30
0.0
 10
3272.629169601181
 20
-108.956248666289
 30
0.0
 10
3273.376990874092
 20
-108.9392808016191
 30
0.0
 10
3274.248842099228
 20
-108.9143029526685
 30
0.0
 10
3275.027006700538
 20
-108.8864687260016
 30
0.0
 10
3275.539189650644
 20
-108.8655095030886
 30
0.0
 10
3276.031365027469
 20
-108.8433814159989
 30
0.0
 10
3276.627981975852
 20
-108.8140227078475
 30
0.0
 10
3277.148310041115
 20
-108.7845330009368
 30
0.0
 10
3277.627555047221
 20
-108.7543939285811
 30
0.0
 10
3277.949682171103
 20
-108.7326267264129
 30
0.0
 10
3278.260450620926
 20
-108.7099660219546
 30
0.0
 10
3278.481481554345
 20
-108.6931907267608
 30
0.0
 10
3278.645375217296
 20
-108.680544684184
 30
0.0
 10
3278.788983791844
 20
-108.6693646435624
 30
0.0
 10
3278.993816958975
 20
-108.6532942617259
 30
0.0
 10
3279.242273086112
 20
-108.6334819465965
 30
0.0
 10
3279.476899302644
 20
-108.6141695003857
 30
0.0
 10
3279.696764971993
 20
-108.5955071412263
 30
0.0
 10
3279.950266459274
 20
-108.5732172285634
 30
0.0
 10
3280.304817898339
 20
-108.5400587997428
 30
0.0
 10
3280.625346635064
 20
-108.5069792621416
 30
0.0
 10
3280.843315623835
 20
-108.4820317862104
 30
0.0
 10
3280.982528721222
 20
-108.4648078813893
 30
0.0
 10
3281.076758702978
 20
-108.4520302139126
 30
0.0
 10
3281.103539336169
 20
-108.4479028567866
 30
0.0
 10
3281.104517112133
 20
-108.4477456875211
 30
0.0
 10
3281.104517065892
 20
-108.4477453885465
 30
0.0
  0
ELLIPSE
  5
1ACB4
330
18
100
AcDbEntity
  8
01
100
AcDbEllipse
 10
3284.993506505969
 20
-117.6140560807198
 30
0.0
 11
15.0
 21
4.454769886308439E-14
 31
0.0
210
0.0
220
0.0
230
-1.0
 40
0.7333333333333331
 41
4.063812080098634
 42
8.50224305139331
  0
LINE
  5
1ACB5
330
18
100
AcDbEntity
  8
01
100
AcDbLine
 10
3309.993506505969
 20
-4.11405608071982
 30
0.0
 11
3309.993506505969
 21
-181.1140560807198
 31
0.0
  0
ARC
  5
1ACB6
330
18
100
AcDbEntity
  8
01
100
AcDbCircle
 10
3309.493506505969
 20
-181.1140560807198
 30
0.0
 40
0.5
100
AcDbArc
 50
270.0
 51
0.0
  0
LINE
  5
1ACB7
330
18
100
AcDbEntity
  8
01
100
AcDbLine
 10
3259.993506505969
 20
-4.11405608071982
 30
0.0
 11
3259.993506505969
 21
-109.0886436825351
 31
0.0
  0
LINE
  5
1ACB8
330
18
100
AcDbEntity
  8
01
100
AcDbLine
 10
3259.993506505969
 20
-126.141432891834
 30
0.0
 11
3259.993506505969
 21
-181.1140560807198
 31
0.0
  0
ARC
  5
1ACB9
330
18
100
AcDbEntity
  8
01
100
AcDbCircle
 10
3260.493506505969
 20
-4.11405608071982
 30
0.0
 40
0.5
100
AcDbArc
 50
90.0
 51
180.0
  0
LINE
  5
1ACBA
330
18
100
AcDbEntity
  8
01
100
AcDbLine
 10
3260.493506505969
 20
-181.6140560807198
 30
0.0
 11
3309.493506505969
 21
-181.6140560807198
 31
0.0
  0
ARC
  5
1ACBB
330
18
100
AcDbEntity
  8
01
100
AcDbCircle
 10
3260.493506505969
 20
-181.1140560807198
 30
0.0
 40
0.5
100
AcDbArc
 50
180.0
 51
270.0
  0
LINE
  5
1ACBC
330
18
100
AcDbEntity
  8
01
100
AcDbLine
 10
3309.493506505969
 20
-3.61405608071982
 30
0.0
 11
3260.493506505969
 21
-3.61405608071982
 31
0.0
  0
ARC
  5
1ACBD
330
18
100
AcDbEntity
  8
01
100
AcDbCircle
 10
3309.493506505969
 20
-4.11405608071982
 30
0.0
 40
0.5
100
AcDbArc
 50
0.0
 51
90.0
  0
LINE
  5
1AEC1
330
18
100
AcDbEntity
  8
01
100
AcDbLine
 10
3562.993273826479
 20
-89.61537509195387
 30
0.0
 11
3562.993273826479
 21
13.10611769086545
 31
0.0
1001
ACAD
1000
DSTYLE
1002
{
1070
    40
1040
1.3
1070
    45
1040
0.5
1002
}
  0
LINE
  5
1AEC2
330
18
100
AcDbEntity
  8
01
100
AcDbLine
 10
3573.993273826479
 20
-31.74405704266496
 30
0.0
 11
3573.993273826479
 21
13.10611769086545
 31
0.0
1001
ACAD
1000
DSTYLE
1002
{
1070
    40
1040
1.3
1070
    45
1040
0.5
1002
}
  0
LINE
  5
1AEC3
330
18
100
AcDbEntity
  8
01
100
AcDbLine
 10
3565.593273826479
 20
11.80611769086545
 30
0.0
 11
3571.393273826479
 21
11.80611769086545
 31
0.0
1001
ACAD
1000
DSTYLE
1002
{
1070
    40
1040
1.3
1070
    45
1040
0.5
1002
}
  0
TEXT
  5
1AEC7
330
18
100
AcDbEntity
  8
01
  6
CONTINUOUS
100
AcDbText
 10
3535.996434919496
 20
94.96795893848214
 30
0.0
 40
4.55
  1
材質：亜鉛ダイキャスト
100
AcDbText
  0
TEXT
  5
1AEC8
330
18
100
AcDbEntity
  8
01
  6
CONTINUOUS
100
AcDbText
 10
3546.309768252829
 20
87.38462560514881
 30
0.0
 40
4.55
  1
仕上げ：各種メッキ
100
AcDbText
  0
LINE
  5
1AEC9
330
18
100
AcDbEntity
  8
01
100
AcDbLine
 10
3642.993273826479
 20
-59.61537439382255
 30
0.0
 11
3671.293273826479
 21
-59.61537439382256
 31
0.0
1001
ACAD
1000
DSTYLE
1002
{
1070
    40
1040
1.3
1070
    45
1040
0.5
1002
}
  0
LINE
  5
1AECA
330
18
100
AcDbEntity
  8
01
100
AcDbLine
 10
3642.993273826479
 20
-133.615374393823
 30
0.0
 11
3671.293273826479
 21
-133.615374393823
 31
0.0
1001
ACAD
1000
DSTYLE
1002
{
1070
    40
1040
1.3
1070
    45
1040
0.5
1002
}
  0
LINE
  5
1AECB
330
18
100
AcDbEntity
  8
01
100
AcDbLine
 10
3669.993273826479
 20
-62.21537439382256
 30
0.0
 11
3669.993273826479
 21
-131.015374393823
 31
0.0
1001
ACAD
1000
DSTYLE
1002
{
1070
    40
1040
1.3
1070
    45
1040
0.5
1002
}
  0
LINE
  5
1AECF
330
18
100
AcDbEntity
  8
01
100
AcDbLine
 10
3642.993273826479
 20
-59.61537439382255
 30
0.0
 11
3642.993273826479
 21
23.18598515891362
 31
0.0
1001
ACAD
1000
DSTYLE
1002
{
1070
    40
1040
1.3
1070
    45
1040
0.5
1002
}
  0
LINE
  5
1AED0
330
18
100
AcDbEntity
  8
01
100
AcDbLine
 10
3573.993273826479
 20
-31.74405704266496
 30
0.0
 11
3573.993273826479
 21
23.18598515891362
 31
0.0
1001
ACAD
1000
DSTYLE
1002
{
1070
    40
1040
1.3
1070
    45
1040
0.5
1002
}
  0
LINE
  5
1AED1
330
18
100
AcDbEntity
  8
01
100
AcDbLine
 10
3640.393273826479
 20
21.88598515891363
 30
0.0
 11
3576.593273826479
 21
21.88598515891363
 31
0.0
1001
ACAD
1000
DSTYLE
1002
{
1070
    40
1040
1.3
1070
    45
1040
0.5
1002
}
  0
LINE
  5
1AED5
330
18
100
AcDbEntity
  8
01
100
AcDbLine
 10
3573.993273826479
 20
-31.74405704266496
 30
0.0
 11
3573.993273826479
 21
13.10611769086545
 31
0.0
1001
ACAD
1000
DSTYLE
1002
{
1070
    40
1040
1.3
1070
    45
1040
0.5
1002
}
  0
LINE
  5
1AED6
330
18
100
AcDbEntity
  8
01
100
AcDbLine
 10
3624.993273826479
 20
-67.61537439382255
 30
0.0
 11
3624.993273826479
 21
13.10611769086545
 31
0.0
1001
ACAD
1000
DSTYLE
1002
{
1070
    40
1040
1.3
1070
    45
1040
0.5
1002
}
  0
LINE
  5
1AED7
330
18
100
AcDbEntity
  8
01
100
AcDbLine
 10
3576.593273826479
 20
11.80611769086545
 30
0.0
 11
3622.393273826479
 21
11.80611769086545
 31
0.0
1001
ACAD
1000
DSTYLE
1002
{
1070
    40
1040
1.3
1070
    45
1040
0.5
1002
}
  0
LINE
  5
1AEDB
330
18
100
AcDbEntity
  8
01
100
AcDbLine
 10
3442.493390166224
 20
-37.615374393823
 30
0.0
 11
3442.493390166224
 21
13.10611769086522
 31
0.0
1001
ACAD
1000
DSTYLE
1002
{
1070
    40
1040
1.3
1070
    45
1040
0.5
1002
}
  0
LINE
  5
1AEDC
330
18
100
AcDbEntity
  8
01
100
AcDbLine
 10
3467.493390166224
 20
-37.615374393823
 30
0.0
 11
3467.493390166224
 21
13.10611769086522
 31
0.0
1001
ACAD
1000
DSTYLE
1002
{
1070
    40
1040
1.3
1070
    45
1040
0.5
1002
}
  0
LINE
  5
1AEDD
330
18
100
AcDbEntity
  8
01
100
AcDbLine
 10
3445.093390166224
 20
11.80611769086522
 30
0.0
 11
3464.893390166224
 21
11.80611769086522
 31
0.0
1001
ACAD
1000
DSTYLE
1002
{
1070
    40
1040
1.3
1070
    45
1040
0.5
1002
}
  0
LINE
  5
1AEE1
330
18
100
AcDbEntity
  8
01
100
AcDbLine
 10
3461.039879833163
 20
-39.61991504872776
 30
0.0000000000563712
 11
3541.326011001372
 21
-39.61991504872779
 31
0.0000000000563712
1001
ACAD
1000
DSTYLE
1002
{
1070
    40
1040
1.3
1070
    45
1040
0.5
1002
}
  0
LINE
  5
1AEE2
330
18
100
AcDbEntity
  8
01
100
AcDbLine
 10
3461.039879833163
 20
-153.6199150487278
 30
0.0000000000563712
 11
3541.326011001372
 21
-153.6199150487278
 31
0.0000000000563712
1001
ACAD
1000
DSTYLE
1002
{
1070
    40
1040
1.3
1070
    45
1040
0.5
1002
}
  0
LINE
  5
1AEE3
330
18
100
AcDbEntity
  8
01
100
AcDbLine
 10
3540.026011001371
 20
-42.21991504872779
 30
0.0000000000563712
 11
3540.026011001371
 21
-151.0199150487278
 31
0.0000000000563712
1001
ACAD
1000
DSTYLE
1002
{
1070
    40
1040
1.3
1070
    45
1040
0.5
1002
}
  0
LINE
  5
1AEE7
330
18
100
AcDbEntity
  8
01
100
AcDbLine
 10
3461.637940229927
 20
-31.72036019314419
 30
0.0000000000563712
 11
3550.690345167596
 21
-31.72036019314422
 31
0.0000000000563712
1001
ACAD
1000
DSTYLE
1002
{
1070
    40
1040
1.3
1070
    45
1040
0.5
1002
}
  0
LINE
  5
1AEE8
330
18
100
AcDbEntity
  8
01
100
AcDbLine
 10
3461.564854425257
 20
-161.5199150487276
 30
0.0000000000563712
 11
3550.690345167596
 21
-161.5199150487277
 31
0.0000000000563712
1001
ACAD
1000
DSTYLE
1002
{
1070
    40
1040
1.3
1070
    45
1040
0.5
1002
}
  0
LINE
  5
1AEE9
330
18
100
AcDbEntity
  8
01
100
AcDbLine
 10
3549.390345167596
 20
-34.32036019314422
 30
0.0000000000563712
 11
3549.390345167596
 21
-158.9199150487277
 31
0.0000000000563712
1001
ACAD
1000
DSTYLE
1002
{
1070
    40
1040
1.3
1070
    45
1040
0.5
1002
}
  0
LINE
  5
1AEED
330
18
100
AcDbEntity
  8
01
  6
BYBLOCK
100
AcDbLine
 10
3565.593273826479
 20
11.10944979686545
 30
0.0
 11
3562.993273826479
 21
11.80611769086545
 31
0.0
  0
LINE
  5
1AEEE
330
18
100
AcDbEntity
  8
01
  6
BYBLOCK
100
AcDbLine
 10
3562.993273826479
 20
11.80611769086545
 30
0.0
 11
3565.593273826479
 21
12.50278558486545
 31
0.0
  0
LINE
  5
1AEEF
330
18
100
AcDbEntity
  8
01
  6
BYBLOCK
100
AcDbLine
 10
3562.993273826479
 20
11.80611769086545
 30
0.0
 11
3565.593273826479
 21
11.80611769086545
 31
0.0
  0
LINE
  5
1AEF0
330
18
100
AcDbEntity
  8
01
  6
BYBLOCK
100
AcDbLine
 10
3571.393273826479
 20
12.50278558486545
 30
0.0
 11
3573.993273826479
 21
11.80611769086545
 31
0.0
  0
LINE
  5
1AEF1
330
18
100
AcDbEntity
  8
01
  6
BYBLOCK
100
AcDbLine
 10
3573.993273826479
 20
11.80611769086545
 30
0.0
 11
3571.393273826479
 21
11.10944979686545
 31
0.0
  0
LINE
  5
1AEF2
330
18
100
AcDbEntity
  8
01
  6
BYBLOCK
100
AcDbLine
 10
3573.993273826479
 20
11.80611769086545
 30
0.0
 11
3571.393273826479
 21
11.80611769086545
 31
0.0
  0
TEXT
  5
1AEF3
330
18
100
AcDbEntity
  8
01
  6
CONTINUOUS
100
AcDbText
 10
3566.218273826479
 20
12.71611769086545
 30
0.0
 40
4.55
  1
11
100
AcDbText
1001
ACAD
1000
DSTYLE
1002
{
1070
    40
1040
1.3
1070
    45
1040
0.5
1002
}
  0
LINE
  5
1AEF4
330
18
100
AcDbEntity
  8
01
  6
BYBLOCK
100
AcDbLine
 10
3669.296605932479
 20
-62.21537439382256
 30
0.0
 11
3669.993273826479
 21
-59.61537439382256
 31
0.0
  0
LINE
  5
1AEF5
330
18
100
AcDbEntity
  8
01
  6
BYBLOCK
100
AcDbLine
 10
3669.993273826479
 20
-59.61537439382256
 30
0.0
 11
3670.689941720479
 21
-62.21537439382256
 31
0.0
  0
LINE
  5
1AEF6
330
18
100
AcDbEntity
  8
01
  6
BYBLOCK
100
AcDbLine
 10
3669.993273826479
 20
-59.61537439382256
 30
0.0
 11
3669.993273826479
 21
-62.21537439382256
 31
0.0
  0
LINE
  5
1AEF7
330
18
100
AcDbEntity
  8
01
  6
BYBLOCK
100
AcDbLine
 10
3670.689941720479
 20
-131.015374393823
 30
0.0
 11
3669.993273826479
 21
-133.615374393823
 31
0.0
  0
LINE
  5
1AEF8
330
18
100
AcDbEntity
  8
01
  6
BYBLOCK
100
AcDbLine
 10
3669.993273826479
 20
-133.615374393823
 30
0.0
 11
3669.296605932479
 21
-131.015374393823
 31
0.0
  0
LINE
  5
1AEF9
330
18
100
AcDbEntity
  8
01
  6
BYBLOCK
100
AcDbLine
 10
3669.993273826479
 20
-133.615374393823
 30
0.0
 11
3669.993273826479
 21
-131.015374393823
 31
0.0
  0
TEXT
  5
1AEFA
330
18
100
AcDbEntity
  8
01
  6
CONTINUOUS
100
AcDbText
 10
3669.083273826479
 20
-78.64403030780386
 30
0.0
 40
4.55
  1
74
 50
90.0
100
AcDbText
1001
ACAD
1000
DSTYLE
1002
{
1070
    40
1040
1.3
1070
    45
1040
0.5
1002
}
  0
LINE
  5
1AEFB
330
18
100
AcDbEntity
  8
01
  6
BYBLOCK
100
AcDbLine
 10
3640.393273826479
 20
22.58265305291363
 30
0.0
 11
3642.993273826479
 21
21.88598515891363
 31
0.0
  0
LINE
  5
1AEFC
330
18
100
AcDbEntity
  8
01
  6
BYBLOCK
100
AcDbLine
 10
3642.993273826479
 20
21.88598515891363
 30
0.0
 11
3640.393273826479
 21
21.18931726491363
 31
0.0
  0
LINE
  5
1AEFD
330
18
100
AcDbEntity
  8
01
  6
BYBLOCK
100
AcDbLine
 10
3642.993273826479
 20
21.88598515891363
 30
0.0
 11
3640.393273826479
 21
21.88598515891363
 31
0.0
  0
LINE
  5
1AEFE
330
18
100
AcDbEntity
  8
01
  6
BYBLOCK
100
AcDbLine
 10
3576.593273826479
 20
21.18931726491363
 30
0.0
 11
3573.993273826479
 21
21.88598515891363
 31
0.0
  0
LINE
  5
1AEFF
330
18
100
AcDbEntity
  8
01
  6
BYBLOCK
100
AcDbLine
 10
3573.993273826479
 20
21.88598515891363
 30
0.0
 11
3576.593273826479
 21
22.58265305291363
 31
0.0
  0
LINE
  5
1AF00
330
18
100
AcDbEntity
  8
01
  6
BYBLOCK
100
AcDbLine
 10
3573.993273826479
 20
21.88598515891363
 30
0.0
 11
3576.593273826479
 21
21.88598515891363
 31
0.0
  0
TEXT
  5
1AF01
330
18
100
AcDbEntity
  8
01
  6
CONTINUOUS
100
AcDbText
 10
3604.684755307961
 20
22.79598515891362
 30
0.0
 40
4.55
  1
69
100
AcDbText
1001
ACAD
1000
DSTYLE
1002
{
1070
    40
1040
1.3
1070
    45
1040
0.5
1002
}
  0
LINE
  5
1AF02
330
18
100
AcDbEntity
  8
01
  6
BYBLOCK
100
AcDbLine
 10
3576.593273826479
 20
11.10944979686545
 30
0.0
 11
3573.993273826479
 21
11.80611769086545
 31
0.0
  0
LINE
  5
1AF03
330
18
100
AcDbEntity
  8
01
  6
BYBLOCK
100
AcDbLine
 10
3573.993273826479
 20
11.80611769086545
 30
0.0
 11
3576.593273826479
 21
12.50278558486545
 31
0.0
  0
LINE
  5
1AF04
330
18
100
AcDbEntity
  8
01
  6
BYBLOCK
100
AcDbLine
 10
3573.993273826479
 20
11.80611769086545
 30
0.0
 11
3576.593273826479
 21
11.80611769086545
 31
0.0
  0
LINE
  5
1AF05
330
18
100
AcDbEntity
  8
01
  6
BYBLOCK
100
AcDbLine
 10
3622.393273826479
 20
12.50278558486545
 30
0.0
 11
3624.993273826479
 21
11.80611769086545
 31
0.0
  0
LINE
  5
1AF06
330
18
100
AcDbEntity
  8
01
  6
BYBLOCK
100
AcDbLine
 10
3624.993273826479
 20
11.80611769086545
 30
0.0
 11
3622.393273826479
 21
11.10944979686545
 31
0.0
  0
LINE
  5
1AF07
330
18
100
AcDbEntity
  8
01
  6
BYBLOCK
100
AcDbLine
 10
3624.993273826479
 20
11.80611769086545
 30
0.0
 11
3622.393273826479
 21
11.80611769086545
 31
0.0
  0
TEXT
  5
1AF08
330
18
100
AcDbEntity
  8
01
  6
CONTINUOUS
100
AcDbText
 10
3596.444141882035
 20
12.71611769086545
 30
0.0
 40
4.55
  1
51
100
AcDbText
1001
ACAD
1000
DSTYLE
1002
{
1070
    40
1040
1.3
1070
    45
1040
0.5
1002
}
  0
LINE
  5
1AF09
330
18
100
AcDbEntity
  8
01
  6
BYBLOCK
100
AcDbLine
 10
3445.093390166224
 20
11.10944979686522
 30
0.0
 11
3442.493390166224
 21
11.80611769086522
 31
0.0
  0
LINE
  5
1AF0A
330
18
100
AcDbEntity
  8
01
  6
BYBLOCK
100
AcDbLine
 10
3442.493390166224
 20
11.80611769086522
 30
0.0
 11
3445.093390166224
 21
12.50278558486522
 31
0.0
  0
LINE
  5
1AF0B
330
18
100
AcDbEntity
  8
01
  6
BYBLOCK
100
AcDbLine
 10
3442.493390166224
 20
11.80611769086522
 30
0.0
 11
3445.093390166224
 21
11.80611769086522
 31
0.0
  0
LINE
  5
1AF0C
330
18
100
AcDbEntity
  8
01
  6
BYBLOCK
100
AcDbLine
 10
3464.893390166224
 20
12.50278558486522
 30
0.0
 11
3467.493390166224
 21
11.80611769086522
 31
0.0
  0
LINE
  5
1AF0D
330
18
100
AcDbEntity
  8
01
  6
BYBLOCK
100
AcDbLine
 10
3467.493390166224
 20
11.80611769086522
 30
0.0
 11
3464.893390166224
 21
11.10944979686522
 31
0.0
  0
LINE
  5
1AF0E
330
18
100
AcDbEntity
  8
01
  6
BYBLOCK
100
AcDbLine
 10
3467.493390166224
 20
11.80611769086522
 30
0.0
 11
3464.893390166224
 21
11.80611769086522
 31
0.0
  0
TEXT
  5
1AF0F
330
18
100
AcDbEntity
  8
01
  6
CONTINUOUS
100
AcDbText
 10
3451.201723499557
 20
12.71611769086522
 30
0.0
 40
4.55
  1
25
100
AcDbText
1001
ACAD
1000
DSTYLE
1002
{
1070
    40
1040
1.3
1070
    45
1040
0.5
1002
}
  0
LINE
  5
1AF10
330
18
100
AcDbEntity
  8
01
  6
BYBLOCK
100
AcDbLine
 10
3539.329343107372
 20
-42.21991504872779
 30
0.0000000000563712
 11
3540.026011001371
 21
-39.61991504872779
 31
0.0000000000563712
  0
LINE
  5
1AF11
330
18
100
AcDbEntity
  8
01
  6
BYBLOCK
100
AcDbLine
 10
3540.026011001371
 20
-39.61991504872779
 30
0.0000000000563712
 11
3540.722678895371
 21
-42.21991504872779
 31
0.0000000000563712
  0
LINE
  5
1AF12
330
18
100
AcDbEntity
  8
01
  6
BYBLOCK
100
AcDbLine
 10
3540.026011001371
 20
-39.61991504872779
 30
0.0000000000563712
 11
3540.026011001371
 21
-42.21991504872779
 31
0.0000000000563712
  0
LINE
  5
1AF13
330
18
100
AcDbEntity
  8
01
  6
BYBLOCK
100
AcDbLine
 10
3540.722678895371
 20
-151.0199150487278
 30
0.0000000000563712
 11
3540.026011001371
 21
-153.6199150487278
 31
0.0000000000563712
  0
LINE
  5
1AF14
330
18
100
AcDbEntity
  8
01
  6
BYBLOCK
100
AcDbLine
 10
3540.026011001371
 20
-153.6199150487278
 30
0.0000000000563712
 11
3539.329343107372
 21
-151.0199150487278
 31
0.0000000000563712
  0
LINE
  5
1AF15
330
18
100
AcDbEntity
  8
01
  6
BYBLOCK
100
AcDbLine
 10
3540.026011001371
 20
-153.6199150487278
 30
0.0000000000563712
 11
3540.026011001371
 21
-151.0199150487278
 31
0.0000000000563712
  0
TEXT
  5
1AF16
330
18
100
AcDbEntity
  8
01
  6
CONTINUOUS
100
AcDbText
 10
3539.116011001372
 20
-72.03689270080622
 30
0.0000000000563712
 40
4.55
  1
114
 50
90.0
100
AcDbText
1001
ACAD
1000
DSTYLE
1002
{
1070
    40
1040
1.3
1070
    45
1040
0.5
1002
}
  0
LINE
  5
1AF17
330
18
100
AcDbEntity
  8
01
  6
BYBLOCK
100
AcDbLine
 10
3548.693677273596
 20
-34.32036019314422
 30
0.0000000000563712
 11
3549.390345167596
 21
-31.72036019314422
 31
0.0000000000563712
  0
LINE
  5
1AF18
330
18
100
AcDbEntity
  8
01
  6
BYBLOCK
100
AcDbLine
 10
3549.390345167596
 20
-31.72036019314422
 30
0.0000000000563712
 11
3550.087013061596
 21
-34.32036019314422
 31
0.0000000000563712
  0
LINE
  5
1AF19
330
18
100
AcDbEntity
  8
01
  6
BYBLOCK
100
AcDbLine
 10
3549.390345167596
 20
-31.72036019314422
 30
0.0000000000563712
 11
3549.390345167596
 21
-34.32036019314422
 31
0.0000000000563712
  0
LINE
  5
1AF1A
330
18
100
AcDbEntity
  8
01
  6
BYBLOCK
100
AcDbLine
 10
3550.087013061596
 20
-158.9199150487277
 30
0.0000000000563712
 11
3549.390345167596
 21
-161.5199150487277
 31
0.0000000000563712
  0
LINE
  5
1AF1B
330
18
100
AcDbEntity
  8
01
  6
BYBLOCK
100
AcDbLine
 10
3549.390345167596
 20
-161.5199150487277
 30
0.0000000000563712
 11
3548.693677273596
 21
-158.9199150487277
 31
0.0000000000563712
  0
LINE
  5
1AF1C
330
18
100
AcDbEntity
  8
01
  6
BYBLOCK
100
AcDbLine
 10
3549.390345167596
 20
-161.5199150487277
 30
0.0000000000563712
 11
3549.390345167596
 21
-158.9199150487277
 31
0.0000000000563712
  0
TEXT
  5
1AF1D
330
18
100
AcDbEntity
  8
01
  6
CONTINUOUS
100
AcDbText
 10
3548.480345167596
 20
-72.82145670361388
 30
0.0000000000563712
 40
4.55
  1
130
 50
90.0
100
AcDbText
1001
ACAD
1000
DSTYLE
1002
{
1070
    40
1040
1.3
1070
    45
1040
0.5
1002
}
  0
SOLID
  5
1AF1E
330
18
100
AcDbEntity
  8
1DIM
100
AcDbTrace
 10
3622.363123181225
 20
106.3338685512337
 30
0.0
 11
3624.73387506654
 21
107.4859593792739
 31
0.0
 12
3622.864923011147
 22
105.6272512277824
 32
0.0
 13
3622.864923011147
 23
105.6272512277824
 33
0.0
1001
ACAD
1000
DSTYLE
1002
{
1070
    40
1040
1.3
1070
    45
1040
0.5
1002
}
  0
LINE
  5
1AF1F
330
18
100
AcDbEntity
  8
1DIM
100
AcDbLine
 10
3622.614023096186
 20
105.9805598895081
 30
0.0
 11
3595.146434919495
 21
86.47462560514882
 31
0.0
1001
ACAD
1000
DSTYLE
1002
{
1070
    40
1040
1.3
1070
    45
1040
0.5
1002
}
  0
TEXT
  5
1AF20
330
18
100
AcDbEntity
  8
1DIM
  6
CONTINUOUS
100
AcDbText
 10
3689.370582219175
 20
110.6089889915641
 30
0.0
 40
4.55
  1
材質：亜鉛ダイキャスト
100
AcDbText
  0
TEXT
  5
1AF21
330
18
100
AcDbEntity
  8
1DIM
  6
CONTINUOUS
100
AcDbText
 10
3689.522248885841
 20
103.0256556582308
 30
0.0
 40
4.55
  1
仕上げ：各種メッキ
100
AcDbText
  0
SOLID
  5
1AF22
330
18
100
AcDbEntity
  8
1DIM
100
AcDbTrace
 10
3674.87685580922
 20
88.21824728088241
 30
0.0
 11
3672.859687976388
 21
86.5215411448753
 31
0.0
 12
3674.217536639011
 22
88.78075003012495
 32
0.0
 13
3674.217536639011
 23
88.78075003012495
 33
0.0
1001
ACAD
1000
DSTYLE
1002
{
1070
    40
1040
1.3
1070
    45
1040
0.5
1002
}
  0
LINE
  5
1AF23
330
18
100
AcDbEntity
  8
1DIM
100
AcDbLine
 10
3674.547196224115
 20
88.49949865550369
 30
0.0
 11
3686.163915552508
 21
102.1156556582308
 31
0.0
1001
ACAD
1000
DSTYLE
1002
{
1070
    40
1040
1.3
1070
    45
1040
0.5
1002
}
  0
LINE
  5
1AF24
330
18
100
AcDbEntity
  8
1DIM
100
AcDbLine
 10
3686.163915552508
 20
102.1156556582308
 30
0.0
 11
3747.610582219175
 21
102.1156556582308
 31
0.0
1001
ACAD
1000
DSTYLE
1002
{
1070
    40
1040
1.3
1070
    45
1040
0.5
1002
}
  0
LINE
  5
1AF25
330
18
100
AcDbEntity
  8
1DIM
100
AcDbLine
 10
3641.394158008539
 20
161.8846256051488
 30
0.0
 11
3661.954548768252
 21
161.8846256051488
 31
0.0
1001
ACAD
1000
DSTYLE
1002
{
1070
    45
1040
0.5
1070
    40
1040
1.3
1002
}
  0
LINE
  5
1AF26
330
18
100
AcDbEntity
  8
1DIM
100
AcDbLine
 10
3642.994158008539
 20
143.0846256051489
 30
0.0
 11
3661.954548768252
 21
143.0846256051488
 31
0.0
1001
ACAD
1000
DSTYLE
1002
{
1070
    45
1040
0.5
1070
    40
1040
1.3
1002
}
  0
LINE
  5
1AF27
330
18
100
AcDbEntity
  8
1DIM
100
AcDbLine
 10
3660.654548768252
 20
159.2846256051488
 30
0.0
 11
3660.654548768252
 21
145.6846256051488
 31
0.0
1001
ACAD
1000
DSTYLE
1002
{
1070
    45
1040
0.5
1070
    40
1040
1.3
1002
}
  0
LINE
  5
1AF2B
330
18
100
AcDbEntity
  8
1DIM
100
AcDbLine
 10
3254.993394166223
 20
-117.615374393823
 30
0.0
 11
3223.594199835681
 21
-117.615374393823
 31
0.0
1001
ACAD
1000
DSTYLE
1002
{
1070
    40
1040
1.3
1002
}
  0
LINE
  5
1AF2C
330
18
100
AcDbEntity
  8
1DIM
100
AcDbLine
 10
3260.493394166223
 20
-181.615374393823
 30
0.0
 11
3223.594199835681
 21
-181.615374393823
 31
0.0
1001
ACAD
1000
DSTYLE
1002
{
1070
    40
1040
1.3
1002
}
  0
LINE
  5
1AF2D
330
18
100
AcDbEntity
  8
1DIM
100
AcDbLine
 10
3224.894199835681
 20
-120.215374393823
 30
0.0
 11
3224.894199835681
 21
-179.015374393823
 31
0.0
1001
ACAD
1000
DSTYLE
1002
{
1070
    40
1040
1.3
1002
}
  0
LINE
  5
1AF31
330
18
100
AcDbEntity
  8
1DIM
100
AcDbLine
 10
3624.993273826479
 20
110.8846256051497
 30
0.0
 11
3624.993273826479
 21
46.08462560514972
 31
0.0
1001
ACAD
1000
DSTYLE
1002
{
1070
    40
1040
1.3
1070
    45
1040
0.5
1002
}
  0
LINE
  5
1AF32
330
18
100
AcDbEntity
  8
1DIM
100
AcDbLine
 10
3753.00860871724
 20
76.43618268898899
 30
0.0
 11
3753.00860871724
 21
46.08462560514972
 31
0.0
1001
ACAD
1000
DSTYLE
1002
{
1070
    40
1040
1.3
1070
    45
1040
0.5
1002
}
  0
LINE
  5
1AF33
330
18
100
AcDbEntity
  8
1DIM
100
AcDbLine
 10
3627.593273826479
 20
47.38462560514972
 30
0.0
 11
3750.40860871724
 21
47.38462560514972
 31
0.0
1001
ACAD
1000
DSTYLE
1002
{
1070
    40
1040
1.3
1070
    45
1040
0.5
1002
}
  0
LINE
  5
1AF37
330
18
100
AcDbEntity
  8
1DIM
100
AcDbLine
 10
3609.99325402904
 20
69.38362693398312
 30
0.0
 11
3609.99325402904
 21
36.08462560514972
 31
0.0
1001
ACAD
1000
DSTYLE
1002
{
1070
    40
1040
1.3
1070
    45
1040
0.5
1002
}
  0
LINE
  5
1AF38
330
18
100
AcDbEntity
  8
1DIM
100
AcDbLine
 10
3753.00860871724
 20
76.43618268898899
 30
0.0
 11
3753.00860871724
 21
36.08462560514972
 31
0.0
1001
ACAD
1000
DSTYLE
1002
{
1070
    40
1040
1.3
1070
    45
1040
0.5
1002
}
  0
LINE
  5
1AF39
330
18
100
AcDbEntity
  8
1DIM
100
AcDbLine
 10
3612.59325402904
 20
37.38462560514972
 30
0.0
 11
3750.40860871724
 21
37.38462560514972
 31
0.0
1001
ACAD
1000
DSTYLE
1002
{
1070
    40
1040
1.3
1070
    45
1040
0.5
1002
}
  0
LINE
  5
1AF3D
330
18
100
AcDbEntity
  8
1DIM
100
AcDbLine
 10
3652.588143004984
 20
-126.0984755402401
 30
0.0
 11
3781.293273826479
 21
-126.0984755402401
 31
0.0
1001
ACAD
1000
DSTYLE
1002
{
1070
    40
1040
1.3
1070
    45
1040
0.5
1002
}
  0
LINE
  5
1AF3E
330
18
100
AcDbEntity
  8
1DIM
100
AcDbLine
 10
3649.993273826479
 20
-109.0886436825351
 30
0.0
 11
3781.293273826479
 21
-109.0886436825352
 31
0.0
1001
ACAD
1000
DSTYLE
1002
{
1070
    40
1040
1.3
1070
    45
1040
0.5
1002
}
  0
LINE
  5
1AF3F
330
18
100
AcDbEntity
  8
1DIM
100
AcDbLine
 10
3779.993273826479
 20
-123.4984755402401
 30
0.0
 11
3779.993273826479
 21
-111.6886436825352
 31
0.0
1001
ACAD
1000
DSTYLE
1002
{
1070
    40
1040
1.3
1070
    45
1040
0.5
1002
}
  0
LINE
  5
1AF43
330
18
100
AcDbEntity
  8
1DIM
100
AcDbLine
 10
3649.493273826479
 20
-181.6140560807198
 30
0.0
 11
3791.293273826479
 21
-181.6140560807198
 31
0.0
1001
ACAD
1000
DSTYLE
1002
{
1070
    40
1040
1.3
1070
    45
1040
0.5
1070
   341
1005
0
1002
}
  0
LINE
  5
1AF44
330
18
100
AcDbEntity
  8
1DIM
100
AcDbLine
 10
3649.493273826479
 20
-3.61405608071982
 30
0.0
 11
3791.293273826479
 21
-3.61405608071986
 31
0.0
1001
ACAD
1000
DSTYLE
1002
{
1070
    40
1040
1.3
1070
    45
1040
0.5
1070
   341
1005
0
1002
}
  0
LINE
  5
1AF45
330
18
100
AcDbEntity
  8
1DIM
100
AcDbLine
 10
3789.993273826479
 20
-179.0140560807199
 30
0.0
 11
3789.993273826479
 21
-6.214056080719859
 31
0.0
1001
ACAD
1000
DSTYLE
1002
{
1070
    40
1040
1.3
1070
    45
1040
0.5
1070
   341
1005
0
1002
}
  0
LINE
  5
1AF49
330
18
100
AcDbEntity
  8
1DIM
100
AcDbLine
 10
3599.993273826479
 20
-4.11405608071982
 30
0.0
 11
3599.993273826479
 21
3.085943919279816
 31
0.0
1001
ACAD
1000
DSTYLE
1002
{
1070
    40
1040
1.3
1070
    45
1040
0.5
1070
   341
1005
0
1002
}
  0
LINE
  5
1AF4A
330
18
100
AcDbEntity
  8
1DIM
100
AcDbLine
 10
3649.993273826479
 20
-4.11405608071982
 30
0.0
 11
3649.993273826479
 21
3.085943919279816
 31
0.0
1001
ACAD
1000
DSTYLE
1002
{
1070
    40
1040
1.3
1070
    45
1040
0.5
1070
   341
1005
0
1002
}
  0
LINE
  5
1AF4B
330
18
100
AcDbEntity
  8
1DIM
100
AcDbLine
 10
3602.593273826479
 20
1.785943919279816
 30
0.0
 11
3647.393273826479
 21
1.785943919279816
 31
0.0
1001
ACAD
1000
DSTYLE
1002
{
1070
    40
1040
1.3
1070
    45
1040
0.5
1070
   341
1005
0
1002
}
  0
LINE
  5
1AF4F
330
18
100
AcDbEntity
  8
1DIM
100
AcDbLine
 10
3653.493290330528
 20
92.38487956242489
 30
0.0
 11
3781.293390166226
 21
92.38487956242484
 31
0.0
1001
ACAD
1000
DSTYLE
1002
{
1070
    40
1040
1.3
1070
    45
1040
0.5
1002
}
  0
LINE
  5
1AF50
330
18
100
AcDbEntity
  8
1DIM
100
AcDbLine
 10
3727.748538163572
 20
132.3846256051488
 30
0.0
 11
3781.293390166226
 21
132.3846256051488
 31
0.0
1001
ACAD
1000
DSTYLE
1002
{
1070
    40
1040
1.3
1070
    45
1040
0.5
1002
}
  0
LINE
  5
1AF51
330
18
100
AcDbEntity
  8
1DIM
100
AcDbLine
 10
3779.993390166226
 20
94.98487956242484
 30
0.0
 11
3779.993390166226
 21
129.7846256051488
 31
0.0
1001
ACAD
1000
DSTYLE
1002
{
1070
    40
1040
1.3
1070
    45
1040
0.5
1002
}
  0
LINE
  5
1AF55
330
18
100
AcDbEntity
  8
1DIM
100
AcDbLine
 10
3653.494788743052
 20
65.38521692049562
 30
0.0
 11
3791.293390166226
 21
65.38521692049558
 31
0.0
1001
ACAD
1000
DSTYLE
1002
{
1070
    40
1040
1.3
1070
    45
1040
0.5
1002
}
  0
LINE
  5
1AF56
330
18
100
AcDbEntity
  8
1DIM
100
AcDbLine
 10
3727.748538163572
 20
132.3846256051488
 30
0.0
 11
3791.293390166226
 21
132.3846256051488
 31
0.0
1001
ACAD
1000
DSTYLE
1002
{
1070
    40
1040
1.3
1070
    45
1040
0.5
1002
}
  0
LINE
  5
1AF57
330
18
100
AcDbEntity
  8
1DIM
100
AcDbLine
 10
3789.993390166226
 20
67.98521692049557
 30
0.0
 11
3789.993390166226
 21
129.7846256051488
 31
0.0
1001
ACAD
1000
DSTYLE
1002
{
1070
    40
1040
1.3
1070
    45
1040
0.5
1002
}
  0
LINE
  5
1AF5B
330
18
100
AcDbEntity
  8
0
  6
BYBLOCK
100
AcDbLine
 10
3659.957880874252
 20
159.2846256051488
 30
0.0
 11
3660.654548768252
 21
161.8846256051488
 31
0.0
  0
LINE
  5
1AF5C
330
18
100
AcDbEntity
  8
0
  6
BYBLOCK
100
AcDbLine
 10
3660.654548768252
 20
161.8846256051488
 30
0.0
 11
3661.351216662251
 21
159.2846256051488
 31
0.0
  0
LINE
  5
1AF5D
330
18
100
AcDbEntity
  8
0
  6
BYBLOCK
100
AcDbLine
 10
3660.654548768252
 20
161.8846256051488
 30
0.0
 11
3660.654548768252
 21
159.2846256051488
 31
0.0
  0
LINE
  5
1AF5E
330
18
100
AcDbEntity
  8
0
  6
BYBLOCK
100
AcDbLine
 10
3661.351216662251
 20
145.6846256051488
 30
0.0
 11
3660.654548768252
 21
143.0846256051488
 31
0.0
  0
LINE
  5
1AF5F
330
18
100
AcDbEntity
  8
0
  6
BYBLOCK
100
AcDbLine
 10
3660.654548768252
 20
143.0846256051488
 30
0.0
 11
3659.957880874252
 21
145.6846256051488
 31
0.0
  0
LINE
  5
1AF60
330
18
100
AcDbEntity
  8
0
  6
BYBLOCK
100
AcDbLine
 10
3660.654548768252
 20
143.0846256051488
 30
0.0
 11
3660.654548768252
 21
145.6846256051488
 31
0.0
  0
TEXT
  5
1AF61
330
18
100
AcDbEntity
  8
1DIM
  6
CONTINUOUS
100
AcDbText
 10
3659.744548768251
 20
149.4502390310745
 30
0.0
 40
4.55
  1
19
 50
90.0
100
AcDbText
1001
ACAD
1000
DSTYLE
1002
{
1070
    45
1040
0.5
1070
    40
1040
1.3
1002
}
  0
LINE
  5
1AF62
330
18
100
AcDbEntity
  8
0
  6
BYBLOCK
100
AcDbLine
 10
3224.197531941682
 20
-120.215374393823
 30
0.0
 11
3224.894199835681
 21
-117.615374393823
 31
0.0
  0
LINE
  5
1AF63
330
18
100
AcDbEntity
  8
0
  6
BYBLOCK
100
AcDbLine
 10
3224.894199835681
 20
-117.615374393823
 30
0.0
 11
3225.590867729681
 21
-120.215374393823
 31
0.0
  0
LINE
  5
1AF64
330
18
100
AcDbEntity
  8
0
  6
BYBLOCK
100
AcDbLine
 10
3224.894199835681
 20
-117.615374393823
 30
0.0
 11
3224.894199835681
 21
-120.215374393823
 31
0.0
  0
LINE
  5
1AF65
330
18
100
AcDbEntity
  8
0
  6
BYBLOCK
100
AcDbLine
 10
3225.590867729681
 20
-179.015374393823
 30
0.0
 11
3224.894199835681
 21
-181.615374393823
 31
0.0
  0
LINE
  5
1AF66
330
18
100
AcDbEntity
  8
0
  6
BYBLOCK
100
AcDbLine
 10
3224.894199835681
 20
-181.615374393823
 30
0.0
 11
3224.197531941682
 21
-179.015374393823
 31
0.0
  0
LINE
  5
1AF67
330
18
100
AcDbEntity
  8
0
  6
BYBLOCK
100
AcDbLine
 10
3224.894199835681
 20
-181.615374393823
 30
0.0
 11
3224.894199835681
 21
-179.015374393823
 31
0.0
  0
TEXT
  5
1AF68
330
18
100
AcDbEntity
  8
1DIM
  6
CONTINUOUS
100
AcDbText
 10
3223.984199835681
 20
-153.4228396716003
 30
0.0
 40
4.55
  1
64
 50
90.0
100
AcDbText
1001
ACAD
1000
DSTYLE
1002
{
1070
    40
1040
1.3
1002
}
  0
LINE
  5
1AF69
330
18
100
AcDbEntity
  8
0
  6
BYBLOCK
100
AcDbLine
 10
3627.593273826479
 20
46.68795771114972
 30
0.0
 11
3624.993273826479
 21
47.38462560514972
 31
0.0
  0
LINE
  5
1AF6A
330
18
100
AcDbEntity
  8
0
  6
BYBLOCK
100
AcDbLine
 10
3624.993273826479
 20
47.38462560514972
 30
0.0
 11
3627.593273826479
 21
48.08129349914972
 31
0.0
  0
LINE
  5
1AF6B
330
18
100
AcDbEntity
  8
0
  6
BYBLOCK
100
AcDbLine
 10
3624.993273826479
 20
47.38462560514972
 30
0.0
 11
3627.593273826479
 21
47.38462560514972
 31
0.0
  0
LINE
  5
1AF6C
330
18
100
AcDbEntity
  8
0
  6
BYBLOCK
100
AcDbLine
 10
3750.40860871724
 20
48.08129349914972
 30
0.0
 11
3753.00860871724
 21
47.38462560514972
 31
0.0
  0
LINE
  5
1AF6D
330
18
100
AcDbEntity
  8
0
  6
BYBLOCK
100
AcDbLine
 10
3753.00860871724
 20
47.38462560514972
 30
0.0
 11
3750.40860871724
 21
46.68795771114972
 31
0.0
  0
LINE
  5
1AF6E
330
18
100
AcDbEntity
  8
0
  6
BYBLOCK
100
AcDbLine
 10
3753.00860871724
 20
47.38462560514972
 30
0.0
 11
3750.40860871724
 21
47.38462560514972
 31
0.0
  0
TEXT
  5
1AF6F
330
18
100
AcDbEntity
  8
1DIM
  6
CONTINUOUS
100
AcDbText
 10
3683.692607938527
 20
48.29462560514973
 30
0.0
 40
4.55
  1
128
100
AcDbText
1001
ACAD
1000
DSTYLE
1002
{
1070
    40
1040
1.3
1070
    45
1040
0.5
1002
}
  0
LINE
  5
1AF70
330
18
100
AcDbEntity
  8
0
  6
BYBLOCK
100
AcDbLine
 10
3612.59325402904
 20
36.68795771114972
 30
0.0
 11
3609.99325402904
 21
37.38462560514972
 31
0.0
  0
LINE
  5
1AF71
330
18
100
AcDbEntity
  8
0
  6
BYBLOCK
100
AcDbLine
 10
3609.99325402904
 20
37.38462560514972
 30
0.0
 11
3612.59325402904
 21
38.08129349914972
 31
0.0
  0
LINE
  5
1AF72
330
18
100
AcDbEntity
  8
0
  6
BYBLOCK
100
AcDbLine
 10
3609.99325402904
 20
37.38462560514972
 30
0.0
 11
3612.59325402904
 21
37.38462560514972
 31
0.0
  0
LINE
  5
1AF73
330
18
100
AcDbEntity
  8
0
  6
BYBLOCK
100
AcDbLine
 10
3750.40860871724
 20
38.08129349914972
 30
0.0
 11
3753.00860871724
 21
37.38462560514972
 31
0.0
  0
LINE
  5
1AF74
330
18
100
AcDbEntity
  8
0
  6
BYBLOCK
100
AcDbLine
 10
3753.00860871724
 20
37.38462560514972
 30
0.0
 11
3750.40860871724
 21
36.68795771114972
 31
0.0
  0
LINE
  5
1AF75
330
18
100
AcDbEntity
  8
0
  6
BYBLOCK
100
AcDbLine
 10
3753.00860871724
 20
37.38462560514972
 30
0.0
 11
3750.40860871724
 21
37.38462560514972
 31
0.0
  0
TEXT
  5
1AF76
330
18
100
AcDbEntity
  8
1DIM
  6
CONTINUOUS
100
AcDbText
 10
3676.192598039806
 20
38.29462560514973
 30
0.0
 40
4.55
  1
143
100
AcDbText
1001
ACAD
1000
DSTYLE
1002
{
1070
    40
1040
1.3
1070
    45
1040
0.5
1002
}
  0
LINE
  5
1AF77
330
18
100
AcDbEntity
  8
0
  6
BYBLOCK
100
AcDbLine
 10
3780.689941720479
 20
-123.4984755402401
 30
0.0
 11
3779.993273826479
 21
-126.0984755402401
 31
0.0
  0
LINE
  5
1AF78
330
18
100
AcDbEntity
  8
0
  6
BYBLOCK
100
AcDbLine
 10
3779.993273826479
 20
-126.0984755402401
 30
0.0
 11
3779.296605932479
 21
-123.4984755402401
 31
0.0
  0
LINE
  5
1AF79
330
18
100
AcDbEntity
  8
0
  6
BYBLOCK
100
AcDbLine
 10
3779.993273826479
 20
-126.0984755402401
 30
0.0
 11
3779.993273826479
 21
-123.4984755402401
 31
0.0
  0
LINE
  5
1AF7A
330
18
100
AcDbEntity
  8
0
  6
BYBLOCK
100
AcDbLine
 10
3779.296605932479
 20
-111.6886436825352
 30
0.0
 11
3779.993273826479
 21
-109.0886436825352
 31
0.0
  0
LINE
  5
1AF7B
330
18
100
AcDbEntity
  8
0
  6
BYBLOCK
100
AcDbLine
 10
3779.993273826479
 20
-109.0886436825352
 30
0.0
 11
3780.689941720479
 21
-111.6886436825352
 31
0.0
  0
LINE
  5
1AF7C
330
18
100
AcDbEntity
  8
0
  6
BYBLOCK
100
AcDbLine
 10
3779.993273826479
 20
-109.0886436825352
 30
0.0
 11
3779.993273826479
 21
-111.6886436825352
 31
0.0
  0
TEXT
  5
1AF7D
330
18
100
AcDbEntity
  8
1DIM
  6
CONTINUOUS
100
AcDbText
 10
3779.083273826479
 20
-120.6268929447201
 30
0.0
 40
4.55
  1
17
 50
90.0
100
AcDbText
1001
ACAD
1000
DSTYLE
1002
{
1070
    40
1040
1.3
1070
    45
1040
0.5
1002
}
  0
LINE
  5
1AF7E
330
18
100
AcDbEntity
  8
0
  6
BYBLOCK
100
AcDbLine
 10
3790.689941720479
 20
-179.0140560807199
 30
0.0
 11
3789.993273826479
 21
-181.6140560807198
 31
0.0
  0
LINE
  5
1AF7F
330
18
100
AcDbEntity
  8
0
  6
BYBLOCK
100
AcDbLine
 10
3789.993273826479
 20
-181.6140560807198
 30
0.0
 11
3789.296605932479
 21
-179.0140560807199
 31
0.0
  0
LINE
  5
1AF80
330
18
100
AcDbEntity
  8
0
  6
BYBLOCK
100
AcDbLine
 10
3789.993273826479
 20
-181.6140560807198
 30
0.0
 11
3789.993273826479
 21
-179.0140560807199
 31
0.0
  0
LINE
  5
1AF81
330
18
100
AcDbEntity
  8
0
  6
BYBLOCK
100
AcDbLine
 10
3789.296605932479
 20
-6.214056080719859
 30
0.0
 11
3789.993273826479
 21
-3.614056080719859
 31
0.0
  0
LINE
  5
1AF82
330
18
100
AcDbEntity
  8
0
  6
BYBLOCK
100
AcDbLine
 10
3789.993273826479
 20
-3.614056080719859
 30
0.0
 11
3790.689941720479
 21
-6.214056080719859
 31
0.0
  0
LINE
  5
1AF83
330
18
100
AcDbEntity
  8
0
  6
BYBLOCK
100
AcDbLine
 10
3789.993273826479
 20
-3.614056080719859
 30
0.0
 11
3789.993273826479
 21
-6.214056080719859
 31
0.0
  0
TEXT
  5
1AF84
330
18
100
AcDbEntity
  8
1DIM
  6
CONTINUOUS
100
AcDbText
 10
3789.083273826479
 20
-97.92238941405276
 30
0.0
 40
4.55
  1
178
 50
90.0
100
AcDbText
1001
ACAD
1000
DSTYLE
1002
{
1070
    40
1040
1.3
1070
    45
1040
0.5
1070
   341
1005
0
1002
}
  0
LINE
  5
1AF85
330
18
100
AcDbEntity
  8
0
  6
BYBLOCK
100
AcDbLine
 10
3602.593273826479
 20
1.089276025279816
 30
0.0
 11
3599.993273826479
 21
1.785943919279816
 31
0.0
  0
LINE
  5
1AF86
330
18
100
AcDbEntity
  8
0
  6
BYBLOCK
100
AcDbLine
 10
3599.993273826479
 20
1.785943919279816
 30
0.0
 11
3602.593273826479
 21
2.482611813279816
 31
0.0
  0
LINE
  5
1AF87
330
18
100
AcDbEntity
  8
0
  6
BYBLOCK
100
AcDbLine
 10
3599.993273826479
 20
1.785943919279816
 30
0.0
 11
3602.593273826479
 21
1.785943919279816
 31
0.0
  0
LINE
  5
1AF88
330
18
100
AcDbEntity
  8
0
  6
BYBLOCK
100
AcDbLine
 10
3647.393273826479
 20
2.482611813279816
 30
0.0
 11
3649.993273826479
 21
1.785943919279816
 31
0.0
  0
LINE
  5
1AF89
330
18
100
AcDbEntity
  8
0
  6
BYBLOCK
100
AcDbLine
 10
3649.993273826479
 20
1.785943919279816
 30
0.0
 11
3647.393273826479
 21
1.089276025279816
 31
0.0
  0
LINE
  5
1AF8A
330
18
100
AcDbEntity
  8
0
  6
BYBLOCK
100
AcDbLine
 10
3649.993273826479
 20
1.785943919279816
 30
0.0
 11
3647.393273826479
 21
1.785943919279816
 31
0.0
  0
TEXT
  5
1AF8B
330
18
100
AcDbEntity
  8
1DIM
  6
CONTINUOUS
100
AcDbText
 10
3621.470183548702
 20
2.695943919279817
 30
0.0
 40
4.55
  1
50
100
AcDbText
1001
ACAD
1000
DSTYLE
1002
{
1070
    40
1040
1.3
1070
    45
1040
0.5
1070
   341
1005
0
1002
}
  0
LINE
  5
1AF8C
330
18
100
AcDbEntity
  8
0
  6
BYBLOCK
100
AcDbLine
 10
3780.690058060226
 20
94.98487956242484
 30
0.0
 11
3779.993390166226
 21
92.38487956242484
 31
0.0
  0
LINE
  5
1AF8D
330
18
100
AcDbEntity
  8
0
  6
BYBLOCK
100
AcDbLine
 10
3779.993390166226
 20
92.38487956242484
 30
0.0
 11
3779.296722272226
 21
94.98487956242484
 31
0.0
  0
LINE
  5
1AF8E
330
18
100
AcDbEntity
  8
0
  6
BYBLOCK
100
AcDbLine
 10
3779.993390166226
 20
92.38487956242484
 30
0.0
 11
3779.993390166226
 21
94.98487956242484
 31
0.0
  0
LINE
  5
1AF8F
330
18
100
AcDbEntity
  8
0
  6
BYBLOCK
100
AcDbLine
 10
3779.296722272226
 20
129.7846256051488
 30
0.0
 11
3779.993390166226
 21
132.3846256051488
 31
0.0
  0
LINE
  5
1AF90
330
18
100
AcDbEntity
  8
0
  6
BYBLOCK
100
AcDbLine
 10
3779.993390166226
 20
132.3846256051488
 30
0.0
 11
3780.690058060226
 21
129.7846256051488
 31
0.0
  0
LINE
  5
1AF91
330
18
100
AcDbEntity
  8
0
  6
BYBLOCK
100
AcDbLine
 10
3779.993390166226
 20
132.3846256051488
 30
0.0
 11
3779.993390166226
 21
129.7846256051488
 31
0.0
  0
TEXT
  5
1AF92
330
18
100
AcDbEntity
  8
1DIM
  6
CONTINUOUS
100
AcDbText
 10
3779.083390166226
 20
108.8774609171205
 30
0.0
 40
4.55
  1
40
 50
90.0
100
AcDbText
1001
ACAD
1000
DSTYLE
1002
{
1070
    40
1040
1.3
1070
    45
1040
0.5
1002
}
  0
LINE
  5
1AF93
330
18
100
AcDbEntity
  8
0
  6
BYBLOCK
100
AcDbLine
 10
3790.690058060226
 20
67.98521692049557
 30
0.0
 11
3789.993390166226
 21
65.38521692049558
 31
0.0
  0
LINE
  5
1AF94
330
18
100
AcDbEntity
  8
0
  6
BYBLOCK
100
AcDbLine
 10
3789.993390166226
 20
65.38521692049558
 30
0.0
 11
3789.296722272226
 21
67.98521692049557
 31
0.0
  0
LINE
  5
1AF95
330
18
100
AcDbEntity
  8
0
  6
BYBLOCK
100
AcDbLine
 10
3789.993390166226
 20
65.38521692049558
 30
0.0
 11
3789.993390166226
 21
67.98521692049557
 31
0.0
  0
LINE
  5
1AF96
330
18
100
AcDbEntity
  8
0
  6
BYBLOCK
100
AcDbLine
 10
3789.296722272226
 20
129.7846256051488
 30
0.0
 11
3789.993390166226
 21
132.3846256051488
 31
0.0
  0
LINE
  5
1AF97
330
18
100
AcDbEntity
  8
0
  6
BYBLOCK
100
AcDbLine
 10
3789.993390166226
 20
132.3846256051488
 30
0.0
 11
3790.690058060226
 21
129.7846256051488
 31
0.0
  0
LINE
  5
1AF98
330
18
100
AcDbEntity
  8
0
  6
BYBLOCK
100
AcDbLine
 10
3789.993390166226
 20
132.3846256051488
 30
0.0
 11
3789.993390166226
 21
129.7846256051488
 31
0.0
  0
TEXT
  5
1AF99
330
18
100
AcDbEntity
  8
1DIM
  6
CONTINUOUS
100
AcDbText
 10
3789.083390166225
 20
95.07745598504516
 30
0.0
 40
4.55
  1
67
 50
90.0
100
AcDbText
1001
ACAD
1000
DSTYLE
1002
{
1070
    40
1040
1.3
1070
    45
1040
0.5
1002
}
  0
VIEWPORT
  5
57
330
15
100
AcDbEntity
 67
     1
  8
0
100
AcDbViewport
 68
     1
 10
0.0
 20
0.0
 30
0.0
 40
663.4332925336597
 41
297.0
 68
     1
 69
     1
1001
ACAD
1000
MVIEW
1002
{
1070
    16
1010
0.0
1020
0.0
1030
0.0
1010
0.0
1020
0.0
1030
1.0
1040
0.0
1040
297.0
1040
-4.171999999925333
1040
12.83903210976956
1040
50.0
1040
0.0
1040
0.0
1070
    16
1070
   100
1070
     0
1070
     1
1070
     0
1070
     0
1070
     0
1070
     0
1040
0.0
1040
0.0
1040
0.0
1040
10.0
1040
10.0
1040
10.0
1040
10.0
1070
     0
1002
{
1002
}
1002
}
  0
ENDSEC
  0
SECTION
  2
OBJECTS
  0
DICTIONARY
  5
C
330
0
100
AcDbDictionary
  3
ACAD_COLOR
350
18D
  3
ACAD_GROUP
350
D
  3
ACAD_LAYOUT
350
18E
  3
ACAD_MATERIAL
350
18C
  3
ACAD_MLEADERSTYLE
350
D9E7
  3
ACAD_MLINESTYLE
350
1B
  3
ACAD_PLOTSETTINGS
350
18F
  3
ACAD_SCALELIST
350
D9C5
  3
ACAD_VISUALSTYLE
350
D9B4
  3
ACDBHEADERROUNDTRIPXREC
350
1AF9A
  3
ACDBVARIABLEDICTIONARY
350
37
  3
AEC_PROPERTY_SET_DEFS
350
1AB6F
  3
CONTENTDICTIONARY
350
D8
  3
DRAWINGVARIABLESDICT
350
20
  3
DWGPROPS
350
1AF9D
1001
ACAD
1000
TREAT_AS_HARD
1070
     0
  0
DICTIONARY
  5
E6A6
330
2
100
AcDbDictionary
  3
ACAD_LAYERSTATES
360
E6A7
1001
ACAD
1000
TREAT_AS_HARD
1070
     1
  0
DICTIONARY
  5
DA05
330
E
100
AcDbDictionary
  3
ADSK_XREC_LAYER_RECONCILED
360
DA06
1001
ACAD
1000
TREAT_AS_HARD
1070
     1
  0
DICTIONARY
  5
DA07
330
29
100
AcDbDictionary
  3
ADSK_XREC_LAYER_RECONCILED
360
DA08
1001
ACAD
1000
TREAT_AS_HARD
1070
     1
  0
DICTIONARY
  5
DA09
330
31
100
AcDbDictionary
  3
ADSK_XREC_LAYER_RECONCILED
360
DA0A
1001
ACAD
1000
TREAT_AS_HARD
1070
     1
  0
DICTIONARY
  5
DA0F
330
243
100
AcDbDictionary
  3
ADSK_XREC_LAYER_RECONCILED
360
DA10
1001
ACAD
1000
TREAT_AS_HARD
1070
     1
  0
DICTIONARY
  5
DA15
330
24E
100
AcDbDictionary
  3
ADSK_XREC_LAYER_RECONCILED
360
DA16
1001
ACAD
1000
TREAT_AS_HARD
1070
     1
  0
DICTIONARY
  5
DA23
330
2C05
100
AcDbDictionary
  3
ADSK_XREC_LAYER_RECONCILED
360
DA24
1001
ACAD
1000
TREAT_AS_HARD
1070
     1
  0
DICTIONARY
  5
88F
330
18
100
AcDbDictionary
  3
ACAD_SORTENTS
360
890
1001
ACAD
1000
TREAT_AS_HARD
1070
     1
  0
DICTIONARY
  5
18D
102
{ACAD_REACTORS
330
C
102
}
330
C
100
AcDbDictionary
1001
ACAD
1000
TREAT_AS_HARD
1070
     0
  0
DICTIONARY
  5
D
102
{ACAD_REACTORS
330
C
102
}
330
C
100
AcDbDictionary
1001
ACAD
1000
TREAT_AS_HARD
1070
     0
  0
DICTIONARY
  5
18E
102
{ACAD_REACTORS
330
C
102
}
330
C
100
AcDbDictionary
1001
ACAD
1000
TREAT_AS_HARD
1070
     0
  0
DICTIONARY
  5
18C
102
{ACAD_REACTORS
330
C
102
}
330
C
100
AcDbDictionary
  3
BYBLOCK
350
D9A4
  3
BYLAYER
350
D99C
  3
GLOBAL
350
D9AC
1001
ACAD
1000
TREAT_AS_HARD
1070
     0
  0
DICTIONARY
  5
D9E7
102
{ACAD_REACTORS
330
C
102
}
330
C
100
AcDbDictionary
  3
STANDARD
350
D9E8
1001
ACAD
1000
TREAT_AS_HARD
1070
     0
  0
DICTIONARY
  5
1B
102
{ACAD_REACTORS
330
C
102
}
330
C
100
AcDbDictionary
  3
STANDARD
350
1C
1001
ACAD
1000
TREAT_AS_HARD
1070
     0
  0
DICTIONARY
  5
18F
102
{ACAD_REACTORS
330
C
102
}
330
C
100
AcDbDictionary
1001
ACAD
1000
TREAT_AS_HARD
1070
     0
  0
DICTIONARY
  5
D9C5
102
{ACAD_REACTORS
330
C
102
}
330
C
100
AcDbDictionary
  3
A0
350
D9C6
  3
A1
350
D9C7
  3
A2
350
D9C8
  3
A3
350
D9C9
  3
A4
350
D9CA
  3
A5
350
D9CB
  3
A6
350
D9CC
  3
A7
350
D9CD
  3
A8
350
D9CE
  3
A9
350
D9CF
  3
B0
350
D9D0
  3
B1
350
D9D1
  3
B2
350
D9D2
  3
B3
350
D9D3
  3
B4
350
D9D4
  3
B5
350
D9D5
  3
B6
350
D9D6
  3
B7
350
D9D7
  3
B8
350
D9D8
  3
B9
350
D9D9
  3
C0
350
D9DA
  3
C1
350
D9DB
  3
C2
350
D9DC
  3
C3
350
D9DD
  3
C4
350
D9DE
  3
C5
350
D9DF
  3
C6
350
D9E0
  3
C7
350
D9E1
  3
C8
350
D9E2
  3
C9
350
D9E3
  3
D0
350
D9E4
  3
D1
350
D9E5
  3
D2
350
D9E6
1001
ACAD
1000
TREAT_AS_HARD
1070
     0
  0
DICTIONARY
  5
D9B4
102
{ACAD_REACTORS
330
C
102
}
330
C
100
AcDbDictionary
  3
2DWIREFRAME
350
D9BA
  3
3D_HIDDEN
350
D9BC
  3
3DWIREFRAME
350
D9BB
  3
BASIC
350
D9B9
  3
BRIGHTEN
350
D9C0
  3
COLORCHANGE
350
D9C4
  3
CONCEPTUAL
350
D9BD
  3
DIM
350
D9BF
  3
EDGECOLOROFF
350
19C2F
  3
FACEPATTERN
350
D9C3
  3
FLAT
350
D9B5
  3
FLATWITHEDGES
350
D9B6
  3
GOURAUD
350
D9B7
  3
GOURAUDWITHEDGES
350
D9B8
  3
HIDDEN
350
19C7E
  3
JITTEROFF
350
19C2D
  3
LINEPATTERN
350
D9C2
  3
MODELING
350
19C84
  3
OVERHANGOFF
350
19C2E
  3
REALISTIC
350
D9BE
  3
SHADED
350
19C83
  3
SHADED_WITH_EDGES
350
19C82
  3
SHADES_OF_GRAY
350
19C7F
  3
SKETCHY
350
19C80
  3
THICKEN
350
D9C1
  3
WIREFRAME
350
19C7D
  3
X-RAY
350
19C81
1001
ACAD
1000
TREAT_AS_HARD
1070
     0
  0
DICTIONARY
  5
1AF9A
102
{ACAD_REACTORS
330
C
102
}
330
C
100
AcDbDictionary
  3
COLORDICT
350
1AF9B
  3
MATERIALDICT
350
1AF9C
1001
ACAD
1000
TREAT_AS_HARD
1070
     0
  0
DICTIONARY
  5
37
102
{ACAD_REACTORS
330
C
102
}
330
C
100
AcDbDictionary
  3
CANNOSCALE
350
1AE48
  3
CMLEADERSTYLE
350
DA6A
  3
CTABLESTYLE
350
29E
  3
DIMADEC
350
38
  3
DIMASSOC
350
1CE
  3
HIDETEXT
350
704E
  3
INDEXCTL
350
DA6D
  3
INTERSECTIONCOLOR
350
7052
  3
INTERSECTIONDISPLAY
350
7051
  3
MSLTSCALE
350
1A6DD
  3
OBSCOLOR
350
704F
  3
OBSLTYPE
350
7050
  3
PROJECTNAME
350
1CF
  3
SORTENTS
350
DA6C
  3
XCLIPFRAME
350
1AE27
1001
ACAD
1000
TREAT_AS_HARD
1070
     0
  0
DICTIONARY
  5
1AB6F
102
{ACAD_REACTORS
330
C
102
}
330
C
100
AcDbDictionary
1001
ACAD
1000
TREAT_AS_HARD
1070
     0
  0
DICTIONARY
  5
D8
102
{ACAD_REACTORS
330
C
102
}
330
C
100
AcDbDictionary
1001
ACAD
1000
TREAT_AS_HARD
1070
     0
  0
DICTIONARY
  5
20
102
{ACAD_REACTORS
330
C
102
}
330
C
100
AcDbDictionary
1001
DRAWINGVARIABLESXDATA
1000
POLARANG
1000
0.261799387799149410000000
1000
POLARMODE
1000
1
1000
POLARSTYLE
1000
1
1001
ACAD
1000
TREAT_AS_HARD
1070
     0
  0
XRECORD
  5
1AF9D
102
{ACAD_REACTORS
330
C
102
}
330
C
100
AcDbXrecord
  1
DWGPROPS COOKIE
  2

  3

  4

  6

  7

  8
3684
  9

300
=
301
=
302
=
303
=
304
=
305
=
306
=
307
=
308
=
309
=
 40
0.0
 41
2451318.246352917
 42
2458152.252888194
  1

 90
        0
  0
DICTIONARY
  5
E6A7
102
{ACAD_REACTORS
330
E6A6
102
}
330
E6A6
100
AcDbDictionary
1001
ACAD
1000
TREAT_AS_HARD
1070
     0
  0
ACAD_PROXY_OBJECT
  5
DA06
102
{ACAD_REACTORS
330
DA05
102
}
330
DA05
100
AcDbZombieObject
 90
      499
 91
      516
 93
       34
310
40C8804040
  0
ACAD_PROXY_OBJECT
  5
DA08
102
{ACAD_REACTORS
330
DA07
102
}
330
DA07
100
AcDbZombieObject
 90
      499
 91
      516
 93
       34
310
40C8804040
  0
ACAD_PROXY_OBJECT
  5
DA0A
102
{ACAD_REACTORS
330
DA09
102
}
330
DA09
100
AcDbZombieObject
 90
      499
 91
      516
 93
       34
310
40C8804040
  0
ACAD_PROXY_OBJECT
  5
DA10
102
{ACAD_REACTORS
330
DA0F
102
}
330
DA0F
100
AcDbZombieObject
 90
      499
 91
      516
 93
       34
310
40C8804040
  0
ACAD_PROXY_OBJECT
  5
DA16
102
{ACAD_REACTORS
330
DA15
102
}
330
DA15
100
AcDbZombieObject
 90
      499
 91
      516
 93
       34
310
40C8804040
  0
ACAD_PROXY_OBJECT
  5
DA24
102
{ACAD_REACTORS
330
DA23
102
}
330
DA23
100
AcDbZombieObject
 90
      499
 91
      516
 93
       34
310
40C8804040
  0
SORTENTSTABLE
  5
890
102
{ACAD_REACTORS
330
88F
102
}
330
88F
100
AcDbSortentsTable
330
18
331
0
  5
5BFF
331
1AB74
  5
1AB85
331
1AB75
  5
1AB86
331
1AB76
  5
1AB87
331
1AB77
  5
1AB88
331
0
  5
1AB8E
331
1AB7A
  5
1AB96
331
0
  5
1AB90
331
0
  5
1AB94
331
1AB80
  5
1ABBD
331
1AB81
  5
1ABBE
331
1AB82
  5
1ABBF
331
1AB83
  5
1ABC0
331
1AB84
  5
1ABC1
331
1AB85
  5
1ABC2
331
1AB86
  5
1ABC3
331
1AB87
  5
1ABC4
331
1AB88
  5
1ABC5
331
1AB89
  5
1ABC6
331
1AB8A
  5
1ABC7
331
1AB8B
  5
1ABC8
331
1AB8C
  5
1ABC9
331
1AB8D
  5
1ABCA
331
1AB8E
  5
1ABCB
331
1AB8F
  5
1ABCC
331
1AB90
  5
1ABCD
331
1AB91
  5
1ABCE
331
1AB92
  5
1ABCF
331
1AB93
  5
1ABD0
331
1AB94
  5
1ABD1
331
1AB95
  5
1ABD2
331
1AB96
  5
1ABD3
331
1AB97
  5
1ABD4
331
1AB98
  5
1ABD5
331
1AB99
  5
1ABD6
331
1AB9A
  5
1ABD7
331
1AB9B
  5
1ABD8
331
1AB9C
  5
1ABD9
331
1AB9D
  5
1ABDA
331
1AB9E
  5
1ABDB
331
1AB9F
  5
1ABDC
331
1ABA0
  5
1ABDD
331
1ABA1
  5
1ABDE
331
1ABA2
  5
1ABDF
331
1ABA3
  5
1ABE0
331
1ABA4
  5
1ABE1
331
1ABA5
  5
1ABE2
331
1ABA6
  5
1ABE3
331
1ABA7
  5
1ABE4
331
1ABA8
  5
1ABE5
331
1ABA9
  5
1ABE6
331
1ABAA
  5
1ABE7
331
1ABAB
  5
1ABE8
331
1ABAC
  5
1ABE9
331
1ABAD
  5
1ABEA
331
1ABAE
  5
1ABEC
331
1ABAF
  5
1ABED
331
1ABB0
  5
1ABEE
331
1ABB1
  5
1ABEF
331
1ABB2
  5
1ABF0
331
1ABB3
  5
1ABF1
331
1ABB4
  5
1ABF2
331
1ABB5
  5
1ABF3
331
1ABB6
  5
1ABF4
331
1ABB7
  5
1ABF5
331
1ABB8
  5
1ABF6
331
1ABB9
  5
1ABF7
331
1ABBA
  5
1ABF8
331
1ABBB
  5
1ABF9
331
1ABBC
  5
1ABFA
331
1ABBD
  5
1ABFB
331
1ABBE
  5
1ABFC
331
1ABBF
  5
1ABFE
331
1ABC0
  5
1ABFF
331
1ABC1
  5
1AC00
331
1ABC2
  5
1AC01
331
1ABC3
  5
1AC02
331
1ABC4
  5
1AC03
331
1ABC5
  5
1AC04
331
0
  5
1ABFD
331
1ABC7
  5
1AC15
331
1ABC8
  5
1AC16
331
1ABC9
  5
1AC17
331
1ABCA
  5
1AC18
331
1ABCB
  5
1AC19
331
1ABCC
  5
1AC1A
331
1ABCD
  5
1AC1B
331
1ABCE
  5
1AC1C
331
1ABCF
  5
1AC1D
331
1ABD0
  5
1AC1E
331
1ABD1
  5
1AC1F
331
1ABD2
  5
1AC20
331
1ABD3
  5
1AC21
331
1ABD4
  5
1AC22
331
1ABD5
  5
1AC23
331
1ABD6
  5
1AC24
331
1ABD7
  5
1AC27
331
1ABD8
  5
1AC28
331
1ABD9
  5
1AC29
331
1ABDA
  5
1AC2A
331
1ABDB
  5
1AC2B
331
1ABDC
  5
1AC2C
331
1ABDD
  5
1AC2D
331
1ABDE
  5
1AC2E
331
1ABDF
  5
1AC2F
331
1ABE0
  5
1AC30
331
1ABE1
  5
1AC31
331
1ABE2
  5
1AC32
331
1ABE3
  5
1AC33
331
1ABE4
  5
1AC34
331
1ABE5
  5
1AC35
331
1ABE6
  5
1AC36
331
1ABE7
  5
1AC37
331
1ABE8
  5
1AC38
331
1ABE9
  5
1AC39
331
1ABEA
  5
1AC3A
331
1ABEC
  5
1AC45
331
1ABED
  5
1AC46
331
1ABEE
  5
1AC47
331
1ABEF
  5
1AC48
331
1ABF0
  5
1AC49
331
1ABF1
  5
1AC4D
331
1ABF2
  5
1AC4E
331
1ABF3
  5
1AC4F
331
1ABF4
  5
1AC53
331
1ABF5
  5
1AC54
331
1ABF6
  5
1AC55
331
1ABF7
  5
1AC56
331
1ABF8
  5
1AC57
331
1ABF9
  5
1AC58
331
1ABFA
  5
1AC59
331
1ABFB
  5
1AC5A
331
1ABFC
  5
1AC5B
331
1ABFD
  5
1AC5C
331
1ABFE
  5
1AC5D
331
1ABFF
  5
1AC5E
331
1AC00
  5
1AC5F
331
1AC01
  5
1AC60
331
1AC02
  5
1AC61
331
1AC03
  5
1AC62
331
1AC04
  5
1AC63
331
1AC05
  5
1AC64
331
1AC06
  5
1AC65
331
1AC07
  5
1AC66
331
1AC08
  5
1AC67
331
1AC09
  5
1AC68
331
1AC0A
  5
1AC69
331
1AC0B
  5
1AC6A
331
1AC0C
  5
1AC6B
331
1AC0D
  5
1AC6C
331
1AC0E
  5
1AC6D
331
1AC0F
  5
1AC6E
331
1AC10
  5
1AC6F
331
1AC11
  5
1AC70
331
1AC12
  5
1AC71
331
1AC13
  5
1AC72
331
1AC14
  5
1AC73
331
1AC15
  5
1AC74
331
1AC16
  5
1AC75
331
1AC17
  5
1AC76
331
1AC18
  5
1AC77
331
1AC19
  5
1AC78
331
1AC1A
  5
1AC79
331
1AC1B
  5
1AC7A
331
1AC1C
  5
1AC7B
331
1AC1D
  5
1AC7C
331
1AC1E
  5
1AC7D
331
1AC1F
  5
1AC7E
331
1AC20
  5
1AC7F
331
1AC21
  5
1AC80
331
1AC22
  5
1AC81
331
1AC23
  5
1AC82
331
1AC24
  5
1AC83
331
1AC27
  5
1AC9F
331
0
  5
1AC85
331
1AC29
  5
1ACAA
331
1AC2A
  5
1ACAB
331
1AC2B
  5
1ACAC
331
1AC2C
  5
1ACAD
331
1AC2D
  5
1ACAE
331
1AC2E
  5
1ACB1
331
1AC2F
  5
1ACB2
331
1AC30
  5
1ACB3
331
1AC31
  5
1ACB7
331
1AC32
  5
1ACB8
331
1AC33
  5
1ACBB
331
1AC34
  5
1AEC2
331
1AC35
  5
1AEC3
331
1AC36
  5
1AEC4
331
1AC37
  5
1AEC8
331
1AC38
  5
1AEC9
331
1AC39
  5
1AECA
331
1AC3A
  5
1AECB
331
1AC3B
  5
1AECC
331
0
  5
1AC99
331
0
  5
1AC9A
331
0
  5
1AC9B
331
1AC3F
  5
1AEF1
331
1AC40
  5
1AEF5
331
1AC41
  5
1AEF6
331
1AC42
  5
1AEF7
331
1AC43
  5
1AEFB
331
1AC44
  5
1AEFC
331
1AC45
  5
1AEFD
331
1AC46
  5
1AEFE
331
1AC47
  5
1AEFF
331
1AC48
  5
1AF00
331
1AC49
  5
1AF01
331
1AC4A
  5
1AF02
331
1AC4B
  5
1AF03
331
1AC4C
  5
1AF04
331
1AC4D
  5
1AF05
331
1AC4E
  5
1AF06
331
1AC4F
  5
1AF07
331
1AC50
  5
1AF08
331
1AC51
  5
1AF09
331
0
  5
1ACAF
331
0
  5
1ACB0
331
1AC54
  5
1AF1E
331
1AC55
  5
1AF1F
331
1AC56
  5
1AF20
331
1AC57
  5
1AF21
331
1AC58
  5
1AF22
331
1AC59
  5
1AF23
331
1AC5A
  5
1AF24
331
1AC5B
  5
1AF25
331
0
  5
1ACB9
331
0
  5
1ACBA
331
1AC5E
  5
1AF3A
331
1AC5F
  5
1AF3B
331
1AC60
  5
1AF3C
331
1AC61
  5
1AF3D
331
1AC62
  5
1AF3E
331
1AC63
  5
1AF3F
331
1AC64
  5
1AF40
331
1AC65
  5
1AF41
331
1AC66
  5
1AF42
331
1AC67
  5
1AF43
331
1AC68
  5
1AF44
331
1AC69
  5
1AF45
331
1AC6A
  5
1AF46
331
1AC6B
  5
1AF47
331
1AC6C
  5
1AF48
331
1AC6D
  5
1AF49
331
1AC6E
  5
1AF4A
331
1AC6F
  5
1AF4B
331
1AC70
  5
1AF4C
331
1AC71
  5
1AF4D
331
1AC72
  5
1AF4E
331
1AC73
  5
1AF4F
331
1AC74
  5
1AF50
331
1AC75
  5
1AF51
331
1AC76
  5
1AF52
331
1AC77
  5
1AF53
331
1AC78
  5
1AF54
331
1AC79
  5
1AF55
331
1AC7A
  5
1AF56
331
1AC7B
  5
1AF57
331
1AC7C
  5
1AF58
331
1AC7D
  5
1AF59
331
1AC7E
  5
1AF5A
331
1AC7F
  5
1AF5B
331
1AC80
  5
1AF5C
331
1AC81
  5
1AF5D
331
1AC82
  5
1AF5E
331
1AC83
  5
1AF5F
331
1AC84
  5
1AF60
331
1AC85
  5
1AF61
331
1AC86
  5
1AF62
331
1AC87
  5
1AF63
331
1AC88
  5
1AF64
331
1AC89
  5
1AF65
331
1AC8A
  5
1AF66
331
1AC8B
  5
1AF67
331
1AC8C
  5
1AF68
331
1AC8D
  5
1AF69
331
1AC8E
  5
1AF6A
331
1AC8F
  5
1AF6B
331
1AC90
  5
1AF6C
331
1AC91
  5
1AF6D
331
1AC92
  5
1AF6E
331
1AC93
  5
1AF6F
331
1AC94
  5
1AF70
331
1AC95
  5
1AF71
331
1AC96
  5
1AF72
331
1AC97
  5
1AF73
331
1AC98
  5
1AF74
331
1AC99
  5
1AF75
331
1AC9A
  5
1AF76
331
1AC9B
  5
1AF77
331
1AC9C
  5
1AF78
331
1AC9D
  5
1AF79
331
1AC9E
  5
1AF7A
331
1AC9F
  5
1AF7B
331
1ACA0
  5
1AF7C
331
1ACA1
  5
1AF7D
331
1ACA2
  5
1AF7E
331
1ACA3
  5
1AF7F
331
1ACA4
  5
1AF80
331
1ACA5
  5
1AF81
331
1ACA6
  5
1AF82
331
1ACA7
  5
1AF83
331
1ACA8
  5
1AF84
331
1ACA9
  5
1AF85
331
1ACAA
  5
1AF86
331
1ACAB
  5
1AF87
331
1ACAC
  5
1AF88
331
1ACAD
  5
1AF89
331
1ACAE
  5
1AF8A
331
1ACAF
  5
1AF8B
331
1ACB0
  5
1AF8C
331
1ACB1
  5
1AF8D
331
1ACB2
  5
1AF8E
331
1ACB3
  5
1AF8F
331
1ACB4
  5
1AF90
331
1ACB5
  5
1AF91
331
1ACB6
  5
1AF92
331
1ACB7
  5
1AF93
331
1ACB8
  5
1AF94
331
1ACB9
  5
1AF95
331
1ACBA
  5
1AF96
331
1ACBB
  5
1AF97
331
1ACBC
  5
1AF98
331
1ACBD
  5
1AF99
331
1AEC1
  5
1AB74
331
1AEC2
  5
1AB75
331
1AEC3
  5
1AB76
331
0
  5
1AB77
331
0
  5
1AB79
331
0
  5
1AB7A
331
1AEC7
  5
1AB89
331
1AEC8
  5
1AB8A
331
1AEC9
  5
1AB9F
331
1AECA
  5
1ABA0
331
1AECB
  5
1ABA1
331
0
  5
1AB8B
331
0
  5
1AB8C
331
0
  5
1AB8D
331
1AECF
  5
1ABA9
331
1AED0
  5
1ABAA
331
1AED1
  5
1ABAB
331
0
  5
1AB91
331
0
  5
1AB92
331
0
  5
1AB93
331
1AED5
  5
1ABB3
331
1AED6
  5
1ABB4
331
1AED7
  5
1ABB5
331
0
  5
1AB97
331
0
  5
1AB98
331
0
  5
1AB99
331
1AEDB
  5
1AC3B
331
1AEDC
  5
1AC3C
331
1AEDD
  5
1AC3D
331
0
  5
1AC09
331
0
  5
1AC0A
331
0
  5
1AC0B
331
1AEE1
  5
1AC84
331
1AEE2
  5
1AC86
331
1AEE3
  5
1AC87
331
0
  5
1AC4A
331
0
  5
1AC4B
331
0
  5
1AC4C
331
1AEE7
  5
1AC8F
331
1AEE8
  5
1AC90
331
1AEE9
  5
1AC91
331
0
  5
1AC50
331
0
  5
1AC51
331
0
  5
1AC52
331
1AEED
  5
1AB7B
331
1AEEE
  5
1AB7C
331
1AEEF
  5
1AB80
331
1AEF0
  5
1AB81
331
1AEF1
  5
1AB82
331
1AEF2
  5
1AB83
331
1AEF3
  5
1AB84
331
1AEF4
  5
1ABA2
331
1AEF5
  5
1ABA3
331
1AEF6
  5
1ABA4
331
1AEF7
  5
1ABA5
331
1AEF8
  5
1ABA6
331
1AEF9
  5
1ABA7
331
1AEFA
  5
1ABA8
331
1AEFB
  5
1ABAC
331
1AEFC
  5
1ABAD
331
1AEFD
  5
1ABAE
331
1AEFE
  5
1ABAF
331
1AEFF
  5
1ABB0
331
1AF00
  5
1ABB1
331
1AF01
  5
1ABB2
331
1AF02
  5
1ABB6
331
1AF03
  5
1ABB7
331
1AF04
  5
1ABB8
331
1AF05
  5
1ABB9
331
1AF06
  5
1ABBA
331
1AF07
  5
1ABBB
331
1AF08
  5
1ABBC
331
1AF09
  5
1AC3E
331
1AF0A
  5
1AC3F
331
1AF0B
  5
1AC40
331
1AF0C
  5
1AC41
331
1AF0D
  5
1AC42
331
1AF0E
  5
1AC43
331
1AF0F
  5
1AC44
331
1AF10
  5
1AC88
331
1AF11
  5
1AC89
331
1AF12
  5
1AC8A
331
1AF13
  5
1AC8B
331
1AF14
  5
1AC8C
331
1AF15
  5
1AC8D
331
1AF16
  5
1AC8E
331
1AF17
  5
1AC92
331
1AF18
  5
1AC93
331
1AF19
  5
1AC94
331
1AF1A
  5
1AC95
331
1AF1B
  5
1AC9C
331
1AF1C
  5
1AC9D
331
1AF1D
  5
1AC9E
331
1AF1E
  5
1AB8F
331
1AF1F
  5
1AB95
331
1AF20
  5
1AB9A
331
1AF21
  5
1AB9B
331
1AF22
  5
1AB9C
331
1AF23
  5
1AB9D
331
1AF24
  5
1AB9E
331
1AF25
  5
1AC05
331
1AF26
  5
1AC06
331
1AF27
  5
1AC07
331
0
  5
1AC08
331
0
  5
1AC0C
331
0
  5
1AC0D
331
1AF2B
  5
1ACA0
331
1AF2C
  5
1ACA1
331
1AF2D
  5
1ACA2
331
0
  5
1AC96
331
0
  5
1AC97
331
0
  5
1AC98
331
1AF31
  5
1AECD
331
1AF32
  5
1AECE
331
1AF33
  5
1AECF
331
0
  5
1ACB4
331
0
  5
1ACB5
331
0
  5
1ACB6
331
1AF37
  5
1AED7
331
1AF38
  5
1AED8
331
1AF39
  5
1AED9
331
0
  5
1ACBC
331
0
  5
1ACBD
331
0
  5
1AEC1
331
1AF3D
  5
1AEE7
331
1AF3E
  5
1AEE8
331
1AF3F
  5
1AEE9
331
0
  5
1AEC5
331
0
  5
1AEC6
331
0
  5
1AEC7
331
1AF43
  5
1AF0A
331
1AF44
  5
1AF0B
331
1AF45
  5
1AF0C
331
0
  5
1AEDE
331
0
  5
1AEDF
331
0
  5
1AEE0
331
1AF49
  5
1AF14
331
1AF4A
  5
1AF15
331
1AF4B
  5
1AF16
331
0
  5
1AEE4
331
0
  5
1AEE5
331
0
  5
1AEE6
331
1AF4F
  5
1AF26
331
1AF50
  5
1AF27
331
1AF51
  5
1AF28
331
0
  5
1AEF2
331
0
  5
1AEF3
331
0
  5
1AEF4
331
1AF55
  5
1AF30
331
1AF56
  5
1AF31
331
1AF57
  5
1AF32
331
0
  5
1AEF8
331
0
  5
1AEF9
331
0
  5
1AEFA
331
1AF5B
  5
1AC0E
331
1AF5C
  5
1AC0F
331
1AF5D
  5
1AC10
331
1AF5E
  5
1AC11
331
1AF5F
  5
1AC12
331
1AF60
  5
1AC13
331
1AF61
  5
1AC14
331
1AF62
  5
1ACA3
331
1AF63
  5
1ACA4
331
1AF64
  5
1ACA5
331
1AF65
  5
1ACA6
331
1AF66
  5
1ACA7
331
1AF67
  5
1ACA8
331
1AF68
  5
1ACA9
331
1AF69
  5
1AED0
331
1AF6A
  5
1AED1
331
1AF6B
  5
1AED2
331
1AF6C
  5
1AED3
331
1AF6D
  5
1AED4
331
1AF6E
  5
1AED5
331
1AF6F
  5
1AED6
331
1AF70
  5
1AEDA
331
1AF71
  5
1AEDB
331
1AF72
  5
1AEDC
331
1AF73
  5
1AEDD
331
1AF74
  5
1AEE1
331
1AF75
  5
1AEE2
331
1AF76
  5
1AEE3
331
1AF77
  5
1AEEA
331
1AF78
  5
1AEEB
331
1AF79
  5
1AEEC
331
1AF7A
  5
1AEED
331
1AF7B
  5
1AEEE
331
1AF7C
  5
1AEEF
331
1AF7D
  5
1AEF0
331
1AF7E
  5
1AF0D
331
1AF7F
  5
1AF0E
331
1AF80
  5
1AF0F
331
1AF81
  5
1AF10
331
1AF82
  5
1AF11
331
1AF83
  5
1AF12
331
1AF84
  5
1AF13
331
1AF85
  5
1AF17
331
1AF86
  5
1AF18
331
1AF87
  5
1AF19
331
1AF88
  5
1AF1A
331
1AF89
  5
1AF1B
331
1AF8A
  5
1AF1C
331
1AF8B
  5
1AF1D
331
1AF8C
  5
1AF29
331
1AF8D
  5
1AF2A
331
1AF8E
  5
1AF2B
331
1AF8F
  5
1AF2C
331
1AF90
  5
1AF2D
331
1AF91
  5
1AF2E
331
1AF92
  5
1AF2F
331
1AF93
  5
1AF33
331
1AF94
  5
1AF34
331
1AF95
  5
1AF35
331
1AF96
  5
1AF36
331
1AF97
  5
1AF37
331
1AF98
  5
1AF38
331
1AF99
  5
1AF39
  0
MATERIAL
  5
D9A4
102
{ACAD_REACTORS
330
18C
102
}
102
{ACAD_XDICTIONARY
360
1B138
102
}
330
18C
100
AcDbMaterial
  1
BYBLOCK
 72
     0
 73
     2
 43
0.0208333333333333
 43
0.0
 43
0.0
 43
0.0
 43
0.0
 43
0.0208333333333333
 43
0.0
 43
0.0
 43
0.0
 43
0.0
 43
1.0
 43
0.0
 43
0.0
 43
0.0
 43
0.0
 43
1.0
 77
     0
 78
     2
 47
0.0208333333333333
 47
0.0
 47
0.0
 47
0.0
 47
0.0
 47
0.0208333333333333
 47
0.0
 47
0.0
 47
0.0
 47
0.0
 47
1.0
 47
0.0
 47
0.0
 47
0.0
 47
0.0
 47
1.0
171
     0
172
     2
 49
0.0208333333333333
 49
0.0
 49
0.0
 49
0.0
 49
0.0
 49
0.0208333333333333
 49
0.0
 49
0.0
 49
0.0
 49
0.0
 49
1.0
 49
0.0
 49
0.0
 49
0.0
 49
0.0
 49
1.0
175
     0
176
     2
142
0.0208333333333333
142
0.0
142
0.0
142
0.0
142
0.0
142
0.0208333333333333
142
0.0
142
0.0
142
0.0
142
0.0
142
1.0
142
0.0
142
0.0
142
0.0
142
0.0
142
1.0
179
     0
270
     2
144
0.0208333333333333
144
0.0
144
0.0
144
0.0
144
0.0
144
0.0208333333333333
144
0.0
144
0.0
144
0.0
144
0.0
144
1.0
144
0.0
144
0.0
144
0.0
144
0.0
144
1.0
274
     2
147
0.0208333333333333
147
0.0
147
0.0
147
0.0
147
0.0
147
0.0208333333333333
147
0.0
147
0.0
147
0.0
147
0.0
147
1.0
147
0.0
147
0.0
147
0.0
147
0.0
147
1.0
  0
MATERIAL
  5
D99C
102
{ACAD_REACTORS
330
18C
102
}
102
{ACAD_XDICTIONARY
360
1B13A
102
}
330
18C
100
AcDbMaterial
  1
BYLAYER
 72
     0
 73
     2
 43
0.0208333333333333
 43
0.0
 43
0.0
 43
0.0
 43
0.0
 43
0.0208333333333333
 43
0.0
 43
0.0
 43
0.0
 43
0.0
 43
1.0
 43
0.0
 43
0.0
 43
0.0
 43
0.0
 43
1.0
 77
     0
 78
     2
 47
0.0208333333333333
 47
0.0
 47
0.0
 47
0.0
 47
0.0
 47
0.0208333333333333
 47
0.0
 47
0.0
 47
0.0
 47
0.0
 47
1.0
 47
0.0
 47
0.0
 47
0.0
 47
0.0
 47
1.0
171
     0
172
     2
 49
0.0208333333333333
 49
0.0
 49
0.0
 49
0.0
 49
0.0
 49
0.0208333333333333
 49
0.0
 49
0.0
 49
0.0
 49
0.0
 49
1.0
 49
0.0
 49
0.0
 49
0.0
 49
0.0
 49
1.0
175
     0
176
     2
142
0.0208333333333333
142
0.0
142
0.0
142
0.0
142
0.0
142
0.0208333333333333
142
0.0
142
0.0
142
0.0
142
0.0
142
1.0
142
0.0
142
0.0
142
0.0
142
0.0
142
1.0
179
     0
270
     2
144
0.0208333333333333
144
0.0
144
0.0
144
0.0
144
0.0
144
0.0208333333333333
144
0.0
144
0.0
144
0.0
144
0.0
144
1.0
144
0.0
144
0.0
144
0.0
144
0.0
144
1.0
274
     2
147
0.0208333333333333
147
0.0
147
0.0
147
0.0
147
0.0
147
0.0208333333333333
147
0.0
147
0.0
147
0.0
147
0.0
147
1.0
147
0.0
147
0.0
147
0.0
147
0.0
147
1.0
  0
MATERIAL
  5
D9AC
102
{ACAD_REACTORS
330
18C
102
}
102
{ACAD_XDICTIONARY
360
1B13C
102
}
330
18C
100
AcDbMaterial
  1
GLOBAL
 72
     0
 73
     2
 43
0.0208333333333333
 43
0.0
 43
0.0
 43
0.0
 43
0.0
 43
0.0208333333333333
 43
0.0
 43
0.0
 43
0.0
 43
0.0
 43
1.0
 43
0.0
 43
0.0
 43
0.0
 43
0.0
 43
1.0
 77
     0
 78
     2
 47
0.0208333333333333
 47
0.0
 47
0.0
 47
0.0
 47
0.0
 47
0.0208333333333333
 47
0.0
 47
0.0
 47
0.0
 47
0.0
 47
1.0
 47
0.0
 47
0.0
 47
0.0
 47
0.0
 47
1.0
171
     0
172
     2
 49
0.0208333333333333
 49
0.0
 49
0.0
 49
0.0
 49
0.0
 49
0.0208333333333333
 49
0.0
 49
0.0
 49
0.0
 49
0.0
 49
1.0
 49
0.0
 49
0.0
 49
0.0
 49
0.0
 49
1.0
175
     0
176
     2
142
0.0208333333333333
142
0.0
142
0.0
142
0.0
142
0.0
142
0.0208333333333333
142
0.0
142
0.0
142
0.0
142
0.0
142
1.0
142
0.0
142
0.0
142
0.0
142
0.0
142
1.0
179
     0
270
     2
144
0.0208333333333333
144
0.0
144
0.0
144
0.0
144
0.0
144
0.0208333333333333
144
0.0
144
0.0
144
0.0
144
0.0
144
1.0
144
0.0
144
0.0
144
0.0
144
0.0
144
1.0
274
     2
147
0.0208333333333333
147
0.0
147
0.0
147
0.0
147
0.0
147
0.0208333333333333
147
0.0
147
0.0
147
0.0
147
0.0
147
1.0
147
0.0
147
0.0
147
0.0
147
0.0
147
1.0
  0
ACAD_PROXY_OBJECT
  5
D9E8
102
{ACAD_REACTORS
330
D9E7
102
}
330
D9E7
100
AcDbZombieObject
 90
      499
 91
      511
 93
      610
310
40901902A4063FBFFFFFE000000000000002040AD7A3703D0AD73F4214DD185B99185C990000000000000104090141901A00000000000004100000000000000041025764000000000000300FC0
340
12
340
0
340
F
340
0
 94
        0
1001
ACAD_MLEADERVER
1070
     2
  0
MLINESTYLE
  5
1C
102
{ACAD_REACTORS
330
1B
102
}
330
1B
100
AcDbMlineStyle
  2
STANDARD
 70
     0
  3

 62
   256
 51
90.0
 52
90.0
 71
     2
 49
0.5
 62
   256
  6
BYLAYER
 49
-0.5
 62
   256
  6
BYLAYER
  0
ACAD_PROXY_OBJECT
  5
D9C6
102
{ACAD_REACTORS
330
D9C5
102
}
330
D9C5
100
AcDbZombieObject
 90
      499
 91
      510
 93
       41
310
903313A31580
  0
ACAD_PROXY_OBJECT
  5
D9C7
102
{ACAD_REACTORS
330
D9C5
102
}
330
D9C5
100
AcDbZombieObject
 90
      499
 91
      510
 93
      105
310
903313A324000000000000004000
  0
ACAD_PROXY_OBJECT
  5
D9C8
102
{ACAD_REACTORS
330
D9C5
102
}
330
D9C5
100
AcDbZombieObject
 90
      499
 91
      510
 93
      105
310
903313A344000000000000104000
  0
ACAD_PROXY_OBJECT
  5
D9C9
102
{ACAD_REACTORS
330
D9C5
102
}
330
D9C5
100
AcDbZombieObject
 90
      499
 91
      510
 93
      105
310
903313A354000000000000144000
  0
ACAD_PROXY_OBJECT
  5
D9CA
102
{ACAD_REACTORS
330
D9C5
102
}
330
D9C5
100
AcDbZombieObject
 90
      499
 91
      510
 93
      105
310
903313A384000000000000204000
  0
ACAD_PROXY_OBJECT
  5
D9CB
102
{ACAD_REACTORS
330
D9C5
102
}
330
D9C5
100
AcDbZombieObject
 90
      499
 91
      510
 93
      113
310
904313A31304000000000000244000
  0
ACAD_PROXY_OBJECT
  5
D9CC
102
{ACAD_REACTORS
330
D9C5
102
}
330
D9C5
100
AcDbZombieObject
 90
      499
 91
      510
 93
      113
310
904313A31364000000000000304000
  0
ACAD_PROXY_OBJECT
  5
D9CD
102
{ACAD_REACTORS
330
D9C5
102
}
330
D9C5
100
AcDbZombieObject
 90
      499
 91
      510
 93
      113
310
904313A32304000000000000344000
  0
ACAD_PROXY_OBJECT
  5
D9CE
102
{ACAD_REACTORS
330
D9C5
102
}
330
D9C5
100
AcDbZombieObject
 90
      499
 91
      510
 93
      113
310
904313A333040000000000003E4000
  0
ACAD_PROXY_OBJECT
  5
D9CF
102
{ACAD_REACTORS
330
D9C5
102
}
330
D9C5
100
AcDbZombieObject
 90
      499
 91
      510
 93
      113
310
904313A34304000000000000444000
  0
ACAD_PROXY_OBJECT
  5
D9D0
102
{ACAD_REACTORS
330
D9C5
102
}
330
D9C5
100
AcDbZombieObject
 90
      499
 91
      510
 93
      113
310
904313A35304000000000000494000
  0
ACAD_PROXY_OBJECT
  5
D9D1
102
{ACAD_REACTORS
330
D9C5
102
}
330
D9C5
100
AcDbZombieObject
 90
      499
 91
      510
 93
      121
310
905313A3130304000000000000594000
  0
ACAD_PROXY_OBJECT
  5
D9D2
102
{ACAD_REACTORS
330
D9C5
102
}
330
D9C5
100
AcDbZombieObject
 90
      499
 91
      510
 93
      105
310
903323A310000000000000010100
  0
ACAD_PROXY_OBJECT
  5
D9D3
102
{ACAD_REACTORS
330
D9C5
102
}
330
D9C5
100
AcDbZombieObject
 90
      499
 91
      510
 93
      105
310
903343A310000000000000410100
  0
ACAD_PROXY_OBJECT
  5
D9D4
102
{ACAD_REACTORS
330
D9C5
102
}
330
D9C5
100
AcDbZombieObject
 90
      499
 91
      510
 93
      105
310
903383A310000000000000810100
  0
ACAD_PROXY_OBJECT
  5
D9D5
102
{ACAD_REACTORS
330
D9C5
102
}
330
D9C5
100
AcDbZombieObject
 90
      499
 91
      510
 93
      113
310
90431303A310000000000000910100
  0
ACAD_PROXY_OBJECT
  5
D9D6
102
{ACAD_REACTORS
330
D9C5
102
}
330
D9C5
100
AcDbZombieObject
 90
      499
 91
      510
 93
      121
310
9053130303A310000000000001650100
  0
ACAD_PROXY_OBJECT
  5
D9D7
102
{ACAD_REACTORS
330
D9C5
102
}
330
D9C5
100
AcDbZombieObject
 90
      499
 91
      510
 93
      257
310
90E312F31323822203D2031272D3022000000000000200FC000000000000284000
  0
ACAD_PROXY_OBJECT
  5
D9D8
102
{ACAD_REACTORS
330
D9C5
102
}
330
D9C5
100
AcDbZombieObject
 90
      499
 91
      510
 93
      249
310
90D312F363422203D2031272D3022000000000000240FC000000000000284000
  0
ACAD_PROXY_OBJECT
  5
D9D9
102
{ACAD_REACTORS
330
D9C5
102
}
330
D9C5
100
AcDbZombieObject
 90
      499
 91
      510
 93
      249
310
90D312F333222203D2031272D3022000000000000280FC000000000000284000
  0
ACAD_PROXY_OBJECT
  5
D9DA
102
{ACAD_REACTORS
330
D9C5
102
}
330
D9C5
100
AcDbZombieObject
 90
      499
 91
      510
 93
      249
310
90D312F313622203D2031272D30220000000000002C0FC000000000000284000
  0
ACAD_PROXY_OBJECT
  5
D9DB
102
{ACAD_REACTORS
330
D9C5
102
}
330
D9C5
100
AcDbZombieObject
 90
      499
 91
      510
 93
      249
310
90D332F333222203D2031272D30220000000000002E0FC000000000000284000
  0
ACAD_PROXY_OBJECT
  5
D9DC
102
{ACAD_REACTORS
330
D9C5
102
}
330
D9C5
100
AcDbZombieObject
 90
      499
 91
      510
 93
      241
310
90C312F3822203D2031272D3022000000000000300FC000000000000284000
  0
ACAD_PROXY_OBJECT
  5
D9DD
102
{ACAD_REACTORS
330
D9C5
102
}
330
D9C5
100
AcDbZombieObject
 90
      499
 91
      510
 93
      249
310
90D332F313622203D2031272D3022000000000000320FC000000000000284000
  0
ACAD_PROXY_OBJECT
  5
D9DE
102
{ACAD_REACTORS
330
D9C5
102
}
330
D9C5
100
AcDbZombieObject
 90
      499
 91
      510
 93
      241
310
90C312F3422203D2031272D3022000000000000340FC000000000000284000
  0
ACAD_PROXY_OBJECT
  5
D9DF
102
{ACAD_REACTORS
330
D9C5
102
}
330
D9C5
100
AcDbZombieObject
 90
      499
 91
      510
 93
      241
310
90C332F3822203D2031272D3022000000000000360FC000000000000284000
  0
ACAD_PROXY_OBJECT
  5
D9E0
102
{ACAD_REACTORS
330
D9C5
102
}
330
D9C5
100
AcDbZombieObject
 90
      499
 91
      510
 93
      241
310
90C312F3222203D2031272D3022000000000000380FC000000000000284000
  0
ACAD_PROXY_OBJECT
  5
D9E1
102
{ACAD_REACTORS
330
D9C5
102
}
330
D9C5
100
AcDbZombieObject
 90
      499
 91
      510
 93
      241
310
90C332F3422203D2031272D30220000000000003A0FC000000000000284000
  0
ACAD_PROXY_OBJECT
  5
D9E2
102
{ACAD_REACTORS
330
D9C5
102
}
330
D9C5
100
AcDbZombieObject
 90
      499
 91
      510
 93
      161
310
90A3122203D2031272D30224000000000000284000
  0
ACAD_PROXY_OBJECT
  5
D9E3
102
{ACAD_REACTORS
330
D9C5
102
}
330
D9C5
100
AcDbZombieObject
 90
      499
 91
      510
 93
      257
310
90E312D312F3222203D2031272D30220000000000003E0FC000000000000284000
  0
ACAD_PROXY_OBJECT
  5
D9E4
102
{ACAD_REACTORS
330
D9C5
102
}
330
D9C5
100
AcDbZombieObject
 90
      499
 91
      510
 93
      225
310
90A3322203D2031272D302200000000000002100000000000000284000
  0
ACAD_PROXY_OBJECT
  5
D9E5
102
{ACAD_REACTORS
330
D9C5
102
}
330
D9C5
100
AcDbZombieObject
 90
      499
 91
      510
 93
      225
310
90A3622203D2031272D302200000000000006100000000000000284000
  0
ACAD_PROXY_OBJECT
  5
D9E6
102
{ACAD_REACTORS
330
D9C5
102
}
330
D9C5
100
AcDbZombieObject
 90
      499
 91
      510
 93
      249
310
90D31272D3022203D2031272D30220000000000000A100000000000000284000
  0
ACAD_PROXY_OBJECT
  5
D9BA
102
{ACAD_REACTORS
330
D9B4
102
}
330
D9B4
100
AcDbZombieObject
 90
      499
 91
      509
 93
      436
310
42CC9915DA5C99599C985B595049028333333333333E3BF0000000000000FB0107901411070040501600405405064090741402480A0340
1001
ACAD
1000
AcDbSavedByObjectVersion
1070
     0
  0
ACAD_PROXY_OBJECT
  5
D9BC
102
{ACAD_REACTORS
330
D9B4
102
}
330
D9B4
100
AcDbZombieObject
 90
      499
 91
      509
 93
      500
310
424CD108121A5919195B90640502408333333333333E3BF0000000000000FB01079024090700405020000000000001110200405405064090740C02480A0340
1001
ACAD
1000
AcDbSavedByObjectVersion
1070
     0
  0
ACAD_PROXY_OBJECT
  5
D9BB
102
{ACAD_REACTORS
330
D9B4
102
}
330
D9B4
100
AcDbZombieObject
 90
      499
 91
      509
 93
      436
310
42CCD915DA5C99599C985B595059028333333333333E3BF0000000000000FB0107901411070040501600405405064090741402480A0340
1001
ACAD
1000
AcDbSavedByObjectVersion
1070
     0
  0
ACAD_PROXY_OBJECT
  5
D9B9
102
{ACAD_REACTORS
330
D9B4
102
}
330
D9B4
100
AcDbZombieObject
 90
      499
 91
      509
 93
      388
310
4150985CDA58D07406404333333333333E3BF0000000000000FB0107A41107004050150841D405064090741402480A0350
1001
ACAD
1000
AcDbSavedByObjectVersion
1070
     0
  0
ACAD_PROXY_OBJECT
  5
D9C0
102
{ACAD_REACTORS
330
D9B4
102
}
330
D9B4
100
AcDbZombieObject
 90
      499
 91
      509
 93
      428
310
42109C9A59DA1D195B90C409028333333333333E3BF0000000000000FB010790141107004050150841D405064090741402480A029950
1001
ACAD
1000
AcDbSavedByObjectVersion
1070
     0
  0
ACAD_PROXY_OBJECT
  5
D9C4
102
{ACAD_REACTORS
330
D9B4
102
}
330
D9B4
100
AcDbZombieObject
 90
      499
 91
      509
 93
      452
310
42D0DBDB1BDC90DA185B99D95104090240C333333333333E3BF0000000000000FB0108901411070040501508421405064090741402480A0350
1001
ACAD
1000
AcDbSavedByObjectVersion
1070
     0
  0
ACAD_PROXY_OBJECT
  5
D9BD
102
{ACAD_REACTORS
330
D9B4
102
}
330
D9B4
100
AcDbZombieObject
 90
      499
 91
      509
 93
      500
310
4290DBDB98D95C1D1D585B10940D028333333333333E3BF0000000000000FB0107902409070040501000000000000111010841D405064090740C02480A0340
1001
ACAD
1000
AcDbSavedByObjectVersion
1070
     0
  0
ACAD_PROXY_OBJECT
  5
D9BF
102
{ACAD_REACTORS
330
D9B4
102
}
330
D9B4
100
AcDbZombieObject
 90
      499
 91
      509
 93
      412
310
40D11A5B50B409028333333333333E3BF0000000000000FB010790141107004050150841D405064090741402480A02677FFFFFD0
1001
ACAD
1000
AcDbSavedByObjectVersion
1070
     0
  0
ACAD_PROXY_OBJECT
  5
19C2F
102
{ACAD_REACTORS
330
D9B4
102
}
330
D9B4
100
AcDbZombieObject
 90
      499
 91
      509
 93
      452
310
43115919D950DBDB1BDC93D999916409028333333333333E3BF0000000000000FB010790141107004050150841D405064090741402480A0350
1001
ACAD
1000
AcDbSavedByObjectVersion
1070
     0
  0
ACAD_PROXY_OBJECT
  5
D9C3
102
{ACAD_REACTORS
330
D9B4
102
}
330
D9B4
100
AcDbZombieObject
 90
      499
 91
      509
 93
      444
310
42D19858D95C185D1D195C9B90F409028333333333333E3BF0000000000000FB010790141107004050150841D405064090741402480A0350
1001
ACAD
1000
AcDbSavedByObjectVersion
1070
     0
  0
ACAD_PROXY_OBJECT
  5
D9B5
102
{ACAD_REACTORS
330
D9B4
102
}
330
D9B4
100
AcDbZombieObject
 90
      499
 91
      509
 93
      388
310
41119B185D240901404333333333333E3BF0000000000000F9010740A41107004050150841D405064090741402480A1B50
1001
ACAD
1000
AcDbSavedByObjectVersion
1070
     0
  0
ACAD_PROXY_OBJECT
  5
D9B6
102
{ACAD_REACTORS
330
D9B4
102
}
330
D9B4
100
AcDbZombieObject
 90
      499
 91
      509
 93
      476
310
43519B185D15DA5D1A115919D95CD0140901404333333333333E3BF0000000000000F9010740901411070040501600405405064090741402480A1B50
1001
ACAD
1000
AcDbSavedByObjectVersion
1070
     0
  0
ACAD_PROXY_OBJECT
  5
D9B7
102
{ACAD_REACTORS
330
D9B4
102
}
330
D9B4
100
AcDbZombieObject
 90
      499
 91
      509
 93
      412
310
41D1DBDD5C985D5910240902404333333333333E3BF0000000000000F9010740A411070040501641D405064090741402480A1B50
1001
ACAD
1000
AcDbSavedByObjectVersion
1070
     0
  0
ACAD_PROXY_OBJECT
  5
D9B8
102
{ACAD_REACTORS
330
D9B4
102
}
330
D9B4
100
AcDbZombieObject
 90
      499
 91
      509
 93
      500
310
4411DBDD5C985D5915DA5D1A115919D95CD0340902404333333333333E3BF0000000000000F9010740901411070040501600405405064090741402480A1B50
1001
ACAD
1000
AcDbSavedByObjectVersion
1070
     0
  0
ACAD_PROXY_OBJECT
  5
19C7E
102
{ACAD_REACTORS
330
D9B4
102
}
330
D9B4
100
AcDbZombieObject
 90
      499
 91
      509
 93
      476
310
41921A5919195B90640502408333333333333E3BF0000000000000FB01079024090700405020000000000001110200405405064090740C02480A0340
1001
ACAD
1000
AcDbSavedByObjectVersion
1070
     0
  0
ACAD_PROXY_OBJECT
  5
19C2D
102
{ACAD_REACTORS
330
D9B4
102
}
330
D9B4
100
AcDbZombieObject
 90
      499
 91
      509
 93
      428
310
42529A5D1D195C93D999914409028333333333333E3BF0000000000000FB010790141107004050150A41D405064090741402480A0350
1001
ACAD
1000
AcDbSavedByObjectVersion
1070
     0
  0
ACAD_PROXY_OBJECT
  5
D9C2
102
{ACAD_REACTORS
330
D9B4
102
}
330
D9B4
100
AcDbZombieObject
 90
      499
 91
      509
 93
      444
310
42D31A5B995C185D1D195C9B90E409028333333333333E3BF0000000000000FB010790141107004050750841D405064090741402483A0350
1001
ACAD
1000
AcDbSavedByObjectVersion
1070
     0
  0
ACAD_PROXY_OBJECT
  5
19C84
102
{ACAD_REACTORS
330
D9B4
102
}
330
D9B4
100
AcDbZombieObject
 90
      499
 91
      509
 93
      484
310
42135BD9195B1A5B99D0A409028333333333333E3BF0000000000000F901074090290700405010000000000201990108421405064090741402480A1B40
1001
ACAD
1000
AcDbSavedByObjectVersion
1070
     0
  0
ACAD_PROXY_OBJECT
  5
19C2E
102
{ACAD_REACTORS
330
D9B4
102
}
330
D9B4
100
AcDbZombieObject
 90
      499
 91
      509
 93
      444
310
42D3DD995C9A185B99D3D999915409028333333333333E3BF0000000000000FB010790141107004050150941D405064090741402480A0350
1001
ACAD
1000
AcDbSavedByObjectVersion
1070
     0
  0
ACAD_PROXY_OBJECT
  5
D9BE
102
{ACAD_REACTORS
330
D9B4
102
}
330
D9B4
100
AcDbZombieObject
 90
      499
 91
      509
 93
      420
310
425499585B1A5CDD1A58D08409028333333333333E3BF0000000000000FB01079019070040501508421405064090741402480A1B40
1001
ACAD
1000
AcDbSavedByObjectVersion
1070
     0
  0
ACAD_PROXY_OBJECT
  5
19C83
102
{ACAD_REACTORS
330
D9B4
102
}
330
D9B4
100
AcDbZombieObject
 90
      499
 91
      509
 93
      420
310
4194DA1859195911B40902404333333333333E3BF0000000000000F9010740A41107004050150800405405064090840C02480A0B40
1001
ACAD
1000
AcDbSavedByObjectVersion
1070
     0
  0
ACAD_PROXY_OBJECT
  5
19C82
102
{ACAD_REACTORS
330
D9B4
102
}
330
D9B4
100
AcDbZombieObject
 90
      499
 91
      509
 93
      516
310
4454DA18591959081DDA5D1A08195919D95CD1A40902404333333333333E3BF0000000000000F901074090142907004050250800405405064090740C02480A0B40
1001
ACAD
1000
AcDbSavedByObjectVersion
1070
     0
  0
ACAD_PROXY_OBJECT
  5
19C7F
102
{ACAD_REACTORS
330
D9B4
102
}
330
D9B4
100
AcDbZombieObject
 90
      499
 91
      509
 93
      532
310
4394DA1859195CC81BD98811DC985E5174090240C333333333333E3BF0000000000000FB01079024090741D01000000000000111010841D405064090740C02480A0340
1001
ACAD
1000
AcDbSavedByObjectVersion
1070
     0
  0
ACAD_PROXY_OBJECT
  5
19C80
102
{ACAD_REACTORS
330
D9B4
102
}
330
D9B4
100
AcDbZombieObject
 90
      499
 91
      509
 93
      476
310
41D4DAD95D18DA1E51840502408333333333333E3BF0000000000000FB01079024090741D01000000000000111010B41D405064090741802480A0340
1001
ACAD
1000
AcDbSavedByObjectVersion
1070
     0
  0
ACAD_PROXY_OBJECT
  5
D9C1
102
{ACAD_REACTORS
330
D9B4
102
}
330
D9B4
100
AcDbZombieObject
 90
      499
 91
      509
 93
      412
310
41D51A1A58DAD95B90D409028333333333333E3BF0000000000000FB010790141107004050150C41D405064090741402480A0350
1001
ACAD
1000
AcDbSavedByObjectVersion
1070
     0
  0
ACAD_PROXY_OBJECT
  5
19C7D
102
{ACAD_REACTORS
330
D9B4
102
}
330
D9B4
100
AcDbZombieObject
 90
      499
 91
      509
 93
      420
310
4255DA5C99599C985B595059028333333333333E3BF0000000000000FB0107901411070040501600405405064090740C02480A0340
1001
ACAD
1000
AcDbSavedByObjectVersion
1070
     0
  0
ACAD_PROXY_OBJECT
  5
19C81
102
{ACAD_REACTORS
330
D9B4
102
}
330
D9B4
100
AcDbZombieObject
 90
      499
 91
      509
 93
      404
310
41560B54985E51940902404000000000000E03F0000000000000FB010740501907004050150841D405064090740C02480A1B40
1001
ACAD
1000
AcDbSavedByObjectVersion
1070
     0
  0
XRECORD
  5
1AF9B
102
{ACAD_REACTORS
330
1AF9A
102
}
330
1AF9A
100
AcDbXrecord
340
18D
  0
XRECORD
  5
1AF9C
102
{ACAD_REACTORS
330
1AF9A
102
}
330
1AF9A
100
AcDbXrecord
340
18C
  0
DICTIONARYVAR
  5
1AE48
102
{ACAD_REACTORS
330
37
102
}
330
37
100
DictionaryVariables
280
     0
  1
1:1
  0
DICTIONARYVAR
  5
DA6A
102
{ACAD_REACTORS
330
37
102
}
330
37
100
DictionaryVariables
280
     0
  1
Standard
  0
DICTIONARYVAR
  5
29E
102
{ACAD_REACTORS
330
37
102
}
330
37
100
DictionaryVariables
280
     0
  1
Standard
  0
DICTIONARYVAR
  5
38
102
{ACAD_REACTORS
330
37
102
}
330
37
100
DictionaryVariables
280
     0
  1
-1
  0
DICTIONARYVAR
  5
1CE
102
{ACAD_REACTORS
330
37
102
}
330
37
100
DictionaryVariables
280
     0
  1
2
  0
DICTIONARYVAR
  5
704E
102
{ACAD_REACTORS
330
37
102
}
330
37
100
DictionaryVariables
280
     0
  1
1
  0
DICTIONARYVAR
  5
DA6D
102
{ACAD_REACTORS
330
37
102
}
330
37
100
DictionaryVariables
280
     0
  1
0
  0
DICTIONARYVAR
  5
7052
102
{ACAD_REACTORS
330
37
102
}
330
37
100
DictionaryVariables
280
     0
  1
8
  0
DICTIONARYVAR
  5
7051
102
{ACAD_REACTORS
330
37
102
}
330
37
100
DictionaryVariables
280
     0
  1
1
  0
DICTIONARYVAR
  5
1A6DD
102
{ACAD_REACTORS
330
37
102
}
330
37
100
DictionaryVariables
280
     0
  1
0
  0
DICTIONARYVAR
  5
704F
102
{ACAD_REACTORS
330
37
102
}
330
37
100
DictionaryVariables
280
     0
  1
8
  0
DICTIONARYVAR
  5
7050
102
{ACAD_REACTORS
330
37
102
}
330
37
100
DictionaryVariables
280
     0
  1
2
  0
DICTIONARYVAR
  5
1CF
102
{ACAD_REACTORS
330
37
102
}
330
37
100
DictionaryVariables
280
     0
  1

  0
DICTIONARYVAR
  5
DA6C
102
{ACAD_REACTORS
330
37
102
}
330
37
100
DictionaryVariables
280
     0
  1
127
  0
DICTIONARYVAR
  5
1AE27
102
{ACAD_REACTORS
330
37
102
}
330
37
100
DictionaryVariables
280
     0
  1
2
  0
DICTIONARY
  5
1B138
330
D9A4
100
AcDbDictionary
  3
ACAD_XREC_ROUNDTRIP
360
1B139
1001
ACAD
1000
TREAT_AS_HARD
1070
     1
  0
DICTIONARY
  5
1B13A
330
D99C
100
AcDbDictionary
  3
ACAD_XREC_ROUNDTRIP
360
1B13B
1001
ACAD
1000
TREAT_AS_HARD
1070
     1
  0
DICTIONARY
  5
1B13C
330
D9AC
100
AcDbDictionary
  3
ACAD_XREC_ROUNDTRIP
360
1B13D
1001
ACAD
1000
TREAT_AS_HARD
1070
     1
  0
XRECORD
  5
1B139
102
{ACAD_REACTORS
330
1B138
102
}
330
1B138
100
AcDbXrecord
102
MATERIAL
148
0.0
149
0.0
149
0.0
 93
        0
 94
      127
282
     0
 72
     0
 77
     0
171
     0
175
     0
179
     0
273
     0
  0
XRECORD
  5
1B13B
102
{ACAD_REACTORS
330
1B13A
102
}
330
1B13A
100
AcDbXrecord
102
MATERIAL
148
0.0
149
0.0
149
0.0
 93
        0
 94
      127
282
     0
 72
     0
 77
     0
171
     0
175
     0
179
     0
273
     0
  0
XRECORD
  5
1B13D
102
{ACAD_REACTORS
330
1B13C
102
}
330
1B13C
100
AcDbXrecord
102
MATERIAL
148
0.0
149
0.0
149
0.0
 93
        0
 94
      127
282
     0
 72
     0
 77
     0
171
     0
175
     0
179
     0
273
     0
  0
ENDSEC
  0
EOF
